  0
SECTION
  2
HEADER
  9
$ACADVER
  1
AC1027
  9
$ACADMAINTVER
 70
    20
  9
$DWGCODEPAGE
  3
ANSI_1252
  9
$REQUIREDVERSIONS
160
                 0
  9
$INSBASE
 10
0.0
 20
0.0
 30
0.0
  9
$EXTMIN
 10
734.7674137219452
 20
1436.634727973283
 30
-0.00000001
  9
$EXTMAX
 10
1318.427848847828
 20
2072.351766325775
 30
0.00000001
  9
$LIMMIN
 10
0.0
 20
0.0
  9
$LIMMAX
 10
12.0
 20
9.0
  9
$ORTHOMODE
 70
     0
  9
$REGENMODE
 70
     1
  9
$FILLMODE
 70
     1
  9
$QTEXTMODE
 70
     0
  9
$MIRRTEXT
 70
     0
  9
$LTSCALE
 40
1.0
  9
$ATTMODE
 70
     1
  9
$TEXTSIZE
 40
0.2
  9
$TRACEWID
 40
0.05
  9
$TEXTSTYLE
  7
Standard
  9
$CLAYER
  8
0
  9
$CELTYPE
  6
ByLayer
  9
$CECOLOR
 62
   256
  9
$CELTSCALE
 40
1.0
  9
$DISPSILH
 70
     0
  9
$DIMSCALE
 40
1.0
  9
$DIMASZ
 40
0.18
  9
$DIMEXO
 40
0.0625
  9
$DIMDLI
 40
0.38
  9
$DIMRND
 40
0.0
  9
$DIMDLE
 40
0.0
  9
$DIMEXE
 40
0.18
  9
$DIMTP
 40
0.0
  9
$DIMTM
 40
0.0
  9
$DIMTXT
 40
0.18
  9
$DIMCEN
 40
0.09
  9
$DIMTSZ
 40
0.0
  9
$DIMTOL
 70
     0
  9
$DIMLIM
 70
     0
  9
$DIMTIH
 70
     1
  9
$DIMTOH
 70
     1
  9
$DIMSE1
 70
     0
  9
$DIMSE2
 70
     0
  9
$DIMTAD
 70
     0
  9
$DIMZIN
 70
     0
  9
$DIMBLK
  1

  9
$DIMASO
 70
     1
  9
$DIMSHO
 70
     1
  9
$DIMPOST
  1

  9
$DIMAPOST
  1

  9
$DIMALT
 70
     0
  9
$DIMALTD
 70
     2
  9
$DIMALTF
 40
25.4
  9
$DIMLFAC
 40
1.0
  9
$DIMTOFL
 70
     0
  9
$DIMTVP
 40
0.0
  9
$DIMTIX
 70
     0
  9
$DIMSOXD
 70
     0
  9
$DIMSAH
 70
     0
  9
$DIMBLK1
  1

  9
$DIMBLK2
  1

  9
$DIMSTYLE
  2
Standard
  9
$DIMCLRD
 70
     0
  9
$DIMCLRE
 70
     0
  9
$DIMCLRT
 70
     0
  9
$DIMTFAC
 40
1.0
  9
$DIMGAP
 40
0.09
  9
$DIMJUST
 70
     0
  9
$DIMSD1
 70
     0
  9
$DIMSD2
 70
     0
  9
$DIMTOLJ
 70
     1
  9
$DIMTZIN
 70
     0
  9
$DIMALTZ
 70
     0
  9
$DIMALTTZ
 70
     0
  9
$DIMUPT
 70
     0
  9
$DIMDEC
 70
     4
  9
$DIMTDEC
 70
     4
  9
$DIMALTU
 70
     2
  9
$DIMALTTD
 70
     2
  9
$DIMTXSTY
  7
Standard
  9
$DIMAUNIT
 70
     0
  9
$DIMADEC
 70
     0
  9
$DIMALTRND
 40
0.0
  9
$DIMAZIN
 70
     0
  9
$DIMDSEP
 70
    46
  9
$DIMATFIT
 70
     3
  9
$DIMFRAC
 70
     0
  9
$DIMLDRBLK
  1

  9
$DIMLUNIT
 70
     2
  9
$DIMLWD
 70
    -2
  9
$DIMLWE
 70
    -2
  9
$DIMTMOVE
 70
     0
  9
$DIMFXL
 40
1.0
  9
$DIMFXLON
 70
     0
  9
$DIMJOGANG
 40
0.7853981633974483
  9
$DIMTFILL
 70
     0
  9
$DIMTFILLCLR
 70
     0
  9
$DIMARCSYM
 70
     0
  9
$DIMLTYPE
  6

  9
$DIMLTEX1
  6

  9
$DIMLTEX2
  6

  9
$DIMTXTDIRECTION
 70
     0
  9
$LUNITS
 70
     2
  9
$LUPREC
 70
     4
  9
$SKETCHINC
 40
0.1
  9
$FILLETRAD
 40
0.0
  9
$AUNITS
 70
     0
  9
$AUPREC
 70
     0
  9
$MENU
  1
.
  9
$ELEVATION
 40
0.0
  9
$PELEVATION
 40
0.0
  9
$THICKNESS
 40
0.0
  9
$LIMCHECK
 70
     0
  9
$CHAMFERA
 40
0.0
  9
$CHAMFERB
 40
0.0
  9
$CHAMFERC
 40
0.0
  9
$CHAMFERD
 40
0.0
  9
$SKPOLY
 70
     0
  9
$TDCREATE
 40
2457585.444586528
  9
$TDUCREATE
 40
2457585.361253195
  9
$TDUPDATE
 40
2457585.444586528
  9
$TDUUPDATE
 40
2457585.361253195
  9
$TDINDWG
 40
0.0000208449
  9
$TDUSRTIMER
 40
0.0000208449
  9
$USRTIMER
 70
     1
  9
$ANGBASE
 50
0.0
  9
$ANGDIR
 70
     0
  9
$PDMODE
 70
     0
  9
$PDSIZE
 40
0.0
  9
$PLINEWID
 40
0.0
  9
$SPLFRAME
 70
     0
  9
$SPLINETYPE
 70
     6
  9
$SPLINESEGS
 70
     8
  9
$HANDSEED
  5
2F1
  9
$SURFTAB1
 70
     6
  9
$SURFTAB2
 70
     6
  9
$SURFTYPE
 70
     6
  9
$SURFU
 70
     6
  9
$SURFV
 70
     6
  9
$UCSBASE
  2

  9
$UCSNAME
  2

  9
$UCSORG
 10
0.0
 20
0.0
 30
0.0
  9
$UCSXDIR
 10
1.0
 20
0.0
 30
0.0
  9
$UCSYDIR
 10
0.0
 20
1.0
 30
0.0
  9
$UCSORTHOREF
  2

  9
$UCSORTHOVIEW
 70
     0
  9
$UCSORGTOP
 10
0.0
 20
0.0
 30
0.0
  9
$UCSORGBOTTOM
 10
0.0
 20
0.0
 30
0.0
  9
$UCSORGLEFT
 10
0.0
 20
0.0
 30
0.0
  9
$UCSORGRIGHT
 10
0.0
 20
0.0
 30
0.0
  9
$UCSORGFRONT
 10
0.0
 20
0.0
 30
0.0
  9
$UCSORGBACK
 10
0.0
 20
0.0
 30
0.0
  9
$PUCSBASE
  2

  9
$PUCSNAME
  2

  9
$PUCSORG
 10
0.0
 20
0.0
 30
0.0
  9
$PUCSXDIR
 10
1.0
 20
0.0
 30
0.0
  9
$PUCSYDIR
 10
0.0
 20
1.0
 30
0.0
  9
$PUCSORTHOREF
  2

  9
$PUCSORTHOVIEW
 70
     0
  9
$PUCSORGTOP
 10
0.0
 20
0.0
 30
0.0
  9
$PUCSORGBOTTOM
 10
0.0
 20
0.0
 30
0.0
  9
$PUCSORGLEFT
 10
0.0
 20
0.0
 30
0.0
  9
$PUCSORGRIGHT
 10
0.0
 20
0.0
 30
0.0
  9
$PUCSORGFRONT
 10
0.0
 20
0.0
 30
0.0
  9
$PUCSORGBACK
 10
0.0
 20
0.0
 30
0.0
  9
$USERI1
 70
     0
  9
$USERI2
 70
     0
  9
$USERI3
 70
     0
  9
$USERI4
 70
     0
  9
$USERI5
 70
     0
  9
$USERR1
 40
0.0
  9
$USERR2
 40
0.0
  9
$USERR3
 40
0.0
  9
$USERR4
 40
0.0
  9
$USERR5
 40
0.0
  9
$WORLDVIEW
 70
     1
  9
$SHADEDGE
 70
     3
  9
$SHADEDIF
 70
    70
  9
$TILEMODE
 70
     1
  9
$MAXACTVP
 70
    64
  9
$PINSBASE
 10
0.0
 20
0.0
 30
0.0
  9
$PLIMCHECK
 70
     0
  9
$PEXTMIN
 10
1.000000000000000E+20
 20
1.000000000000000E+20
 30
1.000000000000000E+20
  9
$PEXTMAX
 10
-1.000000000000000E+20
 20
-1.000000000000000E+20
 30
-1.000000000000000E+20
  9
$PLIMMIN
 10
0.0
 20
0.0
  9
$PLIMMAX
 10
12.0
 20
9.0
  9
$UNITMODE
 70
     0
  9
$VISRETAIN
 70
     1
  9
$PLINEGEN
 70
     0
  9
$PSLTSCALE
 70
     1
  9
$TREEDEPTH
 70
  3020
  9
$CMLSTYLE
  2
Standard
  9
$CMLJUST
 70
     0
  9
$CMLSCALE
 40
1.0
  9
$PROXYGRAPHICS
 70
     1
  9
$MEASUREMENT
 70
     1
  9
$CELWEIGHT
370
    -1
  9
$ENDCAPS
280
     0
  9
$JOINSTYLE
280
     0
  9
$LWDISPLAY
290
     0
  9
$INSUNITS
 70
     4
  9
$HYPERLINKBASE
  1

  9
$STYLESHEET
  1

  9
$XEDIT
290
     1
  9
$CEPSNTYPE
380
     0
  9
$PSTYLEMODE
290
     1
  9
$FINGERPRINTGUID
  2
{1BFCD5E7-8D49-49AD-9F7D-EB979D7C24D0}
  9
$VERSIONGUID
  2
{57034FDC-56BF-41A3-A947-3276D79DFE2B}
  9
$EXTNAMES
290
     1
  9
$PSVPSCALE
 40
0.0
  9
$OLESTARTUP
290
     0
  9
$SORTENTS
280
   127
  9
$INDEXCTL
280
     0
  9
$HIDETEXT
280
     1
  9
$XCLIPFRAME
280
     2
  9
$HALOGAP
280
     0
  9
$OBSCOLOR
 70
   257
  9
$OBSLTYPE
280
     0
  9
$INTERSECTIONDISPLAY
280
     0
  9
$INTERSECTIONCOLOR
 70
   257
  9
$DIMASSOC
280
     2
  9
$PROJECTNAME
  1

  9
$CAMERADISPLAY
290
     0
  9
$LENSLENGTH
 40
50.0
  9
$CAMERAHEIGHT
 40
0.0
  9
$STEPSPERSEC
 40
2.0
  9
$STEPSIZE
 40
6.0
  9
$3DDWFPREC
 40
2.0
  9
$PSOLWIDTH
 40
0.25
  9
$PSOLHEIGHT
 40
4.0
  9
$LOFTANG1
 40
1.570796326794896
  9
$LOFTANG2
 40
1.570796326794896
  9
$LOFTMAG1
 40
0.0
  9
$LOFTMAG2
 40
0.0
  9
$LOFTPARAM
 70
     7
  9
$LOFTNORMALS
280
     1
  9
$LATITUDE
 40
37.795
  9
$LONGITUDE
 40
-122.394
  9
$NORTHDIRECTION
 40
0.0
  9
$TIMEZONE
 70
 -8000
  9
$LIGHTGLYPHDISPLAY
280
     1
  9
$TILEMODELIGHTSYNCH
280
     1
  9
$CMATERIAL
347
11
  9
$SOLIDHIST
280
     0
  9
$SHOWHIST
280
     1
  9
$DWFFRAME
280
     2
  9
$DGNFRAME
280
     0
  9
$REALWORLDSCALE
290
     1
  9
$INTERFERECOLOR
 62
     1
  9
$INTERFEREOBJVS
345
33
  9
$INTERFEREVPVS
346
30
  9
$CSHADOW
280
     0
  9
$SHADOWPLANELOCATION
 40
0.0
  0
ENDSEC
  0
SECTION
  2
CLASSES
  0
CLASS
  1
ACDBDICTIONARYWDFLT
  2
AcDbDictionaryWithDefault
  3
ObjectDBX Classes
 90
        0
 91
        1
280
     0
281
     0
  0
CLASS
  1
MATERIAL
  2
AcDbMaterial
  3
ObjectDBX Classes
 90
     1153
 91
        3
280
     0
281
     0
  0
CLASS
  1
VISUALSTYLE
  2
AcDbVisualStyle
  3
ObjectDBX Classes
 90
     4095
 91
       24
280
     0
281
     0
  0
CLASS
  1
SCALE
  2
AcDbScale
  3
ObjectDBX Classes
 90
     1153
 91
       17
280
     0
281
     0
  0
CLASS
  1
TABLESTYLE
  2
AcDbTableStyle
  3
ObjectDBX Classes
 90
     4095
 91
        1
280
     0
281
     0
  0
CLASS
  1
MLEADERSTYLE
  2
AcDbMLeaderStyle
  3
ACDB_MLEADERSTYLE_CLASS
 90
     4095
 91
        1
280
     0
281
     0
  0
CLASS
  1
ACDBSECTIONVIEWSTYLE
  2
AcDbSectionViewStyle
  3
ObjectDBX Classes
 90
     1025
 91
        1
280
     0
281
     0
  0
CLASS
  1
ACDBDETAILVIEWSTYLE
  2
AcDbDetailViewStyle
  3
ObjectDBX Classes
 90
     1025
 91
        1
280
     0
281
     0
  0
CLASS
  1
RASTERVARIABLES
  2
AcDbRasterVariables
  3
ISM
 90
        0
 91
        1
280
     0
281
     0
  0
CLASS
  1
DICTIONARYVAR
  2
AcDbDictionaryVar
  3
ObjectDBX Classes
 90
        0
 91
        5
280
     0
281
     0
  0
CLASS
  1
CELLSTYLEMAP
  2
AcDbCellStyleMap
  3
ObjectDBX Classes
 90
     1152
 91
        2
280
     0
281
     0
  0
CLASS
  1
SORTENTSTABLE
  2
AcDbSortentsTable
  3
ObjectDBX Classes
 90
        0
 91
        1
280
     0
281
     0
  0
ENDSEC
  0
SECTION
  2
TABLES
  0
TABLE
  2
VPORT
  5
8
330
0
100
AcDbSymbolTable
 70
     1
  0
VPORT
  5
57
330
8
100
AcDbSymbolTableRecord
100
AcDbViewportTableRecord
  2
*Active
 70
     0
 10
0.0
 20
0.0
 11
1.0
 21
1.0
 12
1026.597631284887
 22
1754.493247149528
 13
0.0
 23
0.0
 14
1.0
 24
1.0
 15
0.0
 25
0.0
 16
0.0
 26
0.0
 36
1.0
 17
0.0
 27
0.0
 37
0.0
 40
635.7170383524913
 41
0.918113562975256
 42
50.0
 43
0.0
 44
0.0
 50
0.0
 51
0.0
 71
     0
 72
  1000
 73
     1
 74
     1
 75
     0
 76
     0
 77
     0
 78
     0
281
     0
 65
     1
110
0.0
120
0.0
130
0.0
111
1.0
121
0.0
131
0.0
112
0.0
122
1.0
132
0.0
 79
     0
146
0.0
 60
     3
 61
     5
292
     1
282
     1
141
0.0
142
0.0
 63
   250
421
  3355443
  0
ENDTAB
  0
TABLE
  2
LTYPE
  5
5
330
0
100
AcDbSymbolTable
 70
     3
  0
LTYPE
  5
5B
330
5
100
AcDbSymbolTableRecord
100
AcDbLinetypeTableRecord
  2
ByBlock
 70
     0
  3

 72
    65
 73
     0
 40
0.0
  0
LTYPE
  5
5C
330
5
100
AcDbSymbolTableRecord
100
AcDbLinetypeTableRecord
  2
ByLayer
 70
     0
  3

 72
    65
 73
     0
 40
0.0
  0
LTYPE
  5
5D
330
5
100
AcDbSymbolTableRecord
100
AcDbLinetypeTableRecord
  2
Continuous
 70
     0
  3
Solid line
 72
    65
 73
     0
 40
0.0
  0
LTYPE
  5
69
330
5
100
AcDbSymbolTableRecord
100
AcDbLinetypeTableRecord
  2
PHANTOM2
 70
     0
  3
___ _ _ ___ _ _ ___ _ _ ___ _ _
 72
    65
 73
     6
 40
1.25
 49
0.625
 74
     0
 49
-0.125
 74
     0
 49
0.125
 74
     0
 49
-0.125
 74
     0
 49
0.125
 74
     0
 49
-0.125
 74
     0
  0
LTYPE
  5
86
330
5
100
AcDbSymbolTableRecord
100
AcDbLinetypeTableRecord
  2
Nascosto 1_5 mm
 70
     0
  3

 72
    65
 73
     2
 40
2.2
 49
1.5
 74
     0
 49
-0.7000000000000001
 74
     0
  0
ENDTAB
  0
TABLE
  2
LAYER
  5
2
330
0
100
AcDbSymbolTable
 70
     3
  0
LAYER
  5
54
330
2
100
AcDbSymbolTableRecord
100
AcDbLayerTableRecord
  2
0
 70
     0
 62
     7
  6
Continuous
370
    -3
390
F
347
21
348
0
  0
LAYER
  5
85
330
2
100
AcDbSymbolTableRecord
100
AcDbLayerTableRecord
  2
P-SANR-FIXT
 70
     0
 62
     6
  6
Continuous
370
    18
390
F
347
21
348
0
  0
ENDTAB
  0
TABLE
  2
STYLE
  5
3
330
0
100
AcDbSymbolTable
 70
     2
  0
STYLE
  5
55
330
3
100
AcDbSymbolTableRecord
100
AcDbTextStyleTableRecord
  2
Standard
 70
     0
 40
0.0
 41
1.0
 50
0.0
 71
     0
 42
0.2
  3
txt
  4

  0
STYLE
  5
5A
330
3
100
AcDbSymbolTableRecord
100
AcDbTextStyleTableRecord
  2
Annotative
 70
     0
 40
0.0
 41
1.0
 50
0.0
 71
     0
 42
0.2
  3
txt
  4

1001
AcadAnnotative
1000
AnnotativeData
1002
{
1070
     1
1070
     1
1002
}
  0
ENDTAB
  0
TABLE
  2
VIEW
  5
6
330
0
100
AcDbSymbolTable
 70
     0
  0
ENDTAB
  0
TABLE
  2
UCS
  5
7
330
0
100
AcDbSymbolTable
 70
     0
  0
ENDTAB
  0
TABLE
  2
APPID
  5
9
330
0
100
AcDbSymbolTable
 70
     3
  0
APPID
  5
56
330
9
100
AcDbSymbolTableRecord
100
AcDbRegAppTableRecord
  2
ACAD
 70
     0
  0
APPID
  5
5E
330
9
100
AcDbSymbolTableRecord
100
AcDbRegAppTableRecord
  2
AcadAnnotative
 70
     0
  0
APPID
  5
79
330
9
100
AcDbSymbolTableRecord
100
AcDbRegAppTableRecord
  2
REVIT
 70
     0
  0
ENDTAB
  0
TABLE
  2
DIMSTYLE
  5
A
330
0
100
AcDbSymbolTable
 70
     2
100
AcDbDimStyleTable
 71
     0
  0
DIMSTYLE
105
58
330
A
100
AcDbSymbolTableRecord
100
AcDbDimStyleTableRecord
  2
Standard
 70
     0
340
55
  0
DIMSTYLE
105
59
330
A
100
AcDbSymbolTableRecord
100
AcDbDimStyleTableRecord
  2
Annotative
 70
     0
340
55
1001
AcadAnnotative
1000
AnnotativeData
1002
{
1070
     1
1070
     1
1002
}
  0
ENDTAB
  0
TABLE
  2
BLOCK_RECORD
  5
1
330
0
100
AcDbSymbolTable
 70
     4
  0
BLOCK_RECORD
  5
71
102
{ACAD_XDICTIONARY
360
2EC
102
}
330
1
100
AcDbSymbolTableRecord
100
AcDbBlockTableRecord
  2
*Model_Space
340
74
 70
     0
280
     1
281
     0
  0
BLOCK_RECORD
  5
6D
330
1
100
AcDbSymbolTableRecord
100
AcDbBlockTableRecord
  2
*Paper_Space
340
70
 70
     0
280
     1
281
     0
  0
BLOCK_RECORD
  5
75
330
1
100
AcDbSymbolTableRecord
100
AcDbBlockTableRecord
  2
*Paper_Space0
340
78
 70
     0
280
     1
281
     0
  0
BLOCK_RECORD
  5
87
330
1
100
AcDbSymbolTableRecord
100
AcDbBlockTableRecord
  2
Automatic flow rate regulator valve_Caleffi_121 DN15 - 1 1_2___Insulation-982133-Est - Idraulica
340
0
102
{BLKREFS
331
1CA
102
}
 70
     0
280
     1
281
     0
  0
BLOCK_RECORD
  5
1CB
330
1
100
AcDbSymbolTableRecord
100
AcDbBlockTableRecord
  2
Automatic flow rate regulator valve_Caleffi_121 DN15 - 3_4___Insulation-975047-Est - Idraulica
340
0
102
{BLKREFS
331
22C
102
}
 70
     0
280
     1
281
     0
  0
BLOCK_RECORD
  5
22D
330
1
100
AcDbSymbolTableRecord
100
AcDbBlockTableRecord
  2
Automatic flow rate regulator valve_Caleffi_121 DN15 - 3_4___Insulation-V1-Est - Idraulica
340
0
102
{BLKREFS
331
2E6
102
}
 70
     0
280
     1
281
     0
  0
ENDTAB
  0
ENDSEC
  0
SECTION
  2
BLOCKS
  0
BLOCK
  5
72
330
71
100
AcDbEntity
  8
0
100
AcDbBlockBegin
  2
*Model_Space
 70
     0
 10
0.0
 20
0.0
 30
0.0
  3
*Model_Space
  1

  0
ENDBLK
  5
73
330
71
100
AcDbEntity
  8
0
100
AcDbBlockEnd
  0
BLOCK
  5
6E
330
6D
100
AcDbEntity
 67
     1
  8
0
100
AcDbBlockBegin
  2
*Paper_Space
 70
     0
 10
0.0
 20
0.0
 30
0.0
  3
*Paper_Space
  1

  0
ENDBLK
  5
6F
330
6D
100
AcDbEntity
 67
     1
  8
0
100
AcDbBlockEnd
  0
BLOCK
  5
76
330
75
100
AcDbEntity
 67
     1
  8
0
100
AcDbBlockBegin
  2
*Paper_Space0
 70
     0
 10
0.0
 20
0.0
 30
0.0
  3
*Paper_Space0
  1

  0
ENDBLK
  5
77
330
75
100
AcDbEntity
 67
     1
  8
0
100
AcDbBlockEnd
  0
BLOCK
  5
1C8
330
87
100
AcDbEntity
  8
0
100
AcDbBlockBegin
  2
Automatic flow rate regulator valve_Caleffi_121 DN15 - 1 1_2___Insulation-982133-Est - Idraulica
 70
     0
 10
0.0
 20
0.0
 30
0.0
  3
Automatic flow rate regulator valve_Caleffi_121 DN15 - 1 1_2___Insulation-982133-Est - Idraulica
  1

  0
LWPOLYLINE
  5
88
330
87
100
AcDbEntity
  8
P-SANR-FIXT
100
AcDbPolyline
 90
       41
 70
   128
 43
0.0
 10
858.4652032993508
 20
1949.99999999999
 10
858.5851713019106
 20
1949.997600319973
 10
858.7049473812582
 20
1949.990405118898
 10
858.8243399212176
 20
1949.978425907552
 10
858.9431579191936
 20
1949.961681850117
 10
859.0612112917359
 20
1949.940199733514
 10
859.1783111786323
 20
1949.914013924546
 10
859.2942702450431
 20
1949.883166314922
 10
859.4089029811993
 20
1949.847706254237
 10
859.522025999176
 20
1949.807690471024
 10
859.6334583262766
 20
1949.763182981999
 10
859.7430216945488
 20
1949.71425498965
 10
859.8505408259754
 20
1949.660984768328
 10
859.9558437128822
 20
1949.603457539023
 10
860.0587618931134
 20
1949.54176533303
 10
860.1591307195359
 20
1949.476006844719
 10
860.2567896234381
 20
1949.406287273643
 10
860.3515823714063
 20
1949.332718156243
 10
860.4433573152652
 20
1949.255417187413
 10
860.5319676346825
 20
1949.174508032213
 10
860.6172715720493
 20
1949.090120128031
 10
860.6991326592632
 20
1949.002388477514
 10
860.7774199360477
 20
1948.911453432586
 10
860.8520081594599
 20
1948.81746046992
 10
860.9227780042537
 20
1948.720559958207
 10
860.9896162537745
 20
1948.620906917594
 10
861.0524159810809
 20
1948.518660771688
 10
861.1110767200058
 20
1948.413985092511
 10
861.1655046258803
 20
1948.30704733882
 10
861.215612625666
 20
1948.198018588209
 10
861.2613205572525
 20
1948.08707326342
 10
861.3025552976994
 20
1947.974388853306
 10
861.3392508802185
 20
1947.860145628886
 10
861.3713485997056
 20
1947.744526354947
 10
861.3987971066565
 20
1947.627715997664
 10
861.4215524893163
 20
1947.509901428691
 10
861.439578343926
 20
1947.391271126204
 10
861.4528458329639
 20
1947.272014873383
 10
861.4613337312775
 20
1947.152323454791
 10
861.4650284600406
 20
1947.032388351165
 10
861.4648787058083
 20
1946.955870011395
  0
LWPOLYLINE
  5
89
330
87
100
AcDbEntity
  8
P-SANR-FIXT
100
AcDbPolyline
 90
       41
 70
   128
 43
0.0
 10
735.1063201003008
 20
1946.955870011395
 10
735.106954791816
 20
1947.075860332959
 10
735.1123873087139
 20
1947.195729294173
 10
735.1226089601265
 20
1947.31528513027
 10
735.1376033935917
 20
1947.434336577416
 10
735.1573466212147
 20
1947.552693178691
 10
735.1818070580431
 20
1947.670165588782
 10
735.2109455725958
 20
1947.786565876891
 10
735.2447155494655
 20
1947.90170782739
 10
735.2830629638931
 20
1948.015407237719
 10
735.3259264681956
 20
1948.127482213076
 10
735.3732374899102
 20
1948.237753457409
 10
735.4249203414944
 20
1948.34604456025
 10
735.4808923414107
 20
1948.452182278935
 10
735.5410639463998
 20
1948.555996815757
 10
735.6053388947288
 20
1948.657322089601
 10
735.6736143601924
 20
1948.755996001646
 10
735.74578111661
 20
1948.85186069468
 10
735.8217237125664
 20
1948.944762805645
 10
735.9013206561082
 20
1949.034553710982
 10
735.9844446091056
 20
1949.121089764396
 10
736.0709625909655
 20
1949.204232526662
 10
736.1607361913739
 20
1949.283848987097
 10
736.2536217917202
 20
1949.359811776348
 10
736.3494707948583
 20
1949.431999370155
 10
736.4481298628305
 20
1949.50029628377
 10
736.5494411621737
 20
1949.564593256699
 10
736.6532426164211
 20
1949.624787427501
 10
736.7593681653889
 20
1949.680782498343
 10
736.8676480308378
 20
1949.732488889058
 10
736.9779089880814
 20
1949.779823880451
 10
737.0899746431092
 20
1949.822711746632
 10
737.2036657147794
 20
1949.861083876165
 10
737.3188003216299
 20
1949.894878881828
 10
737.4351942728505
 20
1949.924042698821
 10
737.5526613629489
 20
1949.948528671259
 10
737.6710136696391
 20
1949.968297626808
 10
737.7900618544775
 20
1949.983317939359
 10
737.909615465764
 20
1949.993565579612
 10
738.0294832432237
 20
1949.999024153532
 10
738.1059955067584
 20
1949.99999999999
  0
LWPOLYLINE
  5
8A
330
87
100
AcDbEntity
  8
P-SANR-FIXT
100
AcDbPolyline
 90
        3
 70
   128
 43
0.0
 10
738.1059955067584
 20
1949.99999999999
 10
738.1541327710597
 20
1949.99999999999
 10
738.2984675546107
 20
1949.99999999999
  0
LWPOLYLINE
  5
8B
330
87
100
AcDbEntity
  8
P-SANR-FIXT
100
AcDbPolyline
 90
        4
 70
   128
 43
0.0
 10
858.2432750016105
 20
1949.99999999999
 10
858.3510890551396
 20
1949.99999999999
 10
858.4511746942514
 20
1949.99999999999
 10
858.4652032993508
 20
1949.99999999999
  0
LWPOLYLINE
  5
8C
330
87
100
AcDbEntity
  8
P-SANR-FIXT
100
AcDbPolyline
 90
       17
 70
   128
 43
0.0
 10
861.4648787058083
 20
1946.955870011395
 10
861.2670936263842
 20
1941.260029017471
 10
860.8416938649478
 20
1935.576653382456
 10
860.18935997037
 20
1929.914835294979
 10
859.3111355377253
 20
1924.283632456187
 10
858.2084255387613
 20
1918.692053589365
 10
856.8829940742443
 20
1913.149044027893
 10
855.3369615517732
 20
1907.663471404623
 10
853.572801293582
 20
1902.244111465559
 10
851.5933355797493
 20
1896.899634030536
 10
849.4017311331543
 20
1891.638589123356
 10
847.0014940533934
 20
1886.469393293572
 10
844.3964642077713
 20
1881.400316151811
 10
841.5908090883309
 20
1876.439467140153
 10
838.5890171447558
 20
1871.59478255876
 10
835.3958906038069
 20
1866.874012869483
 10
833.0428102203311
 20
1863.638213619495
  0
LWPOLYLINE
  5
8D
330
87
100
AcDbEntity
  8
P-SANR-FIXT
100
AcDbPolyline
 90
       17
 70
   128
 43
0.0
 10
763.5283885857774
 20
1863.638213619495
 10
760.2039823739354
 20
1868.267473485216
 10
757.0673563522852
 20
1873.025971227782
 10
754.1235284533509
 20
1877.9060942659
 10
751.377208173787
 20
1882.900035443744
 10
748.8327890401908
 20
1887.999805520746
 10
746.4943415803957
 20
1893.197245952679
 10
744.3656068114949
 20
1898.484041943577
 10
742.4499902550128
 20
1903.851735747646
 10
740.7505564887969
 20
1909.291740199846
 10
739.2700242443465
 20
1914.795352453525
 10
738.0107620574229
 20
1920.35376790312
 10
736.9747844788961
 20
1925.958094269642
 10
736.163748851896
 20
1931.599365826431
 10
735.5789526604135
 20
1937.268557742404
 10
735.2213314536054
 20
1942.956600519858
 10
735.1063201003008
 20
1946.955870011395
  0
LWPOLYLINE
  5
8E
330
87
100
AcDbEntity
  8
P-SANR-FIXT
100
AcDbPolyline
 90
       25
 70
   128
 43
0.0
 10
833.0428102203315
 20
1863.638213619495
 10
832.673643799657
 20
1863.165277940564
 10
832.28586028983
 20
1862.707483279098
 10
831.8800800617433
 20
1862.2655620089
 10
831.4569522771998
 20
1861.840221109729
 10
831.0171538503926
 20
1861.43214103629
 10
830.561388364986
 20
1861.041974629648
 10
830.0903849485317
 20
1860.670346072822
 10
829.6048971060207
 20
1860.317849892228
 10
829.1057015144357
 20
1859.985050006558
 10
828.5935967802338
 20
1859.672478824636
 10
828.069402161747
 20
1859.380636393675
 10
827.5339562585422
 20
1859.109989599308
 10
826.9881156698421
 20
1858.860971418671
 10
826.4327536241495
 20
1858.633980227732
 10
825.8687585822658
 20
1858.429379163975
 10
825.2970328159458
 20
1858.247495545455
 10
824.7184909644539
 20
1858.088620347163
 10
824.1340585713372
 20
1857.953007735524
 10
823.5446706037519
 20
1857.840874661787
 10
822.9512699567168
 20
1857.752400514951
 10
822.3548059446823
 20
1857.687726834776
 10
821.7562327828282
 20
1857.646957085355
 10
821.1565080605247
 20
1857.630156489589
 10
821.0364115310103
 20
1857.629675709337
  0
LWPOLYLINE
  5
8F
330
87
100
AcDbEntity
  8
P-SANR-FIXT
100
AcDbPolyline
 90
       25
 70
   128
 43
0.0
 10
775.5347872750986
 20
1857.629675709337
 10
774.9349472622991
 20
1857.641674109423
 10
774.336066865561
 20
1857.677650114798
 10
773.7391041657648
 20
1857.737546171529
 10
773.1450141758849
 20
1857.821266458703
 10
772.5547473131727
 20
1857.928677041719
 10
771.9692478786916
 20
1858.059606086557
 10
771.389452546637
 20
1858.213844134676
 10
770.8162888658567
 20
1858.391144438101
 10
770.2506737759724
 20
1858.591223354168
 10
769.6935121404688
 20
1858.813760799294
 10
769.1456952991086
 20
1859.058400761037
 10
768.6080996419764
 20
1859.324751867648
 10
768.0815852074426
 20
1859.612388014172
 10
767.5669943062853
 20
1859.920849044136
 10
767.0651501741731
 20
1860.249641485692
 10
766.5768556546628
 20
1860.598239341073
 10
766.1028919148215
 20
1860.966084928073
 10
765.6440171955265
 20
1861.352589772224
 10
765.2009655984403
 20
1861.757135548224
 10
764.7744459116057
 20
1862.17907506913
 10
764.3651404755358
 20
1862.617733321718
 10
763.973704091614
 20
1863.072408546358
 10
763.6007629745531
 20
1863.542373359685
 10
763.5283885857774
 20
1863.638213619495
  0
LWPOLYLINE
  5
90
330
87
100
AcDbEntity
  8
P-SANR-FIXT
100
AcDbPolyline
 90
        6
 70
   128
 43
0.0
 10
821.0364115310103
 20
1857.629675709337
 10
821.0182133079316
 20
1857.629675709337
 10
820.9636477519708
 20
1857.629675709337
 10
820.8728021563779
 20
1857.629675709337
 10
820.7458218547255
 20
1857.629675709337
 10
820.5829099884091
 20
1857.629675709337
  0
LWPOLYLINE
  5
91
330
87
100
AcDbEntity
  8
P-SANR-FIXT
100
AcDbPolyline
 90
        7
 70
   128
 43
0.0
 10
775.988906491655
 20
1857.629675709337
 10
775.9088717571406
 20
1857.629675709337
 10
775.7624661048119
 20
1857.629675709337
 10
775.6520926610812
 20
1857.629675709337
 10
775.5779279999138
 20
1857.629675709337
 10
775.5400907689465
 20
1857.629675709337
 10
775.5347872750986
 20
1857.629675709337
  0
LINE
  5
92
330
87
100
AcDbEntity
  8
P-SANR-FIXT
100
AcDbLine
 10
738.105995506757
 20
1949.99999999999
 30
0.0
 11
755.6605541420302
 21
1949.99999999999
 31
0.0
  0
LINE
  5
93
330
87
100
AcDbEntity
  8
P-SANR-FIXT
100
AcDbLine
 10
840.9092974296383
 20
1949.99999999999
 30
0.0
 11
858.4652032993494
 21
1949.99999999999
 31
0.0
  0
ARC
  5
94
330
87
100
AcDbEntity
  8
P-SANR-FIXT
100
AcDbCircle
 10
858.4652032993492
 20
1946.999999999989
 30
0.0
 40
3.000000000000123
100
AcDbArc
 50
359.1571489027247
 51
89.99999999999891
  0
ARC
  5
95
330
87
100
AcDbEntity
  8
P-SANR-FIXT
100
AcDbCircle
 10
738.105995506757
 20
1946.999999999989
 30
0.0
 40
3.000000000000154
100
AcDbArc
 50
90.0
 51
180.842851097269
  0
ARC
  5
96
330
87
100
AcDbEntity
  8
P-SANR-FIXT
100
AcDbCircle
 10
718.9889479609607
 20
1949.051917198856
 30
0.0
 40
142.4913480019832
100
AcDbArc
 50
323.1708570049114
 51
359.1571489027142
  0
ARC
  5
97
330
87
100
AcDbEntity
  8
P-SANR-FIXT
100
AcDbCircle
 10
877.5822508451454
 20
1949.051917198856
 30
0.0
 40
142.4913480019831
100
AcDbArc
 50
180.8428510972851
 51
216.8291429950881
  0
ARC
  5
98
330
87
100
AcDbEntity
  8
P-SANR-FIXT
100
AcDbCircle
 10
821.0364115310087
 20
1872.629675709336
 30
0.0
 40
15.00000000000001
100
AcDbArc
 50
269.9999999999997
 51
323.1708570049149
  0
ARC
  5
99
330
87
100
AcDbEntity
  8
P-SANR-FIXT
100
AcDbCircle
 10
775.5347872750972
 20
1872.629675709336
 30
0.0
 40
14.99999999999988
100
AcDbArc
 50
216.8291429950842
 51
269.9999999999997
  0
LINE
  5
9A
330
87
100
AcDbEntity
  8
P-SANR-FIXT
100
AcDbLine
 10
821.0364115310087
 20
1857.629675709336
 30
0.0
 11
812.2898115969858
 21
1857.629675709336
 31
0.0
  0
LINE
  5
9B
330
87
100
AcDbEntity
  8
P-SANR-FIXT
100
AcDbLine
 10
784.2813872091241
 20
1857.629675709336
 30
0.0
 11
775.5347872750972
 21
1857.629675709336
 31
0.0
  0
LINE
  5
9C
330
87
100
AcDbEntity
  8
P-SANR-FIXT
100
AcDbLine
 10
734.785599403053
 20
1962.187499999995
 30
0.0
 11
734.785599403053
 21
1965.499999999995
 31
0.0
  0
LINE
  5
9D
330
87
100
AcDbEntity
  8
P-SANR-FIXT
100
AcDbLine
 10
734.785599403053
 20
1969.396395985856
 30
0.0
 11
734.785599403053
 21
1970.906231457452
 31
0.0
  0
LINE
  5
9E
330
87
100
AcDbEntity
  8
P-SANR-FIXT
100
AcDbLine
 10
734.785599403053
 20
1998.43348390318
 30
0.0
 11
734.785599403053
 21
1999.999999999994
 31
0.0
  0
LINE
  5
9F
330
87
100
AcDbEntity
  8
P-SANR-FIXT
100
AcDbLine
 10
734.785599403053
 20
1999.999999999994
 30
0.0
 11
734.785599403053
 21
2001.566549017091
 31
0.0
  0
LINE
  5
A0
330
87
100
AcDbEntity
  8
P-SANR-FIXT
100
AcDbLine
 10
734.785599403053
 20
2029.287873809204
 30
0.0
 11
734.785599403053
 21
2030.399029763884
 31
0.0
  0
LINE
  5
A1
330
87
100
AcDbEntity
  8
P-SANR-FIXT
100
AcDbLine
 10
734.785599403053
 20
2034.499999999995
 30
0.0
 11
734.785599403053
 21
2037.812499999995
 31
0.0
  0
LINE
  5
A2
330
87
100
AcDbEntity
  8
P-SANR-FIXT
100
AcDbLine
 10
734.7855994030529
 20
2037.812499999995
 30
0.0
 11
756.9722760945784
 21
2037.812499999995
 31
0.0
  0
LINE
  5
A3
330
87
100
AcDbEntity
  8
P-SANR-FIXT
100
AcDbLine
 10
752.0231588017533
 20
1962.187499999995
 30
0.0
 11
734.7855994030529
 21
1962.187499999995
 31
0.0
  0
LINE
  5
A4
330
87
100
AcDbEntity
  8
P-SANR-FIXT
100
AcDbLine
 10
839.5938103659684
 20
2037.812499999995
 30
0.0
 11
861.7855994030533
 21
2037.812499999995
 31
0.0
  0
LINE
  5
A5
330
87
100
AcDbEntity
  8
P-SANR-FIXT
100
AcDbLine
 10
861.7855994030533
 20
1962.187499999994
 30
0.0
 11
844.5530194008266
 21
1962.187499999994
 31
0.0
  0
LINE
  5
A6
330
87
100
AcDbEntity
  8
P-SANR-FIXT
100
AcDbLine
 10
861.7855994030533
 20
2037.812499999995
 30
0.0
 11
861.7855994030533
 21
2034.499999999995
 31
0.0
  0
LINE
  5
A7
330
87
100
AcDbEntity
  8
P-SANR-FIXT
100
AcDbLine
 10
861.7855994030533
 20
2030.6034396532
 30
0.0
 11
861.7855994030533
 21
2029.093768542479
 31
0.0
  0
LINE
  5
A8
330
87
100
AcDbEntity
  8
P-SANR-FIXT
100
AcDbLine
 10
861.7855994030533
 20
2001.566519261187
 30
0.0
 11
861.7855994030533
 21
1999.999999999994
 31
0.0
  0
LINE
  5
A9
330
87
100
AcDbEntity
  8
P-SANR-FIXT
100
AcDbLine
 10
861.7855994030533
 20
1999.999999999994
 30
0.0
 11
861.7855994030533
 21
1998.4334509829
 31
0.0
  0
LINE
  5
AA
330
87
100
AcDbEntity
  8
P-SANR-FIXT
100
AcDbLine
 10
861.7855994030533
 20
1970.906231457453
 30
0.0
 11
861.7855994030533
 21
1969.396395985857
 31
0.0
  0
LINE
  5
AB
330
87
100
AcDbEntity
  8
P-SANR-FIXT
100
AcDbLine
 10
861.7855994030533
 20
1965.499999999994
 30
0.0
 11
861.7855994030533
 21
1962.187499999995
 31
0.0
  0
LWPOLYLINE
  5
AC
330
87
100
AcDbEntity
  8
P-SANR-FIXT
100
AcDbPolyline
 90
       41
 70
   128
 43
0.0
 10
825.2855994030545
 20
2072.351766315775
 10
825.4055674056143
 20
2072.349366635758
 10
825.525343484962
 20
2072.342171434684
 10
825.6447360249213
 20
2072.330192223337
 10
825.7635540228973
 20
2072.313448165902
 10
825.8816073954395
 20
2072.291966049299
 10
825.9987072823358
 20
2072.265780240332
 10
826.1146663487467
 20
2072.234932630708
 10
826.2292990849029
 20
2072.199472570023
 10
826.3424221028797
 20
2072.159456786809
 10
826.4538544299805
 20
2072.114949297784
 10
826.5634177982525
 20
2072.066021305435
 10
826.6709369296789
 20
2072.012751084113
 10
826.7762398165857
 20
2071.955223854809
 10
826.8791579968171
 20
2071.893531648816
 10
826.9795268232396
 20
2071.827773160505
 10
827.0771857271416
 20
2071.758053589428
 10
827.17197847511
 20
2071.684484472028
 10
827.2637534189689
 20
2071.607183503198
 10
827.352363738386
 20
2071.526274347998
 10
827.437667675753
 20
2071.441886443817
 10
827.5195287629669
 20
2071.354154793299
 10
827.5978160397514
 20
2071.263219748371
 10
827.6724042631636
 20
2071.169226785706
 10
827.7431741079574
 20
2071.072326273993
 10
827.8100123574782
 20
2070.97267323338
 10
827.8728120847846
 20
2070.870427087474
 10
827.9314728237094
 20
2070.765751408297
 10
827.985900729584
 20
2070.658813654605
 10
828.0360087293697
 20
2070.549784903994
 10
828.0817166609562
 20
2070.438839579205
 10
828.1229514014031
 20
2070.326155169092
 10
828.1596469839222
 20
2070.211911944671
 10
828.1917447034091
 20
2070.096292670733
 10
828.2191932103604
 20
2069.979482313449
 10
828.2419485930198
 20
2069.861667744476
 10
828.2599744476295
 20
2069.743037441989
 10
828.2732419366674
 20
2069.623781189168
 10
828.2817298349812
 20
2069.504089770576
 10
828.2854245637443
 20
2069.38415466695
 10
828.2855994030544
 20
2069.351766315776
  0
LWPOLYLINE
  5
AD
330
87
100
AcDbEntity
  8
P-SANR-FIXT
100
AcDbPolyline
 90
       41
 70
   128
 43
0.0
 10
768.2855994030546
 20
2069.351766315776
 10
768.2879990830716
 20
2069.471734318335
 10
768.2951942841468
 20
2069.591510397683
 10
768.307173495493
 20
2069.710902937642
 10
768.3239175529278
 20
2069.829720935618
 10
768.3453996695309
 20
2069.947774308161
 10
768.3715854784986
 20
2070.064874195057
 10
768.4024330881223
 20
2070.180833261468
 10
768.4378931488073
 20
2070.295465997624
 10
768.4779089320207
 20
2070.408589015601
 10
768.5224164210461
 20
2070.520021342701
 10
768.5713444133948
 20
2070.629584710973
 10
768.6246146347168
 20
2070.7371038424
 10
768.6821418640219
 20
2070.842406729306
 10
768.7438340700143
 20
2070.945324909538
 10
768.8095925583256
 20
2071.04569373596
 10
768.8793121294017
 20
2071.143352639863
 10
768.952881246802
 20
2071.238145387831
 10
769.0301822156319
 20
2071.32992033169
 10
769.1110913708318
 20
2071.418530651107
 10
769.1954792750131
 20
2071.503834588474
 10
769.2832109255308
 20
2071.585695675688
 10
769.3741459704588
 20
2071.663982952472
 10
769.4681389331242
 20
2071.738571175885
 10
769.5650394448373
 20
2071.809341020678
 10
769.6646924854501
 20
2071.876179270199
 10
769.7669386313563
 20
2071.938978997506
 10
769.8716143105335
 20
2071.99763973643
 10
769.9785520642245
 20
2072.052067642305
 10
770.0875808148357
 20
2072.102175642091
 10
770.1985261396246
 20
2072.147883573677
 10
770.3112105497383
 20
2072.189118314124
 10
770.4254537741587
 20
2072.225813896643
 10
770.5410730480974
 20
2072.25791161613
 10
770.6578834053804
 20
2072.285360123081
 10
770.775697974354
 20
2072.308115505741
 10
770.8943282768402
 20
2072.326141360351
 10
771.0135845296616
 20
2072.339408849388
 10
771.1332759482539
 20
2072.347896747702
 10
771.2532110518799
 20
2072.351591476465
 10
771.2855994030547
 20
2072.351766315776
  0
LWPOLYLINE
  5
AE
330
87
100
AcDbEntity
  8
P-SANR-FIXT
100
AcDbPolyline
 90
        4
 70
   128
 43
0.0
 10
771.2855994030547
 20
2072.351766315776
 10
771.3071965232081
 20
2072.351766315776
 10
771.3719533328839
 20
2072.351766315776
 10
771.4797662350002
 20
2072.351766315776
  0
LWPOLYLINE
  5
AF
330
87
100
AcDbEntity
  8
P-SANR-FIXT
100
AcDbPolyline
 90
        5
 70
   128
 43
0.0
 10
825.0768278631277
 20
2072.351766315775
 10
825.1463847937598
 20
2072.351766315775
 10
825.2344012496234
 20
2072.351766315775
 10
825.2793053713034
 20
2072.351766315775
 10
825.2855994030545
 20
2072.351766315775
  0
LWPOLYLINE
  5
B0
330
87
100
AcDbEntity
  8
P-SANR-FIXT
100
AcDbPolyline
 90
       35
 70
   128
 43
0.0
 10
828.2855994030544
 20
2053.267580037016
 10
828.2879990830714
 20
2053.147612034456
 10
828.2951942841465
 20
2053.027835955109
 10
828.3071734954926
 20
2052.90844341515
 10
828.3239175529276
 20
2052.789625417174
 10
828.3453996695305
 20
2052.671572044632
 10
828.3715854784983
 20
2052.554472157735
 10
828.4024330881221
 20
2052.438513091324
 10
828.437893148807
 20
2052.323880355168
 10
828.4779089320206
 20
2052.210757337191
 10
828.5224164210458
 20
2052.09932501009
 10
828.5713444133943
 20
2051.989761641818
 10
828.6246146347165
 20
2051.882242510392
 10
828.6821418640213
 20
2051.776939623485
 10
828.7438340700141
 20
2051.674021443254
 10
828.8095925583252
 20
2051.573652616831
 10
828.8793121294016
 20
2051.475993712929
 10
828.9528812468015
 20
2051.381200964961
 10
829.0301822156315
 20
2051.289426021102
 10
829.1110913708315
 20
2051.200815701684
 10
829.1954792750129
 20
2051.115511764318
 10
829.2832109255304
 20
2051.033650677104
 10
829.3741459704586
 20
2050.955363400319
 10
829.4681389331239
 20
2050.880775176907
 10
829.5650394448369
 20
2050.810005332113
 10
829.6646924854499
 20
2050.743167082593
 10
829.7669386313561
 20
2050.680367355286
 10
829.871614310533
 20
2050.621706616361
 10
829.9785520642242
 20
2050.567278710487
 10
830.0875808148354
 20
2050.517170710701
 10
830.1985261396243
 20
2050.471462779114
 10
830.311210549738
 20
2050.430228038668
 10
830.4254537741584
 20
2050.393532456149
 10
830.5410730480971
 20
2050.361434736661
 10
830.5535874402147
 20
2050.358257351878
  0
LWPOLYLINE
  5
B1
330
87
100
AcDbEntity
  8
P-SANR-FIXT
100
AcDbPolyline
 90
       35
 70
   128
 43
0.0
 10
766.0176113658945
 20
2050.358257351878
 10
766.1333677115139
 20
2050.389857170726
 10
766.2477678086876
 20
2050.426060732278
 10
766.360628641664
 20
2050.466810118559
 10
766.4717696571858
 20
2050.512040139244
 10
766.5810130533372
 20
2050.561678435949
 10
766.6881840639883
 20
2050.615645597986
 10
766.7931112383841
 20
2050.673855289411
 10
766.8956267154286
 20
2050.736214387133
 10
766.9955664922274
 20
2050.802623129899
 10
767.0927706864574
 20
2050.872975277887
 10
767.187083792143
 20
2050.947158282668
 10
767.2783549284345
 20
2051.025053467259
 10
767.3664380809838
 20
2051.106536215981
 10
767.4511923355372
 20
2051.191476173819
 10
767.5324821033669
 20
2051.27973745496
 10
767.6101773381857
 20
2051.371178860181
 10
767.6841537441918
 20
2051.465654102742
 10
767.7542929749163
 20
2051.563012042406
 10
767.8204828225523
 20
2051.66309692724
 10
767.8826173974636
 20
2051.765748642779
 10
767.9405972975847
 20
2051.870802968175
 10
767.9943297674437
 20
2051.978091838917
 10
768.0437288465516
 20
2052.087443615701
 10
768.0887155069195
 20
2052.19868335901
 10
768.1292177794873
 20
2052.311633108984
 10
768.165170869259
 20
2052.426112170119
 10
768.1965172589607
 20
2052.541937400336
 10
768.2232068010555
 20
2052.658923503978
 10
768.2451967979696
 20
2052.776883328232
 10
768.2624520703992
 20
2052.895628162544
 10
768.2749450135891
 20
2053.01496804051
 10
768.282655641495
 20
2053.134712043782
 10
768.2855716187575
 20
2053.2546686075
 10
768.2855994030546
 20
2053.267580037016
  0
LWPOLYLINE
  5
B2
330
87
100
AcDbEntity
  8
P-SANR-FIXT
100
AcDbPolyline
 90
       26
 70
   128
 43
0.0
 10
850.4456592160673
 20
2045.353231756067
 10
851.0244409441654
 20
2045.195232661829
 10
851.5964414300334
 20
2045.014214854068
 10
852.1607455949148
 20
2044.810467922662
 10
852.716450672524
 20
2044.584317819237
 10
853.262667653281
 20
2044.336126335716
 10
853.7985227065366
 20
2044.066290525527
 10
854.3231585785152
 20
2043.775242068404
 10
854.835735963738
 20
2043.463446579794
 10
855.3354348477327
 20
2043.131402865963
 10
855.8214558188817
 20
2042.779642126023
 10
856.2930213473102
 20
2042.408727102118
 10
856.7493770287676
 20
2042.019251179164
 10
857.1897927915145
 20
2041.611837435552
 10
857.6135640642808
 20
2041.187137646362
 10
858.0200129034299
 20
2040.745831240659
 10
858.4084890775237
 20
2040.288624214552
 10
858.7783711075539
 20
2039.81624800175
 10
859.1290672611764
 20
2039.329458303427
 10
859.4600164993568
 20
2038.829033879255
 10
859.7706893739127
 20
2038.315775301562
 10
860.0605888745182
 20
2037.790503674584
 10
860.3292512238143
 20
2037.25405932087
 10
860.5762466193532
 20
2036.707300436953
 10
860.8011799211922
 20
2036.151101720411
 10
860.8114530779518
 20
2036.122452698668
  0
LWPOLYLINE
  5
B3
330
87
100
AcDbEntity
  8
P-SANR-FIXT
100
AcDbPolyline
 90
       26
 70
   128
 43
0.0
 10
735.7608269698942
 20
2036.124981917414
 10
735.9696844941971
 20
2036.647893465006
 10
736.2143244559411
 20
2037.195710306366
 10
736.4806755625511
 20
2037.733305963499
 10
736.7683117090756
 20
2038.259820398033
 10
737.0767727390393
 20
2038.774411299189
 10
737.4055651805952
 20
2039.276255431301
 10
737.754163035976
 20
2039.764549950812
 10
738.1220086229765
 20
2040.238513690653
 10
738.508513467127
 20
2040.697388409948
 10
738.9130592431269
 20
2041.140440007035
 10
739.3349987640329
 20
2041.566959693869
 10
739.7736570166207
 20
2041.976265129939
 10
740.2283322412618
 20
2042.36770151386
 10
740.6982970545885
 20
2042.740642630922
 10
741.1827996131535
 20
2043.094491854891
 10
741.6810648162183
 20
2043.428683102495
 10
742.1922955457488
 20
2043.742681739026
 10
742.7156739416345
 20
2044.03598543365
 10
743.2503627100899
 20
2044.308124963024
 10
743.7955064631463
 20
2044.558664961953
 10
744.3502330870903
 20
2044.787204619884
 10
744.9136551376588
 20
2044.99337832212
 10
745.4848712597612
 20
2045.176856234714
 10
746.0629676294549
 20
2045.33734483215
 10
746.1255395900417
 20
2045.353231756067
  0
LWPOLYLINE
  5
B4
330
87
100
AcDbEntity
  8
P-SANR-FIXT
100
AcDbPolyline
 90
       41
 70
   128
 43
0.0
 10
861.7855994018684
 20
1952.99999999999
 10
861.7831997218514
 20
1952.88003199743
 10
861.7760045207763
 20
1952.760255918082
 10
861.76402530943
 20
1952.640863378123
 10
861.7472812519952
 20
1952.522045380147
 10
861.7257991353923
 20
1952.403992007605
 10
861.6996133264246
 20
1952.286892120709
 10
861.6687657168007
 20
1952.170933054298
 10
861.6333056561158
 20
1952.056300318142
 10
861.5932898729024
 20
1951.943177300165
 10
861.5487823838771
 20
1951.831744973064
 10
861.4998543915286
 20
1951.722181604792
 10
861.4465841702063
 20
1951.614662473366
 10
861.3890569409013
 20
1951.509359586459
 10
861.3273647349087
 20
1951.406441406227
 10
861.2616062465974
 20
1951.306072579805
 10
861.1918866755214
 20
1951.208413675903
 10
861.1183175581212
 20
1951.113620927935
 10
861.0410165892911
 20
1951.021845984076
 10
860.9601074340911
 20
1950.933235664658
 10
860.87571952991
 20
1950.847931727292
 10
860.7879878793923
 20
1950.766070640078
 10
860.6970528344641
 20
1950.687783363293
 10
860.6030598717989
 20
1950.613195139881
 10
860.5061593600858
 20
1950.542425295087
 10
860.4065063194729
 20
1950.475587045566
 10
860.3042601735667
 20
1950.41278731826
 10
860.1995844943896
 20
1950.354126579335
 10
860.0926467406987
 20
1950.299698673461
 10
859.9836179900874
 20
1950.249590673675
 10
859.8726726652984
 20
1950.203882742088
 10
859.7599882551847
 20
1950.162648001641
 10
859.6457450307644
 20
1950.125952419123
 10
859.5301257568257
 20
1950.093854699635
 10
859.4133153995429
 20
1950.066406192684
 10
859.2955008305692
 20
1950.043650810025
 10
859.1768705280829
 20
1950.025624955415
 10
859.0576142752615
 20
1950.012357466377
 10
858.937922856669
 20
1950.003869568064
 10
858.8179877530432
 20
1950.0001748393
 10
858.7855994018685
 20
1949.99999999999
  0
LWPOLYLINE
  5
B5
330
87
100
AcDbEntity
  8
P-SANR-FIXT
100
AcDbPolyline
 90
       41
 70
   128
 43
0.0
 10
737.7855994042402
 20
1949.99999999999
 10
737.6656314016801
 20
1950.002399680007
 10
737.5458553223327
 20
1950.009594881082
 10
737.4264627823736
 20
1950.021574092429
 10
737.3076447843974
 20
1950.038318149864
 10
737.189591411855
 20
1950.059800266467
 10
737.0724915249588
 20
1950.085986075434
 10
736.9565324585479
 20
1950.116833685058
 10
736.8418997223918
 20
1950.152293745743
 10
736.7287767044149
 20
1950.192309528956
 10
736.6173443773142
 20
1950.236817017982
 10
736.5077810090423
 20
1950.28574501033
 10
736.4002618776159
 20
1950.339015231653
 10
736.2949589907089
 20
1950.396542460957
 10
736.1920408104777
 20
1950.45823466695
 10
736.0916719840552
 20
1950.523993155261
 10
735.9940130801532
 20
1950.593712726337
 10
735.8992203321849
 20
1950.667281843738
 10
735.8074453883258
 20
1950.744582812567
 10
735.7188350689086
 20
1950.825491967768
 10
735.6335311315417
 20
1950.909879871949
 10
735.5516700443277
 20
1950.997611522467
 10
735.4733827675434
 20
1951.088546567395
 10
735.3987945441311
 20
1951.18253953006
 10
735.3280246993372
 20
1951.279440041773
 10
735.2611864498165
 20
1951.379093082386
 10
735.1983867225102
 20
1951.481339228292
 10
735.1397259835854
 20
1951.586014907469
 10
735.0852980777108
 20
1951.69295266116
 10
735.035190077925
 20
1951.801981411771
 10
734.9894821463386
 20
1951.91292673656
 10
734.9482474058916
 20
1952.025611146674
 10
734.9115518233726
 20
1952.139854371094
 10
734.8794541038853
 20
1952.255473645033
 10
734.8520055969343
 20
1952.372284002316
 10
734.8292502142747
 20
1952.49009857129
 10
734.8112243596651
 20
1952.608728873776
 10
734.7979568706273
 20
1952.727985126597
 10
734.7894689723135
 20
1952.84767654519
 10
734.7857742435502
 20
1952.967611648816
 10
734.7855994042402
 20
1952.99999999999
  0
LWPOLYLINE
  5
B6
330
87
100
AcDbEntity
  8
P-SANR-FIXT
100
AcDbPolyline
 90
        3
 70
   128
 43
0.0
 10
858.7855994018685
 20
1949.99999999999
 10
858.7372058548584
 20
1949.99999999999
 10
858.5921026331806
 20
1949.99999999999
  0
LWPOLYLINE
  5
B7
330
87
100
AcDbEntity
  8
P-SANR-FIXT
100
AcDbPolyline
 90
        4
 70
   128
 43
0.0
 10
738.0076395042733
 20
1949.99999999999
 10
737.9003211924815
 20
1949.99999999999
 10
737.7997026976079
 20
1949.99999999999
 10
737.7855994042403
 20
1949.99999999999
  0
LINE
  5
B8
330
87
100
AcDbEntity
  8
P-SANR-FIXT
100
AcDbLine
 10
771.2855994030531
 20
2072.351766315775
 30
0.0
 11
798.285599403053
 21
2072.351766315775
 31
0.0
  0
LINE
  5
B9
330
87
100
AcDbEntity
  8
P-SANR-FIXT
100
AcDbLine
 10
798.285599403053
 20
2072.351766315775
 30
0.0
 11
825.2855994030529
 21
2072.351766315775
 31
0.0
  0
ARC
  5
BA
330
87
100
AcDbEntity
  8
P-SANR-FIXT
100
AcDbCircle
 10
825.2855994030529
 20
2069.351766315774
 30
0.0
 40
2.999999999999772
100
AcDbArc
 50
0.0000000000043446
 51
89.99999999999566
  0
ARC
  5
BB
330
87
100
AcDbEntity
  8
P-SANR-FIXT
100
AcDbCircle
 10
771.2855994030531
 20
2069.351766315774
 30
0.0
 40
3.0
100
AcDbArc
 50
90.0
 51
180.0
  0
LINE
  5
BC
330
87
100
AcDbEntity
  8
P-SANR-FIXT
100
AcDbLine
 10
828.2855994030533
 20
2069.351766315774
 30
0.0
 11
828.2855994030533
 21
2053.267580037016
 31
0.0
  0
LINE
  5
BD
330
87
100
AcDbEntity
  8
P-SANR-FIXT
100
AcDbLine
 10
768.2855994030528
 20
2053.267580037016
 30
0.0
 11
768.2855994030528
 21
2069.351766315774
 31
0.0
  0
ARC
  5
BE
330
87
100
AcDbEntity
  8
P-SANR-FIXT
100
AcDbCircle
 10
831.2855994030527
 20
2053.267580037016
 30
0.0
 40
3.0
100
AcDbArc
 50
180.0
 51
255.8770198581234
  0
ARC
  5
BF
330
87
100
AcDbEntity
  8
P-SANR-FIXT
100
AcDbCircle
 10
765.2855994030532
 20
2053.267580037016
 30
0.0
 40
3.000000000000103
100
AcDbArc
 50
284.1229801418759
 51
0.0
  0
LINE
  5
C0
330
87
100
AcDbEntity
  8
P-SANR-FIXT
100
AcDbLine
 10
830.5535874402131
 20
2050.358257351877
 30
0.0
 11
850.4456592160659
 21
2045.353231756066
 31
0.0
  0
LINE
  5
C1
330
87
100
AcDbEntity
  8
P-SANR-FIXT
100
AcDbLine
 10
746.1255395900401
 20
2045.353231756066
 30
0.0
 11
766.017611365893
 21
2050.358257351877
 31
0.0
  0
ARC
  5
C2
330
87
100
AcDbEntity
  8
P-SANR-FIXT
100
AcDbCircle
 10
846.785599401867
 20
2030.806618330375
 30
0.0
 40
15.00000000000002
100
AcDbArc
 50
22.16645695900601
 51
75.87701985812429
  0
ARC
  5
C3
330
87
100
AcDbEntity
  8
P-SANR-FIXT
100
AcDbCircle
 10
749.7855994042389
 20
2030.806618330375
 30
0.0
 40
14.99999999999996
100
AcDbArc
 50
104.1229801418759
 51
157.8335430410148
  0
LINE
  5
C4
330
87
100
AcDbEntity
  8
P-SANR-FIXT
100
AcDbLine
 10
861.785599401867
 20
2030.603439653201
 30
0.0
 11
861.785599401867
 21
2029.093768542479
 31
0.0
  0
LINE
  5
C5
330
87
100
AcDbEntity
  8
P-SANR-FIXT
100
AcDbLine
 10
861.785599401867
 20
2001.566519261187
 30
0.0
 11
861.785599401867
 21
1998.4334509829
 31
0.0
  0
LINE
  5
C6
330
87
100
AcDbEntity
  8
P-SANR-FIXT
100
AcDbLine
 10
861.785599401867
 20
1970.906231457453
 30
0.0
 11
861.785599401867
 21
1969.396395985857
 31
0.0
  0
LINE
  5
C7
330
87
100
AcDbEntity
  8
P-SANR-FIXT
100
AcDbLine
 10
861.785599401867
 20
1965.499999997917
 30
0.0
 11
861.785599401867
 21
1962.499999999995
 31
0.0
  0
LINE
  5
C8
330
87
100
AcDbEntity
  8
P-SANR-FIXT
100
AcDbLine
 10
734.7855994042388
 20
1962.499999999995
 30
0.0
 11
734.7855994042388
 21
1965.499999997918
 31
0.0
  0
LINE
  5
C9
330
87
100
AcDbEntity
  8
P-SANR-FIXT
100
AcDbLine
 10
734.7855994042388
 20
1969.396395985856
 30
0.0
 11
734.7855994042388
 21
1970.906231457451
 31
0.0
  0
LINE
  5
CA
330
87
100
AcDbEntity
  8
P-SANR-FIXT
100
AcDbLine
 10
734.785599404239
 20
1998.43348390318
 30
0.0
 11
734.785599404239
 21
2001.566549017091
 31
0.0
  0
LINE
  5
CB
330
87
100
AcDbEntity
  8
P-SANR-FIXT
100
AcDbLine
 10
734.785599404239
 20
2029.287873809204
 30
0.0
 11
734.785599404239
 21
2030.399029763884
 31
0.0
  0
LINE
  5
CC
330
87
100
AcDbEntity
  8
P-SANR-FIXT
100
AcDbLine
 10
861.785599401867
 20
1962.499999999995
 30
0.0
 11
861.785599401867
 21
1952.999999999989
 31
0.0
  0
LINE
  5
CD
330
87
100
AcDbEntity
  8
P-SANR-FIXT
100
AcDbLine
 10
734.7855994042388
 20
1952.99999999999
 30
0.0
 11
734.7855994042388
 21
1962.499999999995
 31
0.0
  0
ARC
  5
CE
330
87
100
AcDbEntity
  8
P-SANR-FIXT
100
AcDbCircle
 10
858.7855994018669
 20
1952.999999999989
 30
0.0
 40
3.0
100
AcDbArc
 50
269.9999999999997
 51
0.0
  0
ARC
  5
CF
330
87
100
AcDbEntity
  8
P-SANR-FIXT
100
AcDbCircle
 10
737.7855994042388
 20
1952.99999999999
 30
0.0
 40
3.0
100
AcDbArc
 50
180.0
 51
269.9999999999997
  0
LINE
  5
D0
330
87
100
AcDbEntity
  8
P-SANR-FIXT
100
AcDbLine
 10
858.7855994018669
 20
1949.99999999999
 30
0.0
 11
840.9092974296383
 21
1949.99999999999
 31
0.0
  0
LINE
  5
D1
330
87
100
AcDbEntity
  8
P-SANR-FIXT
100
AcDbLine
 10
755.6605541420301
 20
1949.99999999999
 30
0.0
 11
737.7855994042388
 21
1949.99999999999
 31
0.0
  0
LINE
  5
D2
330
87
100
AcDbEntity
  8
P-SANR-FIXT
100
AcDbLine
 10
834.7855994030547
 20
1893.499999999908
 30
0.0
 11
834.7855994030547
 21
1920.499999999908
 31
0.0
  0
LINE
  5
D3
330
87
100
AcDbEntity
  8
P-SANR-FIXT
100
AcDbLine
 10
761.7855994030547
 20
1920.499999999908
 30
0.0
 11
761.7855994030547
 21
1893.499999999908
 31
0.0
  0
LINE
  5
D4
330
87
100
AcDbEntity
  8
P-SANR-FIXT
100
AcDbLine
 10
761.7855994030532
 20
1920.499999999908
 30
0.0
 11
834.7855994030531
 21
1920.499999999908
 31
0.0
  0
LINE
  5
D5
330
87
100
AcDbEntity
  8
P-SANR-FIXT
100
AcDbLine
 10
834.7855994030531
 20
1893.499999999908
 30
0.0
 11
761.7855994030532
 21
1893.499999999908
 31
0.0
  0
LWPOLYLINE
  5
D6
330
87
100
AcDbEntity
  8
P-SANR-FIXT
100
AcDbPolyline
 90
       41
 70
   128
 43
0.0
 10
810.7855994030538
 20
2054.999999999996
 10
810.9055674056136
 20
2054.997600319979
 10
811.0253434849612
 20
2054.990405118904
 10
811.1447360249204
 20
2054.978425907558
 10
811.2635540228964
 20
2054.961681850123
 10
811.3816073954387
 20
2054.94019973352
 10
811.498707282335
 20
2054.914013924552
 10
811.6146663487461
 20
2054.883166314929
 10
811.7292990849019
 20
2054.847706254244
 10
811.8424221028787
 20
2054.80769047103
 10
811.9538544299796
 20
2054.763182982005
 10
812.0634177982518
 20
2054.714254989656
 10
812.170936929678
 20
2054.660984768334
 10
812.2762398165846
 20
2054.603457539029
 10
812.3791579968163
 20
2054.541765333036
 10
812.4795268232388
 20
2054.476006844725
 10
812.5771857271409
 20
2054.406287273649
 10
812.671978475109
 20
2054.332718156249
 10
812.763753418968
 20
2054.255417187419
 10
812.8523637383853
 20
2054.174508032218
 10
812.9376676757521
 20
2054.090120128038
 10
813.0195287629661
 20
2054.00238847752
 10
813.0978160397503
 20
2053.911453432592
 10
813.1724042631626
 20
2053.817460469927
 10
813.2431741079566
 20
2053.720559958213
 10
813.3100123574772
 20
2053.620906917601
 10
813.3728120847834
 20
2053.518660771694
 10
813.4314728237084
 20
2053.413985092517
 10
813.4859007295832
 20
2053.307047338826
 10
813.536008729369
 20
2053.198018588215
 10
813.5817166609552
 20
2053.087073263426
 10
813.6229514014022
 20
2052.974388853312
 10
813.6596469839215
 20
2052.860145628892
 10
813.6917447034084
 20
2052.744526354953
 10
813.7191932103597
 20
2052.627715997671
 10
813.7419485930189
 20
2052.509901428697
 10
813.7599744476288
 20
2052.391271126211
 10
813.7732419366667
 20
2052.272014873389
 10
813.7817298349803
 20
2052.152323454797
 10
813.7854245637434
 20
2052.032388351171
 10
813.7855994030536
 20
2051.999999999996
  0
LWPOLYLINE
  5
D7
330
87
100
AcDbEntity
  8
P-SANR-FIXT
100
AcDbPolyline
 90
       41
 70
   128
 43
0.0
 10
782.7855994030557
 20
2051.999999999996
 10
782.7879990830727
 20
2052.119968002556
 10
782.7951942841479
 20
2052.239744081904
 10
782.807173495494
 20
2052.359136621863
 10
782.8239175529288
 20
2052.477954619839
 10
782.8453996695318
 20
2052.596007992381
 10
782.8715854784996
 20
2052.713107879277
 10
782.9024330881233
 20
2052.829066945689
 10
782.9378931488084
 20
2052.943699681844
 10
782.9779089320218
 20
2053.056822699821
 10
783.0224164210469
 20
2053.168255026922
 10
783.0713444133956
 20
2053.277818395194
 10
783.1246146347178
 20
2053.38533752662
 10
783.1821418640226
 20
2053.490640413528
 10
783.2438340700154
 20
2053.593558593759
 10
783.3095925583266
 20
2053.693927420181
 10
783.3793121294028
 20
2053.791586324083
 10
783.4528812468029
 20
2053.886379072052
 10
783.5301822156329
 20
2053.978154015911
 10
783.6110913708328
 20
2054.066764335328
 10
783.6954792750141
 20
2054.152068272695
 10
783.7832109255319
 20
2054.233929359909
 10
783.8741459704599
 20
2054.312216636693
 10
783.9681389331253
 20
2054.386804860105
 10
784.0650394448383
 20
2054.457574704899
 10
784.1646924854511
 20
2054.524412954419
 10
784.2669386313573
 20
2054.587212681726
 10
784.3716143105345
 20
2054.645873420651
 10
784.4785520642255
 20
2054.700301326525
 10
784.5875808148368
 20
2054.750409326311
 10
784.6985261396256
 20
2054.796117257898
 10
784.8112105497393
 20
2054.837351998345
 10
784.9254537741598
 20
2054.874047580864
 10
785.0410730480985
 20
2054.906145300351
 10
785.1578834053814
 20
2054.933593807303
 10
785.2756979743548
 20
2054.956349189962
 10
785.3943282768412
 20
2054.974375044571
 10
785.5135845296627
 20
2054.987642533609
 10
785.6332759482549
 20
2054.996130431923
 10
785.7532110518807
 20
2054.999825160686
 10
785.7855994030557
 20
2054.999999999996
  0
LWPOLYLINE
  5
D8
330
87
100
AcDbEntity
  8
P-SANR-FIXT
100
AcDbPolyline
 90
        5
 70
   128
 43
0.0
 10
785.7855994030557
 20
2054.999999999996
 10
785.7955980697933
 20
2054.999999999996
 10
785.8255780742729
 20
2054.999999999996
 10
785.8754914548824
 20
2054.999999999996
 10
785.8879963382451
 20
2054.999999999996
  0
LWPOLYLINE
  5
D9
330
87
100
AcDbEntity
  8
P-SANR-FIXT
100
AcDbPolyline
 90
        5
 70
   128
 43
0.0
 10
810.6816747032786
 20
2054.999999999996
 10
810.721148195047
 20
2054.999999999996
 10
810.761896554243
 20
2054.999999999996
 10
810.7826854994653
 20
2054.999999999996
 10
810.7855994030538
 20
2054.999999999996
  0
LWPOLYLINE
  5
DA
330
87
100
AcDbEntity
  8
P-SANR-FIXT
100
AcDbPolyline
 90
       80
 70
   128
 43
0.0
 10
810.7855994030538
 20
2054.999999999996
 10
810.7756007363159
 20
2054.999999999996
 10
810.7456207318364
 20
2054.999999999996
 10
810.6957073512269
 20
2054.999999999996
 10
810.6259404452492
 20
2054.999999999996
 10
810.5364316260692
 20
2054.999999999996
 10
810.4273240887041
 20
2054.999999999996
 10
810.2987923819384
 20
2054.999999999996
 10
810.1510421290845
 20
2054.999999999996
 10
809.984309699028
 20
2054.999999999996
 10
809.7988618280899
 20
2054.999999999996
 10
809.5949951933034
 20
2054.999999999996
 10
809.3730359377948
 20
2054.999999999996
 10
809.1333391490245
 20
2054.999999999996
 10
808.8762882907214
 20
2054.999999999996
 10
808.6022945894248
 20
2054.999999999996
 10
808.3117963766074
 20
2054.999999999996
 10
808.0052583874405
 20
2054.999999999996
 10
807.683171017315
 20
2054.999999999996
 10
807.3460495373151
 20
2054.999999999996
 10
806.9944332698934
 20
2054.999999999996
 10
806.6288847260702
 20
2054.999999999996
 10
806.2499887055363
 20
2054.999999999996
 10
805.8583513610972
 20
2054.999999999996
 10
805.45459922896
 20
2054.999999999996
 10
805.0393782264061
 20
2054.999999999996
 10
804.613352618464
 20
2054.999999999996
 10
804.177203955226
 20
2054.999999999996
 10
803.7316299815133
 20
2054.999999999996
 10
803.2773435206328
 20
2054.999999999996
 10
802.815071334013
 20
2054.999999999996
 10
802.345552958539
 20
2054.999999999996
 10
801.8695395234539
 20
2054.999999999996
 10
801.3877925487092
 20
2054.999999999996
 10
800.9010827266973
 20
2054.999999999996
 10
800.4101886893076
 20
2054.999999999996
 10
799.9158957622815
 20
2054.999999999996
 10
799.4189947088585
 20
2054.999999999996
 10
798.9202804647244
 20
2054.999999999996
 10
798.4205508662831
 20
2054.999999999996
 10
797.9206053742886
 20
2054.999999999996
 10
797.421243794879
 20
2054.999999999996
 10
796.9232650000565
 20
2054.999999999996
 10
796.4274656496628
 20
2054.999999999996
 10
795.9346389168939
 20
2054.999999999996
 10
795.4455732193914
 20
2054.999999999996
 10
794.9610509579428
 20
2054.999999999996
 10
794.4818472648071
 20
2054.999999999996
 10
794.0087287636688
 20
2054.999999999996
 10
793.5424523432033
 20
2054.999999999996
 10
793.0837639462159
 20
2054.999999999996
 10
792.6333973762939
 20
2054.999999999996
 10
792.1920731238757
 20
2054.999999999996
 10
791.7604972136214
 20
2054.999999999996
 10
791.3393600749226
 20
2054.999999999996
 10
790.9293354373634
 20
2054.999999999996
 10
790.5310792528966
 20
2054.999999999996
 10
790.1452286464608
 20
2054.999999999996
 10
789.7724008967159
 20
2054.999999999996
 10
789.4131924485288
 20
2054.999999999996
 10
789.0681779587896
 20
2054.999999999996
 10
788.7379093770833
 20
2054.999999999996
 10
788.4229150626862
 20
2054.999999999996
 10
788.1236989393067
 20
2054.999999999996
 10
787.8407396889127
 20
2054.999999999996
 10
787.5744899859437
 20
2054.999999999996
 10
787.3253757731271
 20
2054.999999999996
 10
787.0937955800621
 20
2054.999999999996
 10
786.8801198856561
 20
2054.999999999996
 10
786.684690525439
 20
2054.999999999996
 10
786.5078201446973
 20
2054.999999999996
 10
786.3497916983103
 20
2054.999999999996
 10
786.2108579980811
 20
2054.999999999996
 10
786.091241308292
 20
2054.999999999996
 10
785.9911329901307
 20
2054.999999999996
 10
785.9106931955501
 20
2054.999999999996
 10
785.8500506110624
 20
2054.999999999996
 10
785.8093022518663
 20
2054.999999999996
 10
785.788513306644
 20
2054.999999999996
 10
785.7855994030557
 20
2054.999999999996
  0
LINE
  5
DB
330
87
100
AcDbEntity
  8
P-SANR-FIXT
100
AcDbLine
 10
782.7855994030557
 20
2051.999999999996
 30
0.0
 11
782.7855994030557
 21
2051.000000000001
 31
0.0
  0
LINE
  5
DC
330
87
100
AcDbEntity
  8
P-SANR-FIXT
100
AcDbLine
 10
813.7855994030536
 20
2051.000000000001
 30
0.0
 11
813.7855994030536
 21
2051.999999999996
 31
0.0
  0
LINE
  5
DD
330
87
100
AcDbEntity
  8
P-SANR-FIXT
100
AcDbLine
 10
813.517478466159
 20
2051.0
 30
0.0
 11
813.3222203155579
 21
2051.0
 31
0.0
  0
LINE
  5
DE
330
87
100
AcDbEntity
  8
P-SANR-FIXT
100
AcDbLine
 10
812.6057321569771
 20
2051.0
 30
0.0
 11
812.349823307696
 21
2051.0
 31
0.0
  0
LINE
  5
DF
330
87
100
AcDbEntity
  8
P-SANR-FIXT
100
AcDbLine
 10
811.9553790004518
 20
2051.0
 30
0.0
 11
811.7228664357334
 21
2051.0
 31
0.0
  0
LINE
  5
E0
330
87
100
AcDbEntity
  8
P-SANR-FIXT
100
AcDbLine
 10
810.9925014209581
 20
2051.0
 30
0.0
 11
810.2672614301749
 21
2051.0
 31
0.0
  0
LINE
  5
E1
330
87
100
AcDbEntity
  8
P-SANR-FIXT
100
AcDbLine
 10
810.1645795136654
 20
2051.0
 30
0.0
 11
808.2538571026834
 21
2051.0
 31
0.0
  0
LINE
  5
E2
330
87
100
AcDbEntity
  8
P-SANR-FIXT
100
AcDbLine
 10
808.1186953075892
 20
2051.0
 30
0.0
 11
807.1837809123207
 21
2051.0
 31
0.0
  0
LINE
  5
E3
330
87
100
AcDbEntity
  8
P-SANR-FIXT
100
AcDbLine
 10
806.8969380148567
 20
2051.0
 30
0.0
 11
806.044137222597
 21
2051.0
 31
0.0
  0
LINE
  5
E4
330
87
100
AcDbEntity
  8
P-SANR-FIXT
100
AcDbLine
 10
805.5922488238557
 20
2051.0
 30
0.0
 11
804.8440584935455
 21
2051.0
 31
0.0
  0
LINE
  5
E5
330
87
100
AcDbEntity
  8
P-SANR-FIXT
100
AcDbLine
 10
803.5931451416901
 20
2051.0
 30
0.0
 11
802.7850119004973
 21
2051.0
 31
0.0
  0
LINE
  5
E6
330
87
100
AcDbEntity
  8
P-SANR-FIXT
100
AcDbLine
 10
802.301398865384
 20
2051.0
 30
0.0
 11
801.3094993943031
 21
2051.0
 31
0.0
  0
LINE
  5
E7
330
87
100
AcDbEntity
  8
P-SANR-FIXT
100
AcDbLine
 10
800.9791480044986
 20
2051.0
 30
0.0
 11
799.8048650781615
 21
2051.0
 31
0.0
  0
LINE
  5
E8
330
87
100
AcDbEntity
  8
P-SANR-FIXT
100
AcDbLine
 10
799.6369680459017
 20
2051.0
 30
0.0
 11
796.9342307602046
 21
2051.0
 31
0.0
  0
LINE
  5
E9
330
87
100
AcDbEntity
  8
P-SANR-FIXT
100
AcDbLine
 10
796.7663337279453
 20
2051.0
 30
0.0
 11
795.5920508016077
 21
2051.0
 31
0.0
  0
LINE
  5
EA
330
87
100
AcDbEntity
  8
P-SANR-FIXT
100
AcDbLine
 10
795.2616994118036
 20
2051.0
 30
0.0
 11
794.2697999407226
 21
2051.0
 31
0.0
  0
LINE
  5
EB
330
87
100
AcDbEntity
  8
P-SANR-FIXT
100
AcDbLine
 10
793.7861869056095
 20
2051.0
 30
0.0
 11
792.9780536644162
 21
2051.0
 31
0.0
  0
LINE
  5
EC
330
87
100
AcDbEntity
  8
P-SANR-FIXT
100
AcDbLine
 10
791.727140312561
 20
2051.0
 30
0.0
 11
790.9789499822509
 21
2051.0
 31
0.0
  0
LINE
  5
ED
330
87
100
AcDbEntity
  8
P-SANR-FIXT
100
AcDbLine
 10
790.5270615835092
 20
2051.0
 30
0.0
 11
789.6742607912501
 21
2051.0
 31
0.0
  0
LINE
  5
EE
330
87
100
AcDbEntity
  8
P-SANR-FIXT
100
AcDbLine
 10
789.3874178937858
 20
2051.0
 30
0.0
 11
788.4525034985175
 21
2051.0
 31
0.0
  0
LINE
  5
EF
330
87
100
AcDbEntity
  8
P-SANR-FIXT
100
AcDbLine
 10
788.317341703423
 20
2051.0
 30
0.0
 11
786.4066192924407
 21
2051.0
 31
0.0
  0
LINE
  5
F0
330
87
100
AcDbEntity
  8
P-SANR-FIXT
100
AcDbLine
 10
786.3039373759317
 20
2051.0
 30
0.0
 11
785.5786973851482
 21
2051.0
 31
0.0
  0
LINE
  5
F1
330
87
100
AcDbEntity
  8
P-SANR-FIXT
100
AcDbLine
 10
784.8483323703727
 20
2051.0
 30
0.0
 11
784.6158198056547
 21
2051.0
 31
0.0
  0
LINE
  5
F2
330
87
100
AcDbEntity
  8
P-SANR-FIXT
100
AcDbLine
 10
784.2213754984104
 20
2051.0
 30
0.0
 11
783.9654666491292
 21
2051.0
 31
0.0
  0
LINE
  5
F3
330
87
100
AcDbEntity
  8
P-SANR-FIXT
100
AcDbLine
 10
783.1678227484538
 20
2051.0
 30
0.0
 11
783.053720339948
 21
2051.0
 31
0.0
  0
LINE
  5
F4
330
87
100
AcDbEntity
  8
P-SANR-FIXT
100
AcDbLine
 10
787.6352292956958
 20
1854.499999999971
 30
0.0
 11
787.6352292956958
 21
1853.499999999941
 31
0.0
  0
LINE
  5
F5
330
87
100
AcDbEntity
  8
P-SANR-FIXT
100
AcDbLine
 10
808.9359695104135
 20
1853.499999999941
 30
0.0
 11
808.9359695104135
 21
1854.499999999971
 31
0.0
  0
LINE
  5
F6
330
87
100
AcDbEntity
  8
P-SANR-FIXT
100
AcDbLine
 10
786.7906355104657
 20
1853.499999999941
 30
0.0
 11
786.7906355104657
 21
1849.299999999956
 31
0.0
  0
LINE
  5
F7
330
87
100
AcDbEntity
  8
P-SANR-FIXT
100
AcDbLine
 10
809.7805632956438
 20
1849.299999999956
 30
0.0
 11
809.7805632956438
 21
1853.499999999941
 31
0.0
  0
LINE
  5
F8
330
87
100
AcDbEntity
  8
P-SANR-FIXT
100
AcDbLine
 10
783.6461779852566
 20
1849.299999999956
 30
0.0
 11
783.6461779852566
 21
1835.780578582154
 31
0.0
  0
LINE
  5
F9
330
87
100
AcDbEntity
  8
P-SANR-FIXT
100
AcDbLine
 10
812.9250208208528
 20
1842.449999999956
 30
0.0
 11
812.9250208208528
 21
1849.299999999956
 31
0.0
  0
LINE
  5
FA
330
87
100
AcDbEntity
  8
P-SANR-FIXT
100
AcDbLine
 10
782.865599403059
 20
1835.780578582154
 30
0.0
 11
782.865599403059
 21
1825.49999999994
 31
0.0
  0
LINE
  5
FB
330
87
100
AcDbEntity
  8
P-SANR-FIXT
100
AcDbLine
 10
813.7055994030502
 20
1825.49999999994
 30
0.0
 11
813.7055994030502
 21
1829.549999999956
 31
0.0
  0
LINE
  5
FC
330
87
100
AcDbEntity
  8
P-SANR-FIXT
100
AcDbLine
 10
783.7855994030602
 20
1825.49999999994
 30
0.0
 11
783.7855994030602
 21
1823.99999999994
 31
0.0
  0
LINE
  5
FD
330
87
100
AcDbEntity
  8
P-SANR-FIXT
100
AcDbLine
 10
812.7855994030491
 20
1823.99999999994
 30
0.0
 11
812.7855994030491
 21
1825.49999999994
 31
0.0
  0
LINE
  5
FE
330
87
100
AcDbEntity
  8
P-SANR-FIXT
100
AcDbLine
 10
786.5355994030588
 20
1823.99999999994
 30
0.0
 11
786.5355994030588
 21
1820.99999999994
 31
0.0
  0
LINE
  5
FF
330
87
100
AcDbEntity
  8
P-SANR-FIXT
100
AcDbLine
 10
810.0355994030504
 20
1820.99999999994
 30
0.0
 11
810.0355994030504
 21
1823.99999999994
 31
0.0
  0
LINE
  5
100
330
87
100
AcDbEntity
  8
P-SANR-FIXT
100
AcDbLine
 10
784.835599403059
 20
1820.99999999994
 30
0.0
 11
784.835599403059
 21
1818.999999999968
 31
0.0
  0
LINE
  5
101
330
87
100
AcDbEntity
  8
P-SANR-FIXT
100
AcDbLine
 10
811.7355994030504
 20
1818.999999999968
 30
0.0
 11
811.7355994030504
 21
1820.99999999994
 31
0.0
  0
LINE
  5
102
330
87
100
AcDbEntity
  8
P-SANR-FIXT
100
AcDbLine
 10
783.4855994030722
 20
1818.999999999968
 30
0.0
 11
783.4855994030722
 21
1809.999999999968
 31
0.0
  0
LINE
  5
103
330
87
100
AcDbEntity
  8
P-SANR-FIXT
100
AcDbLine
 10
813.0855994030371
 20
1809.999999999968
 30
0.0
 11
813.0855994030371
 21
1818.999999999968
 31
0.0
  0
LINE
  5
104
330
87
100
AcDbEntity
  8
P-SANR-FIXT
100
AcDbLine
 10
790.7855994030592
 20
1809.999999999968
 30
0.0
 11
790.7855994030592
 21
1787.999999999968
 31
0.0
  0
LINE
  5
105
330
87
100
AcDbEntity
  8
P-SANR-FIXT
100
AcDbLine
 10
805.78559940305
 20
1787.999999999968
 30
0.0
 11
805.78559940305
 21
1809.999999999968
 31
0.0
  0
LINE
  5
106
330
87
100
AcDbEntity
  8
P-SANR-FIXT
100
AcDbLine
 10
790.7855994030592
 20
1787.999999999968
 30
0.0
 11
791.7855994030591
 21
1786.999999999969
 31
0.0
  0
LINE
  5
107
330
87
100
AcDbEntity
  8
P-SANR-FIXT
100
AcDbLine
 10
804.7855994030502
 20
1786.999999999969
 30
0.0
 11
805.78559940305
 21
1787.999999999968
 31
0.0
  0
LINE
  5
108
330
87
100
AcDbEntity
  8
P-SANR-FIXT
100
AcDbLine
 10
824.7855994030592
 20
1839.749999999893
 30
0.0
 11
820.2855994030592
 21
1839.749999999893
 31
0.0
  0
LINE
  5
109
330
87
100
AcDbEntity
  8
P-SANR-FIXT
100
AcDbLine
 10
820.285599403059
 20
1832.250000000019
 30
0.0
 11
824.7855994030592
 21
1832.250000000019
 31
0.0
  0
LINE
  5
10A
330
87
100
AcDbEntity
  8
P-SANR-FIXT
100
AcDbLine
 10
820.2855994030592
 20
1842.449999999956
 30
0.0
 11
812.9250208208528
 21
1842.449999999956
 31
0.0
  0
LINE
  5
10B
330
87
100
AcDbEntity
  8
P-SANR-FIXT
100
AcDbLine
 10
813.7055994030502
 20
1829.549999999956
 30
0.0
 11
820.285599403059
 21
1829.549999999956
 31
0.0
  0
LINE
  5
10C
330
87
100
AcDbEntity
  8
P-SANR-FIXT
100
AcDbLine
 10
786.7906355104642
 20
1853.49999999994
 30
0.0
 11
809.780563295642
 21
1853.49999999994
 31
0.0
  0
LINE
  5
10D
330
87
100
AcDbEntity
  8
P-SANR-FIXT
100
AcDbLine
 10
783.6461779852551
 20
1849.299999999956
 30
0.0
 11
812.9250208208512
 21
1849.299999999956
 31
0.0
  0
SPLINE
  5
10E
330
87
100
AcDbEntity
  8
P-SANR-FIXT
100
AcDbSpline
210
0.0
220
0.0
230
1.0
 70
     8
 71
     3
 72
    12
 73
     8
 74
     0
 42
0.000000001
 43
0.0000000001
 40
0.0
 40
0.0
 40
0.0
 40
0.0
 40
0.1428571428571428
 40
0.2857142857142857
 40
0.5714285714285714
 40
0.7857142857142857
 40
1.0
 40
1.0
 40
1.0
 40
1.0
 10
811.4293547722951
 20
1835.780578582153
 30
0.0
 10
811.4224331315206
 20
1836.289066289684
 30
0.0
 10
811.4617876371342
 20
1837.275809306136
 30
0.0
 10
811.7538073223609
 20
1839.178360864472
 30
0.0
 10
812.3013474857934
 20
1840.945929147397
 30
0.0
 10
812.8050361399534
 20
1842.185045967775
 30
0.0
 10
812.9250208208512
 20
1842.446208070968
 30
0.0
 10
812.9250208208512
 20
1842.449999999955
 30
0.0
  0
SPLINE
  5
10F
330
87
100
AcDbEntity
  8
P-SANR-FIXT
100
AcDbSpline
210
0.0
220
0.0
230
1.0
 70
     8
 71
     3
 72
    15
 73
    11
 74
     0
 42
0.000000001
 43
0.0000000001
 40
0.0
 40
0.0
 40
0.0
 40
0.0
 40
0.1428571428571428
 40
0.2857142857142857
 40
0.5714285714285714
 40
0.6785714285714287
 40
0.7857142857142857
 40
0.8392857142857142
 40
0.8928571428571427
 40
1.0
 40
1.0
 40
1.0
 40
1.0
 10
813.7055994030488
 20
1829.549999999955
 30
0.0
 10
813.7055994030488
 20
1829.552080499164
 30
0.0
 10
813.6602888813271
 20
1829.656156532348
 30
0.0
 10
813.4074925835315
 20
1830.282250999434
 30
0.0
 10
813.008460683921
 20
1831.379817772002
 30
0.0
 10
812.6599506424906
 20
1832.725799832736
 30
0.0
 10
812.5033767972439
 20
1833.520497942039
 30
0.0
 10
812.4040740413621
 20
1834.19684732221
 30
0.0
 10
812.3296458887265
 20
1834.881804004601
 30
0.0
 10
812.3003039050914
 20
1835.416067698268
 30
0.0
 10
812.2935273639779
 20
1835.780578582153
 30
0.0
  0
LINE
  5
110
330
87
100
AcDbEntity
  8
P-SANR-FIXT
100
AcDbLine
 10
782.8655994030575
 20
1835.780578582153
 30
0.0
 11
812.2935273639779
 21
1835.780578582153
 31
0.0
  0
LINE
  5
111
330
87
100
AcDbEntity
  8
P-SANR-FIXT
100
AcDbLine
 10
782.8655994030575
 20
1825.49999999994
 30
0.0
 11
813.7055994030488
 21
1825.49999999994
 31
0.0
  0
LINE
  5
112
330
87
100
AcDbEntity
  8
P-SANR-FIXT
100
AcDbLine
 10
783.7855994030587
 20
1823.99999999994
 30
0.0
 11
812.7855994030475
 21
1823.99999999994
 31
0.0
  0
LINE
  5
113
330
87
100
AcDbEntity
  8
P-SANR-FIXT
100
AcDbLine
 10
784.8355994030574
 20
1820.99999999994
 30
0.0
 11
811.7355994030489
 21
1820.99999999994
 31
0.0
  0
LINE
  5
114
330
87
100
AcDbEntity
  8
P-SANR-FIXT
100
AcDbLine
 10
783.4855994030706
 20
1818.999999999968
 30
0.0
 11
813.0855994030357
 21
1818.999999999968
 31
0.0
  0
LINE
  5
115
330
87
100
AcDbEntity
  8
P-SANR-FIXT
100
AcDbLine
 10
783.4855994030706
 20
1809.999999999968
 30
0.0
 11
813.0855994030357
 21
1809.999999999968
 31
0.0
  0
LINE
  5
116
330
87
100
AcDbEntity
  8
P-SANR-FIXT
100
AcDbLine
 10
790.7855994030576
 20
1787.999999999968
 30
0.0
 11
805.7855994030488
 21
1787.999999999968
 31
0.0
  0
LINE
  5
117
330
87
100
AcDbEntity
  8
P-SANR-FIXT
100
AcDbLine
 10
791.7855994030576
 20
1786.999999999968
 30
0.0
 11
804.7855994030488
 21
1786.999999999968
 31
0.0
  0
LINE
  5
118
330
87
100
AcDbEntity
  8
P-SANR-FIXT
100
AcDbLine
 10
824.7855994030578
 20
1832.250000000019
 30
0.0
 11
824.7855994030578
 21
1839.749999999892
 31
0.0
  0
LINE
  5
119
330
87
100
AcDbEntity
  8
P-SANR-FIXT
100
AcDbLine
 10
820.2855994030576
 20
1842.449999999955
 30
0.0
 11
820.2855994030576
 21
1829.549999999955
 31
0.0
  0
LINE
  5
11A
330
87
100
AcDbEntity
  8
P-SANR-FIXT
100
AcDbLine
 10
784.2813872091255
 20
1867.20963746672
 30
0.0
 11
784.2813872091255
 21
1854.499999999971
 31
0.0
  0
LINE
  5
11B
330
87
100
AcDbEntity
  8
P-SANR-FIXT
100
AcDbLine
 10
812.2898115969871
 20
1854.499999999971
 30
0.0
 11
812.2898115969871
 21
1867.20963746672
 31
0.0
  0
LINE
  5
11C
330
87
100
AcDbEntity
  8
P-SANR-FIXT
100
AcDbLine
 10
812.2898115969857
 20
1854.49999999997
 30
0.0
 11
812.1476749917848
 21
1854.49999999997
 31
0.0
  0
LINE
  5
11D
330
87
100
AcDbEntity
  8
P-SANR-FIXT
100
AcDbLine
 10
812.1476749917848
 20
1854.49999999997
 30
0.0
 11
806.9401843127421
 21
1854.49999999997
 31
0.0
  0
LINE
  5
11E
330
87
100
AcDbEntity
  8
P-SANR-FIXT
100
AcDbLine
 10
806.9401843127421
 20
1854.49999999997
 30
0.0
 11
803.4930900820974
 21
1854.49999999997
 31
0.0
  0
LINE
  5
11F
330
87
100
AcDbEntity
  8
P-SANR-FIXT
100
AcDbLine
 10
803.4930900820974
 20
1854.49999999997
 30
0.0
 11
793.0781087240123
 21
1854.49999999997
 31
0.0
  0
LINE
  5
120
330
87
100
AcDbEntity
  8
P-SANR-FIXT
100
AcDbLine
 10
793.0781087240123
 20
1854.49999999997
 30
0.0
 11
789.6310144933676
 21
1854.49999999997
 31
0.0
  0
LINE
  5
121
330
87
100
AcDbEntity
  8
P-SANR-FIXT
100
AcDbLine
 10
789.6310144933676
 20
1854.49999999997
 30
0.0
 11
784.4235238143251
 21
1854.49999999997
 31
0.0
  0
LINE
  5
122
330
87
100
AcDbEntity
  8
P-SANR-FIXT
100
AcDbLine
 10
784.4235238143251
 20
1854.49999999997
 30
0.0
 11
784.2813872091241
 21
1854.49999999997
 31
0.0
  0
LINE
  5
123
330
87
100
AcDbEntity
  8
P-SANR-FIXT
100
AcDbLine
 10
784.2813872091241
 20
1867.20963746672
 30
0.0
 11
784.2826432707901
 21
1867.20963746672
 31
0.0
  0
LINE
  5
124
330
87
100
AcDbEntity
  8
P-SANR-FIXT
100
AcDbLine
 10
784.387076018632
 20
1867.20963746672
 30
0.0
 11
784.423523814325
 21
1867.20963746672
 31
0.0
  0
LINE
  5
125
330
87
100
AcDbEntity
  8
P-SANR-FIXT
100
AcDbLine
 10
784.4235238143251
 20
1867.20963746672
 30
0.0
 11
784.4519283901686
 21
1867.20963746672
 31
0.0
  0
LINE
  5
126
330
87
100
AcDbEntity
  8
P-SANR-FIXT
100
AcDbLine
 10
789.6310144933676
 20
1867.20963746672
 30
0.0
 11
789.8574061150395
 21
1867.20963746672
 31
0.0
  0
LINE
  5
127
330
87
100
AcDbEntity
  8
P-SANR-FIXT
100
AcDbLine
 10
790.4877681354228
 20
1867.20963746672
 30
0.0
 11
791.2834933060894
 21
1867.20963746672
 31
0.0
  0
LINE
  5
128
330
87
100
AcDbEntity
  8
P-SANR-FIXT
100
AcDbLine
 10
791.674911581702
 20
1867.20963746672
 30
0.0
 11
792.9234427263682
 21
1867.20963746672
 31
0.0
  0
LINE
  5
129
330
87
100
AcDbEntity
  8
P-SANR-FIXT
100
AcDbLine
 10
803.6477560797385
 20
1867.20963746672
 30
0.0
 11
804.8962872244047
 21
1867.20963746672
 31
0.0
  0
LINE
  5
12A
330
87
100
AcDbEntity
  8
P-SANR-FIXT
100
AcDbLine
 10
805.2877055000202
 20
1867.20963746672
 30
0.0
 11
805.5002888309456
 21
1867.20963746672
 31
0.0
  0
LINE
  5
12B
330
87
100
AcDbEntity
  8
P-SANR-FIXT
100
AcDbLine
 10
806.0834306706835
 20
1867.20963746672
 30
0.0
 11
806.9401843127421
 21
1867.20963746672
 31
0.0
  0
LINE
  5
12C
330
87
100
AcDbEntity
  8
P-SANR-FIXT
100
AcDbLine
 10
812.1192704159364
 20
1867.20963746672
 30
0.0
 11
812.1476749917848
 21
1867.20963746672
 31
0.0
  0
LINE
  5
12D
330
87
100
AcDbEntity
  8
P-SANR-FIXT
100
AcDbLine
 10
812.1476749917846
 20
1867.20963746672
 30
0.0
 11
812.1841227874835
 21
1867.20963746672
 31
0.0
  0
LINE
  5
12E
330
87
100
AcDbEntity
  8
P-SANR-FIXT
100
AcDbLine
 10
812.2885555353175
 20
1867.20963746672
 30
0.0
 11
812.2898115969857
 21
1867.20963746672
 31
0.0
  0
LINE
  5
12F
330
87
100
AcDbEntity
  8
P-SANR-FIXT
100
AcDbLine
 10
784.4235238143251
 20
1854.49999999997
 30
0.0
 11
784.4235238143251
 21
1867.20963746672
 31
0.0
  0
LINE
  5
130
330
87
100
AcDbEntity
  8
P-SANR-FIXT
100
AcDbLine
 10
789.6310144933676
 20
1854.49999999997
 30
0.0
 11
789.6310144933676
 21
1867.20963746672
 31
0.0
  0
LINE
  5
131
330
87
100
AcDbEntity
  8
P-SANR-FIXT
100
AcDbLine
 10
793.0781087240123
 20
1854.49999999997
 30
0.0
 11
793.0781087240123
 21
1867.20963746672
 31
0.0
  0
LINE
  5
132
330
87
100
AcDbEntity
  8
P-SANR-FIXT
100
AcDbLine
 10
803.4930900820972
 20
1854.49999999997
 30
0.0
 11
803.4930900820972
 21
1867.20963746672
 31
0.0
  0
LINE
  5
133
330
87
100
AcDbEntity
  8
P-SANR-FIXT
100
AcDbLine
 10
806.9401843127421
 20
1854.49999999997
 30
0.0
 11
806.9401843127421
 21
1867.20963746672
 31
0.0
  0
LINE
  5
134
330
87
100
AcDbEntity
  8
P-SANR-FIXT
100
AcDbLine
 10
812.1476749917846
 20
1854.49999999997
 30
0.0
 11
812.1476749917846
 21
1867.20963746672
 31
0.0
  0
LINE
  5
135
330
87
100
AcDbEntity
  8
P-SANR-FIXT
100
AcDbLine
 10
759.2855994030547
 20
1923.499999999972
 30
0.0
 11
759.7568735458395
 21
1921.741180954806
 31
0.0
  0
LINE
  5
136
330
87
100
AcDbEntity
  8
P-SANR-FIXT
100
AcDbLine
 10
836.8143252602697
 20
1921.741180954806
 30
0.0
 11
837.2855994030548
 21
1923.499999999972
 31
0.0
  0
LWPOLYLINE
  5
137
330
87
100
AcDbEntity
  8
P-SANR-FIXT
100
AcDbPolyline
 90
       34
 70
   128
 43
0.0
 10
836.8143252602697
 20
1921.741180954806
 10
836.8032026213469
 20
1921.702761251769
 10
836.7905525010048
 20
1921.664817067322
 10
836.7763951367372
 20
1921.627409104065
 10
836.7607531773071
 20
1921.590597206759
 10
836.7436516465128
 20
1921.554440266588
 10
836.7251179031555
 20
1921.518996126943
 10
836.7051815972708
 20
1921.484321490886
 10
836.6838746226951
 20
1921.450471830437
 10
836.6612310660427
 20
1921.417501297833
 10
836.637287152174
 20
1921.385462638893
 10
836.6120811862431
 20
1921.354407108636
 10
836.5856534924187
 20
1921.324384389286
 10
836.5580463493733
 20
1921.295442510789
 10
836.5293039226466
 20
1921.267627773978
 10
836.4994721939899
 20
1921.240984676497
 10
836.4685988878051
 20
1921.215555841618
 10
836.4367333947965
 20
1921.191381950054
 10
836.4039266929552
 20
1921.168501674873
 10
836.3702312660057
 20
1921.146951619636
 10
836.3357010194429
 20
1921.126766259833
 10
836.3003911942957
 20
1921.107977887734
 10
836.2643582787518
 20
1921.090616560728
 10
836.2276599177892
 20
1921.074710053232
 10
836.1903548209575
 20
1921.060283812266
 10
836.152502668453
 20
1921.047360916738
 10
836.1141640156454
 20
1921.035962040525
 10
836.0754001962002
 20
1921.026105419396
 10
836.0362732239599
 20
1921.017806821843
 10
835.9968456937332
 20
1921.011079523851
 10
835.9571806811578
 20
1921.005934287663
 10
835.9173416417922
 20
1921.002379344558
 10
835.8773923096009
 20
1921.000420381687
 10
835.848399433981
 20
1920.999999999908
  0
LWPOLYLINE
  5
138
330
87
100
AcDbEntity
  8
P-SANR-FIXT
100
AcDbPolyline
 90
       34
 70
   128
 43
0.0
 10
760.7227993721283
 20
1920.999999999908
 10
760.6828100379418
 20
1921.000799893247
 10
760.6428846781595
 20
1921.003198293606
 10
760.6030871648397
 20
1921.007191364055
 10
760.5634811655142
 20
1921.012772716533
 10
760.5241300413334
 20
1921.019933422067
 10
760.4850967457013
 20
1921.028662025056
 10
760.4464437235643
 20
1921.038944561598
 10
760.4082328115123
 20
1921.050764581826
 10
760.3705251388533
 20
1921.064103176231
 10
760.3333810298197
 20
1921.078939005906
 10
760.2968599070625
 20
1921.095248336689
 10
760.261020196587
 20
1921.113005077129
 10
760.2259192342848
 20
1921.132180820231
 10
760.1916131742076
 20
1921.152744888895
 10
760.1581568987334
 20
1921.174664384999
 10
760.1256039307661
 20
1921.197904242024
 10
760.09400634811
 20
1921.222427281158
 10
760.0634147001571
 20
1921.248194270768
 10
760.033877927018
 20
1921.275163989168
 10
760.005443281229
 20
1921.303293290561
 10
759.9781562521576
 20
1921.332537174067
 10
759.9520604932295
 20
1921.36284885571
 10
759.9271977520922
 20
1921.394179843265
 10
759.9036078038275
 20
1921.426480013836
 10
759.8813283873205
 20
1921.45969769404
 10
759.8603951448851
 20
1921.493779742676
 10
759.8408415652435
 20
1921.528671635735
 10
759.8226989299519
 20
1921.564317553632
 10
759.8059962633567
 20
1921.600660470502
 10
759.7907602861613
 20
1921.637642245432
 10
759.7770153726789
 20
1921.67520371547
 10
759.7647835118392
 20
1921.713284790277
 10
759.7568735458395
 20
1921.741180954806
  0
LWPOLYLINE
  5
139
330
87
100
AcDbEntity
  8
P-SANR-FIXT
100
AcDbPolyline
 90
        3
 70
   128
 43
0.0
 10
835.848399433981
 20
1920.999999999908
 10
835.8183532004412
 20
1920.999999999908
 10
835.7690975265857
 20
1920.999999999908
  0
LWPOLYLINE
  5
13A
330
87
100
AcDbEntity
  8
P-SANR-FIXT
100
AcDbPolyline
 90
        3
 70
   128
 43
0.0
 10
760.7940270017317
 20
1920.999999999908
 10
760.7315557223524
 20
1920.999999999908
 10
760.7227993721283
 20
1920.999999999908
  0
LWPOLYLINE
  5
13B
330
87
100
AcDbEntity
  8
P-SANR-FIXT
100
AcDbPolyline
 90
       80
 70
   128
 43
0.0
 10
760.7227993721283
 20
1920.999999999908
 10
760.7528456056682
 20
1920.999999999908
 10
760.8429362387234
 20
1920.999999999908
 10
760.9929271454992
 20
1920.999999999908
 10
761.2025783725413
 20
1920.999999999908
 10
761.4715545226098
 20
1920.999999999908
 10
761.799425291243
 20
1920.999999999908
 10
762.1856661551532
 20
1920.999999999908
 10
762.6296592113516
 20
1920.999999999908
 10
763.1306941656617
 20
1920.999999999908
 10
763.6879694690382
 20
1920.999999999908
 10
764.3005935998754
 20
1920.999999999908
 10
764.9675864902499
 20
1920.999999999908
 10
765.687881093821
 20
1920.999999999908
 10
766.4603250928777
 20
1920.999999999908
 10
767.2836827418012
 20
1920.999999999908
 10
768.1566368439932
 20
1920.999999999908
 10
769.0777908591103
 20
1920.999999999908
 10
770.0456711372309
 20
1920.999999999908
 10
771.0587292763801
 20
1920.999999999908
 10
772.1153445996427
 20
1920.999999999908
 10
773.213826747901
 20
1920.999999999908
 10
774.3524183840477
 20
1920.999999999908
 10
775.529298004352
 20
1920.999999999908
 10
776.7425828524757
 20
1920.999999999908
 10
777.9903319314817
 20
1920.999999999908
 10
779.2705491090162
 20
1920.999999999908
 10
780.5811863106935
 20
1920.999999999908
 10
781.9201467965783
 20
1920.999999999908
 10
783.2852885155231
 20
1920.999999999908
 10
784.6744275319926
 20
1920.999999999908
 10
786.0853415198936
 20
1920.999999999908
 10
787.515773317825
 20
1920.999999999908
 10
788.9634345400523
 20
1920.999999999908
 10
790.426009237438
 20
1920.999999999908
 10
791.9011576024654
 20
1920.999999999908
 10
793.3865197124325
 20
1920.999999999908
 10
794.879719304823
 20
1920.999999999908
 10
796.3783675788217
 20
1920.999999999908
 10
797.8800670168849
 20
1920.999999999908
 10
799.382415220257
 20
1920.999999999908
 10
800.8830087522964
 20
1920.999999999908
 10
802.3794469834616
 20
1920.999999999908
 10
803.8693359318056
 20
1920.999999999908
 10
805.3502920928371
 20
1920.999999999908
 10
806.8199462526191
 20
1920.999999999908
 10
808.2759472780054
 20
1920.999999999908
 10
809.7159658779524
 20
1920.999999999908
 10
811.1376983298875
 20
1920.999999999908
 10
812.5388701651747
 20
1920.999999999908
 10
813.9172398077779
 20
1920.999999999908
 10
815.270602160306
 20
1920.999999999908
 10
816.5967921316962
 20
1920.999999999908
 10
817.8936881009001
 20
1920.999999999908
 10
819.1592153110232
 20
1920.999999999908
 10
820.3913491884941
 20
1920.999999999908
 10
821.5881185819503
 20
1920.999999999908
 10
822.747608915659
 20
1920.999999999908
 10
823.8679652524316
 20
1920.999999999908
 10
824.9473952611252
 20
1920.999999999908
 10
825.9841720839926
 20
1920.999999999908
 10
826.9766370992838
 20
1920.999999999908
 10
827.9232025746896
 20
1920.999999999908
 10
828.8223542073721
 20
1920.999999999908
 10
829.6726535465282
 20
1920.999999999908
 10
830.4727402946022
 20
1920.999999999908
 10
831.221334483474
 20
1920.999999999908
 10
831.9172385221323
 20
1920.999999999908
 10
832.559339112567
 20
1920.999999999908
 10
833.1466090308078
 20
1920.999999999908
 10
833.6781087702629
 20
1920.999999999908
 10
834.1529880447298
 20
1920.999999999908
 10
834.5704871486713
 20
1920.999999999908
 10
834.9299381725835
 20
1920.999999999908
 10
835.2307660715062
 20
1920.999999999908
 10
835.4724895849747
 20
1920.999999999908
 10
835.654722006932
 20
1920.999999999908
 10
835.7771718043776
 20
1920.999999999908
 10
835.8396430837569
 20
1920.999999999908
 10
835.848399433981
 20
1920.999999999908
  0
LINE
  5
13C
330
87
100
AcDbEntity
  8
P-SANR-FIXT
100
AcDbLine
 10
767.2855994030542
 20
1920.999999999908
 30
0.0
 11
767.2855994030542
 21
1920.499999999908
 31
0.0
  0
LINE
  5
13D
330
87
100
AcDbEntity
  8
P-SANR-FIXT
100
AcDbLine
 10
829.2855994030549
 20
1920.499999999908
 30
0.0
 11
829.2855994030549
 21
1920.999999999908
 31
0.0
  0
LWPOLYLINE
  5
13E
330
87
100
AcDbEntity
  8
P-SANR-FIXT
100
AcDbPolyline
 90
       22
 70
   128
 43
0.0
 10
830.2855994030556
 20
1893.499999999908
 10
829.9718360234759
 20
1892.012840121237
 10
829.5988530877563
 20
1890.539417000488
 10
829.1672472890287
 20
1889.082087800341
 10
828.6777091044999
 20
1887.643183936636
 10
828.131021690836
 20
1886.225007348606
 10
827.5280596312786
 20
1884.829826816263
 10
826.8697875364978
 20
1883.459874330836
 10
826.157258501421
 20
1882.11734152406
 10
825.3916124205067
 20
1880.804376162036
 10
824.5740741641553
 20
1879.523078709257
 10
823.7059516191775
 20
1878.27549896832
 10
822.7886335964564
 20
1877.063632800673
 10
821.8235876091437
 20
1875.889418933667
 10
820.812357524954
 20
1874.754735859005
 10
819.7565610963044
 20
1873.661398827552
 10
818.6578873722556
 20
1872.611156945326
 10
817.5180939963956
 20
1871.6056903753
 10
816.3390043949826
 20
1870.646607649496
 10
815.1225048598529
 20
1869.735443095683
 10
813.8705415307571
 20
1868.873654382775
 10
812.6995136390965
 20
1868.131913792869
  0
LWPOLYLINE
  5
13F
330
87
100
AcDbEntity
  8
P-SANR-FIXT
100
AcDbPolyline
 90
       22
 70
   128
 43
0.0
 10
783.8716851670129
 20
1868.131913792869
 10
782.5891234281771
 20
1868.947467193432
 10
781.3402010394152
 20
1869.813657028252
 10
780.1269160101266
 20
1870.72909757837
 10
778.9512093375379
 20
1871.692324334189
 10
777.8149619015215
 20
1872.701796338378
 10
776.7199914555878
 20
1873.755898651072
 10
775.6680497188698
 20
1874.852944933436
 10
774.6608195737435
 20
1875.991180145439
 10
773.699912373577
 20
1877.168783353555
 10
772.7868653649079
 20
1878.383870643858
 10
771.9231392281771
 20
1879.634498135889
 10
771.1101157409517
 20
1880.918665092447
 10
770.3490955673754
 20
1882.234317120342
 10
769.6412961773837
 20
1883.579349456988
 10
768.9878498990111
 20
1884.95161033757
 10
768.3898021069092
 20
1886.348904437414
 10
767.8481095499679
 20
1887.768996384032
 10
767.363638820724
 20
1889.209614333248
 10
766.9371649689958
 20
1890.668453603657
 10
766.5693702619698
 20
1892.14318036363
 10
766.2855994030536
 20
1893.499999999908
  0
LWPOLYLINE
  5
140
330
87
100
AcDbEntity
  8
P-SANR-FIXT
100
AcDbPolyline
 90
       17
 70
   128
 43
0.0
 10
812.6995136390963
 20
1868.131913792869
 10
812.6566060230731
 20
1868.08263079714
 10
812.6157035227521
 20
1868.031671375553
 10
812.5768715734086
 20
1867.979117052315
 10
812.5401722978773
 20
1867.92505190313
 10
812.5056644071708
 20
1867.869562420705
 10
812.4734031065528
 20
1867.812737376372
 10
812.4434400072221
 20
1867.754667678084
 10
812.4158230437464
 20
1867.695446224967
 10
812.3905963973751
 20
1867.635167758714
 10
812.3678004253616
 20
1867.573928712013
 10
812.3474715963981
 20
1867.511827054275
 10
812.3296424322743
 20
1867.448962134903
 10
812.3143414558494
 20
1867.38543452436
 10
812.3015931454219
 20
1867.32134585327
 10
812.2914178955685
 20
1867.256798649835
 10
812.285644524062
 20
1867.209637466721
  0
LWPOLYLINE
  5
141
330
87
100
AcDbEntity
  8
P-SANR-FIXT
100
AcDbPolyline
 90
       17
 70
   128
 43
0.0
 10
784.2855542820474
 20
1867.209637466721
 10
784.277260358425
 20
1867.274453267355
 10
784.2663811283446
 20
1867.338885553778
 10
784.2529339962537
 20
1867.402831248078
 10
784.2369404746951
 20
1867.466188050783
 10
784.2184261498915
 20
1867.528854604525
 10
784.197420640813
 20
1867.590730656187
 10
784.1739575517934
 20
1867.651717217285
 10
784.1480744187697
 20
1867.711716722331
 10
784.1198126492331
 20
1867.770633184916
 10
784.0892174559867
 20
1867.828372351269
 10
784.0563377848125
 20
1867.88484185104
 10
784.0212262361704
 20
1867.939951345075
 10
783.9839389810486
 20
1867.993612669941
 10
783.9445356711007
 20
1868.045739978964
 10
783.9030793432173
 20
1868.096249879571
 10
783.8716851670129
 20
1868.131913792869
  0
LINE
  5
142
330
87
100
AcDbEntity
  8
P-SANR-FIXT
100
AcDbLine
 10
837.285599403053
 20
1923.499999999971
 30
0.0
 11
759.2855994030531
 21
1923.499999999971
 31
0.0
  0
LINE
  5
143
330
87
100
AcDbEntity
  8
P-SANR-FIXT
100
AcDbLine
 10
783.8716851670114
 20
1868.131913792869
 30
0.0
 11
812.6995136390949
 21
1868.131913792869
 31
0.0
  0
LINE
  5
144
330
87
100
AcDbEntity
  8
P-SANR-FIXT
100
AcDbLine
 10
784.2855542820459
 20
1867.20963746672
 30
0.0
 11
784.3913084183217
 21
1867.20963746672
 31
0.0
  0
LINE
  5
145
330
87
100
AcDbEntity
  8
P-SANR-FIXT
100
AcDbLine
 10
784.4352520469412
 20
1867.20963746672
 30
0.0
 11
789.6052889755119
 21
1867.20963746672
 31
0.0
  0
LINE
  5
146
330
87
100
AcDbEntity
  8
P-SANR-FIXT
100
AcDbLine
 10
789.6243653185451
 20
1867.20963746672
 30
0.0
 11
791.2757615821825
 21
1867.20963746672
 31
0.0
  0
LINE
  5
147
330
87
100
AcDbEntity
  8
P-SANR-FIXT
100
AcDbLine
 10
791.6860238175937
 20
1867.20963746672
 30
0.0
 11
793.0756963342693
 21
1867.20963746672
 31
0.0
  0
LINE
  5
148
330
87
100
AcDbEntity
  8
P-SANR-FIXT
100
AcDbLine
 10
793.1086229721244
 20
1867.20963746672
 30
0.0
 11
803.4625758339817
 21
1867.20963746672
 31
0.0
  0
LINE
  5
149
330
87
100
AcDbEntity
  8
P-SANR-FIXT
100
AcDbLine
 10
803.4955024718403
 20
1867.20963746672
 30
0.0
 11
805.2954372239268
 21
1867.20963746672
 31
0.0
  0
LINE
  5
14A
330
87
100
AcDbEntity
  8
P-SANR-FIXT
100
AcDbLine
 10
805.5005512424374
 20
1867.20963746672
 30
0.0
 11
806.9468334875645
 21
1867.20963746672
 31
0.0
  0
LINE
  5
14B
330
87
100
AcDbEntity
  8
P-SANR-FIXT
100
AcDbLine
 10
806.9659098306003
 20
1867.20963746672
 30
0.0
 11
812.135946759164
 21
1867.20963746672
 31
0.0
  0
LINE
  5
14C
330
87
100
AcDbEntity
  8
P-SANR-FIXT
100
AcDbLine
 10
812.1798903877904
 20
1867.20963746672
 30
0.0
 11
812.2856445240604
 21
1867.20963746672
 31
0.0
  0
LINE
  5
14D
330
87
100
AcDbEntity
  8
P-SANR-FIXT
100
AcDbLine
 10
860.0535485954855
 20
1962.499999999995
 30
0.0
 11
860.0879301015492
 21
1962.559550515338
 31
0.0
  0
LINE
  5
14E
330
87
100
AcDbEntity
  8
P-SANR-FIXT
100
AcDbLine
 10
860.0930832931199
 20
1962.568476104959
 30
0.0
 11
861.7855994030545
 21
1965.499999999995
 31
0.0
  0
LINE
  5
14F
330
87
100
AcDbEntity
  8
P-SANR-FIXT
100
AcDbLine
 10
861.7855994030547
 20
2034.499999999996
 30
0.0
 11
860.0930832931203
 21
2037.431523895032
 31
0.0
  0
LINE
  5
150
330
87
100
AcDbEntity
  8
P-SANR-FIXT
100
AcDbLine
 10
860.0879525168821
 20
2037.440410660158
 30
0.0
 11
860.0535485954861
 21
2037.499999999996
 31
0.0
  0
LINE
  5
151
330
87
100
AcDbEntity
  8
P-SANR-FIXT
100
AcDbLine
 10
860.0535485954861
 20
2037.499999999996
 30
0.0
 11
840.1188489837515
 21
2037.499999999996
 31
0.0
  0
LINE
  5
152
330
87
100
AcDbEntity
  8
P-SANR-FIXT
100
AcDbLine
 10
844.5852689829758
 20
1962.499999999995
 30
0.0
 11
860.0535485954855
 21
1962.499999999995
 31
0.0
  0
LINE
  5
153
330
87
100
AcDbEntity
  8
P-SANR-FIXT
100
AcDbLine
 10
736.5176502106232
 20
1962.499999999996
 30
0.0
 11
751.9859298231338
 21
1962.499999999996
 31
0.0
  0
LINE
  5
154
330
87
100
AcDbEntity
  8
P-SANR-FIXT
100
AcDbLine
 10
756.4523498223644
 20
2037.499999999996
 30
0.0
 11
736.5176502106233
 21
2037.499999999996
 31
0.0
  0
LINE
  5
155
330
87
100
AcDbEntity
  8
P-SANR-FIXT
100
AcDbLine
 10
736.5176502106233
 20
2037.499999999996
 30
0.0
 11
736.4832462892271
 21
2037.440410660158
 31
0.0
  0
LINE
  5
156
330
87
100
AcDbEntity
  8
P-SANR-FIXT
100
AcDbLine
 10
736.4781155129889
 20
2037.431523895032
 30
0.0
 11
734.7855994030546
 21
2034.499999999996
 31
0.0
  0
LINE
  5
157
330
87
100
AcDbEntity
  8
P-SANR-FIXT
100
AcDbLine
 10
734.7855994030543
 20
1965.499999999996
 30
0.0
 11
736.4781155129889
 21
1962.56847610496
 31
0.0
  0
LINE
  5
158
330
87
100
AcDbEntity
  8
P-SANR-FIXT
100
AcDbLine
 10
736.4832687045597
 20
1962.559550515338
 30
0.0
 11
736.5176502106232
 21
1962.499999999996
 31
0.0
  0
LINE
  5
159
330
87
100
AcDbEntity
  8
P-SANR-FIXT
100
AcDbLine
 10
837.7855994030545
 20
1923.999999999985
 30
0.0
 11
837.7855994030547
 21
1937.611628610487
 31
0.0
  0
LINE
  5
15A
330
87
100
AcDbEntity
  8
P-SANR-FIXT
100
AcDbLine
 10
758.7855994030546
 20
1937.611628610487
 30
0.0
 11
758.7855994030543
 21
1923.999999999986
 31
0.0
  0
LWPOLYLINE
  5
15B
330
87
100
AcDbEntity
  8
P-SANR-FIXT
100
AcDbPolyline
 90
       10
 70
   128
 43
0.0
 10
758.7855994030546
 20
1937.611628610487
 10
758.5122665649444
 20
1939.592728268435
 10
758.1599295076722
 20
1941.561312859755
 10
757.7291518953686
 20
1943.514233069044
 10
757.220622880318
 20
1945.448364640567
 10
756.635156000465
 20
1947.360613376403
 10
755.9736878779241
 20
1949.247920086499
 10
755.2372767205855
 20
1951.107265482723
 10
754.4271006292087
 20
1952.935675009079
 10
754.2368231960993
 20
1953.338221593763
  0
LWPOLYLINE
  5
15C
330
87
100
AcDbEntity
  8
P-SANR-FIXT
100
AcDbPolyline
 90
       10
 70
   128
 43
0.0
 10
842.33437561001
 20
1953.338221593763
 10
841.5079497470811
 20
1951.517099140935
 10
840.7550104110562
 20
1949.664385171814
 10
840.0767621442541
 20
1947.783043633526
 10
839.4742899992168
 20
1945.876084271199
 10
838.9485578028555
 20
1943.946557813018
 10
838.5004066145347
 20
1941.997551089706
 10
838.1305533805544
 20
1940.032182096253
 10
837.839589787192
 20
1938.053595003793
 10
837.7855994030547
 20
1937.611628610487
  0
LINE
  5
15D
330
87
100
AcDbEntity
  8
P-SANR-FIXT
100
AcDbLine
 10
752.3076471278393
 20
1959.871582112878
 30
0.0
 11
751.9859298231338
 21
1962.499999999996
 31
0.0
  0
LINE
  5
15E
330
87
100
AcDbEntity
  8
P-SANR-FIXT
100
AcDbLine
 10
844.5852689829756
 20
1962.499999999995
 30
0.0
 11
844.2635516782702
 21
1959.871582112877
 31
0.0
  0
LWPOLYLINE
  5
15F
330
87
100
AcDbEntity
  8
P-SANR-FIXT
100
AcDbPolyline
 90
       16
 70
   128
 43
0.0
 10
756.4523498223625
 20
2037.499999999999
 10
756.857549056385
 20
2037.757260300834
 10
757.2727118423822
 20
2037.998111173287
 10
757.69717400846
 20
2038.22216730734
 10
758.1302565056997
 20
2038.429070260975
 10
758.5712664944918
 20
2038.618489033604
 10
759.0194984529311
 20
2038.790120595596
 10
759.4742353055022
 20
2038.943690373066
 10
759.9347495702461
 20
2039.078952687129
 10
760.400304522577
 20
2039.195691146938
 10
760.8701553738844
 20
2039.293718995859
 10
761.3435504630354
 20
2039.372879410247
 10
761.8197324588733
 20
2039.433045750323
 10
762.2979395717846
 20
2039.47412176278
 10
762.7774067724008
 20
2039.496041734759
 10
763.085599403055
 20
2039.499999999986
  0
LWPOLYLINE
  5
160
330
87
100
AcDbEntity
  8
P-SANR-FIXT
100
AcDbPolyline
 90
       16
 70
   128
 43
0.0
 10
833.4855994030558
 20
2039.499999999986
 10
833.9654714132954
 20
2039.490401279917
 10
834.4445757306861
 20
2039.461620475617
 10
834.9221458905228
 20
2039.413703630232
 10
835.397417882427
 20
2039.346727400493
 10
835.8696313725967
 20
2039.260798934081
 10
836.3380309201813
 20
2039.15605569821
 10
836.8018671858253
 20
2039.032665259715
 10
837.2603981304493
 20
2038.890825016975
 10
837.7128902023569
 20
2038.730761884121
 10
838.1586195107596
 20
2038.552731928021
 10
838.5968729838479
 20
2038.357019958626
 10
839.0269495095536
 20
2038.143939073338
 10
839.4481610571807
 20
2037.913830156117
 10
839.8598337781065
 20
2037.667061332147
 10
840.1188489837515
 20
2037.499999999996
  0
LWPOLYLINE
  5
161
330
87
100
AcDbEntity
  8
P-SANR-FIXT
100
AcDbPolyline
 90
        4
 70
   128
 43
0.0
 10
763.0855994030552
 20
2039.499999999986
 10
763.1137556485886
 20
2039.499999999986
 10
763.1981793412029
 20
2039.499999999986
 10
763.2996529078454
 20
2039.499999999986
  0
LWPOLYLINE
  5
162
330
87
100
AcDbEntity
  8
P-SANR-FIXT
100
AcDbPolyline
 90
        5
 70
   128
 43
0.0
 10
833.2726325269469
 20
2039.499999999986
 10
833.3041048013086
 20
2039.499999999986
 10
833.4188521808046
 20
2039.499999999986
 10
833.4773938505509
 20
2039.499999999986
 10
833.4855994030558
 20
2039.499999999986
  0
LWPOLYLINE
  5
163
330
87
100
AcDbEntity
  8
P-SANR-FIXT
100
AcDbPolyline
 90
       80
 70
   128
 43
0.0
 10
833.4855994030558
 20
2039.499999999986
 10
833.4574431575221
 20
2039.499999999986
 10
833.3730194649078
 20
2039.499999999986
 10
833.2324633851118
 20
2039.499999999986
 10
833.0359997778776
 20
2039.499999999986
 10
832.7839429430673
 20
2039.499999999986
 10
832.4766961178472
 20
2039.499999999986
 10
832.1147508315949
 20
2039.499999999986
 10
831.6986861195577
 20
2039.499999999986
 10
831.2291675965189
 20
2039.499999999986
 10
830.7069463919571
 20
2039.499999999986
 10
830.1328579483984
 20
2039.499999999986
 10
829.5078206848865
 20
2039.499999999986
 10
828.8328345277088
 20
2039.499999999986
 10
828.1089793107279
 20
2039.499999999986
 10
827.3374130478764
 20
2039.499999999986
 10
826.5193700805827
 20
2039.499999999986
 10
825.6561591030882
 20
2039.499999999986
 10
824.7491610688152
 20
2039.499999999986
 10
823.7998269811354
 20
2039.499999999986
 10
822.8096755720759
 20
2039.499999999986
 10
821.7802908726698
 20
2039.499999999986
 10
820.7133196788456
 20
2039.499999999986
 10
819.6104689169054
 20
2039.499999999986
 10
818.4735029128059
 20
2039.499999999986
 10
817.304240569614
 20
2039.499999999986
 10
816.1045524576492
 20
2039.499999999986
 10
814.876357821971
 20
2039.499999999986
 10
813.6216215119958
 20
2039.499999999986
 10
812.3423508381563
 20
2039.499999999986
 10
811.0405923606343
 20
2039.499999999986
 10
809.7184286153003
 20
2039.499999999986
 10
808.3779747821003
 20
2039.499999999986
 10
807.021375301219
 20
2039.499999999986
 10
805.6508004424335
 20
2039.499999999986
 10
804.2684428331439
 20
2039.499999999986
 10
802.8765139506383
 20
2039.499999999986
 10
801.4772405841991
 20
2039.499999999986
 10
800.0728612727174
 20
2039.499999999986
 10
798.6656227235065
 20
2039.499999999986
 10
797.2577762180499
 20
2039.499999999986
 10
795.8515740104323
 20
2039.499999999986
 10
794.4492657242119
 20
2039.499999999986
 10
793.0530947535033
 20
2039.499999999986
 10
791.6652946740261
 20
2039.499999999986
 10
790.2880856698587
 20
2039.499999999986
 10
788.9236709816192
 20
2039.499999999986
 10
787.574233381749
 20
2039.499999999986
 10
786.2419316825437
 20
2039.499999999986
 10
784.9288972825122
 20
2039.499999999986
 10
783.637230756596
 20
2039.499999999986
 10
782.3689984956952
 20
2039.499999999986
 10
781.1262294008855
 20
2039.499999999986
 10
779.9109116376095
 20
2039.499999999986
 10
778.7249894550336
 20
2039.499999999986
 10
777.5703600756669
 20
2039.499999999986
 10
776.4488706602089
 20
2039.499999999986
 10
775.3623153524856
 20
2039.499999999986
 10
774.3124324092034
 20
2039.499999999986
 10
773.3009014191085
 20
2039.499999999986
 10
772.3293406160033
 20
2039.499999999986
 10
771.3993042899175
 20
2039.499999999986
 10
770.5122803005756
 20
2039.499999999986
 10
769.6696876971389
 20
2039.499999999986
 10
768.8728744480296
 20
2039.499999999986
 10
768.1231152844683
 20
2039.499999999986
 10
767.4216096611765
 20
2039.499999999986
 10
766.7694798375049
 20
2039.499999999986
 10
766.1677690820583
 20
2039.499999999986
 10
765.6174400036866
 20
2039.499999999986
 10
765.1193730115185
 20
2039.499999999986
 10
764.6743649064923
 20
2039.499999999986
 10
764.2831276066464
 20
2039.499999999986
 10
763.9462870082009
 20
2039.499999999986
 10
763.664381984258
 20
2039.499999999986
 10
763.4378635227194
 20
2039.499999999986
 10
763.2670940048021
 20
2039.499999999986
 10
763.1523466253062
 20
2039.499999999986
 10
763.0938049555602
 20
2039.499999999986
 10
763.0855994030552
 20
2039.499999999986
  0
LWPOLYLINE
  5
164
330
87
100
AcDbEntity
  8
P-SANR-FIXT
100
AcDbPolyline
 90
       39
 70
   128
 43
0.0
 10
777.6851728729011
 20
2039.515991468473
 10
777.8841604395
 20
2039.535956820717
 10
778.0821904361268
 20
2039.563863583108
 10
778.2789460570308
 20
2039.59966711078
 10
778.4741125351911
 20
2039.643310125726
 10
778.667377645876
 20
2039.694722808432
 10
778.8584322061359
 20
2039.753822909574
 10
779.0469705694309
 20
2039.820515881597
 10
779.2326911145986
 20
2039.894695029972
 10
779.4152967283856
 20
2039.976241683887
 10
779.5944952807628
 20
2040.06502538609
 10
779.7700000922741
 20
2040.160904101598
 10
779.94153039266
 20
2040.263724444919
 10
780.1088117700307
 20
2040.373321925438
 10
780.2715766098674
 20
2040.489521210565
 10
780.4295645231477
 20
2040.612136406232
 10
780.5825227629129
 20
2040.740971354282
 10
780.7302066286082
 20
2040.875819946282
 10
780.872379857553
 20
2041.016466453251
 10
781.0088150029097
 20
2041.16268587078
 10
781.1392937975504
 20
2041.314244278994
 10
781.2636075032373
 20
2041.470899216769
 10
781.3815572445604
 20
2041.632400069624
 10
781.4929543270949
 20
2041.798488470646
 10
781.597620539272
 20
2041.968898713823
 10
781.6953884374802
 20
2042.143358179118
 10
781.7861016139381
 20
2042.321587768603
 10
781.8696149469143
 20
2042.503302352955
 10
781.9457948328915
 20
2042.688211227603
 10
782.0145194003031
 20
2042.876018577793
 10
782.0756787045016
 20
2043.066423951827
 10
782.1291749036469
 20
2043.259122741725
 10
782.174922415232
 20
2043.453806670529
 10
782.2128480529978
 20
2043.650164285485
 10
782.2428911440137
 20
2043.847881456295
 10
782.2650036257437
 20
2044.046641877665
 10
782.2791501229334
 20
2044.246127575318
 10
782.2853080042054
 20
2044.446019414695
 10
782.2855994030556
 20
2044.499999999986
  0
LWPOLYLINE
  5
165
330
87
100
AcDbEntity
  8
P-SANR-FIXT
100
AcDbPolyline
 90
       38
 70
   128
 43
0.0
 10
814.2855994030554
 20
2044.499999999986
 10
814.2895988697507
 20
2044.300053329053
 10
814.3015908715424
 20
2044.10042653014
 10
814.3215562237861
 20
2043.901438963541
 10
814.3494629861773
 20
2043.703408966915
 10
814.3852665138492
 20
2043.506653346011
 10
814.4289095287954
 20
2043.311486867851
 10
814.4803222115017
 20
2043.118221757166
 10
814.5394223126434
 20
2042.927167196905
 10
814.6061152846659
 20
2042.73862883361
 10
814.680294433041
 20
2042.552908288443
 10
814.7618410869558
 20
2042.370302674656
 10
814.8506247891591
 20
2042.191104122279
 10
814.9465035046672
 20
2042.015599310767
 10
815.0493238479885
 20
2041.844069010382
 10
815.1589213285072
 20
2041.676787633011
 10
815.275120613634
 20
2041.514022793174
 10
815.3977358093008
 20
2041.356034879894
 10
815.526570757351
 20
2041.203076640129
 10
815.6614193493508
 20
2041.055392774433
 10
815.8020658563195
 20
2040.913219545489
 10
815.9482852738488
 20
2040.776784400132
 10
816.0998436820626
 20
2040.646305605491
 10
816.2564986198381
 20
2040.521991899804
 10
816.4179994726932
 20
2040.404042158481
 10
816.5840878737146
 20
2040.292645075947
 10
816.7544981168916
 20
2040.18797886377
 10
816.9289575821867
 20
2040.090210965562
 10
817.1071871716717
 20
2039.999497789104
 10
817.288901756024
 20
2039.915984456127
 10
817.4738106306719
 20
2039.83980457015
 10
817.6616179808615
 20
2039.771080002738
 10
817.8520233548956
 20
2039.70992069854
 10
818.0447221447936
 20
2039.656424499395
 10
818.2394060735983
 20
2039.610676987809
 10
818.4357636885543
 20
2039.572751350044
 10
818.6334808593647
 20
2039.542708259028
 10
818.8322412807339
 20
2039.520595777298
  0
LINE
  5
166
330
87
100
AcDbEntity
  8
P-SANR-FIXT
100
AcDbLine
 10
814.2855994030552
 20
2044.499999999986
 30
0.0
 11
814.2855994030552
 21
2050.499999999985
 31
0.0
  0
LINE
  5
167
330
87
100
AcDbEntity
  8
P-SANR-FIXT
100
AcDbLine
 10
782.2855994030557
 20
2050.499999999985
 30
0.0
 11
782.2855994030557
 21
2044.499999999986
 31
0.0
  0
LWPOLYLINE
  5
168
330
87
100
AcDbEntity
  8
P-SANR-FIXT
100
AcDbPolyline
 90
        9
 70
   128
 43
0.0
 10
754.2368231960993
 20
1953.338221593763
 10
753.8810026789328
 20
1954.122312172309
 10
753.5568220404059
 20
1954.920004587595
 10
753.2647999003852
 20
1955.730022701922
 10
753.0054034320005
 20
1956.551070659102
 10
752.7790476142659
 20
1957.381834957551
 10
752.5860945682029
 20
1958.220986551612
 10
752.4268529775246
 20
1959.067182977744
 10
752.3076471278393
 20
1959.871582112878
  0
LWPOLYLINE
  5
169
330
87
100
AcDbEntity
  8
P-SANR-FIXT
100
AcDbPolyline
 90
        9
 70
   128
 43
0.0
 10
844.2635516782702
 20
1959.871582112877
 10
844.136382121461
 20
1959.019975290675
 10
843.9752590969247
 20
1958.174135089003
 10
843.7804403671291
 20
1957.335414671748
 10
843.5522376004831
 20
1956.505155812659
 10
843.2910158727326
 20
1955.684686748799
 10
842.9971930829175
 20
1954.875320055646
 10
842.6712392848228
 20
1954.078350547253
 10
842.33437561001
 20
1953.338221593763
  0
LINE
  5
16A
330
87
100
AcDbEntity
  8
P-SANR-FIXT
100
AcDbLine
 10
782.7855994030557
 20
2050.999999999986
 30
0.0
 11
782.3464842335878
 21
2050.560884830519
 31
0.0
  0
LINE
  5
16B
330
87
100
AcDbEntity
  8
P-SANR-FIXT
100
AcDbLine
 10
782.3310497208297
 20
2050.54545031776
 30
0.0
 11
782.2855994030543
 21
2050.499999999985
 31
0.0
  0
LINE
  5
16C
330
87
100
AcDbEntity
  8
P-SANR-FIXT
100
AcDbLine
 10
814.2855994030549
 20
2050.499999999985
 30
0.0
 11
814.240149085281
 21
2050.545450317759
 31
0.0
  0
LINE
  5
16D
330
87
100
AcDbEntity
  8
P-SANR-FIXT
100
AcDbLine
 10
814.2247145725232
 20
2050.560884830517
 30
0.0
 11
813.7855994030536
 21
2050.999999999986
 31
0.0
  0
LINE
  5
16E
330
87
100
AcDbEntity
  8
P-SANR-FIXT
100
AcDbLine
 10
758.7855994030546
 20
1923.999999999986
 30
0.0
 11
759.2855994030547
 21
1923.499999999986
 31
0.0
  0
LINE
  5
16F
330
87
100
AcDbEntity
  8
P-SANR-FIXT
100
AcDbLine
 10
837.2855994030548
 20
1923.499999999986
 30
0.0
 11
837.7855994030548
 21
1923.999999999986
 31
0.0
  0
LINE
  5
170
330
87
100
AcDbEntity
  8
P-SANR-FIXT
100
AcDbLine
 10
861.7855994030533
 20
1998.432457635562
 30
0.0
 11
861.7855994030533
 21
2001.567512627515
 31
0.0
  0
LINE
  5
171
330
87
100
AcDbEntity
  8
P-SANR-FIXT
100
AcDbLine
 10
861.7855994030531
 20
1970.122123569433
 30
0.0
 11
861.7855994030529
 21
1965.499999999994
 31
0.0
  0
SPLINE
  5
172
330
87
100
AcDbEntity
  8
P-SANR-FIXT
100
AcDbSpline
210
0.0
220
0.0
230
1.0
 70
     8
 71
     3
 72
     9
 73
     5
 74
     0
 42
0.000000001
 43
0.0000000001
 40
-1.0
 40
-1.0
 40
-1.0
 40
-1.0
 40
-0.5
 40
0.0
 40
0.0
 40
0.0
 40
0.0
 10
861.7855994030531
 20
1970.122123569433
 30
0.0
 10
861.7725801693589
 20
1968.881591717495
 30
0.0
 10
861.47088580107
 20
1966.416314994165
 30
0.0
 10
860.6178796309794
 20
1963.982612231927
 30
0.0
 10
860.0535485954841
 20
1962.773654341081
 30
0.0
  0
SPLINE
  5
173
330
87
100
AcDbEntity
  8
P-SANR-FIXT
100
AcDbSpline
210
0.0
220
0.0
230
1.0
 70
     8
 71
     3
 72
     9
 73
     5
 74
     0
 42
0.000000001
 43
0.0000000001
 40
-1.0
 40
-1.0
 40
-1.0
 40
-1.0
 40
-0.5
 40
0.0
 40
0.0
 40
0.0
 40
0.0
 10
860.0535485954843
 20
2037.226345658908
 30
0.0
 10
860.6178796309794
 20
2036.017387768062
 30
0.0
 10
861.4708858010695
 20
2033.583685005825
 30
0.0
 10
861.7725801693589
 20
2031.118408282496
 30
0.0
 10
861.7855994030533
 20
2029.877876430558
 30
0.0
  0
LINE
  5
174
330
87
100
AcDbEntity
  8
P-SANR-FIXT
100
AcDbLine
 10
861.7855994030533
 20
2034.499999999995
 30
0.0
 11
861.7855994030533
 21
2029.877876430558
 31
0.0
  0
LINE
  5
175
330
87
100
AcDbEntity
  8
P-SANR-FIXT
100
AcDbLine
 10
861.7855994030533
 20
2029.877876430558
 30
0.0
 11
861.7855994030533
 21
1999.999999999996
 31
0.0
  0
SPLINE
  5
176
330
87
100
AcDbEntity
  8
P-SANR-FIXT
100
AcDbSpline
210
0.0
220
0.0
230
1.0
 70
     8
 71
     3
 72
     9
 73
     5
 74
     0
 42
0.000000001
 43
0.0000000001
 40
-1.0
 40
-1.0
 40
-1.0
 40
-1.0
 40
-0.5
 40
0.0
 40
0.0
 40
0.0
 40
0.0
 10
861.7855994030533
 20
2029.877876430558
 30
0.0
 10
861.7725801693589
 20
2028.63734457862
 30
0.0
 10
861.4708858010695
 20
2026.172067855291
 30
0.0
 10
860.6178796309794
 20
2023.738365093054
 30
0.0
 10
860.0535485954843
 20
2022.529407202209
 30
0.0
  0
SPLINE
  5
177
330
87
100
AcDbEntity
  8
P-SANR-FIXT
100
AcDbSpline
210
0.0
220
0.0
230
1.0
 70
     8
 71
     3
 72
     9
 73
     5
 74
     0
 42
0.000000001
 43
0.0000000001
 40
-1.0
 40
-1.0
 40
-1.0
 40
-1.0
 40
-0.5
 40
0.0
 40
0.0
 40
0.0
 40
0.0
 10
860.0535485954846
 20
2014.696938456695
 30
0.0
 10
860.6178796309798
 20
2012.279022675004
 30
0.0
 10
861.4708858010697
 20
2007.41161715053
 30
0.0
 10
861.7725801693589
 20
2002.481063703871
 30
0.0
 10
861.7855994030533
 20
1999.999999999996
 30
0.0
  0
LINE
  5
178
330
87
100
AcDbEntity
  8
P-SANR-FIXT
100
AcDbLine
 10
861.7855994030533
 20
1999.999999999996
 30
0.0
 11
861.7855994030531
 21
1970.122123569433
 31
0.0
  0
SPLINE
  5
179
330
87
100
AcDbEntity
  8
P-SANR-FIXT
100
AcDbSpline
210
0.0
220
0.0
230
1.0
 70
     8
 71
     3
 72
     9
 73
     5
 74
     0
 42
0.000000001
 43
0.0000000001
 40
-1.0
 40
-1.0
 40
-1.0
 40
-1.0
 40
-0.5
 40
0.0
 40
0.0
 40
0.0
 40
0.0
 10
861.7855994030533
 20
1999.999999999996
 30
0.0
 10
861.7725801693589
 20
1997.51893629612
 30
0.0
 10
861.4708858010699
 20
1992.58838284946
 30
0.0
 10
860.6178796309798
 20
1987.720977324986
 30
0.0
 10
860.0535485954846
 20
1985.303061543294
 30
0.0
  0
SPLINE
  5
17A
330
87
100
AcDbEntity
  8
P-SANR-FIXT
100
AcDbSpline
210
0.0
220
0.0
230
1.0
 70
     8
 71
     3
 72
     9
 73
     5
 74
     0
 42
0.000000001
 43
0.0000000001
 40
-1.0
 40
-1.0
 40
-1.0
 40
-1.0
 40
-0.5
 40
0.0
 40
0.0
 40
0.0
 40
0.0
 10
860.0535485954843
 20
1977.470592797782
 30
0.0
 10
860.6178796309794
 20
1976.261634906937
 30
0.0
 10
861.4708858010695
 20
1973.8279321447
 30
0.0
 10
861.7725801693586
 20
1971.362655421371
 30
0.0
 10
861.7855994030531
 20
1970.122123569433
 30
0.0
  0
LINE
  5
17B
330
87
100
AcDbEntity
  8
P-SANR-FIXT
100
AcDbLine
 10
860.0535485954843
 20
2037.499999999995
 30
0.0
 11
860.0535485954843
 21
2037.226345658908
 31
0.0
  0
SPLINE
  5
17C
330
87
100
AcDbEntity
  8
P-SANR-FIXT
100
AcDbSpline
210
0.0
220
0.0
230
1.0
 70
     8
 71
     3
 72
     9
 73
     5
 74
     0
 42
0.000000001
 43
0.0000000001
 40
0.0
 40
0.0
 40
0.0
 40
0.0
 40
0.5
 40
1.0
 40
1.0
 40
1.0
 40
1.0
 10
840.1188489837499
 20
2037.499999999995
 30
0.0
 10
840.1207381000434
 20
2037.499999999995
 30
0.0
 10
840.148012462544
 20
2037.454226500121
 30
0.0
 10
840.2222790848707
 20
2037.317358007345
 30
0.0
 10
840.2711604609908
 20
2037.226345658908
 30
0.0
  0
LINE
  5
17D
330
87
100
AcDbEntity
  8
P-SANR-FIXT
100
AcDbLine
 10
840.2711604609908
 20
2037.226345658908
 30
0.0
 11
860.0535485954843
 21
2037.226345658908
 31
0.0
  0
LINE
  5
17E
330
87
100
AcDbEntity
  8
P-SANR-FIXT
100
AcDbLine
 10
860.0535485954841
 20
1962.773654341081
 30
0.0
 11
860.0535485954841
 21
1962.499999999994
 31
0.0
  0
LINE
  5
17F
330
87
100
AcDbEntity
  8
P-SANR-FIXT
100
AcDbLine
 10
860.0535485954841
 20
1962.773654341081
 30
0.0
 11
844.3955780930153
 21
1962.773654341081
 31
0.0
  0
SPLINE
  5
180
330
87
100
AcDbEntity
  8
P-SANR-FIXT
100
AcDbSpline
210
0.0
220
0.0
230
1.0
 70
     8
 71
     3
 72
     9
 73
     5
 74
     0
 42
0.000000001
 43
0.0000000001
 40
0.0
 40
0.0
 40
0.0
 40
0.0
 40
0.5
 40
1.0
 40
1.0
 40
1.0
 40
1.0
 10
844.3955780930153
 20
1962.773654341081
 30
0.0
 10
844.4586935338278
 20
1962.682706368112
 30
0.0
 10
844.5534241229673
 20
1962.545838119248
 30
0.0
 10
844.5851541271339
 20
1962.499999999994
 30
0.0
 10
844.5852689829743
 20
1962.499999999994
 30
0.0
  0
LINE
  5
181
330
87
100
AcDbEntity
  8
P-SANR-FIXT
100
AcDbLine
 10
860.0535485954843
 20
1985.303061543295
 30
0.0
 11
860.0535485954843
 21
1977.470592797782
 31
0.0
  0
LINE
  5
182
330
87
100
AcDbEntity
  8
P-SANR-FIXT
100
AcDbLine
 10
860.0535485954843
 20
1985.303061543294
 30
0.0
 11
831.1737718741678
 21
1985.303061543294
 31
0.0
  0
SPLINE
  5
183
330
87
100
AcDbEntity
  8
P-SANR-FIXT
100
AcDbSpline
210
0.0
220
0.0
230
1.0
 70
     8
 71
     3
 72
     9
 73
     5
 74
     0
 42
0.000000001
 43
0.0000000001
 40
0.0
 40
0.0
 40
0.0
 40
0.0
 40
0.5
 40
1.0
 40
1.0
 40
1.0
 40
1.0
 10
831.1737718741678
 20
1985.303061543294
 30
0.0
 10
831.8044047434122
 20
1983.902879725954
 30
0.0
 10
833.0907256252176
 20
1981.185335019653
 30
0.0
 10
834.4271567936557
 20
1978.669818873787
 30
0.0
 10
835.107899949533
 20
1977.470592797781
 30
0.0
  0
LINE
  5
184
330
87
100
AcDbEntity
  8
P-SANR-FIXT
100
AcDbLine
 10
835.107899949533
 20
1977.470592797781
 30
0.0
 11
860.0535485954843
 21
1977.470592797781
 31
0.0
  0
LINE
  5
185
330
87
100
AcDbEntity
  8
P-SANR-FIXT
100
AcDbLine
 10
860.0535485954843
 20
2022.529407202209
 30
0.0
 11
860.0535485954846
 21
2014.696938456695
 31
0.0
  0
LINE
  5
186
330
87
100
AcDbEntity
  8
P-SANR-FIXT
100
AcDbLine
 10
860.0535485954843
 20
2022.529407202208
 30
0.0
 11
834.7433035118305
 21
2022.529407202208
 31
0.0
  0
SPLINE
  5
187
330
87
100
AcDbEntity
  8
P-SANR-FIXT
100
AcDbSpline
210
0.0
220
0.0
230
1.0
 70
     8
 71
     3
 72
     9
 73
     5
 74
     0
 42
0.000000001
 43
0.0000000001
 40
0.0
 40
0.0
 40
0.0
 40
0.0
 40
0.5
 40
1.0
 40
1.0
 40
1.0
 40
1.0
 10
834.7433035118305
 20
2022.529407202208
 30
0.0
 10
833.9901729287804
 20
2021.338526703778
 30
0.0
 10
832.5293656371782
 20
2018.832802866201
 30
0.0
 10
831.1594660945711
 20
2016.106724756487
 30
0.0
 10
830.4972432605163
 20
2014.696938456694
 30
0.0
  0
LINE
  5
188
330
87
100
AcDbEntity
  8
P-SANR-FIXT
100
AcDbLine
 10
830.4972432605163
 20
2014.696938456694
 30
0.0
 11
860.0535485954846
 21
2014.696938456694
 31
0.0
  0
SPLINE
  5
189
330
87
100
AcDbEntity
  8
P-SANR-FIXT
100
AcDbSpline
210
0.0
220
0.0
230
1.0
 70
     8
 71
     3
 72
     9
 73
     5
 74
     0
 42
0.000000001
 43
0.0000000001
 40
0.0
 40
0.0
 40
0.0
 40
0.0
 40
0.5
 40
1.0
 40
1.0
 40
1.0
 40
1.0
 10
751.9859298231323
 20
1962.499999999995
 30
0.0
 10
751.9860446789725
 20
1962.499999999995
 30
0.0
 10
752.0177746831393
 20
1962.545838119249
 30
0.0
 10
752.1125052722787
 20
1962.682706368113
 30
0.0
 10
752.1756207130915
 20
1962.773654341082
 30
0.0
  0
LINE
  5
18A
330
87
100
AcDbEntity
  8
P-SANR-FIXT
100
AcDbLine
 10
752.1756207130915
 20
1962.773654341082
 30
0.0
 11
736.5176502106216
 21
1962.773654341082
 31
0.0
  0
LINE
  5
18B
330
87
100
AcDbEntity
  8
P-SANR-FIXT
100
AcDbLine
 10
736.5176502106219
 20
1977.470592797781
 30
0.0
 11
761.4632988565735
 21
1977.470592797781
 31
0.0
  0
SPLINE
  5
18C
330
87
100
AcDbEntity
  8
P-SANR-FIXT
100
AcDbSpline
210
0.0
220
0.0
230
1.0
 70
     8
 71
     3
 72
     9
 73
     5
 74
     0
 42
0.000000001
 43
0.0000000001
 40
0.0
 40
0.0
 40
0.0
 40
0.0
 40
0.5
 40
1.0
 40
1.0
 40
1.0
 40
1.0
 10
761.4632988565735
 20
1977.470592797781
 30
0.0
 10
762.144042012451
 20
1978.669818873787
 30
0.0
 10
763.4804731808896
 20
1981.185335019653
 30
0.0
 10
764.7667940626949
 20
1983.902879725955
 30
0.0
 10
765.3974269319396
 20
1985.303061543296
 30
0.0
  0
LINE
  5
18D
330
87
100
AcDbEntity
  8
P-SANR-FIXT
100
AcDbLine
 10
765.3974269319396
 20
1985.303061543296
 30
0.0
 11
736.517650210622
 21
1985.303061543296
 31
0.0
  0
LINE
  5
18E
330
87
100
AcDbEntity
  8
P-SANR-FIXT
100
AcDbLine
 10
736.5176502106219
 20
2037.226345658908
 30
0.0
 11
756.3000383450989
 21
2037.226345658908
 31
0.0
  0
SPLINE
  5
18F
330
87
100
AcDbEntity
  8
P-SANR-FIXT
100
AcDbSpline
210
0.0
220
0.0
230
1.0
 70
     8
 71
     3
 72
     9
 73
     5
 74
     0
 42
0.000000001
 43
0.0000000001
 40
0.0
 40
0.0
 40
0.0
 40
0.0
 40
0.5
 40
1.0
 40
1.0
 40
1.0
 40
1.0
 10
756.3000383450989
 20
2037.226345658908
 30
0.0
 10
756.3489197212264
 20
2037.317358007344
 30
0.0
 10
756.4231863435644
 20
2037.454226500121
 30
0.0
 10
756.450460706069
 20
2037.499999999995
 30
0.0
 10
756.4523498223629
 20
2037.499999999995
 30
0.0
  0
LINE
  5
190
330
87
100
AcDbEntity
  8
P-SANR-FIXT
100
AcDbLine
 10
736.5176502106223
 20
2014.696938456694
 30
0.0
 11
766.0739555455916
 21
2014.696938456694
 31
0.0
  0
SPLINE
  5
191
330
87
100
AcDbEntity
  8
P-SANR-FIXT
100
AcDbSpline
210
0.0
220
0.0
230
1.0
 70
     8
 71
     3
 72
     9
 73
     5
 74
     0
 42
0.000000001
 43
0.0000000001
 40
0.0
 40
0.0
 40
0.0
 40
0.0
 40
0.5
 40
1.0
 40
1.0
 40
1.0
 40
1.0
 10
766.0739555455916
 20
2014.696938456694
 30
0.0
 10
765.4117327115368
 20
2016.106724756486
 30
0.0
 10
764.0418331689294
 20
2018.832802866201
 30
0.0
 10
762.5810258773267
 20
2021.338526703779
 30
0.0
 10
761.8278952942764
 20
2022.529407202209
 30
0.0
  0
LINE
  5
192
330
87
100
AcDbEntity
  8
P-SANR-FIXT
100
AcDbLine
 10
761.8278952942764
 20
2022.529407202209
 30
0.0
 11
736.517650210622
 21
2022.529407202209
 31
0.0
  0
SPLINE
  5
193
330
87
100
AcDbEntity
  8
P-SANR-FIXT
100
AcDbSpline
210
0.0
220
0.0
230
1.0
 70
     8
 71
     3
 72
     9
 73
     5
 74
     0
 42
0.000000001
 43
0.0000000001
 40
-1.0
 40
-1.0
 40
-1.0
 40
-1.0
 40
-0.5
 40
0.0
 40
0.0
 40
0.0
 40
0.0
 10
734.7855994030533
 20
1999.999999999995
 30
0.0
 10
734.7986186367478
 20
2002.481063703871
 30
0.0
 10
735.1003130050371
 20
2007.411617150529
 30
0.0
 10
735.9533191751271
 20
2012.279022675003
 30
0.0
 10
736.5176502106223
 20
2014.696938456694
 30
0.0
  0
LINE
  5
194
330
87
100
AcDbEntity
  8
P-SANR-FIXT
100
AcDbLine
 10
736.517650210622
 20
2022.529407202209
 30
0.0
 11
736.5176502106223
 21
2014.696938456694
 31
0.0
  0
SPLINE
  5
195
330
87
100
AcDbEntity
  8
P-SANR-FIXT
100
AcDbSpline
210
0.0
220
0.0
230
1.0
 70
     8
 71
     3
 72
     9
 73
     5
 74
     0
 42
0.000000001
 43
0.0000000001
 40
-1.0
 40
-1.0
 40
-1.0
 40
-1.0
 40
-0.5
 40
0.0
 40
0.0
 40
0.0
 40
0.0
 10
736.517650210622
 20
2022.529407202209
 30
0.0
 10
735.3629508745897
 20
2024.974003168507
 30
0.0
 10
734.2082515385574
 20
2029.868088877588
 30
0.0
 10
735.3629508745894
 20
2034.77196213964
 30
0.0
 10
736.5176502106219
 20
2037.226345658908
 30
0.0
  0
LINE
  5
196
330
87
100
AcDbEntity
  8
P-SANR-FIXT
100
AcDbLine
 10
736.5176502106219
 20
2037.499999999995
 30
0.0
 11
736.5176502106219
 21
2037.226345658908
 31
0.0
  0
LINE
  5
197
330
87
100
AcDbEntity
  8
P-SANR-FIXT
100
AcDbLine
 10
736.5176502106216
 20
1962.773654341082
 30
0.0
 11
736.5176502106216
 21
1962.499999999995
 31
0.0
  0
SPLINE
  5
198
330
87
100
AcDbEntity
  8
P-SANR-FIXT
100
AcDbSpline
210
0.0
220
0.0
230
1.0
 70
     8
 71
     3
 72
     9
 73
     5
 74
     0
 42
0.000000001
 43
0.0000000001
 40
-1.0
 40
-1.0
 40
-1.0
 40
-1.0
 40
-0.5
 40
0.0
 40
0.0
 40
0.0
 40
0.0
 10
736.5176502106216
 20
1962.773654341082
 30
0.0
 10
735.9533191751267
 20
1963.982612231928
 30
0.0
 10
735.1003130050369
 20
1966.416314994164
 30
0.0
 10
734.7986186367476
 20
1968.881591717494
 30
0.0
 10
734.785599403053
 20
1970.122123569432
 30
0.0
  0
LINE
  5
199
330
87
100
AcDbEntity
  8
P-SANR-FIXT
100
AcDbLine
 10
736.517650210622
 20
1985.303061543296
 30
0.0
 11
736.5176502106219
 21
1977.470592797781
 31
0.0
  0
SPLINE
  5
19A
330
87
100
AcDbEntity
  8
P-SANR-FIXT
100
AcDbSpline
210
0.0
220
0.0
230
1.0
 70
     8
 71
     3
 72
     9
 73
     5
 74
     0
 42
0.000000001
 43
0.0000000001
 40
-1.0
 40
-1.0
 40
-1.0
 40
-1.0
 40
-0.5
 40
0.0
 40
0.0
 40
0.0
 40
0.0
 10
736.517650210622
 20
1985.303061543296
 30
0.0
 10
735.9533191751268
 20
1987.720977324987
 30
0.0
 10
735.1003130050371
 20
1992.588382849461
 30
0.0
 10
734.7986186367478
 20
1997.518936296119
 30
0.0
 10
734.7855994030533
 20
1999.999999999995
 30
0.0
  0
SPLINE
  5
19B
330
87
100
AcDbEntity
  8
P-SANR-FIXT
100
AcDbSpline
210
0.0
220
0.0
230
1.0
 70
     8
 71
     3
 72
     9
 73
     5
 74
     0
 42
0.000000001
 43
0.0000000001
 40
-1.0
 40
-1.0
 40
-1.0
 40
-1.0
 40
-0.5
 40
0.0
 40
0.0
 40
0.0
 40
0.0
 10
734.785599403053
 20
1970.122123569432
 30
0.0
 10
734.7986186367476
 20
1971.362655421369
 30
0.0
 10
735.1003130050369
 20
1973.827932144699
 30
0.0
 10
735.9533191751268
 20
1976.261634906936
 30
0.0
 10
736.5176502106219
 20
1977.470592797781
 30
0.0
  0
LINE
  5
19C
330
87
100
AcDbEntity
  8
P-SANR-FIXT
100
AcDbLine
 10
734.785599403053
 20
1970.122123569432
 30
0.0
 11
734.7855994030529
 21
1965.499999999995
 31
0.0
  0
LINE
  5
19D
330
87
100
AcDbEntity
  8
P-SANR-FIXT
100
AcDbLine
 10
734.7855994030533
 20
1999.999999999995
 30
0.0
 11
734.785599403053
 21
1970.122123569432
 31
0.0
  0
LINE
  5
19E
330
87
100
AcDbEntity
  8
P-SANR-FIXT
100
AcDbLine
 10
734.785599403053
 20
2034.499999999995
 30
0.0
 11
734.7855994030533
 21
1999.999999999995
 31
0.0
  0
LINE
  5
19F
330
87
100
AcDbEntity
  8
P-SANR-FIXT
100
AcDbLine
 10
734.785599403053
 20
2001.56754236443
 30
0.0
 11
734.785599403053
 21
1998.432490534833
 31
0.0
  0
SPLINE
  5
1A0
330
87
100
AcDbEntity
  8
P-SANR-FIXT
100
AcDbSpline
210
0.0
220
0.0
230
1.0
 70
     8
 71
     3
 72
    10
 73
     6
 74
     0
 42
0.000000001
 43
0.0000000001
 40
0.0
 40
0.0
 40
0.0
 40
0.0
 40
0.3333333333333333
 40
0.6666666666666666
 40
1.0
 40
1.0
 40
1.0
 40
1.0
 10
835.107899949533
 20
1977.470592797782
 30
0.0
 10
837.063461664121
 20
1976.011974057081
 30
0.0
 10
840.3591578906585
 20
1972.977100689803
 30
0.0
 10
843.4810809356726
 20
1967.959594967529
 30
0.0
 10
844.2986281429055
 20
1964.529036732554
 30
0.0
 10
844.3955780930153
 20
1962.773654341082
 30
0.0
  0
SPLINE
  5
1A1
330
87
100
AcDbEntity
  8
P-SANR-FIXT
100
AcDbSpline
210
0.0
220
0.0
230
1.0
 70
     8
 71
     3
 72
    10
 73
     6
 74
     0
 42
0.000000001
 43
0.0000000001
 40
0.0
 40
0.0
 40
0.0
 40
0.0
 40
0.3333333333333333
 40
0.6666666666666666
 40
1.0
 40
1.0
 40
1.0
 40
1.0
 10
752.1756207130915
 20
1962.773654341082
 30
0.0
 10
752.2725706632012
 20
1964.529036732555
 30
0.0
 10
753.0901178704346
 20
1967.959594967529
 30
0.0
 10
756.2120409154484
 20
1972.977100689803
 30
0.0
 10
759.5077371419855
 20
1976.011974057081
 30
0.0
 10
761.4632988565735
 20
1977.470592797781
 30
0.0
  0
LINE
  5
1A2
330
87
100
AcDbEntity
  8
P-SANR-FIXT
100
AcDbLine
 10
830.4972432605161
 20
2014.696938456695
 30
0.0
 11
830.4972432605159
 21
1999.999999999989
 31
0.0
  0
SPLINE
  5
1A3
330
87
100
AcDbEntity
  8
P-SANR-FIXT
100
AcDbSpline
210
0.0
220
0.0
230
1.0
 70
     8
 71
     3
 72
     9
 73
     5
 74
     0
 42
0.000000001
 43
0.0000000001
 40
0.0
 40
0.0
 40
0.0
 40
0.0
 40
0.5
 40
1.0
 40
1.0
 40
1.0
 40
1.0
 10
830.4972432605163
 20
1999.999999999989
 30
0.0
 10
830.7379546997838
 20
1997.556400355825
 30
0.0
 10
831.0914209079934
 20
1992.66331096888
 30
0.0
 10
831.1889737755516
 20
1987.758441384696
 30
0.0
 10
831.1737718741678
 20
1985.303061543294
 30
0.0
  0
SPLINE
  5
1A4
330
87
100
AcDbEntity
  8
P-SANR-FIXT
100
AcDbSpline
210
0.0
220
0.0
230
1.0
 70
     8
 71
     3
 72
     9
 73
     5
 74
     0
 42
0.000000001
 43
0.0000000001
 40
0.0
 40
0.0
 40
0.0
 40
0.0
 40
0.5
 40
1.0
 40
1.0
 40
1.0
 40
1.0
 10
765.3974269319396
 20
1985.303061543296
 30
0.0
 10
765.382225030556
 20
1987.758441384697
 30
0.0
 10
765.4797778981144
 20
1992.66331096888
 30
0.0
 10
765.8332441063239
 20
1997.556400355826
 30
0.0
 10
766.0739555455915
 20
1999.999999999989
 30
0.0
  0
LINE
  5
1A5
330
87
100
AcDbEntity
  8
P-SANR-FIXT
100
AcDbLine
 10
766.0739555455917
 20
1999.999999999989
 30
0.0
 11
766.0739555455919
 21
2014.696938456694
 31
0.0
  0
SPLINE
  5
1A6
330
87
100
AcDbEntity
  8
P-SANR-FIXT
100
AcDbSpline
210
0.0
220
0.0
230
1.0
 70
     8
 71
     3
 72
    15
 73
    11
 74
     0
 42
0.000000001
 43
0.0000000001
 40
0.0
 40
0.0
 40
0.0
 40
0.0
 40
0.125
 40
0.25
 40
0.375
 40
0.4375
 40
0.5
 40
0.625
 40
0.75
 40
1.0
 40
1.0
 40
1.0
 40
1.0
 10
840.2711604609908
 20
2037.226345658908
 30
0.0
 10
840.6894651488695
 20
2036.851299640502
 30
0.0
 10
841.4129662052772
 20
2036.086135805357
 30
0.0
 10
842.1697116338803
 20
2034.90209862439
 30
0.0
 10
842.4995306892794
 20
2033.862848199823
 30
0.0
 10
842.6025267801948
 20
2033.016228440743
 30
0.0
 10
842.6223264042597
 20
2032.178575932454
 30
0.0
 10
842.4624363095533
 20
2031.129687244659
 30
0.0
 10
841.8562383571321
 20
2029.468375021446
 30
0.0
 10
841.0651765879173
 20
2028.278658793203
 30
0.0
 10
840.3714974536262
 20
2027.499999999985
 30
0.0
  0
LWPOLYLINE
  5
1A7
330
87
100
AcDbEntity
  8
P-SANR-FIXT
100
AcDbPolyline
 90
        3
 70
   128
 43
0.0
 10
840.371497453626
 20
2027.499999999985
 10
837.7926171924604
 20
2024.925925104943
 10
834.7433035118303
 20
2022.529407202208
  0
LWPOLYLINE
  5
1A8
330
87
100
AcDbEntity
  8
P-SANR-FIXT
100
AcDbPolyline
 90
        3
 70
   128
 43
0.0
 10
761.8278952942765
 20
2022.529407202209
 10
758.7785816136467
 20
2024.925925104945
 10
756.1997013524814
 20
2027.499999999986
  0
SPLINE
  5
1A9
330
87
100
AcDbEntity
  8
P-SANR-FIXT
100
AcDbSpline
210
0.0
220
0.0
230
1.0
 70
     8
 71
     3
 72
    15
 73
    11
 74
     0
 42
0.000000001
 43
0.0000000001
 40
0.0
 40
0.0
 40
0.0
 40
0.0
 40
0.25
 40
0.375
 40
0.5
 40
0.5625
 40
0.625
 40
0.75
 40
0.875
 40
1.0
 40
1.0
 40
1.0
 40
1.0
 10
756.1997013524813
 20
2027.499999999986
 30
0.0
 10
755.5060222181903
 20
2028.278658793203
 30
0.0
 10
754.7149604489759
 20
2029.468375021445
 30
0.0
 10
754.1087624965549
 20
2031.129687244658
 30
0.0
 10
753.9488724018479
 20
2032.178575932452
 30
0.0
 10
753.9686720259131
 20
2033.016228440741
 30
0.0
 10
754.0716681168285
 20
2033.862848199821
 30
0.0
 10
754.4014871722265
 20
2034.902098624387
 30
0.0
 10
755.1582326008229
 20
2036.086135805354
 30
0.0
 10
755.8817336572245
 20
2036.851299640501
 30
0.0
 10
756.3000383450989
 20
2037.226345658908
 30
0.0
  0
LINE
  5
1AA
330
87
100
AcDbEntity
  8
P-SANR-FIXT
100
AcDbLine
 10
837.285599403053
 20
1923.499999999985
 30
0.0
 11
759.2855994030531
 21
1923.499999999985
 31
0.0
  0
LINE
  5
1AB
330
87
100
AcDbEntity
  8
P-SANR-FIXT
100
AcDbLine
 10
758.785599403053
 20
1923.999999999985
 30
0.0
 11
837.7855994030529
 21
1923.999999999984
 31
0.0
  0
LINE
  5
1AC
330
87
100
AcDbEntity
  8
P-SANR-FIXT
100
AcDbLine
 10
837.7855994030531
 20
1937.611628610486
 30
0.0
 11
758.7855994030531
 21
1937.611628610486
 31
0.0
  0
LINE
  5
1AD
330
87
100
AcDbEntity
  8
P-SANR-FIXT
100
AcDbLine
 10
830.4972432605167
 20
1999.999999999989
 30
0.0
 11
766.0739555455916
 21
1999.999999999989
 31
0.0
  0
LINE
  5
1AE
330
87
100
AcDbEntity
  8
P-SANR-FIXT
100
AcDbLine
 10
814.2855994030536
 20
2050.499999999985
 30
0.0
 11
782.2855994030543
 21
2050.499999999985
 31
0.0
  0
LINE
  5
1AF
330
87
100
AcDbEntity
  8
P-SANR-FIXT
100
AcDbLine
 10
782.785599403054
 20
2050.999999999985
 30
0.0
 11
782.8555002842447
 21
2050.999999999985
 31
0.0
  0
LINE
  5
1B0
330
87
100
AcDbEntity
  8
P-SANR-FIXT
100
AcDbLine
 10
782.9038880771618
 20
2050.999999999985
 30
0.0
 11
783.0537805700109
 21
2050.999999999985
 31
0.0
  0
LINE
  5
1B1
330
87
100
AcDbEntity
  8
P-SANR-FIXT
100
AcDbLine
 10
783.1677641250944
 20
2050.999999999985
 30
0.0
 11
783.4403319761483
 21
2050.999999999985
 31
0.0
  0
LINE
  5
1B2
330
87
100
AcDbEntity
  8
P-SANR-FIXT
100
AcDbLine
 10
783.5621862145036
 20
2050.999999999985
 30
0.0
 11
783.9518705702597
 21
2050.999999999985
 31
0.0
  0
LINE
  5
1B3
330
87
100
AcDbEntity
  8
P-SANR-FIXT
100
AcDbLine
 10
784.237828703986
 20
2050.999999999985
 30
0.0
 11
784.6033355304617
 21
2050.999999999985
 31
0.0
  0
LINE
  5
1B4
330
87
100
AcDbEntity
  8
P-SANR-FIXT
100
AcDbLine
 10
784.8622056443951
 20
2050.999999999985
 30
0.0
 11
785.3882215147505
 21
2050.999999999985
 31
0.0
  0
LINE
  5
1B5
330
87
100
AcDbEntity
  8
P-SANR-FIXT
100
AcDbLine
 10
785.5887427165745
 20
2050.999999999985
 30
0.0
 11
786.2986464766796
 21
2050.999999999985
 31
0.0
  0
LINE
  5
1B6
330
87
100
AcDbEntity
  8
P-SANR-FIXT
100
AcDbLine
 10
786.4119105347096
 20
2050.999999999985
 30
0.0
 11
788.3223914529125
 21
2050.999999999985
 31
0.0
  0
LINE
  5
1B7
330
87
100
AcDbEntity
  8
P-SANR-FIXT
100
AcDbLine
 10
788.4486203519717
 20
2050.999999999985
 30
0.0
 11
790.5355994030538
 21
2050.999999999985
 31
0.0
  0
LINE
  5
1B8
330
87
100
AcDbEntity
  8
P-SANR-FIXT
100
AcDbLine
 10
790.9725548776
 20
2050.999999999985
 30
0.0
 11
792.3483593086073
 21
2050.999999999985
 31
0.0
  0
LINE
  5
1B9
330
87
100
AcDbEntity
  8
P-SANR-FIXT
100
AcDbLine
 10
792.9842871815057
 20
2050.999999999985
 30
0.0
 11
795.2593719325067
 21
2050.999999999985
 31
0.0
  0
LINE
  5
1BA
330
87
100
AcDbEntity
  8
P-SANR-FIXT
100
AcDbLine
 10
795.594052649216
 20
2050.999999999985
 30
0.0
 11
796.7655579996409
 21
2050.999999999985
 31
0.0
  0
LINE
  5
1BB
330
87
100
AcDbEntity
  8
P-SANR-FIXT
100
AcDbLine
 10
796.9346853904645
 20
2050.999999999985
 30
0.0
 11
799.6365134156417
 21
2050.999999999985
 31
0.0
  0
LINE
  5
1BC
330
87
100
AcDbEntity
  8
P-SANR-FIXT
100
AcDbLine
 10
799.8056408064656
 20
2050.999999999985
 30
0.0
 11
802.297294602142
 21
2050.999999999985
 31
0.0
  0
LINE
  5
1BD
330
87
100
AcDbEntity
  8
P-SANR-FIXT
100
AcDbLine
 10
802.7891378445431
 20
2050.999999999985
 30
0.0
 11
803.5869116246006
 21
2050.999999999985
 31
0.0
  0
LINE
  5
1BE
330
87
100
AcDbEntity
  8
P-SANR-FIXT
100
AcDbLine
 10
804.2228394974992
 20
2050.999999999985
 30
0.0
 11
806.9028665329806
 21
2050.999999999985
 31
0.0
  0
LINE
  5
1BF
330
87
100
AcDbEntity
  8
P-SANR-FIXT
100
AcDbLine
 10
807.1760341664939
 20
2050.999999999985
 30
0.0
 11
808.1225784541347
 21
2050.999999999985
 31
0.0
  0
LINE
  5
1C0
330
87
100
AcDbEntity
  8
P-SANR-FIXT
100
AcDbLine
 10
808.2488073531939
 20
2050.999999999985
 30
0.0
 11
810.1592882713964
 21
2050.999999999985
 31
0.0
  0
LINE
  5
1C1
330
87
100
AcDbEntity
  8
P-SANR-FIXT
100
AcDbLine
 10
810.2725523294264
 20
2050.999999999985
 30
0.0
 11
810.9824560895315
 21
2050.999999999985
 31
0.0
  0
LINE
  5
1C2
330
87
100
AcDbEntity
  8
P-SANR-FIXT
100
AcDbLine
 10
811.1829772913559
 20
2050.999999999985
 30
0.0
 11
811.708993161711
 21
2050.999999999985
 31
0.0
  0
LINE
  5
1C3
330
87
100
AcDbEntity
  8
P-SANR-FIXT
100
AcDbLine
 10
811.9678632756446
 20
2050.999999999985
 30
0.0
 11
812.3333701021202
 21
2050.999999999985
 31
0.0
  0
LINE
  5
1C4
330
87
100
AcDbEntity
  8
P-SANR-FIXT
100
AcDbLine
 10
812.6193282358464
 20
2050.999999999985
 30
0.0
 11
813.009012591603
 21
2050.999999999985
 31
0.0
  0
LINE
  5
1C5
330
87
100
AcDbEntity
  8
P-SANR-FIXT
100
AcDbLine
 10
813.1308668299579
 20
2050.999999999985
 30
0.0
 11
813.311812697378
 21
2050.999999999985
 31
0.0
  0
LINE
  5
1C6
330
87
100
AcDbEntity
  8
P-SANR-FIXT
100
AcDbLine
 10
813.5174182360954
 20
2050.999999999985
 30
0.0
 11
813.6673107289444
 21
2050.999999999985
 31
0.0
  0
LINE
  5
1C7
330
87
100
AcDbEntity
  8
P-SANR-FIXT
100
AcDbLine
 10
813.7156985218616
 20
2050.999999999985
 30
0.0
 11
813.785599403052
 21
2050.999999999985
 31
0.0
  0
ENDBLK
  5
1C9
330
87
100
AcDbEntity
  8
0
100
AcDbBlockEnd
  0
BLOCK
  5
22A
330
1CB
100
AcDbEntity
  8
0
100
AcDbBlockBegin
  2
Automatic flow rate regulator valve_Caleffi_121 DN15 - 3_4___Insulation-975047-Est - Idraulica
 70
     0
 10
0.0
 20
0.0
 30
0.0
  3
Automatic flow rate regulator valve_Caleffi_121 DN15 - 3_4___Insulation-975047-Est - Idraulica
  1

  0
LINE
  5
1CC
330
1CB
100
AcDbEntity
  8
P-SANR-FIXT
100
AcDbLine
 10
747.3029674057697
 20
1522.113237862381
 30
0.0
 11
734.7855994030579
 21
1522.113237862381
 31
0.0
  0
LINE
  5
1CD
330
1CB
100
AcDbEntity
  8
P-SANR-FIXT
100
AcDbLine
 10
861.7855994030584
 20
1522.113237862382
 30
0.0
 11
849.2682314003459
 21
1522.113237862382
 31
0.0
  0
LINE
  5
1CE
330
1CB
100
AcDbEntity
  8
P-SANR-FIXT
100
AcDbLine
 10
734.7855994030566
 20
1484.30073786238
 30
0.0
 11
734.7855994030565
 21
1522.11323786238
 31
0.0
  0
LINE
  5
1CF
330
1CB
100
AcDbEntity
  8
P-SANR-FIXT
100
AcDbLine
 10
734.7855994030566
 20
1484.30073786238
 30
0.0
 11
736.5472274336069
 21
1484.30073786238
 31
0.0
  0
LINE
  5
1D0
330
1CB
100
AcDbEntity
  8
P-SANR-FIXT
100
AcDbLine
 10
860.0485002768241
 20
1484.300737862381
 30
0.0
 11
861.785599403057
 21
1484.300737862381
 31
0.0
  0
LINE
  5
1D1
330
1CB
100
AcDbEntity
  8
P-SANR-FIXT
100
AcDbLine
 10
861.785599403057
 20
1484.300737862381
 30
0.0
 11
861.7855994030568
 21
1522.113237862381
 31
0.0
  0
LWPOLYLINE
  5
1D2
330
1CB
100
AcDbEntity
  8
P-SANR-FIXT
100
AcDbPolyline
 90
       80
 70
   128
 43
0.0
 10
828.285599403058
 20
1484.300737862381
 10
828.2616026028874
 20
1485.50041788798
 10
828.1896505921368
 20
1486.698178681456
 10
828.0698584786742
 20
1487.892104081049
 10
827.902417904327
 20
1489.080284060809
 10
827.6875967382954
 20
1490.260817786233
 10
827.4257386486191
 20
1491.431816655195
 10
827.1172625523812
 20
1492.591407319304
 10
826.7626619455315
 20
1493.737734680865
 10
826.3625041133963
 20
1494.868964860634
 10
825.9174292231447
 20
1495.983288131641
 10
825.428149299657
 20
1497.078921814361
 10
824.8954470864367
 20
1498.154113128626
 10
824.3201747933877
 20
1499.207141997693
 10
823.7032527334607
 20
1500.236323800008
 10
823.0456678503484
 20
1501.240012064232
 10
822.3484721395868
 20
1502.216601103253
 10
821.6127809655858
 20
1503.164528582935
 10
820.8397712772848
 20
1504.082278021525
 10
820.0306797252851
 20
1504.968381215698
 10
819.1868006834731
 20
1505.821420589367
 10
818.3094841782972
 20
1506.640031461507
 10
817.4001337290155
 20
1507.42290422935
 10
816.4602041023618
 20
1508.168786463472
 10
815.4911989852317
 20
1508.876484911411
 10
814.4946685791021
 20
1509.544867406618
 10
813.4722071200412
 20
1510.172864679681
 10
812.4254503282701
 20
1510.75947206893
 10
811.3560727913593
 20
1511.303751127677
 10
810.2657852852463
 20
1511.804831125534
 10
809.1563320373582
 20
1512.261910441398
 10
808.0294879362213
 20
1512.674257845867
 10
806.8870556920167
 20
1513.041213671058
 10
805.7308629526291
 20
1513.362190865929
 10
804.5627593798005
 20
1513.636675935441
 10
803.3846136900651
 20
1513.864229762035
 10
802.1983106652024
 20
1514.044488308132
 10
801.0057481369873
 20
1514.17716319851
 10
799.8088339510653
 20
1514.262042181649
 10
798.609482914806
 20
1514.29898946928
 10
797.4096137340191
 20
1514.287945953626
 10
796.211145943436
 20
1514.228929301956
 10
795.015996835862
 20
1514.122033928323
 10
793.826078394917
 20
1513.967430842522
 10
792.6432942362716
 20
1513.76536737651
 10
791.4695365622654
 20
1513.516166788727
 10
790.3066831347885
 20
1513.220227746954
 10
789.1565942712629
 20
1512.878023690529
 10
788.021109868531
 20
1512.490102072941
 10
786.9020464594133
 20
1512.057083486026
 10
785.8011943066437
 20
1511.579660667152
 10
784.7203145388306
 20
1511.058597390982
 10
783.6611363330273
 20
1510.494727247607
 10
782.6253541484169
 20
1509.888952308967
 10
781.6146250155396
 20
1509.242241685742
 10
780.6305658853978
 20
1508.555629976968
 10
779.6747510426778
 20
1507.830215614914
 10
778.7487095872318
 20
1507.067159107809
 10
777.8539229878434
 20
1506.267681183288
 10
776.9918227121945
 20
1505.433060835486
 10
776.1637879368207
 20
1504.564633278915
 10
775.3711433407248
 20
1503.663787812412
 10
774.6151569861722
 20
1502.731965596552
 10
773.8970382900613
 20
1501.770657348103
 10
773.217936089116
 20
1500.781400955195
 10
772.5789368019899
 20
1499.765779017025
 10
771.98106269123
 20
1498.72541631204
 10
771.4252702278737
 20
1497.661977198637
 10
770.9124485612997
 20
1496.577162952541
 10
770.4434180967784
 20
1495.472709045133
 10
770.0189291829986
 20
1494.350382367058
 10
769.6396609116695
 20
1493.211978401586
 10
769.3062200311191
 20
1492.059318352214
 10
769.0191399756257
 20
1490.894246229134
 10
768.778880012038
 20
1489.718625899208
 10
768.585824505045
 20
1488.534338104177
 10
768.4402823022745
 20
1487.343277451879
 10
768.342486240204
 20
1486.147349385278
 10
768.2925927716704
 20
1484.948467134164
 10
768.2855994030584
 20
1484.300737862381
  0
LWPOLYLINE
  5
1D3
330
1CB
100
AcDbEntity
  8
P-SANR-FIXT
100
AcDbPolyline
 90
       64
 70
   128
 43
0.0
 10
858.352546398278
 20
1504.867968378933
 10
857.7150477054971
 20
1506.670151674932
 10
856.772972521149
 20
1509.028802598519
 10
855.7373300164528
 20
1511.347893893567
 10
854.6097769984907
 20
1513.623715508718
 10
853.3921173115594
 20
1515.85262661487
 10
852.086298951405
 20
1518.031061429728
 10
850.6944109488436
 20
1520.155534922297
 10
849.2186800277593
 20
1522.222648388185
 10
847.6614670428196
 20
1524.229094886809
 10
846.0252632026131
 20
1526.171664531788
 10
844.3126860842459
 20
1528.047249626085
 10
842.5264754457767
 20
1529.85284963365
 10
840.6694888431895
 20
1531.585575979648
 10
838.744697058912
 20
1533.242656671552
 10
836.7551793491992
 20
1534.821440733747
 10
834.7041185179786
 20
1536.319402448523
 10
832.5947958250438
 20
1537.734145396685
 10
830.4305857367388
 20
1539.063406291311
 10
828.2149505275311
 20
1540.305058598529
 10
825.9514347411123
 20
1541.457115939522
 10
823.6436595198824
 20
1542.517735268301
 10
821.2953168118968
 20
1543.485219820195
 10
818.9101634645348
 20
1544.358021826305
 10
816.4920152143468
 20
1545.134744989611
 10
814.044740582689
 20
1545.814146718742
 10
811.5722546869147
 20
1546.395140115864
 10
809.0785129770212
 20
1546.87679571548
 10
806.5675049077752
 20
1547.258342971377
 10
804.0432475564339
 20
1547.53917148934
 10
801.5097791962798
 20
1547.718832003646
 10
798.9711528362447
 20
1547.797037095798
 10
796.4314297369606
 20
1547.773661654331
 10
793.8946729136067
 20
1547.648743074966
 10
791.3649406359551
 20
1547.42248120078
 10
788.8462799360024
 20
1547.095238002507
 10
786.3427201335828
 20
1546.667536999455
 10
783.8582663903161
 20
1546.140062421991
 10
781.3968933022026
 20
1545.513658116918
 10
778.9625385411192
 20
1544.789326197498
 10
776.5590965553813
 20
1543.968225440285
 10
774.1904123394599
 20
1543.051669431332
 10
771.8602752828076
 20
1542.041124464734
 10
769.5724131076461
 20
1540.938207196863
 10
767.330485905404
 20
1539.744682060073
 10
765.1380802813529
 20
1538.462458439976
 10
762.9987036168029
 20
1537.093587620841
 10
760.9157784580412
 20
1535.640259503965
 10
758.8926370409883
 20
1534.104799104311
 10
756.932515960331
 20
1532.489662830969
 10
755.0385509916614
 20
1530.797434557433
 10
753.213772074905
 20
1529.030821487951
 10
751.4610984670632
 20
1527.192649826577
 10
749.7833340720249
 20
1525.285860255848
 10
748.1831629549183
 20
1523.313503232315
 10
746.6631450481789
 20
1521.278734106469
 10
745.2257120562044
 20
1519.184808074851
 10
743.8731635651459
 20
1517.035074972432
 10
742.6076633640608
 20
1514.83297391359
 10
741.4312359833119
 20
1512.582027790261
 10
740.3457634557506
 20
1510.285837636068
 10
739.352982305866
 20
1507.94807686543
 10
738.4544807717157
 20
1505.572485396883
 10
738.2197653634554
 20
1504.86796837893
  0
LINE
  5
1D4
330
1CB
100
AcDbEntity
  8
P-SANR-FIXT
100
AcDbLine
 10
771.2855994030568
 20
1484.300737862381
 30
0.0
 11
798.2855994030567
 21
1484.30073786238
 31
0.0
  0
LINE
  5
1D5
330
1CB
100
AcDbEntity
  8
P-SANR-FIXT
100
AcDbLine
 10
798.2855994030567
 20
1484.30073786238
 30
0.0
 11
825.2855994030566
 21
1484.30073786238
 31
0.0
  0
LINE
  5
1D6
330
1CB
100
AcDbEntity
  8
P-SANR-FIXT
100
AcDbLine
 10
825.2855994030566
 20
1484.300737862381
 30
0.0
 11
828.2855994030565
 21
1484.300737862381
 31
0.0
  0
LINE
  5
1D7
330
1CB
100
AcDbEntity
  8
P-SANR-FIXT
100
AcDbLine
 10
768.2855994030568
 20
1484.300737862381
 30
0.0
 11
771.2855994030568
 21
1484.300737862381
 31
0.0
  0
LINE
  5
1D8
330
1CB
100
AcDbEntity
  8
P-SANR-FIXT
100
AcDbLine
 10
828.2855994030565
 20
1484.300737862381
 30
0.0
 11
830.5535874402167
 21
1484.300737862381
 31
0.0
  0
LINE
  5
1D9
330
1CB
100
AcDbEntity
  8
P-SANR-FIXT
100
AcDbLine
 10
766.0176113658966
 20
1484.300737862381
 30
0.0
 11
768.2855994030568
 21
1484.300737862381
 31
0.0
  0
LINE
  5
1DA
330
1CB
100
AcDbEntity
  8
P-SANR-FIXT
100
AcDbLine
 10
830.5535874402167
 20
1484.300737862381
 30
0.0
 11
850.4456592160694
 21
1484.300737862381
 31
0.0
  0
LINE
  5
1DB
330
1CB
100
AcDbEntity
  8
P-SANR-FIXT
100
AcDbLine
 10
746.1255395900439
 20
1484.30073786238
 30
0.0
 11
766.0176113658966
 21
1484.300737862381
 31
0.0
  0
LINE
  5
1DC
330
1CB
100
AcDbEntity
  8
P-SANR-FIXT
100
AcDbLine
 10
850.4456592160694
 20
1484.300737862381
 30
0.0
 11
860.0422038975265
 21
1484.300737862381
 31
0.0
  0
LINE
  5
1DD
330
1CB
100
AcDbEntity
  8
P-SANR-FIXT
100
AcDbLine
 10
736.5289949085863
 20
1484.30073786238
 30
0.0
 11
746.1255395900439
 21
1484.30073786238
 31
0.0
  0
LWPOLYLINE
  5
1DE
330
1CB
100
AcDbEntity
  8
P-SANR-FIXT
100
AcDbPolyline
 90
       80
 70
   128
 43
0.0
 10
782.7855994030594
 20
1484.300737862381
 10
782.7979977498142
 20
1483.680903182488
 10
782.8351729553689
 20
1483.062060105859
 10
782.8970655473244
 20
1482.445198649403
 10
782.983576510737
 20
1481.83130565986
 10
783.0945674465201
 20
1481.221363235057
 10
783.2298607928528
 20
1480.61634715276
 10
783.3892401092423
 20
1480.017225309637
 10
783.5724504227814
 20
1479.424956172831
 10
783.7791986360513
 20
1478.840487246617
 10
784.0091539960146
 20
1478.264753556597
 10
784.26194862315
 20
1477.698676153858
 10
784.5371780999803
 20
1477.143160641488
 10
784.8344021180556
 20
1476.599095725803
 10
785.1531451823513
 20
1476.067351794608
 10
785.4928973719592
 20
1475.548779524759
 10
785.8531151558527
 20
1475.044208521264
 10
786.2332222624197
 20
1474.554445990095
 10
786.6326106013753
 20
1474.080275446824
 10
787.0506412365751
 20
1473.622455463168
 10
787.486645408178
 20
1473.181718453439
 10
787.9399256025188
 20
1472.758769502833
 10
788.409756667981
 20
1472.354285239448
 10
788.8953869750854
 20
1471.968912751818
 10
789.396039618936
 20
1471.603268553716
 10
789.9109136621027
 20
1471.257937597859
 10
790.4391854159508
 20
1470.93347234011
 10
790.9800097583659
 20
1470.630391855665
 10
791.5325214857698
 20
1470.349181008646
 10
792.0958366972617
 20
1470.090289676419
 10
792.6690542086704
 20
1469.85413202989
 10
793.2512569942578
 20
1469.641085870914
 10
793.8415136537635
 20
1469.451492027899
 10
794.438879902447
 20
1469.285653810549
 10
795.0424000817417
 20
1469.143836524635
 10
795.6511086881048
 20
1469.026267047561
 10
796.2640319176173
 20
1468.933133465411
 10
796.8801892238617
 20
1468.864584772048
 10
797.4985948865881
 20
1468.820730630761
 10
798.1182595886552
 20
1468.801641198817
 10
798.7381919987284
 20
1468.807347015238
 10
799.3574003571964
 20
1468.837838951935
 10
799.9748940627764
 20
1468.893068228312
 10
800.5896852572645
 20
1468.972946489309
 10
801.2007904058981
 20
1469.077345946749
 10
801.8072318708012
 20
1469.20609958377
 10
802.4080394749974
 20
1469.359001422019
 10
803.0022520544857
 20
1469.535806851172
 10
803.588918995897
 20
1469.736233020259
 10
804.1671017572745
 20
1469.959959290165
 10
804.7358753695387
 20
1470.206627746584
 10
805.2943299162423
 20
1470.475843772604
 10
805.8415719892405
 20
1470.767176680016
 10
806.376726117956
 20
1471.080160398312
 10
806.8989361699426
 20
1471.414294220312
 10
807.4073667205158
 20
1471.769043603178
 10
807.9012043892545
 20
1472.143841023574
 10
808.3796591412349
 20
1472.538086885577
 10
808.8419655509188
 20
1472.951150479913
 10
809.2873840266705
 20
1473.382370992944
 10
809.7152019939469
 20
1473.831058563839
 10
810.1247350352632
 20
1474.296495388199
 10
810.5153279851155
 20
1474.777936866393
 10
810.886355978106
 20
1475.274612794758
 10
811.2372254485944
 20
1475.785728597761
 10
811.5673750802763
 20
1476.310466599149
 10
811.8762767041689
 20
1476.847987330058
 10
812.1634361435697
 20
1477.397430871982
 10
812.4283940046328
 20
1477.957918232465
 10
812.6707264113022
 20
1478.528552751293
 10
812.8900456834216
 20
1479.108421534965
 10
813.0860009569417
 20
1479.696596917125
 10
813.258278745226
 20
1480.292137942634
 10
813.4066034405643
 20
1480.894091872892
 10
813.5307377550844
 20
1481.501495710021
 10
813.6304831003643
 20
1482.113377737453
 10
813.705679905129
 20
1482.728759074474
 10
813.7562078705322
 20
1483.346655242218
 10
813.7819861626077
 20
1483.966077738627
 10
813.7855994030573
 20
1484.300737862381
  0
LWPOLYLINE
  5
1DF
330
1CB
100
AcDbEntity
  8
P-SANR-FIXT
100
AcDbPolyline
 90
       40
 70
   128
 43
0.0
 10
765.394821194249
 20
1449.800737862381
 10
766.8005528975953
 20
1448.513230818731
 10
768.2568561554489
 20
1447.282790960646
 10
769.7611989967084
 20
1446.111571920864
 10
771.3111747937372
 20
1445.001447400001
 10
772.9043039159039
 20
1443.954193360475
 10
774.5380376964625
 20
1442.97148518535
 10
776.2097625098753
 20
1442.05489499807
 10
777.9168039530564
 20
1441.205889147407
 10
779.6564311238463
 20
1440.425825861611
 10
781.4258609898724
 20
1439.715953075534
 10
783.222262840807
 20
1439.077406434203
 10
785.0427628169009
 20
1438.511207476027
 10
786.8844485065449
 20
1438.018261998557
 10
788.7443736055076
 20
1437.599358609401
 10
790.6195626303932
 20
1437.255167464621
 10
792.5070156787812
 20
1436.986239196623
 10
794.4037132284294
 20
1436.793004033269
 10
796.3066209678652
 20
1436.675771109599
 10
798.2126946506381
 20
1436.634727973283
 10
800.1188849654623
 20
1436.669940284583
 10
802.022142414467
 20
1436.781351711312
 10
803.91942219174
 20
1436.968784018955
 10
805.8076890543693
 20
1437.231937355802
 10
807.6839221781833
 20
1437.570390732651
 10
809.5451199904257
 20
1437.983602696298
 10
811.3883049716312
 20
1438.47091219575
 10
813.210528419022
 20
1439.03153963976
 10
815.0088751638019
 20
1439.664588144012
 10
816.7804682348068
 20
1440.369044965943
 10
818.5224734610423
 20
1441.143783124913
 10
820.2321040057549
 20
1441.987563205138
 10
821.9066248247743
 20
1442.899035338485
 10
823.5433570420024
 20
1443.876741363978
 10
825.1396822350422
 20
1444.919117160542
 10
826.6930466241165
 20
1446.024495149265
 10
828.2009651575693
 20
1447.191106961167
 10
829.661025487419
 20
1448.41708626621
 10
831.0708918286012
 20
1449.700471759037
 10
831.1763849626526
 20
1449.800737862381
  0
LWPOLYLINE
  5
1E0
330
1CB
100
AcDbEntity
  8
P-SANR-FIXT
100
AcDbPolyline
 90
       57
 70
   128
 43
0.0
 10
756.1997013524862
 20
1462.932135070508
 10
757.0878817801494
 20
1461.266240631857
 10
758.0419697676312
 20
1459.63719647501
 10
759.06043897768
 20
1458.047608723108
 10
760.1416600768218
 20
1456.50002037746
 10
761.2839033419455
 20
1454.996907249285
 10
762.485341427493
 20
1453.54067399894
 10
763.7440522888202
 20
1452.13365028898
 10
765.0580222570599
 20
1450.778087057191
 10
766.4251492605615
 20
1449.476152915573
 10
767.8432461877576
 20
1448.229930681021
 10
769.3100443860754
 20
1447.041414043264
 10
770.8231972912987
 20
1445.912504375386
 10
772.3802841815675
 20
1444.845007692034
 10
773.9788140500181
 20
1443.840631760182
 10
775.6162295898625
 20
1442.900983367064
 10
777.2899112855338
 20
1442.027565749661
 10
778.9971816033518
 20
1441.221776189843
 10
780.7353092750064
 20
1440.484903779013
 10
782.5015136670035
 20
1439.818127355837
 10
784.2929692290866
 20
1439.222513620354
 10
786.1068100145124
 20
1438.699015427483
 10
787.9401342649571
 20
1438.24847026266
 10
789.7900090527076
 20
1437.871598902036
 10
791.653474972723
 20
1437.569004259394
 10
793.5275508770489
 20
1437.341170421612
 10
795.4092386440203
 20
1437.188461874228
 10
797.2955279746153
 20
1437.111122918343
 10
799.1834012082918
 20
1437.109277279787
 10
801.0698381506008
 20
1437.182927911188
 10
802.9518209048529
 20
1437.331956987248
 10
804.8263387001096
 20
1437.556126093237
 10
806.6903927077746
 20
1437.855076606403
 10
808.5410008390788
 20
1438.2283302697
 10
810.3752025157875
 20
1438.675289956889
 10
812.1900634064937
 20
1439.195240627818
 10
813.982680120922
 20
1439.787350472328
 10
815.7501848547337
 20
1440.45067224098
 10
817.489749977402
 20
1441.184144760444
 10
819.1985925558187
 20
1441.986594631156
 10
820.8739788063914
 20
1442.856738104501
 10
822.5132284685159
 20
1443.793183136544
 10
824.1137190924211
 20
1444.794431614998
 10
825.672890234528
 20
1445.858881755885
 10
827.1882475536154
 20
1446.98483066605
 10
828.6573668012312
 20
1448.170477067427
 10
830.0778976999746
 20
1449.413924178698
 10
831.4475677034385
 20
1450.713182749741
 10
832.7641856317974
 20
1452.066174244
 10
834.0256451772299
 20
1453.470734163708
 10
835.2299282735602
 20
1454.924615512618
 10
836.3751083247342
 20
1456.425492390715
 10
837.4593532869621
 20
1457.970963715165
 10
838.4809285995975
 20
1459.558557061531
 10
839.4381999600648
 20
1461.185732619129
 10
840.329635938394
 20
1462.849887254178
 10
840.3714974536317
 20
1462.932135070508
  0
LINE
  5
1E1
330
1CB
100
AcDbEntity
  8
P-SANR-FIXT
100
AcDbLine
 10
861.7855994030568
 20
1468.397787290036
 30
0.0
 11
861.785599403057
 21
1465.710977643427
 31
0.0
  0
LINE
  5
1E2
330
1CB
100
AcDbEntity
  8
P-SANR-FIXT
100
AcDbLine
 10
861.785599403057
 20
1465.710977643428
 30
0.0
 11
861.7855994030568
 21
1468.397787290036
 31
0.0
  0
SPLINE
  5
1E3
330
1CB
100
AcDbEntity
  8
P-SANR-FIXT
100
AcDbSpline
210
0.0
220
0.0
230
1.0
 70
     8
 71
     3
 72
     8
 73
     4
 74
     0
 42
0.000000001
 43
0.0000000001
 40
-1.0
 40
-1.0
 40
-1.0
 40
-1.0
 40
-0.9020855732093099
 40
-0.9020855732093099
 40
-0.9020855732093099
 40
-0.9020855732093099
 10
861.7855994030566
 20
1501.550737862381
 30
0.0
 10
861.7830498614479
 20
1501.129967416155
 30
0.0
 10
861.7752147640514
 20
1500.709721273804
 30
0.0
 10
861.762094110867
 20
1500.289999435329
 30
0.0
  0
SPLINE
  5
1E4
330
1CB
100
AcDbEntity
  8
P-SANR-FIXT
100
AcDbSpline
210
0.0
220
0.0
230
1.0
 70
     8
 71
     3
 72
     9
 73
     5
 74
     0
 42
0.000000001
 43
0.0000000001
 40
-1.0
 40
-1.0
 40
-1.0
 40
-1.0
 40
-0.5
 40
0.0
 40
0.0
 40
0.0
 40
0.0
 10
860.053548595488
 20
1479.778659923739
 30
0.0
 10
860.6178796309832
 20
1477.684683432583
 30
0.0
 10
861.4708858010729
 20
1473.469386597868
 30
0.0
 10
861.7725801693623
 20
1469.199402058344
 30
0.0
 10
861.785599403057
 20
1467.050737862381
 30
0.0
  0
LINE
  5
1E5
330
1CB
100
AcDbEntity
  8
P-SANR-FIXT
100
AcDbLine
 10
861.7855994030568
 20
1484.300737862381
 30
0.0
 11
861.785599403057
 21
1467.050737862381
 31
0.0
  0
LINE
  5
1E6
330
1CB
100
AcDbEntity
  8
P-SANR-FIXT
100
AcDbLine
 10
861.785599403057
 20
1467.050737862381
 30
0.0
 11
861.7855994030568
 21
1449.80073786238
 31
0.0
  0
SPLINE
  5
1E7
330
1CB
100
AcDbEntity
  8
P-SANR-FIXT
100
AcDbSpline
210
0.0
220
0.0
230
1.0
 70
     8
 71
     3
 72
     9
 73
     5
 74
     0
 42
0.000000001
 43
0.0000000001
 40
-1.0
 40
-1.0
 40
-1.0
 40
-1.0
 40
-0.5
 40
0.0
 40
0.0
 40
0.0
 40
0.0
 10
861.785599403057
 20
1467.050737862381
 30
0.0
 10
861.7725801693625
 20
1464.902073666417
 30
0.0
 10
861.4708858010731
 20
1460.632089126893
 30
0.0
 10
860.6178796309832
 20
1456.416792292179
 30
0.0
 10
860.053548595488
 20
1454.322815801023
 30
0.0
  0
SPLINE
  5
1E8
330
1CB
100
AcDbEntity
  8
P-SANR-FIXT
100
AcDbSpline
210
0.0
220
0.0
230
1.0
 70
    24
 71
     3
 72
     9
 73
     5
 74
     0
 42
0.000000001
 43
0.0000000001
 40
-1.0
 40
-1.0
 40
-1.0
 40
-1.0
 40
-0.5
 40
0.0
 40
0.0
 40
0.0
 40
0.0
 10
860.053548595488
 20
1449.800737862381
 30
0.0
 10
860.6178796309832
 20
1449.800737862381
 30
0.0
 10
861.4708858010731
 20
1449.800737862381
 30
0.0
 10
861.7725801693623
 20
1449.800737862381
 30
0.0
 10
861.7855994030568
 20
1449.800737862381
 30
0.0
  0
LINE
  5
1E9
330
1CB
100
AcDbEntity
  8
P-SANR-FIXT
100
AcDbLine
 10
860.053548595488
 20
1484.300737862381
 30
0.0
 11
860.053548595488
 21
1479.778659923739
 31
0.0
  0
SPLINE
  5
1EA
330
1CB
100
AcDbEntity
  8
P-SANR-FIXT
100
AcDbSpline
210
0.0
220
0.0
230
1.0
 70
     8
 71
     3
 72
     9
 73
     5
 74
     0
 42
0.000000001
 43
0.0000000001
 40
0.0
 40
0.0
 40
0.0
 40
0.0
 40
0.5
 40
1.0
 40
1.0
 40
1.0
 40
1.0
 10
840.1188489837535
 20
1484.300737862381
 30
0.0
 10
840.1207381000471
 20
1483.544434544854
 30
0.0
 10
840.1480124625475
 20
1482.032614496291
 30
0.0
 10
840.2222790848744
 20
1480.527885653175
 30
0.0
 10
840.2711604609944
 20
1479.77865992374
 30
0.0
  0
LINE
  5
1EB
330
1CB
100
AcDbEntity
  8
P-SANR-FIXT
100
AcDbLine
 10
840.2711604609944
 20
1479.77865992374
 30
0.0
 11
860.053548595488
 21
1479.77865992374
 31
0.0
  0
LINE
  5
1EC
330
1CB
100
AcDbEntity
  8
P-SANR-FIXT
100
AcDbLine
 10
860.053548595488
 20
1454.322815801023
 30
0.0
 11
860.053548595488
 21
1449.800737862381
 31
0.0
  0
LINE
  5
1ED
330
1CB
100
AcDbEntity
  8
P-SANR-FIXT
100
AcDbLine
 10
860.053548595488
 20
1454.322815801022
 30
0.0
 11
834.7433035118342
 21
1454.322815801022
 31
0.0
  0
SPLINE
  5
1EE
330
1CB
100
AcDbEntity
  8
P-SANR-FIXT
100
AcDbSpline
210
0.0
220
0.0
230
1.0
 70
     8
 71
     3
 72
     9
 73
     5
 74
     0
 42
0.000000001
 43
0.0000000001
 40
0.0
 40
0.0
 40
0.0
 40
0.0
 40
0.5
 40
0.75
 40
0.75
 40
0.75
 40
0.75
 10
834.7433035118342
 20
1454.322815801022
 30
0.0
 10
833.9901729287841
 20
1453.42782942994
 30
0.0
 10
832.8945674600822
 20
1452.182234983975
 30
0.0
 10
831.8500976001905
 20
1451.102611827681
 30
0.0
 10
831.5076227145386
 20
1450.762245546104
 30
0.0
  0
LINE
  5
1EF
330
1CB
100
AcDbEntity
  8
P-SANR-FIXT
100
AcDbLine
 10
830.4972432605199
 20
1449.800737862381
 30
0.0
 11
860.053548595488
 21
1449.800737862381
 31
0.0
  0
LINE
  5
1F0
330
1CB
100
AcDbEntity
  8
P-SANR-FIXT
100
AcDbLine
 10
736.5176502106256
 20
1479.778659923738
 30
0.0
 11
756.3000383451026
 21
1479.778659923738
 31
0.0
  0
SPLINE
  5
1F1
330
1CB
100
AcDbEntity
  8
P-SANR-FIXT
100
AcDbSpline
210
0.0
220
0.0
230
1.0
 70
     8
 71
     3
 72
     9
 73
     5
 74
     0
 42
0.000000001
 43
0.0000000001
 40
0.0
 40
0.0
 40
0.0
 40
0.0
 40
0.5
 40
1.0
 40
1.0
 40
1.0
 40
1.0
 10
756.3000383451026
 20
1479.778659923738
 30
0.0
 10
756.3489197212301
 20
1480.527885653173
 30
0.0
 10
756.423186343568
 20
1482.03261449629
 30
0.0
 10
756.4504607060727
 20
1483.544434544853
 30
0.0
 10
756.4523498223666
 20
1484.30073786238
 30
0.0
  0
LINE
  5
1F2
330
1CB
100
AcDbEntity
  8
P-SANR-FIXT
100
AcDbLine
 10
736.5176502106256
 20
1449.80073786238
 30
0.0
 11
766.0739555455951
 21
1449.800737862381
 31
0.0
  0
SPLINE
  5
1F3
330
1CB
100
AcDbEntity
  8
P-SANR-FIXT
100
AcDbSpline
210
0.0
220
0.0
230
1.0
 70
     8
 71
     3
 72
     9
 73
     5
 74
     0
 42
0.000000001
 43
0.0000000001
 40
0.25
 40
0.25
 40
0.25
 40
0.25
 40
0.5
 40
1.0
 40
1.0
 40
1.0
 40
1.0
 10
765.0635760915763
 20
1450.762245546103
 30
0.0
 10
764.7211012059244
 20
1451.102611827681
 30
0.0
 10
763.6766313460323
 20
1452.182234983975
 30
0.0
 10
762.5810258773303
 20
1453.42782942994
 30
0.0
 10
761.8278952942801
 20
1454.322815801023
 30
0.0
  0
LINE
  5
1F4
330
1CB
100
AcDbEntity
  8
P-SANR-FIXT
100
AcDbLine
 10
761.8278952942801
 20
1454.322815801023
 30
0.0
 11
736.5176502106257
 21
1454.322815801023
 31
0.0
  0
SPLINE
  5
1F5
330
1CB
100
AcDbEntity
  8
P-SANR-FIXT
100
AcDbSpline
210
0.0
220
0.0
230
1.0
 70
     8
 71
     3
 72
     8
 73
     4
 74
     0
 42
0.000000001
 43
0.0000000001
 40
-0.097914426790682
 40
-0.097914426790682
 40
-0.097914426790682
 40
-0.097914426790682
 40
0.0
 40
0.0
 40
0.0
 40
0.0
 10
734.8091046952466
 20
1500.289999435328
 30
0.0
 10
734.7959840420623
 20
1500.709721273803
 30
0.0
 10
734.7881489446656
 20
1501.129967416154
 30
0.0
 10
734.7855994030566
 20
1501.550737862381
 30
0.0
  0
SPLINE
  5
1F6
330
1CB
100
AcDbEntity
  8
P-SANR-FIXT
100
AcDbSpline
210
0.0
220
0.0
230
1.0
 70
    24
 71
     3
 72
     9
 73
     5
 74
     0
 42
0.000000001
 43
0.0000000001
 40
-1.0
 40
-1.0
 40
-1.0
 40
-1.0
 40
-0.5
 40
0.0
 40
0.0
 40
0.0
 40
0.0
 10
734.7855994030569
 20
1449.80073786238
 30
0.0
 10
734.7986186367513
 20
1449.80073786238
 30
0.0
 10
735.1003130050407
 20
1449.80073786238
 30
0.0
 10
735.9533191751304
 20
1449.80073786238
 30
0.0
 10
736.5176502106256
 20
1449.80073786238
 30
0.0
  0
LINE
  5
1F7
330
1CB
100
AcDbEntity
  8
P-SANR-FIXT
100
AcDbLine
 10
736.5176502106257
 20
1454.322815801023
 30
0.0
 11
736.5176502106256
 21
1449.800737862381
 31
0.0
  0
SPLINE
  5
1F8
330
1CB
100
AcDbEntity
  8
P-SANR-FIXT
100
AcDbSpline
210
0.0
220
0.0
230
1.0
 70
     8
 71
     3
 72
     9
 73
     5
 74
     0
 42
0.000000001
 43
0.0000000001
 40
-1.0
 40
-1.0
 40
-1.0
 40
-1.0
 40
-0.5
 40
0.0
 40
0.0
 40
0.0
 40
0.0
 10
736.5176502106257
 20
1454.322815801023
 30
0.0
 10
735.3629508745934
 20
1458.556980218629
 30
0.0
 10
734.2082515385611
 20
1467.033785323355
 30
0.0
 10
735.3629508745934
 20
1475.527542967106
 30
0.0
 10
736.5176502106256
 20
1479.778659923738
 30
0.0
  0
LINE
  5
1F9
330
1CB
100
AcDbEntity
  8
P-SANR-FIXT
100
AcDbLine
 10
736.5176502106256
 20
1484.30073786238
 30
0.0
 11
736.5176502106256
 21
1479.778659923738
 31
0.0
  0
LINE
  5
1FA
330
1CB
100
AcDbEntity
  8
P-SANR-FIXT
100
AcDbLine
 10
734.7855994030568
 20
1484.30073786238
 30
0.0
 11
734.7855994030569
 21
1449.80073786238
 31
0.0
  0
LINE
  5
1FB
330
1CB
100
AcDbEntity
  8
P-SANR-FIXT
100
AcDbLine
 10
734.7855994030566
 20
1468.045554073507
 30
0.0
 11
734.7855994030568
 21
1466.017169872774
 31
0.0
  0
LINE
  5
1FC
330
1CB
100
AcDbEntity
  8
P-SANR-FIXT
100
AcDbLine
 10
734.7855994030568
 20
1466.017169872774
 30
0.0
 11
734.7855994030566
 21
1468.045554073507
 31
0.0
  0
SPLINE
  5
1FD
330
1CB
100
AcDbEntity
  8
P-SANR-FIXT
100
AcDbSpline
210
0.0
220
0.0
230
1.0
 70
     8
 71
     3
 72
    15
 73
    11
 74
     0
 42
0.000000001
 43
0.0000000001
 40
0.0
 40
0.0
 40
0.0
 40
0.0
 40
0.125
 40
0.25
 40
0.375
 40
0.4375
 40
0.5
 40
0.625
 40
0.75
 40
1.0
 40
1.0
 40
1.0
 40
1.0
 10
840.2711604609944
 20
1479.77865992374
 30
0.0
 10
840.689465148873
 20
1479.129061164684
 30
0.0
 10
841.4129662052809
 20
1477.803758526097
 30
0.0
 10
842.169711633884
 20
1475.752945970613
 30
0.0
 10
842.4995306892832
 20
1473.952911433476
 30
0.0
 10
842.6025267801984
 20
1472.486522996057
 30
0.0
 10
842.6223264042633
 20
1471.035666292612
 30
0.0
 10
842.4624363095569
 20
1469.218937793867
 30
0.0
 10
841.8562383571357
 20
1466.341460616027
 30
0.0
 10
841.065176587921
 20
1464.280811662121
 30
0.0
 10
840.3714974536297
 20
1462.932135070508
 30
0.0
  0
LWPOLYLINE
  5
1FE
330
1CB
100
AcDbEntity
  8
P-SANR-FIXT
100
AcDbPolyline
 90
        3
 70
   128
 43
0.0
 10
838.1024942147957
 20
1458.954063051156
 10
837.7926171924642
 20
1458.473706569809
 10
837.4659933078383
 20
1457.980865075025
  0
LWPOLYLINE
  5
1FF
330
1CB
100
AcDbEntity
  8
P-SANR-FIXT
100
AcDbPolyline
 90
        3
 70
   128
 43
0.0
 10
759.1052054982733
 20
1457.980865075029
 10
758.7785816136503
 20
1458.473706569809
 10
758.4687045913174
 20
1458.954063051159
  0
SPLINE
  5
200
330
1CB
100
AcDbEntity
  8
P-SANR-FIXT
100
AcDbSpline
210
0.0
220
0.0
230
1.0
 70
     8
 71
     3
 72
    15
 73
    11
 74
     0
 42
0.000000001
 43
0.0000000001
 40
0.0
 40
0.0
 40
0.0
 40
0.0
 40
0.25
 40
0.375
 40
0.5
 40
0.5625
 40
0.625
 40
0.75
 40
0.875
 40
1.0
 40
1.0
 40
1.0
 40
1.0
 10
756.199701352485
 20
1462.932135070508
 30
0.0
 10
755.506022218194
 20
1464.280811662121
 30
0.0
 10
754.7149604489796
 20
1466.341460616027
 30
0.0
 10
754.1087624965584
 20
1469.218937793865
 30
0.0
 10
753.9488724018513
 20
1471.035666292609
 30
0.0
 10
753.9686720259165
 20
1472.486522996052
 30
0.0
 10
754.0716681168321
 20
1473.952911433471
 30
0.0
 10
754.4014871722302
 20
1475.752945970608
 30
0.0
 10
755.1582326008266
 20
1477.803758526093
 30
0.0
 10
755.8817336572281
 20
1479.129061164682
 30
0.0
 10
756.3000383451026
 20
1479.778659923738
 30
0.0
  0
ARC
  5
201
330
1CB
100
AcDbEntity
  8
P-SANR-FIXT
100
AcDbCircle
 10
798.2855994030573
 20
1484.300737862381
 30
0.0
 40
47.19999999999998
100
AcDbArc
 50
302.2765492650061
 51
313.0353990200082
  0
ARC
  5
202
330
1CB
100
AcDbEntity
  8
P-SANR-FIXT
100
AcDbCircle
 10
798.2855994030573
 20
1484.300737862381
 30
0.0
 40
47.19999999999998
100
AcDbArc
 50
298.6902660133389
 51
299.4487641183372
  0
ARC
  5
203
330
1CB
100
AcDbEntity
  8
P-SANR-FIXT
100
AcDbCircle
 10
798.2855994030573
 20
1484.300737862381
 30
0.0
 40
47.19999999999991
100
AcDbArc
 50
295.1039827616714
 51
295.2344789002718
  0
ARC
  5
204
330
1CB
100
AcDbEntity
  8
P-SANR-FIXT
100
AcDbCircle
 10
798.2855994030573
 20
1484.300737862381
 30
0.0
 40
47.19999999999991
100
AcDbArc
 50
291.0319760945242
 51
291.5176995100041
  0
ARC
  5
205
330
1CB
100
AcDbEntity
  8
P-SANR-FIXT
100
AcDbCircle
 10
798.2855994030573
 20
1484.300737862381
 30
0.0
 40
47.20000000000003
100
AcDbArc
 50
277.1725665033351
 51
287.9314162583368
  0
ARC
  5
206
330
1CB
100
AcDbEntity
  8
P-SANR-FIXT
100
AcDbCircle
 10
798.2855994030573
 20
1484.300737862381
 30
0.0
 40
47.19999999999998
100
AcDbArc
 50
273.5862832516675
 51
274.2068249454545
  0
ARC
  5
207
330
1CB
100
AcDbEntity
  8
P-SANR-FIXT
100
AcDbCircle
 10
798.2855994030573
 20
1484.300737862381
 30
0.0
 40
47.19999999999998
100
AcDbArc
 50
265.7931750545447
 51
266.413716748333
  0
ARC
  5
208
330
1CB
100
AcDbEntity
  8
P-SANR-FIXT
100
AcDbCircle
 10
798.2855994030573
 20
1484.300737862381
 30
0.0
 40
47.1999999999999
100
AcDbArc
 50
252.0685837416635
 51
262.8274334966656
  0
ARC
  5
209
330
1CB
100
AcDbEntity
  8
P-SANR-FIXT
100
AcDbCircle
 10
798.2855994030573
 20
1484.300737862381
 30
0.0
 40
47.20000000000019
100
AcDbArc
 50
248.4823004899964
 51
248.9680239054755
  0
ARC
  5
20A
330
1CB
100
AcDbEntity
  8
P-SANR-FIXT
100
AcDbCircle
 10
798.2855994030573
 20
1484.300737862381
 30
0.0
 40
47.20000000000014
100
AcDbArc
 50
244.7655210997278
 51
244.896017238329
  0
ARC
  5
20B
330
1CB
100
AcDbEntity
  8
P-SANR-FIXT
100
AcDbCircle
 10
798.2855994030573
 20
1484.300737862381
 30
0.0
 40
47.20000000000015
100
AcDbArc
 50
240.5512358816625
 51
241.3097339866618
  0
ARC
  5
20C
330
1CB
100
AcDbEntity
  8
P-SANR-FIXT
100
AcDbCircle
 10
798.2855994030573
 20
1484.300737862381
 30
0.0
 40
47.20000000000004
100
AcDbArc
 50
226.9646009799925
 51
237.7234507349945
  0
ARC
  5
20D
330
1CB
100
AcDbEntity
  8
P-SANR-FIXT
100
AcDbCircle
 10
798.2855994030577
 20
1484.300737862381
 30
0.0
 40
15.99999999999966
100
AcDbArc
 50
180.0
 51
359.9999999999988
  0
ARC
  5
20E
330
1CB
100
AcDbEntity
  8
P-SANR-FIXT
100
AcDbCircle
 10
798.2855994030568
 20
1484.300737862381
 30
0.0
 40
15.49999999999897
100
AcDbArc
 50
184.9999999999981
 51
185.6278813628052
  0
ARC
  5
20F
330
1CB
100
AcDbEntity
  8
P-SANR-FIXT
100
AcDbCircle
 10
798.2855994030568
 20
1484.300737862381
 30
0.0
 40
15.49999999999895
100
AcDbArc
 50
189.9999999999987
 51
191.2587722184114
  0
ARC
  5
210
330
1CB
100
AcDbEntity
  8
P-SANR-FIXT
100
AcDbCircle
 10
798.2855994030568
 20
1484.300737862381
 30
0.0
 40
15.49999999999896
100
AcDbArc
 50
194.9999999999988
 51
196.8909385106639
  0
ARC
  5
211
330
1CB
100
AcDbEntity
  8
P-SANR-FIXT
100
AcDbCircle
 10
798.2855994030568
 20
1484.300737862381
 30
0.0
 40
15.499999999999
100
AcDbArc
 50
199.9999999999982
 51
204.9999999999986
  0
ARC
  5
212
330
1CB
100
AcDbEntity
  8
P-SANR-FIXT
100
AcDbCircle
 10
798.2855994030568
 20
1484.300737862381
 30
0.0
 40
15.49999999999896
100
AcDbArc
 50
208.1518079189327
 51
209.9999999999993
  0
ARC
  5
213
330
1CB
100
AcDbEntity
  8
P-SANR-FIXT
100
AcDbCircle
 10
798.2855994030568
 20
1484.300737862381
 30
0.0
 40
15.49999999999898
100
AcDbArc
 50
213.7763607328347
 51
214.9999999999991
  0
ARC
  5
214
330
1CB
100
AcDbEntity
  8
P-SANR-FIXT
100
AcDbCircle
 10
798.2855994030568
 20
1484.300737862381
 30
0.0
 40
15.49999999999891
100
AcDbArc
 50
219.3935715059899
 51
219.9999999999985
  0
ARC
  5
215
330
1CB
100
AcDbEntity
  8
P-SANR-FIXT
100
AcDbCircle
 10
798.2855994030568
 20
1484.300737862381
 30
0.0
 40
15.49999999999897
100
AcDbArc
 50
229.999999999999
 51
230.6064284940088
  0
ARC
  5
216
330
1CB
100
AcDbEntity
  8
P-SANR-FIXT
100
AcDbCircle
 10
798.2855994030568
 20
1484.300737862381
 30
0.0
 40
15.4999999999989
100
AcDbArc
 50
234.9999999999987
 51
236.2236392671652
  0
ARC
  5
217
330
1CB
100
AcDbEntity
  8
P-SANR-FIXT
100
AcDbCircle
 10
798.2855994030568
 20
1484.300737862381
 30
0.0
 40
15.49999999999888
100
AcDbArc
 50
239.9999999999992
 51
241.8481920810658
  0
ARC
  5
218
330
1CB
100
AcDbEntity
  8
P-SANR-FIXT
100
AcDbCircle
 10
798.2855994030568
 20
1484.300737862381
 30
0.0
 40
15.499999999999
100
AcDbArc
 50
244.9999999999989
 51
249.9999999999995
  0
ARC
  5
219
330
1CB
100
AcDbEntity
  8
P-SANR-FIXT
100
AcDbCircle
 10
798.2855994030568
 20
1484.300737862381
 30
0.0
 40
15.49999999999897
100
AcDbArc
 50
253.1090614893356
 51
254.9999999999993
  0
ARC
  5
21A
330
1CB
100
AcDbEntity
  8
P-SANR-FIXT
100
AcDbCircle
 10
798.2855994030568
 20
1484.300737862381
 30
0.0
 40
15.49999999999899
100
AcDbArc
 50
258.7412277815874
 51
259.9999999999992
  0
ARC
  5
21B
330
1CB
100
AcDbEntity
  8
P-SANR-FIXT
100
AcDbCircle
 10
798.2855994030568
 20
1484.300737862381
 30
0.0
 40
15.49999999999897
100
AcDbArc
 50
264.3721186371936
 51
264.9999999999991
  0
ARC
  5
21C
330
1CB
100
AcDbEntity
  8
P-SANR-FIXT
100
AcDbCircle
 10
798.2855994030568
 20
1484.300737862381
 30
0.0
 40
15.49999999999897
100
AcDbArc
 50
274.9999999999989
 51
275.6278813628052
  0
ARC
  5
21D
330
1CB
100
AcDbEntity
  8
P-SANR-FIXT
100
AcDbCircle
 10
798.2855994030568
 20
1484.300737862381
 30
0.0
 40
15.49999999999895
100
AcDbArc
 50
279.9999999999991
 51
281.258772218412
  0
ARC
  5
21E
330
1CB
100
AcDbEntity
  8
P-SANR-FIXT
100
AcDbCircle
 10
798.2855994030568
 20
1484.300737862381
 30
0.0
 40
15.49999999999896
100
AcDbArc
 50
284.9999999999991
 51
286.8909385106639
  0
ARC
  5
21F
330
1CB
100
AcDbEntity
  8
P-SANR-FIXT
100
AcDbCircle
 10
798.2855994030568
 20
1484.300737862381
 30
0.0
 40
15.499999999999
100
AcDbArc
 50
289.9999999999991
 51
294.9999999999986
  0
ARC
  5
220
330
1CB
100
AcDbEntity
  8
P-SANR-FIXT
100
AcDbCircle
 10
798.2855994030568
 20
1484.300737862381
 30
0.0
 40
15.49999999999896
100
AcDbArc
 50
298.1518079189328
 51
299.9999999999989
  0
ARC
  5
221
330
1CB
100
AcDbEntity
  8
P-SANR-FIXT
100
AcDbCircle
 10
798.2855994030568
 20
1484.300737862381
 30
0.0
 40
15.49999999999898
100
AcDbArc
 50
303.7763607328346
 51
304.9999999999998
  0
ARC
  5
222
330
1CB
100
AcDbEntity
  8
P-SANR-FIXT
100
AcDbCircle
 10
798.2855994030568
 20
1484.300737862381
 30
0.0
 40
15.49999999999898
100
AcDbArc
 50
309.3935715059906
 51
309.9999999999994
  0
ARC
  5
223
330
1CB
100
AcDbEntity
  8
P-SANR-FIXT
100
AcDbCircle
 10
798.2855994030568
 20
1484.300737862381
 30
0.0
 40
15.49999999999897
100
AcDbArc
 50
319.9999999999994
 51
320.6064284940088
  0
ARC
  5
224
330
1CB
100
AcDbEntity
  8
P-SANR-FIXT
100
AcDbCircle
 10
798.2855994030568
 20
1484.300737862381
 30
0.0
 40
15.4999999999989
100
AcDbArc
 50
324.9999999999991
 51
326.2236392671649
  0
ARC
  5
225
330
1CB
100
AcDbEntity
  8
P-SANR-FIXT
100
AcDbCircle
 10
798.2855994030568
 20
1484.300737862381
 30
0.0
 40
15.49999999999888
100
AcDbArc
 50
329.9999999999995
 51
331.8481920810675
  0
ARC
  5
226
330
1CB
100
AcDbEntity
  8
P-SANR-FIXT
100
AcDbCircle
 10
798.2855994030568
 20
1484.300737862381
 30
0.0
 40
15.499999999999
100
AcDbArc
 50
334.9999999999992
 51
339.9999999999988
  0
ARC
  5
227
330
1CB
100
AcDbEntity
  8
P-SANR-FIXT
100
AcDbCircle
 10
798.2855994030568
 20
1484.300737862381
 30
0.0
 40
15.499999999999
100
AcDbArc
 50
343.1090614893357
 51
344.9999999999998
  0
ARC
  5
228
330
1CB
100
AcDbEntity
  8
P-SANR-FIXT
100
AcDbCircle
 10
798.2855994030568
 20
1484.300737862381
 30
0.0
 40
15.49999999999899
100
AcDbArc
 50
348.7412277815878
 51
349.9999999999998
  0
ARC
  5
229
330
1CB
100
AcDbEntity
  8
P-SANR-FIXT
100
AcDbCircle
 10
798.2855994030568
 20
1484.300737862381
 30
0.0
 40
15.49999999999897
100
AcDbArc
 50
354.3721186371942
 51
354.9999999999995
  0
ENDBLK
  5
22B
330
1CB
100
AcDbEntity
  8
0
100
AcDbBlockEnd
  0
BLOCK
  5
2E4
330
22D
100
AcDbEntity
  8
0
100
AcDbBlockBegin
  2
Automatic flow rate regulator valve_Caleffi_121 DN15 - 3_4___Insulation-V1-Est - Idraulica
 70
     0
 10
0.0
 20
0.0
 30
0.0
  3
Automatic flow rate regulator valve_Caleffi_121 DN15 - 3_4___Insulation-V1-Est - Idraulica
  1

  0
LWPOLYLINE
  5
22E
330
22D
100
AcDbEntity
  8
P-SANR-FIXT
100
AcDbPolyline
 90
       41
 70
   128
 43
0.0
 10
1207.598965508006
 20
1946.938428861411
 10
1207.599600199521
 20
1947.058419182974
 10
1207.60503271642
 20
1947.178288144189
 10
1207.615254367832
 20
1947.297843980286
 10
1207.630248801297
 20
1947.416895427431
 10
1207.64999202892
 20
1947.535252028706
 10
1207.674452465749
 20
1947.652724438797
 10
1207.703590980301
 20
1947.769124726907
 10
1207.737360957171
 20
1947.884266677405
 10
1207.775708371598
 20
1947.997966087734
 10
1207.818571875901
 20
1948.110041063092
 10
1207.865882897615
 20
1948.220312307424
 10
1207.9175657492
 20
1948.328603410265
 10
1207.973537749116
 20
1948.434741128951
 10
1208.033709354105
 20
1948.538555665772
 10
1208.097984302434
 20
1948.639880939617
 10
1208.166259767898
 20
1948.738554851662
 10
1208.238426524316
 20
1948.834419544695
 10
1208.314369120272
 20
1948.927321655661
 10
1208.393966063814
 20
1949.017112560998
 10
1208.477090016811
 20
1949.103648614412
 10
1208.563607998671
 20
1949.186791376678
 10
1208.653381599079
 20
1949.266407837113
 10
1208.746267199426
 20
1949.342370626363
 10
1208.842116202564
 20
1949.414558220171
 10
1208.940775270536
 20
1949.482855133786
 10
1209.042086569879
 20
1949.547152106714
 10
1209.145888024126
 20
1949.607346277516
 10
1209.252013573094
 20
1949.663341348359
 10
1209.360293438543
 20
1949.715047739074
 10
1209.470554395787
 20
1949.762382730467
 10
1209.582620050815
 20
1949.805270596648
 10
1209.696311122485
 20
1949.843642726181
 10
1209.811445729335
 20
1949.877437731844
 10
1209.927839680556
 20
1949.906601548837
 10
1210.045306770654
 20
1949.931087521275
 10
1210.163659077345
 20
1949.950856476824
 10
1210.282707262183
 20
1949.965876789374
 10
1210.402260873469
 20
1949.976124429628
 10
1210.522128650929
 20
1949.981583003548
 10
1210.551179088938
 20
1949.98195351627
  0
LWPOLYLINE
  5
22F
330
22D
100
AcDbEntity
  8
P-SANR-FIXT
100
AcDbPolyline
 90
        7
 70
   128
 43
0.0
 10
1270.77824481076
 20
1949.982558850006
 10
1268.371702519332
 20
1949.982558850006
 10
1265.969010182202
 20
1949.982558850006
 10
1263.574011594561
 20
1949.982558850006
 10
1261.190538243246
 20
1949.982558850006
 10
1258.822403177171
 20
1949.982558850006
 10
1256.473394907266
 20
1949.982558850006
  0
LWPOLYLINE
  5
230
330
22D
100
AcDbEntity
  8
P-SANR-FIXT
100
AcDbPolyline
 90
       34
 70
   128
 43
0.0
 10
1254.147271345668
 20
1949.982558850006
 10
1251.847753793862
 20
1949.982558850006
 10
1249.578520989393
 20
1949.982558850006
 10
1247.343203220673
 20
1949.982558850006
 10
1245.145376519288
 20
1949.982558850006
 10
1242.988556939115
 20
1949.982558850006
 10
1240.876194931387
 20
1949.982558850006
 10
1238.811669824702
 20
1949.982558850006
 10
1236.798284418822
 20
1949.982558850006
 10
1234.839259700897
 20
1949.982558850006
 10
1232.937729692574
 20
1949.982558850006
 10
1231.096736436227
 20
1949.982558850006
 10
1229.319225128343
 20
1949.982558850006
 10
1227.608039407831
 20
1949.982558850006
 10
1225.965916806811
 20
1949.982558850006
 10
1224.395484371145
 20
1949.982558850006
 10
1222.89925445772
 20
1949.982558850006
 10
1221.47962071522
 20
1949.982558850006
 10
1220.138854254794
 20
1949.982558850006
 10
1218.879100016764
 20
1949.982558850006
 10
1217.702373339178
 20
1949.982558850006
 10
1216.610556733697
 20
1949.982558850006
 10
1215.605396873982
 20
1949.982558850006
 10
1214.688501801386
 20
1949.982558850006
 10
1213.861338352432
 20
1949.982558850006
 10
1213.125229812185
 20
1949.982558850006
 10
1212.481353797282
 20
1949.982558850006
 10
1211.930740371994
 20
1949.982558850006
 10
1211.474270400342
 20
1949.982558850006
 10
1211.112674136908
 20
1949.982558850006
 10
1210.846530058576
 20
1949.982558850006
 10
1210.676263939096
 20
1949.982558850006
 10
1210.60214816794
 20
1949.982558850006
 10
1210.598640914464
 20
1949.982558850006
  0
LINE
  5
231
330
22D
100
AcDbEntity
  8
P-SANR-FIXT
100
AcDbLine
 10
1210.646778178765
 20
1949.982558850006
 30
0.0
 11
1210.666296756169
 21
1949.982558850006
 31
0.0
  0
LWPOLYLINE
  5
232
330
22D
100
AcDbEntity
  8
P-SANR-FIXT
100
AcDbPolyline
 90
       17
 70
   128
 43
0.0
 10
1236.021033993483
 20
1863.620772469511
 10
1232.696627781641
 20
1868.250032335231
 10
1229.560001759991
 20
1873.008530077798
 10
1226.616173861056
 20
1877.888653115915
 10
1223.869853581492
 20
1882.882594293759
 10
1221.325434447896
 20
1887.982364370762
 10
1218.986986988101
 20
1893.179804802695
 10
1216.8582522192
 20
1898.466600793593
 10
1214.942635662718
 20
1903.834294597661
 10
1213.243201896502
 20
1909.274299049861
 10
1211.762669652052
 20
1914.77791130354
 10
1210.503407465128
 20
1920.336326753135
 10
1209.467429886602
 20
1925.940653119657
 10
1208.656394259601
 20
1931.581924676447
 10
1208.071598068119
 20
1937.25111659242
 10
1207.713976861311
 20
1942.939159369874
 10
1207.598965508006
 20
1946.938428861411
  0
LWPOLYLINE
  5
233
330
22D
100
AcDbEntity
  8
P-SANR-FIXT
100
AcDbPolyline
 90
       25
 70
   128
 43
0.0
 10
1248.027432682804
 20
1857.612234559353
 10
1247.427592670004
 20
1857.624232959438
 10
1246.828712273267
 20
1857.660208964814
 10
1246.23174957347
 20
1857.720105021545
 10
1245.63765958359
 20
1857.803825308718
 10
1245.047392720878
 20
1857.911235891734
 10
1244.461893286397
 20
1858.042164936572
 10
1243.882097954342
 20
1858.196402984691
 10
1243.308934273562
 20
1858.373703288116
 10
1242.743319183677
 20
1858.573782204184
 10
1242.186157548174
 20
1858.79631964931
 10
1241.638340706814
 20
1859.040959611053
 10
1241.100745049682
 20
1859.307310717664
 10
1240.574230615148
 20
1859.594946864188
 10
1240.059639713991
 20
1859.903407894152
 10
1239.557795581878
 20
1860.232200335708
 10
1239.069501062368
 20
1860.580798191088
 10
1238.595537322527
 20
1860.948643778089
 10
1238.136662603232
 20
1861.335148622239
 10
1237.693611006146
 20
1861.739694398239
 10
1237.267091319311
 20
1862.161633919145
 10
1236.857785883241
 20
1862.600292171734
 10
1236.466349499319
 20
1863.054967396374
 10
1236.093408382259
 20
1863.524932209701
 10
1236.021033993483
 20
1863.620772469511
  0
LWPOLYLINE
  5
234
330
22D
100
AcDbEntity
  8
P-SANR-FIXT
100
AcDbPolyline
 90
       26
 70
   128
 43
0.0
 10
1257.778244810748
 20
1857.612234559353
 10
1257.191563520652
 20
1857.612234559353
 10
1256.472692853947
 20
1857.612234559353
 10
1255.776708018683
 20
1857.612234559353
 10
1255.10472244213
 20
1857.612234559353
 10
1254.45781115786
 20
1857.612234559353
 10
1253.837009085928
 20
1857.612234559353
 10
1253.243309377218
 20
1857.612234559353
 10
1252.677661824615
 20
1857.612234559353
 10
1252.140971343538
 20
1857.612234559353
 10
1251.63409652427
 20
1857.612234559353
 10
1251.157848258392
 20
1857.612234559353
 10
1250.712988441536
 20
1857.612234559353
 10
1250.300228754512
 20
1857.612234559353
 10
1249.920229524768
 20
1857.612234559353
 10
1249.573598670008
 20
1857.612234559353
 10
1249.260890725657
 20
1857.612234559353
 10
1248.982605957718
 20
1857.612234559353
 10
1248.739189562455
 20
1857.612234559353
 10
1248.531030954176
 20
1857.612234559353
 10
1248.358463142248
 20
1857.612234559353
 10
1248.221762198358
 20
1857.612234559353
 10
1248.121146814854
 20
1857.612234559353
 10
1248.056777954888
 20
1857.612234559353
 10
1248.028758594903
 20
1857.612234559353
 10
1248.027432682804
 20
1857.612234559353
  0
LWPOLYLINE
  5
235
330
22D
100
AcDbEntity
  8
P-SANR-FIXT
100
AcDbPolyline
 90
       41
 70
   128
 43
0.0
 10
1248.027432682804
 20
1857.612234559353
 10
1248.045630905882
 20
1857.612234559353
 10
1248.100196461843
 20
1857.612234559353
 10
1248.191042057437
 20
1857.612234559353
 10
1248.318022359089
 20
1857.612234559353
 10
1248.480934225405
 20
1857.612234559353
 10
1248.679517032152
 20
1857.612234559353
 10
1248.913453089201
 20
1857.612234559353
 10
1249.182368148765
 20
1857.612234559353
 10
1249.485832004113
 20
1857.612234559353
 10
1249.823359177812
 20
1857.612234559353
 10
1250.194409698387
 20
1857.612234559353
 10
1250.598389964158
 20
1857.612234559353
 10
1251.034653692877
 20
1857.612234559353
 10
1251.502502955643
 20
1857.612234559353
 10
1252.001189293439
 20
1857.612234559353
 10
1252.529914914504
 20
1857.612234559353
 10
1253.087833970634
 20
1857.612234559353
 10
1253.674053910355
 20
1857.612234559353
 10
1254.287636906817
 20
1857.612234559353
 10
1254.927601358116
 20
1857.612234559353
 10
1255.59292345765
 20
1857.612234559353
 10
1256.282538831986
 20
1857.612234559353
 10
1256.995344243636
 20
1857.612234559353
 10
1257.730199355998
 20
1857.612234559353
 10
1258.485928557653
 20
1857.612234559353
 10
1259.261322843092
 20
1857.612234559353
 10
1260.055141746866
 20
1857.612234559353
 10
1260.86611532807
 20
1857.612234559353
 10
1261.692946201971
 20
1857.612234559353
 10
1262.534311615553
 20
1857.612234559353
 10
1263.388865563636
 20
1857.612234559353
 10
1264.255240942196
 20
1857.612234559353
 10
1265.132051735446
 20
1857.612234559353
 10
1266.01789523316
 20
1857.612234559353
 10
1266.911354274711
 20
1857.612234559353
 10
1267.810999516227
 20
1857.612234559353
 10
1268.715391717236
 20
1857.612234559353
 10
1269.623084043142
 20
1857.612234559353
 10
1270.532624379856
 20
1857.612234559353
 10
1270.77824481076
 20
1857.612234559353
  0
LINE
  5
236
330
22D
100
AcDbEntity
  8
P-SANR-FIXT
100
AcDbLine
 10
1270.778244810758
 20
1946.938428861409
 30
0.0
 11
1270.778244810758
 21
1949.982558850005
 31
0.0
  0
LINE
  5
237
330
22D
100
AcDbEntity
  8
P-SANR-FIXT
100
AcDbLine
 10
1270.778244810758
 20
1863.620772469509
 30
0.0
 11
1270.778244810758
 21
1946.938428861409
 31
0.0
  0
LINE
  5
238
330
22D
100
AcDbEntity
  8
P-SANR-FIXT
100
AcDbLine
 10
1270.778244810758
 20
1857.612234559352
 30
0.0
 11
1270.778244810758
 21
1863.62077246951
 31
0.0
  0
LINE
  5
239
330
22D
100
AcDbEntity
  8
P-SANR-FIXT
100
AcDbLine
 10
1270.778244810758
 20
1962.170058850011
 30
0.0
 11
1270.778244810758
 21
1999.98255885001
 31
0.0
  0
LINE
  5
23A
330
22D
100
AcDbEntity
  8
P-SANR-FIXT
100
AcDbLine
 10
1270.778244810758
 20
1999.98255885001
 30
0.0
 11
1270.778244810758
 21
2037.795058850011
 31
0.0
  0
ARC
  5
23B
330
22D
100
AcDbEntity
  8
P-SANR-FIXT
100
AcDbCircle
 10
1270.778244810758
 20
1999.982558850011
 30
0.0
 40
37.81249999999966
100
AcDbArc
 50
89.99999999999982
 51
269.9999999999992
  0
LWPOLYLINE
  5
23C
330
22D
100
AcDbEntity
  8
P-SANR-FIXT
100
AcDbPolyline
 90
       41
 70
   128
 43
0.0
 10
1240.77824481076
 20
2069.334325165791
 10
1240.780644490777
 20
2069.454293168351
 10
1240.787839691852
 20
2069.574069247699
 10
1240.799818903199
 20
2069.693461787658
 10
1240.816562960633
 20
2069.812279785633
 10
1240.838045077236
 20
2069.930333158176
 10
1240.864230886204
 20
2070.047433045072
 10
1240.895078495827
 20
2070.163392111484
 10
1240.930538556513
 20
2070.27802484764
 10
1240.970554339726
 20
2070.391147865616
 10
1241.015061828752
 20
2070.502580192717
 10
1241.0639898211
 20
2070.612143560989
 10
1241.117260042422
 20
2070.719662692416
 10
1241.174787271727
 20
2070.824965579322
 10
1241.23647947772
 20
2070.927883759554
 10
1241.302237966031
 20
2071.028252585976
 10
1241.371957537107
 20
2071.125911489879
 10
1241.445526654507
 20
2071.220704237846
 10
1241.522827623337
 20
2071.312479181706
 10
1241.603736778537
 20
2071.401089501123
 10
1241.688124682719
 20
2071.486393438489
 10
1241.775856333236
 20
2071.568254525704
 10
1241.866791378164
 20
2071.646541802488
 10
1241.96078434083
 20
2071.7211300259
 10
1242.057684852543
 20
2071.791899870694
 10
1242.157337893156
 20
2071.858738120215
 10
1242.259584039062
 20
2071.921537847521
 10
1242.364259718239
 20
2071.980198586446
 10
1242.47119747193
 20
2072.034626492321
 10
1242.580226222541
 20
2072.084734492106
 10
1242.69117154733
 20
2072.130442423693
 10
1242.803855957444
 20
2072.17167716414
 10
1242.918099181864
 20
2072.208372746659
 10
1243.033718455803
 20
2072.240470466146
 10
1243.150528813086
 20
2072.267918973097
 10
1243.268343382059
 20
2072.290674355757
 10
1243.386973684546
 20
2072.308700210366
 10
1243.506229937367
 20
2072.321967699404
 10
1243.625921355959
 20
2072.330455597718
 10
1243.745856459585
 20
2072.334150326481
 10
1243.77824481076
 20
2072.334325165791
  0
LWPOLYLINE
  5
23D
330
22D
100
AcDbEntity
  8
P-SANR-FIXT
100
AcDbPolyline
 90
       41
 70
   128
 43
0.0
 10
1270.77824481076
 20
2072.334325165791
 10
1269.698532787721
 20
2072.334325165791
 10
1268.620548073592
 20
2072.334325165791
 10
1267.546015213959
 20
2072.334325165791
 10
1266.476653232175
 20
2072.334325165791
 10
1265.414172879294
 20
2072.334325165791
 10
1264.360273897227
 20
2072.334325165791
 10
1263.316642299529
 20
2072.334325165791
 10
1262.284947674125
 20
2072.334325165791
 10
1261.266840512333
 20
2072.334325165791
 10
1260.263949568426
 20
2072.334325165791
 10
1259.277879253978
 20
2072.334325165791
 10
1258.31020707114
 20
2072.334325165791
 10
1257.362481088979
 20
2072.334325165791
 10
1256.436217466896
 20
2072.334325165791
 10
1255.532898029094
 20
2072.334325165791
 10
1254.653967893975
 20
2072.334325165791
 10
1253.800833162262
 20
2072.334325165791
 10
1252.97485866753
 20
2072.334325165791
 10
1252.177365792775
 20
2072.334325165791
 10
1251.409630356473
 20
2072.334325165791
 10
1250.672880571547
 20
2072.334325165791
 10
1249.968295080488
 20
2072.334325165791
 10
1249.297001069778
 20
2072.334325165791
 10
1248.660072466633
 20
2072.334325165791
 10
1248.058528220947
 20
2072.334325165791
 10
1247.49333067519
 20
2072.334325165791
 10
1246.965384024866
 20
2072.334325165791
 10
1246.475532871994
 20
2072.334325165791
 10
1246.024560873922
 20
2072.334325165791
 10
1245.613189489645
 20
2072.334325165791
 10
1245.242076825622
 20
2072.334325165791
 10
1244.911816582951
 20
2072.334325165791
 10
1244.622937107567
 20
2072.334325165791
 10
1244.375900545006
 20
2072.334325165791
 10
1244.171102101072
 20
2072.334325165791
 10
1244.008869409584
 20
2072.334325165791
 10
1243.889462008244
 20
2072.334325165791
 10
1243.813070923419
 20
2072.334325165791
 10
1243.779818364551
 20
2072.334325165791
 10
1243.77824481076
 20
2072.334325165791
  0
LWPOLYLINE
  5
23E
330
22D
100
AcDbEntity
  8
P-SANR-FIXT
100
AcDbPolyline
 90
       41
 70
   128
 43
0.0
 10
1243.77824481076
 20
2072.334325165791
 10
1243.799841930913
 20
2072.334325165791
 10
1243.86459874059
 20
2072.334325165791
 10
1243.972411642706
 20
2072.334325165791
 10
1244.123108159618
 20
2072.334325165791
 10
1244.316447209046
 20
2072.334325165791
 10
1244.552119489755
 20
2072.334325165791
 10
1244.829747976369
 20
2072.334325165791
 10
1245.148888522534
 20
2072.334325165791
 10
1245.509030571456
 20
2072.334325165791
 10
1245.909597972682
 20
2072.334325165791
 10
1246.349949903821
 20
2072.334325165791
 10
1246.829381895719
 20
2072.334325165791
 10
1247.347126959464
 20
2072.334325165791
 10
1247.902356813398
 20
2072.334325165791
 10
1248.494183208199
 20
2072.334325165791
 10
1249.121659347884
 20
2072.334325165791
 10
1249.783781404485
 20
2072.334325165791
 10
1250.479490123956
 20
2072.334325165791
 10
1251.207672520756
 20
2072.334325165791
 10
1251.967163658387
 20
2072.334325165791
 10
1252.756748513045
 20
2072.334325165791
 10
1253.575163917398
 20
2072.334325165791
 10
1254.421100581387
 20
2072.334325165791
 10
1255.293205186804
 20
2072.334325165791
 10
1256.19008255232
 20
2072.334325165791
 10
1257.110297865475
 20
2072.334325165791
 10
1258.052378978069
 20
2072.334325165791
 10
1259.014818761289
 20
2072.334325165791
 10
1259.996077516791
 20
2072.334325165791
 10
1260.99458543989
 20
2072.334325165791
 10
1262.008745130913
 20
2072.334325165791
 10
1263.036934150697
 20
2072.334325165791
 10
1264.077507616146
 20
2072.334325165791
 10
1265.128800831692
 20
2072.334325165791
 10
1266.189131952454
 20
2072.334325165791
 10
1267.25680467483
 20
2072.334325165791
 10
1268.330110950224
 20
2072.334325165791
 10
1269.407333717553
 20
2072.334325165791
 10
1270.486749650187
 20
2072.334325165791
 10
1270.77824481076
 20
2072.334325165791
  0
LINE
  5
23F
330
22D
100
AcDbEntity
  8
P-SANR-FIXT
100
AcDbLine
 10
1240.77824481076
 20
2069.334325165791
 30
0.0
 11
1240.77824481076
 21
2053.250138887032
 31
0.0
  0
LWPOLYLINE
  5
240
330
22D
100
AcDbEntity
  8
P-SANR-FIXT
100
AcDbPolyline
 90
       35
 70
   128
 43
0.0
 10
1238.5102567736
 20
2050.340816201894
 10
1238.626013119219
 20
2050.372416020741
 10
1238.740413216393
 20
2050.408619582293
 10
1238.853274049369
 20
2050.449368968575
 10
1238.964415064891
 20
2050.49459898926
 10
1239.073658461042
 20
2050.544237285965
 10
1239.180829471693
 20
2050.598204448002
 10
1239.285756646089
 20
2050.656414139426
 10
1239.388272123134
 20
2050.718773237148
 10
1239.488211899933
 20
2050.785181979915
 10
1239.585416094163
 20
2050.855534127903
 10
1239.679729199848
 20
2050.929717132684
 10
1239.77100033614
 20
2051.007612317274
 10
1239.85908348869
 20
2051.089095065997
 10
1239.943837743242
 20
2051.174035023835
 10
1240.025127511072
 20
2051.262296304976
 10
1240.102822745891
 20
2051.353737710197
 10
1240.176799151897
 20
2051.448212952758
 10
1240.246938382622
 20
2051.545570892422
 10
1240.313128230258
 20
2051.645655777257
 10
1240.375262805169
 20
2051.748307492795
 10
1240.43324270529
 20
2051.85336181819
 10
1240.486975175149
 20
2051.960650688933
 10
1240.536374254257
 20
2052.070002465717
 10
1240.581360914625
 20
2052.181242209025
 10
1240.621863187192
 20
2052.294191958999
 10
1240.657816276965
 20
2052.408671020134
 10
1240.689162666666
 20
2052.524496250352
 10
1240.715852208761
 20
2052.641482353993
 10
1240.737842205675
 20
2052.759442178247
 10
1240.755097478104
 20
2052.878187012559
 10
1240.767590421295
 20
2052.997526890525
 10
1240.775301049201
 20
2053.117270893798
 10
1240.778217026463
 20
2053.237227457516
 10
1240.77824481076
 20
2053.250138887032
  0
LINE
  5
241
330
22D
100
AcDbEntity
  8
P-SANR-FIXT
100
AcDbLine
 10
1238.5102567736
 20
2050.340816201894
 30
0.0
 11
1218.618184997747
 21
2045.335790606082
 31
0.0
  0
LWPOLYLINE
  5
242
330
22D
100
AcDbEntity
  8
P-SANR-FIXT
100
AcDbPolyline
 90
       35
 70
   128
 43
0.0
 10
1207.278244811946
 20
2030.789177180392
 10
1207.290243212031
 20
2031.389017193191
 10
1207.326219217407
 20
2031.987897589929
 10
1207.386115274138
 20
2032.584860289725
 10
1207.469835561311
 20
2033.178950279606
 10
1207.577246144327
 20
2033.769217142318
 10
1207.708175189165
 20
2034.354716576799
 10
1207.862413237284
 20
2034.934511908854
 10
1208.039713540709
 20
2035.507675589634
 10
1208.239792456777
 20
2036.073290679518
 10
1208.462329901903
 20
2036.630452315021
 10
1208.706969863647
 20
2037.178269156382
 10
1208.973320970257
 20
2037.715864813514
 10
1209.260957116781
 20
2038.242379248048
 10
1209.569418146745
 20
2038.756970149205
 10
1209.898210588301
 20
2039.258814281318
 10
1210.246808443681
 20
2039.747108800828
 10
1210.614654030682
 20
2040.221072540669
 10
1211.001158874832
 20
2040.679947259964
 10
1211.405704650832
 20
2041.12299885705
 10
1211.827644171738
 20
2041.549518543885
 10
1212.266302424326
 20
2041.958823979955
 10
1212.720977648967
 20
2042.350260363877
 10
1213.190942462294
 20
2042.723201480937
 10
1213.675445020859
 20
2043.077050704907
 10
1214.173710223924
 20
2043.41124195251
 10
1214.684940953454
 20
2043.725240589042
 10
1215.20831934934
 20
2044.018544283666
 10
1215.743008117795
 20
2044.29068381304
 10
1216.288151870852
 20
2044.541223811968
 10
1216.842878494796
 20
2044.769763469901
 10
1217.406300545364
 20
2044.975937172135
 10
1217.977516667467
 20
2045.15941508473
 10
1218.555613037161
 20
2045.319903682166
 10
1218.618184997747
 20
2045.335790606082
  0
LINE
  5
243
330
22D
100
AcDbEntity
  8
P-SANR-FIXT
100
AcDbLine
 10
1207.278244811946
 20
2030.789177180392
 30
0.0
 11
1207.278244811946
 21
1962.482558850011
 31
0.0
  0
LINE
  5
244
330
22D
100
AcDbEntity
  8
P-SANR-FIXT
100
AcDbLine
 10
1207.278244811946
 20
1962.482558850011
 30
0.0
 11
1207.278244811946
 21
1952.982558850006
 31
0.0
  0
LWPOLYLINE
  5
245
330
22D
100
AcDbEntity
  8
P-SANR-FIXT
100
AcDbPolyline
 90
       41
 70
   128
 43
0.0
 10
1210.278244811946
 20
1949.982558850006
 10
1210.158276809386
 20
1949.984958530023
 10
1210.038500730038
 20
1949.992153731098
 10
1209.919108190079
 20
1950.004132942444
 10
1209.800290192103
 20
1950.020876999879
 10
1209.682236819561
 20
1950.042359116482
 10
1209.565136932664
 20
1950.06854492545
 10
1209.449177866253
 20
1950.099392535074
 10
1209.334545130097
 20
1950.134852595759
 10
1209.22142211212
 20
1950.174868378972
 10
1209.10998978502
 20
1950.219375867997
 10
1209.000426416748
 20
1950.268303860346
 10
1208.892907285322
 20
1950.321574081668
 10
1208.787604398415
 20
1950.379101310973
 10
1208.684686218183
 20
1950.440793516966
 10
1208.584317391761
 20
1950.506552005277
 10
1208.486658487859
 20
1950.576271576353
 10
1208.391865739891
 20
1950.649840693753
 10
1208.300090796031
 20
1950.727141662583
 10
1208.211480476614
 20
1950.808050817783
 10
1208.126176539247
 20
1950.892438721965
 10
1208.044315452033
 20
1950.980170372482
 10
1207.966028175249
 20
1951.07110541741
 10
1207.891439951837
 20
1951.165098380076
 10
1207.820670107043
 20
1951.261998891789
 10
1207.753831857522
 20
1951.361651932401
 10
1207.691032130216
 20
1951.463898078307
 10
1207.632371391291
 20
1951.568573757485
 10
1207.577943485416
 20
1951.675511511176
 10
1207.52783548563
 20
1951.784540261787
 10
1207.482127554044
 20
1951.895485586576
 10
1207.440892813597
 20
1952.008169996689
 10
1207.404197231078
 20
1952.12241322111
 10
1207.372099511591
 20
1952.238032495049
 10
1207.34465100464
 20
1952.354842852332
 10
1207.32189562198
 20
1952.472657421305
 10
1207.303869767371
 20
1952.591287723792
 10
1207.290602278333
 20
1952.710543976613
 10
1207.282114380019
 20
1952.830235395205
 10
1207.278419651256
 20
1952.950170498831
 10
1207.278244811946
 20
1952.982558850006
  0
LWPOLYLINE
  5
246
330
22D
100
AcDbEntity
  8
P-SANR-FIXT
100
AcDbPolyline
 90
        5
 70
   128
 43
0.0
 10
1210.598640914464
 20
1949.982558850006
 10
1210.527453717413
 20
1949.982558850006
 10
1210.356281101422
 20
1949.982558850006
 10
1210.281770738033
 20
1949.982558850006
 10
1210.278244811946
 20
1949.982558850006
  0
LWPOLYLINE
  5
247
330
22D
100
AcDbEntity
  8
P-SANR-FIXT
100
AcDbPolyline
 90
       41
 70
   128
 43
0.0
 10
1210.278244811946
 20
1949.982558850006
 10
1210.326638358956
 20
1949.982558850006
 10
1210.471741580633
 20
1949.982558850006
 10
1210.713322342778
 20
1949.982558850006
 10
1211.050994167705
 20
1949.982558850006
 10
1211.484216852527
 20
1949.982558850006
 10
1212.012297333364
 20
1949.982558850006
 10
1212.634390794098
 20
1949.982558850006
 10
1213.349502017898
 20
1949.982558850006
 10
1214.156486979354
 20
1949.982558850006
 10
1215.054054674677
 20
1949.982558850006
 10
1216.040769187025
 20
1949.982558850006
 10
1217.115051983665
 20
1949.982558850006
 10
1218.275184441291
 20
1949.982558850006
 10
1219.519310595453
 20
1949.982558850006
 10
1220.845440109703
 20
1949.982558850006
 10
1222.251451459712
 20
1949.982558850006
 10
1223.735095327251
 20
1949.982558850006
 10
1225.293998198627
 20
1949.982558850006
 10
1226.925666161795
 20
1949.982558850006
 10
1228.627488896083
 20
1949.982558850006
 10
1230.396743848152
 20
1949.982558850006
 10
1232.230600587502
 20
1949.982558850006
 10
1234.126125334549
 20
1949.982558850006
 10
1236.080285654056
 20
1949.982558850006
 10
1238.089955306378
 20
1949.982558850006
 10
1240.151919248777
 20
1949.982558850006
 10
1242.262878778808
 20
1949.982558850006
 10
1244.419456811536
 20
1949.982558850006
 10
1246.618203282154
 20
1949.982558850006
 10
1248.855600665351
 20
1949.982558850006
 10
1251.128069602599
 20
1949.982558850006
 10
1253.431974628367
 20
1949.982558850006
 10
1255.763629986086
 20
1949.982558850006
 10
1258.119305524577
 20
1949.982558850006
 10
1260.495232665497
 20
1949.982558850006
 10
1262.887610432257
 20
1949.982558850006
 10
1265.292611530777
 20
1949.982558850006
 10
1267.706388472339
 20
1949.982558850006
 10
1270.125079728748
 20
1949.982558850006
 10
1270.77824481076
 20
1949.982558850006
  0
LINE
  5
248
330
22D
100
AcDbEntity
  8
P-SANR-FIXT
100
AcDbLine
 10
1270.778244810758
 20
2069.33432516579
 30
0.0
 11
1270.778244810758
 21
2072.33432516579
 31
0.0
  0
LINE
  5
249
330
22D
100
AcDbEntity
  8
P-SANR-FIXT
100
AcDbLine
 10
1270.778244810758
 20
2053.250138887031
 30
0.0
 11
1270.778244810758
 21
2069.33432516579
 31
0.0
  0
LINE
  5
24A
330
22D
100
AcDbEntity
  8
P-SANR-FIXT
100
AcDbLine
 10
1270.778244810758
 20
2050.340816201893
 30
0.0
 11
1270.778244810758
 21
2053.250138887031
 31
0.0
  0
LINE
  5
24B
330
22D
100
AcDbEntity
  8
P-SANR-FIXT
100
AcDbLine
 10
1270.778244810758
 20
2045.335790606082
 30
0.0
 11
1270.778244810758
 21
2050.340816201893
 31
0.0
  0
LINE
  5
24C
330
22D
100
AcDbEntity
  8
P-SANR-FIXT
100
AcDbLine
 10
1270.778244810758
 20
2037.807897665333
 30
0.0
 11
1270.778244810758
 21
2045.335790606082
 31
0.0
  0
LINE
  5
24D
330
22D
100
AcDbEntity
  8
P-SANR-FIXT
100
AcDbLine
 10
1270.778244810758
 20
1962.482558850011
 30
0.0
 11
1270.778244810758
 21
2030.789177180391
 31
0.0
  0
LINE
  5
24E
330
22D
100
AcDbEntity
  8
P-SANR-FIXT
100
AcDbLine
 10
1270.778244810758
 20
1952.982558850005
 30
0.0
 11
1270.778244810758
 21
1962.482558850011
 31
0.0
  0
LINE
  5
24F
330
22D
100
AcDbEntity
  8
P-SANR-FIXT
100
AcDbLine
 10
1270.778244810758
 20
1949.982558850005
 30
0.0
 11
1270.778244810758
 21
1952.982558850005
 31
0.0
  0
LINE
  5
250
330
22D
100
AcDbEntity
  8
P-SANR-FIXT
100
AcDbLine
 10
1307.27824481076
 20
1893.482558849924
 30
0.0
 11
1307.27824481076
 21
1920.482558849925
 31
0.0
  0
LINE
  5
251
330
22D
100
AcDbEntity
  8
P-SANR-FIXT
100
AcDbLine
 10
1270.777869727292
 20
1920.482558849924
 30
0.0
 11
1307.278244810758
 21
1920.482558849924
 31
0.0
  0
LINE
  5
252
330
22D
100
AcDbEntity
  8
P-SANR-FIXT
100
AcDbLine
 10
1307.278244810758
 20
1893.482558849924
 30
0.0
 11
1270.777869727292
 21
1893.482558849924
 31
0.0
  0
LWPOLYLINE
  5
253
330
22D
100
AcDbEntity
  8
P-SANR-FIXT
100
AcDbPolyline
 90
       41
 70
   128
 43
0.0
 10
1283.278244810759
 20
2054.982558850012
 10
1283.398212813319
 20
2054.980159169994
 10
1283.517988892666
 20
2054.97296396892
 10
1283.637381432626
 20
2054.960984757574
 10
1283.756199430602
 20
2054.944240700139
 10
1283.874252803144
 20
2054.922758583536
 10
1283.99135269004
 20
2054.896572774568
 10
1284.107311756451
 20
2054.865725164944
 10
1284.221944492607
 20
2054.830265104259
 10
1284.335067510584
 20
2054.790249321046
 10
1284.446499837685
 20
2054.745741832021
 10
1284.556063205957
 20
2054.696813839672
 10
1284.663582337383
 20
2054.64354361835
 10
1284.76888522429
 20
2054.586016389045
 10
1284.871803404521
 20
2054.524324183052
 10
1284.972172230944
 20
2054.458565694741
 10
1285.069831134846
 20
2054.388846123665
 10
1285.164623882814
 20
2054.315277006264
 10
1285.256398826673
 20
2054.237976037434
 10
1285.34500914609
 20
2054.157066882234
 10
1285.430313083457
 20
2054.072678978053
 10
1285.512174170671
 20
2053.984947327536
 10
1285.590461447456
 20
2053.894012282608
 10
1285.665049670868
 20
2053.800019319942
 10
1285.735819515662
 20
2053.703118808229
 10
1285.802657765183
 20
2053.603465767617
 10
1285.865457492489
 20
2053.50121962171
 10
1285.924118231414
 20
2053.396543942533
 10
1285.978546137289
 20
2053.289606188842
 10
1286.028654137074
 20
2053.180577438231
 10
1286.07436206866
 20
2053.069632113442
 10
1286.115596809108
 20
2052.956947703328
 10
1286.152292391627
 20
2052.842704478908
 10
1286.184390111114
 20
2052.727085204969
 10
1286.211838618065
 20
2052.610274847686
 10
1286.234594000724
 20
2052.492460278713
 10
1286.252619855334
 20
2052.373829976227
 10
1286.265887344372
 20
2052.254573723405
 10
1286.274375242686
 20
2052.134882304812
 10
1286.278069971449
 20
2052.014947201187
 10
1286.278244810759
 20
2051.982558850012
  0
LWPOLYLINE
  5
254
330
22D
100
AcDbEntity
  8
P-SANR-FIXT
100
AcDbPolyline
 90
       41
 70
   128
 43
0.0
 10
1270.77824481076
 20
2054.982558850012
 10
1271.278111488093
 20
2054.982558850012
 10
1271.777178485374
 20
2054.982558850012
 10
1272.274647401871
 20
2054.982558850012
 10
1272.769722393438
 20
2054.982558850012
 10
1273.261611445698
 20
2054.982558850012
 10
1273.749527641099
 20
2054.982558850012
 10
1274.232690417811
 20
2054.982558850012
 10
1274.710326818461
 20
2054.982558850012
 10
1275.181672726698
 20
2054.982558850012
 10
1275.645974089617
 20
2054.982558850012
 10
1276.102488124084
 20
2054.982558850012
 10
1276.550484505028
 20
2054.982558850012
 10
1276.989246533806
 20
2054.982558850012
 10
1277.418072284771
 20
2054.982558850012
 10
1277.836275728197
 20
2054.982558850012
 10
1278.243187827789
 20
2054.982558850012
 10
1278.63815761099
 20
2054.982558850012
 10
1279.020553210403
 20
2054.982558850012
 10
1279.389762874641
 20
2054.982558850012
 10
1279.745195947003
 20
2054.982558850012
 10
1280.086283810395
 20
2054.982558850012
 10
1280.412480796996
 20
2054.982558850012
 10
1280.723265061214
 20
2054.982558850012
 10
1281.018139414521
 20
2054.982558850012
 10
1281.296632120858
 20
2054.982558850012
 10
1281.558297651301
 20
2054.982558850012
 10
1281.802717396821
 20
2054.982558850012
 10
1282.029500337965
 20
2054.982558850012
 10
1282.238283670406
 20
2054.982558850012
 10
1282.428733385349
 20
2054.982558850012
 10
1282.600544803878
 20
2054.982558850012
 10
1282.753443064374
 20
2054.982558850012
 10
1282.887183562237
 20
2054.982558850012
 10
1283.0015523412
 20
2054.982558850012
 10
1283.096366435614
 20
2054.982558850012
 10
1283.171474163155
 20
2054.982558850012
 10
1283.226755367479
 20
2054.982558850012
 10
1283.262121610454
 20
2054.982558850012
 10
1283.277516313633
 20
2054.982558850012
 10
1283.278244810759
 20
2054.982558850012
  0
LWPOLYLINE
  5
255
330
22D
100
AcDbEntity
  8
P-SANR-FIXT
100
AcDbPolyline
 90
       41
 70
   128
 43
0.0
 10
1283.278244810759
 20
2054.982558850012
 10
1283.268246144021
 20
2054.982558850012
 10
1283.238266139542
 20
2054.982558850012
 10
1283.188352758932
 20
2054.982558850012
 10
1283.118585852954
 20
2054.982558850012
 10
1283.029077033775
 20
2054.982558850012
 10
1282.919969496409
 20
2054.982558850012
 10
1282.791437789644
 20
2054.982558850012
 10
1282.643687536789
 20
2054.982558850012
 10
1282.476955106733
 20
2054.982558850012
 10
1282.291507235795
 20
2054.982558850012
 10
1282.087640601009
 20
2054.982558850012
 10
1281.8656813455
 20
2054.982558850012
 10
1281.62598455673
 20
2054.982558850012
 10
1281.368933698427
 20
2054.982558850012
 10
1281.09493999713
 20
2054.982558850012
 10
1280.804441784313
 20
2054.982558850012
 10
1280.497903795146
 20
2054.982558850012
 10
1280.17581642502
 20
2054.982558850012
 10
1279.838694945021
 20
2054.982558850012
 10
1279.487078677599
 20
2054.982558850012
 10
1279.121530133776
 20
2054.982558850012
 10
1278.742634113241
 20
2054.982558850012
 10
1278.350996768803
 20
2054.982558850012
 10
1277.947244636665
 20
2054.982558850012
 10
1277.532023634111
 20
2054.982558850012
 10
1277.105998026169
 20
2054.982558850012
 10
1276.669849362931
 20
2054.982558850012
 10
1276.224275389218
 20
2054.982558850012
 10
1275.769988928338
 20
2054.982558850012
 10
1275.307716741718
 20
2054.982558850012
 10
1274.838198366244
 20
2054.982558850012
 10
1274.362184931159
 20
2054.982558850012
 10
1273.880437956415
 20
2054.982558850012
 10
1273.393728134402
 20
2054.982558850012
 10
1272.902834097013
 20
2054.982558850012
 10
1272.408541169986
 20
2054.982558850012
 10
1271.911640116564
 20
2054.982558850012
 10
1271.41292587243
 20
2054.982558850012
 10
1270.913196273988
 20
2054.982558850012
 10
1270.77824481076
 20
2054.982558850012
  0
LINE
  5
256
330
22D
100
AcDbEntity
  8
P-SANR-FIXT
100
AcDbLine
 10
1286.278244810759
 20
2050.982558850017
 30
0.0
 11
1286.278244810759
 21
2051.982558850012
 31
0.0
  0
LINE
  5
257
330
22D
100
AcDbEntity
  8
P-SANR-FIXT
100
AcDbLine
 10
1286.010123873863
 20
2050.982558850016
 30
0.0
 11
1285.950345212138
 21
2050.982558850016
 31
0.0
  0
LINE
  5
258
330
22D
100
AcDbEntity
  8
P-SANR-FIXT
100
AcDbLine
 10
1285.098377564682
 20
2050.982558850016
 30
0.0
 11
1284.8424687154
 21
2050.982558850016
 31
0.0
  0
LINE
  5
259
330
22D
100
AcDbEntity
  8
P-SANR-FIXT
100
AcDbLine
 10
1284.448024408156
 20
2050.982558850016
 30
0.0
 11
1284.215511843438
 21
2050.982558850016
 31
0.0
  0
LINE
  5
25A
330
22D
100
AcDbEntity
  8
P-SANR-FIXT
100
AcDbLine
 10
1283.485146828662
 20
2050.982558850016
 30
0.0
 11
1282.75990683788
 21
2050.982558850016
 31
0.0
  0
LINE
  5
25B
330
22D
100
AcDbEntity
  8
P-SANR-FIXT
100
AcDbLine
 10
1282.65722492137
 20
2050.982558850016
 30
0.0
 11
1280.746502510388
 21
2050.982558850016
 31
0.0
  0
LINE
  5
25C
330
22D
100
AcDbEntity
  8
P-SANR-FIXT
100
AcDbLine
 10
1280.611340715294
 20
2050.982558850016
 30
0.0
 11
1279.676426320025
 21
2050.982558850016
 31
0.0
  0
LINE
  5
25D
330
22D
100
AcDbEntity
  8
P-SANR-FIXT
100
AcDbLine
 10
1279.389583422561
 20
2050.982558850016
 30
0.0
 11
1278.536782630302
 21
2050.982558850016
 31
0.0
  0
LINE
  5
25E
330
22D
100
AcDbEntity
  8
P-SANR-FIXT
100
AcDbLine
 10
1278.132934819005
 20
2050.982558850016
 30
0.0
 11
1277.33670390125
 21
2050.982558850016
 31
0.0
  0
LINE
  5
25F
330
22D
100
AcDbEntity
  8
P-SANR-FIXT
100
AcDbLine
 10
1276.085790549395
 20
2050.982558850016
 30
0.0
 11
1275.277657308201
 21
2050.982558850016
 31
0.0
  0
LINE
  5
260
330
22D
100
AcDbEntity
  8
P-SANR-FIXT
100
AcDbLine
 10
1274.794044273088
 20
2050.982558850016
 30
0.0
 11
1273.802144802008
 21
2050.982558850016
 31
0.0
  0
LINE
  5
261
330
22D
100
AcDbEntity
  8
P-SANR-FIXT
100
AcDbLine
 10
1273.471793412203
 20
2050.982558850016
 30
0.0
 11
1272.297510485866
 21
2050.982558850016
 31
0.0
  0
LINE
  5
262
330
22D
100
AcDbEntity
  8
P-SANR-FIXT
100
AcDbLine
 10
1272.129613453606
 20
2050.982558850016
 30
0.0
 11
1270.778244810758
 21
2050.982558850016
 31
0.0
  0
LINE
  5
263
330
22D
100
AcDbEntity
  8
P-SANR-FIXT
100
AcDbLine
 10
1260.127874703401
 20
1854.482558849987
 30
0.0
 11
1260.127874703401
 21
1853.482558849956
 31
0.0
  0
LINE
  5
264
330
22D
100
AcDbEntity
  8
P-SANR-FIXT
100
AcDbLine
 10
1281.428614918119
 20
1853.482558849956
 30
0.0
 11
1281.428614918119
 21
1854.482558849987
 31
0.0
  0
LINE
  5
265
330
22D
100
AcDbEntity
  8
P-SANR-FIXT
100
AcDbLine
 10
1259.283280918171
 20
1853.482558849956
 30
0.0
 11
1259.283280918171
 21
1849.282558849972
 31
0.0
  0
LINE
  5
266
330
22D
100
AcDbEntity
  8
P-SANR-FIXT
100
AcDbLine
 10
1282.273208703349
 20
1849.282558849972
 30
0.0
 11
1282.273208703349
 21
1853.482558849956
 31
0.0
  0
LINE
  5
267
330
22D
100
AcDbEntity
  8
P-SANR-FIXT
100
AcDbLine
 10
1256.138823392962
 20
1849.282558849972
 30
0.0
 11
1256.138823392962
 21
1835.763137432169
 31
0.0
  0
LINE
  5
268
330
22D
100
AcDbEntity
  8
P-SANR-FIXT
100
AcDbLine
 10
1285.417666228558
 20
1835.763137432169
 30
0.0
 11
1285.417666228558
 21
1849.282558849972
 31
0.0
  0
LINE
  5
269
330
22D
100
AcDbEntity
  8
P-SANR-FIXT
100
AcDbLine
 10
1255.358244810764
 20
1835.763137432169
 30
0.0
 11
1255.358244810764
 21
1825.482558849956
 31
0.0
  0
LINE
  5
26A
330
22D
100
AcDbEntity
  8
P-SANR-FIXT
100
AcDbLine
 10
1286.198244810755
 20
1825.482558849956
 30
0.0
 11
1286.198244810755
 21
1835.763137432169
 31
0.0
  0
LINE
  5
26B
330
22D
100
AcDbEntity
  8
P-SANR-FIXT
100
AcDbLine
 10
1256.278244810766
 20
1825.482558849956
 30
0.0
 11
1256.278244810766
 21
1823.982558849956
 31
0.0
  0
LINE
  5
26C
330
22D
100
AcDbEntity
  8
P-SANR-FIXT
100
AcDbLine
 10
1285.278244810754
 20
1823.982558849956
 30
0.0
 11
1285.278244810754
 21
1825.482558849956
 31
0.0
  0
LINE
  5
26D
330
22D
100
AcDbEntity
  8
P-SANR-FIXT
100
AcDbLine
 10
1259.028244810764
 20
1823.982558849956
 30
0.0
 11
1259.028244810764
 21
1820.982558849956
 31
0.0
  0
LINE
  5
26E
330
22D
100
AcDbEntity
  8
P-SANR-FIXT
100
AcDbLine
 10
1282.528244810756
 20
1820.982558849956
 30
0.0
 11
1282.528244810756
 21
1823.982558849956
 31
0.0
  0
LINE
  5
26F
330
22D
100
AcDbEntity
  8
P-SANR-FIXT
100
AcDbLine
 10
1257.328244810764
 20
1820.982558849956
 30
0.0
 11
1257.328244810764
 21
1818.982558849984
 31
0.0
  0
LINE
  5
270
330
22D
100
AcDbEntity
  8
P-SANR-FIXT
100
AcDbLine
 10
1284.228244810756
 20
1818.982558849984
 30
0.0
 11
1284.228244810756
 21
1820.982558849956
 31
0.0
  0
LINE
  5
271
330
22D
100
AcDbEntity
  8
P-SANR-FIXT
100
AcDbLine
 10
1255.978244810777
 20
1818.982558849984
 30
0.0
 11
1255.978244810777
 21
1809.982558849984
 31
0.0
  0
LINE
  5
272
330
22D
100
AcDbEntity
  8
P-SANR-FIXT
100
AcDbLine
 10
1285.578244810742
 20
1809.982558849984
 30
0.0
 11
1285.578244810742
 21
1818.982558849984
 31
0.0
  0
LINE
  5
273
330
22D
100
AcDbEntity
  8
P-SANR-FIXT
100
AcDbLine
 10
1263.278244810764
 20
1809.982558849984
 30
0.0
 11
1263.278244810764
 21
1787.982558849984
 31
0.0
  0
LINE
  5
274
330
22D
100
AcDbEntity
  8
P-SANR-FIXT
100
AcDbLine
 10
1278.278244810756
 20
1787.982558849984
 30
0.0
 11
1278.278244810756
 21
1809.982558849984
 31
0.0
  0
LINE
  5
275
330
22D
100
AcDbEntity
  8
P-SANR-FIXT
100
AcDbLine
 10
1263.278244810764
 20
1787.982558849984
 30
0.0
 11
1264.278244810764
 21
1786.982558849984
 31
0.0
  0
LINE
  5
276
330
22D
100
AcDbEntity
  8
P-SANR-FIXT
100
AcDbLine
 10
1277.278244810755
 20
1786.982558849984
 30
0.0
 11
1278.278244810756
 21
1787.982558849984
 31
0.0
  0
LINE
  5
277
330
22D
100
AcDbEntity
  8
P-SANR-FIXT
100
AcDbLine
 10
1259.283280918169
 20
1853.482558849956
 30
0.0
 11
1270.778244810758
 21
1853.482558849956
 31
0.0
  0
LINE
  5
278
330
22D
100
AcDbEntity
  8
P-SANR-FIXT
100
AcDbLine
 10
1270.778244810758
 20
1853.482558849956
 30
0.0
 11
1282.273208703347
 21
1853.482558849956
 31
0.0
  0
LINE
  5
279
330
22D
100
AcDbEntity
  8
P-SANR-FIXT
100
AcDbLine
 10
1256.13882339296
 20
1849.282558849971
 30
0.0
 11
1270.778244810758
 21
1849.282558849971
 31
0.0
  0
LINE
  5
27A
330
22D
100
AcDbEntity
  8
P-SANR-FIXT
100
AcDbLine
 10
1270.778244810758
 20
1849.282558849971
 30
0.0
 11
1285.417666228556
 21
1849.282558849971
 31
0.0
  0
LINE
  5
27B
330
22D
100
AcDbEntity
  8
P-SANR-FIXT
100
AcDbLine
 10
1255.3590488015
 20
1835.763137432168
 30
0.0
 11
1270.778244810758
 21
1835.763137432168
 31
0.0
  0
LINE
  5
27C
330
22D
100
AcDbEntity
  8
P-SANR-FIXT
100
AcDbLine
 10
1270.778244810758
 20
1835.763137432168
 30
0.0
 11
1286.197440820016
 21
1835.763137432168
 31
0.0
  0
LINE
  5
27D
330
22D
100
AcDbEntity
  8
P-SANR-FIXT
100
AcDbLine
 10
1255.358244810762
 20
1825.482558849955
 30
0.0
 11
1270.778244810758
 21
1825.482558849955
 31
0.0
  0
LINE
  5
27E
330
22D
100
AcDbEntity
  8
P-SANR-FIXT
100
AcDbLine
 10
1270.778244810758
 20
1825.482558849955
 30
0.0
 11
1286.198244810753
 21
1825.482558849955
 31
0.0
  0
LINE
  5
27F
330
22D
100
AcDbEntity
  8
P-SANR-FIXT
100
AcDbLine
 10
1256.278244810763
 20
1823.982558849955
 30
0.0
 11
1270.778244810758
 21
1823.982558849955
 31
0.0
  0
LINE
  5
280
330
22D
100
AcDbEntity
  8
P-SANR-FIXT
100
AcDbLine
 10
1270.778244810758
 20
1823.982558849955
 30
0.0
 11
1285.278244810752
 21
1823.982558849955
 31
0.0
  0
LINE
  5
281
330
22D
100
AcDbEntity
  8
P-SANR-FIXT
100
AcDbLine
 10
1257.328244810762
 20
1820.982558849955
 30
0.0
 11
1270.778244810758
 21
1820.982558849955
 31
0.0
  0
LINE
  5
282
330
22D
100
AcDbEntity
  8
P-SANR-FIXT
100
AcDbLine
 10
1270.778244810758
 20
1820.982558849955
 30
0.0
 11
1284.228244810754
 21
1820.982558849955
 31
0.0
  0
LINE
  5
283
330
22D
100
AcDbEntity
  8
P-SANR-FIXT
100
AcDbLine
 10
1255.978244810775
 20
1818.982558849983
 30
0.0
 11
1270.778244810758
 21
1818.982558849983
 31
0.0
  0
LINE
  5
284
330
22D
100
AcDbEntity
  8
P-SANR-FIXT
100
AcDbLine
 10
1270.778244810758
 20
1818.982558849983
 30
0.0
 11
1285.57824481074
 21
1818.982558849983
 31
0.0
  0
LINE
  5
285
330
22D
100
AcDbEntity
  8
P-SANR-FIXT
100
AcDbLine
 10
1255.978244810775
 20
1809.982558849984
 30
0.0
 11
1270.778244810758
 21
1809.982558849984
 31
0.0
  0
LINE
  5
286
330
22D
100
AcDbEntity
  8
P-SANR-FIXT
100
AcDbLine
 10
1270.778244810758
 20
1809.982558849984
 30
0.0
 11
1285.57824481074
 21
1809.982558849984
 31
0.0
  0
LINE
  5
287
330
22D
100
AcDbEntity
  8
P-SANR-FIXT
100
AcDbLine
 10
1263.278244810762
 20
1787.982558849984
 30
0.0
 11
1270.778244810758
 21
1787.982558849984
 31
0.0
  0
LINE
  5
288
330
22D
100
AcDbEntity
  8
P-SANR-FIXT
100
AcDbLine
 10
1270.778244810758
 20
1787.982558849984
 30
0.0
 11
1278.278244810753
 21
1787.982558849984
 31
0.0
  0
LINE
  5
289
330
22D
100
AcDbEntity
  8
P-SANR-FIXT
100
AcDbLine
 10
1264.278244810762
 20
1786.982558849984
 30
0.0
 11
1270.778244810758
 21
1786.982558849984
 31
0.0
  0
LINE
  5
28A
330
22D
100
AcDbEntity
  8
P-SANR-FIXT
100
AcDbLine
 10
1270.778244810758
 20
1786.982558849984
 30
0.0
 11
1277.278244810753
 21
1786.982558849984
 31
0.0
  0
LINE
  5
28B
330
22D
100
AcDbEntity
  8
P-SANR-FIXT
100
AcDbLine
 10
1259.768425592731
 20
1854.482558849986
 30
0.0
 11
1257.778244810746
 21
1854.482558849986
 31
0.0
  0
LINE
  5
28C
330
22D
100
AcDbEntity
  8
P-SANR-FIXT
100
AcDbLine
 10
1283.778244810771
 20
1854.482558849986
 30
0.0
 11
1281.788064028786
 21
1854.482558849986
 31
0.0
  0
LINE
  5
28D
330
22D
100
AcDbEntity
  8
P-SANR-FIXT
100
AcDbLine
 10
1281.788064028786
 20
1854.482558849986
 30
0.0
 11
1272.768425592743
 21
1854.482558849986
 31
0.0
  0
LINE
  5
28E
330
22D
100
AcDbEntity
  8
P-SANR-FIXT
100
AcDbLine
 10
1272.768425592743
 20
1854.482558849986
 30
0.0
 11
1268.788064028774
 21
1854.482558849986
 31
0.0
  0
LINE
  5
28F
330
22D
100
AcDbEntity
  8
P-SANR-FIXT
100
AcDbLine
 10
1268.788064028774
 20
1854.482558849986
 30
0.0
 11
1259.768425592731
 21
1854.482558849986
 31
0.0
  0
LINE
  5
290
330
22D
100
AcDbEntity
  8
P-SANR-FIXT
100
AcDbLine
 10
1270.778244810758
 20
1867.192196316736
 30
0.0
 11
1272.152933337804
 21
1867.192196316736
 31
0.0
  0
LINE
  5
291
330
22D
100
AcDbEntity
  8
P-SANR-FIXT
100
AcDbLine
 10
1281.788064028786
 20
1867.192196316736
 30
0.0
 11
1282.058014180218
 21
1867.192196316736
 31
0.0
  0
LINE
  5
292
330
22D
100
AcDbEntity
  8
P-SANR-FIXT
100
AcDbLine
 10
1282.90624833069
 20
1867.192196316736
 30
0.0
 11
1283.149111073207
 21
1867.192196316736
 31
0.0
  0
LINE
  5
293
330
22D
100
AcDbEntity
  8
P-SANR-FIXT
100
AcDbLine
 10
1283.721595663792
 20
1867.192196316736
 30
0.0
 11
1283.778244810771
 21
1867.192196316736
 31
0.0
  0
LINE
  5
294
330
22D
100
AcDbEntity
  8
P-SANR-FIXT
100
AcDbLine
 10
1259.768425592731
 20
1857.612234559352
 30
0.0
 11
1259.768425592731
 21
1854.482558849986
 31
0.0
  0
LINE
  5
295
330
22D
100
AcDbEntity
  8
P-SANR-FIXT
100
AcDbLine
 10
1268.788064028774
 20
1854.482558849986
 30
0.0
 11
1268.788064028774
 21
1857.612234559352
 31
0.0
  0
LINE
  5
296
330
22D
100
AcDbEntity
  8
P-SANR-FIXT
100
AcDbLine
 10
1272.768425592743
 20
1854.482558849986
 30
0.0
 11
1272.768425592743
 21
1867.192196316736
 31
0.0
  0
LINE
  5
297
330
22D
100
AcDbEntity
  8
P-SANR-FIXT
100
AcDbLine
 10
1281.788064028786
 20
1854.482558849986
 30
0.0
 11
1281.788064028786
 21
1867.192196316736
 31
0.0
  0
LINE
  5
298
330
22D
100
AcDbEntity
  8
P-SANR-FIXT
100
AcDbLine
 10
1283.778244810771
 20
1854.482558849986
 30
0.0
 11
1283.778244810771
 21
1867.192196316736
 31
0.0
  0
LINE
  5
299
330
22D
100
AcDbEntity
  8
P-SANR-FIXT
100
AcDbLine
 10
1257.778244810746
 20
1854.482558849986
 30
0.0
 11
1257.778244810746
 21
1857.612234559352
 31
0.0
  0
LINE
  5
29A
330
22D
100
AcDbEntity
  8
P-SANR-FIXT
100
AcDbLine
 10
1309.306970667975
 20
1921.723739804822
 30
0.0
 11
1309.77824481076
 21
1923.482558849988
 31
0.0
  0
LWPOLYLINE
  5
29B
330
22D
100
AcDbEntity
  8
P-SANR-FIXT
100
AcDbPolyline
 90
       34
 70
   128
 43
0.0
 10
1309.306970667975
 20
1921.723739804822
 10
1309.295848029052
 20
1921.685320101785
 10
1309.28319790871
 20
1921.647375917338
 10
1309.269040544442
 20
1921.609967954081
 10
1309.253398585013
 20
1921.573156056775
 10
1309.236297054218
 20
1921.536999116604
 10
1309.217763310861
 20
1921.501554976958
 10
1309.197827004976
 20
1921.466880340901
 10
1309.1765200304
 20
1921.433030680453
 10
1309.153876473748
 20
1921.400060147849
 10
1309.129932559879
 20
1921.368021488909
 10
1309.104726593948
 20
1921.336965958652
 10
1309.078298900124
 20
1921.306943239302
 10
1309.050691757079
 20
1921.278001360805
 10
1309.021949330352
 20
1921.250186623994
 10
1308.992117601695
 20
1921.223543526512
 10
1308.96124429551
 20
1921.198114691634
 10
1308.929378802502
 20
1921.173940800069
 10
1308.896572100661
 20
1921.151060524889
 10
1308.862876673711
 20
1921.129510469652
 10
1308.828346427148
 20
1921.109325109849
 10
1308.793036602001
 20
1921.09053673775
 10
1308.757003686457
 20
1921.073175410743
 10
1308.720305325494
 20
1921.057268903248
 10
1308.683000228663
 20
1921.042842662281
 10
1308.645148076158
 20
1921.029919766754
 10
1308.60680942335
 20
1921.01852089054
 10
1308.568045603905
 20
1921.008664269411
 10
1308.528918631665
 20
1921.000365671859
 10
1308.489491101439
 20
1920.993638373867
 10
1308.449826088863
 20
1920.988493137679
 10
1308.409987049498
 20
1920.984938194574
 10
1308.370037717306
 20
1920.982979231703
 10
1308.341044841686
 20
1920.982558849924
  0
LWPOLYLINE
  5
29C
330
22D
100
AcDbEntity
  8
P-SANR-FIXT
100
AcDbPolyline
 90
       41
 70
   128
 43
0.0
 10
1270.77824481076
 20
1920.982558849924
 10
1272.280356174183
 20
1920.982558849924
 10
1273.780064479857
 20
1920.982558849924
 10
1275.274970514415
 20
1920.982558849924
 10
1276.762682747097
 20
1920.982558849924
 10
1278.240821155693
 20
1920.982558849924
 10
1279.707021034069
 20
1920.982558849924
 10
1281.158936775191
 20
1920.982558849924
 10
1282.5942456236
 20
1920.982558849924
 10
1284.01065139132
 20
1920.982558849924
 10
1285.405888131275
 20
1920.982558849924
 10
1286.777723762314
 20
1920.982558849924
 10
1288.123963640071
 20
1920.982558849924
 10
1289.442454067923
 20
1920.982558849924
 10
1290.73108574245
 20
1920.982558849924
 10
1291.987797127865
 20
1920.982558849924
 10
1293.210577754037
 20
1920.982558849924
 10
1294.397471432807
 20
1920.982558849924
 10
1295.546579387482
 20
1920.982558849924
 10
1296.656063290464
 20
1920.982558849924
 10
1297.724148204186
 20
1920.982558849924
 10
1298.74912542063
 20
1920.982558849924
 10
1299.729355194902
 20
1920.982558849924
 10
1300.663269368467
 20
1920.982558849924
 10
1301.549373877871
 20
1920.982558849924
 10
1302.386251144926
 20
1920.982558849924
 10
1303.172562344527
 20
1920.982558849924
 10
1303.907049546493
 20
1920.982558849924
 10
1304.588537727984
 20
1920.982558849924
 10
1305.215936653285
 20
1920.982558849924
 10
1305.788242617954
 20
1920.982558849924
 10
1306.304540054533
 20
1920.982558849924
 10
1306.76400299726
 20
1920.982558849924
 10
1307.165896403441
 20
1920.982558849924
 10
1307.509577329359
 20
1920.982558849924
 10
1307.794495958847
 20
1920.982558849924
 10
1308.020196482877
 20
1920.982558849924
 10
1308.186317828757
 20
1920.982558849924
 10
1308.292594237772
 20
1920.982558849924
 10
1308.338855690339
 20
1920.982558849924
 10
1308.341044841686
 20
1920.982558849924
  0
LWPOLYLINE
  5
29D
330
22D
100
AcDbEntity
  8
P-SANR-FIXT
100
AcDbPolyline
 90
       16
 70
   128
 43
0.0
 10
1308.341044841686
 20
1920.982558849924
 10
1308.310998608146
 20
1920.982558849924
 10
1308.220907975091
 20
1920.982558849924
 10
1308.070917068315
 20
1920.982558849924
 10
1307.861265841273
 20
1920.982558849924
 10
1307.592289691205
 20
1920.982558849924
 10
1307.264418922571
 20
1920.982558849924
 10
1306.878178058662
 20
1920.982558849924
 10
1306.434185002463
 20
1920.982558849924
 10
1305.933150048153
 20
1920.982558849924
 10
1305.375874744776
 20
1920.982558849924
 10
1304.763250613939
 20
1920.982558849924
 10
1304.096257723565
 20
1920.982558849924
 10
1303.375963119994
 20
1920.982558849924
 10
1302.603519120937
 20
1920.982558849924
 10
1301.780161472013
 20
1920.982558849924
  0
LINE
  5
29E
330
22D
100
AcDbEntity
  8
P-SANR-FIXT
100
AcDbLine
 10
1301.77824481076
 20
1920.482558849925
 30
0.0
 11
1301.77824481076
 21
1920.982558849924
 31
0.0
  0
LWPOLYLINE
  5
29F
330
22D
100
AcDbEntity
  8
P-SANR-FIXT
100
AcDbPolyline
 90
       22
 70
   128
 43
0.0
 10
1302.778244810761
 20
1893.482558849924
 10
1302.464481431181
 20
1891.995398971252
 10
1302.091498495462
 20
1890.521975850504
 10
1301.659892696734
 20
1889.064646650357
 10
1301.170354512205
 20
1887.625742786652
 10
1300.623667098541
 20
1886.207566198622
 10
1300.020705038984
 20
1884.812385666279
 10
1299.362432944203
 20
1883.442433180851
 10
1298.649903909126
 20
1882.099900374076
 10
1297.884257828212
 20
1880.786935012051
 10
1297.066719571861
 20
1879.505637559273
 10
1296.198597026883
 20
1878.258057818335
 10
1295.281279004162
 20
1877.046191650688
 10
1294.316233016849
 20
1875.871977783683
 10
1293.305002932659
 20
1874.737294709021
 10
1292.249206504009
 20
1873.643957677568
 10
1291.150532779961
 20
1872.593715795342
 10
1290.010739404101
 20
1871.588249225316
 10
1288.831649802688
 20
1870.629166499512
 10
1287.615150267558
 20
1869.718001945699
 10
1286.363186938462
 20
1868.856213232792
 10
1285.192159046802
 20
1868.114472642885
  0
LWPOLYLINE
  5
2A0
330
22D
100
AcDbEntity
  8
P-SANR-FIXT
100
AcDbPolyline
 90
       17
 70
   128
 43
0.0
 10
1285.192159046802
 20
1868.114472642885
 10
1285.149251430778
 20
1868.065189647155
 10
1285.108348930457
 20
1868.014230225569
 10
1285.069516981114
 20
1867.961675902331
 10
1285.032817705583
 20
1867.907610753146
 10
1284.998309814876
 20
1867.85212127072
 10
1284.966048514258
 20
1867.795296226388
 10
1284.936085414927
 20
1867.737226528099
 10
1284.908468451452
 20
1867.678005074983
 10
1284.88324180508
 20
1867.61772660873
 10
1284.860445833067
 20
1867.556487562029
 10
1284.840117004103
 20
1867.494385904291
 10
1284.822287839979
 20
1867.43152098492
 10
1284.806986863555
 20
1867.367993374377
 10
1284.794238553127
 20
1867.303904703286
 10
1284.784063303274
 20
1867.239357499851
 10
1284.778289931767
 20
1867.192196316736
  0
LINE
  5
2A1
330
22D
100
AcDbEntity
  8
P-SANR-FIXT
100
AcDbLine
 10
1309.778244810758
 20
1923.482558849987
 30
0.0
 11
1270.778244810758
 21
1923.482558849987
 31
0.0
  0
LINE
  5
2A2
330
22D
100
AcDbEntity
  8
P-SANR-FIXT
100
AcDbLine
 10
1270.778244810758
 20
1868.114472642884
 30
0.0
 11
1285.192159046799
 21
1868.114472642884
 31
0.0
  0
LINE
  5
2A3
330
22D
100
AcDbEntity
  8
P-SANR-FIXT
100
AcDbLine
 10
1270.778244810758
 20
1867.192196316736
 30
0.0
 11
1272.77085514922
 21
1867.192196316736
 31
0.0
  0
LINE
  5
2A4
330
22D
100
AcDbEntity
  8
P-SANR-FIXT
100
AcDbLine
 10
1272.820092382267
 20
1867.192196316736
 30
0.0
 11
1281.762482347872
 21
1867.192196316736
 31
0.0
  0
LINE
  5
2A5
330
22D
100
AcDbEntity
  8
P-SANR-FIXT
100
AcDbLine
 10
1281.797574332369
 20
1867.192196316736
 30
0.0
 11
1282.72473399812
 21
1867.192196316736
 31
0.0
  0
LINE
  5
2A6
330
22D
100
AcDbEntity
  8
P-SANR-FIXT
100
AcDbLine
 10
1282.918669048407
 20
1867.192196316736
 30
0.0
 11
1283.712599952291
 21
1867.192196316736
 31
0.0
  0
LINE
  5
2A7
330
22D
100
AcDbEntity
  8
P-SANR-FIXT
100
AcDbLine
 10
1283.785941702362
 20
1867.192196316736
 30
0.0
 11
1284.778289931765
 21
1867.192196316736
 31
0.0
  0
LINE
  5
2A8
330
22D
100
AcDbEntity
  8
P-SANR-FIXT
100
AcDbLine
 10
1310.27824481076
 20
1923.982558850001
 30
0.0
 11
1310.27824481076
 21
1937.594187460503
 31
0.0
  0
LWPOLYLINE
  5
2A9
330
22D
100
AcDbEntity
  8
P-SANR-FIXT
100
AcDbPolyline
 90
       10
 70
   128
 43
0.0
 10
1314.827021017715
 20
1953.320780443779
 10
1314.000595154787
 20
1951.499657990951
 10
1313.247655818761
 20
1949.64694402183
 10
1312.56940755196
 20
1947.765602483542
 10
1311.966935406922
 20
1945.858643121215
 10
1311.441203210561
 20
1943.929116663034
 10
1310.99305202224
 20
1941.980109939722
 10
1310.62319878826
 20
1940.014740946269
 10
1310.332235194897
 20
1938.03615385381
 10
1310.27824481076
 20
1937.594187460503
  0
LWPOLYLINE
  5
2AA
330
22D
100
AcDbEntity
  8
P-SANR-FIXT
100
AcDbPolyline
 90
        6
 70
   128
 43
0.0
 10
1317.97824481076
 20
1999.982558850003
 10
1318.367443414365
 20
1991.768322242882
 10
1318.427848847828
 20
1983.545092355884
 10
1318.159364475344
 20
1975.326024602633
 10
1317.562419814633
 20
1967.124267738225
 10
1316.756197085976
 20
1959.854140962893
  0
LINE
  5
2AB
330
22D
100
AcDbEntity
  8
P-SANR-FIXT
100
AcDbLine
 10
1317.97824481076
 20
1999.982558850006
 30
0.0
 11
1317.97824481076
 21
2027.482558850002
 31
0.0
  0
LINE
  5
2AC
330
22D
100
AcDbEntity
  8
P-SANR-FIXT
100
AcDbLine
 10
1235.598829159447
 20
2039.482558850002
 30
0.0
 11
1235.580296258665
 21
2039.482558850002
 31
0.0
  0
LWPOLYLINE
  5
2AD
330
22D
100
AcDbEntity
  8
P-SANR-FIXT
100
AcDbPolyline
 90
       41
 70
   128
 43
0.0
 10
1305.97824481076
 20
2039.482558850002
 10
1306.458116821
 20
2039.472960129934
 10
1306.93722113839
 20
2039.444179325633
 10
1307.414791298227
 20
2039.396262480249
 10
1307.890063290131
 20
2039.329286250509
 10
1308.362276780301
 20
2039.243357784097
 10
1308.830676327886
 20
2039.138614548226
 10
1309.29451259353
 20
2039.015224109731
 10
1309.753043538153
 20
2038.873383866991
 10
1310.205535610061
 20
2038.713320734137
 10
1310.651264918464
 20
2038.535290778037
 10
1311.089518391552
 20
2038.339578808642
 10
1311.519594917258
 20
2038.126497923354
 10
1311.940806464885
 20
2037.896389006133
 10
1312.352479185811
 20
2037.649620182163
 10
1312.753954491501
 20
2037.386586228918
 10
1313.144590107109
 20
2037.107707944613
 10
1313.523761098982
 20
2036.813431475013
 10
1313.890860874418
 20
2036.504227599692
 10
1314.245302152087
 20
2036.180590978893
 10
1314.586517901555
 20
2035.843039362168
 10
1314.91396225041
 20
2035.492112760097
 10
1315.227111357548
 20
2035.128372580385
 10
1315.525464251197
 20
2034.752400729724
 10
1315.808543630372
 20
2034.364798682871
 10
1316.075896628455
 20
2033.966186520419
 10
1316.32709553768
 20
2033.557201936796
 10
1316.56173849338
 20
2033.138499220087
 10
1316.779450116878
 20
2032.710748205322
 10
1316.979882116021
 20
2032.274633202877
 10
1317.162713842367
 20
2031.830851903722
 10
1317.327652804155
 20
2031.380114263267
 10
1317.474435134231
 20
2030.923141365585
 10
1317.602826012179
 20
2030.46066426983
 10
1317.712620039984
 20
2029.993422840699
 10
1317.803641570622
 20
2029.522164564805
 10
1317.875744989061
 20
2029.047643354859
 10
1317.928814945212
 20
2028.570618343573
 10
1317.962766538467
 20
2028.091852669205
 10
1317.97754545352
 20
2027.612112254701
 10
1317.97824481076
 20
2027.482558850002
  0
LWPOLYLINE
  5
2AE
330
22D
100
AcDbEntity
  8
P-SANR-FIXT
100
AcDbPolyline
 90
       26
 70
   128
 43
0.0
 10
1291.77824481076
 20
2039.482558850002
 10
1291.799524346716
 20
2039.482558850002
 10
1292.911759256211
 20
2039.482558850002
 10
1293.988585264156
 20
2039.482558850002
 10
1295.028279678652
 20
2039.482558850002
 10
1296.029179210424
 20
2039.482558850002
 10
1296.989682633734
 20
2039.482558850002
 10
1297.908253348004
 20
2039.482558850002
 10
1298.78342183604
 20
2039.482558850002
 10
1299.613788014955
 20
2039.482558850002
 10
1300.398023475998
 20
2039.482558850002
 10
1301.134873609726
 20
2039.482558850002
 10
1301.82315961311
 20
2039.482558850002
 10
1302.461780375373
 20
2039.482558850002
 10
1303.049714239526
 20
2039.482558850002
 10
1303.586020636807
 20
2039.482558850002
 10
1304.069841591384
 20
2039.482558850002
 10
1304.500403092941
 20
2039.482558850002
 10
1304.877016334923
 20
2039.482558850002
 10
1305.199078816483
 20
2039.482558850002
 10
1305.466075306354
 20
2039.482558850002
 10
1305.677578667107
 20
2039.482558850002
 10
1305.833250538485
 20
2039.482558850002
 10
1305.932841878701
 20
2039.482558850002
 10
1305.976193362855
 20
2039.482558850002
 10
1305.97824481076
 20
2039.482558850002
  0
LWPOLYLINE
  5
2AF
330
22D
100
AcDbEntity
  8
P-SANR-FIXT
100
AcDbPolyline
 90
       41
 70
   128
 43
0.0
 10
1305.97824481076
 20
2039.482558850002
 10
1305.950088565227
 20
2039.482558850002
 10
1305.865664872613
 20
2039.482558850002
 10
1305.725108792816
 20
2039.482558850002
 10
1305.528645185582
 20
2039.482558850002
 10
1305.276588350771
 20
2039.482558850002
 10
1304.969341525552
 20
2039.482558850002
 10
1304.607396239299
 20
2039.482558850002
 10
1304.191331527262
 20
2039.482558850002
 10
1303.721813004223
 20
2039.482558850002
 10
1303.199591799662
 20
2039.482558850002
 10
1302.625503356103
 20
2039.482558850002
 10
1302.000466092591
 20
2039.482558850002
 10
1301.325479935413
 20
2039.482558850002
 10
1300.601624718432
 20
2039.482558850002
 10
1299.830058455581
 20
2039.482558850002
 10
1299.012015488287
 20
2039.482558850002
 10
1298.148804510793
 20
2039.482558850002
 10
1297.241806476519
 20
2039.482558850002
 10
1296.29247238884
 20
2039.482558850002
 10
1295.30232097978
 20
2039.482558850002
 10
1294.272936280374
 20
2039.482558850002
 10
1293.20596508655
 20
2039.482558850002
 10
1292.10311432461
 20
2039.482558850002
 10
1290.96614832051
 20
2039.482558850002
 10
1289.796885977318
 20
2039.482558850002
 10
1288.597197865354
 20
2039.482558850002
 10
1287.369003229676
 20
2039.482558850002
 10
1286.1142669197
 20
2039.482558850002
 10
1284.83499624586
 20
2039.482558850002
 10
1283.533237768339
 20
2039.482558850002
 10
1282.211074023005
 20
2039.482558850002
 10
1280.870620189805
 20
2039.482558850002
 10
1279.514020708923
 20
2039.482558850002
 10
1278.143445850138
 20
2039.482558850002
 10
1276.761088240848
 20
2039.482558850002
 10
1275.369159358343
 20
2039.482558850002
 10
1273.969885991903
 20
2039.482558850002
 10
1272.565506680422
 20
2039.482558850002
 10
1271.158268131211
 20
2039.482558850002
 10
1270.77824481076
 20
2039.482558850002
  0
LWPOLYLINE
  5
2B0
330
22D
100
AcDbEntity
  8
P-SANR-FIXT
100
AcDbPolyline
 90
       38
 70
   128
 43
0.0
 10
1286.77824481076
 20
2044.482558850002
 10
1286.782244277455
 20
2044.282612179069
 10
1286.794236279247
 20
2044.082985380156
 10
1286.81420163149
 20
2043.883997813557
 10
1286.842108393882
 20
2043.685967816931
 10
1286.877911921554
 20
2043.489212196027
 10
1286.9215549365
 20
2043.294045717866
 10
1286.972967619206
 20
2043.100780607181
 10
1287.032067720348
 20
2042.909726046922
 10
1287.09876069237
 20
2042.721187683627
 10
1287.172939840746
 20
2042.535467138459
 10
1287.25448649466
 20
2042.352861524672
 10
1287.343270196864
 20
2042.173662972295
 10
1287.439148912372
 20
2041.998158160783
 10
1287.541969255693
 20
2041.826627860397
 10
1287.651566736212
 20
2041.659346483027
 10
1287.767766021338
 20
2041.49658164319
 10
1287.890381217005
 20
2041.338593729909
 10
1288.019216165056
 20
2041.185635490144
 10
1288.154064757055
 20
2041.037951624449
 10
1288.294711264024
 20
2040.895778395504
 10
1288.440930681553
 20
2040.759343250147
 10
1288.592489089767
 20
2040.628864455507
 10
1288.749144027543
 20
2040.50455074982
 10
1288.910644880397
 20
2040.386601008497
 10
1289.076733281419
 20
2040.275203925963
 10
1289.247143524596
 20
2040.170537713786
 10
1289.421602989891
 20
2040.072769815577
 10
1289.599832579377
 20
2039.982056639119
 10
1289.781547163728
 20
2039.898543306143
 10
1289.966456038377
 20
2039.822363420165
 10
1290.154263388566
 20
2039.753638852754
 10
1290.3446687626
 20
2039.692479548556
 10
1290.537367552498
 20
2039.638983349411
 10
1290.732051481303
 20
2039.593235837825
 10
1290.928409096259
 20
2039.555310200059
 10
1291.126126267069
 20
2039.525267109044
 10
1291.324886688438
 20
2039.503154627314
  0
LINE
  5
2B1
330
22D
100
AcDbEntity
  8
P-SANR-FIXT
100
AcDbLine
 10
1286.77824481076
 20
2044.482558850002
 30
0.0
 11
1286.77824481076
 21
2050.482558850001
 31
0.0
  0
LWPOLYLINE
  5
2B2
330
22D
100
AcDbEntity
  8
P-SANR-FIXT
100
AcDbPolyline
 90
        9
 70
   128
 43
0.0
 10
1316.756197085976
 20
1959.854140962893
 10
1316.629027529166
 20
1959.002534140691
 10
1316.46790450463
 20
1958.156693939019
 10
1316.273085774834
 20
1957.317973521764
 10
1316.044883008188
 20
1956.487714662675
 10
1315.783661280438
 20
1955.667245598815
 10
1315.489838490623
 20
1954.857878905662
 10
1315.163884692528
 20
1954.060909397269
 10
1314.827021017715
 20
1953.320780443779
  0
LINE
  5
2B3
330
22D
100
AcDbEntity
  8
P-SANR-FIXT
100
AcDbLine
 10
1286.77824481076
 20
2050.482558850001
 30
0.0
 11
1286.732794492986
 21
2050.528009167775
 31
0.0
  0
LINE
  5
2B4
330
22D
100
AcDbEntity
  8
P-SANR-FIXT
100
AcDbLine
 10
1286.717359980227
 20
2050.543443680533
 30
0.0
 11
1286.278244810759
 21
2050.982558850002
 31
0.0
  0
LINE
  5
2B5
330
22D
100
AcDbEntity
  8
P-SANR-FIXT
100
AcDbLine
 10
1309.77824481076
 20
1923.482558850002
 30
0.0
 11
1310.27824481076
 21
1923.982558850002
 31
0.0
  0
SPLINE
  5
2B6
330
22D
100
AcDbEntity
  8
P-SANR-FIXT
100
AcDbSpline
210
0.0
220
0.0
230
1.0
 70
     8
 71
     3
 72
     8
 73
     4
 74
     0
 42
0.000000001
 43
0.0000000001
 40
0.5
 40
0.5
 40
0.5
 40
0.5
 40
0.501772620157741
 40
0.501772620157741
 40
0.501772620157741
 40
0.501772620157741
 10
1303.246019304043
 20
1981.218401009778
 30
0.0
 10
1303.248699811172
 20
1981.223039124355
 30
0.0
 10
1303.251377358478
 20
1981.227679024517
 30
0.0
 10
1303.254051966924
 20
1981.23232069762
 30
0.0
  0
SPLINE
  5
2B7
330
22D
100
AcDbEntity
  8
P-SANR-FIXT
100
AcDbSpline
210
0.0
220
0.0
230
1.0
 70
     8
 71
     3
 72
     8
 73
     4
 74
     0
 42
0.000000001
 43
0.0000000001
 40
0.75
 40
0.75
 40
0.75
 40
0.75
 40
0.7516126759583053
 40
0.7516126759583053
 40
0.7516126759583053
 40
0.7516126759583053
 10
1304.321986257934
 20
1983.217541974933
 30
0.0
 10
1304.324172957755
 20
1983.221917158145
 30
0.0
 10
1304.326357142459
 20
1983.226293722168
 30
0.0
 10
1304.328538844425
 20
1983.230671649226
 30
0.0
  0
SPLINE
  5
2B8
330
22D
100
AcDbEntity
  8
P-SANR-FIXT
100
AcDbSpline
210
0.0
220
0.0
230
1.0
 70
     8
 71
     3
 72
     8
 73
     4
 74
     0
 42
0.000000001
 43
0.0000000001
 40
0.2470017999005217
 40
0.2470017999005217
 40
0.2470017999005217
 40
0.2470017999005217
 40
0.25
 40
0.25
 40
0.25
 40
0.25
 10
1304.328974542435
 20
2016.733585697025
 30
0.0
 10
1304.324898210992
 20
2016.7417501801
 30
0.0
 10
1304.320821629649
 20
2016.749914864442
 30
0.0
 10
1304.316744709312
 20
2016.75807967607
 30
0.0
  0
SPLINE
  5
2B9
330
22D
100
AcDbEntity
  8
P-SANR-FIXT
100
AcDbSpline
210
0.0
220
0.0
230
1.0
 70
     8
 71
     3
 72
     8
 73
     4
 74
     0
 42
0.000000001
 43
0.0000000001
 40
0.4965334274185043
 40
0.4965334274185043
 40
0.4965334274185043
 40
0.4965334274185043
 40
0.5
 40
0.5
 40
0.5
 40
0.5
 10
1303.253907683511
 20
2018.733060575114
 30
0.0
 10
1303.248668943406
 20
2018.742134078975
 30
0.0
 10
1303.243429957049
 20
2018.751207731908
 30
0.0
 10
1303.238180820186
 20
2018.760273148183
 30
0.0
  0
SPLINE
  5
2BA
330
22D
100
AcDbEntity
  8
P-SANR-FIXT
100
AcDbSpline
210
0.0
220
0.0
230
1.0
 70
     8
 71
     3
 72
     8
 73
     4
 74
     0
 42
0.000000001
 43
0.0000000001
 40
0.7478135178523412
 40
0.7478135178523412
 40
0.7478135178523412
 40
0.7478135178523412
 40
0.75
 40
0.75
 40
0.75
 40
0.75
 10
1302.059916824853
 20
2020.6636039337
 30
0.0
 10
1302.056298208425
 20
2020.66907735672
 30
0.0
 10
1302.052675732526
 20
2020.67454737633
 30
0.0
 10
1302.049049463879
 20
2020.680014051379
 30
0.0
  0
SPLINE
  5
2BB
330
22D
100
AcDbEntity
  8
P-SANR-FIXT
100
AcDbSpline
210
0.0
220
0.0
230
1.0
 70
    24
 71
     3
 72
     8
 73
     4
 74
     0
 42
0.000000001
 43
0.0000000001
 40
-0.0899692977071265
 40
-0.0899692977071265
 40
-0.0899692977071265
 40
-0.0899692977071265
 40
0.0
 40
0.0
 40
0.0
 40
0.0
 10
1254.686799658373
 20
2030.529327233715
 30
0.0
 10
1254.301057377401
 20
2030.306618823959
 30
0.0
 10
1253.914872428196
 20
2030.083654839578
 30
0.0
 10
1253.528244810758
 20
2029.860435280574
 30
0.0
  0
SPLINE
  5
2BC
330
22D
100
AcDbEntity
  8
P-SANR-FIXT
100
AcDbSpline
210
0.0
220
0.0
230
1.0
 70
    24
 71
     3
 72
     8
 73
     4
 74
     0
 42
0.000000001
 43
0.0000000001
 40
-1.0
 40
-1.0
 40
-1.0
 40
-1.0
 40
-0.9100307022928866
 40
-0.9100307022928866
 40
-0.9100307022928866
 40
-0.9100307022928866
 10
1253.528244810758
 20
1970.104682419447
 30
0.0
 10
1253.914872428196
 20
1969.881462860443
 30
0.0
 10
1254.301057377401
 20
1969.658498876063
 30
0.0
 10
1254.686799658373
 20
1969.435790466306
 30
0.0
  0
SPLINE
  5
2BD
330
22D
100
AcDbEntity
  8
P-SANR-FIXT
100
AcDbSpline
210
0.0
220
0.0
230
1.0
 70
    24
 71
     3
 72
     8
 73
     4
 74
     0
 42
0.000000001
 43
0.0000000001
 40
-0.0375596193267611
 40
-0.0375596193267611
 40
-0.0375596193267611
 40
-0.0375596193267611
 40
0.0
 40
0.0
 40
0.0
 40
0.0
 10
1236.278244810758
 20
2000.54141844641
 30
0.0
 10
1236.278244810758
 20
2000.35522099863
 30
0.0
 10
1236.278244810758
 20
2000.168934466497
 30
0.0
 10
1236.278244810758
 20
1999.98255885001
 30
0.0
  0
SPLINE
  5
2BE
330
22D
100
AcDbEntity
  8
P-SANR-FIXT
100
AcDbSpline
210
0.0
220
0.0
230
1.0
 70
    24
 71
     3
 72
     9
 73
     5
 74
     0
 42
0.000000001
 43
0.0000000001
 40
-1.0
 40
-1.0
 40
-1.0
 40
-1.0
 40
-0.5
 40
0.0
 40
0.0
 40
0.0
 40
0.0
 10
1305.278244810758
 20
1999.982558850011
 30
0.0
 10
1305.278244810758
 20
2002.463622553886
 30
0.0
 10
1305.278244810758
 20
2007.394176000545
 30
0.0
 10
1305.278244810758
 20
2012.261581525019
 30
0.0
 10
1305.278244810758
 20
2014.67949730671
 30
0.0
  0
ARC
  5
2BF
330
22D
100
AcDbEntity
  8
P-SANR-FIXT
100
AcDbCircle
 10
1270.778244810758
 20
1999.982558850011
 30
0.0
 40
37.49999999999996
100
AcDbArc
 50
23.07391806563133
 51
36.92608193437025
  0
SPLINE
  5
2C0
330
22D
100
AcDbEntity
  8
P-SANR-FIXT
100
AcDbSpline
210
0.0
220
0.0
230
1.0
 70
    24
 71
     3
 72
     9
 73
     5
 74
     0
 42
0.000000001
 43
0.0000000001
 40
-1.0
 40
-1.0
 40
-1.0
 40
-1.0
 40
-0.5
 40
0.0
 40
0.0
 40
0.0
 40
0.0
 10
1300.756166872115
 20
2022.511966052225
 30
0.0
 10
1296.522002454509
 20
2024.956562018522
 30
0.0
 10
1288.045197349784
 20
2029.850647727604
 30
0.0
 10
1279.551439706032
 20
2034.754520989655
 30
0.0
 10
1275.3003227494
 20
2037.208904508923
 30
0.0
  0
ARC
  5
2C1
330
22D
100
AcDbEntity
  8
P-SANR-FIXT
100
AcDbCircle
 10
1270.778244810758
 20
1999.982558850011
 30
0.0
 40
37.5
100
AcDbArc
 50
83.07391806563076
 51
90.0
  0
ARC
  5
2C2
330
22D
100
AcDbEntity
  8
P-SANR-FIXT
100
AcDbCircle
 10
1270.778244810758
 20
1999.982558850011
 30
0.0
 40
37.49999999999978
100
AcDbArc
 50
269.9999999999997
 51
276.92608193437
  0
SPLINE
  5
2C3
330
22D
100
AcDbEntity
  8
P-SANR-FIXT
100
AcDbSpline
210
0.0
220
0.0
230
1.0
 70
    24
 71
     3
 72
     9
 73
     5
 74
     0
 42
0.000000001
 43
0.0000000001
 40
-1.0
 40
-1.0
 40
-1.0
 40
-1.0
 40
-0.5
 40
0.0
 40
0.0
 40
0.0
 40
0.0
 10
1275.3003227494
 20
1962.756213191098
 30
0.0
 10
1277.394299240556
 20
1963.965171081943
 30
0.0
 10
1281.60959607527
 20
1966.39887384418
 30
0.0
 10
1285.879580614794
 20
1968.86415056751
 30
0.0
 10
1288.028244810758
 20
1970.104682419447
 30
0.0
  0
ARC
  5
2C4
330
22D
100
AcDbEntity
  8
P-SANR-FIXT
100
AcDbCircle
 10
1270.778244810758
 20
1999.982558850011
 30
0.0
 40
37.49999999999969
100
AcDbArc
 50
323.0739180656314
 51
336.9260819343694
  0
SPLINE
  5
2C5
330
22D
100
AcDbEntity
  8
P-SANR-FIXT
100
AcDbSpline
210
0.0
220
0.0
230
1.0
 70
    24
 71
     3
 72
     9
 73
     5
 74
     0
 42
0.000000001
 43
0.0000000001
 40
-1.0
 40
-1.0
 40
-1.0
 40
-1.0
 40
-0.5
 40
0.0
 40
0.0
 40
0.0
 40
0.0
 10
1305.278244810758
 20
1985.285620393312
 30
0.0
 10
1305.278244810758
 20
1987.703536175002
 30
0.0
 10
1305.278244810758
 20
1992.570941699476
 30
0.0
 10
1305.278244810758
 20
1997.501495146135
 30
0.0
 10
1305.278244810758
 20
1999.982558850011
 30
0.0
  0
SPLINE
  5
2C6
330
22D
100
AcDbEntity
  8
P-SANR-FIXT
100
AcDbSpline
210
0.0
220
0.0
230
1.0
 70
    24
 71
     3
 72
     9
 73
     5
 74
     0
 42
0.000000001
 43
0.0000000001
 40
-1.0
 40
-1.0
 40
-1.0
 40
-1.0
 40
-0.5
 40
0.0
 40
0.0
 40
0.0
 40
0.0
 10
1288.028244810758
 20
1970.104682419447
 30
0.0
 10
1290.176909006722
 20
1971.345214271385
 30
0.0
 10
1294.446893546245
 20
1973.810490994715
 30
0.0
 10
1298.66219038096
 20
1976.244193756951
 30
0.0
 10
1300.756166872116
 20
1977.453151647797
 30
0.0
  0
ARC
  5
2C7
330
22D
100
AcDbEntity
  8
P-SANR-FIXT
100
AcDbCircle
 10
1270.778244810758
 20
1999.982558850011
 30
0.0
 40
34.50000000000007
100
AcDbArc
 50
90.00000000000039
 51
120.0
  0
ARC
  5
2C8
330
22D
100
AcDbEntity
  8
P-SANR-FIXT
100
AcDbCircle
 10
1270.778244810758
 20
1999.982558850011
 30
0.0
 40
34.5
100
AcDbArc
 50
120.0000000000001
 51
180.0000000000004
  0
ARC
  5
2C9
330
22D
100
AcDbEntity
  8
P-SANR-FIXT
100
AcDbCircle
 10
1270.778244810758
 20
1999.982558850011
 30
0.0
 40
34.49999999999996
100
AcDbArc
 50
180.0000000000004
 51
240.0000000000002
  0
ARC
  5
2CA
330
22D
100
AcDbEntity
  8
P-SANR-FIXT
100
AcDbCircle
 10
1270.778244810758
 20
1999.982558850011
 30
0.0
 40
34.50000000000023
100
AcDbArc
 50
240.0000000000004
 51
270.0
  0
ARC
  5
2CB
330
22D
100
AcDbEntity
  8
P-SANR-FIXT
100
AcDbCircle
 10
1270.778244810758
 20
1999.982558850011
 30
0.0
 40
25.40000000000024
100
AcDbArc
 50
90.00000000000104
 51
270.0000000000002
  0
ARC
  5
2CC
330
22D
100
AcDbEntity
  8
P-SANR-FIXT
100
AcDbCircle
 10
1270.778244810758
 20
1999.982558850011
 30
0.0
 40
34.49999999999999
100
AcDbArc
 50
269.9999999999997
 51
300.0
  0
ARC
  5
2CD
330
22D
100
AcDbEntity
  8
P-SANR-FIXT
100
AcDbCircle
 10
1270.778244810758
 20
1999.982558850011
 30
0.0
 40
34.49999999999977
100
AcDbArc
 50
299.9999999999997
 51
0.0000000000003753
  0
ARC
  5
2CE
330
22D
100
AcDbEntity
  8
P-SANR-FIXT
100
AcDbCircle
 10
1270.778244810758
 20
1999.982558850011
 30
0.0
 40
34.5
100
AcDbArc
 50
0.0
 51
90.0
  0
ARC
  5
2CF
330
22D
100
AcDbEntity
  8
P-SANR-FIXT
100
AcDbCircle
 10
1270.778244810758
 20
1999.982558850011
 30
0.0
 40
25.40000000000024
100
AcDbArc
 50
270.0000000000002
 51
89.99999999999948
  0
SPLINE
  5
2D0
330
22D
100
AcDbEntity
  8
P-SANR-FIXT
100
AcDbSpline
210
0.0
220
0.0
230
1.0
 70
    24
 71
     3
 72
     9
 73
     5
 74
     0
 42
0.000000001
 43
0.0000000001
 40
0.1924512273015655
 40
0.1924512273015655
 40
0.1924512273015655
 40
0.1924512273015655
 40
0.25
 40
0.3071569759072945
 40
0.3071569759072945
 40
0.3071569759072945
 40
0.3071569759072945
 10
1288.979275842206
 20
2029.311357258559
 30
0.0
 10
1288.65743893766
 20
2029.497169882034
 30
0.0
 10
1288.011821344021
 20
2029.869917373515
 30
0.0
 10
1287.35709752133
 20
2030.247922348791
 30
0.0
 10
1287.029272807827
 20
2030.437192035379
 30
0.0
  0
LINE
  5
2D1
330
22D
100
AcDbEntity
  8
P-SANR-FIXT
100
AcDbLine
 10
1309.778244810758
 20
1923.482558850001
 30
0.0
 11
1270.778244810758
 21
1923.482558850001
 31
0.0
  0
LINE
  5
2D2
330
22D
100
AcDbEntity
  8
P-SANR-FIXT
100
AcDbLine
 10
1270.778244810758
 20
1923.982558850001
 30
0.0
 11
1310.278244810757
 21
1923.982558850001
 31
0.0
  0
LINE
  5
2D3
330
22D
100
AcDbEntity
  8
P-SANR-FIXT
100
AcDbLine
 10
1310.278244810757
 20
1937.594187460502
 30
0.0
 11
1270.778244810758
 21
1937.594187460502
 31
0.0
  0
LINE
  5
2D4
330
22D
100
AcDbEntity
  8
P-SANR-FIXT
100
AcDbLine
 10
1317.978244810758
 20
1999.982558850004
 30
0.0
 11
1305.278244810758
 21
1999.982558850005
 31
0.0
  0
LINE
  5
2D5
330
22D
100
AcDbEntity
  8
P-SANR-FIXT
100
AcDbLine
 10
1286.778244810757
 20
2050.48255885
 30
0.0
 11
1270.778244810758
 21
2050.482558850001
 31
0.0
  0
LINE
  5
2D6
330
22D
100
AcDbEntity
  8
P-SANR-FIXT
100
AcDbLine
 10
1270.778244810757
 20
2050.982558850001
 30
0.0
 11
1272.129158823346
 21
2050.982558850001
 31
0.0
  0
LINE
  5
2D7
330
22D
100
AcDbEntity
  8
P-SANR-FIXT
100
AcDbLine
 10
1272.29828621417
 20
2050.982558850001
 30
0.0
 11
1274.789940009846
 21
2050.982558850001
 31
0.0
  0
LINE
  5
2D8
330
22D
100
AcDbEntity
  8
P-SANR-FIXT
100
AcDbLine
 10
1275.281783252247
 20
2050.982558850001
 30
0.0
 11
1276.079557032305
 21
2050.982558850001
 31
0.0
  0
LINE
  5
2D9
330
22D
100
AcDbEntity
  8
P-SANR-FIXT
100
AcDbLine
 10
1276.715484905204
 20
2050.982558850001
 30
0.0
 11
1278.091289336211
 21
2050.982558850001
 31
0.0
  0
LINE
  5
2DA
330
22D
100
AcDbEntity
  8
P-SANR-FIXT
100
AcDbLine
 10
1278.137729862811
 20
2050.982558850001
 30
0.0
 11
1279.395511940685
 21
2050.982558850001
 31
0.0
  0
LINE
  5
2DB
330
22D
100
AcDbEntity
  8
P-SANR-FIXT
100
AcDbLine
 10
1279.668679574198
 20
2050.982558850001
 30
0.0
 11
1280.615223861839
 21
2050.982558850001
 31
0.0
  0
LINE
  5
2DC
330
22D
100
AcDbEntity
  8
P-SANR-FIXT
100
AcDbLine
 10
1280.741452760898
 20
2050.982558850001
 30
0.0
 11
1282.651933679101
 21
2050.982558850001
 31
0.0
  0
LINE
  5
2DD
330
22D
100
AcDbEntity
  8
P-SANR-FIXT
100
AcDbLine
 10
1282.765197737131
 20
2050.982558850001
 30
0.0
 11
1283.475101497236
 21
2050.982558850001
 31
0.0
  0
LINE
  5
2DE
330
22D
100
AcDbEntity
  8
P-SANR-FIXT
100
AcDbLine
 10
1283.67562269906
 20
2050.982558850001
 30
0.0
 11
1284.201638569416
 21
2050.982558850001
 31
0.0
  0
LINE
  5
2DF
330
22D
100
AcDbEntity
  8
P-SANR-FIXT
100
AcDbLine
 10
1284.460508683349
 20
2050.982558850001
 30
0.0
 11
1284.826015509825
 21
2050.982558850001
 31
0.0
  0
LINE
  5
2E0
330
22D
100
AcDbEntity
  8
P-SANR-FIXT
100
AcDbLine
 10
1285.111973643551
 20
2050.982558850001
 30
0.0
 11
1285.501657999305
 21
2050.982558850001
 31
0.0
  0
LINE
  5
2E1
330
22D
100
AcDbEntity
  8
P-SANR-FIXT
100
AcDbLine
 10
1285.623512237663
 20
2050.982558850001
 30
0.0
 11
1285.95677214657
 21
2050.982558850001
 31
0.0
  0
LINE
  5
2E2
330
22D
100
AcDbEntity
  8
P-SANR-FIXT
100
AcDbLine
 10
1286.0100636438
 20
2050.982558850001
 30
0.0
 11
1286.159956136648
 21
2050.982558850001
 31
0.0
  0
LINE
  5
2E3
330
22D
100
AcDbEntity
  8
P-SANR-FIXT
100
AcDbLine
 10
1286.208343929566
 20
2050.982558850001
 30
0.0
 11
1286.278244810757
 21
2050.982558850001
 31
0.0
  0
ENDBLK
  5
2E5
330
22D
100
AcDbEntity
  8
0
100
AcDbBlockEnd
  0
ENDSEC
  0
SECTION
  2
ENTITIES
  0
INSERT
  5
1CA
330
71
100
AcDbEntity
  8
P-SANR-FIXT
100
AcDbBlockReference
  2
Automatic flow rate regulator valve_Caleffi_121 DN15 - 1 1_2___Insulation-982133-Est - Idraulica
 10
0.0
 20
0.0
 30
0.0
1001
REVIT
1002
{
1070
     1
1000
863131
1002
}
1002
{
1070
     5
1000
982133
1002
}
1002
{
1070
     2
1000
-2001160
1002
}
  0
INSERT
  5
22C
330
71
100
AcDbEntity
  8
P-SANR-FIXT
100
AcDbBlockReference
  2
Automatic flow rate regulator valve_Caleffi_121 DN15 - 3_4___Insulation-975047-Est - Idraulica
 10
0.0
 20
0.0
 30
0.0
1001
REVIT
1002
{
1070
     1
1000
863152
1002
}
1002
{
1070
     5
1000
975047
1002
}
1002
{
1070
     2
1000
-2001160
1002
}
  0
INSERT
  5
2E6
330
71
100
AcDbEntity
  8
P-SANR-FIXT
100
AcDbBlockReference
  2
Automatic flow rate regulator valve_Caleffi_121 DN15 - 3_4___Insulation-V1-Est - Idraulica
 10
0.0
 20
0.0
 30
0.0
1001
REVIT
1002
{
1070
     1
1000
863172
1002
}
1002
{
1070
     5
1000
975047
1002
}
1002
{
1070
     2
1000
-2001160
1002
}
  0
ENDSEC
  0
SECTION
  2
OBJECTS
  0
DICTIONARY
  5
C
330
0
100
AcDbDictionary
281
     1
  3
ACAD_CIP_PREVIOUS_PRODUCT_INFO
350
7A
  3
ACAD_COLOR
350
63
  3
ACAD_DETAILVIEWSTYLE
350
6B
  3
ACAD_GROUP
350
D
  3
ACAD_IMAGE_VARS
350
7B
  3
ACAD_LAYOUT
350
62
  3
ACAD_MATERIAL
350
10
  3
ACAD_MLEADERSTYLE
350
66
  3
ACAD_MLINESTYLE
350
5F
  3
ACAD_PLOTSETTINGS
350
61
  3
ACAD_PLOTSTYLENAME
350
E
  3
ACAD_SCALELIST
350
42
  3
ACAD_SECTIONVIEWSTYLE
350
68
  3
ACAD_TABLESTYLE
350
64
  3
ACAD_VISUALSTYLE
350
29
  3
ACDB_RECOMPOSE_DATA
350
2F0
  3
AcDbVariableDictionary
350
7C
  3
REVIT_DICTIONARY
350
2E8
  0
DICTIONARY
  5
2EC
330
71
100
AcDbDictionary
280
     1
281
     1
  3
ACAD_SORTENTS
360
2ED
  0
XRECORD
  5
7A
102
{ACAD_REACTORS
330
C
102
}
330
C
100
AcDbXrecord
280
     1
300
RVT
300
2013
300
RVT2013
  0
DICTIONARY
  5
63
102
{ACAD_REACTORS
330
C
102
}
330
C
100
AcDbDictionary
281
     1
  0
DICTIONARY
  5
6B
102
{ACAD_REACTORS
330
C
102
}
330
C
100
AcDbDictionary
281
     1
  3
Imperial24
350
6C
  0
DICTIONARY
  5
D
102
{ACAD_REACTORS
330
C
102
}
330
C
100
AcDbDictionary
281
     1
  0
RASTERVARIABLES
  5
7B
102
{ACAD_REACTORS
330
C
102
}
330
C
100
AcDbRasterVariables
 90
        0
 70
     0
 71
     1
 72
     1
  0
DICTIONARY
  5
62
102
{ACAD_REACTORS
330
C
102
}
330
C
100
AcDbDictionary
281
     1
  3
Layout1
350
70
  3
Layout2
350
78
  3
Model
350
74
  0
DICTIONARY
  5
10
102
{ACAD_REACTORS
330
C
102
}
330
C
100
AcDbDictionary
281
     1
  3
ByBlock
350
19
  3
ByLayer
350
11
  3
Global
350
21
  0
DICTIONARY
  5
66
102
{ACAD_REACTORS
330
C
102
}
330
C
100
AcDbDictionary
281
     1
  3
Standard
350
67
  0
DICTIONARY
  5
5F
102
{ACAD_REACTORS
330
C
102
}
330
C
100
AcDbDictionary
281
     1
  3
Standard
350
60
  0
DICTIONARY
  5
61
102
{ACAD_REACTORS
330
C
102
}
330
C
100
AcDbDictionary
281
     1
  0
ACDBDICTIONARYWDFLT
  5
E
102
{ACAD_REACTORS
330
C
102
}
330
C
100
AcDbDictionary
281
     1
  3
Normal
350
F
100
AcDbDictionaryWithDefault
340
F
  0
DICTIONARY
  5
42
102
{ACAD_REACTORS
330
C
102
}
330
C
100
AcDbDictionary
281
     1
  3
A0
350
43
  3
A1
350
44
  3
A2
350
45
  3
A3
350
46
  3
A4
350
47
  3
A5
350
48
  3
A6
350
49
  3
A7
350
4A
  3
A8
350
4B
  3
A9
350
4C
  3
B0
350
4D
  3
B1
350
4E
  3
B2
350
4F
  3
B3
350
50
  3
B4
350
51
  3
B5
350
52
  3
B6
350
53
  0
DICTIONARY
  5
68
102
{ACAD_REACTORS
330
C
102
}
330
C
100
AcDbDictionary
281
     1
  3
Imperial24
350
6A
  0
DICTIONARY
  5
64
102
{ACAD_REACTORS
330
C
102
}
330
C
100
AcDbDictionary
281
     1
  3
Standard
350
65
  0
DICTIONARY
  5
29
102
{ACAD_REACTORS
330
C
102
}
330
C
100
AcDbDictionary
281
     1
  3
2dWireframe
350
2F
  3
Basic
350
2E
  3
Brighten
350
35
  3
ColorChange
350
39
  3
Conceptual
350
32
  3
Dim
350
34
  3
EdgeColorOff
350
41
  3
Facepattern
350
38
  3
Flat
350
2A
  3
FlatWithEdges
350
2B
  3
Gouraud
350
2C
  3
GouraudWithEdges
350
2D
  3
Hidden
350
31
  3
JitterOff
350
3F
  3
Linepattern
350
37
  3
OverhangOff
350
40
  3
Realistic
350
33
  3
Shaded
350
3E
  3
Shaded with edges
350
3D
  3
Shades of Gray
350
3A
  3
Sketchy
350
3B
  3
Thicken
350
36
  3
Wireframe
350
30
  3
X-Ray
350
3C
  0
XRECORD
  5
2F0
102
{ACAD_REACTORS
330
C
102
}
330
C
100
AcDbXrecord
280
     1
 90
        1
330
65
  0
DICTIONARY
  5
7C
102
{ACAD_REACTORS
330
C
102
}
330
C
100
AcDbDictionary
281
     1
  3
CANNOSCALE
350
81
  3
CMLEADERSTYLE
350
7E
  3
CTABLESTYLE
350
7D
  3
CVIEWDETAILSTYLE
350
7F
  3
CVIEWSECTIONSTYLE
350
80
  0
DICTIONARY
  5
2E8
102
{ACAD_REACTORS
330
C
102
}
330
C
100
AcDbDictionary
281
     1
  3
DRAWING_TOOL
350
2EB
  3
REVIT_CATEGORY_MAPPING
350
2EA
  3
REVIT_TYPE_MAPPING
350
2E9
  0
SORTENTSTABLE
  5
2ED
102
{ACAD_REACTORS
330
2EC
102
}
330
2EC
100
AcDbSortentsTable
330
71
  0
ACDBDETAILVIEWSTYLE
  5
6C
102
{ACAD_REACTORS
330
6B
102
}
330
6B
100
AcDbModelDocViewStyle
 70
     0
  3
Imperial24
290
     1
100
AcDbDetailViewStyle
 70
     0
 71
     0
 90
        3
 71
     1
340
55
 62
   256
 40
0.24
340
0
 62
   256
 40
0.24
300

 40
0.36
280
     3
 71
     2
340
5D
 90
       25
 62
   256
 71
     3
340
55
 62
   256
 40
0.24
 90
        1
 40
0.75
 90
        1
300
%<\AcVar ViewType \f "%tc1">% %<\AcVar ViewDetailId>%\PSCALA %<\AcVar ViewScale \f "%sn">%
 71
     4
340
5D
 90
       25
 62
   256
340
5D
 90
       25
 62
   256
280
     0
  0
LAYOUT
  5
70
102
{ACAD_REACTORS
330
62
102
}
330
62
100
AcDbPlotSettings
  1

  2

  4

  6

 40
0.0
 41
0.0
 42
0.0
 43
0.0
 44
0.0
 45
0.0
 46
0.0
 47
0.0
 48
0.0
 49
0.0
140
0.0
141
0.0
142
1.0
143
1.0
 70
   688
 72
     0
 73
     0
 74
     5
  7

 75
    16
147
1.0
 76
     0
 77
     2
 78
   300
148
0.0
149
0.0
100
AcDbLayout
  1
Layout1
 70
     1
 71
     1
 10
0.0
 20
0.0
 11
12.0
 21
9.0
 12
0.0
 22
0.0
 32
0.0
 14
0.0
 24
0.0
 34
0.0
 15
0.0
 25
0.0
 35
0.0
146
0.0
 13
0.0
 23
0.0
 33
0.0
 16
1.0
 26
0.0
 36
0.0
 17
0.0
 27
1.0
 37
0.0
 76
     0
330
6D
  0
LAYOUT
  5
78
102
{ACAD_REACTORS
330
62
102
}
330
62
100
AcDbPlotSettings
  1

  2

  4

  6

 40
0.0
 41
0.0
 42
0.0
 43
0.0
 44
0.0
 45
0.0
 46
0.0
 47
0.0
 48
0.0
 49
0.0
140
0.0
141
0.0
142
1.0
143
1.0
 70
   688
 72
     0
 73
     0
 74
     5
  7

 75
    16
147
1.0
 76
     0
 77
     2
 78
   300
148
0.0
149
0.0
100
AcDbLayout
  1
Layout2
 70
     1
 71
     2
 10
0.0
 20
0.0
 11
12.0
 21
9.0
 12
0.0
 22
0.0
 32
0.0
 14
0.0
 24
0.0
 34
0.0
 15
0.0
 25
0.0
 35
0.0
146
0.0
 13
0.0
 23
0.0
 33
0.0
 16
1.0
 26
0.0
 36
0.0
 17
0.0
 27
1.0
 37
0.0
 76
     0
330
75
  0
LAYOUT
  5
74
102
{ACAD_REACTORS
330
62
102
}
330
62
100
AcDbPlotSettings
  1

  2

  4

  6

 40
0.0
 41
0.0
 42
0.0
 43
0.0
 44
0.0
 45
0.0
 46
0.0
 47
0.0
 48
0.0
 49
0.0
140
0.0
141
0.0
142
1.0
143
1.0
 70
  1712
 72
     0
 73
     0
 74
     0
  7

 75
     0
147
1.0
 76
     0
 77
     2
 78
   300
148
0.0
149
0.0
100
AcDbLayout
  1
Model
 70
     1
 71
     0
 10
0.0
 20
0.0
 11
12.0
 21
9.0
 12
0.0
 22
0.0
 32
0.0
 14
0.0
 24
0.0
 34
0.0
 15
0.0
 25
0.0
 35
0.0
146
0.0
 13
0.0
 23
0.0
 33
0.0
 16
1.0
 26
0.0
 36
0.0
 17
0.0
 27
1.0
 37
0.0
 76
     0
330
71
  0
MATERIAL
  5
19
102
{ACAD_XDICTIONARY
360
1A
102
}
102
{ACAD_REACTORS
330
10
102
}
330
10
100
AcDbMaterial
  1
ByBlock
 72
     0
 43
0.0208333333333333
 43
0.0
 43
0.0
 43
0.0
 43
0.0
 43
0.0208333333333333
 43
0.0
 43
0.0
 43
0.0
 43
0.0
 43
1.0
 43
0.0
 43
0.0
 43
0.0
 43
0.0
 43
1.0
 77
     0
 47
0.0208333333333333
 47
0.0
 47
0.0
 47
0.0
 47
0.0
 47
0.0208333333333333
 47
0.0
 47
0.0
 47
0.0
 47
0.0
 47
1.0
 47
0.0
 47
0.0
 47
0.0
 47
0.0
 47
1.0
171
     0
 49
0.0208333333333333
 49
0.0
 49
0.0
 49
0.0
 49
0.0
 49
0.0208333333333333
 49
0.0
 49
0.0
 49
0.0
 49
0.0
 49
1.0
 49
0.0
 49
0.0
 49
0.0
 49
0.0
 49
1.0
175
     0
142
0.0208333333333333
142
0.0
142
0.0
142
0.0
142
0.0
142
0.0208333333333333
142
0.0
142
0.0
142
0.0
142
0.0
142
1.0
142
0.0
142
0.0
142
0.0
142
0.0
142
1.0
179
     0
144
0.0208333333333333
144
0.0
144
0.0
144
0.0
144
0.0
144
0.0208333333333333
144
0.0
144
0.0
144
0.0
144
0.0
144
1.0
144
0.0
144
0.0
144
0.0
144
0.0
144
1.0
147
0.0208333333333333
147
0.0
147
0.0
147
0.0
147
0.0
147
0.0208333333333333
147
0.0
147
0.0
147
0.0
147
0.0
147
1.0
147
0.0
147
0.0
147
0.0
147
0.0
147
1.0
  0
MATERIAL
  5
11
102
{ACAD_XDICTIONARY
360
12
102
}
102
{ACAD_REACTORS
330
10
102
}
330
10
100
AcDbMaterial
  1
ByLayer
 72
     0
 43
0.0208333333333333
 43
0.0
 43
0.0
 43
0.0
 43
0.0
 43
0.0208333333333333
 43
0.0
 43
0.0
 43
0.0
 43
0.0
 43
1.0
 43
0.0
 43
0.0
 43
0.0
 43
0.0
 43
1.0
 77
     0
 47
0.0208333333333333
 47
0.0
 47
0.0
 47
0.0
 47
0.0
 47
0.0208333333333333
 47
0.0
 47
0.0
 47
0.0
 47
0.0
 47
1.0
 47
0.0
 47
0.0
 47
0.0
 47
0.0
 47
1.0
171
     0
 49
0.0208333333333333
 49
0.0
 49
0.0
 49
0.0
 49
0.0
 49
0.0208333333333333
 49
0.0
 49
0.0
 49
0.0
 49
0.0
 49
1.0
 49
0.0
 49
0.0
 49
0.0
 49
0.0
 49
1.0
175
     0
142
0.0208333333333333
142
0.0
142
0.0
142
0.0
142
0.0
142
0.0208333333333333
142
0.0
142
0.0
142
0.0
142
0.0
142
1.0
142
0.0
142
0.0
142
0.0
142
0.0
142
1.0
179
     0
144
0.0208333333333333
144
0.0
144
0.0
144
0.0
144
0.0
144
0.0208333333333333
144
0.0
144
0.0
144
0.0
144
0.0
144
1.0
144
0.0
144
0.0
144
0.0
144
0.0
144
1.0
147
0.0208333333333333
147
0.0
147
0.0
147
0.0
147
0.0
147
0.0208333333333333
147
0.0
147
0.0
147
0.0
147
0.0
147
1.0
147
0.0
147
0.0
147
0.0
147
0.0
147
1.0
  0
MATERIAL
  5
21
102
{ACAD_XDICTIONARY
360
22
102
}
102
{ACAD_REACTORS
330
10
102
}
330
10
100
AcDbMaterial
  1
Global
 72
     0
 43
0.0208333333333333
 43
0.0
 43
0.0
 43
0.0
 43
0.0
 43
0.0208333333333333
 43
0.0
 43
0.0
 43
0.0
 43
0.0
 43
1.0
 43
0.0
 43
0.0
 43
0.0
 43
0.0
 43
1.0
 77
     0
 47
0.0208333333333333
 47
0.0
 47
0.0
 47
0.0
 47
0.0
 47
0.0208333333333333
 47
0.0
 47
0.0
 47
0.0
 47
0.0
 47
1.0
 47
0.0
 47
0.0
 47
0.0
 47
0.0
 47
1.0
171
     0
 49
0.0208333333333333
 49
0.0
 49
0.0
 49
0.0
 49
0.0
 49
0.0208333333333333
 49
0.0
 49
0.0
 49
0.0
 49
0.0
 49
1.0
 49
0.0
 49
0.0
 49
0.0
 49
0.0
 49
1.0
175
     0
142
0.0208333333333333
142
0.0
142
0.0
142
0.0
142
0.0
142
0.0208333333333333
142
0.0
142
0.0
142
0.0
142
0.0
142
1.0
142
0.0
142
0.0
142
0.0
142
0.0
142
1.0
179
     0
144
0.0208333333333333
144
0.0
144
0.0
144
0.0
144
0.0
144
0.0208333333333333
144
0.0
144
0.0
144
0.0
144
0.0
144
1.0
144
0.0
144
0.0
144
0.0
144
0.0
144
1.0
147
0.0208333333333333
147
0.0
147
0.0
147
0.0
147
0.0
147
0.0208333333333333
147
0.0
147
0.0
147
0.0
147
0.0
147
1.0
147
0.0
147
0.0
147
0.0
147
0.0
147
1.0
  0
MLEADERSTYLE
  5
67
102
{ACAD_REACTORS
330
66
102
}
330
66
100
AcDbMLeaderStyle
179
     2
170
     2
171
     1
172
     0
 90
        2
 40
0.0
 41
0.0
173
     1
 91
-1056964608
340
5B
 92
       -2
290
     1
 42
0.09
291
     1
 43
0.36
  3
Standard
 44
0.18
300

342
55
174
     1
178
     6
175
     1
176
     0
 93
-1056964608
 45
0.18
292
     0
297
     0
 46
0.18
 94
-1056964608
 47
1.0
 49
1.0
140
1.0
293
     1
141
0.0
294
     1
177
     0
142
1.0
295
     1
296
     0
143
0.125
271
     0
272
     9
273
     9
298
     1
  0
MLINESTYLE
  5
60
102
{ACAD_REACTORS
330
5F
102
}
330
5F
100
AcDbMlineStyle
  2
STANDARD
 70
     0
  3

 62
   256
 51
90.0
 52
90.0
 71
     2
 49
0.5
 62
   256
  6
BYLAYER
 49
-0.5
 62
   256
  6
BYLAYER
  0
ACDBPLACEHOLDER
  5
F
102
{ACAD_REACTORS
330
E
102
}
330
E
  0
SCALE
  5
43
102
{ACAD_REACTORS
330
42
102
}
330
42
100
AcDbScale
 70
     0
300
1:1
140
1.0
141
1.0
290
     1
  0
SCALE
  5
44
102
{ACAD_REACTORS
330
42
102
}
330
42
100
AcDbScale
 70
     0
300
1/128" = 1'-0"
140
0.0078125
141
12.0
290
     0
  0
SCALE
  5
45
102
{ACAD_REACTORS
330
42
102
}
330
42
100
AcDbScale
 70
     0
300
1/64" = 1'-0"
140
0.015625
141
12.0
290
     0
  0
SCALE
  5
46
102
{ACAD_REACTORS
330
42
102
}
330
42
100
AcDbScale
 70
     0
300
1/32" = 1'-0"
140
0.03125
141
12.0
290
     0
  0
SCALE
  5
47
102
{ACAD_REACTORS
330
42
102
}
330
42
100
AcDbScale
 70
     0
300
1/16" = 1'-0"
140
0.0625
141
12.0
290
     0
  0
SCALE
  5
48
102
{ACAD_REACTORS
330
42
102
}
330
42
100
AcDbScale
 70
     0
300
3/32" = 1'-0"
140
0.09375
141
12.0
290
     0
  0
SCALE
  5
49
102
{ACAD_REACTORS
330
42
102
}
330
42
100
AcDbScale
 70
     0
300
1/8" = 1'-0"
140
0.125
141
12.0
290
     0
  0
SCALE
  5
4A
102
{ACAD_REACTORS
330
42
102
}
330
42
100
AcDbScale
 70
     0
300
3/16" = 1'-0"
140
0.1875
141
12.0
290
     0
  0
SCALE
  5
4B
102
{ACAD_REACTORS
330
42
102
}
330
42
100
AcDbScale
 70
     0
300
1/4" = 1'-0"
140
0.25
141
12.0
290
     0
  0
SCALE
  5
4C
102
{ACAD_REACTORS
330
42
102
}
330
42
100
AcDbScale
 70
     0
300
3/8" = 1'-0"
140
0.375
141
12.0
290
     0
  0
SCALE
  5
4D
102
{ACAD_REACTORS
330
42
102
}
330
42
100
AcDbScale
 70
     0
300
1/2" = 1'-0"
140
0.5
141
12.0
290
     0
  0
SCALE
  5
4E
102
{ACAD_REACTORS
330
42
102
}
330
42
100
AcDbScale
 70
     0
300
3/4" = 1'-0"
140
0.75
141
12.0
290
     0
  0
SCALE
  5
4F
102
{ACAD_REACTORS
330
42
102
}
330
42
100
AcDbScale
 70
     0
300
1" = 1'-0"
140
1.0
141
12.0
290
     0
  0
SCALE
  5
50
102
{ACAD_REACTORS
330
42
102
}
330
42
100
AcDbScale
 70
     0
300
1-1/2" = 1'-0"
140
1.5
141
12.0
290
     0
  0
SCALE
  5
51
102
{ACAD_REACTORS
330
42
102
}
330
42
100
AcDbScale
 70
     0
300
3" = 1'-0"
140
3.0
141
12.0
290
     0
  0
SCALE
  5
52
102
{ACAD_REACTORS
330
42
102
}
330
42
100
AcDbScale
 70
     0
300
6" = 1'-0"
140
6.0
141
12.0
290
     0
  0
SCALE
  5
53
102
{ACAD_REACTORS
330
42
102
}
330
42
100
AcDbScale
 70
     0
300
1'-0" = 1'-0"
140
12.0
141
12.0
290
     0
  0
ACDBSECTIONVIEWSTYLE
  5
6A
102
{ACAD_REACTORS
330
68
102
}
330
68
100
AcDbModelDocViewStyle
 70
     0
  3
Imperial24
290
     1
100
AcDbSectionViewStyle
 70
     0
 71
     0
 90
       78
 71
     1
340
55
 62
   256
 40
0.24
340
0
340
0
 62
   256
 40
0.24
300
I, O, Q, S, X, Z
 40
0.48
 90
        3
 40
0.18
 90
        1
 71
     2
340
69
 90
       25
 62
   256
340
5D
 90
       50
 62
   256
 40
0.24
 40
0.0
 40
0.24
 71
     3
340
55
 62
   256
 40
0.24
 90
        1
 40
0.75
 90
        1
300
%<\AcVar ViewType \f "%tc1">% %<\AcVar ViewSectionStartId>%-%<\AcVar ViewSectionEndId>%\PSCALA %<\AcVar ViewScale \f "%sn">%
 71
     4
 62
   256
 62
   257
300
ANSI31
 40
1.0
 90
        0
290
     0
290
     0
 90
        6
 40
0.0
 40
1.570796326794896
 40
0.2617993877991494
 40
1.308996938995747
 40
-0.2617993877991494
 40
1.832595714594046
  0
TABLESTYLE
  5
65
102
{ACAD_XDICTIONARY
360
2EE
102
}
102
{ACAD_REACTORS
330
64
102
}
330
64
100
AcDbTableStyle
280
     0
  3
Standard
 70
     0
 71
     0
 40
0.06
 41
0.06
280
     0
281
     0
  7
Standard
140
0.18
170
     2
 62
     0
 63
     7
283
     0
 90
      512
 91
        0
  1

274
    -2
284
     1
 64
     0
275
    -2
285
     1
 65
     0
276
    -2
286
     1
 66
     0
277
    -2
287
     1
 67
     0
278
    -2
288
     1
 68
     0
279
    -2
289
     1
 69
     0
  7
Standard
140
0.25
170
     5
 62
     0
 63
     7
283
     0
 90
      512
 91
        0
  1

274
    -2
284
     1
 64
     0
275
    -2
285
     1
 65
     0
276
    -2
286
     1
 66
     0
277
    -2
287
     1
 67
     0
278
    -2
288
     1
 68
     0
279
    -2
289
     1
 69
     0
  7
Standard
140
0.18
170
     5
 62
     0
 63
     7
283
     0
 90
      512
 91
        0
  1

274
    -2
284
     1
 64
     0
275
    -2
285
     1
 65
     0
276
    -2
286
     1
 66
     0
277
    -2
287
     1
 67
     0
278
    -2
288
     1
 68
     0
279
    -2
289
     1
 69
     0
  0
VISUALSTYLE
  5
2F
102
{ACAD_REACTORS
330
29
102
}
330
29
100
AcDbVisualStyle
  2
2dWireframe
 70
     4
177
     3
291
     0
 70
    58
 90
        0
176
     1
 90
        2
176
     1
 90
        0
176
     1
 90
        0
176
     1
 40
0.6
176
     1
 40
30.0
176
     1
 62
     7
420
 16777215
176
     1
 90
        1
176
     1
 90
        4
176
     1
 62
     7
176
     1
 62
   257
176
     1
 90
        1
176
     1
 90
        1
176
     1
 40
1.0
176
     1
 90
        0
176
     1
 62
   257
176
     1
 40
1.0
176
     1
 90
        1
176
     1
 90
        6
176
     1
 90
        2
176
     1
 62
     7
176
     1
 90
        5
176
     1
 90
        0
176
     1
 90
        0
176
     1
290
     0
176
     1
 90
        1
176
     1
 40
0.0
176
     1
 90
        0
176
     1
290
     1
176
     1
290
     1
176
     1
290
     0
176
     1
290
     0
176
     1
290
     0
176
     1
290
     0
176
     1
290
     0
176
     1
290
     0
176
     1
290
     0
176
     1
 90
       50
176
     1
 40
0.0
176
     1
 40
1.0
176
     1
 90
        0
176
     1
 62
    18
420
        0
176
     1
 90
       50
176
     1
 90
        3
176
     1
 62
     5
420
      255
176
     1
290
     0
176
     1
 90
       50
176
     1
 90
       50
176
     1
 90
       50
176
     1
290
     0
176
     1
 90
       50
176
     1
 62
   256
176
     0
 40
1.0
176
     0
 90
        2
176
     1
  1
strokes_ogs.tif
176
     1
290
     0
176
     1
 40
1.0
176
     1
 40
1.0
176
     1
  0
VISUALSTYLE
  5
2E
102
{ACAD_REACTORS
330
29
102
}
330
29
100
AcDbVisualStyle
  2
Basic
 70
     7
177
     3
291
     1
 70
    58
 90
        1
176
     1
 90
        0
176
     1
 90
        1
176
     1
 90
        0
176
     1
 40
0.6
176
     1
 40
30.0
176
     1
 62
     7
420
 16777215
176
     1
 90
        0
176
     1
 90
        4
176
     1
 62
     7
176
     1
 62
   257
176
     1
 90
        1
176
     1
 90
        1
176
     1
 40
1.0
176
     1
 90
        8
176
     1
 62
     7
176
     1
 40
1.0
176
     1
 90
        1
176
     1
 90
        6
176
     1
 90
        2
176
     1
 62
     7
176
     1
 90
        5
176
     1
 90
        0
176
     1
 90
        0
176
     1
290
     0
176
     1
 90
        1
176
     1
 40
0.0
176
     1
 90
        0
176
     1
290
     0
176
     1
290
     1
176
     1
290
     1
176
     1
290
     0
176
     1
290
     0
176
     1
290
     0
176
     1
290
     0
176
     1
290
     0
176
     1
290
     0
176
     1
 90
       50
176
     1
 40
0.0
176
     1
 40
1.0
176
     1
 90
        0
176
     1
 62
    18
420
        0
176
     1
 90
       50
176
     1
 90
        3
176
     1
 62
     5
420
      255
176
     1
290
     0
176
     1
 90
       50
176
     1
 90
       50
176
     1
 90
       50
176
     1
290
     0
176
     1
 90
       50
176
     1
 62
   256
176
     0
 40
1.0
176
     0
 90
        2
176
     1
  1
strokes_ogs.tif
176
     1
290
     0
176
     1
 40
1.0
176
     1
 40
1.0
176
     1
  0
VISUALSTYLE
  5
35
102
{ACAD_REACTORS
330
29
102
}
330
29
100
AcDbVisualStyle
  2
Brighten
 70
    12
177
     3
291
     1
 70
    58
 90
        2
176
     1
 90
        2
176
     1
 90
        0
176
     1
 90
        0
176
     1
 40
0.6
176
     1
 40
30.0
176
     1
 62
     7
420
 16777215
176
     1
 90
        1
176
     1
 90
        4
176
     1
 62
     7
176
     1
 62
   257
176
     1
 90
        1
176
     1
 90
        1
176
     1
 40
1.0
176
     1
 90
        8
176
     1
 62
     7
176
     1
 40
1.0
176
     1
 90
        1
176
     1
 90
        6
176
     1
 90
        2
176
     1
 62
     7
176
     1
 90
        5
176
     1
 90
        0
176
     1
 90
        0
176
     1
290
     0
176
     1
 90
        1
176
     1
 40
50.0
176
     1
 90
        0
176
     1
290
     0
176
     1
290
     1
176
     1
290
     1
176
     1
290
     0
176
     1
290
     0
176
     1
290
     0
176
     1
290
     0
176
     1
290
     0
176
     1
290
     0
176
     1
 90
       50
176
     1
 40
0.0
176
     1
 40
1.0
176
     1
 90
        0
176
     1
 62
    18
420
        0
176
     1
 90
       50
176
     1
 90
        3
176
     1
 62
     5
420
      255
176
     1
290
     0
176
     1
 90
       50
176
     1
 90
       50
176
     1
 90
       50
176
     1
290
     0
176
     1
 90
       50
176
     1
 62
   256
176
     0
 40
1.0
176
     0
 90
        2
176
     1
  1
strokes_ogs.tif
176
     1
290
     0
176
     1
 40
1.0
176
     1
 40
1.0
176
     1
  0
VISUALSTYLE
  5
39
102
{ACAD_REACTORS
330
29
102
}
330
29
100
AcDbVisualStyle
  2
ColorChange
 70
    16
177
     3
291
     1
 70
    58
 90
        2
176
     1
 90
        2
176
     1
 90
        3
176
     1
 90
        0
176
     1
 40
0.6
176
     1
 40
30.0
176
     1
 62
     8
420
  8421504
176
     1
 90
        1
176
     1
 90
        4
176
     1
 62
     7
176
     1
 62
   257
176
     1
 90
        1
176
     1
 90
        1
176
     1
 40
1.0
176
     1
 90
        8
176
     1
 62
     8
420
  8421504
176
     1
 40
1.0
176
     1
 90
        1
176
     1
 90
        6
176
     1
 90
        2
176
     1
 62
     7
176
     1
 90
        5
176
     1
 90
        0
176
     1
 90
        0
176
     1
290
     0
176
     1
 90
        1
176
     1
 40
0.0
176
     1
 90
        0
176
     1
290
     0
176
     1
290
     1
176
     1
290
     1
176
     1
290
     0
176
     1
290
     0
176
     1
290
     0
176
     1
290
     0
176
     1
290
     0
176
     1
290
     0
176
     1
 90
       50
176
     1
 40
0.0
176
     1
 40
1.0
176
     1
 90
        0
176
     1
 62
    18
420
        0
176
     1
 90
       50
176
     1
 90
        3
176
     1
 62
     5
420
      255
176
     1
290
     0
176
     1
 90
       50
176
     1
 90
       50
176
     1
 90
       50
176
     1
290
     0
176
     1
 90
       50
176
     1
 62
   256
176
     0
 40
1.0
176
     0
 90
        2
176
     1
  1
strokes_ogs.tif
176
     1
290
     0
176
     1
 40
1.0
176
     1
 40
1.0
176
     1
  0
VISUALSTYLE
  5
32
102
{ACAD_REACTORS
330
29
102
}
330
29
100
AcDbVisualStyle
  2
Conceptual
 70
     9
177
     3
291
     0
 70
    58
 90
        3
176
     1
 90
        2
176
     1
 90
        0
176
     1
 90
        0
176
     1
 40
0.6
176
     1
 40
30.0
176
     1
 62
     7
420
 16777215
176
     1
 90
        2
176
     1
 90
        2
176
     1
 62
     7
176
     1
 62
   257
176
     1
 90
        1
176
     1
 90
        1
176
     1
 40
179.0
176
     1
 90
        8
176
     1
 62
     7
176
     1
 40
1.0
176
     1
 90
        1
176
     1
 90
        6
176
     1
 90
        2
176
     1
 62
     7
176
     1
 90
        3
176
     1
 90
        0
176
     1
 90
        0
176
     1
290
     0
176
     1
 90
        1
176
     1
 40
0.0
176
     1
 90
        0
176
     1
290
     0
176
     1
290
     1
176
     1
290
     1
176
     1
290
     0
176
     1
290
     0
176
     1
290
     0
176
     1
290
     0
176
     1
290
     0
176
     1
290
     0
176
     1
 90
       50
176
     1
 40
0.0
176
     1
 40
1.0
176
     1
 90
        0
176
     1
 62
    18
420
        0
176
     1
 90
       50
176
     1
 90
        3
176
     1
 62
     5
420
      255
176
     1
290
     0
176
     1
 90
       50
176
     1
 90
       50
176
     1
 90
       50
176
     1
290
     0
176
     1
 90
       50
176
     1
 62
   256
176
     0
 40
1.0
176
     0
 90
        2
176
     1
  1
strokes_ogs.tif
176
     1
290
     0
176
     1
 40
1.0
176
     1
 40
1.0
176
     1
  0
VISUALSTYLE
  5
34
102
{ACAD_REACTORS
330
29
102
}
330
29
100
AcDbVisualStyle
  2
Dim
 70
    11
177
     3
291
     1
 70
    58
 90
        2
176
     1
 90
        2
176
     1
 90
        0
176
     1
 90
        0
176
     1
 40
0.6
176
     1
 40
30.0
176
     1
 62
     7
420
 16777215
176
     1
 90
        1
176
     1
 90
        4
176
     1
 62
     7
176
     1
 62
   257
176
     1
 90
        1
176
     1
 90
        1
176
     1
 40
1.0
176
     1
 90
        8
176
     1
 62
     7
176
     1
 40
1.0
176
     1
 90
        1
176
     1
 90
        6
176
     1
 90
        2
176
     1
 62
     7
176
     1
 90
        5
176
     1
 90
        0
176
     1
 90
        0
176
     1
290
     0
176
     1
 90
        1
176
     1
 40
-50.0
176
     1
 90
        0
176
     1
290
     0
176
     1
290
     1
176
     1
290
     1
176
     1
290
     0
176
     1
290
     0
176
     1
290
     0
176
     1
290
     0
176
     1
290
     0
176
     1
290
     0
176
     1
 90
       50
176
     1
 40
0.0
176
     1
 40
1.0
176
     1
 90
        0
176
     1
 62
    18
420
        0
176
     1
 90
       50
176
     1
 90
        3
176
     1
 62
     5
420
      255
176
     1
290
     0
176
     1
 90
       50
176
     1
 90
       50
176
     1
 90
       50
176
     1
290
     0
176
     1
 90
       50
176
     1
 62
   256
176
     0
 40
1.0
176
     0
 90
        2
176
     1
  1
strokes_ogs.tif
176
     1
290
     0
176
     1
 40
1.0
176
     1
 40
1.0
176
     1
  0
VISUALSTYLE
  5
41
102
{ACAD_REACTORS
330
29
102
}
330
29
100
AcDbVisualStyle
  2
EdgeColorOff
 70
    22
177
     3
291
     1
 70
    58
 90
        2
176
     0
 90
        2
176
     0
 90
        0
176
     0
 90
        0
176
     0
 40
0.6
176
     0
 40
30.0
176
     0
 62
     7
420
 16777215
176
     0
 90
        1
176
     0
 90
        4
176
     0
 62
     7
176
     0
 62
   257
176
     0
 90
        1
176
     0
 90
        1
176
     0
 40
1.0
176
     0
 90
        8
176
     2
 62
     7
176
     0
 40
1.0
176
     0
 90
        1
176
     0
 90
        6
176
     0
 90
        2
176
     0
 62
     7
176
     0
 90
        5
176
     0
 90
        0
176
     0
 90
        0
176
     0
290
     0
176
     0
 90
        1
176
     0
 40
0.0
176
     0
 90
        0
176
     0
290
     0
176
     0
290
     1
176
     0
290
     1
176
     0
290
     0
176
     0
290
     0
176
     0
290
     0
176
     0
290
     0
176
     0
290
     0
176
     0
290
     0
176
     0
 90
       50
176
     0
 40
0.0
176
     0
 40
1.0
176
     0
 90
        0
176
     0
 62
    18
420
        0
176
     0
 90
       50
176
     0
 90
        3
176
     0
 62
     5
420
      255
176
     0
290
     0
176
     0
 90
       50
176
     0
 90
       50
176
     0
 90
       50
176
     0
290
     0
176
     0
 90
       50
176
     0
 62
   256
176
     0
 40
1.0
176
     0
 90
        2
176
     0
  1
strokes_ogs.tif
176
     0
290
     0
176
     0
 40
1.0
176
     0
 40
1.0
176
     0
  0
VISUALSTYLE
  5
38
102
{ACAD_REACTORS
330
29
102
}
330
29
100
AcDbVisualStyle
  2
Facepattern
 70
    15
177
     3
291
     1
 70
    58
 90
        2
176
     1
 90
        2
176
     1
 90
        0
176
     1
 90
        0
176
     1
 40
0.6
176
     1
 40
30.0
176
     1
 62
     7
420
 16777215
176
     1
 90
        1
176
     1
 90
        4
176
     1
 62
     7
176
     1
 62
   257
176
     1
 90
        1
176
     1
 90
        1
176
     1
 40
1.0
176
     1
 90
        8
176
     1
 62
     7
176
     1
 40
1.0
176
     1
 90
        1
176
     1
 90
        6
176
     1
 90
        2
176
     1
 62
     7
176
     1
 90
        5
176
     1
 90
        0
176
     1
 90
        0
176
     1
290
     0
176
     1
 90
        1
176
     1
 40
0.0
176
     1
 90
        0
176
     1
290
     0
176
     1
290
     1
176
     1
290
     1
176
     1
290
     0
176
     1
290
     0
176
     1
290
     0
176
     1
290
     0
176
     1
290
     0
176
     1
290
     0
176
     1
 90
       50
176
     1
 40
0.0
176
     1
 40
1.0
176
     1
 90
        0
176
     1
 62
    18
420
        0
176
     1
 90
       50
176
     1
 90
        3
176
     1
 62
     5
420
      255
176
     1
290
     0
176
     1
 90
       50
176
     1
 90
       50
176
     1
 90
       50
176
     1
290
     0
176
     1
 90
       50
176
     1
 62
   256
176
     0
 40
1.0
176
     0
 90
        2
176
     1
  1
strokes_ogs.tif
176
     1
290
     0
176
     1
 40
1.0
176
     1
 40
1.0
176
     1
  0
VISUALSTYLE
  5
2A
102
{ACAD_REACTORS
330
29
102
}
330
29
100
AcDbVisualStyle
  2
Flat
 70
     0
177
     3
291
     1
 70
    58
 90
        2
176
     1
 90
        1
176
     1
 90
        1
176
     1
 90
        2
176
     1
 40
0.6
176
     1
 40
30.0
176
     1
 62
     7
420
 16777215
176
     1
 90
        0
176
     1
 90
        0
176
     1
 62
     7
176
     1
 62
   257
176
     1
 90
        1
176
     1
 90
        1
176
     1
 40
1.0
176
     1
 90
        8
176
     1
 62
     7
176
     1
 40
1.0
176
     1
 90
        1
176
     1
 90
        6
176
     1
 90
        2
176
     1
 62
     7
176
     1
 90
        5
176
     1
 90
        0
176
     1
 90
        0
176
     1
290
     0
176
     1
 90
       13
176
     1
 40
0.0
176
     1
 90
        0
176
     1
290
     0
176
     1
290
     1
176
     1
290
     1
176
     1
290
     0
176
     1
290
     0
176
     1
290
     0
176
     1
290
     0
176
     1
290
     0
176
     1
290
     0
176
     1
 90
       50
176
     1
 40
0.0
176
     1
 40
1.0
176
     1
 90
        0
176
     1
 62
    18
420
        0
176
     1
 90
       50
176
     1
 90
        3
176
     1
 62
     5
420
      255
176
     1
290
     0
176
     1
 90
       50
176
     1
 90
       50
176
     1
 90
       50
176
     1
290
     0
176
     1
 90
       50
176
     1
 62
   256
176
     0
 40
1.0
176
     0
 90
        2
176
     1
  1
strokes_ogs.tif
176
     1
290
     0
176
     1
 40
1.0
176
     1
 40
1.0
176
     1
  0
VISUALSTYLE
  5
2B
102
{ACAD_REACTORS
330
29
102
}
330
29
100
AcDbVisualStyle
  2
FlatWithEdges
 70
     1
177
     3
291
     1
 70
    58
 90
        2
176
     1
 90
        1
176
     1
 90
        1
176
     1
 90
        2
176
     1
 40
0.6
176
     1
 40
30.0
176
     1
 62
     7
420
 16777215
176
     1
 90
        1
176
     1
 90
        0
176
     1
 62
     7
176
     1
 62
   257
176
     1
 90
        1
176
     1
 90
        1
176
     1
 40
1.0
176
     1
 90
        0
176
     1
 62
   257
176
     1
 40
1.0
176
     1
 90
        1
176
     1
 90
        6
176
     1
 90
        2
176
     1
 62
     7
176
     1
 90
        5
176
     1
 90
        0
176
     1
 90
        0
176
     1
290
     0
176
     1
 90
       13
176
     1
 40
0.0
176
     1
 90
        0
176
     1
290
     0
176
     1
290
     1
176
     1
290
     1
176
     1
290
     0
176
     1
290
     0
176
     1
290
     0
176
     1
290
     0
176
     1
290
     0
176
     1
290
     0
176
     1
 90
       50
176
     1
 40
0.0
176
     1
 40
1.0
176
     1
 90
        0
176
     1
 62
    18
420
        0
176
     1
 90
       50
176
     1
 90
        3
176
     1
 62
     5
420
      255
176
     1
290
     0
176
     1
 90
       50
176
     1
 90
       50
176
     1
 90
       50
176
     1
290
     0
176
     1
 90
       50
176
     1
 62
   256
176
     0
 40
1.0
176
     0
 90
        2
176
     1
  1
strokes_ogs.tif
176
     1
290
     0
176
     1
 40
1.0
176
     1
 40
1.0
176
     1
  0
VISUALSTYLE
  5
2C
102
{ACAD_REACTORS
330
29
102
}
330
29
100
AcDbVisualStyle
  2
Gouraud
 70
     2
177
     3
291
     1
 70
    58
 90
        2
176
     1
 90
        2
176
     1
 90
        1
176
     1
 90
        2
176
     1
 40
0.6
176
     1
 40
30.0
176
     1
 62
     7
420
 16777215
176
     1
 90
        0
176
     1
 90
        0
176
     1
 62
     7
176
     1
 62
   257
176
     1
 90
        1
176
     1
 90
        1
176
     1
 40
1.0
176
     1
 90
        0
176
     1
 62
     7
176
     1
 40
1.0
176
     1
 90
        1
176
     1
 90
        6
176
     1
 90
        2
176
     1
 62
     7
176
     1
 90
        5
176
     1
 90
        0
176
     1
 90
        0
176
     1
290
     0
176
     1
 90
       13
176
     1
 40
0.0
176
     1
 90
        0
176
     1
290
     0
176
     1
290
     1
176
     1
290
     1
176
     1
290
     0
176
     1
290
     0
176
     1
290
     0
176
     1
290
     0
176
     1
290
     0
176
     1
290
     0
176
     1
 90
       50
176
     1
 40
0.0
176
     1
 40
1.0
176
     1
 90
        0
176
     1
 62
    18
420
        0
176
     1
 90
       50
176
     1
 90
        3
176
     1
 62
     5
420
      255
176
     1
290
     0
176
     1
 90
       50
176
     1
 90
       50
176
     1
 90
       50
176
     1
290
     0
176
     1
 90
       50
176
     1
 62
   256
176
     0
 40
1.0
176
     0
 90
        2
176
     1
  1
strokes_ogs.tif
176
     1
290
     0
176
     1
 40
1.0
176
     1
 40
1.0
176
     1
  0
VISUALSTYLE
  5
2D
102
{ACAD_REACTORS
330
29
102
}
330
29
100
AcDbVisualStyle
  2
GouraudWithEdges
 70
     3
177
     3
291
     1
 70
    58
 90
        2
176
     1
 90
        2
176
     1
 90
        1
176
     1
 90
        2
176
     1
 40
0.6
176
     1
 40
30.0
176
     1
 62
     7
420
 16777215
176
     1
 90
        1
176
     1
 90
        0
176
     1
 62
     7
176
     1
 62
   257
176
     1
 90
        1
176
     1
 90
        1
176
     1
 40
1.0
176
     1
 90
        0
176
     1
 62
   257
176
     1
 40
1.0
176
     1
 90
        1
176
     1
 90
        6
176
     1
 90
        2
176
     1
 62
     7
176
     1
 90
        5
176
     1
 90
        0
176
     1
 90
        0
176
     1
290
     0
176
     1
 90
       13
176
     1
 40
0.0
176
     1
 90
        0
176
     1
290
     0
176
     1
290
     1
176
     1
290
     1
176
     1
290
     0
176
     1
290
     0
176
     1
290
     0
176
     1
290
     0
176
     1
290
     0
176
     1
290
     0
176
     1
 90
       50
176
     1
 40
0.0
176
     1
 40
1.0
176
     1
 90
        0
176
     1
 62
    18
420
        0
176
     1
 90
       50
176
     1
 90
        3
176
     1
 62
     5
420
      255
176
     1
290
     0
176
     1
 90
       50
176
     1
 90
       50
176
     1
 90
       50
176
     1
290
     0
176
     1
 90
       50
176
     1
 62
   256
176
     0
 40
1.0
176
     0
 90
        2
176
     1
  1
strokes_ogs.tif
176
     1
290
     0
176
     1
 40
1.0
176
     1
 40
1.0
176
     1
  0
VISUALSTYLE
  5
31
102
{ACAD_REACTORS
330
29
102
}
330
29
100
AcDbVisualStyle
  2
Hidden
 70
     6
177
     3
291
     0
 70
    58
 90
        1
176
     1
 90
        2
176
     1
 90
        2
176
     1
 90
        0
176
     1
 40
0.6
176
     1
 40
30.0
176
     1
 62
     7
420
 16777215
176
     1
 90
        2
176
     1
 90
        2
176
     1
 62
     7
176
     1
 62
   257
176
     1
 90
        2
176
     1
 90
        1
176
     1
 40
40.0
176
     1
 90
        0
176
     1
 62
   257
176
     1
 40
1.0
176
     1
 90
        1
176
     1
 90
        6
176
     1
 90
        2
176
     1
 62
     7
176
     1
 90
        3
176
     1
 90
        0
176
     1
 90
        0
176
     1
290
     0
176
     1
 90
        1
176
     1
 40
0.0
176
     1
 90
        0
176
     1
290
     0
176
     1
290
     1
176
     1
290
     1
176
     1
290
     0
176
     1
290
     0
176
     1
290
     0
176
     1
290
     0
176
     1
290
     0
176
     1
290
     0
176
     1
 90
       50
176
     1
 40
0.0
176
     1
 40
1.0
176
     1
 90
        0
176
     1
 62
    18
420
        0
176
     1
 90
       50
176
     1
 90
        3
176
     1
 62
     5
420
      255
176
     1
290
     0
176
     1
 90
       50
176
     1
 90
       50
176
     1
 90
       50
176
     1
290
     0
176
     1
 90
       50
176
     1
 62
   256
176
     0
 40
1.0
176
     0
 90
        2
176
     1
  1
strokes_ogs.tif
176
     1
290
     0
176
     1
 40
1.0
176
     1
 40
1.0
176
     1
  0
VISUALSTYLE
  5
3F
102
{ACAD_REACTORS
330
29
102
}
330
29
100
AcDbVisualStyle
  2
JitterOff
 70
    20
177
     3
291
     1
 70
    58
 90
        2
176
     0
 90
        2
176
     0
 90
        0
176
     0
 90
        0
176
     0
 40
0.6
176
     0
 40
30.0
176
     0
 62
     7
420
 16777215
176
     0
 90
        1
176
     0
 90
        4
176
     0
 62
     7
176
     0
 62
   257
176
     0
 90
        1
176
     0
 90
        1
176
     0
 40
1.0
176
     0
 90
       10
176
     2
 62
     7
176
     0
 40
1.0
176
     0
 90
        1
176
     0
 90
        6
176
     0
 90
        2
176
     0
 62
     7
176
     0
 90
        5
176
     0
 90
        0
176
     0
 90
        0
176
     0
290
     0
176
     0
 90
        1
176
     0
 40
0.0
176
     0
 90
        0
176
     0
290
     0
176
     0
290
     1
176
     0
290
     1
176
     0
290
     0
176
     0
290
     0
176
     0
290
     0
176
     0
290
     0
176
     0
290
     0
176
     0
290
     0
176
     0
 90
       50
176
     0
 40
0.0
176
     0
 40
1.0
176
     0
 90
        0
176
     0
 62
    18
420
        0
176
     0
 90
       50
176
     0
 90
        3
176
     0
 62
     5
420
      255
176
     0
290
     0
176
     0
 90
       50
176
     0
 90
       50
176
     0
 90
       50
176
     0
290
     0
176
     0
 90
       50
176
     0
 62
   256
176
     0
 40
1.0
176
     0
 90
        2
176
     0
  1
strokes_ogs.tif
176
     0
290
     0
176
     0
 40
1.0
176
     0
 40
1.0
176
     0
  0
VISUALSTYLE
  5
37
102
{ACAD_REACTORS
330
29
102
}
330
29
100
AcDbVisualStyle
  2
Linepattern
 70
    14
177
     3
291
     1
 70
    58
 90
        2
176
     1
 90
        2
176
     1
 90
        0
176
     1
 90
        0
176
     1
 40
0.6
176
     1
 40
30.0
176
     1
 62
     7
420
 16777215
176
     1
 90
        1
176
     1
 90
        4
176
     1
 62
     7
176
     1
 62
   257
176
     1
 90
        7
176
     1
 90
        7
176
     1
 40
1.0
176
     1
 90
        8
176
     1
 62
     7
176
     1
 40
1.0
176
     1
 90
        1
176
     1
 90
        6
176
     1
 90
        2
176
     1
 62
     7
176
     1
 90
        5
176
     1
 90
        0
176
     1
 90
        0
176
     1
290
     0
176
     1
 90
        1
176
     1
 40
0.0
176
     1
 90
        0
176
     1
290
     0
176
     1
290
     1
176
     1
290
     1
176
     1
290
     0
176
     1
290
     0
176
     1
290
     0
176
     1
290
     0
176
     1
290
     0
176
     1
290
     0
176
     1
 90
       50
176
     1
 40
0.0
176
     1
 40
1.0
176
     1
 90
        0
176
     1
 62
    18
420
        0
176
     1
 90
       50
176
     1
 90
        3
176
     1
 62
     5
420
      255
176
     1
290
     0
176
     1
 90
       50
176
     1
 90
       50
176
     1
 90
       50
176
     1
290
     0
176
     1
 90
       50
176
     1
 62
   256
176
     0
 40
1.0
176
     0
 90
        2
176
     1
  1
strokes_ogs.tif
176
     1
290
     0
176
     1
 40
1.0
176
     1
 40
1.0
176
     1
  0
VISUALSTYLE
  5
40
102
{ACAD_REACTORS
330
29
102
}
330
29
100
AcDbVisualStyle
  2
OverhangOff
 70
    21
177
     3
291
     1
 70
    58
 90
        2
176
     0
 90
        2
176
     0
 90
        0
176
     0
 90
        0
176
     0
 40
0.6
176
     0
 40
30.0
176
     0
 62
     7
420
 16777215
176
     0
 90
        1
176
     0
 90
        4
176
     0
 62
     7
176
     0
 62
   257
176
     0
 90
        1
176
     0
 90
        1
176
     0
 40
1.0
176
     0
 90
        9
176
     2
 62
     7
176
     0
 40
1.0
176
     0
 90
        1
176
     0
 90
        6
176
     0
 90
        2
176
     0
 62
     7
176
     0
 90
        5
176
     0
 90
        0
176
     0
 90
        0
176
     0
290
     0
176
     0
 90
        1
176
     0
 40
0.0
176
     0
 90
        0
176
     0
290
     0
176
     0
290
     1
176
     0
290
     1
176
     0
290
     0
176
     0
290
     0
176
     0
290
     0
176
     0
290
     0
176
     0
290
     0
176
     0
290
     0
176
     0
 90
       50
176
     0
 40
0.0
176
     0
 40
1.0
176
     0
 90
        0
176
     0
 62
    18
420
        0
176
     0
 90
       50
176
     0
 90
        3
176
     0
 62
     5
420
      255
176
     0
290
     0
176
     0
 90
       50
176
     0
 90
       50
176
     0
 90
       50
176
     0
290
     0
176
     0
 90
       50
176
     0
 62
   256
176
     0
 40
1.0
176
     0
 90
        2
176
     0
  1
strokes_ogs.tif
176
     0
290
     0
176
     0
 40
1.0
176
     0
 40
1.0
176
     0
  0
VISUALSTYLE
  5
33
102
{ACAD_REACTORS
330
29
102
}
330
29
100
AcDbVisualStyle
  2
Realistic
 70
     8
177
     3
291
     0
 70
    58
 90
        2
176
     1
 90
        3
176
     1
 90
        0
176
     1
 90
        2
176
     1
 40
0.6
176
     1
 40
30.0
176
     1
 62
     7
420
 16777215
176
     1
 90
        0
176
     1
 90
        0
176
     1
 62
     7
176
     1
 62
   257
176
     1
 90
        1
176
     1
 90
        1
176
     1
 40
1.0
176
     1
 90
        8
176
     1
 62
   257
176
     1
 40
1.0
176
     1
 90
        1
176
     1
 90
        6
176
     1
 90
        2
176
     1
 62
     7
176
     1
 90
        3
176
     1
 90
        0
176
     1
 90
        0
176
     1
290
     0
176
     1
 90
       13
176
     1
 40
0.0
176
     1
 90
        0
176
     1
290
     0
176
     1
290
     1
176
     1
290
     1
176
     1
290
     0
176
     1
290
     0
176
     1
290
     0
176
     1
290
     0
176
     1
290
     0
176
     1
290
     0
176
     1
 90
       50
176
     1
 40
0.0
176
     1
 40
1.0
176
     1
 90
        0
176
     1
 62
    18
420
        0
176
     1
 90
       50
176
     1
 90
        3
176
     1
 62
     5
420
      255
176
     1
290
     0
176
     1
 90
       50
176
     1
 90
       50
176
     1
 90
       50
176
     1
290
     0
176
     1
 90
       50
176
     1
 62
   256
176
     0
 40
1.0
176
     0
 90
        2
176
     1
  1
strokes_ogs.tif
176
     1
290
     0
176
     1
 40
1.0
176
     1
 40
1.0
176
     1
  0
VISUALSTYLE
  5
3E
102
{ACAD_REACTORS
330
29
102
}
330
29
100
AcDbVisualStyle
  2
Shaded
 70
    27
177
     3
291
     0
 70
    58
 90
        2
176
     1
 90
        2
176
     1
 90
        1
176
     1
 90
        2
176
     1
 40
0.6
176
     1
 40
30.0
176
     1
 62
     7
420
 16777215
176
     1
 90
        0
176
     1
 90
        4
176
     1
 62
     7
176
     1
 62
   257
176
     1
 90
        1
176
     1
 90
        1
176
     1
 40
1.0
176
     1
 90
        8
176
     1
 62
   257
176
     1
 40
1.0
176
     1
 90
        1
176
     1
 90
        6
176
     1
 90
        2
176
     1
 62
     8
420
  7895160
176
     1
 90
        3
176
     1
 90
        0
176
     1
 90
        0
176
     1
290
     0
176
     1
 90
        5
176
     1
 40
0.0
176
     1
 90
        0
176
     1
290
     0
176
     1
290
     1
176
     1
290
     1
176
     1
290
     0
176
     1
290
     0
176
     1
290
     0
176
     1
290
     0
176
     1
290
     0
176
     1
290
     0
176
     1
 90
       50
176
     1
 40
0.0
176
     1
 40
1.0
176
     1
 90
        0
176
     1
 62
    18
420
        0
176
     1
 90
       50
176
     1
 90
        3
176
     1
 62
     5
420
      255
176
     1
290
     0
176
     1
 90
       50
176
     1
 90
       50
176
     1
 90
       50
176
     1
290
     0
176
     1
 90
       50
176
     1
 62
   256
176
     0
 40
1.0
176
     0
 90
        2
176
     1
  1
strokes_ogs.tif
176
     1
290
     0
176
     1
 40
1.0
176
     1
 40
1.0
176
     1
  0
VISUALSTYLE
  5
3D
102
{ACAD_REACTORS
330
29
102
}
330
29
100
AcDbVisualStyle
  2
Shaded with edges
 70
    26
177
     3
291
     0
 70
    58
 90
        2
176
     1
 90
        2
176
     1
 90
        1
176
     1
 90
        2
176
     1
 40
0.6
176
     1
 40
30.0
176
     1
 62
     7
420
 16777215
176
     1
 90
        1
176
     1
 90
       10
176
     1
 62
     7
176
     1
 62
   257
176
     1
 90
        2
176
     1
 90
        1
176
     1
 40
1.0
176
     1
 90
        8
176
     1
 62
   257
176
     1
 40
1.0
176
     1
 90
        1
176
     1
 90
        6
176
     1
 90
        2
176
     1
 62
     7
176
     1
 90
        3
176
     1
 90
        0
176
     1
 90
        0
176
     1
290
     0
176
     1
 90
        5
176
     1
 40
0.0
176
     1
 90
        0
176
     1
290
     0
176
     1
290
     1
176
     1
290
     1
176
     1
290
     0
176
     1
290
     0
176
     1
290
     0
176
     1
290
     0
176
     1
290
     0
176
     1
290
     0
176
     1
 90
       50
176
     1
 40
0.0
176
     1
 40
1.0
176
     1
 90
        0
176
     1
 62
    18
420
        0
176
     1
 90
       50
176
     1
 90
        3
176
     1
 62
     5
420
      255
176
     1
290
     0
176
     1
 90
       50
176
     1
 90
       50
176
     1
 90
       50
176
     1
290
     0
176
     1
 90
       50
176
     1
 62
   256
176
     0
 40
1.0
176
     0
 90
        2
176
     1
  1
strokes_ogs.tif
176
     1
290
     0
176
     1
 40
1.0
176
     1
 40
1.0
176
     1
  0
VISUALSTYLE
  5
3A
102
{ACAD_REACTORS
330
29
102
}
330
29
100
AcDbVisualStyle
  2
Shades of Gray
 70
    23
177
     3
291
     0
 70
    58
 90
        2
176
     1
 90
        2
176
     1
 90
        3
176
     1
 90
        0
176
     1
 40
0.6
176
     1
 40
30.0
176
     1
 62
     7
420
 16777215
176
     1
 90
        2
176
     1
 90
        2
176
     1
 62
     7
176
     1
 62
     7
176
     1
 90
        1
176
     1
 90
        1
176
     1
 40
40.0
176
     1
 90
        8
176
     1
 62
     7
176
     1
 40
1.0
176
     1
 90
        1
176
     1
 90
        6
176
     1
 90
        2
176
     1
 62
     7
176
     1
 90
        3
176
     1
 90
        0
176
     1
 90
        0
176
     1
290
     0
176
     1
 90
        1
176
     1
 40
0.0
176
     1
 90
        0
176
     1
290
     0
176
     1
290
     1
176
     1
290
     1
176
     1
290
     0
176
     1
290
     0
176
     1
290
     0
176
     1
290
     0
176
     1
290
     0
176
     1
290
     0
176
     1
 90
       50
176
     1
 40
0.0
176
     1
 40
1.0
176
     1
 90
        0
176
     1
 62
    18
420
        0
176
     1
 90
       50
176
     1
 90
        3
176
     1
 62
     5
420
      255
176
     1
290
     0
176
     1
 90
       50
176
     1
 90
       50
176
     1
 90
       50
176
     1
290
     0
176
     1
 90
       50
176
     1
 62
   256
176
     0
 40
1.0
176
     0
 90
        2
176
     1
  1
strokes_ogs.tif
176
     1
290
     0
176
     1
 40
1.0
176
     1
 40
1.0
176
     1
  0
VISUALSTYLE
  5
3B
102
{ACAD_REACTORS
330
29
102
}
330
29
100
AcDbVisualStyle
  2
Sketchy
 70
    24
177
     3
291
     0
 70
    58
 90
        1
176
     1
 90
        2
176
     1
 90
        2
176
     1
 90
        0
176
     1
 40
0.6
176
     1
 40
30.0
176
     1
 62
     7
420
 16777215
176
     1
 90
        2
176
     1
 90
        2
176
     1
 62
     7
176
     1
 62
     7
176
     1
 90
        1
176
     1
 90
        1
176
     1
 40
40.0
176
     1
 90
       11
176
     1
 62
     7
176
     1
 40
1.0
176
     1
 90
        1
176
     1
 90
        6
176
     1
 90
        2
176
     1
 62
     7
176
     1
 90
        6
176
     1
 90
        0
176
     1
 90
        0
176
     1
290
     0
176
     1
 90
        1
176
     1
 40
0.0
176
     1
 90
        0
176
     1
290
     0
176
     1
290
     1
176
     1
290
     1
176
     1
290
     0
176
     1
290
     0
176
     1
290
     0
176
     1
290
     0
176
     1
290
     0
176
     1
290
     0
176
     1
 90
       50
176
     1
 40
0.0
176
     1
 40
1.0
176
     1
 90
        0
176
     1
 62
    18
420
        0
176
     1
 90
       50
176
     1
 90
        3
176
     1
 62
     5
420
      255
176
     1
290
     0
176
     1
 90
       50
176
     1
 90
       50
176
     1
 90
       50
176
     1
290
     0
176
     1
 90
       50
176
     1
 62
   256
176
     0
 40
1.0
176
     0
 90
        2
176
     1
  1
strokes_ogs.tif
176
     1
290
     0
176
     1
 40
1.0
176
     1
 40
1.0
176
     1
  0
VISUALSTYLE
  5
36
102
{ACAD_REACTORS
330
29
102
}
330
29
100
AcDbVisualStyle
  2
Thicken
 70
    13
177
     3
291
     1
 70
    58
 90
        2
176
     1
 90
        2
176
     1
 90
        0
176
     1
 90
        0
176
     1
 40
0.6
176
     1
 40
30.0
176
     1
 62
     7
420
 16777215
176
     1
 90
        1
176
     1
 90
        4
176
     1
 62
     7
176
     1
 62
   257
176
     1
 90
        1
176
     1
 90
        1
176
     1
 40
1.0
176
     1
 90
       12
176
     1
 62
     7
176
     1
 40
1.0
176
     1
 90
        1
176
     1
 90
        6
176
     1
 90
        2
176
     1
 62
     7
176
     1
 90
        5
176
     1
 90
        0
176
     1
 90
        0
176
     1
290
     0
176
     1
 90
        1
176
     1
 40
0.0
176
     1
 90
        0
176
     1
290
     0
176
     1
290
     1
176
     1
290
     1
176
     1
290
     0
176
     1
290
     0
176
     1
290
     0
176
     1
290
     0
176
     1
290
     0
176
     1
290
     0
176
     1
 90
       50
176
     1
 40
0.0
176
     1
 40
1.0
176
     1
 90
        0
176
     1
 62
    18
420
        0
176
     1
 90
       50
176
     1
 90
        3
176
     1
 62
     5
420
      255
176
     1
290
     0
176
     1
 90
       50
176
     1
 90
       50
176
     1
 90
       50
176
     1
290
     0
176
     1
 90
       50
176
     1
 62
   256
176
     0
 40
1.0
176
     0
 90
        2
176
     1
  1
strokes_ogs.tif
176
     1
290
     0
176
     1
 40
1.0
176
     1
 40
1.0
176
     1
  0
VISUALSTYLE
  5
30
102
{ACAD_REACTORS
330
29
102
}
330
29
100
AcDbVisualStyle
  2
Wireframe
 70
     5
177
     3
291
     0
 70
    58
 90
        0
176
     1
 90
        2
176
     1
 90
        0
176
     1
 90
        0
176
     1
 40
0.6
176
     1
 40
30.0
176
     1
 62
     7
420
 16777215
176
     1
 90
        1
176
     1
 90
        4
176
     1
 62
     7
176
     1
 62
   257
176
     1
 90
        1
176
     1
 90
        1
176
     1
 40
1.0
176
     1
 90
        0
176
     1
 62
   257
176
     1
 40
1.0
176
     1
 90
        1
176
     1
 90
        6
176
     1
 90
        2
176
     1
 62
     7
176
     1
 90
        3
176
     1
 90
        0
176
     1
 90
        0
176
     1
290
     0
176
     1
 90
        1
176
     1
 40
0.0
176
     1
 90
        0
176
     1
290
     0
176
     1
290
     1
176
     1
290
     1
176
     1
290
     0
176
     1
290
     0
176
     1
290
     0
176
     1
290
     0
176
     1
290
     0
176
     1
290
     0
176
     1
 90
       50
176
     1
 40
0.0
176
     1
 40
1.0
176
     1
 90
        0
176
     1
 62
    18
420
        0
176
     1
 90
       50
176
     1
 90
        3
176
     1
 62
     5
420
      255
176
     1
290
     0
176
     1
 90
       50
176
     1
 90
       50
176
     1
 90
       50
176
     1
290
     0
176
     1
 90
       50
176
     1
 62
   256
176
     0
 40
1.0
176
     0
 90
        2
176
     1
  1
strokes_ogs.tif
176
     1
290
     0
176
     1
 40
1.0
176
     1
 40
1.0
176
     1
  0
VISUALSTYLE
  5
3C
102
{ACAD_REACTORS
330
29
102
}
330
29
100
AcDbVisualStyle
  2
X-Ray
 70
    25
177
     3
291
     0
 70
    58
 90
        2
176
     1
 90
        2
176
     1
 90
        1
176
     1
 90
        1
176
     1
 40
0.5
176
     1
 40
30.0
176
     1
 62
     7
420
 16777215
176
     1
 90
        1
176
     1
 90
        0
176
     1
 62
     7
176
     1
 62
   257
176
     1
 90
        1
176
     1
 90
        1
176
     1
 40
1.0
176
     1
 90
        8
176
     1
 62
     7
176
     1
 40
1.0
176
     1
 90
        1
176
     1
 90
        6
176
     1
 90
        2
176
     1
 62
     7
176
     1
 90
        3
176
     1
 90
        0
176
     1
 90
        0
176
     1
290
     0
176
     1
 90
       13
176
     1
 40
0.0
176
     1
 90
        0
176
     1
290
     0
176
     1
290
     1
176
     1
290
     1
176
     1
290
     0
176
     1
290
     0
176
     1
290
     0
176
     1
290
     0
176
     1
290
     0
176
     1
290
     0
176
     1
 90
       50
176
     1
 40
0.0
176
     1
 40
1.0
176
     1
 90
        0
176
     1
 62
    18
420
        0
176
     1
 90
       50
176
     1
 90
        3
176
     1
 62
     5
420
      255
176
     1
290
     0
176
     1
 90
       50
176
     1
 90
       50
176
     1
 90
       50
176
     1
290
     0
176
     1
 90
       50
176
     1
 62
   256
176
     0
 40
1.0
176
     0
 90
        2
176
     1
  1
strokes_ogs.tif
176
     1
290
     0
176
     1
 40
1.0
176
     1
 40
1.0
176
     1
  0
DICTIONARYVAR
  5
81
102
{ACAD_REACTORS
330
7C
102
}
330
7C
100
DictionaryVariables
280
     0
  1
1:1
  0
DICTIONARYVAR
  5
7E
102
{ACAD_REACTORS
330
7C
102
}
330
7C
100
DictionaryVariables
280
     0
  1
STANDARD
  0
DICTIONARYVAR
  5
7D
102
{ACAD_REACTORS
330
7C
102
}
330
7C
100
DictionaryVariables
280
     0
  1
STANDARD
  0
DICTIONARYVAR
  5
7F
102
{ACAD_REACTORS
330
7C
102
}
330
7C
100
DictionaryVariables
280
     0
  1
Imperial24
  0
DICTIONARYVAR
  5
80
102
{ACAD_REACTORS
330
7C
102
}
330
7C
100
DictionaryVariables
280
     0
  1
Imperial24
  0
XRECORD
  5
2EB
102
{ACAD_REACTORS
330
2E8
102
}
330
2E8
100
AcDbXrecord
280
     1
  1
BUILDING_ID
  1
Progetto per messa in tavola DXF, DWG
  1
FLOOR_ID
  1
694395
  0
XRECORD
  5
2EA
102
{ACAD_REACTORS
330
2E8
102
}
330
2E8
100
AcDbXrecord
280
     1
  1
-2001160
  1
Apparecchi idraulici
  0
XRECORD
  5
2E9
102
{ACAD_REACTORS
330
2E8
102
}
330
2E8
100
AcDbXrecord
280
     1
  1
975047
  1
Automatic flow rate regulator valve_Caleffi_121 DN15 : 3/4''_Insulation
  1
982133
  1
Automatic flow rate regulator valve_Caleffi_121 DN15 : 1 1/2''_Insulation
  0
DICTIONARY
  5
1A
330
19
100
AcDbDictionary
280
     1
281
     1
  3
BUMPTILE
360
1C
  3
DIFFUSETILE
360
1B
  3
OPACITYTILE
360
1F
  3
REFLECTIONTILE
360
1E
  3
REFRACTIONTILE
360
20
  3
SPECULARTILE
360
1D
  0
DICTIONARY
  5
12
330
11
100
AcDbDictionary
280
     1
281
     1
  3
BUMPTILE
360
14
  3
DIFFUSETILE
360
13
  3
OPACITYTILE
360
17
  3
REFLECTIONTILE
360
16
  3
REFRACTIONTILE
360
18
  3
SPECULARTILE
360
15
  0
DICTIONARY
  5
22
330
21
100
AcDbDictionary
280
     1
281
     1
  3
BUMPTILE
360
24
  3
DIFFUSETILE
360
23
  3
OPACITYTILE
360
27
  3
REFLECTIONTILE
360
26
  3
REFRACTIONTILE
360
28
  3
SPECULARTILE
360
25
  0
DICTIONARY
  5
2EE
330
65
100
AcDbDictionary
280
     1
281
     1
  3
ACAD_ROUNDTRIP_2008_TABLESTYLE_CELLSTYLEMAP
360
2EF
  0
XRECORD
  5
1C
102
{ACAD_REACTORS
330
1A
102
}
330
1A
100
AcDbXrecord
280
     1
270
     1
271
     1
  0
XRECORD
  5
1B
102
{ACAD_REACTORS
330
1A
102
}
330
1A
100
AcDbXrecord
280
     1
270
     1
271
     1
  0
XRECORD
  5
1F
102
{ACAD_REACTORS
330
1A
102
}
330
1A
100
AcDbXrecord
280
     1
270
     1
271
     1
  0
XRECORD
  5
1E
102
{ACAD_REACTORS
330
1A
102
}
330
1A
100
AcDbXrecord
280
     1
270
     1
271
     1
  0
XRECORD
  5
20
102
{ACAD_REACTORS
330
1A
102
}
330
1A
100
AcDbXrecord
280
     1
270
     1
271
     1
  0
XRECORD
  5
1D
102
{ACAD_REACTORS
330
1A
102
}
330
1A
100
AcDbXrecord
280
     1
270
     1
271
     1
  0
XRECORD
  5
14
102
{ACAD_REACTORS
330
12
102
}
330
12
100
AcDbXrecord
280
     1
270
     1
271
     1
  0
XRECORD
  5
13
102
{ACAD_REACTORS
330
12
102
}
330
12
100
AcDbXrecord
280
     1
270
     1
271
     1
  0
XRECORD
  5
17
102
{ACAD_REACTORS
330
12
102
}
330
12
100
AcDbXrecord
280
     1
270
     1
271
     1
  0
XRECORD
  5
16
102
{ACAD_REACTORS
330
12
102
}
330
12
100
AcDbXrecord
280
     1
270
     1
271
     1
  0
XRECORD
  5
18
102
{ACAD_REACTORS
330
12
102
}
330
12
100
AcDbXrecord
280
     1
270
     1
271
     1
  0
XRECORD
  5
15
102
{ACAD_REACTORS
330
12
102
}
330
12
100
AcDbXrecord
280
     1
270
     1
271
     1
  0
XRECORD
  5
24
102
{ACAD_REACTORS
330
22
102
}
330
22
100
AcDbXrecord
280
     1
270
     1
271
     1
  0
XRECORD
  5
23
102
{ACAD_REACTORS
330
22
102
}
330
22
100
AcDbXrecord
280
     1
270
     1
271
     1
  0
XRECORD
  5
27
102
{ACAD_REACTORS
330
22
102
}
330
22
100
AcDbXrecord
280
     1
270
     1
271
     1
  0
XRECORD
  5
26
102
{ACAD_REACTORS
330
22
102
}
330
22
100
AcDbXrecord
280
     1
270
     1
271
     1
  0
XRECORD
  5
28
102
{ACAD_REACTORS
330
22
102
}
330
22
100
AcDbXrecord
280
     1
270
     1
271
     1
  0
XRECORD
  5
25
102
{ACAD_REACTORS
330
22
102
}
330
22
100
AcDbXrecord
280
     1
270
     1
271
     1
  0
CELLSTYLEMAP
  5
2EF
102
{ACAD_REACTORS
330
2EE
102
}
330
2EE
100
AcDbCellStyleMap
 90
        3
300
CELLSTYLE
  1
TABLEFORMAT_BEGIN
 90
        5
170
     1
 91
        0
 92
    32768
 62
   257
 93
        1
300
CONTENTFORMAT
  1
CONTENTFORMAT_BEGIN
 90
        0
 91
        0
 92
      512
 93
        0
300

 40
0.0
140
1.0
 94
        5
 62
     0
340
55
144
0.25
309
CONTENTFORMAT_END
171
     0
 94
        0
309
TABLEFORMAT_END
  1
CELLSTYLE_BEGIN
 90
        1
 91
        1
300
_TITLE
309
CELLSTYLE_END
300
CELLSTYLE
  1
TABLEFORMAT_BEGIN
 90
        5
170
     1
 91
        0
 92
        0
 62
   257
 93
        1
300
CONTENTFORMAT
  1
CONTENTFORMAT_BEGIN
 90
        0
 91
        0
 92
      512
 93
        0
300

 40
0.0
140
1.0
 94
        5
 62
     0
340
55
144
0.18
309
CONTENTFORMAT_END
171
     0
 94
        0
309
TABLEFORMAT_END
  1
CELLSTYLE_BEGIN
 90
        2
 91
        1
300
_HEADER
309
CELLSTYLE_END
300
CELLSTYLE
  1
TABLEFORMAT_BEGIN
 90
        5
170
     1
 91
        0
 92
        0
 62
   257
 93
        1
300
CONTENTFORMAT
  1
CONTENTFORMAT_BEGIN
 90
        0
 91
        0
 92
      512
 93
        0
300

 40
0.0
140
1.0
 94
        2
 62
     0
340
55
144
0.18
309
CONTENTFORMAT_END
171
     0
 94
        0
309
TABLEFORMAT_END
  1
CELLSTYLE_BEGIN
 90
        3
 91
        2
300
_DATA
309
CELLSTYLE_END
  0
ENDSEC
  0
EOF
