  0
SECTION
  2
HEADER
  9
$ACADVER
  1
AC1027
  9
$ACADMAINTVER
 70
    20
  9
$DWGCODEPAGE
  3
ANSI_1252
  9
$REQUIREDVERSIONS
160
                 0
  9
$INSBASE
 10
0.0
 20
0.0
 30
0.0
  9
$EXTMIN
 10
735.7569469865024
 20
1437.10083519296
 30
-0.00000001
  9
$EXTMAX
 10
1317.97824481076
 20
2065.000000009995
 30
0.00000001
  9
$LIMMIN
 10
0.0
 20
0.0
  9
$LIMMAX
 10
12.0
 20
9.0
  9
$ORTHOMODE
 70
     0
  9
$REGENMODE
 70
     1
  9
$FILLMODE
 70
     1
  9
$QTEXTMODE
 70
     0
  9
$MIRRTEXT
 70
     0
  9
$LTSCALE
 40
1.0
  9
$ATTMODE
 70
     1
  9
$TEXTSIZE
 40
0.2
  9
$TRACEWID
 40
0.05
  9
$TEXTSTYLE
  7
Standard
  9
$CLAYER
  8
0
  9
$CELTYPE
  6
ByLayer
  9
$CECOLOR
 62
   256
  9
$CELTSCALE
 40
1.0
  9
$DISPSILH
 70
     0
  9
$DIMSCALE
 40
1.0
  9
$DIMASZ
 40
0.18
  9
$DIMEXO
 40
0.0625
  9
$DIMDLI
 40
0.38
  9
$DIMRND
 40
0.0
  9
$DIMDLE
 40
0.0
  9
$DIMEXE
 40
0.18
  9
$DIMTP
 40
0.0
  9
$DIMTM
 40
0.0
  9
$DIMTXT
 40
0.18
  9
$DIMCEN
 40
0.09
  9
$DIMTSZ
 40
0.0
  9
$DIMTOL
 70
     0
  9
$DIMLIM
 70
     0
  9
$DIMTIH
 70
     1
  9
$DIMTOH
 70
     1
  9
$DIMSE1
 70
     0
  9
$DIMSE2
 70
     0
  9
$DIMTAD
 70
     0
  9
$DIMZIN
 70
     0
  9
$DIMBLK
  1

  9
$DIMASO
 70
     1
  9
$DIMSHO
 70
     1
  9
$DIMPOST
  1

  9
$DIMAPOST
  1

  9
$DIMALT
 70
     0
  9
$DIMALTD
 70
     2
  9
$DIMALTF
 40
25.4
  9
$DIMLFAC
 40
1.0
  9
$DIMTOFL
 70
     0
  9
$DIMTVP
 40
0.0
  9
$DIMTIX
 70
     0
  9
$DIMSOXD
 70
     0
  9
$DIMSAH
 70
     0
  9
$DIMBLK1
  1

  9
$DIMBLK2
  1

  9
$DIMSTYLE
  2
Standard
  9
$DIMCLRD
 70
     0
  9
$DIMCLRE
 70
     0
  9
$DIMCLRT
 70
     0
  9
$DIMTFAC
 40
1.0
  9
$DIMGAP
 40
0.09
  9
$DIMJUST
 70
     0
  9
$DIMSD1
 70
     0
  9
$DIMSD2
 70
     0
  9
$DIMTOLJ
 70
     1
  9
$DIMTZIN
 70
     0
  9
$DIMALTZ
 70
     0
  9
$DIMALTTZ
 70
     0
  9
$DIMUPT
 70
     0
  9
$DIMDEC
 70
     4
  9
$DIMTDEC
 70
     4
  9
$DIMALTU
 70
     2
  9
$DIMALTTD
 70
     2
  9
$DIMTXSTY
  7
Standard
  9
$DIMAUNIT
 70
     0
  9
$DIMADEC
 70
     0
  9
$DIMALTRND
 40
0.0
  9
$DIMAZIN
 70
     0
  9
$DIMDSEP
 70
    46
  9
$DIMATFIT
 70
     3
  9
$DIMFRAC
 70
     0
  9
$DIMLDRBLK
  1

  9
$DIMLUNIT
 70
     2
  9
$DIMLWD
 70
    -2
  9
$DIMLWE
 70
    -2
  9
$DIMTMOVE
 70
     0
  9
$DIMFXL
 40
1.0
  9
$DIMFXLON
 70
     0
  9
$DIMJOGANG
 40
0.7853981633974483
  9
$DIMTFILL
 70
     0
  9
$DIMTFILLCLR
 70
     0
  9
$DIMARCSYM
 70
     0
  9
$DIMLTYPE
  6

  9
$DIMLTEX1
  6

  9
$DIMLTEX2
  6

  9
$DIMTXTDIRECTION
 70
     0
  9
$LUNITS
 70
     2
  9
$LUPREC
 70
     4
  9
$SKETCHINC
 40
0.1
  9
$FILLETRAD
 40
0.0
  9
$AUNITS
 70
     0
  9
$AUPREC
 70
     0
  9
$MENU
  1
.
  9
$ELEVATION
 40
0.0
  9
$PELEVATION
 40
0.0
  9
$THICKNESS
 40
0.0
  9
$LIMCHECK
 70
     0
  9
$CHAMFERA
 40
0.0
  9
$CHAMFERB
 40
0.0
  9
$CHAMFERC
 40
0.0
  9
$CHAMFERD
 40
0.0
  9
$SKPOLY
 70
     0
  9
$TDCREATE
 40
2457585.440235741
  9
$TDUCREATE
 40
2457585.356902407
  9
$TDUPDATE
 40
2457585.440235741
  9
$TDUUPDATE
 40
2457585.356902407
  9
$TDINDWG
 40
0.0000211574
  9
$TDUSRTIMER
 40
0.0000211574
  9
$USRTIMER
 70
     1
  9
$ANGBASE
 50
0.0
  9
$ANGDIR
 70
     0
  9
$PDMODE
 70
     0
  9
$PDSIZE
 40
0.0
  9
$PLINEWID
 40
0.0
  9
$SPLFRAME
 70
     0
  9
$SPLINETYPE
 70
     6
  9
$SPLINESEGS
 70
     8
  9
$HANDSEED
  5
27E
  9
$SURFTAB1
 70
     6
  9
$SURFTAB2
 70
     6
  9
$SURFTYPE
 70
     6
  9
$SURFU
 70
     6
  9
$SURFV
 70
     6
  9
$UCSBASE
  2

  9
$UCSNAME
  2

  9
$UCSORG
 10
0.0
 20
0.0
 30
0.0
  9
$UCSXDIR
 10
1.0
 20
0.0
 30
0.0
  9
$UCSYDIR
 10
0.0
 20
1.0
 30
0.0
  9
$UCSORTHOREF
  2

  9
$UCSORTHOVIEW
 70
     0
  9
$UCSORGTOP
 10
0.0
 20
0.0
 30
0.0
  9
$UCSORGBOTTOM
 10
0.0
 20
0.0
 30
0.0
  9
$UCSORGLEFT
 10
0.0
 20
0.0
 30
0.0
  9
$UCSORGRIGHT
 10
0.0
 20
0.0
 30
0.0
  9
$UCSORGFRONT
 10
0.0
 20
0.0
 30
0.0
  9
$UCSORGBACK
 10
0.0
 20
0.0
 30
0.0
  9
$PUCSBASE
  2

  9
$PUCSNAME
  2

  9
$PUCSORG
 10
0.0
 20
0.0
 30
0.0
  9
$PUCSXDIR
 10
1.0
 20
0.0
 30
0.0
  9
$PUCSYDIR
 10
0.0
 20
1.0
 30
0.0
  9
$PUCSORTHOREF
  2

  9
$PUCSORTHOVIEW
 70
     0
  9
$PUCSORGTOP
 10
0.0
 20
0.0
 30
0.0
  9
$PUCSORGBOTTOM
 10
0.0
 20
0.0
 30
0.0
  9
$PUCSORGLEFT
 10
0.0
 20
0.0
 30
0.0
  9
$PUCSORGRIGHT
 10
0.0
 20
0.0
 30
0.0
  9
$PUCSORGFRONT
 10
0.0
 20
0.0
 30
0.0
  9
$PUCSORGBACK
 10
0.0
 20
0.0
 30
0.0
  9
$USERI1
 70
     0
  9
$USERI2
 70
     0
  9
$USERI3
 70
     0
  9
$USERI4
 70
     0
  9
$USERI5
 70
     0
  9
$USERR1
 40
0.0
  9
$USERR2
 40
0.0
  9
$USERR3
 40
0.0
  9
$USERR4
 40
0.0
  9
$USERR5
 40
0.0
  9
$WORLDVIEW
 70
     1
  9
$SHADEDGE
 70
     3
  9
$SHADEDIF
 70
    70
  9
$TILEMODE
 70
     1
  9
$MAXACTVP
 70
    64
  9
$PINSBASE
 10
0.0
 20
0.0
 30
0.0
  9
$PLIMCHECK
 70
     0
  9
$PEXTMIN
 10
1.000000000000000E+20
 20
1.000000000000000E+20
 30
1.000000000000000E+20
  9
$PEXTMAX
 10
-1.000000000000000E+20
 20
-1.000000000000000E+20
 30
-1.000000000000000E+20
  9
$PLIMMIN
 10
0.0
 20
0.0
  9
$PLIMMAX
 10
12.0
 20
9.0
  9
$UNITMODE
 70
     0
  9
$VISRETAIN
 70
     1
  9
$PLINEGEN
 70
     0
  9
$PSLTSCALE
 70
     1
  9
$TREEDEPTH
 70
  3020
  9
$CMLSTYLE
  2
Standard
  9
$CMLJUST
 70
     0
  9
$CMLSCALE
 40
1.0
  9
$PROXYGRAPHICS
 70
     1
  9
$MEASUREMENT
 70
     1
  9
$CELWEIGHT
370
    -1
  9
$ENDCAPS
280
     0
  9
$JOINSTYLE
280
     0
  9
$LWDISPLAY
290
     0
  9
$INSUNITS
 70
     4
  9
$HYPERLINKBASE
  1

  9
$STYLESHEET
  1

  9
$XEDIT
290
     1
  9
$CEPSNTYPE
380
     0
  9
$PSTYLEMODE
290
     1
  9
$FINGERPRINTGUID
  2
{1506CA30-B1D5-4B16-9641-A42FF6AB9A02}
  9
$VERSIONGUID
  2
{8627AE0D-AC9D-460C-A82E-04A398F3F19F}
  9
$EXTNAMES
290
     1
  9
$PSVPSCALE
 40
0.0
  9
$OLESTARTUP
290
     0
  9
$SORTENTS
280
   127
  9
$INDEXCTL
280
     0
  9
$HIDETEXT
280
     1
  9
$XCLIPFRAME
280
     2
  9
$HALOGAP
280
     0
  9
$OBSCOLOR
 70
   257
  9
$OBSLTYPE
280
     0
  9
$INTERSECTIONDISPLAY
280
     0
  9
$INTERSECTIONCOLOR
 70
   257
  9
$DIMASSOC
280
     2
  9
$PROJECTNAME
  1

  9
$CAMERADISPLAY
290
     0
  9
$LENSLENGTH
 40
50.0
  9
$CAMERAHEIGHT
 40
0.0
  9
$STEPSPERSEC
 40
2.0
  9
$STEPSIZE
 40
6.0
  9
$3DDWFPREC
 40
2.0
  9
$PSOLWIDTH
 40
0.25
  9
$PSOLHEIGHT
 40
4.0
  9
$LOFTANG1
 40
1.570796326794896
  9
$LOFTANG2
 40
1.570796326794896
  9
$LOFTMAG1
 40
0.0
  9
$LOFTMAG2
 40
0.0
  9
$LOFTPARAM
 70
     7
  9
$LOFTNORMALS
280
     1
  9
$LATITUDE
 40
37.795
  9
$LONGITUDE
 40
-122.394
  9
$NORTHDIRECTION
 40
0.0
  9
$TIMEZONE
 70
 -8000
  9
$LIGHTGLYPHDISPLAY
280
     1
  9
$TILEMODELIGHTSYNCH
280
     1
  9
$CMATERIAL
347
11
  9
$SOLIDHIST
280
     0
  9
$SHOWHIST
280
     1
  9
$DWFFRAME
280
     2
  9
$DGNFRAME
280
     0
  9
$REALWORLDSCALE
290
     1
  9
$INTERFERECOLOR
 62
     1
  9
$INTERFEREOBJVS
345
33
  9
$INTERFEREVPVS
346
30
  9
$CSHADOW
280
     0
  9
$SHADOWPLANELOCATION
 40
0.0
  0
ENDSEC
  0
SECTION
  2
CLASSES
  0
CLASS
  1
ACDBDICTIONARYWDFLT
  2
AcDbDictionaryWithDefault
  3
ObjectDBX Classes
 90
        0
 91
        1
280
     0
281
     0
  0
CLASS
  1
MATERIAL
  2
AcDbMaterial
  3
ObjectDBX Classes
 90
     1153
 91
        3
280
     0
281
     0
  0
CLASS
  1
VISUALSTYLE
  2
AcDbVisualStyle
  3
ObjectDBX Classes
 90
     4095
 91
       24
280
     0
281
     0
  0
CLASS
  1
SCALE
  2
AcDbScale
  3
ObjectDBX Classes
 90
     1153
 91
       17
280
     0
281
     0
  0
CLASS
  1
TABLESTYLE
  2
AcDbTableStyle
  3
ObjectDBX Classes
 90
     4095
 91
        1
280
     0
281
     0
  0
CLASS
  1
MLEADERSTYLE
  2
AcDbMLeaderStyle
  3
ACDB_MLEADERSTYLE_CLASS
 90
     4095
 91
        1
280
     0
281
     0
  0
CLASS
  1
ACDBSECTIONVIEWSTYLE
  2
AcDbSectionViewStyle
  3
ObjectDBX Classes
 90
     1025
 91
        1
280
     0
281
     0
  0
CLASS
  1
ACDBDETAILVIEWSTYLE
  2
AcDbDetailViewStyle
  3
ObjectDBX Classes
 90
     1025
 91
        1
280
     0
281
     0
  0
CLASS
  1
RASTERVARIABLES
  2
AcDbRasterVariables
  3
ISM
 90
        0
 91
        1
280
     0
281
     0
  0
CLASS
  1
DICTIONARYVAR
  2
AcDbDictionaryVar
  3
ObjectDBX Classes
 90
        0
 91
        5
280
     0
281
     0
  0
CLASS
  1
CELLSTYLEMAP
  2
AcDbCellStyleMap
  3
ObjectDBX Classes
 90
     1152
 91
        2
280
     0
281
     0
  0
CLASS
  1
SORTENTSTABLE
  2
AcDbSortentsTable
  3
ObjectDBX Classes
 90
        0
 91
        1
280
     0
281
     0
  0
ENDSEC
  0
SECTION
  2
TABLES
  0
TABLE
  2
VPORT
  5
8
330
0
100
AcDbSymbolTable
 70
     1
  0
VPORT
  5
57
330
8
100
AcDbSymbolTableRecord
100
AcDbViewportTableRecord
  2
*Active
 70
     0
 10
0.0
 20
0.0
 11
1.0
 21
1.0
 12
1026.867595898631
 22
1751.050417601477
 13
0.0
 23
0.0
 14
1.0
 24
1.0
 15
0.0
 25
0.0
 16
0.0
 26
0.0
 36
1.0
 17
0.0
 27
0.0
 37
0.0
 40
627.8991648170347
 41
0.9272528623189247
 42
50.0
 43
0.0
 44
0.0
 50
0.0
 51
0.0
 71
     0
 72
  1000
 73
     1
 74
     1
 75
     0
 76
     0
 77
     0
 78
     0
281
     0
 65
     1
110
0.0
120
0.0
130
0.0
111
1.0
121
0.0
131
0.0
112
0.0
122
1.0
132
0.0
 79
     0
146
0.0
 60
     3
 61
     5
292
     1
282
     1
141
0.0
142
0.0
 63
   250
421
  3355443
  0
ENDTAB
  0
TABLE
  2
LTYPE
  5
5
330
0
100
AcDbSymbolTable
 70
     3
  0
LTYPE
  5
5B
330
5
100
AcDbSymbolTableRecord
100
AcDbLinetypeTableRecord
  2
ByBlock
 70
     0
  3

 72
    65
 73
     0
 40
0.0
  0
LTYPE
  5
5C
330
5
100
AcDbSymbolTableRecord
100
AcDbLinetypeTableRecord
  2
ByLayer
 70
     0
  3

 72
    65
 73
     0
 40
0.0
  0
LTYPE
  5
5D
330
5
100
AcDbSymbolTableRecord
100
AcDbLinetypeTableRecord
  2
Continuous
 70
     0
  3
Solid line
 72
    65
 73
     0
 40
0.0
  0
LTYPE
  5
69
330
5
100
AcDbSymbolTableRecord
100
AcDbLinetypeTableRecord
  2
PHANTOM2
 70
     0
  3
___ _ _ ___ _ _ ___ _ _ ___ _ _
 72
    65
 73
     6
 40
1.25
 49
0.625
 74
     0
 49
-0.125
 74
     0
 49
0.125
 74
     0
 49
-0.125
 74
     0
 49
0.125
 74
     0
 49
-0.125
 74
     0
  0
LTYPE
  5
86
330
5
100
AcDbSymbolTableRecord
100
AcDbLinetypeTableRecord
  2
Nascosto 1_5 mm
 70
     0
  3

 72
    65
 73
     2
 40
2.2
 49
1.5
 74
     0
 49
-0.7000000000000001
 74
     0
  0
ENDTAB
  0
TABLE
  2
LAYER
  5
2
330
0
100
AcDbSymbolTable
 70
     3
  0
LAYER
  5
54
330
2
100
AcDbSymbolTableRecord
100
AcDbLayerTableRecord
  2
0
 70
     0
 62
     7
  6
Continuous
370
    -3
390
F
347
21
348
0
  0
LAYER
  5
85
330
2
100
AcDbSymbolTableRecord
100
AcDbLayerTableRecord
  2
P-SANR-FIXT
 70
     0
 62
     6
  6
Continuous
370
    18
390
F
347
21
348
0
  0
ENDTAB
  0
TABLE
  2
STYLE
  5
3
330
0
100
AcDbSymbolTable
 70
     2
  0
STYLE
  5
55
330
3
100
AcDbSymbolTableRecord
100
AcDbTextStyleTableRecord
  2
Standard
 70
     0
 40
0.0
 41
1.0
 50
0.0
 71
     0
 42
0.2
  3
txt
  4

  0
STYLE
  5
5A
330
3
100
AcDbSymbolTableRecord
100
AcDbTextStyleTableRecord
  2
Annotative
 70
     0
 40
0.0
 41
1.0
 50
0.0
 71
     0
 42
0.2
  3
txt
  4

1001
AcadAnnotative
1000
AnnotativeData
1002
{
1070
     1
1070
     1
1002
}
  0
ENDTAB
  0
TABLE
  2
VIEW
  5
6
330
0
100
AcDbSymbolTable
 70
     0
  0
ENDTAB
  0
TABLE
  2
UCS
  5
7
330
0
100
AcDbSymbolTable
 70
     0
  0
ENDTAB
  0
TABLE
  2
APPID
  5
9
330
0
100
AcDbSymbolTable
 70
     3
  0
APPID
  5
56
330
9
100
AcDbSymbolTableRecord
100
AcDbRegAppTableRecord
  2
ACAD
 70
     0
  0
APPID
  5
5E
330
9
100
AcDbSymbolTableRecord
100
AcDbRegAppTableRecord
  2
AcadAnnotative
 70
     0
  0
APPID
  5
79
330
9
100
AcDbSymbolTableRecord
100
AcDbRegAppTableRecord
  2
REVIT
 70
     0
  0
ENDTAB
  0
TABLE
  2
DIMSTYLE
  5
A
330
0
100
AcDbSymbolTable
 70
     2
100
AcDbDimStyleTable
 71
     0
  0
DIMSTYLE
105
58
330
A
100
AcDbSymbolTableRecord
100
AcDbDimStyleTableRecord
  2
Standard
 70
     0
340
55
  0
DIMSTYLE
105
59
330
A
100
AcDbSymbolTableRecord
100
AcDbDimStyleTableRecord
  2
Annotative
 70
     0
340
55
1001
AcadAnnotative
1000
AnnotativeData
1002
{
1070
     1
1070
     1
1002
}
  0
ENDTAB
  0
TABLE
  2
BLOCK_RECORD
  5
1
330
0
100
AcDbSymbolTable
 70
     4
  0
BLOCK_RECORD
  5
71
102
{ACAD_XDICTIONARY
360
279
102
}
330
1
100
AcDbSymbolTableRecord
100
AcDbBlockTableRecord
  2
*Model_Space
340
74
 70
     0
280
     1
281
     0
  0
BLOCK_RECORD
  5
6D
330
1
100
AcDbSymbolTableRecord
100
AcDbBlockTableRecord
  2
*Paper_Space
340
70
 70
     0
280
     1
281
     0
  0
BLOCK_RECORD
  5
75
330
1
100
AcDbSymbolTableRecord
100
AcDbBlockTableRecord
  2
*Paper_Space0
340
78
 70
     0
280
     1
281
     0
  0
BLOCK_RECORD
  5
87
330
1
100
AcDbSymbolTableRecord
100
AcDbBlockTableRecord
  2
Automatic flow rate regulator valve_Caleffi_121 DN15 - 1 1_2___Insulation-982133-Est - Idraulica
340
0
102
{BLKREFS
331
182
102
}
 70
     0
280
     1
281
     0
  0
BLOCK_RECORD
  5
183
330
1
100
AcDbSymbolTableRecord
100
AcDbBlockTableRecord
  2
Automatic flow rate regulator valve_Caleffi_121 DN15 - 3_4___Insulation-975047-Est - Idraulica
340
0
102
{BLKREFS
331
1DD
102
}
 70
     0
280
     1
281
     0
  0
BLOCK_RECORD
  5
1DE
330
1
100
AcDbSymbolTableRecord
100
AcDbBlockTableRecord
  2
Automatic flow rate regulator valve_Caleffi_121 DN15 - 3_4___Insulation-V1-Est - Idraulica
340
0
102
{BLKREFS
331
273
102
}
 70
     0
280
     1
281
     0
  0
ENDTAB
  0
ENDSEC
  0
SECTION
  2
BLOCKS
  0
BLOCK
  5
72
330
71
100
AcDbEntity
  8
0
100
AcDbBlockBegin
  2
*Model_Space
 70
     0
 10
0.0
 20
0.0
 30
0.0
  3
*Model_Space
  1

  0
ENDBLK
  5
73
330
71
100
AcDbEntity
  8
0
100
AcDbBlockEnd
  0
BLOCK
  5
6E
330
6D
100
AcDbEntity
 67
     1
  8
0
100
AcDbBlockBegin
  2
*Paper_Space
 70
     0
 10
0.0
 20
0.0
 30
0.0
  3
*Paper_Space
  1

  0
ENDBLK
  5
6F
330
6D
100
AcDbEntity
 67
     1
  8
0
100
AcDbBlockEnd
  0
BLOCK
  5
76
330
75
100
AcDbEntity
 67
     1
  8
0
100
AcDbBlockBegin
  2
*Paper_Space0
 70
     0
 10
0.0
 20
0.0
 30
0.0
  3
*Paper_Space0
  1

  0
ENDBLK
  5
77
330
75
100
AcDbEntity
 67
     1
  8
0
100
AcDbBlockEnd
  0
BLOCK
  5
180
330
87
100
AcDbEntity
  8
0
100
AcDbBlockBegin
  2
Automatic flow rate regulator valve_Caleffi_121 DN15 - 1 1_2___Insulation-982133-Est - Idraulica
 70
     0
 10
0.0
 20
0.0
 30
0.0
  3
Automatic flow rate regulator valve_Caleffi_121 DN15 - 1 1_2___Insulation-982133-Est - Idraulica
  1

  0
LWPOLYLINE
  5
88
330
87
100
AcDbEntity
  8
P-SANR-FIXT
100
AcDbPolyline
 90
       38
 70
   128
 43
0.0
 10
857.208686169333
 20
1944.999999999996
 10
857.3286541718928
 20
1944.997600319979
 10
857.4484302512402
 20
1944.990405118903
 10
857.5678227911994
 20
1944.978425907557
 10
857.6866407891756
 20
1944.961681850122
 10
857.8046941617181
 20
1944.940199733519
 10
857.9217940486142
 20
1944.914013924552
 10
858.0377531150251
 20
1944.883166314928
 10
858.1523858511813
 20
1944.847706254243
 10
858.2655088691582
 20
1944.807690471029
 10
858.376941196259
 20
1944.763182982004
 10
858.4865045645308
 20
1944.714254989655
 10
858.5940236959572
 20
1944.660984768333
 10
858.6993265828642
 20
1944.603457539028
 10
858.8022447630956
 20
1944.541765333036
 10
858.902613589518
 20
1944.476006844725
 10
859.0002724934201
 20
1944.406287273648
 10
859.0950652413884
 20
1944.332718156248
 10
859.1868401852472
 20
1944.255417187418
 10
859.2754505046645
 20
1944.174508032218
 10
859.3607544420313
 20
1944.090120128037
 10
859.4426155292456
 20
1944.002388477519
 10
859.5209028060297
 20
1943.911453432592
 10
859.5954910294421
 20
1943.817460469926
 10
859.6662608742358
 20
1943.720559958213
 10
859.7330991237567
 20
1943.620906917599
 10
859.795898851063
 20
1943.518660771694
 10
859.8545595899876
 20
1943.413985092517
 10
859.9089874958623
 20
1943.307047338825
 10
859.9590954956482
 20
1943.198018588214
 10
860.0048034272345
 20
1943.087073263425
 10
860.0460381676816
 20
1942.974388853312
 10
860.0827337502005
 20
1942.860145628891
 10
860.1148314696878
 20
1942.744526354953
 10
860.1422799766389
 20
1942.62771599767
 10
860.1650353592983
 20
1942.509901428696
 10
860.183061213908
 20
1942.39127112621
 10
860.1962271071236
 20
1942.273128440522
  0
LWPOLYLINE
  5
89
330
87
100
AcDbEntity
  8
P-SANR-FIXT
100
AcDbPolyline
 90
       38
 70
   128
 43
0.0
 10
736.3749716989854
 20
1942.273128440522
 10
736.3882836375657
 20
1942.392379739859
 10
736.4063537080763
 20
1942.511003315315
 10
736.4291530022593
 20
1942.628809394476
 10
736.4566450461076
 20
1942.745609512744
 10
736.4887858582155
 20
1942.861216814847
 10
736.5255240201399
 20
1942.975446353762
 10
736.5668007586592
 20
1943.088115386595
 10
736.6125500397966
 20
1943.199043666929
 10
736.662698674462
 20
1943.308053733179
 10
736.7171664355374
 20
1943.414971192491
 10
736.7758661862242
 20
1943.51962499974
 10
736.8387040194437
 20
1943.621847731158
 10
736.905579408067
 20
1943.721475852183
 10
736.9763853657383
 20
1943.818349979073
 10
737.0510086180301
 20
1943.912315133889
 10
737.1293297836573
 20
1944.003220992431
 10
737.2112235654624
 20
1944.090922124716
 10
737.2965589508645
 20
1944.175278227641
 10
737.3851994214509
 20
1944.256154349436
 10
737.4770031713775
 20
1944.333421105559
 10
737.5718233342281
 20
1944.406954885684
 10
737.6695082179693
 20
1944.476638051447
 10
737.7699015476259
 20
1944.54235912465
 10
737.8728427152858
 20
1944.604012965594
 10
737.9781670370408
 20
1944.661500941287
 10
738.0857060164445
 20
1944.714731083229
 10
738.1952876140696
 20
1944.763618234551
 10
738.3067365227364
 20
1944.808084186238
 10
738.4198744479654
 20
1944.848057802252
 10
738.534520393211
 20
1944.883475133336
 10
738.6504909494172
 20
1944.914279519316
 10
738.7676005884336
 20
1944.940421679744
 10
738.8856619598195
 20
1944.961859792742
 10
739.0044861905659
 20
1944.9785595619
 10
739.123883187251
 20
1944.990494271152
 10
739.2436619401508
 20
1944.997644827508
 10
739.3625126367764
 20
1944.999999999996
  0
LWPOLYLINE
  5
8A
330
87
100
AcDbEntity
  8
P-SANR-FIXT
100
AcDbPolyline
 90
        4
 70
   128
 43
0.0
 10
739.3625126367764
 20
1944.999999999996
 10
739.409644821395
 20
1944.999999999996
 10
739.550965973811
 20
1944.999999999996
 10
739.5643011731315
 20
1944.999999999996
  0
LWPOLYLINE
  5
8B
330
87
100
AcDbEntity
  8
P-SANR-FIXT
100
AcDbPolyline
 90
        4
 70
   128
 43
0.0
 10
856.987252910137
 20
1944.999999999996
 10
857.0969545679664
 20
1944.999999999996
 10
857.1949504738155
 20
1944.999999999996
 10
857.208686169333
 20
1944.999999999996
  0
LWPOLYLINE
  5
8C
330
87
100
AcDbEntity
  8
P-SANR-FIXT
100
AcDbPolyline
 90
       16
 70
   128
 43
0.0
 10
860.1962271071236
 20
1942.273128440522
 10
860.6194774373117
 20
1936.336060967903
 10
860.8049698371287
 20
1930.386817017109
 10
860.7524075583047
 20
1924.434914109359
 10
860.4618746892727
 20
1918.489874019632
 10
859.9338360206466
 20
1912.561207543866
 10
859.1691363016538
 20
1906.658399283706
 10
858.1689988887173
 20
1900.79089247317
 10
856.9350237883467
 20
1894.968073871487
 10
855.4691850974688
 20
1889.199258746285
 10
853.7738278452929
 20
1883.493675971148
 10
851.8516642417658
 20
1877.860453261392
 10
849.7057693386135
 20
1872.308602571661
 10
847.3395761099146
 20
1866.847005678727
 10
844.756869960074
 20
1861.484399972542
 10
842.856273110441
 20
1857.856679857285
  0
LWPOLYLINE
  5
8D
330
87
100
AcDbEntity
  8
P-SANR-FIXT
100
AcDbPolyline
 90
       16
 70
   128
 43
0.0
 10
753.7149256956681
 20
1857.856679857285
 10
750.9856291590426
 20
1863.146183750052
 10
748.4700395073865
 20
1868.540599355187
 10
746.1721811475118
 20
1874.031296758468
 10
744.0957301626106
 20
1879.609492015335
 10
742.2440084313063
 20
1885.266261203331
 10
740.6199783133557
 20
1890.992554698466
 10
739.2262379105069
 20
1896.779211652694
 10
738.0650169100885
 20
1902.616974649307
 10
737.1381730179875
 20
1908.496504512834
 10
736.4471889867147
 20
1914.408395249728
 10
735.9931702433187
 20
1920.343189095944
 10
735.7768431209364
 20
1926.291391647351
 10
735.7985536968164
 20
1932.243487048748
 10
736.0582672386684
 20
1938.189953217207
 10
736.3749716989854
 20
1942.273128440522
  0
LWPOLYLINE
  5
8E
330
87
100
AcDbEntity
  8
P-SANR-FIXT
100
AcDbPolyline
 90
       28
 70
   128
 43
0.0
 10
842.856273110441
 20
1857.856679857285
 10
842.5600659955957
 20
1857.334939167214
 10
842.243231752035
 20
1856.82546093935
 10
841.9062772469603
 20
1856.329060230175
 10
841.5497415357
 20
1855.84653117493
 10
841.1741949993354
 20
1855.378645717168
 10
840.7802384322121
 20
1854.926152373814
 10
840.368502080798
 20
1854.489775037688
 10
839.9396446354231
 20
1854.07021181944
 10
839.4943521765153
 20
1853.668133930717
 10
839.033337077018
 20
1853.28418461037
 10
838.557336862746
 20
1852.918978095405
 10
838.0671130325007
 20
1852.573098638339
 10
837.5634498398349
 20
1852.247099572523
 10
837.0471530384147
 20
1851.941502426916
 10
836.5190485929845
 20
1851.656796091762
 10
835.9799813580011
 20
1851.393436036462
 10
835.4308137260453
 20
1851.151843580926
 10
834.8724242481791
 20
1850.932405221544
 10
834.3057062284501
 20
1850.735472012881
 10
833.7315662947965
 20
1850.56135900606
 10
833.1509229486355
 20
1850.410344744751
 10
832.564705095457
 20
1850.282670819555
 10
831.9738505587729
 20
1850.17854148152
 10
831.3793045797996
 20
1850.098123315371
 10
830.7820183052742
 20
1850.04154497302
 10
830.1829472658209
 20
1850.008896967746
 10
829.6663914832718
 20
1849.999999999995
  0
LWPOLYLINE
  5
8F
330
87
100
AcDbEntity
  8
P-SANR-FIXT
100
AcDbPolyline
 90
       28
 70
   128
 43
0.0
 10
766.9048073228375
 20
1849.999999999995
 10
766.3049673100378
 20
1850.011998400081
 10
765.7060869132997
 20
1850.047974405456
 10
765.1091242135037
 20
1850.107870462187
 10
764.5150342236237
 20
1850.191590749361
 10
763.9247673609114
 20
1850.299001332377
 10
763.3392679264304
 20
1850.429930377215
 10
762.7594725943756
 20
1850.584168425334
 10
762.1863089135955
 20
1850.761468728759
 10
761.620693823711
 20
1850.961547644827
 10
761.0635321882076
 20
1851.184085089952
 10
760.5157153468472
 20
1851.428725051696
 10
759.9781196897151
 20
1851.695076158306
 10
759.4516052551814
 20
1851.98271230483
 10
758.9370143540242
 20
1852.291173334794
 10
758.4351702219118
 20
1852.61996577635
 10
757.9468757024016
 20
1852.968563631731
 10
757.4729119625604
 20
1853.336409218731
 10
757.0140372432653
 20
1853.722914062882
 10
756.5709856461792
 20
1854.127459838882
 10
756.1444659593446
 20
1854.549399359788
 10
755.7351605232745
 20
1854.988057612376
 10
755.3437241393529
 20
1855.442732837017
 10
754.9707830222919
 20
1855.912697650344
 10
754.6169337983225
 20
1856.397200208908
 10
754.282742550719
 20
1856.895465411973
 10
753.9687439141874
 20
1857.406696141504
 10
753.7149256956681
 20
1857.856679857285
  0
LWPOLYLINE
  5
90
330
87
100
AcDbEntity
  8
P-SANR-FIXT
100
AcDbPolyline
 90
        6
 70
   128
 43
0.0
 10
829.6663914832718
 20
1849.999999999995
 10
829.6412901967135
 20
1849.999999999995
 10
829.5660264937424
 20
1849.999999999995
 10
829.4407207802287
 20
1849.999999999995
 10
829.2655735185828
 20
1849.999999999995
 10
829.2139706150175
 20
1849.999999999995
  0
LWPOLYLINE
  5
91
330
87
100
AcDbEntity
  8
P-SANR-FIXT
100
AcDbPolyline
 90
        6
 70
   128
 43
0.0
 10
767.3599688127189
 20
1849.999999999995
 10
767.2188507062608
 20
1849.999999999995
 10
767.0666097194597
 20
1849.999999999995
 10
766.9643124564565
 20
1849.999999999995
 10
766.9121225710496
 20
1849.999999999995
 10
766.9048073228375
 20
1849.999999999995
  0
LINE
  5
92
330
87
100
AcDbEntity
  8
P-SANR-FIXT
100
AcDbLine
 10
739.3625126367749
 20
1944.999999999995
 30
0.0
 11
753.6668952927307
 21
1944.999999999995
 31
0.0
  0
LINE
  5
93
330
87
100
AcDbEntity
  8
P-SANR-FIXT
100
AcDbLine
 10
842.9043035133773
 20
1944.999999999995
 30
0.0
 11
857.2086861693314
 21
1944.999999999995
 31
0.0
  0
ARC
  5
94
330
87
100
AcDbEntity
  8
P-SANR-FIXT
100
AcDbCircle
 10
857.2086861693314
 20
1941.999999999995
 30
0.0
 40
3.0
100
AcDbArc
 50
5.22360221590129
 51
90.0
  0
ARC
  5
95
330
87
100
AcDbEntity
  8
P-SANR-FIXT
100
AcDbCircle
 10
739.3625126367749
 20
1941.999999999995
 30
0.0
 40
2.999999999999988
100
AcDbArc
 50
90.0
 51
174.7763977840987
  0
ARC
  5
96
330
87
100
AcDbEntity
  8
P-SANR-FIXT
100
AcDbCircle
 10
712.0009562093984
 20
1928.724747321567
 30
0.0
 40
148.8132956002056
100
AcDbArc
 50
331.5610986363219
 51
5.223602215904734
  0
ARC
  5
97
330
87
100
AcDbEntity
  8
P-SANR-FIXT
100
AcDbCircle
 10
884.5702425967079
 20
1928.724747321567
 30
0.0
 40
148.8132956002057
100
AcDbArc
 50
202.5124146657849
 51
208.4389013636776
  0
ARC
  5
98
330
87
100
AcDbEntity
  8
P-SANR-FIXT
100
AcDbCircle
 10
884.5702425967079
 20
1928.724747321567
 30
0.0
 40
148.8132956002057
100
AcDbArc
 50
174.7763977840957
 51
202.1271819425031
  0
ARC
  5
99
330
87
100
AcDbEntity
  8
P-SANR-FIXT
100
AcDbCircle
 10
829.66639148327
 20
1864.999999999995
 30
0.0
 40
15.00000000000007
100
AcDbArc
 50
270.0000000000005
 51
331.5610986363258
  0
ARC
  5
9A
330
87
100
AcDbEntity
  8
P-SANR-FIXT
100
AcDbCircle
 10
766.9048073228362
 20
1864.999999999995
 30
0.0
 40
15.0
100
AcDbArc
 50
208.4389013636744
 51
269.9999999999997
  0
LINE
  5
9B
330
87
100
AcDbEntity
  8
P-SANR-FIXT
100
AcDbLine
 10
829.66639148327
 20
1849.999999999995
 30
0.0
 11
812.2855994030539
 21
1849.999999999995
 31
0.0
  0
LINE
  5
9C
330
87
100
AcDbEntity
  8
P-SANR-FIXT
100
AcDbLine
 10
784.2855994030523
 20
1849.999999999995
 30
0.0
 11
766.9048073228362
 21
1849.999999999995
 31
0.0
  0
LINE
  5
9D
330
87
100
AcDbEntity
  8
P-SANR-FIXT
100
AcDbLine
 10
736.2855994030531
 20
1967.645507126837
 30
0.0
 11
736.2855994030531
 21
1971.999999999994
 31
0.0
  0
LINE
  5
9E
330
87
100
AcDbEntity
  8
P-SANR-FIXT
100
AcDbLine
 10
736.2855994030531
 20
1975.127628217986
 30
0.0
 11
736.2855994030531
 21
1976.325167644121
 31
0.0
  0
LINE
  5
9F
330
87
100
AcDbEntity
  8
P-SANR-FIXT
100
AcDbLine
 10
736.2855994030532
 20
2023.625050829915
 30
0.0
 11
736.2855994030532
 21
2024.81390041785
 31
0.0
  0
LINE
  5
A0
330
87
100
AcDbEntity
  8
P-SANR-FIXT
100
AcDbLine
 10
736.2855994030532
 20
2027.999999999995
 30
0.0
 11
736.2855994030532
 21
2032.354492873153
 31
0.0
  0
LINE
  5
A1
330
87
100
AcDbEntity
  8
P-SANR-FIXT
100
AcDbLine
 10
736.2855994030532
 20
2032.354492873153
 30
0.0
 11
758.0168939447621
 21
2032.354492873153
 31
0.0
  0
LINE
  5
A2
330
87
100
AcDbEntity
  8
P-SANR-FIXT
100
AcDbLine
 10
751.3511303069608
 20
1967.645507126837
 30
0.0
 11
736.2855994030529
 21
1967.645507126837
 31
0.0
  0
LINE
  5
A3
330
87
100
AcDbEntity
  8
P-SANR-FIXT
100
AcDbLine
 10
838.5543048613429
 20
2032.354492873153
 30
0.0
 11
860.2855994030536
 21
2032.354492873153
 31
0.0
  0
LINE
  5
A4
330
87
100
AcDbEntity
  8
P-SANR-FIXT
100
AcDbLine
 10
860.2855994030534
 20
1967.645507126836
 30
0.0
 11
845.220068500719
 21
1967.645507126836
 31
0.0
  0
LINE
  5
A5
330
87
100
AcDbEntity
  8
P-SANR-FIXT
100
AcDbLine
 10
860.2855994030536
 20
2032.354492873153
 30
0.0
 11
860.2855994030536
 21
2027.999999999994
 31
0.0
  0
LINE
  5
A6
330
87
100
AcDbEntity
  8
P-SANR-FIXT
100
AcDbLine
 10
860.2855994030536
 20
2024.813900417849
 30
0.0
 11
860.2855994030536
 21
2023.625050829915
 31
0.0
  0
LINE
  5
A7
330
87
100
AcDbEntity
  8
P-SANR-FIXT
100
AcDbLine
 10
860.2855994030534
 20
1976.325167644121
 30
0.0
 11
860.2855994030534
 21
1975.127628217986
 31
0.0
  0
LINE
  5
A8
330
87
100
AcDbEntity
  8
P-SANR-FIXT
100
AcDbLine
 10
860.2855994030534
 20
1971.999999999995
 30
0.0
 11
860.2855994030534
 21
1967.645507126837
 31
0.0
  0
LINE
  5
A9
330
87
100
AcDbEntity
  8
P-SANR-FIXT
100
AcDbLine
 10
839.4687866839085
 20
2019.049999999994
 30
0.0
 11
839.431871374508
 21
2019.049999999994
 31
0.0
  0
LINE
  5
AA
330
87
100
AcDbEntity
  8
P-SANR-FIXT
100
AcDbLine
 10
757.1393274315981
 20
2019.049999999995
 30
0.0
 11
757.1024121221982
 21
2019.049999999995
 31
0.0
  0
LWPOLYLINE
  5
AB
330
87
100
AcDbEntity
  8
P-SANR-FIXT
100
AcDbPolyline
 90
       41
 70
   128
 43
0.0
 10
825.2855994030547
 20
2064.999999999995
 10
825.4055674056143
 20
2064.997600319979
 10
825.525343484962
 20
2064.990405118904
 10
825.6447360249211
 20
2064.978425907558
 10
825.7635540228971
 20
2064.961681850123
 10
825.8816073954395
 20
2064.940199733519
 10
825.9987072823358
 20
2064.914013924552
 10
826.1146663487467
 20
2064.883166314928
 10
826.2292990849028
 20
2064.847706254243
 10
826.3424221028797
 20
2064.80769047103
 10
826.4538544299805
 20
2064.763182982004
 10
826.5634177982525
 20
2064.714254989656
 10
826.6709369296789
 20
2064.660984768334
 10
826.7762398165857
 20
2064.603457539028
 10
826.8791579968171
 20
2064.541765333036
 10
826.9795268232396
 20
2064.476006844724
 10
827.0771857271416
 20
2064.406287273649
 10
827.1719784751098
 20
2064.332718156249
 10
827.2637534189689
 20
2064.255417187419
 10
827.3523637383862
 20
2064.174508032218
 10
827.437667675753
 20
2064.090120128037
 10
827.5195287629671
 20
2064.00238847752
 10
827.5978160397514
 20
2063.911453432591
 10
827.6724042631636
 20
2063.817460469926
 10
827.7431741079574
 20
2063.720559958213
 10
827.8100123574782
 20
2063.6209069176
 10
827.8728120847846
 20
2063.518660771694
 10
827.9314728237094
 20
2063.413985092517
 10
827.985900729584
 20
2063.307047338826
 10
828.0360087293697
 20
2063.198018588215
 10
828.0817166609562
 20
2063.087073263426
 10
828.1229514014031
 20
2062.974388853312
 10
828.1596469839223
 20
2062.860145628892
 10
828.1917447034095
 20
2062.744526354952
 10
828.2191932103605
 20
2062.62771599767
 10
828.24194859302
 20
2062.509901428696
 10
828.2599744476296
 20
2062.39127112621
 10
828.2732419366675
 20
2062.272014873389
 10
828.2817298349813
 20
2062.152323454797
 10
828.2854245637444
 20
2062.032388351171
 10
828.2855994030546
 20
2061.999999999996
  0
LWPOLYLINE
  5
AC
330
87
100
AcDbEntity
  8
P-SANR-FIXT
100
AcDbPolyline
 90
       41
 70
   128
 43
0.0
 10
768.2855994030545
 20
2061.999999999996
 10
768.2879990830716
 20
2062.119968002556
 10
768.2951942841468
 20
2062.239744081904
 10
768.307173495493
 20
2062.359136621862
 10
768.3239175529276
 20
2062.477954619838
 10
768.3453996695309
 20
2062.596007992381
 10
768.3715854784984
 20
2062.713107879277
 10
768.4024330881223
 20
2062.829066945688
 10
768.4378931488073
 20
2062.943699681844
 10
768.4779089320207
 20
2063.056822699821
 10
768.5224164210461
 20
2063.168255026922
 10
768.5713444133948
 20
2063.277818395194
 10
768.6246146347168
 20
2063.38533752662
 10
768.6821418640215
 20
2063.490640413527
 10
768.7438340700143
 20
2063.593558593759
 10
768.8095925583255
 20
2063.693927420181
 10
768.8793121294017
 20
2063.791586324083
 10
768.9528812468016
 20
2063.886379072051
 10
769.0301822156318
 20
2063.97815401591
 10
769.1110913708318
 20
2064.066764335328
 10
769.195479275013
 20
2064.152068272695
 10
769.2832109255306
 20
2064.233929359909
 10
769.3741459704587
 20
2064.312216636693
 10
769.4681389331241
 20
2064.386804860105
 10
769.5650394448372
 20
2064.457574704899
 10
769.6646924854499
 20
2064.52441295442
 10
769.7669386313561
 20
2064.587212681726
 10
769.8716143105332
 20
2064.645873420651
 10
769.9785520642243
 20
2064.700301326525
 10
770.0875808148356
 20
2064.750409326312
 10
770.1985261396243
 20
2064.796117257898
 10
770.3112105497381
 20
2064.837351998345
 10
770.4254537741586
 20
2064.874047580864
 10
770.5410730480974
 20
2064.90614530035
 10
770.6578834053801
 20
2064.933593807302
 10
770.7756979743537
 20
2064.956349189961
 10
770.89432827684
 20
2064.974375044571
 10
771.0135845296615
 20
2064.987642533609
 10
771.1332759482538
 20
2064.996130431923
 10
771.2532110518799
 20
2064.999825160686
 10
771.2855994030547
 20
2064.999999999996
  0
LWPOLYLINE
  5
AD
330
87
100
AcDbEntity
  8
P-SANR-FIXT
100
AcDbPolyline
 90
        4
 70
   128
 43
0.0
 10
771.2855994030547
 20
2064.999999999996
 10
771.3071965232079
 20
2064.999999999996
 10
771.3719533328838
 20
2064.999999999996
 10
771.4797662350002
 20
2064.999999999996
  0
LWPOLYLINE
  5
AE
330
87
100
AcDbEntity
  8
P-SANR-FIXT
100
AcDbPolyline
 90
        5
 70
   128
 43
0.0
 10
825.0768278631277
 20
2064.999999999995
 10
825.1463847937598
 20
2064.999999999995
 10
825.2344012496234
 20
2064.999999999995
 10
825.2793053713036
 20
2064.999999999995
 10
825.2855994030547
 20
2064.999999999995
  0
LWPOLYLINE
  5
AF
330
87
100
AcDbEntity
  8
P-SANR-FIXT
100
AcDbPolyline
 90
       41
 70
   128
 43
0.0
 10
828.2855994030544
 20
2047.281694873448
 10
828.2879990830714
 20
2047.161726870888
 10
828.2951942841465
 20
2047.04195079154
 10
828.3071734954928
 20
2046.922558251581
 10
828.3239175529276
 20
2046.803740253605
 10
828.3453996695305
 20
2046.685686881062
 10
828.3715854784983
 20
2046.568586994166
 10
828.4024330881221
 20
2046.452627927755
 10
828.437893148807
 20
2046.337995191599
 10
828.4779089320206
 20
2046.224872173622
 10
828.5224164210458
 20
2046.113439846521
 10
828.5713444133945
 20
2046.003876478249
 10
828.6246146347165
 20
2045.896357346823
 10
828.6821418640213
 20
2045.791054459916
 10
828.7438340700141
 20
2045.688136279685
 10
828.8095925583252
 20
2045.587767453262
 10
828.8793121294016
 20
2045.490108549361
 10
828.9528812468017
 20
2045.395315801392
 10
829.0301822156317
 20
2045.303540857533
 10
829.1110913708317
 20
2045.214930538116
 10
829.1954792750129
 20
2045.129626600749
 10
829.2832109255305
 20
2045.047765513535
 10
829.3741459704586
 20
2044.969478236751
 10
829.4681389331239
 20
2044.894890013338
 10
829.5650394448371
 20
2044.824120168545
 10
829.6646924854499
 20
2044.757281919024
 10
829.7669386313561
 20
2044.694482191717
 10
829.871614310533
 20
2044.635821452793
 10
829.9785520642242
 20
2044.581393546918
 10
830.0875808148354
 20
2044.531285547132
 10
830.1985261396243
 20
2044.485577615546
 10
830.311210549738
 20
2044.444342875099
 10
830.4254537741584
 20
2044.40764729258
 10
830.5410730480971
 20
2044.375549573093
 10
830.65788340538
 20
2044.348101066141
 10
830.7756979743537
 20
2044.325345683482
 10
830.8943282768399
 20
2044.307319828873
 10
831.0135845296613
 20
2044.294052339834
 10
831.1332759482539
 20
2044.285564441521
 10
831.2532110518796
 20
2044.281869712758
 10
831.2855994030545
 20
2044.281694873447
  0
LWPOLYLINE
  5
B0
330
87
100
AcDbEntity
  8
P-SANR-FIXT
100
AcDbPolyline
 90
       41
 70
   128
 43
0.0
 10
765.2855994030545
 20
2044.281694873447
 10
765.4055674056145
 20
2044.284094553465
 10
765.5253434849619
 20
2044.29128975454
 10
765.6447360249212
 20
2044.303268965886
 10
765.7635540228973
 20
2044.320013023321
 10
765.8816073954397
 20
2044.341495139924
 10
765.9987072823359
 20
2044.367680948892
 10
766.1146663487467
 20
2044.398528558515
 10
766.2292990849029
 20
2044.4339886192
 10
766.3424221028797
 20
2044.474004402414
 10
766.4538544299802
 20
2044.518511891439
 10
766.5634177982524
 20
2044.567439883788
 10
766.6709369296789
 20
2044.62071010511
 10
766.7762398165857
 20
2044.678237334415
 10
766.8791579968172
 20
2044.739929540407
 10
766.9795268232395
 20
2044.805688028719
 10
767.0771857271418
 20
2044.875407599795
 10
767.17197847511
 20
2044.948976717195
 10
767.2637534189689
 20
2045.026277686025
 10
767.352363738386
 20
2045.107186841225
 10
767.4376676757531
 20
2045.191574745406
 10
767.5195287629671
 20
2045.279306395924
 10
767.5978160397514
 20
2045.370241440852
 10
767.6724042631636
 20
2045.464234403517
 10
767.7431741079574
 20
2045.56113491523
 10
767.8100123574782
 20
2045.660787955843
 10
767.8728120847845
 20
2045.763034101749
 10
767.9314728237093
 20
2045.867709780926
 10
767.985900729584
 20
2045.974647534618
 10
768.0360087293698
 20
2046.083676285229
 10
768.0817166609561
 20
2046.194621610018
 10
768.122951401403
 20
2046.307306020131
 10
768.1596469839221
 20
2046.421549244552
 10
768.1917447034091
 20
2046.53716851849
 10
768.2191932103606
 20
2046.653978875774
 10
768.2419485930199
 20
2046.771793444747
 10
768.2599744476296
 20
2046.890423747234
 10
768.2732419366675
 20
2047.009680000055
 10
768.2817298349813
 20
2047.129371418647
 10
768.2854245637444
 20
2047.249306522273
 10
768.2855994030544
 20
2047.281694873448
  0
LWPOLYLINE
  5
B1
330
87
100
AcDbEntity
  8
P-SANR-FIXT
100
AcDbPolyline
 90
       34
 70
   128
 43
0.0
 10
847.8903220680585
 20
2041.362660994062
 10
848.4789656629207
 20
2041.24668375152
 10
849.0625005529821
 20
2041.10725981297
 10
849.6399932068996
 20
2040.944612226971
 10
850.210519759619
 20
2040.759001194965
 10
850.7731674903615
 20
2040.550723655009
 10
851.3270362827828
 20
2040.320112806735
 10
851.8712400649677
 20
2040.067537578307
 10
852.4049082269554
 20
2039.79340203621
 10
852.9271870135296
 20
2039.498144738833
 10
853.4372408900457
 20
2039.182238034867
 10
853.9342538791066
 20
2038.846187307647
 10
854.4174308659536
 20
2038.490530166652
 10
854.8859988704803
 20
2038.115835587436
 10
855.339208283835
 20
2037.722703001396
 10
855.7763340676359
 20
2037.311761336805
 10
856.1966769138777
 20
2036.883668012665
 10
856.5995643636744
 20
2036.439107886972
 10
856.9843518830515
 20
2035.978792161093
 10
857.3504238940611
 20
2035.503457241993
 10
857.6971947595771
 20
2035.013863564145
 10
858.0241097201882
 20
2034.510794372991
 10
858.3306457816963
 20
2033.995054471921
 10
858.6163125517931
 20
2033.467468934759
 10
858.8806530245861
 20
2032.928881785819
 10
859.1232443117077
 20
2032.380154649646
 10
859.3436983188491
 20
2031.822165372603
 10
859.5416623666261
 20
2031.255806618501
 10
859.7168197547929
 20
2030.681984440531
 10
859.868890268893
 20
2030.101616831768
 10
859.9976306285439
 20
2029.515632256581
 10
860.1028348766332
 20
2028.924968165288
 10
860.1843347088063
 20
2028.330569494431
 10
860.2104012035617
 20
2028.060623406473
  0
LWPOLYLINE
  5
B2
330
87
100
AcDbEntity
  8
P-SANR-FIXT
100
AcDbPolyline
 90
       34
 70
   128
 43
0.0
 10
736.3608010578726
 20
2028.060629421385
 10
736.3934698652464
 20
2028.386227808213
 10
736.4771901524199
 20
2028.980317798093
 10
736.5846007354357
 20
2029.570584660805
 10
736.7155297802739
 20
2030.156084095287
 10
736.8697678283929
 20
2030.735879427341
 10
737.0470681318177
 20
2031.309043108121
 10
737.2471470478854
 20
2031.874658198006
 10
737.469684493011
 20
2032.431819833509
 10
737.714324454755
 20
2032.979636674869
 10
737.980675561365
 20
2033.517232332001
 10
738.2683117078896
 20
2034.043746766535
 10
738.5767727378532
 20
2034.558337667692
 10
738.9055651794093
 20
2035.060181799805
 10
739.2541630347899
 20
2035.548476319315
 10
739.6220086217905
 20
2036.022440059156
 10
740.008513465941
 20
2036.481314778451
 10
740.4130592419408
 20
2036.924366375537
 10
740.8349987628469
 20
2037.350886062372
 10
741.2736570154347
 20
2037.760191498442
 10
741.7283322400757
 20
2038.151627882363
 10
742.1982970534024
 20
2038.524568999425
 10
742.6827996119676
 20
2038.878418223394
 10
743.1810648150324
 20
2039.212609470998
 10
743.6922955445627
 20
2039.526608107529
 10
744.2156739404484
 20
2039.819911802153
 10
744.7503627089038
 20
2040.092051331527
 10
745.2955064619602
 20
2040.342591330456
 10
745.8502330859042
 20
2040.571130988388
 10
746.4136551364727
 20
2040.777304690622
 10
746.9848712585751
 20
2040.960782603217
 10
747.5629676282689
 20
2041.121271200653
 10
748.1470194146833
 20
2041.258513735409
 10
748.6808767380503
 20
2041.362660994062
  0
LWPOLYLINE
  5
B3
330
87
100
AcDbEntity
  8
P-SANR-FIXT
100
AcDbPolyline
 90
       41
 70
   128
 43
0.0
 10
860.2855994030543
 20
1947.999999999995
 10
860.2831997230373
 20
1947.880031997436
 10
860.2760045219621
 20
1947.760255918088
 10
860.2640253106157
 20
1947.640863378128
 10
860.2472812531813
 20
1947.522045380153
 10
860.225799136578
 20
1947.40399200761
 10
860.1996133276106
 20
1947.286892120714
 10
860.1687657179866
 20
1947.170933054303
 10
860.1333056573015
 20
1947.056300318147
 10
860.0932898740881
 20
1946.94317730017
 10
860.0487823850627
 20
1946.83174497307
 10
859.999854392714
 20
1946.722181604797
 10
859.9465841713922
 20
1946.614662473371
 10
859.8890569420873
 20
1946.509359586464
 10
859.8273647360946
 20
1946.406441406233
 10
859.7616062477834
 20
1946.30607257981
 10
859.6918866767071
 20
1946.208413675908
 10
859.6183175593072
 20
1946.11362092794
 10
859.541016590477
 20
1946.021845984081
 10
859.460107435277
 20
1945.933235664664
 10
859.3757195310958
 20
1945.847931727297
 10
859.2879878805783
 20
1945.766070640083
 10
859.1970528356501
 20
1945.687783363299
 10
859.1030598729847
 20
1945.613195139886
 10
859.0061593612718
 20
1945.542425295093
 10
858.9065063206588
 20
1945.475587045572
 10
858.8042601747526
 20
1945.412787318265
 10
858.6995844955756
 20
1945.35412657934
 10
858.5926467418845
 20
1945.299698673466
 10
858.4836179912731
 20
1945.24959067368
 10
858.3726726664844
 20
1945.203882742094
 10
858.2599882563707
 20
1945.162648001647
 10
858.1457450319502
 20
1945.125952419128
 10
858.0301257580115
 20
1945.09385469964
 10
857.9133154007285
 20
1945.06640619269
 10
857.7955008317552
 20
1945.04365081003
 10
857.6768705292689
 20
1945.025624955421
 10
857.5576142764472
 20
1945.012357466383
 10
857.437922857855
 20
1945.003869568068
 10
857.3179877542294
 20
1945.000174839305
 10
857.2855994030545
 20
1944.999999999996
  0
LWPOLYLINE
  5
B4
330
87
100
AcDbEntity
  8
P-SANR-FIXT
100
AcDbPolyline
 90
       41
 70
   128
 43
0.0
 10
739.2855994030544
 20
1944.999999999996
 10
739.1656314004944
 20
1945.002399680013
 10
739.0458553211467
 20
1945.009594881088
 10
738.9264627811875
 20
1945.021574092434
 10
738.8076447832116
 20
1945.038318149869
 10
738.6895914106689
 20
1945.059800266472
 10
738.5724915237728
 20
1945.08598607544
 10
738.4565324573618
 20
1945.116833685063
 10
738.3418997212057
 20
1945.152293745749
 10
738.2287767032288
 20
1945.192309528962
 10
738.1173443761284
 20
1945.236817017987
 10
738.0077810078562
 20
1945.285745010336
 10
737.9002618764298
 20
1945.339015231658
 10
737.7949589895229
 20
1945.396542460963
 10
737.6920408092916
 20
1945.458234666956
 10
737.5916719828691
 20
1945.523993155267
 10
737.4940130789671
 20
1945.593712726343
 10
737.3992203309988
 20
1945.667281843743
 10
737.3074453871399
 20
1945.744582812573
 10
737.2188350677226
 20
1945.825491967773
 10
737.1335311303556
 20
1945.909879871954
 10
737.0516700431417
 20
1945.997611522471
 10
736.9733827663573
 20
1946.0885465674
 10
736.898794542945
 20
1946.182539530065
 10
736.8280246981513
 20
1946.279440041778
 10
736.7611864486307
 20
1946.379093082391
 10
736.6983867213241
 20
1946.481339228297
 10
736.6397259823993
 20
1946.586014907475
 10
736.5852980765247
 20
1946.692952661166
 10
736.5351900767389
 20
1946.801981411777
 10
736.4894821451525
 20
1946.912926736566
 10
736.4482474047056
 20
1947.025611146679
 10
736.4115518221865
 20
1947.1398543711
 10
736.3794541026996
 20
1947.255473645039
 10
736.3520055957483
 20
1947.372284002321
 10
736.3292502130887
 20
1947.490098571295
 10
736.311224358479
 20
1947.608728873781
 10
736.2979568694412
 20
1947.727985126603
 10
736.2894689711274
 20
1947.847676545195
 10
736.2857742423643
 20
1947.96761164882
 10
736.2855994030543
 20
1947.999999999996
  0
LWPOLYLINE
  5
B5
330
87
100
AcDbEntity
  8
P-SANR-FIXT
100
AcDbPolyline
 90
        4
 70
   128
 43
0.0
 10
857.2855994030543
 20
1944.999999999996
 10
857.2384056960519
 20
1944.999999999996
 10
857.0969000749089
 20
1944.999999999996
 10
857.0839207693405
 20
1944.999999999996
  0
LWPOLYLINE
  5
B6
330
87
100
AcDbEntity
  8
P-SANR-FIXT
100
AcDbPolyline
 90
        4
 70
   128
 43
0.0
 10
739.5070655866693
 20
1944.999999999996
 10
739.3974768494406
 20
1944.999999999996
 10
739.2993530279916
 20
1944.999999999996
 10
739.2855994030544
 20
1944.999999999996
  0
LINE
  5
B7
330
87
100
AcDbEntity
  8
P-SANR-FIXT
100
AcDbLine
 10
771.2855994030531
 20
2064.999999999995
 30
0.0
 11
798.285599403053
 21
2064.999999999995
 31
0.0
  0
LINE
  5
B8
330
87
100
AcDbEntity
  8
P-SANR-FIXT
100
AcDbLine
 10
798.285599403053
 20
2064.999999999995
 30
0.0
 11
825.2855994030531
 21
2064.999999999995
 31
0.0
  0
ARC
  5
B9
330
87
100
AcDbEntity
  8
P-SANR-FIXT
100
AcDbCircle
 10
825.2855994030531
 20
2061.999999999995
 30
0.0
 40
3.0
100
AcDbArc
 50
0.0
 51
90.0
  0
ARC
  5
BA
330
87
100
AcDbEntity
  8
P-SANR-FIXT
100
AcDbCircle
 10
771.2855994030531
 20
2061.999999999995
 30
0.0
 40
3.0
100
AcDbArc
 50
90.0
 51
180.0
  0
LINE
  5
BB
330
87
100
AcDbEntity
  8
P-SANR-FIXT
100
AcDbLine
 10
828.285599403053
 20
2061.999999999995
 30
0.0
 11
828.285599403053
 21
2047.281694873447
 31
0.0
  0
LINE
  5
BC
330
87
100
AcDbEntity
  8
P-SANR-FIXT
100
AcDbLine
 10
768.285599403053
 20
2047.281694873447
 30
0.0
 11
768.285599403053
 21
2061.999999999995
 31
0.0
  0
ARC
  5
BD
330
87
100
AcDbEntity
  8
P-SANR-FIXT
100
AcDbCircle
 10
831.2855994030529
 20
2047.281694873447
 30
0.0
 40
3.0
100
AcDbArc
 50
180.0
 51
270.9146871807815
  0
ARC
  5
BE
330
87
100
AcDbEntity
  8
P-SANR-FIXT
100
AcDbCircle
 10
765.2855994030532
 20
2047.281694873447
 30
0.0
 40
2.999999999999971
100
AcDbArc
 50
269.0853128192177
 51
0.0
  0
LINE
  5
BF
330
87
100
AcDbEntity
  8
P-SANR-FIXT
100
AcDbLine
 10
831.3334902775473
 20
2044.28207715378
 30
0.0
 11
847.8903220680571
 21
2041.362660994061
 31
0.0
  0
LINE
  5
C0
330
87
100
AcDbEntity
  8
P-SANR-FIXT
100
AcDbLine
 10
748.680876738049
 20
2041.362660994062
 30
0.0
 11
765.2377085285588
 21
2044.28207715378
 31
0.0
  0
ARC
  5
C1
330
87
100
AcDbEntity
  8
P-SANR-FIXT
100
AcDbCircle
 10
845.285599403053
 20
2026.590544698878
 30
0.0
 40
14.99999999999995
100
AcDbArc
 50
6.028599199084169
 51
80.00000000000008
  0
ARC
  5
C2
330
87
100
AcDbEntity
  8
P-SANR-FIXT
100
AcDbCircle
 10
751.285599403053
 20
2026.590544698878
 30
0.0
 40
14.99999999999997
100
AcDbArc
 50
100.0000000000002
 51
173.9714008009202
  0
LINE
  5
C3
330
87
100
AcDbEntity
  8
P-SANR-FIXT
100
AcDbLine
 10
860.285599403053
 20
2024.813900417849
 30
0.0
 11
860.285599403053
 21
2023.625050829915
 31
0.0
  0
LINE
  5
C4
330
87
100
AcDbEntity
  8
P-SANR-FIXT
100
AcDbLine
 10
860.285599403053
 20
2001.147757900176
 30
0.0
 11
860.285599403053
 21
1998.752679047906
 31
0.0
  0
LINE
  5
C5
330
87
100
AcDbEntity
  8
P-SANR-FIXT
100
AcDbLine
 10
860.2855994030528
 20
1976.325167644121
 30
0.0
 11
860.2855994030528
 21
1975.127628217986
 31
0.0
  0
LINE
  5
C6
330
87
100
AcDbEntity
  8
P-SANR-FIXT
100
AcDbLine
 10
860.2855994030528
 20
1971.999999999994
 30
0.0
 11
860.2855994030528
 21
1969.499999999994
 31
0.0
  0
LINE
  5
C7
330
87
100
AcDbEntity
  8
P-SANR-FIXT
100
AcDbLine
 10
736.2855994030531
 20
1969.499999999995
 30
0.0
 11
736.2855994030531
 21
1971.999999999994
 31
0.0
  0
LINE
  5
C8
330
87
100
AcDbEntity
  8
P-SANR-FIXT
100
AcDbLine
 10
736.2855994030531
 20
1975.127628217986
 30
0.0
 11
736.2855994030531
 21
1976.325167644121
 31
0.0
  0
LINE
  5
C9
330
87
100
AcDbEntity
  8
P-SANR-FIXT
100
AcDbLine
 10
736.2855994030531
 20
1998.752679047906
 30
0.0
 11
736.2855994030531
 21
2001.147757900176
 31
0.0
  0
LINE
  5
CA
330
87
100
AcDbEntity
  8
P-SANR-FIXT
100
AcDbLine
 10
736.2855994030531
 20
2023.625050829915
 30
0.0
 11
736.2855994030531
 21
2024.81390041785
 31
0.0
  0
LINE
  5
CB
330
87
100
AcDbEntity
  8
P-SANR-FIXT
100
AcDbLine
 10
860.2855994030528
 20
1969.499999999994
 30
0.0
 11
860.2855994030528
 21
1947.999999999995
 31
0.0
  0
LINE
  5
CC
330
87
100
AcDbEntity
  8
P-SANR-FIXT
100
AcDbLine
 10
736.2855994030529
 20
1947.999999999995
 30
0.0
 11
736.2855994030531
 21
1969.499999999995
 31
0.0
  0
ARC
  5
CD
330
87
100
AcDbEntity
  8
P-SANR-FIXT
100
AcDbCircle
 10
857.2855994030529
 20
1947.999999999995
 30
0.0
 40
3.0
100
AcDbArc
 50
269.9999999999997
 51
0.0
  0
ARC
  5
CE
330
87
100
AcDbEntity
  8
P-SANR-FIXT
100
AcDbCircle
 10
739.2855994030529
 20
1947.999999999995
 30
0.0
 40
3.0
100
AcDbArc
 50
180.0
 51
269.9999999999997
  0
LINE
  5
CF
330
87
100
AcDbEntity
  8
P-SANR-FIXT
100
AcDbLine
 10
857.2855994030529
 20
1944.999999999995
 30
0.0
 11
842.9043035133773
 21
1944.999999999995
 31
0.0
  0
LINE
  5
D0
330
87
100
AcDbEntity
  8
P-SANR-FIXT
100
AcDbLine
 10
753.6668952927307
 20
1944.999999999995
 30
0.0
 11
739.2855994030529
 21
1944.999999999995
 31
0.0
  0
LINE
  5
D1
330
87
100
AcDbEntity
  8
P-SANR-FIXT
100
AcDbLine
 10
834.7855994030547
 20
1887.499999999918
 30
0.0
 11
834.7855994030547
 21
1914.499999999918
 31
0.0
  0
LINE
  5
D2
330
87
100
AcDbEntity
  8
P-SANR-FIXT
100
AcDbLine
 10
761.7855994030545
 20
1914.499999999918
 30
0.0
 11
761.7855994030545
 21
1887.499999999918
 31
0.0
  0
LINE
  5
D3
330
87
100
AcDbEntity
  8
P-SANR-FIXT
100
AcDbLine
 10
761.7855994030532
 20
1914.499999999917
 30
0.0
 11
834.7855994030531
 21
1914.499999999917
 31
0.0
  0
LINE
  5
D4
330
87
100
AcDbEntity
  8
P-SANR-FIXT
100
AcDbLine
 10
834.7855994030531
 20
1887.499999999917
 30
0.0
 11
761.7855994030532
 21
1887.499999999917
 31
0.0
  0
LINE
  5
D5
330
87
100
AcDbEntity
  8
P-SANR-FIXT
100
AcDbLine
 10
784.2855994030538
 20
1861.20963746673
 30
0.0
 11
784.2855994030538
 21
1848.499999999981
 31
0.0
  0
LINE
  5
D6
330
87
100
AcDbEntity
  8
P-SANR-FIXT
100
AcDbLine
 10
812.2855994030555
 20
1848.499999999981
 30
0.0
 11
812.2855994030555
 21
1861.20963746673
 31
0.0
  0
LINE
  5
D7
330
87
100
AcDbEntity
  8
P-SANR-FIXT
100
AcDbLine
 10
812.285599403054
 20
1848.49999999998
 30
0.0
 11
812.142005863601
 21
1848.49999999998
 31
0.0
  0
LINE
  5
D8
330
87
100
AcDbEntity
  8
P-SANR-FIXT
100
AcDbLine
 10
812.142005863601
 20
1848.49999999998
 30
0.0
 11
806.9458534409214
 21
1848.49999999998
 31
0.0
  0
LINE
  5
D9
330
87
100
AcDbEntity
  8
P-SANR-FIXT
100
AcDbLine
 10
806.9458534409214
 20
1848.49999999998
 30
0.0
 11
803.4817518257327
 21
1848.49999999998
 31
0.0
  0
LINE
  5
DA
330
87
100
AcDbEntity
  8
P-SANR-FIXT
100
AcDbLine
 10
803.4817518257327
 20
1848.49999999998
 30
0.0
 11
793.0894469803736
 21
1848.49999999998
 31
0.0
  0
LINE
  5
DB
330
87
100
AcDbEntity
  8
P-SANR-FIXT
100
AcDbLine
 10
793.0894469803736
 20
1848.49999999998
 30
0.0
 11
789.625345365185
 21
1848.49999999998
 31
0.0
  0
LINE
  5
DC
330
87
100
AcDbEntity
  8
P-SANR-FIXT
100
AcDbLine
 10
789.6253453651851
 20
1848.49999999998
 30
0.0
 11
784.4291929425054
 21
1848.49999999998
 31
0.0
  0
LINE
  5
DD
330
87
100
AcDbEntity
  8
P-SANR-FIXT
100
AcDbLine
 10
784.4291929425054
 20
1848.49999999998
 30
0.0
 11
784.2855994030522
 21
1848.49999999998
 31
0.0
  0
LINE
  5
DE
330
87
100
AcDbEntity
  8
P-SANR-FIXT
100
AcDbLine
 10
789.625345365185
 20
1861.20963746673
 30
0.0
 11
789.8571371813795
 21
1861.20963746673
 31
0.0
  0
LINE
  5
DF
330
87
100
AcDbEntity
  8
P-SANR-FIXT
100
AcDbLine
 10
803.4817518257325
 20
1861.20963746673
 30
0.0
 11
803.658279943127
 21
1861.20963746673
 31
0.0
  0
LINE
  5
E0
330
87
100
AcDbEntity
  8
P-SANR-FIXT
100
AcDbLine
 10
805.2855994030537
 20
1861.20963746673
 30
0.0
 11
805.500419931551
 21
1861.20963746673
 31
0.0
  0
LINE
  5
E1
330
87
100
AcDbEntity
  8
P-SANR-FIXT
100
AcDbLine
 10
784.4291929425054
 20
1848.49999999998
 30
0.0
 11
784.4291929425054
 21
1861.20963746673
 31
0.0
  0
LINE
  5
E2
330
87
100
AcDbEntity
  8
P-SANR-FIXT
100
AcDbLine
 10
789.625345365185
 20
1848.49999999998
 30
0.0
 11
789.625345365185
 21
1861.20963746673
 31
0.0
  0
LINE
  5
E3
330
87
100
AcDbEntity
  8
P-SANR-FIXT
100
AcDbLine
 10
793.0894469803736
 20
1848.49999999998
 30
0.0
 11
793.0894469803736
 21
1861.20963746673
 31
0.0
  0
LINE
  5
E4
330
87
100
AcDbEntity
  8
P-SANR-FIXT
100
AcDbLine
 10
803.4817518257325
 20
1848.49999999998
 30
0.0
 11
803.4817518257325
 21
1861.20963746673
 31
0.0
  0
LINE
  5
E5
330
87
100
AcDbEntity
  8
P-SANR-FIXT
100
AcDbLine
 10
806.9458534409214
 20
1848.49999999998
 30
0.0
 11
806.9458534409214
 21
1861.20963746673
 31
0.0
  0
LINE
  5
E6
330
87
100
AcDbEntity
  8
P-SANR-FIXT
100
AcDbLine
 10
812.1420058636006
 20
1848.49999999998
 30
0.0
 11
812.1420058636006
 21
1861.20963746673
 31
0.0
  0
LINE
  5
E7
330
87
100
AcDbEntity
  8
P-SANR-FIXT
100
AcDbLine
 10
759.2855994030543
 20
1917.499999999982
 30
0.0
 11
759.756873545839
 21
1915.741180954816
 31
0.0
  0
LINE
  5
E8
330
87
100
AcDbEntity
  8
P-SANR-FIXT
100
AcDbLine
 10
836.8143252602701
 20
1915.741180954816
 30
0.0
 11
837.2855994030548
 21
1917.499999999982
 31
0.0
  0
LWPOLYLINE
  5
E9
330
87
100
AcDbEntity
  8
P-SANR-FIXT
100
AcDbPolyline
 90
       34
 70
   128
 43
0.0
 10
836.8143252602701
 20
1915.741180954816
 10
836.8032026213471
 20
1915.702761251779
 10
836.7905525010048
 20
1915.664817067332
 10
836.7763951367376
 20
1915.627409104075
 10
836.7607531773073
 20
1915.590597206769
 10
836.7436516465131
 20
1915.554440266598
 10
836.7251179031557
 20
1915.518996126952
 10
836.7051815972708
 20
1915.484321490895
 10
836.6838746226953
 20
1915.450471830447
 10
836.6612310660427
 20
1915.417501297843
 10
836.637287152174
 20
1915.385462638903
 10
836.6120811862431
 20
1915.354407108646
 10
836.5856534924189
 20
1915.324384389295
 10
836.5580463493733
 20
1915.295442510799
 10
836.5293039226466
 20
1915.267627773988
 10
836.4994721939899
 20
1915.240984676506
 10
836.4685988878054
 20
1915.215555841628
 10
836.4367333947967
 20
1915.191381950064
 10
836.4039266929554
 20
1915.168501674883
 10
836.3702312660057
 20
1915.146951619646
 10
836.3357010194432
 20
1915.126766259843
 10
836.3003911942959
 20
1915.107977887744
 10
836.2643582787519
 20
1915.090616560737
 10
836.2276599177896
 20
1915.074710053241
 10
836.1903548209575
 20
1915.060283812276
 10
836.1525026684532
 20
1915.047360916748
 10
836.1141640156454
 20
1915.035962040535
 10
836.0754001962003
 20
1915.026105419405
 10
836.0362732239599
 20
1915.017806821852
 10
835.9968456937332
 20
1915.011079523861
 10
835.9571806811578
 20
1915.005934287673
 10
835.9173416417924
 20
1915.002379344568
 10
835.8773923096013
 20
1915.000420381697
 10
835.848399433981
 20
1914.999999999918
  0
LWPOLYLINE
  5
EA
330
87
100
AcDbEntity
  8
P-SANR-FIXT
100
AcDbPolyline
 90
       34
 70
   128
 43
0.0
 10
760.7227993721282
 20
1914.999999999918
 10
760.6828100379415
 20
1915.000799893257
 10
760.6428846781589
 20
1915.003198293615
 10
760.6030871648392
 20
1915.007191364064
 10
760.5634811655138
 20
1915.012772716542
 10
760.524130041333
 20
1915.019933422077
 10
760.4850967457009
 20
1915.028662025066
 10
760.4464437235641
 20
1915.038944561607
 10
760.4082328115119
 20
1915.050764581836
 10
760.3705251388529
 20
1915.06410317624
 10
760.3333810298195
 20
1915.078939005915
 10
760.2968599070621
 20
1915.095248336698
 10
760.2610201965866
 20
1915.113005077139
 10
760.2259192342843
 20
1915.132180820241
 10
760.1916131742072
 20
1915.152744888905
 10
760.158156898733
 20
1915.174664385008
 10
760.1256039307656
 20
1915.197904242034
 10
760.0940063481096
 20
1915.222427281167
 10
760.0634147001565
 20
1915.248194270777
 10
760.0338779270175
 20
1915.275163989177
 10
760.0054432812285
 20
1915.303293290571
 10
759.9781562521573
 20
1915.332537174077
 10
759.9520604932291
 20
1915.362848855719
 10
759.9271977520917
 20
1915.394179843275
 10
759.903607803827
 20
1915.426480013846
 10
759.8813283873202
 20
1915.45969769405
 10
759.8603951448848
 20
1915.493779742686
 10
759.8408415652431
 20
1915.528671635744
 10
759.8226989299517
 20
1915.564317553641
 10
759.8059962633564
 20
1915.600660470512
 10
759.7907602861607
 20
1915.637642245442
 10
759.7770153726785
 20
1915.675203715479
 10
759.764783511839
 20
1915.713284790286
 10
759.756873545839
 20
1915.741180954816
  0
LWPOLYLINE
  5
EB
330
87
100
AcDbEntity
  8
P-SANR-FIXT
100
AcDbPolyline
 90
        3
 70
   128
 43
0.0
 10
835.848399433981
 20
1914.999999999918
 10
835.8183532004412
 20
1914.999999999918
 10
835.7690975265859
 20
1914.999999999918
  0
LWPOLYLINE
  5
EC
330
87
100
AcDbEntity
  8
P-SANR-FIXT
100
AcDbPolyline
 90
        3
 70
   128
 43
0.0
 10
760.7940270017311
 20
1914.999999999918
 10
760.731555722352
 20
1914.999999999918
 10
760.7227993721282
 20
1914.999999999918
  0
LWPOLYLINE
  5
ED
330
87
100
AcDbEntity
  8
P-SANR-FIXT
100
AcDbPolyline
 90
       80
 70
   128
 43
0.0
 10
760.7227993721282
 20
1914.999999999918
 10
760.7528456056679
 20
1914.999999999918
 10
760.842936238723
 20
1914.999999999918
 10
760.992927145499
 20
1914.999999999918
 10
761.2025783725412
 20
1914.999999999918
 10
761.4715545226097
 20
1914.999999999918
 10
761.7994252912427
 20
1914.999999999918
 10
762.1856661551529
 20
1914.999999999918
 10
762.6296592113511
 20
1914.999999999918
 10
763.1306941656614
 20
1914.999999999918
 10
763.6879694690382
 20
1914.999999999918
 10
764.3005935998752
 20
1914.999999999918
 10
764.9675864902495
 20
1914.999999999918
 10
765.6878810938207
 20
1914.999999999918
 10
766.4603250928776
 20
1914.999999999918
 10
767.283682741801
 20
1914.999999999918
 10
768.1566368439928
 20
1914.999999999918
 10
769.0777908591099
 20
1914.999999999918
 10
770.0456711372305
 20
1914.999999999918
 10
771.0587292763798
 20
1914.999999999918
 10
772.1153445996425
 20
1914.999999999918
 10
773.2138267479008
 20
1914.999999999918
 10
774.3524183840476
 20
1914.999999999918
 10
775.5292980043519
 20
1914.999999999918
 10
776.7425828524756
 20
1914.999999999918
 10
777.9903319314816
 20
1914.999999999918
 10
779.2705491090162
 20
1914.999999999918
 10
780.5811863106932
 20
1914.999999999918
 10
781.9201467965783
 20
1914.999999999918
 10
783.2852885155231
 20
1914.999999999918
 10
784.6744275319922
 20
1914.999999999918
 10
786.0853415198936
 20
1914.999999999918
 10
787.5157733178247
 20
1914.999999999918
 10
788.9634345400523
 20
1914.999999999918
 10
790.4260092374378
 20
1914.999999999918
 10
791.9011576024654
 20
1914.999999999918
 10
793.3865197124325
 20
1914.999999999918
 10
794.879719304823
 20
1914.999999999918
 10
796.3783675788217
 20
1914.999999999918
 10
797.8800670168849
 20
1914.999999999918
 10
799.382415220257
 20
1914.999999999918
 10
800.8830087522964
 20
1914.999999999918
 10
802.3794469834616
 20
1914.999999999918
 10
803.8693359318056
 20
1914.999999999918
 10
805.3502920928371
 20
1914.999999999918
 10
806.8199462526193
 20
1914.999999999918
 10
808.2759472780056
 20
1914.999999999918
 10
809.7159658779524
 20
1914.999999999918
 10
811.1376983298876
 20
1914.999999999918
 10
812.5388701651747
 20
1914.999999999918
 10
813.917239807778
 20
1914.999999999918
 10
815.270602160306
 20
1914.999999999918
 10
816.5967921316964
 20
1914.999999999918
 10
817.8936881009002
 20
1914.999999999918
 10
819.1592153110233
 20
1914.999999999918
 10
820.3913491884943
 20
1914.999999999918
 10
821.5881185819505
 20
1914.999999999918
 10
822.7476089156592
 20
1914.999999999918
 10
823.8679652524316
 20
1914.999999999918
 10
824.9473952611253
 20
1914.999999999918
 10
825.9841720839926
 20
1914.999999999918
 10
826.976637099284
 20
1914.999999999918
 10
827.9232025746898
 20
1914.999999999918
 10
828.8223542073724
 20
1914.999999999918
 10
829.6726535465284
 20
1914.999999999918
 10
830.4727402946026
 20
1914.999999999918
 10
831.2213344834741
 20
1914.999999999918
 10
831.9172385221325
 20
1914.999999999918
 10
832.5593391125673
 20
1914.999999999918
 10
833.1466090308079
 20
1914.999999999918
 10
833.6781087702631
 20
1914.999999999918
 10
834.15298804473
 20
1914.999999999918
 10
834.5704871486717
 20
1914.999999999918
 10
834.9299381725836
 20
1914.999999999918
 10
835.2307660715064
 20
1914.999999999918
 10
835.4724895849747
 20
1914.999999999918
 10
835.6547220069323
 20
1914.999999999918
 10
835.777171804378
 20
1914.999999999918
 10
835.839643083757
 20
1914.999999999918
 10
835.848399433981
 20
1914.999999999918
  0
LINE
  5
EE
330
87
100
AcDbEntity
  8
P-SANR-FIXT
100
AcDbLine
 10
767.2855994030541
 20
1914.999999999918
 30
0.0
 11
767.2855994030541
 21
1914.499999999918
 31
0.0
  0
LINE
  5
EF
330
87
100
AcDbEntity
  8
P-SANR-FIXT
100
AcDbLine
 10
829.2855994030553
 20
1914.499999999918
 30
0.0
 11
829.2855994030553
 21
1914.999999999918
 31
0.0
  0
LWPOLYLINE
  5
F0
330
87
100
AcDbEntity
  8
P-SANR-FIXT
100
AcDbPolyline
 90
       22
 70
   128
 43
0.0
 10
830.2855994030553
 20
1887.499999999918
 10
829.9718360234759
 20
1886.012840121247
 10
829.5988530877563
 20
1884.539417000497
 10
829.1672472890287
 20
1883.082087800351
 10
828.6777091044999
 20
1881.643183936646
 10
828.131021690836
 20
1880.225007348616
 10
827.5280596312786
 20
1878.829826816273
 10
826.8697875364978
 20
1877.459874330845
 10
826.157258501421
 20
1876.11734152407
 10
825.3916124205067
 20
1874.804376162045
 10
824.5740741641553
 20
1873.523078709267
 10
823.7059516191775
 20
1872.275498968329
 10
822.7886335964564
 20
1871.063632800682
 10
821.8235876091437
 20
1869.889418933677
 10
820.812357524954
 20
1868.754735859015
 10
819.7565610963044
 20
1867.661398827562
 10
818.6578873722556
 20
1866.611156945336
 10
817.5180939963956
 20
1865.60569037531
 10
816.3390043949826
 20
1864.646607649505
 10
815.1225048598529
 20
1863.735443095693
 10
813.8705415307569
 20
1862.873654382785
 10
812.6995136390959
 20
1862.131913792879
  0
LWPOLYLINE
  5
F1
330
87
100
AcDbEntity
  8
P-SANR-FIXT
100
AcDbPolyline
 90
       22
 70
   128
 43
0.0
 10
783.8716851670134
 20
1862.131913792879
 10
782.5891234281777
 20
1862.947467193442
 10
781.3402010394156
 20
1863.813657028261
 10
780.126916010127
 20
1864.729097578379
 10
778.9512093375384
 20
1865.692324334199
 10
777.8149619015217
 20
1866.701796338388
 10
776.7199914555883
 20
1867.755898651082
 10
775.6680497188702
 20
1868.852944933445
 10
774.6608195737438
 20
1869.991180145449
 10
773.6999123735773
 20
1871.168783353564
 10
772.7868653649082
 20
1872.383870643867
 10
771.9231392281775
 20
1873.634498135898
 10
771.1101157409518
 20
1874.918665092456
 10
770.3490955673755
 20
1876.234317120352
 10
769.6412961773837
 20
1877.579349456997
 10
768.9878498990114
 20
1878.95161033758
 10
768.3898021069093
 20
1880.348904437423
 10
767.8481095499681
 20
1881.768996384042
 10
767.3636388207242
 20
1883.209614333257
 10
766.937164968996
 20
1884.668453603666
 10
766.56937026197
 20
1886.143180363639
 10
766.285599403054
 20
1887.499999999918
  0
LWPOLYLINE
  5
F2
330
87
100
AcDbEntity
  8
P-SANR-FIXT
100
AcDbPolyline
 90
       28
 70
   128
 43
0.0
 10
812.6995136390958
 20
1862.131913792879
 10
812.6681303896051
 20
1862.10711705258
 10
812.6377638485013
 20
1862.081085151777
 10
812.6084625957721
 20
1862.053859735957
 10
812.5802735071717
 20
1862.025484359979
 10
812.5532416792278
 20
1861.99600441839
 10
812.5274103570991
 20
1861.965467072809
 10
812.5028208653906
 20
1861.933921176474
 10
812.4795125420432
 20
1861.901417196091
 10
812.4575226754027
 20
1861.868007131093
 10
812.4368864445642
 20
1861.833744430457
 10
812.4176368630951
 20
1861.798683907197
 10
812.3998047262197
 20
1861.762881650669
 10
812.3834185615526
 20
1861.726394936846
 10
812.3685045834619
 20
1861.689282136689
 10
812.3550866511312
 20
1861.651602622758
 10
812.3431862303895
 20
1861.613416674241
 10
812.3328223593714
 20
1861.574785380506
 10
812.3240116180605
 20
1861.535770543385
 10
812.3167681017623
 20
1861.496434578294
 10
812.3111033985583
 20
1861.456840414385
 10
812.3070265707649
 20
1861.417051393874
 10
812.3045441404373
 20
1861.377131170707
 10
812.303660078934
 20
1861.337143608725
 10
812.304375800565
 20
1861.297152679496
 10
812.3066901603285
 20
1861.257222359976
 10
812.3105994557427
 20
1861.217416530159
 10
812.3115517677577
 20
1861.209637466731
  0
LWPOLYLINE
  5
F3
330
87
100
AcDbEntity
  8
P-SANR-FIXT
100
AcDbPolyline
 90
       28
 70
   128
 43
0.0
 10
784.2596470383514
 20
1861.209637466731
 10
784.2638681750806
 20
1861.249411436645
 10
784.2664954007757
 20
1861.289322392073
 10
784.2675245124363
 20
1861.329306484001
 10
784.2669538637028
 20
1861.369299746409
 10
784.2647843674921
 20
1861.40923819861
 10
784.2610194945349
 20
1861.449057947601
 10
784.2556652678247
 20
1861.488695290276
 10
784.2487302529826
 20
1861.528086815344
 10
784.2402255445525
 20
1861.567169504768
 10
784.2301647482535
 20
1861.60588083458
 10
784.2185639592141
 20
1861.644158874913
 10
784.2054417362214
 20
1861.681942389066
 10
784.1908190720334
 20
1861.719170931478
 10
784.1747193597933
 20
1861.755784944421
 10
784.1571683556062
 20
1861.791725853287
 10
784.138194137335
 20
1861.826936160287
 10
784.1178270596811
 20
1861.861359536441
 10
784.0960997056241
 20
1861.894940911692
 10
784.0730468342955
 20
1861.927626563002
 10
784.0487053253718
 20
1861.959364200302
 10
784.0231141200746
 20
1861.990103050142
 10
783.9963141588733
 20
1862.019793936919
 10
783.9683483159888
 20
1862.04838936155
 10
783.939261330804
 20
1862.075843577454
 10
783.9090997362904
 20
1862.102112663743
 10
783.8779117845649
 20
1862.127154595481
 10
783.8716851670133
 20
1862.131913792879
  0
LINE
  5
F4
330
87
100
AcDbEntity
  8
P-SANR-FIXT
100
AcDbLine
 10
837.2855994030533
 20
1917.499999999981
 30
0.0
 11
759.285599403053
 21
1917.499999999981
 31
0.0
  0
LINE
  5
F5
330
87
100
AcDbEntity
  8
P-SANR-FIXT
100
AcDbLine
 10
783.871685167012
 20
1862.131913792878
 30
0.0
 11
812.6995136390943
 21
1862.131913792878
 31
0.0
  0
LINE
  5
F6
330
87
100
AcDbEntity
  8
P-SANR-FIXT
100
AcDbLine
 10
784.25964703835
 20
1861.20963746673
 30
0.0
 11
792.9180998099394
 21
1861.20963746673
 31
0.0
  0
LINE
  5
F7
330
87
100
AcDbEntity
  8
P-SANR-FIXT
100
AcDbLine
 10
793.0867472728529
 20
1861.20963746673
 30
0.0
 11
803.484451533253
 21
1861.20963746673
 31
0.0
  0
LINE
  5
F8
330
87
100
AcDbEntity
  8
P-SANR-FIXT
100
AcDbLine
 10
803.6530989961672
 20
1861.20963746673
 30
0.0
 11
812.3115517677563
 21
1861.20963746673
 31
0.0
  0
LINE
  5
F9
330
87
100
AcDbEntity
  8
P-SANR-FIXT
100
AcDbLine
 10
860.2855994030546
 20
2027.999999999996
 30
0.0
 11
858.8422237300806
 21
2030.499999999996
 31
0.0
  0
LINE
  5
FA
330
87
100
AcDbEntity
  8
P-SANR-FIXT
100
AcDbLine
 10
858.8422237300804
 20
1969.499999999995
 30
0.0
 11
860.2855994030543
 21
1971.999999999995
 31
0.0
  0
LINE
  5
FB
330
87
100
AcDbEntity
  8
P-SANR-FIXT
100
AcDbLine
 10
858.8422237300807
 20
2030.499999999996
 30
0.0
 11
841.4228533362486
 21
2030.499999999996
 31
0.0
  0
LINE
  5
FC
330
87
100
AcDbEntity
  8
P-SANR-FIXT
100
AcDbLine
 10
845.3433901292273
 20
1969.499999999995
 30
0.0
 11
858.8422237300804
 21
1969.499999999995
 31
0.0
  0
LINE
  5
FD
330
87
100
AcDbEntity
  8
P-SANR-FIXT
100
AcDbLine
 10
737.7289750760284
 20
1969.499999999996
 30
0.0
 11
751.2278086768819
 21
1969.499999999996
 31
0.0
  0
LINE
  5
FE
330
87
100
AcDbEntity
  8
P-SANR-FIXT
100
AcDbLine
 10
755.1483454699084
 20
2030.499999999996
 30
0.0
 11
737.7289750760285
 21
2030.499999999996
 31
0.0
  0
LINE
  5
FF
330
87
100
AcDbEntity
  8
P-SANR-FIXT
100
AcDbLine
 10
737.7289750760284
 20
2030.499999999996
 30
0.0
 11
736.2855994030545
 21
2027.999999999996
 31
0.0
  0
LINE
  5
100
330
87
100
AcDbEntity
  8
P-SANR-FIXT
100
AcDbLine
 10
736.2855994030543
 20
1971.999999999995
 30
0.0
 11
737.7289750760283
 21
1969.499999999996
 31
0.0
  0
LINE
  5
101
330
87
100
AcDbEntity
  8
P-SANR-FIXT
100
AcDbLine
 10
837.7855994030541
 20
1917.999999999995
 30
0.0
 11
837.7855994030541
 21
1927.499999999995
 31
0.0
  0
LINE
  5
102
330
87
100
AcDbEntity
  8
P-SANR-FIXT
100
AcDbLine
 10
758.7855994030539
 20
1927.499999999995
 30
0.0
 11
758.7855994030539
 21
1917.999999999995
 31
0.0
  0
LWPOLYLINE
  5
103
330
87
100
AcDbEntity
  8
P-SANR-FIXT
100
AcDbPolyline
 90
       10
 70
   128
 43
0.0
 10
758.7855994030539
 20
1927.499999999995
 10
758.5400270893743
 20
1929.484731955163
 10
758.2152830979264
 20
1931.458056063142
 10
757.8118869498216
 20
1933.416815426311
 10
757.3304839928437
 20
1935.357876447537
 10
756.77184436903
 20
1937.278133843257
 10
756.1368617826085
 20
1939.17451561127
 10
755.4265520702618
 20
1941.043987945287
 10
754.6420515760051
 20
1942.883560088374
 10
753.8086562235112
 20
1944.642077078498
  0
LWPOLYLINE
  5
104
330
87
100
AcDbEntity
  8
P-SANR-FIXT
100
AcDbPolyline
 90
       10
 70
   128
 43
0.0
 10
842.7625425825974
 20
1944.642077078498
 10
841.9070535373583
 20
1942.834425234644
 10
841.124535585785
 20
1940.994008882137
 10
840.416240589672
 20
1939.123772294539
 10
839.7833016699179
 20
1937.226707451427
 10
839.2267313937745
 20
1935.305849251865
 10
838.7474201549551
 20
1933.364270659211
 10
838.3461347491943
 20
1931.405077785032
 10
838.0235171475383
 20
1929.431404919988
 10
837.7855994030541
 20
1927.499999999995
  0
LWPOLYLINE
  5
105
330
87
100
AcDbEntity
  8
P-SANR-FIXT
100
AcDbPolyline
 90
        9
 70
   128
 43
0.0
 10
753.8086562235112
 20
1944.642077078498
 10
753.7584171755911
 20
1944.74823239178
 10
753.7124633938495
 20
1944.856311818209
 10
753.6708683945339
 20
1944.96614245376
 10
753.6336987207703
 20
1945.077548592847
 10
753.6010138361076
 20
1945.190352009409
 10
753.5728660293885
 20
1945.304372242046
 10
753.5493003310996
 20
1945.419426882708
 10
753.5357814278732
 20
1945.499001589113
  0
LWPOLYLINE
  5
106
330
87
100
AcDbEntity
  8
P-SANR-FIXT
100
AcDbPolyline
 90
        9
 70
   128
 43
0.0
 10
843.0354173782353
 20
1945.499001589113
 10
843.0150230057929
 20
1945.383342685234
 10
842.9900198241144
 20
1945.268591853517
 10
842.9604478329567
 20
1945.154932670815
 10
842.9263543411972
 20
1945.042546967572
 10
842.8877938911499
 20
1944.931614536941
 10
842.8448281713091
 20
1944.822312847145
 10
842.797525917661
 20
1944.714816757572
 10
842.7625425825974
 20
1944.642077078498
  0
LWPOLYLINE
  5
107
330
87
100
AcDbEntity
  8
P-SANR-FIXT
100
AcDbPolyline
 90
        4
 70
   128
 43
0.0
 10
753.5357814278732
 20
1945.499001589113
 10
752.4327505192775
 20
1953.648141507257
 10
751.6564805972784
 20
1961.834872454284
 10
751.2278086768819
 20
1969.499999999996
  0
LWPOLYLINE
  5
108
330
87
100
AcDbEntity
  8
P-SANR-FIXT
100
AcDbPolyline
 90
        4
 70
   128
 43
0.0
 10
845.3433901292273
 20
1969.499999999995
 10
844.8733006624228
 20
1961.28999546382
 10
844.0752746019809
 20
1953.105356620373
 10
843.0354173782353
 20
1945.499001589113
  0
LWPOLYLINE
  5
109
330
87
100
AcDbEntity
  8
P-SANR-FIXT
100
AcDbPolyline
 90
       20
 70
   128
 43
0.0
 10
755.1483454698873
 20
2030.500000000019
 10
755.5145984341192
 20
2030.810206460026
 10
755.8929633848406
 20
2031.105518575767
 10
756.2828350188441
 20
2031.385463910856
 10
756.6835896246832
 20
2031.649594612474
 10
757.0945860804784
 20
2031.897488127843
 10
757.5151668795752
 20
2032.12874788022
 10
757.9446591824141
 20
2032.343003903334
 10
758.3823758929303
 20
2032.539913433254
 10
758.827616757762
 20
2032.719161456736
 10
759.279669486505
 20
2032.88046121518
 10
759.7378108912262
 20
2033.023554663383
 10
760.2013080434093
 20
2033.148212882352
 10
760.6694194464853
 20
2033.254236445528
 10
761.1413962220675
 20
2033.341455737828
 10
761.6164833079981
 20
2033.40973122699
 10
762.0939206662861
 20
2033.458953686797
 10
762.5729444990059
 20
2033.489044371812
 10
763.0527884702119
 20
2033.499955143358
 10
763.085599403055
 20
2033.499999999996
  0
LWPOLYLINE
  5
10A
330
87
100
AcDbEntity
  8
P-SANR-FIXT
100
AcDbPolyline
 90
       20
 70
   128
 43
0.0
 10
833.4855994030551
 20
2033.499999999996
 10
833.9654714132946
 20
2033.490401279927
 10
834.444575730685
 20
2033.461620475627
 10
834.9221458905219
 20
2033.413703630242
 10
835.3974178824259
 20
2033.346727400503
 10
835.8696313725955
 20
2033.26079893409
 10
836.3380309201806
 20
2033.15605569822
 10
836.8018671858242
 20
2033.032665259725
 10
837.2603981304484
 20
2032.890825016985
 10
837.712890202356
 20
2032.730761884131
 10
838.1586195107587
 20
2032.55273192803
 10
838.5968729838468
 20
2032.357019958635
 10
839.0269495095527
 20
2032.143939073347
 10
839.4481610571798
 20
2031.913830156128
 10
839.8598337781056
 20
2031.667061332157
 10
840.2613090837954
 20
2031.404027378912
 10
840.6519446994035
 20
2031.125149094608
 10
841.0311156912765
 20
2030.830872625006
 10
841.3982154667127
 20
2030.521668749686
 10
841.4228533362486
 20
2030.499999999996
  0
LWPOLYLINE
  5
10B
330
87
100
AcDbEntity
  8
P-SANR-FIXT
100
AcDbPolyline
 90
        4
 70
   128
 43
0.0
 10
763.085599403055
 20
2033.499999999996
 10
763.1137556485886
 20
2033.499999999996
 10
763.1981793412027
 20
2033.499999999996
 10
763.2996529078451
 20
2033.499999999996
  0
LWPOLYLINE
  5
10C
330
87
100
AcDbEntity
  8
P-SANR-FIXT
100
AcDbPolyline
 90
        5
 70
   128
 43
0.0
 10
833.276898003521
 20
2033.499999999996
 10
833.3041048013079
 20
2033.499999999996
 10
833.4188521808039
 20
2033.499999999996
 10
833.4773938505501
 20
2033.499999999996
 10
833.4855994030549
 20
2033.499999999996
  0
LWPOLYLINE
  5
10D
330
87
100
AcDbEntity
  8
P-SANR-FIXT
100
AcDbPolyline
 90
       80
 70
   128
 43
0.0
 10
833.4855994030549
 20
2033.499999999996
 10
833.4574431575216
 20
2033.499999999996
 10
833.3730194649072
 20
2033.499999999996
 10
833.2324633851111
 20
2033.499999999996
 10
833.0359997778769
 20
2033.499999999996
 10
832.7839429430666
 20
2033.499999999996
 10
832.4766961178465
 20
2033.499999999996
 10
832.1147508315942
 20
2033.499999999996
 10
831.6986861195568
 20
2033.499999999996
 10
831.2291675965182
 20
2033.499999999996
 10
830.7069463919566
 20
2033.499999999996
 10
830.1328579483977
 20
2033.499999999996
 10
829.5078206848858
 20
2033.499999999996
 10
828.8328345277081
 20
2033.499999999996
 10
828.1089793107272
 20
2033.499999999996
 10
827.3374130478757
 20
2033.499999999996
 10
826.5193700805822
 20
2033.499999999996
 10
825.6561591030875
 20
2033.499999999996
 10
824.7491610688143
 20
2033.499999999996
 10
823.7998269811347
 20
2033.499999999996
 10
822.8096755720752
 20
2033.499999999996
 10
821.7802908726689
 20
2033.499999999996
 10
820.7133196788449
 20
2033.499999999996
 10
819.6104689169047
 20
2033.499999999996
 10
818.4735029128052
 20
2033.499999999996
 10
817.3042405696133
 20
2033.499999999996
 10
816.1045524576486
 20
2033.499999999996
 10
814.8763578219705
 20
2033.499999999996
 10
813.6216215119953
 20
2033.499999999996
 10
812.3423508381558
 20
2033.499999999996
 10
811.0405923606339
 20
2033.499999999996
 10
809.7184286152998
 20
2033.499999999996
 10
808.3779747820999
 20
2033.499999999996
 10
807.0213753012184
 20
2033.499999999996
 10
805.650800442433
 20
2033.499999999996
 10
804.2684428331435
 20
2033.499999999996
 10
802.8765139506377
 20
2033.499999999996
 10
801.4772405841988
 20
2033.499999999996
 10
800.0728612727169
 20
2033.499999999996
 10
798.665622723506
 20
2033.499999999996
 10
797.2577762180496
 20
2033.499999999996
 10
795.851574010432
 20
2033.499999999996
 10
794.4492657242116
 20
2033.499999999996
 10
793.053094753503
 20
2033.499999999996
 10
791.6652946740256
 20
2033.499999999996
 10
790.2880856698583
 20
2033.499999999996
 10
788.923670981619
 20
2033.499999999996
 10
787.5742333817489
 20
2033.499999999996
 10
786.2419316825435
 20
2033.499999999996
 10
784.9288972825119
 20
2033.499999999996
 10
783.6372307565956
 20
2033.499999999996
 10
782.368998495695
 20
2033.499999999996
 10
781.1262294008854
 20
2033.499999999996
 10
779.9109116376091
 20
2033.499999999996
 10
778.7249894550334
 20
2033.499999999996
 10
777.5703600756667
 20
2033.499999999996
 10
776.4488706602086
 20
2033.499999999996
 10
775.3623153524854
 20
2033.499999999996
 10
774.3124324092031
 20
2033.499999999996
 10
773.3009014191082
 20
2033.499999999996
 10
772.3293406160031
 20
2033.499999999996
 10
771.3993042899171
 20
2033.499999999996
 10
770.5122803005755
 20
2033.499999999996
 10
769.6696876971389
 20
2033.499999999996
 10
768.8728744480295
 20
2033.499999999996
 10
768.1231152844681
 20
2033.499999999996
 10
767.4216096611765
 20
2033.499999999996
 10
766.7694798375049
 20
2033.499999999996
 10
766.1677690820582
 20
2033.499999999996
 10
765.6174400036865
 20
2033.499999999996
 10
765.1193730115182
 20
2033.499999999996
 10
764.6743649064923
 20
2033.499999999996
 10
764.2831276066464
 20
2033.499999999996
 10
763.9462870082009
 20
2033.499999999996
 10
763.664381984258
 20
2033.499999999996
 10
763.4378635227192
 20
2033.499999999996
 10
763.2670940048021
 20
2033.499999999996
 10
763.1523466253058
 20
2033.499999999996
 10
763.09380495556
 20
2033.499999999996
 10
763.085599403055
 20
2033.499999999996
  0
LWPOLYLINE
  5
10E
330
87
100
AcDbEntity
  8
P-SANR-FIXT
100
AcDbPolyline
 90
       39
 70
   128
 43
0.0
 10
777.685172872901
 20
2033.515991468483
 10
777.8841604394996
 20
2033.535956820727
 10
778.0821904361261
 20
2033.563863583118
 10
778.2789460570304
 20
2033.59966711079
 10
778.4741125351906
 20
2033.643310125736
 10
778.6673776458757
 20
2033.694722808442
 10
778.8584322061356
 20
2033.753822909584
 10
779.0469705694305
 20
2033.820515881607
 10
779.2326911145983
 20
2033.894695029982
 10
779.415296728385
 20
2033.976241683896
 10
779.5944952807625
 20
2034.0650253861
 10
779.7700000922738
 20
2034.160904101608
 10
779.9415303926594
 20
2034.263724444929
 10
780.1088117700302
 20
2034.373321925448
 10
780.2715766098669
 20
2034.489521210575
 10
780.4295645231475
 20
2034.612136406241
 10
780.5825227629124
 20
2034.740971354292
 10
780.7302066286077
 20
2034.875819946292
 10
780.8723798575528
 20
2035.01646645326
 10
781.0088150029094
 20
2035.16268587079
 10
781.1392937975499
 20
2035.314244279003
 10
781.2636075032368
 20
2035.470899216779
 10
781.38155724456
 20
2035.632400069633
 10
781.4929543270944
 20
2035.798488470655
 10
781.5976205392717
 20
2035.968898713832
 10
781.6953884374798
 20
2036.143358179128
 10
781.7861016139374
 20
2036.321587768613
 10
781.869614946914
 20
2036.503302352965
 10
781.9457948328912
 20
2036.688211227613
 10
782.0145194003027
 20
2036.876018577802
 10
782.0756787045012
 20
2037.066423951836
 10
782.1291749036464
 20
2037.259122741734
 10
782.1749224152316
 20
2037.453806670539
 10
782.2128480529974
 20
2037.650164285495
 10
782.2428911440136
 20
2037.847881456305
 10
782.2650036257432
 20
2038.046641877675
 10
782.279150122933
 20
2038.246127575328
 10
782.2853080042047
 20
2038.446019414705
 10
782.2855994030549
 20
2038.499999999996
  0
LWPOLYLINE
  5
10F
330
87
100
AcDbEntity
  8
P-SANR-FIXT
100
AcDbPolyline
 90
       38
 70
   128
 43
0.0
 10
814.2855994030547
 20
2038.499999999996
 10
814.28959886975
 20
2038.300053329063
 10
814.3015908715417
 20
2038.10042653015
 10
814.3215562237854
 20
2037.901438963551
 10
814.3494629861768
 20
2037.703408966925
 10
814.3852665138485
 20
2037.506653346021
 10
814.4289095287946
 20
2037.31148686786
 10
814.480322211501
 20
2037.118221757175
 10
814.5394223126427
 20
2036.927167196915
 10
814.6061152846652
 20
2036.73862883362
 10
814.6802944330403
 20
2036.552908288452
 10
814.7618410869551
 20
2036.370302674666
 10
814.8506247891583
 20
2036.191104122289
 10
814.9465035046667
 20
2036.015599310777
 10
815.0493238479878
 20
2035.844069010391
 10
815.1589213285065
 20
2035.676787633021
 10
815.2751206136333
 20
2035.514022793184
 10
815.3977358093001
 20
2035.356034879903
 10
815.5265707573503
 20
2035.203076640138
 10
815.6614193493503
 20
2035.055392774443
 10
815.802065856319
 20
2034.913219545498
 10
815.9482852738483
 20
2034.776784400142
 10
816.0998436820619
 20
2034.646305605501
 10
816.2564986198374
 20
2034.521991899814
 10
816.4179994726925
 20
2034.404042158491
 10
816.5840878737139
 20
2034.292645075956
 10
816.7544981168909
 20
2034.187978863779
 10
816.928957582186
 20
2034.090210965571
 10
817.1071871716712
 20
2033.999497789113
 10
817.2889017560233
 20
2033.915984456137
 10
817.4738106306715
 20
2033.83980457016
 10
817.6616179808609
 20
2033.771080002748
 10
817.8520233548949
 20
2033.70992069855
 10
818.0447221447931
 20
2033.656424499405
 10
818.2394060735976
 20
2033.610676987819
 10
818.4357636885536
 20
2033.572751350053
 10
818.633480859364
 20
2033.542708259037
 10
818.8322412807334
 20
2033.520595777308
  0
LINE
  5
110
330
87
100
AcDbEntity
  8
P-SANR-FIXT
100
AcDbLine
 10
814.2855994030549
 20
2038.499999999996
 30
0.0
 11
814.2855994030549
 21
2044.499999999996
 31
0.0
  0
LINE
  5
111
330
87
100
AcDbEntity
  8
P-SANR-FIXT
100
AcDbLine
 10
782.2855994030552
 20
2044.499999999997
 30
0.0
 11
782.2855994030552
 21
2038.499999999996
 31
0.0
  0
LINE
  5
112
330
87
100
AcDbEntity
  8
P-SANR-FIXT
100
AcDbLine
 10
814.2855994030547
 20
2044.499999999996
 30
0.0
 11
813.7855994030548
 21
2044.999999999996
 31
0.0
  0
LINE
  5
113
330
87
100
AcDbEntity
  8
P-SANR-FIXT
100
AcDbLine
 10
782.7855994030544
 20
2044.999999999996
 30
0.0
 11
782.2855994030545
 21
2044.499999999996
 31
0.0
  0
LINE
  5
114
330
87
100
AcDbEntity
  8
P-SANR-FIXT
100
AcDbLine
 10
758.7855994030542
 20
1917.999999999995
 30
0.0
 11
759.2855994030543
 21
1917.499999999996
 31
0.0
  0
LINE
  5
115
330
87
100
AcDbEntity
  8
P-SANR-FIXT
100
AcDbLine
 10
837.2855994030548
 20
1917.499999999996
 30
0.0
 11
837.7855994030548
 21
1917.999999999995
 31
0.0
  0
LWPOLYLINE
  5
116
330
87
100
AcDbEntity
  8
P-SANR-FIXT
100
AcDbPolyline
 90
       41
 70
   128
 43
0.0
 10
810.7855994030547
 20
2048.998270477378
 10
810.9055674056147
 20
2048.995870797361
 10
811.0253434849621
 20
2048.988675596286
 10
811.1447360249215
 20
2048.97669638494
 10
811.2635540228975
 20
2048.959952327504
 10
811.3816073954399
 20
2048.938470210901
 10
811.498707282336
 20
2048.912284401934
 10
811.6146663487469
 20
2048.88143679231
 10
811.7292990849032
 20
2048.845976731625
 10
811.8424221028799
 20
2048.805960948411
 10
811.9538544299807
 20
2048.761453459386
 10
812.0634177982527
 20
2048.712525467037
 10
812.1709369296794
 20
2048.659255245715
 10
812.276239816586
 20
2048.601728016411
 10
812.3791579968177
 20
2048.540035810418
 10
812.47952682324
 20
2048.474277322107
 10
812.5771857271422
 20
2048.40455775103
 10
812.6719784751102
 20
2048.330988633631
 10
812.7637534189693
 20
2048.2536876648
 10
812.8523637383866
 20
2048.1727785096
 10
812.9376676757535
 20
2048.088390605419
 10
813.0195287629675
 20
2048.000658954901
 10
813.0978160397518
 20
2047.909723909973
 10
813.172404263164
 20
2047.815730947308
 10
813.243174107958
 20
2047.718830435595
 10
813.3100123574786
 20
2047.619177394982
 10
813.3728120847848
 20
2047.516931249076
 10
813.4314728237097
 20
2047.412255569899
 10
813.4859007295844
 20
2047.305317816208
 10
813.5360087293701
 20
2047.196289065596
 10
813.5817166609566
 20
2047.085343740808
 10
813.6229514014036
 20
2046.972659330694
 10
813.6596469839224
 20
2046.858416106274
 10
813.6917447034097
 20
2046.742796832335
 10
813.7191932103609
 20
2046.625986475052
 10
813.7419485930204
 20
2046.508171906078
 10
813.7599744476299
 20
2046.389541603592
 10
813.7732419366679
 20
2046.270285350771
 10
813.7817298349816
 20
2046.150593932178
 10
813.7854245637448
 20
2046.030658828552
 10
813.7855994030548
 20
2045.998270477378
  0
LWPOLYLINE
  5
117
330
87
100
AcDbEntity
  8
P-SANR-FIXT
100
AcDbPolyline
 90
       41
 70
   128
 43
0.0
 10
782.7855994030544
 20
2045.998270477378
 10
782.7879990830714
 20
2046.118238479937
 10
782.7951942841466
 20
2046.238014559286
 10
782.807173495493
 20
2046.357407099244
 10
782.8239175529274
 20
2046.476225097221
 10
782.8453996695306
 20
2046.594278469763
 10
782.8715854784983
 20
2046.711378356659
 10
782.9024330881221
 20
2046.82733742307
 10
782.9378931488072
 20
2046.941970159226
 10
782.9779089320206
 20
2047.055093177203
 10
783.0224164210459
 20
2047.166525504304
 10
783.0713444133946
 20
2047.276088872576
 10
783.1246146347166
 20
2047.383608004002
 10
783.1821418640214
 20
2047.488910890909
 10
783.2438340700142
 20
2047.59182907114
 10
783.3095925583253
 20
2047.692197897563
 10
783.3793121294016
 20
2047.789856801465
 10
783.4528812468016
 20
2047.884649549433
 10
783.5301822156318
 20
2047.976424493292
 10
783.6110913708318
 20
2048.065034812709
 10
783.6954792750129
 20
2048.150338750076
 10
783.7832109255304
 20
2048.23219983729
 10
783.8741459704587
 20
2048.310487114075
 10
783.968138933124
 20
2048.385075337487
 10
784.065039444837
 20
2048.45584518228
 10
784.16469248545
 20
2048.522683431801
 10
784.2669386313562
 20
2048.585483159107
 10
784.3716143105331
 20
2048.644143898033
 10
784.4785520642242
 20
2048.698571803907
 10
784.5875808148356
 20
2048.748679803693
 10
784.6985261396242
 20
2048.794387735279
 10
784.8112105497379
 20
2048.835622475726
 10
784.9254537741584
 20
2048.872318058245
 10
785.0410730480971
 20
2048.904415777732
 10
785.1578834053801
 20
2048.931864284683
 10
785.2756979743535
 20
2048.954619667343
 10
785.3943282768398
 20
2048.972645521953
 10
785.5135845296614
 20
2048.98591301099
 10
785.6332759482536
 20
2048.994400909305
 10
785.7532110518797
 20
2048.998095638068
 10
785.7855994030545
 20
2048.998270477378
  0
LWPOLYLINE
  5
118
330
87
100
AcDbEntity
  8
P-SANR-FIXT
100
AcDbPolyline
 90
        5
 70
   128
 43
0.0
 10
785.7855994030545
 20
2048.998270477378
 10
785.795598069792
 20
2048.998270477378
 10
785.8255780742715
 20
2048.998270477378
 10
785.8754914548809
 20
2048.998270477378
 10
785.8879420084813
 20
2048.998270477378
  0
LWPOLYLINE
  5
119
330
87
100
AcDbEntity
  8
P-SANR-FIXT
100
AcDbPolyline
 90
        5
 70
   128
 43
0.0
 10
810.6816747032798
 20
2048.998270477378
 10
810.7211481950479
 20
2048.998270477378
 10
810.7618965542441
 20
2048.998270477378
 10
810.7826854994666
 20
2048.998270477378
 10
810.7855994030547
 20
2048.998270477378
  0
LWPOLYLINE
  5
11A
330
87
100
AcDbEntity
  8
P-SANR-FIXT
100
AcDbPolyline
 90
       80
 70
   128
 43
0.0
 10
810.7855994030547
 20
2048.998270477378
 10
810.7756007363169
 20
2048.998270477378
 10
810.7456207318374
 20
2048.998270477378
 10
810.6957073512282
 20
2048.998270477378
 10
810.6259404452501
 20
2048.998270477378
 10
810.5364316260702
 20
2048.998270477378
 10
810.4273240887051
 20
2048.998270477378
 10
810.2987923819394
 20
2048.998270477378
 10
810.1510421290853
 20
2048.998270477378
 10
809.9843096990289
 20
2048.998270477378
 10
809.7988618280908
 20
2048.998270477378
 10
809.5949951933043
 20
2048.998270477378
 10
809.3730359377959
 20
2048.998270477378
 10
809.1333391490254
 20
2048.998270477378
 10
808.8762882907227
 20
2048.998270477378
 10
808.6022945894256
 20
2048.998270477378
 10
808.3117963766083
 20
2048.998270477378
 10
808.0052583874413
 20
2048.998270477378
 10
807.6831710173159
 20
2048.998270477378
 10
807.346049537316
 20
2048.998270477378
 10
806.9944332698943
 20
2048.998270477378
 10
806.6288847260711
 20
2048.998270477378
 10
806.249988705537
 20
2048.998270477378
 10
805.8583513610981
 20
2048.998270477378
 10
805.4545992289606
 20
2048.998270477378
 10
805.0393782264066
 20
2048.998270477378
 10
804.6133526184647
 20
2048.998270477378
 10
804.1772039552267
 20
2048.998270477378
 10
803.7316299815138
 20
2048.998270477378
 10
803.2773435206333
 20
2048.998270477378
 10
802.8150713340133
 20
2048.998270477378
 10
802.3455529585396
 20
2048.998270477378
 10
801.8695395234542
 20
2048.998270477378
 10
801.3877925487095
 20
2048.998270477378
 10
800.9010827266974
 20
2048.998270477378
 10
800.4101886893078
 20
2048.998270477378
 10
799.9158957622816
 20
2048.998270477378
 10
799.4189947088586
 20
2048.998270477378
 10
798.9202804647245
 20
2048.998270477378
 10
798.4205508662831
 20
2048.998270477378
 10
797.9206053742886
 20
2048.998270477378
 10
797.4212437948789
 20
2048.998270477378
 10
796.9232650000563
 20
2048.998270477378
 10
796.4274656496627
 20
2048.998270477378
 10
795.9346389168938
 20
2048.998270477378
 10
795.4455732193912
 20
2048.998270477378
 10
794.9610509579425
 20
2048.998270477378
 10
794.4818472648067
 20
2048.998270477378
 10
794.0087287636685
 20
2048.998270477378
 10
793.5424523432027
 20
2048.998270477378
 10
793.0837639462152
 20
2048.998270477378
 10
792.6333973762933
 20
2048.998270477378
 10
792.1920731238751
 20
2048.998270477378
 10
791.7604972136207
 20
2048.998270477378
 10
791.3393600749219
 20
2048.998270477378
 10
790.9293354373625
 20
2048.998270477378
 10
790.5310792528959
 20
2048.998270477378
 10
790.14522864646
 20
2048.998270477378
 10
789.7724008967148
 20
2048.998270477378
 10
789.413192448528
 20
2048.998270477378
 10
789.0681779587888
 20
2048.998270477378
 10
788.7379093770821
 20
2048.998270477378
 10
788.4229150626853
 20
2048.998270477378
 10
788.1236989393056
 20
2048.998270477378
 10
787.8407396889119
 20
2048.998270477378
 10
787.5744899859426
 20
2048.998270477378
 10
787.3253757731259
 20
2048.998270477378
 10
787.0937955800607
 20
2048.998270477378
 10
786.8801198856548
 20
2048.998270477378
 10
786.6846905254377
 20
2048.998270477378
 10
786.5078201446962
 20
2048.998270477378
 10
786.349791698309
 20
2048.998270477378
 10
786.2108579980797
 20
2048.998270477378
 10
786.0912413082907
 20
2048.998270477378
 10
785.9911329901294
 20
2048.998270477378
 10
785.9106931955488
 20
2048.998270477378
 10
785.850050611061
 20
2048.998270477378
 10
785.809302251865
 20
2048.998270477378
 10
785.7885133066428
 20
2048.998270477378
 10
785.7855994030545
 20
2048.998270477378
  0
LINE
  5
11B
330
87
100
AcDbEntity
  8
P-SANR-FIXT
100
AcDbLine
 10
782.7855994030544
 20
2045.998270477378
 30
0.0
 11
782.7855994030544
 21
2044.999999999996
 31
0.0
  0
LINE
  5
11C
330
87
100
AcDbEntity
  8
P-SANR-FIXT
100
AcDbLine
 10
813.7855994030548
 20
2044.999999999996
 30
0.0
 11
813.7855994030548
 21
2045.998270477378
 31
0.0
  0
LINE
  5
11D
330
87
100
AcDbEntity
  8
P-SANR-FIXT
100
AcDbLine
 10
787.6355994031182
 20
1848.499999999981
 30
0.0
 11
787.6355994031182
 21
1847.499999999951
 31
0.0
  0
LINE
  5
11E
330
87
100
AcDbEntity
  8
P-SANR-FIXT
100
AcDbLine
 10
808.9355994029912
 20
1847.49999999995
 30
0.0
 11
808.9355994029912
 21
1848.499999999981
 31
0.0
  0
LINE
  5
11F
330
87
100
AcDbEntity
  8
P-SANR-FIXT
100
AcDbLine
 10
786.7906355104659
 20
1847.499999999951
 30
0.0
 11
786.7906355104659
 21
1843.299999999966
 31
0.0
  0
LINE
  5
120
330
87
100
AcDbEntity
  8
P-SANR-FIXT
100
AcDbLine
 10
809.7805632956434
 20
1843.299999999966
 30
0.0
 11
809.7805632956434
 21
1847.49999999995
 31
0.0
  0
LINE
  5
121
330
87
100
AcDbEntity
  8
P-SANR-FIXT
100
AcDbLine
 10
783.6461779852567
 20
1843.299999999966
 30
0.0
 11
783.6461779852567
 21
1829.780578582163
 31
0.0
  0
LINE
  5
122
330
87
100
AcDbEntity
  8
P-SANR-FIXT
100
AcDbLine
 10
812.9250208208526
 20
1836.449999999966
 30
0.0
 11
812.9250208208526
 21
1843.299999999966
 31
0.0
  0
LINE
  5
123
330
87
100
AcDbEntity
  8
P-SANR-FIXT
100
AcDbLine
 10
782.8655994030591
 20
1829.780578582163
 30
0.0
 11
782.8655994030591
 21
1819.499999999966
 31
0.0
  0
LINE
  5
124
330
87
100
AcDbEntity
  8
P-SANR-FIXT
100
AcDbLine
 10
813.7055994030502
 20
1819.499999999966
 30
0.0
 11
813.7055994030502
 21
1823.549999999966
 31
0.0
  0
LINE
  5
125
330
87
100
AcDbEntity
  8
P-SANR-FIXT
100
AcDbLine
 10
783.7855994030602
 20
1819.499999999966
 30
0.0
 11
783.7855994030602
 21
1817.99999999995
 31
0.0
  0
LINE
  5
126
330
87
100
AcDbEntity
  8
P-SANR-FIXT
100
AcDbLine
 10
812.785599403049
 20
1817.99999999995
 30
0.0
 11
812.785599403049
 21
1819.499999999966
 31
0.0
  0
LINE
  5
127
330
87
100
AcDbEntity
  8
P-SANR-FIXT
100
AcDbLine
 10
786.535599403059
 20
1817.99999999995
 30
0.0
 11
786.535599403059
 21
1814.99999999995
 31
0.0
  0
LINE
  5
128
330
87
100
AcDbEntity
  8
P-SANR-FIXT
100
AcDbLine
 10
810.0355994030504
 20
1814.99999999995
 30
0.0
 11
810.0355994030504
 21
1817.99999999995
 31
0.0
  0
LINE
  5
129
330
87
100
AcDbEntity
  8
P-SANR-FIXT
100
AcDbLine
 10
784.835599403059
 20
1814.99999999995
 30
0.0
 11
784.835599403059
 21
1812.999999999978
 31
0.0
  0
LINE
  5
12A
330
87
100
AcDbEntity
  8
P-SANR-FIXT
100
AcDbLine
 10
811.7355994030502
 20
1812.999999999978
 30
0.0
 11
811.7355994030502
 21
1814.99999999995
 31
0.0
  0
LINE
  5
12B
330
87
100
AcDbEntity
  8
P-SANR-FIXT
100
AcDbLine
 10
783.485599403072
 20
1812.999999999978
 30
0.0
 11
783.485599403072
 21
1803.999999999978
 31
0.0
  0
LINE
  5
12C
330
87
100
AcDbEntity
  8
P-SANR-FIXT
100
AcDbLine
 10
813.0855994030371
 20
1803.999999999978
 30
0.0
 11
813.0855994030371
 21
1812.999999999978
 31
0.0
  0
LINE
  5
12D
330
87
100
AcDbEntity
  8
P-SANR-FIXT
100
AcDbLine
 10
790.7855994030589
 20
1803.999999999978
 30
0.0
 11
790.7855994030589
 21
1780.999999999978
 31
0.0
  0
LINE
  5
12E
330
87
100
AcDbEntity
  8
P-SANR-FIXT
100
AcDbLine
 10
805.78559940305
 20
1780.999999999978
 30
0.0
 11
805.78559940305
 21
1803.999999999978
 31
0.0
  0
LINE
  5
12F
330
87
100
AcDbEntity
  8
P-SANR-FIXT
100
AcDbLine
 10
824.7855994030592
 20
1833.749999999902
 30
0.0
 11
820.2855994030592
 21
1833.749999999902
 31
0.0
  0
LINE
  5
130
330
87
100
AcDbEntity
  8
P-SANR-FIXT
100
AcDbLine
 10
820.2855994030592
 20
1826.250000000029
 30
0.0
 11
824.7855994030592
 21
1826.250000000029
 31
0.0
  0
LINE
  5
131
330
87
100
AcDbEntity
  8
P-SANR-FIXT
100
AcDbLine
 10
820.2855994030592
 20
1836.449999999966
 30
0.0
 11
812.9250208208526
 21
1836.449999999966
 31
0.0
  0
LINE
  5
132
330
87
100
AcDbEntity
  8
P-SANR-FIXT
100
AcDbLine
 10
813.7055994030502
 20
1823.549999999966
 30
0.0
 11
820.285599403059
 21
1823.549999999966
 31
0.0
  0
LINE
  5
133
330
87
100
AcDbEntity
  8
P-SANR-FIXT
100
AcDbLine
 10
860.2855994030532
 20
1998.751988937647
 30
0.0
 11
860.2855994030532
 21
2001.148519052006
 31
0.0
  0
LINE
  5
134
330
87
100
AcDbEntity
  8
P-SANR-FIXT
100
AcDbLine
 10
860.2855994030532
 20
2027.999999999995
 30
0.0
 11
860.2855994030532
 21
2023.636758633968
 31
0.0
  0
LINE
  5
135
330
87
100
AcDbEntity
  8
P-SANR-FIXT
100
AcDbLine
 10
860.2855994030532
 20
2023.582082544051
 30
0.0
 11
860.2855994030532
 21
1975.122656119221
 31
0.0
  0
LINE
  5
136
330
87
100
AcDbEntity
  8
P-SANR-FIXT
100
AcDbLine
 10
860.2855994030532
 20
1975.05181732272
 30
0.0
 11
860.285599403053
 21
1971.999999999994
 31
0.0
  0
SPLINE
  5
137
330
87
100
AcDbEntity
  8
P-SANR-FIXT
100
AcDbSpline
210
0.0
220
0.0
230
1.0
 70
     8
 71
     3
 72
     9
 73
     5
 74
     0
 42
0.000000001
 43
0.0000000001
 40
-1.0
 40
-1.0
 40
-1.0
 40
-1.0
 40
-0.5
 40
-0.4562971692538868
 40
-0.4562971692538868
 40
-0.4562971692538868
 40
-0.4562971692538868
 10
858.8422237300791
 20
2030.295404617183
 30
0.0
 10
859.8044558214683
 20
2028.262613451214
 30
0.0
 10
860.3276241333915
 20
2026.061511049972
 30
0.0
 10
860.2818962610161
 20
2023.87059353076
 30
0.0
 10
860.2745450487221
 20
2023.694553395753
 30
0.0
  0
SPLINE
  5
138
330
87
100
AcDbEntity
  8
P-SANR-FIXT
100
AcDbSpline
210
0.0
220
0.0
230
1.0
 70
     8
 71
     3
 72
     8
 73
     4
 74
     0
 42
0.000000001
 43
0.0000000001
 40
-0.4479166666666643
 40
-0.4479166666666643
 40
-0.4479166666666643
 40
-0.4479166666666643
 40
0.0
 40
0.0
 40
0.0
 40
0.0
 10
860.2699105375505
 20
2023.593287708989
 30
0.0
 10
860.180118914439
 20
2021.789285429731
 30
0.0
 10
859.7042233119486
 20
2019.99219552498
 30
0.0
 10
858.8422237300793
 20
2018.202017994735
 30
0.0
  0
SPLINE
  5
139
330
87
100
AcDbEntity
  8
P-SANR-FIXT
100
AcDbSpline
210
0.0
220
0.0
230
1.0
 70
     8
 71
     3
 72
     9
 73
     5
 74
     0
 42
0.000000001
 43
0.0000000001
 40
-1.0
 40
-1.0
 40
-1.0
 40
-1.0
 40
-0.5
 40
0.0
 40
0.0
 40
0.0
 40
0.0
 10
858.8422237300793
 20
2012.093386622443
 30
0.0
 10
859.8044558214684
 20
2008.027804290504
 30
0.0
 10
860.7666879128577
 20
1999.931093084416
 30
0.0
 10
859.8044558214684
 20
1991.903288793906
 30
0.0
 10
858.8422237300791
 20
1987.906613377546
 30
0.0
  0
SPLINE
  5
13A
330
87
100
AcDbEntity
  8
P-SANR-FIXT
100
AcDbSpline
210
0.0
220
0.0
230
1.0
 70
     8
 71
     3
 72
     8
 73
     4
 74
     0
 42
0.000000001
 43
0.0000000001
 40
-1.0
 40
-1.0
 40
-1.0
 40
-1.0
 40
-0.5520833333334882
 40
-0.5520833333334882
 40
-0.5520833333334882
 40
-0.5520833333334882
 10
858.8422237300791
 20
1981.797982005255
 30
0.0
 10
859.7042233119486
 20
1979.976939919074
 30
0.0
 10
860.180118914439
 20
1978.162810207401
 30
0.0
 10
860.2699105375508
 20
1976.355592870233
 30
0.0
  0
SPLINE
  5
13B
330
87
100
AcDbEntity
  8
P-SANR-FIXT
100
AcDbSpline
210
0.0
220
0.0
230
1.0
 70
     8
 71
     3
 72
     9
 73
     5
 74
     0
 42
0.000000001
 43
0.0000000001
 40
-0.5480527001887773
 40
-0.5480527001887773
 40
-0.5480527001887773
 40
-0.5480527001887773
 40
-0.5
 40
0.0
 40
0.0
 40
0.0
 40
0.0
 10
860.272240745845
 20
1976.306807147834
 30
0.0
 10
860.2811281600573
 20
1976.112941410282
 30
0.0
 10
860.3318097173627
 20
1973.902762999987
 30
0.0
 10
859.8044558214681
 20
1971.702933090985
 30
0.0
 10
858.842223730079
 20
1969.704595382806
 30
0.0
  0
LINE
  5
13C
330
87
100
AcDbEntity
  8
P-SANR-FIXT
100
AcDbLine
 10
858.8422237300791
 20
2030.499999999995
 30
0.0
 11
858.8422237300791
 21
2030.295404617183
 31
0.0
  0
SPLINE
  5
13D
330
87
100
AcDbEntity
  8
P-SANR-FIXT
100
AcDbSpline
210
0.0
220
0.0
230
1.0
 70
     8
 71
     3
 72
     9
 73
     5
 74
     0
 42
0.000000001
 43
0.0000000001
 40
0.0
 40
0.0
 40
0.0
 40
0.0
 40
0.5
 40
1.0
 40
1.0
 40
1.0
 40
1.0
 10
841.422853336247
 20
2030.499999999995
 30
0.0
 10
841.4234753623617
 20
2030.499999999995
 30
0.0
 10
841.4378427325347
 20
2030.465817660602
 30
0.0
 10
841.4784567385948
 20
2030.363491463003
 30
0.0
 10
841.5053254005966
 20
2030.295404617183
 30
0.0
  0
LINE
  5
13E
330
87
100
AcDbEntity
  8
P-SANR-FIXT
100
AcDbLine
 10
841.5053254005966
 20
2030.295404617183
 30
0.0
 11
858.8422237300791
 21
2030.295404617183
 31
0.0
  0
LINE
  5
13F
330
87
100
AcDbEntity
  8
P-SANR-FIXT
100
AcDbLine
 10
858.8422237300793
 20
2018.202017994735
 30
0.0
 11
858.8422237300793
 21
2012.093386622443
 31
0.0
  0
LINE
  5
140
330
87
100
AcDbEntity
  8
P-SANR-FIXT
100
AcDbLine
 10
858.8422237300793
 20
2018.202017994735
 30
0.0
 11
838.6452755548862
 21
2018.202017994735
 31
0.0
  0
SPLINE
  5
141
330
87
100
AcDbEntity
  8
P-SANR-FIXT
100
AcDbSpline
210
0.0
220
0.0
230
1.0
 70
     8
 71
     3
 72
     9
 73
     5
 74
     0
 42
0.000000001
 43
0.0000000001
 40
0.0
 40
0.0
 40
0.0
 40
0.0
 40
0.5
 40
1.0
 40
1.0
 40
1.0
 40
1.0
 10
838.6452755548862
 20
2018.202017994735
 30
0.0
 10
838.2147376363674
 20
2017.266512996647
 30
0.0
 10
837.3905694722967
 20
2015.30564616907
 30
0.0
 10
836.6402166541599
 20
2013.186396696458
 30
0.0
 10
836.2834940815748
 20
2012.093386622443
 30
0.0
  0
LINE
  5
142
330
87
100
AcDbEntity
  8
P-SANR-FIXT
100
AcDbLine
 10
836.2834940815748
 20
2012.093386622443
 30
0.0
 11
858.8422237300793
 21
2012.093386622443
 31
0.0
  0
LINE
  5
143
330
87
100
AcDbEntity
  8
P-SANR-FIXT
100
AcDbLine
 10
858.8422237300791
 20
1987.906613377546
 30
0.0
 11
858.8422237300791
 21
1981.797982005255
 31
0.0
  0
LINE
  5
144
330
87
100
AcDbEntity
  8
P-SANR-FIXT
100
AcDbLine
 10
858.8422237300791
 20
1987.906613377546
 30
0.0
 11
836.2834940815744
 21
1987.906613377546
 31
0.0
  0
SPLINE
  5
145
330
87
100
AcDbEntity
  8
P-SANR-FIXT
100
AcDbSpline
210
0.0
220
0.0
230
1.0
 70
     8
 71
     3
 72
     9
 73
     5
 74
     0
 42
0.000000001
 43
0.0000000001
 40
0.0
 40
0.0
 40
0.0
 40
0.0
 40
0.5
 40
1.0
 40
1.0
 40
1.0
 40
1.0
 10
836.2834940815744
 20
1987.906613377546
 30
0.0
 10
836.6402166541595
 20
1986.813603303531
 30
0.0
 10
837.3905694722965
 20
1984.694353830919
 30
0.0
 10
838.2147376363672
 20
1982.733487003342
 30
0.0
 10
838.6452755548861
 20
1981.797982005254
 30
0.0
  0
LINE
  5
146
330
87
100
AcDbEntity
  8
P-SANR-FIXT
100
AcDbLine
 10
838.6452755548861
 20
1981.797982005254
 30
0.0
 11
858.8422237300791
 21
1981.797982005254
 31
0.0
  0
LINE
  5
147
330
87
100
AcDbEntity
  8
P-SANR-FIXT
100
AcDbLine
 10
858.842223730079
 20
1969.704595382806
 30
0.0
 11
858.842223730079
 21
1969.499999999994
 31
0.0
  0
LINE
  5
148
330
87
100
AcDbEntity
  8
P-SANR-FIXT
100
AcDbLine
 10
858.842223730079
 20
1969.704595382806
 30
0.0
 11
845.2185752416712
 21
1969.704595382806
 31
0.0
  0
SPLINE
  5
149
330
87
100
AcDbEntity
  8
P-SANR-FIXT
100
AcDbSpline
210
0.0
220
0.0
230
1.0
 70
     8
 71
     3
 72
     9
 73
     5
 74
     0
 42
0.000000001
 43
0.0000000001
 40
0.0
 40
0.0
 40
0.0
 40
0.0
 40
0.5
 40
1.0
 40
1.0
 40
1.0
 40
1.0
 10
845.2185752416712
 20
1969.704595382806
 30
0.0
 10
845.2601145653151
 20
1969.636557987377
 30
0.0
 10
845.322456370218
 20
1969.534231947164
 30
0.0
 10
845.3433244903514
 20
1969.499999999994
 30
0.0
 10
845.3433901292257
 20
1969.499999999994
 30
0.0
  0
SPLINE
  5
14A
330
87
100
AcDbEntity
  8
P-SANR-FIXT
100
AcDbSpline
210
0.0
220
0.0
230
1.0
 70
     8
 71
     3
 72
     9
 73
     5
 74
     0
 42
0.000000001
 43
0.0000000001
 40
0.0
 40
0.0
 40
0.0
 40
0.0
 40
0.5
 40
1.0
 40
1.0
 40
1.0
 40
1.0
 10
751.2278086768804
 20
1969.499999999995
 30
0.0
 10
751.2278743157548
 20
1969.499999999995
 30
0.0
 10
751.2487424358881
 20
1969.534231947165
 30
0.0
 10
751.311084240791
 20
1969.636557987378
 30
0.0
 10
751.3526235644349
 20
1969.704595382807
 30
0.0
  0
LINE
  5
14B
330
87
100
AcDbEntity
  8
P-SANR-FIXT
100
AcDbLine
 10
751.3526235644349
 20
1969.704595382807
 30
0.0
 11
737.7289750760269
 21
1969.704595382807
 31
0.0
  0
LINE
  5
14C
330
87
100
AcDbEntity
  8
P-SANR-FIXT
100
AcDbLine
 10
737.7289750760271
 20
1981.797982005254
 30
0.0
 11
757.9259232512201
 21
1981.797982005254
 31
0.0
  0
SPLINE
  5
14D
330
87
100
AcDbEntity
  8
P-SANR-FIXT
100
AcDbSpline
210
0.0
220
0.0
230
1.0
 70
     8
 71
     3
 72
     9
 73
     5
 74
     0
 42
0.000000001
 43
0.0000000001
 40
0.0
 40
0.0
 40
0.0
 40
0.0
 40
0.5
 40
1.0
 40
1.0
 40
1.0
 40
1.0
 10
757.9259232512201
 20
1981.797982005254
 30
0.0
 10
758.3564611697388
 20
1982.733487003342
 30
0.0
 10
759.1806293338098
 20
1984.694353830919
 30
0.0
 10
759.930982151947
 20
1986.813603303532
 30
0.0
 10
760.287704724532
 20
1987.906613377547
 30
0.0
  0
LINE
  5
14E
330
87
100
AcDbEntity
  8
P-SANR-FIXT
100
AcDbLine
 10
760.287704724532
 20
1987.906613377547
 30
0.0
 11
737.7289750760271
 21
1987.906613377547
 31
0.0
  0
LINE
  5
14F
330
87
100
AcDbEntity
  8
P-SANR-FIXT
100
AcDbLine
 10
737.7289750760271
 20
2030.295404617183
 30
0.0
 11
755.0658734054273
 21
2030.295404617183
 31
0.0
  0
SPLINE
  5
150
330
87
100
AcDbEntity
  8
P-SANR-FIXT
100
AcDbSpline
210
0.0
220
0.0
230
1.0
 70
     8
 71
     3
 72
     9
 73
     5
 74
     0
 42
0.000000001
 43
0.0000000001
 40
0.0
 40
0.0
 40
0.0
 40
0.0
 40
0.5
 40
1.0
 40
1.0
 40
1.0
 40
1.0
 10
755.0658734054273
 20
2030.295404617183
 30
0.0
 10
755.0927420674622
 20
2030.363491463002
 30
0.0
 10
755.1333560735771
 20
2030.465817660602
 30
0.0
 10
755.1477234437819
 20
2030.499999999995
 30
0.0
 10
755.1483454699069
 20
2030.499999999995
 30
0.0
  0
LINE
  5
151
330
87
100
AcDbEntity
  8
P-SANR-FIXT
100
AcDbLine
 10
737.7289750760271
 20
2012.093386622442
 30
0.0
 11
760.2877047245324
 21
2012.093386622442
 31
0.0
  0
SPLINE
  5
152
330
87
100
AcDbEntity
  8
P-SANR-FIXT
100
AcDbSpline
210
0.0
220
0.0
230
1.0
 70
     8
 71
     3
 72
     9
 73
     5
 74
     0
 42
0.000000001
 43
0.0000000001
 40
0.0
 40
0.0
 40
0.0
 40
0.0
 40
0.5
 40
1.0
 40
1.0
 40
1.0
 40
1.0
 10
760.2877047245324
 20
2012.093386622442
 30
0.0
 10
759.9309821519471
 20
2013.186396696458
 30
0.0
 10
759.1806293338101
 20
2015.30564616907
 30
0.0
 10
758.3564611697393
 20
2017.266512996648
 30
0.0
 10
757.9259232512204
 20
2018.202017994735
 30
0.0
  0
LINE
  5
153
330
87
100
AcDbEntity
  8
P-SANR-FIXT
100
AcDbLine
 10
757.9259232512204
 20
2018.202017994735
 30
0.0
 11
737.7289750760271
 21
2018.202017994735
 31
0.0
  0
LINE
  5
154
330
87
100
AcDbEntity
  8
P-SANR-FIXT
100
AcDbLine
 10
737.7289750760269
 20
1969.704595382807
 30
0.0
 11
737.7289750760269
 21
1969.499999999995
 31
0.0
  0
SPLINE
  5
155
330
87
100
AcDbEntity
  8
P-SANR-FIXT
100
AcDbSpline
210
0.0
220
0.0
230
1.0
 70
     8
 71
     3
 72
     9
 73
     5
 74
     0
 42
0.000000001
 43
0.0000000001
 40
-1.0
 40
-1.0
 40
-1.0
 40
-1.0
 40
-0.5
 40
-0.4519472998111613
 40
-0.4519472998111613
 40
-0.4519472998111613
 40
-0.4519472998111613
 10
737.7289750760269
 20
1969.704595382807
 30
0.0
 10
736.7667429846378
 20
1971.702933090987
 30
0.0
 10
736.2393890887439
 20
1973.902762999987
 30
0.0
 10
736.2900706460494
 20
1976.112941410283
 30
0.0
 10
736.2989580602616
 20
1976.306807147835
 30
0.0
  0
SPLINE
  5
156
330
87
100
AcDbEntity
  8
P-SANR-FIXT
100
AcDbSpline
210
0.0
220
0.0
230
1.0
 70
     8
 71
     3
 72
     8
 73
     4
 74
     0
 42
0.000000001
 43
0.0000000001
 40
-0.4479166666668324
 40
-0.4479166666668324
 40
-0.4479166666668324
 40
-0.4479166666668324
 40
0.0
 40
0.0
 40
0.0
 40
0.0
 10
736.3012882685559
 20
1976.355592870229
 30
0.0
 10
736.391079891667
 20
1978.162810207398
 30
0.0
 10
736.8669754941573
 20
1979.976939919073
 30
0.0
 10
737.728975076027
 20
1981.797982005254
 30
0.0
  0
LINE
  5
157
330
87
100
AcDbEntity
  8
P-SANR-FIXT
100
AcDbLine
 10
737.7289750760271
 20
1987.906613377548
 30
0.0
 11
737.7289750760271
 21
1981.797982005254
 31
0.0
  0
SPLINE
  5
158
330
87
100
AcDbEntity
  8
P-SANR-FIXT
100
AcDbSpline
210
0.0
220
0.0
230
1.0
 70
     8
 71
     3
 72
     9
 73
     5
 74
     0
 42
0.000000001
 43
0.0000000001
 40
-1.0
 40
-1.0
 40
-1.0
 40
-1.0
 40
-0.5
 40
0.0
 40
0.0
 40
0.0
 40
0.0
 10
737.7289750760271
 20
1987.906613377547
 30
0.0
 10
736.7667429846379
 20
1991.903288793907
 30
0.0
 10
735.804510893249
 20
1999.931093084416
 30
0.0
 10
736.7667429846382
 20
2008.027804290504
 30
0.0
 10
737.7289750760271
 20
2012.093386622443
 30
0.0
  0
LINE
  5
159
330
87
100
AcDbEntity
  8
P-SANR-FIXT
100
AcDbLine
 10
737.7289750760271
 20
2018.202017994736
 30
0.0
 11
737.7289750760271
 21
2012.093386622443
 31
0.0
  0
SPLINE
  5
15A
330
87
100
AcDbEntity
  8
P-SANR-FIXT
100
AcDbSpline
210
0.0
220
0.0
230
1.0
 70
     8
 71
     3
 72
     8
 73
     4
 74
     0
 42
0.000000001
 43
0.0000000001
 40
-1.0
 40
-1.0
 40
-1.0
 40
-1.0
 40
-0.5520833333333353
 40
-0.5520833333333353
 40
-0.5520833333333353
 40
-0.5520833333333353
 10
737.7289750760271
 20
2018.202017994735
 30
0.0
 10
736.8669754941578
 20
2019.99219552498
 30
0.0
 10
736.3910798916675
 20
2021.789285429731
 30
0.0
 10
736.3012882685561
 20
2023.593287708989
 30
0.0
  0
SPLINE
  5
15B
330
87
100
AcDbEntity
  8
P-SANR-FIXT
100
AcDbSpline
210
0.0
220
0.0
230
1.0
 70
     8
 71
     3
 72
     9
 73
     5
 74
     0
 42
0.000000001
 43
0.0000000001
 40
-0.5437028307461166
 40
-0.5437028307461166
 40
-0.5437028307461166
 40
-0.5437028307461166
 40
-0.5
 40
0.0
 40
0.0
 40
0.0
 40
0.0
 10
736.2966537573844
 20
2023.694553395753
 30
0.0
 10
736.2893025450905
 20
2023.87059353076
 30
0.0
 10
736.243574672715
 20
2026.061511049972
 30
0.0
 10
736.7667429846384
 20
2028.262613451213
 30
0.0
 10
737.7289750760271
 20
2030.295404617183
 30
0.0
  0
LINE
  5
15C
330
87
100
AcDbEntity
  8
P-SANR-FIXT
100
AcDbLine
 10
737.7289750760271
 20
2030.499999999995
 30
0.0
 11
737.7289750760271
 21
2030.295404617183
 31
0.0
  0
LINE
  5
15D
330
87
100
AcDbEntity
  8
P-SANR-FIXT
100
AcDbLine
 10
736.2855994030532
 20
2027.999999999995
 30
0.0
 11
736.2855994030533
 21
2023.636758633969
 31
0.0
  0
LINE
  5
15E
330
87
100
AcDbEntity
  8
P-SANR-FIXT
100
AcDbLine
 10
736.2855994030533
 20
2023.582082544051
 30
0.0
 11
736.2855994030532
 21
1975.122656119221
 31
0.0
  0
LINE
  5
15F
330
87
100
AcDbEntity
  8
P-SANR-FIXT
100
AcDbLine
 10
736.2855994030532
 20
1975.05181732272
 30
0.0
 11
736.2855994030529
 21
1971.999999999995
 31
0.0
  0
LINE
  5
160
330
87
100
AcDbEntity
  8
P-SANR-FIXT
100
AcDbLine
 10
736.2855994030531
 20
2001.148519052006
 30
0.0
 11
736.2855994030531
 21
1998.751988937647
 31
0.0
  0
LWPOLYLINE
  5
161
330
87
100
AcDbEntity
  8
P-SANR-FIXT
100
AcDbPolyline
 90
        3
 70
   128
 43
0.0
 10
838.6452755548861
 20
1981.797982005255
 10
840.7836666352777
 20
1979.525229383681
 10
842.5392246890538
 20
1977.145667395336
  0
SPLINE
  5
162
330
87
100
AcDbEntity
  8
P-SANR-FIXT
100
AcDbSpline
210
0.0
220
0.0
230
1.0
 70
     8
 71
     3
 72
     9
 73
     5
 74
     0
 42
0.000000001
 43
0.0000000001
 40
0.0
 40
0.0
 40
0.0
 40
0.0
 40
0.5
 40
1.0
 40
1.0
 40
1.0
 40
1.0
 10
842.5392246890538
 20
1977.145667395336
 30
0.0
 10
843.3130302087461
 20
1975.935645558381
 30
0.0
 10
844.5333941538745
 20
1973.485445052671
 30
0.0
 10
845.099263910491
 20
1970.974930883361
 30
0.0
 10
845.2185752416712
 20
1969.704595382806
 30
0.0
  0
SPLINE
  5
163
330
87
100
AcDbEntity
  8
P-SANR-FIXT
100
AcDbSpline
210
0.0
220
0.0
230
1.0
 70
     8
 71
     3
 72
     9
 73
     5
 74
     0
 42
0.000000001
 43
0.0000000001
 40
0.0
 40
0.0
 40
0.0
 40
0.0
 40
0.5
 40
1.0
 40
1.0
 40
1.0
 40
1.0
 10
751.3526235644349
 20
1969.704595382807
 30
0.0
 10
751.4719348956153
 20
1970.974930883362
 30
0.0
 10
752.037804652232
 20
1973.485445052671
 30
0.0
 10
753.2581685973607
 20
1975.935645558382
 30
0.0
 10
754.0319741170531
 20
1977.145667395337
 30
0.0
  0
LWPOLYLINE
  5
164
330
87
100
AcDbEntity
  8
P-SANR-FIXT
100
AcDbPolyline
 90
        3
 70
   128
 43
0.0
 10
754.0319741170531
 20
1977.145667395337
 10
755.7875321708289
 20
1979.525229383681
 10
757.9259232512201
 20
1981.797982005254
  0
LINE
  5
165
330
87
100
AcDbEntity
  8
P-SANR-FIXT
100
AcDbLine
 10
836.2834940815744
 20
2012.093386622443
 30
0.0
 11
836.2834940815741
 21
1987.906613377546
 31
0.0
  0
LINE
  5
166
330
87
100
AcDbEntity
  8
P-SANR-FIXT
100
AcDbLine
 10
760.2877047245327
 20
1987.906613377547
 30
0.0
 11
760.2877047245327
 21
2012.093386622443
 31
0.0
  0
SPLINE
  5
167
330
87
100
AcDbEntity
  8
P-SANR-FIXT
100
AcDbSpline
210
0.0
220
0.0
230
1.0
 70
     8
 71
     3
 72
    12
 73
     8
 74
     0
 42
0.000000001
 43
0.0000000001
 40
0.0
 40
0.0
 40
0.0
 40
0.0
 40
0.25
 40
0.375
 40
0.5
 40
0.75
 40
1.0
 40
1.0
 40
1.0
 40
1.0
 10
841.5053254005966
 20
2030.295404617183
 30
0.0
 10
842.1302510188963
 20
2029.597902238408
 30
0.0
 10
842.8283625031571
 20
2028.531815014511
 30
0.0
 10
843.2439997680422
 20
2027.038054315196
 30
0.0
 10
843.3563179674099
 20
2025.531333407821
 30
0.0
 10
842.9506097046747
 20
2023.650669113878
 30
0.0
 10
842.1350500018537
 20
2022.209668537218
 30
0.0
 10
841.5968952117202
 20
2021.499999999995
 30
0.0
  0
LWPOLYLINE
  5
168
330
87
100
AcDbEntity
  8
P-SANR-FIXT
100
AcDbPolyline
 90
        3
 70
   128
 43
0.0
 10
841.5968952117202
 20
2021.499999999995
 10
840.2184671941302
 20
2019.821957487826
 10
838.6452755548862
 20
2018.202017994735
  0
LWPOLYLINE
  5
169
330
87
100
AcDbEntity
  8
P-SANR-FIXT
100
AcDbPolyline
 90
        3
 70
   128
 43
0.0
 10
757.9259232512204
 20
2018.202017994735
 10
756.3527316119762
 20
2019.821957487827
 10
754.9743035943865
 20
2021.499999999996
  0
SPLINE
  5
16A
330
87
100
AcDbEntity
  8
P-SANR-FIXT
100
AcDbSpline
210
0.0
220
0.0
230
1.0
 70
     8
 71
     3
 72
    12
 73
     8
 74
     0
 42
0.000000001
 43
0.0000000001
 40
0.0
 40
0.0
 40
0.0
 40
0.0
 40
0.25
 40
0.5
 40
0.625
 40
0.75
 40
1.0
 40
1.0
 40
1.0
 40
1.0
 10
754.9743035943865
 20
2021.499999999996
 30
0.0
 10
754.436148804254
 20
2022.209668537218
 30
0.0
 10
753.6205891014349
 20
2023.650669113875
 30
0.0
 10
753.2148808386945
 20
2025.531333407816
 30
0.0
 10
753.3271990380691
 20
2027.038054315187
 30
0.0
 10
753.7428363029484
 20
2028.5318150145
 30
0.0
 10
754.4409477871664
 20
2029.597902238402
 30
0.0
 10
755.0658734054273
 20
2030.295404617183
 30
0.0
  0
LINE
  5
16B
330
87
100
AcDbEntity
  8
P-SANR-FIXT
100
AcDbLine
 10
837.2855994030532
 20
1917.499999999995
 30
0.0
 11
759.285599403053
 21
1917.499999999995
 31
0.0
  0
LINE
  5
16C
330
87
100
AcDbEntity
  8
P-SANR-FIXT
100
AcDbLine
 10
758.7855994030526
 20
1917.999999999995
 30
0.0
 11
837.7855994030527
 21
1917.999999999994
 31
0.0
  0
LINE
  5
16D
330
87
100
AcDbEntity
  8
P-SANR-FIXT
100
AcDbLine
 10
837.7855994030527
 20
1927.499999999994
 30
0.0
 11
758.7855994030528
 21
1927.499999999995
 31
0.0
  0
LINE
  5
16E
330
87
100
AcDbEntity
  8
P-SANR-FIXT
100
AcDbLine
 10
814.2855994030535
 20
2044.499999999995
 30
0.0
 11
782.2855994030539
 21
2044.499999999996
 31
0.0
  0
LINE
  5
16F
330
87
100
AcDbEntity
  8
P-SANR-FIXT
100
AcDbLine
 10
813.7855994030534
 20
2044.999999999995
 30
0.0
 11
809.2457545114701
 21
2044.999999999995
 31
0.0
  0
LINE
  5
170
330
87
100
AcDbEntity
  8
P-SANR-FIXT
100
AcDbLine
 10
809.2457545114701
 20
2044.999999999995
 30
0.0
 11
798.285599403089
 21
2044.999999999995
 31
0.0
  0
LINE
  5
171
330
87
100
AcDbEntity
  8
P-SANR-FIXT
100
AcDbLine
 10
798.285599403089
 20
2044.999999999995
 30
0.0
 11
787.3254442946869
 21
2044.999999999995
 31
0.0
  0
LINE
  5
172
330
87
100
AcDbEntity
  8
P-SANR-FIXT
100
AcDbLine
 10
787.3254442946867
 20
2044.999999999995
 30
0.0
 11
782.7855994030529
 21
2044.999999999995
 31
0.0
  0
LINE
  5
173
330
87
100
AcDbEntity
  8
P-SANR-FIXT
100
AcDbLine
 10
786.7906355104643
 20
1847.49999999995
 30
0.0
 11
809.7805632956418
 21
1847.49999999995
 31
0.0
  0
LINE
  5
174
330
87
100
AcDbEntity
  8
P-SANR-FIXT
100
AcDbLine
 10
783.6461779852552
 20
1843.299999999965
 30
0.0
 11
812.925020820851
 21
1843.299999999965
 31
0.0
  0
SPLINE
  5
175
330
87
100
AcDbEntity
  8
P-SANR-FIXT
100
AcDbSpline
210
0.0
220
0.0
230
1.0
 70
     8
 71
     3
 72
    12
 73
     8
 74
     0
 42
0.000000001
 43
0.0000000001
 40
0.0
 40
0.0
 40
0.0
 40
0.0
 40
0.1428571428571428
 40
0.2857142857142857
 40
0.5714285714285714
 40
0.7857142857142857
 40
1.0
 40
1.0
 40
1.0
 40
1.0
 10
811.4293547722949
 20
1829.780578582162
 30
0.0
 10
811.4224331315204
 20
1830.289066289694
 30
0.0
 10
811.461787637134
 20
1831.275809306145
 30
0.0
 10
811.7538073223606
 20
1833.178360864481
 30
0.0
 10
812.3013474857934
 20
1834.945929147407
 30
0.0
 10
812.805036139953
 20
1836.185045967785
 30
0.0
 10
812.925020820851
 20
1836.446208070978
 30
0.0
 10
812.925020820851
 20
1836.449999999965
 30
0.0
  0
SPLINE
  5
176
330
87
100
AcDbEntity
  8
P-SANR-FIXT
100
AcDbSpline
210
0.0
220
0.0
230
1.0
 70
     8
 71
     3
 72
    15
 73
    11
 74
     0
 42
0.000000001
 43
0.0000000001
 40
0.0
 40
0.0
 40
0.0
 40
0.0
 40
0.1428571428571428
 40
0.2857142857142857
 40
0.5714285714285714
 40
0.6785714285714287
 40
0.7857142857142857
 40
0.8392857142857142
 40
0.8928571428571427
 40
1.0
 40
1.0
 40
1.0
 40
1.0
 10
813.7055994030484
 20
1823.549999999965
 30
0.0
 10
813.7055994030484
 20
1823.552080499174
 30
0.0
 10
813.6602888813269
 20
1823.656156532357
 30
0.0
 10
813.4074925835314
 20
1824.282250999444
 30
0.0
 10
813.0084606839208
 20
1825.379817772012
 30
0.0
 10
812.6599506424906
 20
1826.725799832746
 30
0.0
 10
812.5033767972437
 20
1827.520497942049
 30
0.0
 10
812.4040740413619
 20
1828.19684732222
 30
0.0
 10
812.3296458887262
 20
1828.88180400461
 30
0.0
 10
812.3003039050912
 20
1829.416067698278
 30
0.0
 10
812.2935273639777
 20
1829.780578582162
 30
0.0
  0
LINE
  5
177
330
87
100
AcDbEntity
  8
P-SANR-FIXT
100
AcDbLine
 10
782.8655994030577
 20
1829.780578582162
 30
0.0
 11
812.2935273639777
 21
1829.780578582162
 31
0.0
  0
LINE
  5
178
330
87
100
AcDbEntity
  8
P-SANR-FIXT
100
AcDbLine
 10
782.8655994030577
 20
1819.499999999965
 30
0.0
 11
813.7055994030484
 21
1819.499999999965
 31
0.0
  0
LINE
  5
179
330
87
100
AcDbEntity
  8
P-SANR-FIXT
100
AcDbLine
 10
783.7855994030587
 20
1817.999999999949
 30
0.0
 11
812.7855994030474
 21
1817.999999999949
 31
0.0
  0
LINE
  5
17A
330
87
100
AcDbEntity
  8
P-SANR-FIXT
100
AcDbLine
 10
784.8355994030574
 20
1814.999999999949
 30
0.0
 11
811.7355994030488
 21
1814.999999999949
 31
0.0
  0
LINE
  5
17B
330
87
100
AcDbEntity
  8
P-SANR-FIXT
100
AcDbLine
 10
783.4855994030706
 20
1812.999999999978
 30
0.0
 11
813.0855994030357
 21
1812.999999999978
 31
0.0
  0
LINE
  5
17C
330
87
100
AcDbEntity
  8
P-SANR-FIXT
100
AcDbLine
 10
783.4855994030706
 20
1803.999999999978
 30
0.0
 11
813.0855994030357
 21
1803.999999999977
 31
0.0
  0
LINE
  5
17D
330
87
100
AcDbEntity
  8
P-SANR-FIXT
100
AcDbLine
 10
790.7855994030576
 20
1780.999999999977
 30
0.0
 11
805.7855994030486
 21
1780.999999999977
 31
0.0
  0
LINE
  5
17E
330
87
100
AcDbEntity
  8
P-SANR-FIXT
100
AcDbLine
 10
824.7855994030578
 20
1826.250000000028
 30
0.0
 11
824.7855994030578
 21
1833.749999999902
 31
0.0
  0
LINE
  5
17F
330
87
100
AcDbEntity
  8
P-SANR-FIXT
100
AcDbLine
 10
820.2855994030576
 20
1836.449999999965
 30
0.0
 11
820.2855994030576
 21
1823.549999999965
 31
0.0
  0
ENDBLK
  5
181
330
87
100
AcDbEntity
  8
0
100
AcDbBlockEnd
  0
BLOCK
  5
1DB
330
183
100
AcDbEntity
  8
0
100
AcDbBlockBegin
  2
Automatic flow rate regulator valve_Caleffi_121 DN15 - 3_4___Insulation-975047-Est - Idraulica
 70
     0
 10
0.0
 20
0.0
 30
0.0
  3
Automatic flow rate regulator valve_Caleffi_121 DN15 - 3_4___Insulation-975047-Est - Idraulica
  1

  0
LWPOLYLINE
  5
184
330
183
100
AcDbEntity
  8
P-SANR-FIXT
100
AcDbPolyline
 90
        5
 70
   128
 43
0.0
 10
860.8142518096091
 20
1484.300737862382
 10
860.7642355570511
 20
1486.801217039707
 10
860.6142668147116
 20
1489.297695983756
 10
860.3645855005867
 20
1491.786180860771
 10
860.2855994030587
 20
1492.346676428396
  0
LWPOLYLINE
  5
185
330
183
100
AcDbEntity
  8
P-SANR-FIXT
100
AcDbPolyline
 90
       53
 70
   128
 43
0.0
 10
851.7787478485086
 20
1516.65523073554
 10
851.2633197392895
 20
1517.515094995334
 10
849.8927231864922
 20
1519.607070815275
 10
848.4395662445738
 20
1521.642564034108
 10
846.9061736546516
 20
1523.618318296897
 10
845.2949985177626
 20
1525.531172818294
 10
843.6086183704272
 20
1527.378067439118
 10
841.8497310611389
 20
1529.15604752196
 10
840.0211504343834
 20
1530.862268677969
 10
838.1258018290871
 20
1532.49400131727
 10
836.1667173986992
 20
1534.048635015724
 10
834.1470312603926
 20
1535.523682691052
 10
832.0699744811447
 20
1536.916784581633
 10
829.9388699087209
 20
1538.22571202162
 10
827.7571268558258
 20
1539.448371006334
 10
825.5282356459302
 20
1540.582805542219
 10
823.2557620294985
 20
1541.627200776016
 10
820.943341479548
 20
1542.579885898145
 10
818.5946733756694
 20
1543.439336815639
 10
816.2135150858059
 20
1544.204178590369
 10
813.8036759552678
 20
1544.873187638654
 10
811.3690112125928
 20
1545.445293688729
 10
808.9134158020014
 20
1545.919581492959
 10
806.4408181523186
 20
1546.295292292032
 10
803.955173892324
 20
1546.571825028818
 10
801.4604595225913
 20
1546.748737309927
 10
798.9606660539346
 20
1546.825746113449
 10
796.4597926226432
 20
1546.802728241727
 10
793.9618400927156
 20
1546.679720518445
 10
791.470804655332
 20
1546.456919729719
 10
788.9906714357992
 20
1546.134682309285
 10
786.5254081182021
 20
1545.713523768273
 10
784.0789585979535
 20
1545.194117870507
 10
781.6552366724048
 20
1544.577295554623
 10
779.2581197796035
 20
1543.864043604745
 10
776.8914427952207
 20
1543.05550307184
 10
774.5589918975671
 20
1542.152967448281
 10
772.2644985105157
 20
1541.157880598535
 10
770.0116333340206
 20
1540.071834449289
 10
767.8040004717781
 20
1538.896566442702
 10
765.6451316654313
 20
1537.633956756877
 10
763.5384806445361
 20
1536.286025297966
 10
761.4874176013316
 20
1534.854928468762
 10
759.4952237991496
 20
1533.342955718907
 10
757.565086323095
 20
1531.752525882263
 10
755.7000929813889
 20
1530.086183307295
 10
753.9032273655339
 20
1528.346593786656
 10
752.1773640772043
 20
1526.536540292487
 10
750.5252641294974
 20
1524.658918524253
 10
748.9495705299
 20
1522.716732276247
 10
747.4528040520416
 20
1520.713088632153
 10
746.0373592029934
 20
1518.651192994382
 10
744.781558779039
 20
1516.655230735539
  0
LWPOLYLINE
  5
186
330
183
100
AcDbEntity
  8
P-SANR-FIXT
100
AcDbPolyline
 90
        5
 70
   128
 43
0.0
 10
736.2855994030581
 20
1492.330126280621
 10
736.0793507711183
 20
1490.642267876544
 10
735.8755155720537
 20
1488.149608863887
 10
735.7715231936776
 20
1485.650792478676
 10
735.7569469965075
 20
1484.300737862381
  0
LINE
  5
187
330
183
100
AcDbEntity
  8
P-SANR-FIXT
100
AcDbLine
 10
860.3367423545162
 20
1484.300737862381
 30
0.0
 11
860.811880811442
 21
1484.300737862381
 31
0.0
  0
LINE
  5
188
330
183
100
AcDbEntity
  8
P-SANR-FIXT
100
AcDbLine
 10
735.7593179946716
 20
1484.30073786238
 30
0.0
 11
736.2344564515979
 21
1484.30073786238
 31
0.0
  0
LINE
  5
189
330
183
100
AcDbEntity
  8
P-SANR-FIXT
100
AcDbLine
 10
745.4431086489812
 20
1516.655230735539
 30
0.0
 11
736.2855994030581
 21
1516.655230735539
 31
0.0
  0
LINE
  5
18A
330
183
100
AcDbEntity
  8
P-SANR-FIXT
100
AcDbLine
 10
860.2855994030585
 20
1516.65523073554
 30
0.0
 11
851.128090157135
 21
1516.65523073554
 31
0.0
  0
LINE
  5
18B
330
183
100
AcDbEntity
  8
P-SANR-FIXT
100
AcDbLine
 10
736.2855994030568
 20
1484.30073786238
 30
0.0
 11
736.2855994030566
 21
1516.655230735539
 31
0.0
  0
LINE
  5
18C
330
183
100
AcDbEntity
  8
P-SANR-FIXT
100
AcDbLine
 10
736.2855994030568
 20
1484.30073786238
 30
0.0
 11
737.4397356453283
 21
1484.30073786238
 31
0.0
  0
LINE
  5
18D
330
183
100
AcDbEntity
  8
P-SANR-FIXT
100
AcDbLine
 10
859.1299571805427
 20
1484.300737862381
 30
0.0
 11
860.2855994030571
 21
1484.300737862381
 31
0.0
  0
LINE
  5
18E
330
183
100
AcDbEntity
  8
P-SANR-FIXT
100
AcDbLine
 10
860.2855994030571
 20
1484.300737862381
 30
0.0
 11
860.2855994030569
 21
1516.655230735539
 31
0.0
  0
LWPOLYLINE
  5
18F
330
183
100
AcDbEntity
  8
P-SANR-FIXT
100
AcDbPolyline
 90
       80
 70
   128
 43
0.0
 10
828.2855994030583
 20
1484.300737862381
 10
828.2616026028875
 20
1485.50041788798
 10
828.1896505921368
 20
1486.698178681456
 10
828.0698584786742
 20
1487.892104081049
 10
827.902417904327
 20
1489.080284060809
 10
827.6875967382956
 20
1490.260817786233
 10
827.4257386486191
 20
1491.431816655195
 10
827.1172625523814
 20
1492.591407319305
 10
826.7626619455315
 20
1493.737734680865
 10
826.3625041133964
 20
1494.868964860634
 10
825.9174292231449
 20
1495.983288131641
 10
825.4281492996573
 20
1497.078921814361
 10
824.8954470864367
 20
1498.154113128626
 10
824.3201747933879
 20
1499.207141997693
 10
823.7032527334609
 20
1500.236323800008
 10
823.0456678503484
 20
1501.240012064232
 10
822.3484721395868
 20
1502.216601103253
 10
821.612780965586
 20
1503.164528582935
 10
820.839771277285
 20
1504.082278021525
 10
820.0306797252853
 20
1504.968381215698
 10
819.1868006834731
 20
1505.821420589367
 10
818.3094841782974
 20
1506.640031461507
 10
817.4001337290155
 20
1507.42290422935
 10
816.4602041023622
 20
1508.168786463472
 10
815.4911989852317
 20
1508.876484911411
 10
814.4946685791023
 20
1509.544867406618
 10
813.4722071200414
 20
1510.172864679681
 10
812.4254503282703
 20
1510.75947206893
 10
811.3560727913593
 20
1511.303751127677
 10
810.2657852852463
 20
1511.804831125534
 10
809.1563320373582
 20
1512.261910441398
 10
808.0294879362213
 20
1512.674257845868
 10
806.8870556920167
 20
1513.041213671058
 10
805.7308629526293
 20
1513.362190865929
 10
804.5627593798007
 20
1513.636675935441
 10
803.3846136900653
 20
1513.864229762035
 10
802.1983106652024
 20
1514.044488308132
 10
801.0057481369873
 20
1514.17716319851
 10
799.8088339510653
 20
1514.262042181649
 10
798.609482914806
 20
1514.29898946928
 10
797.4096137340194
 20
1514.287945953626
 10
796.211145943436
 20
1514.228929301956
 10
795.015996835862
 20
1514.122033928323
 10
793.8260783949171
 20
1513.967430842522
 10
792.6432942362716
 20
1513.76536737651
 10
791.4695365622654
 20
1513.516166788727
 10
790.3066831347885
 20
1513.220227746954
 10
789.1565942712629
 20
1512.878023690529
 10
788.021109868531
 20
1512.490102072941
 10
786.9020464594133
 20
1512.057083486026
 10
785.8011943066437
 20
1511.579660667152
 10
784.7203145388306
 20
1511.058597390983
 10
783.6611363330273
 20
1510.494727247607
 10
782.6253541484169
 20
1509.888952308967
 10
781.6146250155396
 20
1509.242241685742
 10
780.6305658853978
 20
1508.555629976969
 10
779.6747510426778
 20
1507.830215614914
 10
778.7487095872318
 20
1507.067159107809
 10
777.8539229878434
 20
1506.267681183289
 10
776.9918227121945
 20
1505.433060835486
 10
776.1637879368207
 20
1504.564633278915
 10
775.3711433407248
 20
1503.663787812412
 10
774.6151569861722
 20
1502.731965596552
 10
773.8970382900613
 20
1501.770657348103
 10
773.2179360891159
 20
1500.781400955195
 10
772.5789368019899
 20
1499.765779017025
 10
771.98106269123
 20
1498.72541631204
 10
771.4252702278735
 20
1497.661977198637
 10
770.9124485612996
 20
1496.577162952541
 10
770.4434180967783
 20
1495.472709045133
 10
770.0189291829985
 20
1494.350382367058
 10
769.6396609116694
 20
1493.211978401586
 10
769.306220031119
 20
1492.059318352215
 10
769.0191399756257
 20
1490.894246229134
 10
768.778880012038
 20
1489.718625899208
 10
768.585824505045
 20
1488.534338104177
 10
768.4402823022745
 20
1487.343277451879
 10
768.3424862402039
 20
1486.147349385278
 10
768.2925927716704
 20
1484.948467134164
 10
768.2855994030582
 20
1484.300737862381
  0
LWPOLYLINE
  5
190
330
183
100
AcDbEntity
  8
P-SANR-FIXT
100
AcDbPolyline
 90
       67
 70
   128
 43
0.0
 10
857.8969631488511
 20
1501.337327655839
 10
857.871036578326
 20
1501.434788073357
 10
857.1381953241695
 20
1503.803864620581
 10
856.3112024710902
 20
1506.141740325437
 10
855.3913810312369
 20
1508.444675085518
 10
854.3802025226957
 20
1510.708984696474
 10
853.2792846153737
 20
1512.931046745953
 10
852.0903885430724
 20
1515.107306408693
 10
850.8154162858897
 20
1517.234282133476
 10
849.4564075274579
 20
1519.308571212874
 10
848.0155363918841
 20
1521.32685522685
 10
846.4951079656154
 20
1523.285905351527
 10
844.8975546097935
 20
1525.182587524613
 10
843.2254320689942
 20
1527.013867459236
 10
841.4814153825824
 20
1528.776815498152
 10
839.6682946052191
 20
1530.468611300575
 10
837.7889703433698
 20
1532.086548354118
 10
835.8464491149526
 20
1533.628038304636
 10
833.8438385395502
 20
1535.090615097043
 10
831.7843423668826
 20
1536.471938920471
 10
829.6712553514902
 20
1537.769799951468
 10
827.5079579818296
 20
1538.982121889248
 10
825.2979110722138
 20
1540.106965277324
 10
823.0446502262466
 20
1541.142530606231
 10
820.7517801806115
 20
1542.087161192349
 10
818.4229690382618
 20
1542.939345828253
 10
816.0619424002391
 20
1543.697721200313
 10
813.6724774055048
 20
1544.361074069714
 10
811.2583966883256
 20
1544.928343213371
 10
808.8235622628726
 20
1545.398621121666
 10
806.3718693448226
 20
1545.771155450266
 10
803.9072401198449
 20
1546.045350223715
 10
801.4336174689395
 20
1546.220766788868
 10
798.9549586606703
 20
1546.297124516639
 10
796.4752290203778
 20
1546.274301250955
 10
793.9983955865059
 20
1546.15233350417
 10
791.5284207641856
 20
1545.931416398662
 10
789.0692559862332
 20
1545.611903354673
 10
786.6248353916991
 20
1545.194305524914
 10
784.1990695320864
 20
1544.679290976829
 10
781.7958391153009
 20
1544.067683623833
 10
779.4189887973481
 20
1543.36046190722
 10
777.072321031702
 20
1542.558757230871
 10
774.7595899861921
 20
1541.663852151248
 10
772.4844955371349
 20
1540.677178325574
 10
770.2506773503213
 20
1539.600314221491
 10
768.0617090583274
 20
1538.434982591847
 10
765.921092543466
 20
1537.183047718659
 10
763.8322523355197
 20
1535.846512430659
 10
761.7985301332262
 20
1534.427514899195
 10
759.8231794582717
 20
1532.928325217615
 10
757.9093604503499
 20
1531.351341769598
 10
756.0601348116144
 20
1529.699087392256
 10
754.2784609086066
 20
1527.974205340132
 10
752.5671890395005
 20
1526.179455056552
 10
750.9290568742359
 20
1524.317707759112
 10
749.3666850748269
 20
1522.391941846335
 10
747.8825731028646
 20
1520.405238132874
 10
746.4790952209106
 20
1518.360774920863
 10
745.1584966941831
 20
1516.261822915311
 10
743.9228901986123
 20
1514.111739991677
 10
742.7742524410095
 20
1511.913965823977
 10
741.7144209967566
 20
1509.672016382046
 10
740.7450913700793
 20
1507.389478306734
 10
739.8678142816012
 20
1505.070003172047
 10
739.083993187521
 20
1502.717301643404
 10
738.6847950529098
 20
1501.337327655839
  0
LINE
  5
191
330
183
100
AcDbEntity
  8
P-SANR-FIXT
100
AcDbLine
 10
771.2855994030567
 20
1484.300737862381
 30
0.0
 11
798.2855994030567
 21
1484.300737862381
 31
0.0
  0
LINE
  5
192
330
183
100
AcDbEntity
  8
P-SANR-FIXT
100
AcDbLine
 10
798.2855994030567
 20
1484.300737862381
 30
0.0
 11
825.2855994030568
 21
1484.30073786238
 31
0.0
  0
LINE
  5
193
330
183
100
AcDbEntity
  8
P-SANR-FIXT
100
AcDbLine
 10
825.2855994030568
 20
1484.300737862381
 30
0.0
 11
828.2855994030567
 21
1484.300737862381
 31
0.0
  0
LINE
  5
194
330
183
100
AcDbEntity
  8
P-SANR-FIXT
100
AcDbLine
 10
768.2855994030567
 20
1484.300737862381
 30
0.0
 11
771.2855994030567
 21
1484.300737862381
 31
0.0
  0
LINE
  5
195
330
183
100
AcDbEntity
  8
P-SANR-FIXT
100
AcDbLine
 10
828.2855994030565
 20
1484.300737862381
 30
0.0
 11
831.3334902775508
 21
1484.300737862381
 31
0.0
  0
LINE
  5
196
330
183
100
AcDbEntity
  8
P-SANR-FIXT
100
AcDbLine
 10
765.2377085285625
 20
1484.30073786238
 30
0.0
 11
768.2855994030568
 21
1484.300737862381
 31
0.0
  0
ARC
  5
197
330
183
100
AcDbEntity
  8
P-SANR-FIXT
100
AcDbCircle
 10
798.2855994030567
 20
1484.300737862381
 30
0.0
 40
33.04789087449464
100
AcDbArc
 50
0.0000000000002926
 51
179.9999999999995
  0
LINE
  5
198
330
183
100
AcDbEntity
  8
P-SANR-FIXT
100
AcDbLine
 10
831.3334902775508
 20
1484.300737862381
 30
0.0
 11
847.8903220680606
 21
1484.300737862381
 31
0.0
  0
LINE
  5
199
330
183
100
AcDbEntity
  8
P-SANR-FIXT
100
AcDbLine
 10
748.6808767380527
 20
1484.30073786238
 30
0.0
 11
765.2377085285625
 21
1484.30073786238
 31
0.0
  0
LINE
  5
19A
330
183
100
AcDbEntity
  8
P-SANR-FIXT
100
AcDbLine
 10
847.8903220680606
 20
1484.300737862381
 30
0.0
 11
859.1316084684036
 21
1484.300737862381
 31
0.0
  0
LINE
  5
19B
330
183
100
AcDbEntity
  8
P-SANR-FIXT
100
AcDbLine
 10
737.4395903377099
 20
1484.30073786238
 30
0.0
 11
748.6808767380527
 21
1484.30073786238
 31
0.0
  0
LWPOLYLINE
  5
19C
330
183
100
AcDbEntity
  8
P-SANR-FIXT
100
AcDbPolyline
 90
       60
 70
   128
 43
0.0
 10
754.9743035943917
 20
1465.539830225112
 10
755.7591842165647
 20
1463.822847068016
 10
756.6120980312182
 20
1462.138624167807
 10
757.5316805581937
 20
1460.489855921845
 10
758.5164606616153
 20
1458.879180007603
 10
759.5648629033928
 20
1457.309173162952
 10
760.6752100635865
 20
1455.782347063927
 10
761.8457258236016
 20
1454.301144306581
 10
763.0745376079186
 20
1452.867934499352
 10
764.3596795798154
 20
1451.485010472197
 10
765.6990957862858
 20
1450.154584608551
 10
767.0906434471262
 20
1448.878785305987
 10
768.5320963829273
 20
1447.659653571233
 10
770.021148576485
 20
1446.499139754997
 10
771.5554178619373
 20
1445.399100431822
 10
773.1324497357209
 20
1444.361295429962
 10
774.749721283253
 20
1443.387385016035
 10
776.4046452150572
 20
1442.478927238945
 10
778.0945740058744
 20
1441.637375437342
 10
779.816804130138
 20
1440.864075914587
 10
781.5685803870388
 20
1440.160265784955
 10
783.3471003082581
 20
1439.527070994515
 10
785.1495186413191
 20
1438.965504519858
 10
786.9729519013844
 20
1438.476464747548
 10
788.8144829842165
 20
1438.060734036898
 10
790.6711658329215
 20
1437.71897746836
 10
792.5400301510128
 20
1437.451741779541
 10
794.4180861542515
 20
1437.259454490535
 10
796.3023293536626
 20
1437.142423219986
 10
798.1897453620779
 20
1437.10083519296
 10
800.0773147165109
 20
1437.13475694143
 10
801.9620177086544
 20
1437.244134197834
 10
803.84083921577
 20
1437.428791981895
 10
805.7107735242396
 20
1437.688434880548
 10
807.5688291380682
 20
1438.022647520546
 10
809.4120335646374
 20
1438.430895232958
 10
811.2374380700611
 20
1438.912524908532
 10
813.0421223965287
 20
1439.46676604253
 10
814.8231994340973
 20
1440.092731967369
 10
816.5778198394493
 20
1440.789421271102
 10
818.3031765942352
 20
1441.555719399462
 10
819.9965094957043
 20
1442.390400438912
 10
821.6551095724387
 20
1443.292129077843
 10
823.2763234181319
 20
1444.259462742794
 10
824.8575574364712
 20
1445.290853906253
 10
826.3962819903388
 20
1446.384652562377
 10
827.8900354486925
 20
1447.539108866648
 10
829.3364281246496
 20
1448.752375935248
 10
830.7331460984757
 20
1450.022512799687
 10
832.0779549193632
 20
1451.347487511927
 10
833.368703180076
 20
1452.725180395077
 10
834.6033259587418
 20
1454.153387434414
 10
835.779848122287
 20
1455.629823803345
 10
836.8963874862281
 20
1457.152127518634
 10
837.9511578257645
 20
1458.717863219079
 10
838.9424717333593
 20
1460.324526061564
 10
839.8687433182294
 20
1461.969545728279
 10
840.7284907434327
 20
1463.650290538674
 10
841.5203385964918
 20
1465.364071659593
 10
841.5968952117255
 20
1465.539830225112
  0
LWPOLYLINE
  5
19D
330
183
100
AcDbEntity
  8
P-SANR-FIXT
100
AcDbPolyline
 90
       80
 70
   128
 43
0.0
 10
782.785599403058
 20
1484.300737862381
 10
782.7979977498129
 20
1483.680903182488
 10
782.8351729553676
 20
1483.062060105859
 10
782.8970655473232
 20
1482.445198649403
 10
782.983576510736
 20
1481.83130565986
 10
783.0945674465189
 20
1481.221363235057
 10
783.2298607928516
 20
1480.61634715276
 10
783.3892401092412
 20
1480.017225309637
 10
783.5724504227803
 20
1479.424956172831
 10
783.7791986360501
 20
1478.840487246617
 10
784.0091539960134
 20
1478.264753556597
 10
784.2619486231487
 20
1477.698676153858
 10
784.5371780999792
 20
1477.143160641488
 10
784.8344021180547
 20
1476.599095725803
 10
785.1531451823504
 20
1476.067351794607
 10
785.4928973719581
 20
1475.548779524758
 10
785.8531151558517
 20
1475.044208521264
 10
786.2332222624189
 20
1474.554445990095
 10
786.6326106013744
 20
1474.080275446823
 10
787.0506412365743
 20
1473.622455463167
 10
787.4866454081772
 20
1473.181718453438
 10
787.939925602518
 20
1472.758769502832
 10
788.4097566679803
 20
1472.354285239447
 10
788.8953869750848
 20
1471.968912751817
 10
789.3960396189352
 20
1471.603268553715
 10
789.9109136621022
 20
1471.257937597858
 10
790.4391854159504
 20
1470.933472340109
 10
790.9800097583655
 20
1470.630391855664
 10
791.5325214857694
 20
1470.349181008645
 10
792.0958366972611
 20
1470.090289676418
 10
792.6690542086699
 20
1469.854132029889
 10
793.2512569942574
 20
1469.641085870913
 10
793.8415136537631
 20
1469.451492027898
 10
794.4388799024466
 20
1469.285653810548
 10
795.0424000817415
 20
1469.143836524633
 10
795.6511086881047
 20
1469.02626704756
 10
796.2640319176172
 20
1468.93313346541
 10
796.8801892238617
 20
1468.864584772047
 10
797.4985948865881
 20
1468.820730630759
 10
798.1182595886552
 20
1468.801641198816
 10
798.7381919987285
 20
1468.807347015238
 10
799.3574003571966
 20
1468.837838951934
 10
799.9748940627767
 20
1468.893068228311
 10
800.5896852572648
 20
1468.972946489308
 10
801.2007904058981
 20
1469.077345946748
 10
801.8072318708014
 20
1469.206099583769
 10
802.4080394749978
 20
1469.359001422018
 10
803.0022520544861
 20
1469.535806851171
 10
803.5889189958975
 20
1469.736233020258
 10
804.1671017572749
 20
1469.959959290164
 10
804.7358753695393
 20
1470.206627746583
 10
805.2943299162429
 20
1470.475843772604
 10
805.8415719892412
 20
1470.767176680014
 10
806.3767261179565
 20
1471.080160398311
 10
806.8989361699433
 20
1471.414294220311
 10
807.4073667205166
 20
1471.769043603177
 10
807.9012043892552
 20
1472.143841023572
 10
808.3796591412356
 20
1472.538086885577
 10
808.8419655509195
 20
1472.951150479912
 10
809.2873840266715
 20
1473.382370992943
 10
809.715201993948
 20
1473.831058563838
 10
810.1247350352641
 20
1474.296495388198
 10
810.5153279851164
 20
1474.777936866392
 10
810.8863559781068
 20
1475.274612794757
 10
811.2372254485954
 20
1475.785728597761
 10
811.5673750802773
 20
1476.310466599148
 10
811.8762767041701
 20
1476.847987330057
 10
812.1634361435706
 20
1477.397430871982
 10
812.4283940046341
 20
1477.957918232465
 10
812.6707264113033
 20
1478.528552751293
 10
812.8900456834228
 20
1479.108421534965
 10
813.0860009569429
 20
1479.696596917125
 10
813.2582787452273
 20
1480.292137942634
 10
813.4066034405654
 20
1480.894091872892
 10
813.5307377550857
 20
1481.501495710021
 10
813.6304831003654
 20
1482.113377737453
 10
813.7056799051302
 20
1482.728759074474
 10
813.7562078705332
 20
1483.346655242218
 10
813.7819861626091
 20
1483.966077738627
 10
813.7855994030587
 20
1484.300737862381
  0
LINE
  5
19E
330
183
100
AcDbEntity
  8
P-SANR-FIXT
100
AcDbLine
 10
860.2855994030567
 20
1471.283149250444
 30
0.0
 11
860.2855994030567
 21
1469.206167434932
 31
0.0
  0
LINE
  5
19F
330
183
100
AcDbEntity
  8
P-SANR-FIXT
100
AcDbLine
 10
860.2855994030567
 20
1469.206167434932
 30
0.0
 11
860.2855994030567
 21
1471.283149250444
 31
0.0
  0
SPLINE
  5
1A0
330
183
100
AcDbEntity
  8
P-SANR-FIXT
100
AcDbSpline
210
0.0
220
0.0
230
1.0
 70
     8
 71
     3
 72
     8
 73
     4
 74
     0
 42
0.000000001
 43
0.0000000001
 40
-0.5
 40
-0.5
 40
-0.5
 40
-0.5
 40
-0.4858333196187023
 40
-0.4858333196187023
 40
-0.4858333196187023
 40
-0.4858333196187023
 10
860.2855718671666
 20
1498.25598150784
 30
0.0
 10
860.2855718671666
 20
1498.157068045106
 30
0.0
 10
860.284435063502
 20
1498.05818983318
 30
0.0
 10
860.2822252549943
 20
1497.959344893744
 30
0.0
  0
LINE
  5
1A1
330
183
100
AcDbEntity
  8
P-SANR-FIXT
100
AcDbLine
 10
860.2855994030567
 20
1484.300737862381
 30
0.0
 11
860.2855994030567
 21
1456.334465088636
 31
0.0
  0
SPLINE
  5
1A2
330
183
100
AcDbEntity
  8
P-SANR-FIXT
100
AcDbSpline
210
0.0
220
0.0
230
1.0
 70
     8
 71
     3
 72
     9
 73
     5
 74
     0
 42
0.000000001
 43
0.0000000001
 40
-1.0
 40
-1.0
 40
-1.0
 40
-1.0
 40
-0.5
 40
0.0
 40
0.0
 40
0.0
 40
0.0
 10
858.8422237300829
 20
1480.773917895207
 30
0.0
 10
859.804455821472
 20
1477.253020314571
 30
0.0
 10
860.7666879128609
 20
1470.241062722993
 30
0.0
 10
859.8044558214722
 20
1463.288780270803
 30
0.0
 10
858.842223730083
 20
1459.827557829554
 30
0.0
  0
SPLINE
  5
1A3
330
183
100
AcDbEntity
  8
P-SANR-FIXT
100
AcDbSpline
210
0.0
220
0.0
230
1.0
 70
    24
 71
     3
 72
     9
 73
     5
 74
     0
 42
0.000000001
 43
0.0000000001
 40
-1.0
 40
-1.0
 40
-1.0
 40
-1.0
 40
-0.5
 40
-0.4304584866760691
 40
-0.4304584866760691
 40
-0.4304584866760691
 40
-0.4304584866760691
 10
858.842223730083
 20
1456.300737862381
 30
0.0
 10
859.8044558214722
 20
1456.300737862381
 30
0.0
 10
860.3524869429708
 20
1456.300737862381
 30
0.0
 10
860.2762651158956
 20
1456.300737862381
 30
0.0
 10
860.2576516133533
 20
1456.300737862381
 30
0.0
  0
LINE
  5
1A4
330
183
100
AcDbEntity
  8
P-SANR-FIXT
100
AcDbLine
 10
858.8422237300829
 20
1484.300737862381
 30
0.0
 11
858.8422237300829
 21
1480.773917895208
 31
0.0
  0
SPLINE
  5
1A5
330
183
100
AcDbEntity
  8
P-SANR-FIXT
100
AcDbSpline
210
0.0
220
0.0
230
1.0
 70
     8
 71
     3
 72
     9
 73
     5
 74
     0
 42
0.000000001
 43
0.0000000001
 40
0.0
 40
0.0
 40
0.0
 40
0.0
 40
0.5
 40
1.0
 40
1.0
 40
1.0
 40
1.0
 10
841.4228533362507
 20
1484.300737862381
 30
0.0
 10
841.4234753623654
 20
1483.711311677571
 30
0.0
 10
841.4378427325384
 20
1482.53276491497
 30
0.0
 10
841.4784567385986
 20
1481.358784308125
 30
0.0
 10
841.5053254006004
 20
1480.773917895209
 30
0.0
  0
LINE
  5
1A6
330
183
100
AcDbEntity
  8
P-SANR-FIXT
100
AcDbLine
 10
841.5053254006004
 20
1480.773917895209
 30
0.0
 11
858.8422237300829
 21
1480.773917895209
 31
0.0
  0
LINE
  5
1A7
330
183
100
AcDbEntity
  8
P-SANR-FIXT
100
AcDbLine
 10
858.842223730083
 20
1459.827557829554
 30
0.0
 11
858.842223730083
 21
1456.300737862381
 31
0.0
  0
LINE
  5
1A8
330
183
100
AcDbEntity
  8
P-SANR-FIXT
100
AcDbLine
 10
858.842223730083
 20
1459.827557829554
 30
0.0
 11
838.64527555489
 21
1459.827557829554
 31
0.0
  0
SPLINE
  5
1A9
330
183
100
AcDbEntity
  8
P-SANR-FIXT
100
AcDbSpline
210
0.0
220
0.0
230
1.0
 70
     8
 71
     3
 72
     8
 73
     4
 74
     0
 42
0.000000001
 43
0.0000000001
 40
0.5
 40
0.5
 40
0.5
 40
0.5
 40
0.75
 40
0.75
 40
0.75
 40
0.75
 10
837.4090233087837
 20
1457.896236316379
 30
0.0
 10
837.2122081860078
 20
1457.60136677446
 30
0.0
 10
837.0246199814737
 20
1457.335565878972
 30
0.0
 10
836.8393385064997
 20
1457.076945509958
 30
0.0
  0
LINE
  5
1AA
330
183
100
AcDbEntity
  8
P-SANR-FIXT
100
AcDbLine
 10
836.2834940815783
 20
1456.300737862381
 30
0.0
 11
858.842223730083
 21
1456.300737862381
 31
0.0
  0
LINE
  5
1AB
330
183
100
AcDbEntity
  8
P-SANR-FIXT
100
AcDbLine
 10
737.7289750760308
 20
1480.773917895207
 30
0.0
 11
755.065873405431
 21
1480.773917895207
 31
0.0
  0
SPLINE
  5
1AC
330
183
100
AcDbEntity
  8
P-SANR-FIXT
100
AcDbSpline
210
0.0
220
0.0
230
1.0
 70
     8
 71
     3
 72
     9
 73
     5
 74
     0
 42
0.000000001
 43
0.0000000001
 40
0.0
 40
0.0
 40
0.0
 40
0.0
 40
0.5
 40
1.0
 40
1.0
 40
1.0
 40
1.0
 10
755.065873405431
 20
1480.773917895207
 30
0.0
 10
755.0927420674659
 20
1481.358784308123
 30
0.0
 10
755.1333560735807
 20
1482.532764914967
 30
0.0
 10
755.1477234437856
 20
1483.71131167757
 30
0.0
 10
755.1483454699106
 20
1484.30073786238
 30
0.0
  0
LINE
  5
1AD
330
183
100
AcDbEntity
  8
P-SANR-FIXT
100
AcDbLine
 10
737.7289750760308
 20
1456.300737862381
 30
0.0
 11
760.287704724536
 21
1456.300737862381
 31
0.0
  0
SPLINE
  5
1AE
330
183
100
AcDbEntity
  8
P-SANR-FIXT
100
AcDbSpline
210
0.0
220
0.0
230
1.0
 70
     8
 71
     3
 72
     8
 73
     4
 74
     0
 42
0.000000001
 43
0.0000000001
 40
0.25
 40
0.25
 40
0.25
 40
0.25
 40
0.5
 40
0.5
 40
0.5
 40
0.5
 10
759.7387804882957
 20
1457.054364308931
 30
0.0
 10
759.5511922837614
 20
1457.320511744954
 30
0.0
 10
759.3620662595202
 20
1457.592529590126
 30
0.0
 10
759.1621754973304
 20
1457.896236316379
 30
0.0
  0
LINE
  5
1AF
330
183
100
AcDbEntity
  8
P-SANR-FIXT
100
AcDbLine
 10
757.925923251224
 20
1459.827557829554
 30
0.0
 11
737.7289750760308
 21
1459.827557829554
 31
0.0
  0
SPLINE
  5
1B0
330
183
100
AcDbEntity
  8
P-SANR-FIXT
100
AcDbSpline
210
0.0
220
0.0
230
1.0
 70
     8
 71
     3
 72
     8
 73
     4
 74
     0
 42
0.000000001
 43
0.0000000001
 40
-0.514166680381285
 40
-0.514166680381285
 40
-0.514166680381285
 40
-0.514166680381285
 40
-0.5
 40
-0.5
 40
-0.5
 40
-0.5
 10
736.2867856290006
 20
1497.959277049115
 30
0.0
 10
736.2860131689649
 20
1498.058166558864
 30
0.0
 10
736.2852513506092
 20
1498.157056398598
 30
0.0
 10
736.285626938947
 20
1498.255981507839
 30
0.0
  0
SPLINE
  5
1B1
330
183
100
AcDbEntity
  8
P-SANR-FIXT
100
AcDbSpline
210
0.0
220
0.0
230
1.0
 70
    24
 71
     3
 72
     9
 73
     5
 74
     0
 42
0.000000001
 43
0.0000000001
 40
-0.5695415133240073
 40
-0.5695415133240073
 40
-0.5695415133240073
 40
-0.5695415133240073
 40
-0.5
 40
0.0
 40
0.0
 40
0.0
 40
0.0
 10
736.3135471927608
 20
1456.30073786238
 30
0.0
 10
736.2949336902183
 20
1456.30073786238
 30
0.0
 10
736.2187118631432
 20
1456.300737862381
 30
0.0
 10
736.7667429846413
 20
1456.30073786238
 30
0.0
 10
737.7289750760308
 20
1456.300737862381
 30
0.0
  0
LINE
  5
1B2
330
183
100
AcDbEntity
  8
P-SANR-FIXT
100
AcDbLine
 10
737.7289750760308
 20
1459.827557829554
 30
0.0
 11
737.7289750760308
 21
1456.300737862381
 31
0.0
  0
SPLINE
  5
1B3
330
183
100
AcDbEntity
  8
P-SANR-FIXT
100
AcDbSpline
210
0.0
220
0.0
230
1.0
 70
     8
 71
     3
 72
     9
 73
     5
 74
     0
 42
0.000000001
 43
0.0000000001
 40
-1.0
 40
-1.0
 40
-1.0
 40
-1.0
 40
-0.5
 40
0.0
 40
0.0
 40
0.0
 40
0.0
 10
737.7289750760308
 20
1459.827557829554
 30
0.0
 10
736.7667429846418
 20
1463.288780270803
 30
0.0
 10
735.8045108932526
 20
1470.241062722993
 30
0.0
 10
736.7667429846417
 20
1477.253020314571
 30
0.0
 10
737.7289750760308
 20
1480.773917895207
 30
0.0
  0
LINE
  5
1B4
330
183
100
AcDbEntity
  8
P-SANR-FIXT
100
AcDbLine
 10
737.7289750760308
 20
1484.30073786238
 30
0.0
 11
737.7289750760308
 21
1480.773917895207
 31
0.0
  0
LINE
  5
1B5
330
183
100
AcDbEntity
  8
P-SANR-FIXT
100
AcDbLine
 10
736.2855994030568
 20
1484.30073786238
 30
0.0
 11
736.2855994030568
 21
1456.334465088636
 31
0.0
  0
LINE
  5
1B6
330
183
100
AcDbEntity
  8
P-SANR-FIXT
100
AcDbLine
 10
736.2855994030566
 20
1471.283149250443
 30
0.0
 11
736.2855994030566
 21
1469.206167434932
 31
0.0
  0
LINE
  5
1B7
330
183
100
AcDbEntity
  8
P-SANR-FIXT
100
AcDbLine
 10
736.2855994030567
 20
1469.206167434932
 30
0.0
 11
736.2855994030567
 21
1471.283149250443
 31
0.0
  0
SPLINE
  5
1B8
330
183
100
AcDbEntity
  8
P-SANR-FIXT
100
AcDbSpline
210
0.0
220
0.0
230
1.0
 70
     8
 71
     3
 72
    12
 73
     8
 74
     0
 42
0.000000001
 43
0.0000000001
 40
0.0
 40
0.0
 40
0.0
 40
0.0
 40
0.25
 40
0.375
 40
0.5
 40
0.75
 40
1.0
 40
1.0
 40
1.0
 40
1.0
 10
841.5053254006004
 20
1480.773917895209
 30
0.0
 10
842.1302510189001
 20
1479.565808336769
 30
0.0
 10
842.8283625031609
 20
1477.71929109968
 30
0.0
 10
843.2439997680459
 20
1475.132021674116
 30
0.0
 10
843.3563179674134
 20
1472.522304509717
 30
0.0
 10
842.9506097046782
 20
1469.264898400626
 30
0.0
 10
842.1350500018572
 20
1466.769012188115
 30
0.0
 10
841.5968952117239
 20
1465.539830225111
 30
0.0
  0
LINE
  5
1B9
330
183
100
AcDbEntity
  8
P-SANR-FIXT
100
AcDbLine
 10
840.2950886389787
 20
1462.78230897887
 30
0.0
 11
840.2184671941339
 21
1462.633375336774
 31
0.0
  0
LINE
  5
1BA
330
183
100
AcDbEntity
  8
P-SANR-FIXT
100
AcDbLine
 10
838.8179820653252
 20
1460.114707730788
 30
0.0
 11
838.6452755548898
 21
1459.827557829554
 31
0.0
  0
LINE
  5
1BB
330
183
100
AcDbEntity
  8
P-SANR-FIXT
100
AcDbLine
 10
757.9259232512241
 20
1459.827557829554
 30
0.0
 11
757.7532167407886
 21
1460.114707730788
 31
0.0
  0
LINE
  5
1BC
330
183
100
AcDbEntity
  8
P-SANR-FIXT
100
AcDbLine
 10
756.3527316119799
 20
1462.633375336775
 30
0.0
 11
756.2761101671354
 21
1462.782308978871
 31
0.0
  0
SPLINE
  5
1BD
330
183
100
AcDbEntity
  8
P-SANR-FIXT
100
AcDbSpline
210
0.0
220
0.0
230
1.0
 70
     8
 71
     3
 72
    12
 73
     8
 74
     0
 42
0.000000001
 43
0.0000000001
 40
0.0
 40
0.0
 40
0.0
 40
0.0
 40
0.25
 40
0.5
 40
0.625
 40
0.75
 40
1.0
 40
1.0
 40
1.0
 40
1.0
 10
754.9743035943901
 20
1465.539830225112
 30
0.0
 10
754.4361488042576
 20
1466.769012188114
 30
0.0
 10
753.6205891014384
 20
1469.264898400621
 30
0.0
 10
753.214880838698
 20
1472.522304509707
 30
0.0
 10
753.3271990380727
 20
1475.1320216741
 30
0.0
 10
753.7428363029521
 20
1477.71929109966
 30
0.0
 10
754.4409477871701
 20
1479.565808336758
 30
0.0
 10
755.065873405431
 20
1480.773917895207
 30
0.0
  0
ARC
  5
1BE
330
183
100
AcDbEntity
  8
P-SANR-FIXT
100
AcDbCircle
 10
798.2855994030574
 20
1484.300737862381
 30
0.0
 40
15.99999999999982
100
AcDbArc
 50
179.9999999999998
 51
359.9999999999986
  0
ARC
  5
1BF
330
183
100
AcDbEntity
  8
P-SANR-FIXT
100
AcDbCircle
 10
798.2855994030568
 20
1484.300737862381
 30
0.0
 40
15.50000000000025
100
AcDbArc
 50
354.3721186371945
 51
355.0000000000143
  0
ARC
  5
1C0
330
183
100
AcDbEntity
  8
P-SANR-FIXT
100
AcDbCircle
 10
798.2855994030568
 20
1484.300737862381
 30
0.0
 40
15.50000000000026
100
AcDbArc
 50
348.7412277815887
 51
350.0000000000287
  0
ARC
  5
1C1
330
183
100
AcDbEntity
  8
P-SANR-FIXT
100
AcDbCircle
 10
798.2855994030568
 20
1484.300737862381
 30
0.0
 40
15.5000000000002
100
AcDbArc
 50
343.109061489336
 51
345.0000000000435
  0
ARC
  5
1C2
330
183
100
AcDbEntity
  8
P-SANR-FIXT
100
AcDbCircle
 10
798.2855994030568
 20
1484.300737862381
 30
0.0
 40
15.50000000000013
100
AcDbArc
 50
335.0000000000726
 51
340.0000000000582
  0
ARC
  5
1C3
330
183
100
AcDbEntity
  8
P-SANR-FIXT
100
AcDbCircle
 10
798.2855994030568
 20
1484.300737862381
 30
0.0
 40
15.50000000000028
100
AcDbArc
 50
330.0000000000868
 51
331.848192081068
  0
ARC
  5
1C4
330
183
100
AcDbEntity
  8
P-SANR-FIXT
100
AcDbCircle
 10
798.2855994030568
 20
1484.300737862381
 30
0.0
 40
15.50000000000024
100
AcDbArc
 50
325.0000000001024
 51
326.2236392671675
  0
ARC
  5
1C5
330
183
100
AcDbEntity
  8
P-SANR-FIXT
100
AcDbCircle
 10
798.2855994030568
 20
1484.300737862381
 30
0.0
 40
15.50000000000022
100
AcDbArc
 50
320.0000000001166
 51
320.6064284940126
  0
ARC
  5
1C6
330
183
100
AcDbEntity
  8
P-SANR-FIXT
100
AcDbCircle
 10
798.2855994030568
 20
1484.300737862381
 30
0.0
 40
15.50000000000021
100
AcDbArc
 50
309.3935715059952
 51
310.0000000001319
  0
ARC
  5
1C7
330
183
100
AcDbEntity
  8
P-SANR-FIXT
100
AcDbCircle
 10
798.2855994030568
 20
1484.300737862381
 30
0.0
 40
15.50000000000015
100
AcDbArc
 50
303.7763607328376
 51
305.0000000001315
  0
ARC
  5
1C8
330
183
100
AcDbEntity
  8
P-SANR-FIXT
100
AcDbCircle
 10
798.2855994030568
 20
1484.300737862381
 30
0.0
 40
15.50000000000025
100
AcDbArc
 50
298.1518079189344
 51
300.0000000001316
  0
ARC
  5
1C9
330
183
100
AcDbEntity
  8
P-SANR-FIXT
100
AcDbCircle
 10
798.2855994030568
 20
1484.300737862381
 30
0.0
 40
15.50000000000022
100
AcDbArc
 50
290.0000000001316
 51
295.0000000001312
  0
ARC
  5
1CA
330
183
100
AcDbEntity
  8
P-SANR-FIXT
100
AcDbCircle
 10
798.2855994030568
 20
1484.300737862381
 30
0.0
 40
15.50000000000022
100
AcDbArc
 50
285.0000000001312
 51
286.8909385106644
  0
ARC
  5
1CB
330
183
100
AcDbEntity
  8
P-SANR-FIXT
100
AcDbCircle
 10
798.2855994030568
 20
1484.300737862381
 30
0.0
 40
15.50000000000023
100
AcDbArc
 50
280.0000000001318
 51
281.2587722184113
  0
ARC
  5
1CC
330
183
100
AcDbEntity
  8
P-SANR-FIXT
100
AcDbCircle
 10
798.2855994030568
 20
1484.300737862381
 30
0.0
 40
15.50000000000011
100
AcDbArc
 50
275.0000000001315
 51
275.6278813628057
  0
ARC
  5
1CD
330
183
100
AcDbEntity
  8
P-SANR-FIXT
100
AcDbCircle
 10
798.2855994030568
 20
1484.300737862381
 30
0.0
 40
15.50000000000031
100
AcDbArc
 50
264.3721186371937
 51
265.0000000001319
  0
ARC
  5
1CE
330
183
100
AcDbEntity
  8
P-SANR-FIXT
100
AcDbCircle
 10
798.2855994030568
 20
1484.300737862381
 30
0.0
 40
15.5000000000003
100
AcDbArc
 50
258.7412277815872
 51
260.0000000001316
  0
ARC
  5
1CF
330
183
100
AcDbEntity
  8
P-SANR-FIXT
100
AcDbCircle
 10
798.2855994030568
 20
1484.300737862381
 30
0.0
 40
15.50000000000027
100
AcDbArc
 50
253.1090614893359
 51
255.0000000001316
  0
ARC
  5
1D0
330
183
100
AcDbEntity
  8
P-SANR-FIXT
100
AcDbCircle
 10
798.2855994030568
 20
1484.300737862381
 30
0.0
 40
15.50000000000019
100
AcDbArc
 50
245.0000000001323
 51
250.0000000001319
  0
ARC
  5
1D1
330
183
100
AcDbEntity
  8
P-SANR-FIXT
100
AcDbCircle
 10
798.2855994030568
 20
1484.300737862381
 30
0.0
 40
15.50000000000033
100
AcDbArc
 50
240.0000000001321
 51
241.8481920810679
  0
ARC
  5
1D2
330
183
100
AcDbEntity
  8
P-SANR-FIXT
100
AcDbCircle
 10
798.2855994030568
 20
1484.300737862381
 30
0.0
 40
15.50000000000024
100
AcDbArc
 50
235.000000000131
 51
236.223639267167
  0
ARC
  5
1D3
330
183
100
AcDbEntity
  8
P-SANR-FIXT
100
AcDbCircle
 10
798.2855994030568
 20
1484.300737862381
 30
0.0
 40
15.50000000000023
100
AcDbArc
 50
230.0000000001316
 51
230.6064284940128
  0
ARC
  5
1D4
330
183
100
AcDbEntity
  8
P-SANR-FIXT
100
AcDbCircle
 10
798.2855994030568
 20
1484.300737862381
 30
0.0
 40
15.50000000000026
100
AcDbArc
 50
219.393571505994
 51
220.0000000001164
  0
ARC
  5
1D5
330
183
100
AcDbEntity
  8
P-SANR-FIXT
100
AcDbCircle
 10
798.2855994030568
 20
1484.300737862381
 30
0.0
 40
15.50000000000028
100
AcDbArc
 50
213.7763607328364
 51
215.0000000001013
  0
ARC
  5
1D6
330
183
100
AcDbEntity
  8
P-SANR-FIXT
100
AcDbCircle
 10
798.2855994030568
 20
1484.300737862381
 30
0.0
 40
15.50000000000014
100
AcDbArc
 50
208.1518079189341
 51
210.0000000000871
  0
ARC
  5
1D7
330
183
100
AcDbEntity
  8
P-SANR-FIXT
100
AcDbCircle
 10
798.2855994030568
 20
1484.300737862381
 30
0.0
 40
15.5000000000002
100
AcDbArc
 50
200.0000000000571
 51
205.000000000072
  0
ARC
  5
1D8
330
183
100
AcDbEntity
  8
P-SANR-FIXT
100
AcDbCircle
 10
798.2855994030568
 20
1484.300737862381
 30
0.0
 40
15.50000000000029
100
AcDbArc
 50
195.0000000000425
 51
196.8909385106647
  0
ARC
  5
1D9
330
183
100
AcDbEntity
  8
P-SANR-FIXT
100
AcDbCircle
 10
798.2855994030568
 20
1484.300737862381
 30
0.0
 40
15.50000000000032
100
AcDbArc
 50
190.0000000000284
 51
191.2587722184129
  0
ARC
  5
1DA
330
183
100
AcDbEntity
  8
P-SANR-FIXT
100
AcDbCircle
 10
798.2855994030568
 20
1484.300737862381
 30
0.0
 40
15.50000000000014
100
AcDbArc
 50
185.0000000000145
 51
185.6278813628055
  0
ENDBLK
  5
1DC
330
183
100
AcDbEntity
  8
0
100
AcDbBlockEnd
  0
BLOCK
  5
271
330
1DE
100
AcDbEntity
  8
0
100
AcDbBlockBegin
  2
Automatic flow rate regulator valve_Caleffi_121 DN15 - 3_4___Insulation-V1-Est - Idraulica
 70
     0
 10
0.0
 20
0.0
 30
0.0
  3
Automatic flow rate regulator valve_Caleffi_121 DN15 - 3_4___Insulation-V1-Est - Idraulica
  1

  0
LWPOLYLINE
  5
1DF
330
1DE
100
AcDbEntity
  8
P-SANR-FIXT
100
AcDbPolyline
 90
       38
 70
   128
 43
0.0
 10
1208.867617106691
 20
1942.255687290537
 10
1208.880929045271
 20
1942.374938589875
 10
1208.898999115782
 20
1942.493562165332
 10
1208.921798409965
 20
1942.611368244492
 10
1208.949290453813
 20
1942.72816836276
 10
1208.981431265921
 20
1942.843775664863
 10
1209.018169427845
 20
1942.958005203778
 10
1209.059446166365
 20
1943.070674236611
 10
1209.105195447502
 20
1943.181602516945
 10
1209.155344082168
 20
1943.290612583194
 10
1209.209811843243
 20
1943.397530042506
 10
1209.26851159393
 20
1943.502183849755
 10
1209.331349427149
 20
1943.604406581174
 10
1209.398224815772
 20
1943.704034702198
 10
1209.469030773444
 20
1943.800908829088
 10
1209.543654025736
 20
1943.894873983905
 10
1209.621975191363
 20
1943.985779842447
 10
1209.703868973168
 20
1944.073480974732
 10
1209.78920435857
 20
1944.157837077657
 10
1209.877844829156
 20
1944.238713199452
 10
1209.969648579083
 20
1944.315979955575
 10
1210.064468741933
 20
1944.3895137357
 10
1210.162153625674
 20
1944.459196901463
 10
1210.262546955331
 20
1944.524917974666
 10
1210.365488122991
 20
1944.58657181561
 10
1210.470812444746
 20
1944.644059791302
 10
1210.57835142415
 20
1944.697289933245
 10
1210.687933021775
 20
1944.746177084567
 10
1210.799381930442
 20
1944.790643036253
 10
1210.912519855671
 20
1944.830616652268
 10
1211.027165800916
 20
1944.866033983352
 10
1211.143136357123
 20
1944.896838369332
 10
1211.260245996139
 20
1944.92298052976
 10
1211.378307367525
 20
1944.944418642757
 10
1211.497131598271
 20
1944.961118411916
 10
1211.616528594956
 20
1944.973053121168
 10
1211.736307347856
 20
1944.980203677524
 10
1211.835583583917
 20
1944.98217095804
  0
LWPOLYLINE
  5
1E0
330
1DE
100
AcDbEntity
  8
P-SANR-FIXT
100
AcDbPolyline
 90
       21
 70
   128
 43
0.0
 10
1270.77824481076
 20
1944.982558850011
 10
1268.421949802755
 20
1944.982558850011
 10
1266.069424364114
 20
1944.982558850011
 10
1263.724432033692
 20
1944.982558850011
 10
1261.390724298981
 20
1944.982558850011
 10
1259.072034594524
 20
1944.982558850011
 10
1256.772072329222
 20
1944.982558850011
 10
1254.494516952066
 20
1944.982558850011
 10
1252.243012065807
 20
1944.982558850011
 10
1250.021159597968
 20
1944.982558850011
 10
1247.832514038527
 20
1944.982558850011
 10
1245.680576753494
 20
1944.982558850011
 10
1243.568790383469
 20
1944.982558850011
 10
1241.500533336153
 20
1944.982558850011
 10
1239.479114381618
 20
1944.982558850011
 10
1237.507767358978
 20
1944.982558850011
 10
1235.589646002938
 20
1944.982558850011
 10
1233.727818898489
 20
1944.982558850011
 10
1231.925264571831
 20
1944.982558850011
 10
1230.184866725361
 20
1944.982558850011
 10
1228.509409624369
 20
1944.982558850011
  0
LWPOLYLINE
  5
1E1
330
1DE
100
AcDbEntity
  8
P-SANR-FIXT
100
AcDbPolyline
 90
       21
 70
   128
 43
0.0
 10
1228.355024768435
 20
1944.982558850011
 10
1226.901573642805
 20
1944.982558850011
 10
1225.363930975252
 20
1944.982558850011
 10
1223.898941521965
 20
1944.982558850011
 10
1222.508948953556
 20
1944.982558850011
 10
1221.196176961618
 20
1944.982558850011
 10
1219.962725701295
 20
1944.982558850011
 10
1218.810568431482
 20
1944.982558850011
 10
1217.741548358028
 20
1944.982558850011
 10
1216.757375685007
 20
1944.982558850011
 10
1215.85962487875
 20
1944.982558850011
 10
1215.049732149037
 20
1944.982558850011
 10
1214.328993151467
 20
1944.982558850011
 10
1213.698560914687
 20
1944.982558850011
 10
1213.159443995792
 20
1944.982558850011
 10
1212.712504866844
 20
1944.982558850011
 10
1212.35845853511
 20
1944.982558850011
 10
1212.097871399194
 20
1944.982558850011
 10
1211.931160342924
 20
1944.982558850011
 10
1211.858592068428
 20
1944.982558850011
 10
1211.855158044482
 20
1944.982558850011
  0
LWPOLYLINE
  5
1E2
330
1DE
100
AcDbEntity
  8
P-SANR-FIXT
100
AcDbPolyline
 90
        3
 70
   128
 43
0.0
 10
1211.870670193699
 20
1944.982558850011
 10
1211.902290229101
 20
1944.982558850011
 10
1211.95958012279
 20
1944.982558850011
  0
LWPOLYLINE
  5
1E3
330
1DE
100
AcDbEntity
  8
P-SANR-FIXT
100
AcDbPolyline
 90
       16
 70
   128
 43
0.0
 10
1226.207571103373
 20
1857.8392387073
 10
1223.478274566748
 20
1863.128742600068
 10
1220.962684915092
 20
1868.523158205202
 10
1218.664826555217
 20
1874.013855608484
 10
1216.588375570316
 20
1879.592050865351
 10
1214.736653839012
 20
1885.248820053346
 10
1213.112623721061
 20
1890.975113548482
 10
1211.718883318212
 20
1896.761770502709
 10
1210.557662317794
 20
1902.599533499323
 10
1209.630818425693
 20
1908.47906336285
 10
1208.93983439442
 20
1914.390954099744
 10
1208.485815651024
 20
1920.32574794596
 10
1208.269488528642
 20
1926.273950497367
 10
1208.291199104522
 20
1932.226045898764
 10
1208.550912646374
 20
1938.172512067222
 10
1208.867617106691
 20
1942.255687290537
  0
LWPOLYLINE
  5
1E4
330
1DE
100
AcDbEntity
  8
P-SANR-FIXT
100
AcDbPolyline
 90
       28
 70
   128
 43
0.0
 10
1239.397452730543
 20
1849.982558850011
 10
1238.797612717743
 20
1849.994557250096
 10
1238.198732321005
 20
1850.030533255472
 10
1237.601769621209
 20
1850.090429312203
 10
1237.007679631329
 20
1850.174149599377
 10
1236.417412768617
 20
1850.281560182392
 10
1235.831913334136
 20
1850.412489227231
 10
1235.252118002081
 20
1850.56672727535
 10
1234.678954321301
 20
1850.744027578775
 10
1234.113339231416
 20
1850.944106494842
 10
1233.556177595913
 20
1851.166643939968
 10
1233.008360754553
 20
1851.411283901711
 10
1232.47076509742
 20
1851.677635008322
 10
1231.944250662887
 20
1851.965271154847
 10
1231.42965976173
 20
1852.27373218481
 10
1230.927815629617
 20
1852.602524626366
 10
1230.439521110107
 20
1852.951122481747
 10
1229.965557370266
 20
1853.318968068747
 10
1229.506682650971
 20
1853.705472912898
 10
1229.063631053885
 20
1854.110018688898
 10
1228.63711136705
 20
1854.531958209804
 10
1228.22780593098
 20
1854.970616462392
 10
1227.836369547058
 20
1855.425291687033
 10
1227.463428429997
 20
1855.895256500359
 10
1227.109579206028
 20
1856.379759058924
 10
1226.775387958425
 20
1856.878024261989
 10
1226.461389321893
 20
1857.38925499152
 10
1226.207571103373
 20
1857.8392387073
  0
LWPOLYLINE
  5
1E5
330
1DE
100
AcDbEntity
  8
P-SANR-FIXT
100
AcDbPolyline
 90
       31
 70
   128
 43
0.0
 10
1257.778244810748
 20
1849.982558850011
 10
1257.411927018765
 20
1849.982558850011
 10
1256.287248516119
 20
1849.982558850011
 10
1255.185752516296
 20
1849.982558850011
 10
1254.109201177924
 20
1849.982558850011
 10
1253.059316753491
 20
1849.982558850011
 10
1252.037778834113
 20
1849.982558850011
 10
1251.046221662545
 20
1849.982558850011
 10
1250.086231518741
 20
1849.982558850011
 10
1249.159344182143
 20
1849.982558850011
 10
1248.267042474765
 20
1849.982558850011
 10
1247.41075388899
 20
1849.982558850011
 10
1246.591848303892
 20
1849.982558850011
 10
1245.811635793715
 20
1849.982558850011
 10
1245.071364532039
 20
1849.982558850011
 10
1244.372218794968
 20
1849.982558850011
 10
1243.715317066536
 20
1849.982558850011
 10
1243.101710249379
 20
1849.982558850011
 10
1242.532379983508
 20
1849.982558850011
 10
1242.008237075896
 20
1849.982558850011
 10
1241.530120043387
 20
1849.982558850011
 10
1241.098793771238
 20
1849.982558850011
 10
1240.714948289473
 20
1849.982558850011
 10
1240.379197668982
 20
1849.982558850011
 10
1240.092079039133
 20
1849.982558850011
 10
1239.854051728486
 20
1849.982558850011
 10
1239.665496529961
 20
1849.982558850011
 10
1239.526715091653
 20
1849.982558850011
 10
1239.437929434259
 20
1849.982558850011
 10
1239.399281595889
 20
1849.982558850011
 10
1239.397452730543
 20
1849.982558850011
  0
LWPOLYLINE
  5
1E6
330
1DE
100
AcDbEntity
  8
P-SANR-FIXT
100
AcDbPolyline
 90
       41
 70
   128
 43
0.0
 10
1239.397452730543
 20
1849.982558850011
 10
1239.422554017101
 20
1849.982558850011
 10
1239.497817720072
 20
1849.982558850011
 10
1239.623123433586
 20
1849.982558850011
 10
1239.798270695232
 20
1849.982558850011
 10
1240.022979306754
 20
1849.982558850011
 10
1240.296889782309
 20
1849.982558850011
 10
1240.619563923568
 20
1849.982558850011
 10
1240.990485520737
 20
1849.982558850011
 10
1241.409061178387
 20
1849.982558850011
 10
1241.874621264757
 20
1849.982558850011
 10
1242.386420983024
 20
1849.982558850011
 10
1242.943641562815
 20
1849.982558850011
 10
1243.545391570071
 20
1849.982558850011
 10
1244.190708333147
 20
1849.982558850011
 10
1244.878559482881
 20
1849.982558850011
 10
1245.607844604169
 20
1849.982558850011
 10
1246.377396996388
 20
1849.982558850011
 10
1247.185985539873
 20
1849.982558850011
 10
1248.032316665446
 20
1849.982558850011
 10
1248.915036423844
 20
1849.982558850011
 10
1249.83273265176
 20
1849.982558850011
 10
1250.783937230992
 20
1849.982558850011
 10
1251.767128437127
 20
1849.982558850011
 10
1252.780733373971
 20
1849.982558850011
 10
1253.82313048985
 20
1849.982558850011
 10
1254.892652171744
 20
1849.982558850011
 10
1255.987587413115
 20
1849.982558850011
 10
1257.10618455115
 20
1849.982558850011
 10
1258.24665406905
 20
1849.982558850011
 10
1259.407171458873
 20
1849.982558850011
 10
1260.585880140359
 20
1849.982558850011
 10
1261.780894431064
 20
1849.982558850011
 10
1262.990302563043
 20
1849.982558850011
 10
1264.212169741279
 20
1849.982558850011
 10
1265.444541238939
 20
1849.982558850011
 10
1266.685445524517
 20
1849.982558850011
 10
1267.93289741587
 20
1849.982558850011
 10
1269.184901256079
 20
1849.982558850011
 10
1270.439454106081
 20
1849.982558850011
 10
1270.77824481076
 20
1849.982558850011
  0
LINE
  5
1E7
330
1DE
100
AcDbEntity
  8
P-SANR-FIXT
100
AcDbLine
 10
1270.778244810758
 20
1942.255687290536
 30
0.0
 11
1270.778244810758
 21
1944.98255885001
 31
0.0
  0
LINE
  5
1E8
330
1DE
100
AcDbEntity
  8
P-SANR-FIXT
100
AcDbLine
 10
1270.778244810758
 20
1857.839238707299
 30
0.0
 11
1270.778244810758
 21
1942.255687290536
 31
0.0
  0
LINE
  5
1E9
330
1DE
100
AcDbEntity
  8
P-SANR-FIXT
100
AcDbLine
 10
1270.778244810758
 20
1849.982558850011
 30
0.0
 11
1270.778244810758
 21
1857.839238707299
 31
0.0
  0
LINE
  5
1EA
330
1DE
100
AcDbEntity
  8
P-SANR-FIXT
100
AcDbLine
 10
1270.778244810757
 20
1967.628065976852
 30
0.0
 11
1270.778244810757
 21
1980.932558850011
 31
0.0
  0
ARC
  5
1EB
330
1DE
100
AcDbEntity
  8
P-SANR-FIXT
100
AcDbCircle
 10
1270.778244810758
 20
1999.982558850011
 30
0.0
 40
19.04999999999972
100
AcDbArc
 50
90.0
 51
269.9999999999997
  0
LINE
  5
1EC
330
1DE
100
AcDbEntity
  8
P-SANR-FIXT
100
AcDbLine
 10
1270.778244810757
 20
2019.03255885001
 30
0.0
 11
1270.778244810757
 21
2026.573103548894
 31
0.0
  0
LINE
  5
1ED
330
1DE
100
AcDbEntity
  8
P-SANR-FIXT
100
AcDbLine
 10
1270.778244810757
 20
2027.658752908415
 30
0.0
 11
1270.778244810757
 21
2032.337051723169
 31
0.0
  0
ARC
  5
1EE
330
1DE
100
AcDbEntity
  8
P-SANR-FIXT
100
AcDbCircle
 10
1270.778244810758
 20
1999.982558850011
 30
0.0
 40
32.35449287315805
100
AcDbArc
 50
90.0
 51
269.9999999999993
  0
LWPOLYLINE
  5
1EF
330
1DE
100
AcDbEntity
  8
P-SANR-FIXT
100
AcDbPolyline
 90
       41
 70
   128
 43
0.0
 10
1240.77824481076
 20
2061.982558850012
 10
1240.780644490777
 20
2062.102526852571
 10
1240.787839691852
 20
2062.222302931919
 10
1240.799818903198
 20
2062.341695471878
 10
1240.816562960633
 20
2062.460513469854
 10
1240.838045077236
 20
2062.578566842397
 10
1240.864230886204
 20
2062.695666729293
 10
1240.895078495827
 20
2062.811625795704
 10
1240.930538556513
 20
2062.926258531859
 10
1240.970554339726
 20
2063.039381549837
 10
1241.015061828751
 20
2063.150813876938
 10
1241.0639898211
 20
2063.26037724521
 10
1241.117260042422
 20
2063.367896376636
 10
1241.174787271727
 20
2063.473199263543
 10
1241.236479477719
 20
2063.576117443774
 10
1241.302237966031
 20
2063.676486270197
 10
1241.371957537107
 20
2063.774145174099
 10
1241.445526654507
 20
2063.868937922067
 10
1241.522827623337
 20
2063.960712865926
 10
1241.603736778537
 20
2064.049323185343
 10
1241.688124682718
 20
2064.13462712271
 10
1241.775856333236
 20
2064.216488209924
 10
1241.866791378164
 20
2064.294775486709
 10
1241.96078434083
 20
2064.36936371012
 10
1242.057684852543
 20
2064.440133554915
 10
1242.157337893155
 20
2064.506971804436
 10
1242.259584039062
 20
2064.569771531742
 10
1242.364259718239
 20
2064.628432270667
 10
1242.47119747193
 20
2064.682860176541
 10
1242.580226222541
 20
2064.732968176327
 10
1242.69117154733
 20
2064.778676107913
 10
1242.803855957444
 20
2064.819910848361
 10
1242.918099181864
 20
2064.856606430879
 10
1243.033718455803
 20
2064.888704150366
 10
1243.150528813086
 20
2064.916152657318
 10
1243.268343382059
 20
2064.938908039977
 10
1243.386973684545
 20
2064.956933894587
 10
1243.506229937367
 20
2064.970201383625
 10
1243.625921355959
 20
2064.978689281939
 10
1243.745856459585
 20
2064.982384010701
 10
1243.77824481076
 20
2064.982558850012
  0
LWPOLYLINE
  5
1F0
330
1DE
100
AcDbEntity
  8
P-SANR-FIXT
100
AcDbPolyline
 90
       41
 70
   128
 43
0.0
 10
1270.77824481076
 20
2064.982558850012
 10
1269.698532787721
 20
2064.982558850012
 10
1268.620548073592
 20
2064.982558850012
 10
1267.546015213959
 20
2064.982558850012
 10
1266.476653232175
 20
2064.982558850012
 10
1265.414172879294
 20
2064.982558850012
 10
1264.360273897227
 20
2064.982558850012
 10
1263.316642299529
 20
2064.982558850012
 10
1262.284947674125
 20
2064.982558850012
 10
1261.266840512333
 20
2064.982558850012
 10
1260.263949568426
 20
2064.982558850012
 10
1259.277879253978
 20
2064.982558850012
 10
1258.31020707114
 20
2064.982558850012
 10
1257.362481088979
 20
2064.982558850012
 10
1256.436217466896
 20
2064.982558850012
 10
1255.532898029094
 20
2064.982558850012
 10
1254.653967893975
 20
2064.982558850012
 10
1253.800833162262
 20
2064.982558850012
 10
1252.97485866753
 20
2064.982558850012
 10
1252.177365792775
 20
2064.982558850012
 10
1251.409630356473
 20
2064.982558850012
 10
1250.672880571547
 20
2064.982558850012
 10
1249.968295080488
 20
2064.982558850012
 10
1249.297001069778
 20
2064.982558850012
 10
1248.660072466633
 20
2064.982558850012
 10
1248.058528220947
 20
2064.982558850012
 10
1247.49333067519
 20
2064.982558850012
 10
1246.965384024866
 20
2064.982558850012
 10
1246.475532871994
 20
2064.982558850012
 10
1246.024560873922
 20
2064.982558850012
 10
1245.613189489645
 20
2064.982558850012
 10
1245.242076825622
 20
2064.982558850012
 10
1244.911816582951
 20
2064.982558850012
 10
1244.622937107567
 20
2064.982558850012
 10
1244.375900545006
 20
2064.982558850012
 10
1244.171102101071
 20
2064.982558850012
 10
1244.008869409584
 20
2064.982558850012
 10
1243.889462008244
 20
2064.982558850012
 10
1243.813070923419
 20
2064.982558850012
 10
1243.77981836455
 20
2064.982558850012
 10
1243.77824481076
 20
2064.982558850012
  0
LWPOLYLINE
  5
1F1
330
1DE
100
AcDbEntity
  8
P-SANR-FIXT
100
AcDbPolyline
 90
       41
 70
   128
 43
0.0
 10
1243.77824481076
 20
2064.982558850012
 10
1243.799841930913
 20
2064.982558850012
 10
1243.86459874059
 20
2064.982558850012
 10
1243.972411642706
 20
2064.982558850012
 10
1244.123108159618
 20
2064.982558850012
 10
1244.316447209046
 20
2064.982558850012
 10
1244.552119489755
 20
2064.982558850012
 10
1244.829747976369
 20
2064.982558850012
 10
1245.148888522534
 20
2064.982558850012
 10
1245.509030571456
 20
2064.982558850012
 10
1245.909597972682
 20
2064.982558850012
 10
1246.349949903821
 20
2064.982558850012
 10
1246.829381895719
 20
2064.982558850012
 10
1247.347126959464
 20
2064.982558850012
 10
1247.902356813398
 20
2064.982558850012
 10
1248.494183208199
 20
2064.982558850012
 10
1249.121659347884
 20
2064.982558850012
 10
1249.783781404485
 20
2064.982558850012
 10
1250.479490123956
 20
2064.982558850012
 10
1251.207672520756
 20
2064.982558850012
 10
1251.967163658387
 20
2064.982558850012
 10
1252.756748513045
 20
2064.982558850012
 10
1253.575163917398
 20
2064.982558850012
 10
1254.421100581387
 20
2064.982558850012
 10
1255.293205186804
 20
2064.982558850012
 10
1256.19008255232
 20
2064.982558850012
 10
1257.110297865475
 20
2064.982558850012
 10
1258.052378978069
 20
2064.982558850012
 10
1259.014818761289
 20
2064.982558850012
 10
1259.996077516791
 20
2064.982558850012
 10
1260.99458543989
 20
2064.982558850012
 10
1262.008745130913
 20
2064.982558850012
 10
1263.036934150697
 20
2064.982558850012
 10
1264.077507616146
 20
2064.982558850012
 10
1265.128800831692
 20
2064.982558850012
 10
1266.189131952454
 20
2064.982558850012
 10
1267.25680467483
 20
2064.982558850012
 10
1268.330110950224
 20
2064.982558850012
 10
1269.407333717553
 20
2064.982558850012
 10
1270.486749650187
 20
2064.982558850012
 10
1270.77824481076
 20
2064.982558850012
  0
LINE
  5
1F2
330
1DE
100
AcDbEntity
  8
P-SANR-FIXT
100
AcDbLine
 10
1240.77824481076
 20
2061.982558850012
 30
0.0
 11
1240.77824481076
 21
2047.264253723463
 31
0.0
  0
LWPOLYLINE
  5
1F3
330
1DE
100
AcDbEntity
  8
P-SANR-FIXT
100
AcDbPolyline
 90
       41
 70
   128
 43
0.0
 10
1237.77824481076
 20
2044.264253723463
 10
1237.89821281332
 20
2044.266653403481
 10
1238.017988892667
 20
2044.273848604555
 10
1238.137381432627
 20
2044.285827815902
 10
1238.256199430602
 20
2044.302571873337
 10
1238.374252803145
 20
2044.32405398994
 10
1238.491352690041
 20
2044.350239798907
 10
1238.607311756452
 20
2044.381087408531
 10
1238.721944492608
 20
2044.416547469216
 10
1238.835067510585
 20
2044.456563252429
 10
1238.946499837686
 20
2044.501070741455
 10
1239.056063205958
 20
2044.549998733804
 10
1239.163582337384
 20
2044.603268955126
 10
1239.268885224291
 20
2044.66079618443
 10
1239.371803404522
 20
2044.722488390423
 10
1239.472172230945
 20
2044.788246878734
 10
1239.569831134847
 20
2044.857966449811
 10
1239.664623882815
 20
2044.931535567211
 10
1239.756398826674
 20
2045.008836536041
 10
1239.845009146091
 20
2045.089745691241
 10
1239.930313083459
 20
2045.174133595422
 10
1240.012174170672
 20
2045.26186524594
 10
1240.090461447457
 20
2045.352800290868
 10
1240.165049670869
 20
2045.446793253533
 10
1240.235819515663
 20
2045.543693765246
 10
1240.302657765184
 20
2045.643346805859
 10
1240.36545749249
 20
2045.745592951765
 10
1240.424118231415
 20
2045.850268630942
 10
1240.478546137289
 20
2045.957206384633
 10
1240.528654137075
 20
2046.066235135244
 10
1240.574362068662
 20
2046.177180460033
 10
1240.615596809109
 20
2046.289864870147
 10
1240.652292391628
 20
2046.404108094568
 10
1240.684390111115
 20
2046.519727368506
 10
1240.711838618066
 20
2046.636537725789
 10
1240.734594000725
 20
2046.754352294763
 10
1240.752619855335
 20
2046.872982597249
 10
1240.765887344373
 20
2046.992238850071
 10
1240.774375242687
 20
2047.111930268663
 10
1240.77806997145
 20
2047.231865372288
 10
1240.77824481076
 20
2047.264253723463
  0
LINE
  5
1F4
330
1DE
100
AcDbEntity
  8
P-SANR-FIXT
100
AcDbLine
 10
1237.730353936266
 20
2044.264636003797
 30
0.0
 11
1221.173522145756
 21
2041.345219844078
 31
0.0
  0
LWPOLYLINE
  5
1F5
330
1DE
100
AcDbEntity
  8
P-SANR-FIXT
100
AcDbPolyline
 90
       36
 70
   128
 43
0.0
 10
1208.77824481076
 20
2026.573103548895
 10
1208.790243210845
 20
2027.172943561694
 10
1208.82621921622
 20
2027.771823958433
 10
1208.886115272952
 20
2028.368786658229
 10
1208.969835560125
 20
2028.962876648108
 10
1209.077246143141
 20
2029.55314351082
 10
1209.208175187979
 20
2030.138642945302
 10
1209.362413236098
 20
2030.718438277356
 10
1209.539713539523
 20
2031.291601958137
 10
1209.739792455591
 20
2031.857217048021
 10
1209.962329900716
 20
2032.414378683525
 10
1210.206969862461
 20
2032.962195524885
 10
1210.473320969071
 20
2033.499791182017
 10
1210.760957115595
 20
2034.026305616551
 10
1211.069418145559
 20
2034.540896517708
 10
1211.398210587115
 20
2035.042740649821
 10
1211.746808442496
 20
2035.531035169331
 10
1212.114654029496
 20
2036.004998909172
 10
1212.501158873647
 20
2036.463873628467
 10
1212.905704649646
 20
2036.906925225553
 10
1213.327644170553
 20
2037.333444912388
 10
1213.76630242314
 20
2037.742750348458
 10
1214.220977647781
 20
2038.134186732379
 10
1214.690942461108
 20
2038.50712784944
 10
1215.175445019673
 20
2038.86097707341
 10
1215.673710222738
 20
2039.195168321013
 10
1216.184940952268
 20
2039.509166957545
 10
1216.708319348154
 20
2039.802470652169
 10
1217.243008116609
 20
2040.074610181543
 10
1217.788151869666
 20
2040.325150180471
 10
1218.34287849361
 20
2040.553689838403
 10
1218.906300544178
 20
2040.759863540638
 10
1219.477516666281
 20
2040.943341453234
 10
1220.055613035974
 20
2041.103830050669
 10
1220.639664822388
 20
2041.241072585425
 10
1221.173522145756
 20
2041.345219844078
  0
LINE
  5
1F6
330
1DE
100
AcDbEntity
  8
P-SANR-FIXT
100
AcDbLine
 10
1208.77824481076
 20
2026.573103548895
 30
0.0
 11
1208.77824481076
 21
1969.482558850011
 31
0.0
  0
LINE
  5
1F7
330
1DE
100
AcDbEntity
  8
P-SANR-FIXT
100
AcDbLine
 10
1208.77824481076
 20
1969.482558850011
 30
0.0
 11
1208.77824481076
 21
1947.982558850011
 31
0.0
  0
LWPOLYLINE
  5
1F8
330
1DE
100
AcDbEntity
  8
P-SANR-FIXT
100
AcDbPolyline
 90
       41
 70
   128
 43
0.0
 10
1211.77824481076
 20
1944.982558850011
 10
1211.6582768082
 20
1944.984958530028
 10
1211.538500728852
 20
1944.992153731103
 10
1211.419108188893
 20
1945.00413294245
 10
1211.300290190917
 20
1945.020876999884
 10
1211.182236818375
 20
1945.042359116488
 10
1211.065136931479
 20
1945.068544925455
 10
1210.949177865068
 20
1945.099392535079
 10
1210.834545128912
 20
1945.134852595764
 10
1210.721422110935
 20
1945.174868378978
 10
1210.609989783834
 20
1945.219375868003
 10
1210.500426415562
 20
1945.268303860351
 10
1210.392907284135
 20
1945.321574081673
 10
1210.287604397229
 20
1945.379101310978
 10
1210.184686216998
 20
1945.440793516971
 10
1210.084317390575
 20
1945.506552005282
 10
1209.986658486673
 20
1945.576271576358
 10
1209.891865738704
 20
1945.649840693759
 10
1209.800090794846
 20
1945.727141662589
 10
1209.711480475428
 20
1945.808050817788
 10
1209.626176538061
 20
1945.89243872197
 10
1209.544315450847
 20
1945.980170372487
 10
1209.466028174063
 20
1946.071105417415
 10
1209.391439950651
 20
1946.165098380081
 10
1209.320670105857
 20
1946.261998891794
 10
1209.253831856336
 20
1946.361651932407
 10
1209.19103212903
 20
1946.463898078313
 10
1209.132371390105
 20
1946.56857375749
 10
1209.077943484231
 20
1946.675511511181
 10
1209.027835484445
 20
1946.784540261793
 10
1208.982127552858
 20
1946.895485586582
 10
1208.940892812411
 20
1947.008169996695
 10
1208.904197229892
 20
1947.122413221115
 10
1208.872099510405
 20
1947.238032495054
 10
1208.844651003454
 20
1947.354842852337
 10
1208.821895620795
 20
1947.472657421311
 10
1208.803869766185
 20
1947.591287723797
 10
1208.790602277147
 20
1947.710543976618
 10
1208.782114378833
 20
1947.83023539521
 10
1208.77841965007
 20
1947.950170498837
 10
1208.77824481076
 20
1947.982558850011
  0
LWPOLYLINE
  5
1F9
330
1DE
100
AcDbEntity
  8
P-SANR-FIXT
100
AcDbPolyline
 90
        4
 70
   128
 43
0.0
 10
1211.932532376655
 20
1944.982558850011
 10
1211.854346316201
 20
1944.982558850011
 10
1211.781683317192
 20
1944.982558850011
 10
1211.77824481076
 20
1944.982558850011
  0
LWPOLYLINE
  5
1FA
330
1DE
100
AcDbEntity
  8
P-SANR-FIXT
100
AcDbPolyline
 90
       41
 70
   128
 43
0.0
 10
1211.77824481076
 20
1944.982558850011
 10
1211.825438517762
 20
1944.982558850011
 10
1211.966944138905
 20
1944.982558850011
 10
1212.202535295382
 20
1944.982558850011
 10
1212.531835091598
 20
1944.982558850011
 10
1212.954316718127
 20
1944.982558850011
 10
1213.46930429449
 20
1944.982558850011
 10
1214.075973950424
 20
1944.982558850011
 10
1214.773355143896
 20
1944.982558850011
 10
1215.560332213762
 20
1944.982558850011
 10
1216.435646164589
 20
1944.982558850011
 10
1217.397896680782
 20
1944.982558850011
 10
1218.445544366782
 20
1944.982558850011
 10
1219.576913209779
 20
1944.982558850011
 10
1220.790193260968
 20
1944.982558850011
 10
1222.083443531089
 20
1944.982558850011
 10
1223.454595095587
 20
1944.982558850011
 10
1224.901454404455
 20
1944.982558850011
 10
1226.421706791447
 20
1944.982558850011
 10
1228.012920177047
 20
1944.982558850011
 10
1229.672548959277
 20
1944.982558850011
 10
1231.397938086123
 20
1944.982558850011
 10
1233.186327303044
 20
1944.982558850011
 10
1235.034855568796
 20
1944.982558850011
 10
1236.940565632485
 20
1944.982558850011
 10
1238.90040876454
 20
1944.982558850011
 10
1240.911249634026
 20
1944.982558850011
 10
1242.969871324509
 20
1944.982558850011
 10
1245.072980480434
 20
1944.982558850011
 10
1247.21721257579
 20
1944.982558850011
 10
1249.399137296636
 20
1944.982558850011
 10
1251.615264028872
 20
1944.982558850011
 10
1253.862047442474
 20
1944.982558850011
 10
1256.13589316327
 20
1944.982558850011
 10
1258.433163523166
 20
1944.982558850011
 10
1260.750183379646
 20
1944.982558850011
 10
1263.083245995209
 20
1944.982558850011
 10
1265.428618967366
 20
1944.982558850011
 10
1267.782550199679
 20
1944.982558850011
 10
1270.141273904322
 20
1944.982558850011
 10
1270.77824481076
 20
1944.982558850011
  0
LINE
  5
1FB
330
1DE
100
AcDbEntity
  8
P-SANR-FIXT
100
AcDbLine
 10
1270.778244810758
 20
2061.982558850011
 30
0.0
 11
1270.778244810758
 21
2064.982558850011
 31
0.0
  0
LINE
  5
1FC
330
1DE
100
AcDbEntity
  8
P-SANR-FIXT
100
AcDbLine
 10
1270.778244810758
 20
2047.264253723462
 30
0.0
 11
1270.778244810758
 21
2061.982558850011
 31
0.0
  0
LINE
  5
1FD
330
1DE
100
AcDbEntity
  8
P-SANR-FIXT
100
AcDbLine
 10
1270.778244810758
 20
2044.264636003795
 30
0.0
 11
1270.778244810758
 21
2044.264253723969
 31
0.0
  0
LINE
  5
1FE
330
1DE
100
AcDbEntity
  8
P-SANR-FIXT
100
AcDbLine
 10
1270.778244810758
 20
2044.330609369573
 30
0.0
 11
1270.778244810758
 21
2047.264253723462
 31
0.0
  0
LINE
  5
1FF
330
1DE
100
AcDbEntity
  8
P-SANR-FIXT
100
AcDbLine
 10
1237.730353936263
 20
2044.264636003795
 30
0.0
 11
1270.778244810757
 21
2044.264636003795
 31
0.0
  0
LINE
  5
200
330
1DE
100
AcDbEntity
  8
P-SANR-FIXT
100
AcDbLine
 10
1270.778244810758
 20
2041.345219844077
 30
0.0
 11
1270.778244810758
 21
2044.264636003795
 31
0.0
  0
LINE
  5
201
330
1DE
100
AcDbEntity
  8
P-SANR-FIXT
100
AcDbLine
 10
1270.778244810758
 20
2026.573103548894
 30
0.0
 11
1270.778244810758
 21
2027.735489858973
 31
0.0
  0
LINE
  5
202
330
1DE
100
AcDbEntity
  8
P-SANR-FIXT
100
AcDbLine
 10
1270.778244810758
 20
2032.342681779781
 30
0.0
 11
1270.778244810758
 21
2041.345219844077
 31
0.0
  0
LINE
  5
203
330
1DE
100
AcDbEntity
  8
P-SANR-FIXT
100
AcDbLine
 10
1270.778244810757
 20
1969.482558850011
 30
0.0
 11
1270.778244810757
 21
2026.573103548894
 31
0.0
  0
LINE
  5
204
330
1DE
100
AcDbEntity
  8
P-SANR-FIXT
100
AcDbLine
 10
1270.778244810757
 20
1947.98255885001
 30
0.0
 11
1270.778244810757
 21
1969.482558850011
 31
0.0
  0
LINE
  5
205
330
1DE
100
AcDbEntity
  8
P-SANR-FIXT
100
AcDbLine
 10
1270.778244810758
 20
1944.982558850011
 30
0.0
 11
1270.778244810758
 21
1947.98255885001
 31
0.0
  0
LINE
  5
206
330
1DE
100
AcDbEntity
  8
P-SANR-FIXT
100
AcDbLine
 10
1307.27824481076
 20
1887.482558849933
 30
0.0
 11
1307.27824481076
 21
1914.482558849934
 31
0.0
  0
LINE
  5
207
330
1DE
100
AcDbEntity
  8
P-SANR-FIXT
100
AcDbLine
 10
1270.777869727292
 20
1914.482558849933
 30
0.0
 11
1307.278244810758
 21
1914.482558849933
 31
0.0
  0
LINE
  5
208
330
1DE
100
AcDbEntity
  8
P-SANR-FIXT
100
AcDbLine
 10
1307.278244810758
 20
1887.482558849933
 30
0.0
 11
1270.777869727292
 21
1887.482558849933
 31
0.0
  0
LINE
  5
209
330
1DE
100
AcDbEntity
  8
P-SANR-FIXT
100
AcDbLine
 10
1259.778244810775
 20
1848.482558849996
 30
0.0
 11
1257.778244810746
 21
1848.482558849996
 31
0.0
  0
LINE
  5
20A
330
1DE
100
AcDbEntity
  8
P-SANR-FIXT
100
AcDbLine
 10
1283.778244810769
 20
1848.482558849996
 30
0.0
 11
1281.77824481074
 21
1848.482558849996
 31
0.0
  0
LINE
  5
20B
330
1DE
100
AcDbEntity
  8
P-SANR-FIXT
100
AcDbLine
 10
1281.77824481074
 20
1848.482558849996
 30
0.0
 11
1272.778244810787
 21
1848.482558849996
 31
0.0
  0
LINE
  5
20C
330
1DE
100
AcDbEntity
  8
P-SANR-FIXT
100
AcDbLine
 10
1272.778244810787
 20
1848.482558849996
 30
0.0
 11
1268.778244810728
 21
1848.482558849996
 31
0.0
  0
LINE
  5
20D
330
1DE
100
AcDbEntity
  8
P-SANR-FIXT
100
AcDbLine
 10
1268.778244810728
 20
1848.482558849996
 30
0.0
 11
1259.778244810775
 21
1848.482558849996
 31
0.0
  0
LINE
  5
20E
330
1DE
100
AcDbEntity
  8
P-SANR-FIXT
100
AcDbLine
 10
1259.778244810775
 20
1849.982558850011
 30
0.0
 11
1259.778244810775
 21
1848.482558849996
 31
0.0
  0
LINE
  5
20F
330
1DE
100
AcDbEntity
  8
P-SANR-FIXT
100
AcDbLine
 10
1268.778244810728
 20
1848.482558849996
 30
0.0
 11
1268.778244810728
 21
1849.982558850011
 31
0.0
  0
LINE
  5
210
330
1DE
100
AcDbEntity
  8
P-SANR-FIXT
100
AcDbLine
 10
1272.778244810787
 20
1848.482558849996
 30
0.0
 11
1272.778244810787
 21
1861.192196316745
 31
0.0
  0
LINE
  5
211
330
1DE
100
AcDbEntity
  8
P-SANR-FIXT
100
AcDbLine
 10
1281.77824481074
 20
1848.482558849996
 30
0.0
 11
1281.77824481074
 21
1861.192196316745
 31
0.0
  0
LINE
  5
212
330
1DE
100
AcDbEntity
  8
P-SANR-FIXT
100
AcDbLine
 10
1283.778244810769
 20
1848.482558849996
 30
0.0
 11
1283.778244810769
 21
1861.192196316745
 31
0.0
  0
LINE
  5
213
330
1DE
100
AcDbEntity
  8
P-SANR-FIXT
100
AcDbLine
 10
1257.778244810746
 20
1848.482558849996
 30
0.0
 11
1257.778244810746
 21
1849.982558850011
 31
0.0
  0
LINE
  5
214
330
1DE
100
AcDbEntity
  8
P-SANR-FIXT
100
AcDbLine
 10
1309.306970667975
 20
1915.723739804831
 30
0.0
 11
1309.77824481076
 21
1917.482558849997
 31
0.0
  0
LWPOLYLINE
  5
215
330
1DE
100
AcDbEntity
  8
P-SANR-FIXT
100
AcDbPolyline
 90
       34
 70
   128
 43
0.0
 10
1309.306970667975
 20
1915.723739804831
 10
1309.295848029053
 20
1915.685320101795
 10
1309.28319790871
 20
1915.647375917347
 10
1309.269040544443
 20
1915.60996795409
 10
1309.253398585013
 20
1915.573156056785
 10
1309.236297054219
 20
1915.536999116613
 10
1309.217763310861
 20
1915.501554976968
 10
1309.197827004976
 20
1915.466880340911
 10
1309.176520030401
 20
1915.433030680462
 10
1309.153876473748
 20
1915.400060147858
 10
1309.129932559879
 20
1915.368021488918
 10
1309.104726593949
 20
1915.336965958661
 10
1309.078298900124
 20
1915.306943239311
 10
1309.050691757079
 20
1915.278001360815
 10
1309.021949330352
 20
1915.250186624003
 10
1308.992117601695
 20
1915.223543526522
 10
1308.961244295511
 20
1915.198114691643
 10
1308.929378802502
 20
1915.173940800079
 10
1308.896572100661
 20
1915.151060524899
 10
1308.862876673711
 20
1915.129510469662
 10
1308.828346427149
 20
1915.109325109859
 10
1308.793036602001
 20
1915.09053673776
 10
1308.757003686457
 20
1915.073175410753
 10
1308.720305325495
 20
1915.057268903257
 10
1308.683000228663
 20
1915.042842662291
 10
1308.645148076159
 20
1915.029919766764
 10
1308.606809423351
 20
1915.01852089055
 10
1308.568045603906
 20
1915.008664269421
 10
1308.528918631665
 20
1915.000365671868
 10
1308.489491101439
 20
1914.993638373876
 10
1308.449826088863
 20
1914.988493137688
 10
1308.409987049498
 20
1914.984938194583
 10
1308.370037717307
 20
1914.982979231713
 10
1308.341044841686
 20
1914.982558849934
  0
LWPOLYLINE
  5
216
330
1DE
100
AcDbEntity
  8
P-SANR-FIXT
100
AcDbPolyline
 90
       41
 70
   128
 43
0.0
 10
1270.77824481076
 20
1914.982558849934
 10
1272.280356174183
 20
1914.982558849934
 10
1273.780064479857
 20
1914.982558849934
 10
1275.274970514415
 20
1914.982558849934
 10
1276.762682747097
 20
1914.982558849934
 10
1278.240821155693
 20
1914.982558849934
 10
1279.707021034069
 20
1914.982558849934
 10
1281.158936775191
 20
1914.982558849934
 10
1282.5942456236
 20
1914.982558849934
 10
1284.01065139132
 20
1914.982558849934
 10
1285.405888131275
 20
1914.982558849934
 10
1286.777723762314
 20
1914.982558849934
 10
1288.123963640071
 20
1914.982558849934
 10
1289.442454067924
 20
1914.982558849934
 10
1290.73108574245
 20
1914.982558849934
 10
1291.987797127866
 20
1914.982558849934
 10
1293.210577754037
 20
1914.982558849934
 10
1294.397471432807
 20
1914.982558849934
 10
1295.546579387482
 20
1914.982558849934
 10
1296.656063290465
 20
1914.982558849934
 10
1297.724148204186
 20
1914.982558849934
 10
1298.749125420631
 20
1914.982558849934
 10
1299.729355194903
 20
1914.982558849934
 10
1300.663269368467
 20
1914.982558849934
 10
1301.549373877872
 20
1914.982558849934
 10
1302.386251144926
 20
1914.982558849934
 10
1303.172562344527
 20
1914.982558849934
 10
1303.907049546494
 20
1914.982558849934
 10
1304.588537727985
 20
1914.982558849934
 10
1305.215936653286
 20
1914.982558849934
 10
1305.788242617955
 20
1914.982558849934
 10
1306.304540054533
 20
1914.982558849934
 10
1306.76400299726
 20
1914.982558849934
 10
1307.165896403441
 20
1914.982558849934
 10
1307.509577329359
 20
1914.982558849934
 10
1307.794495958847
 20
1914.982558849934
 10
1308.020196482877
 20
1914.982558849934
 10
1308.186317828758
 20
1914.982558849934
 10
1308.292594237772
 20
1914.982558849934
 10
1308.338855690339
 20
1914.982558849934
 10
1308.341044841686
 20
1914.982558849934
  0
LWPOLYLINE
  5
217
330
1DE
100
AcDbEntity
  8
P-SANR-FIXT
100
AcDbPolyline
 90
       16
 70
   128
 43
0.0
 10
1308.341044841686
 20
1914.982558849934
 10
1308.310998608147
 20
1914.982558849934
 10
1308.220907975091
 20
1914.982558849934
 10
1308.070917068315
 20
1914.982558849934
 10
1307.861265841273
 20
1914.982558849934
 10
1307.592289691205
 20
1914.982558849934
 10
1307.264418922572
 20
1914.982558849934
 10
1306.878178058662
 20
1914.982558849934
 10
1306.434185002463
 20
1914.982558849934
 10
1305.933150048153
 20
1914.982558849934
 10
1305.375874744777
 20
1914.982558849934
 10
1304.763250613939
 20
1914.982558849934
 10
1304.096257723565
 20
1914.982558849934
 10
1303.375963119994
 20
1914.982558849934
 10
1302.603519120937
 20
1914.982558849934
 10
1301.780161472014
 20
1914.982558849934
  0
LINE
  5
218
330
1DE
100
AcDbEntity
  8
P-SANR-FIXT
100
AcDbLine
 10
1301.77824481076
 20
1914.482558849934
 30
0.0
 11
1301.77824481076
 21
1914.982558849934
 31
0.0
  0
LWPOLYLINE
  5
219
330
1DE
100
AcDbEntity
  8
P-SANR-FIXT
100
AcDbPolyline
 90
       22
 70
   128
 43
0.0
 10
1302.778244810761
 20
1887.482558849933
 10
1302.464481431181
 20
1885.995398971262
 10
1302.091498495462
 20
1884.521975850513
 10
1301.659892696734
 20
1883.064646650367
 10
1301.170354512205
 20
1881.625742786662
 10
1300.623667098541
 20
1880.207566198632
 10
1300.020705038984
 20
1878.812385666288
 10
1299.362432944203
 20
1877.442433180861
 10
1298.649903909126
 20
1876.099900374086
 10
1297.884257828212
 20
1874.786935012061
 10
1297.066719571861
 20
1873.505637559282
 10
1296.198597026883
 20
1872.258057818345
 10
1295.281279004162
 20
1871.046191650698
 10
1294.316233016849
 20
1869.871977783693
 10
1293.305002932659
 20
1868.737294709031
 10
1292.249206504009
 20
1867.643957677578
 10
1291.150532779961
 20
1866.593715795352
 10
1290.010739404101
 20
1865.588249225325
 10
1288.831649802688
 20
1864.629166499521
 10
1287.615150267558
 20
1863.718001945709
 10
1286.363186938462
 20
1862.856213232801
 10
1285.192159046801
 20
1862.114472642895
  0
LWPOLYLINE
  5
21A
330
1DE
100
AcDbEntity
  8
P-SANR-FIXT
100
AcDbPolyline
 90
       28
 70
   128
 43
0.0
 10
1285.192159046801
 20
1862.114472642895
 10
1285.16077579731
 20
1862.089675902596
 10
1285.130409256207
 20
1862.063644001792
 10
1285.101108003477
 20
1862.036418585972
 10
1285.072918914877
 20
1862.008043209994
 10
1285.045887086933
 20
1861.978563268406
 10
1285.020055764804
 20
1861.948025922825
 10
1284.995466273096
 20
1861.91648002649
 10
1284.972157949749
 20
1861.883976046106
 10
1284.950168083108
 20
1861.850565981109
 10
1284.929531852269
 20
1861.816303280473
 10
1284.910282270801
 20
1861.781242757212
 10
1284.892450133925
 20
1861.745440500684
 10
1284.876063969258
 20
1861.708953786862
 10
1284.861149991167
 20
1861.671840986705
 10
1284.847732058836
 20
1861.634161472775
 10
1284.835831638095
 20
1861.595975524257
 10
1284.825467767077
 20
1861.557344230522
 10
1284.816657025766
 20
1861.518329393401
 10
1284.809413509468
 20
1861.478993428309
 10
1284.803748806264
 20
1861.439399264401
 10
1284.79967197847
 20
1861.39961024389
 10
1284.797189548143
 20
1861.359690020723
 10
1284.796305486639
 20
1861.319702458741
 10
1284.797021208271
 20
1861.279711529511
 10
1284.799335568034
 20
1861.239781209992
 10
1284.803244863448
 20
1861.199975380175
 10
1284.804197175463
 20
1861.192196316746
  0
LINE
  5
21B
330
1DE
100
AcDbEntity
  8
P-SANR-FIXT
100
AcDbLine
 10
1309.778244810758
 20
1917.482558849997
 30
0.0
 11
1270.778244810758
 21
1917.482558849997
 31
0.0
  0
LINE
  5
21C
330
1DE
100
AcDbEntity
  8
P-SANR-FIXT
100
AcDbLine
 10
1270.778244810758
 20
1862.114472642894
 30
0.0
 11
1285.192159046799
 21
1862.114472642894
 31
0.0
  0
LINE
  5
21D
330
1DE
100
AcDbEntity
  8
P-SANR-FIXT
100
AcDbLine
 10
1270.778244810758
 20
1861.192196316746
 30
0.0
 11
1284.804197175461
 21
1861.192196316746
 31
0.0
  0
LINE
  5
21E
330
1DE
100
AcDbEntity
  8
P-SANR-FIXT
100
AcDbLine
 10
1310.27824481076
 20
1917.982558850011
 30
0.0
 11
1310.27824481076
 21
1927.482558850011
 31
0.0
  0
LWPOLYLINE
  5
21F
330
1DE
100
AcDbEntity
  8
P-SANR-FIXT
100
AcDbPolyline
 90
       10
 70
   128
 43
0.0
 10
1315.255187990303
 20
1944.624635928514
 10
1314.399698945064
 20
1942.816984084661
 10
1313.617180993491
 20
1940.976567732153
 10
1312.908885997378
 20
1939.106331144555
 10
1312.275947077624
 20
1937.209266301443
 10
1311.71937680148
 20
1935.288408101882
 10
1311.240065562661
 20
1933.346829509227
 10
1310.8387801569
 20
1931.387636635049
 10
1310.516162555244
 20
1929.413963770004
 10
1310.27824481076
 20
1927.482558850011
  0
LWPOLYLINE
  5
220
330
1DE
100
AcDbEntity
  8
P-SANR-FIXT
100
AcDbPolyline
 90
        9
 70
   128
 43
0.0
 10
1315.528062785941
 20
1945.481560439129
 10
1315.507668413499
 20
1945.36590153525
 10
1315.48266523182
 20
1945.251150703534
 10
1315.453093240662
 20
1945.137491520831
 10
1315.418999748903
 20
1945.025105817588
 10
1315.380439298856
 20
1944.914173386957
 10
1315.337473579015
 20
1944.804871697161
 10
1315.290171325367
 20
1944.697375607588
 10
1315.255187990303
 20
1944.624635928514
  0
LWPOLYLINE
  5
221
330
1DE
100
AcDbEntity
  8
P-SANR-FIXT
100
AcDbPolyline
 90
        5
 70
   128
 43
0.0
 10
1317.97824481076
 20
1977.128226245353
 10
1317.813786740257
 20
1968.906419136581
 10
1317.320675626578
 20
1960.697765165291
 10
1316.499700342315
 20
1952.515396426751
 10
1315.528062785941
 20
1945.481560439129
  0
LINE
  5
222
330
1DE
100
AcDbEntity
  8
P-SANR-FIXT
100
AcDbLine
 10
1317.97824481076
 20
1977.128226245353
 30
0.0
 11
1317.97824481076
 21
2021.482558850012
 31
0.0
  0
LINE
  5
223
330
1DE
100
AcDbEntity
  8
P-SANR-FIXT
100
AcDbLine
 10
1235.599149322206
 20
2033.482558850012
 30
0.0
 11
1235.580296258665
 21
2033.482558850012
 31
0.0
  0
LWPOLYLINE
  5
224
330
1DE
100
AcDbEntity
  8
P-SANR-FIXT
100
AcDbPolyline
 90
       41
 70
   128
 43
0.0
 10
1305.97824481076
 20
2033.482558850012
 10
1306.458116820999
 20
2033.472960129944
 10
1306.93722113839
 20
2033.444179325643
 10
1307.414791298227
 20
2033.396262480258
 10
1307.890063290131
 20
2033.329286250519
 10
1308.362276780301
 20
2033.243357784106
 10
1308.830676327885
 20
2033.138614548236
 10
1309.294512593529
 20
2033.015224109741
 10
1309.753043538153
 20
2032.873383867001
 10
1310.205535610061
 20
2032.713320734147
 10
1310.651264918464
 20
2032.535290778046
 10
1311.089518391552
 20
2032.339578808651
 10
1311.519594917258
 20
2032.126497923363
 10
1311.940806464885
 20
2031.896389006144
 10
1312.35247918581
 20
2031.649620182173
 10
1312.753954491501
 20
2031.386586228928
 10
1313.144590107109
 20
2031.107707944623
 10
1313.523761098982
 20
2030.813431475023
 10
1313.890860874417
 20
2030.504227599703
 10
1314.245302152087
 20
2030.180590978902
 10
1314.586517901555
 20
2029.843039362178
 10
1314.91396225041
 20
2029.492112760107
 10
1315.227111357548
 20
2029.128372580395
 10
1315.525464251196
 20
2028.752400729733
 10
1315.808543630372
 20
2028.364798682881
 10
1316.075896628454
 20
2027.966186520429
 10
1316.32709553768
 20
2027.557201936805
 10
1316.561738493379
 20
2027.138499220097
 10
1316.779450116878
 20
2026.710748205332
 10
1316.979882116021
 20
2026.274633202887
 10
1317.162713842366
 20
2025.830851903732
 10
1317.327652804154
 20
2025.380114263277
 10
1317.47443513423
 20
2024.923141365595
 10
1317.602826012179
 20
2024.46066426984
 10
1317.712620039984
 20
2023.993422840709
 10
1317.803641570621
 20
2023.522164564814
 10
1317.87574498906
 20
2023.047643354869
 10
1317.928814945212
 20
2022.570618343583
 10
1317.962766538467
 20
2022.091852669214
 10
1317.977545453519
 20
2021.612112254711
 10
1317.97824481076
 20
2021.482558850012
  0
LWPOLYLINE
  5
225
330
1DE
100
AcDbEntity
  8
P-SANR-FIXT
100
AcDbPolyline
 90
       26
 70
   128
 43
0.0
 10
1291.77824481076
 20
2033.482558850011
 10
1291.799524346716
 20
2033.482558850011
 10
1292.91175925621
 20
2033.482558850011
 10
1293.988585264156
 20
2033.482558850011
 10
1295.028279678652
 20
2033.482558850011
 10
1296.029179210423
 20
2033.482558850011
 10
1296.989682633734
 20
2033.482558850011
 10
1297.908253348004
 20
2033.482558850011
 10
1298.78342183604
 20
2033.482558850011
 10
1299.613788014955
 20
2033.482558850011
 10
1300.398023475998
 20
2033.482558850011
 10
1301.134873609726
 20
2033.482558850011
 10
1301.82315961311
 20
2033.482558850011
 10
1302.461780375373
 20
2033.482558850011
 10
1303.049714239526
 20
2033.482558850011
 10
1303.586020636806
 20
2033.482558850011
 10
1304.069841591384
 20
2033.482558850012
 10
1304.500403092941
 20
2033.482558850012
 10
1304.877016334923
 20
2033.482558850012
 10
1305.199078816483
 20
2033.482558850012
 10
1305.466075306354
 20
2033.482558850012
 10
1305.677578667107
 20
2033.482558850012
 10
1305.833250538485
 20
2033.482558850012
 10
1305.9328418787
 20
2033.482558850012
 10
1305.976193362855
 20
2033.482558850012
 10
1305.97824481076
 20
2033.482558850012
  0
LWPOLYLINE
  5
226
330
1DE
100
AcDbEntity
  8
P-SANR-FIXT
100
AcDbPolyline
 90
       41
 70
   128
 43
0.0
 10
1305.97824481076
 20
2033.482558850012
 10
1305.950088565226
 20
2033.482558850012
 10
1305.865664872612
 20
2033.482558850012
 10
1305.725108792816
 20
2033.482558850012
 10
1305.528645185582
 20
2033.482558850012
 10
1305.276588350771
 20
2033.482558850012
 10
1304.969341525551
 20
2033.482558850012
 10
1304.607396239299
 20
2033.482558850012
 10
1304.191331527262
 20
2033.482558850012
 10
1303.721813004223
 20
2033.482558850012
 10
1303.199591799661
 20
2033.482558850012
 10
1302.625503356103
 20
2033.482558850012
 10
1302.000466092591
 20
2033.482558850012
 10
1301.325479935413
 20
2033.482558850012
 10
1300.601624718432
 20
2033.482558850012
 10
1299.830058455581
 20
2033.482558850012
 10
1299.012015488287
 20
2033.482558850012
 10
1298.148804510792
 20
2033.482558850012
 10
1297.241806476519
 20
2033.482558850012
 10
1296.29247238884
 20
2033.482558850012
 10
1295.30232097978
 20
2033.482558850012
 10
1294.272936280374
 20
2033.482558850012
 10
1293.20596508655
 20
2033.482558850012
 10
1292.10311432461
 20
2033.482558850012
 10
1290.96614832051
 20
2033.482558850012
 10
1289.796885977318
 20
2033.482558850012
 10
1288.597197865354
 20
2033.482558850012
 10
1287.369003229676
 20
2033.482558850012
 10
1286.1142669197
 20
2033.482558850012
 10
1284.83499624586
 20
2033.482558850012
 10
1283.533237768339
 20
2033.482558850012
 10
1282.211074023005
 20
2033.482558850012
 10
1280.870620189804
 20
2033.482558850012
 10
1279.514020708923
 20
2033.482558850012
 10
1278.143445850137
 20
2033.482558850012
 10
1276.761088240848
 20
2033.482558850012
 10
1275.369159358342
 20
2033.482558850012
 10
1273.969885991903
 20
2033.482558850012
 10
1272.565506680422
 20
2033.482558850012
 10
1271.158268131211
 20
2033.482558850012
 10
1270.77824481076
 20
2033.482558850012
  0
LWPOLYLINE
  5
227
330
1DE
100
AcDbEntity
  8
P-SANR-FIXT
100
AcDbPolyline
 90
       38
 70
   128
 43
0.0
 10
1286.77824481076
 20
2038.482558850012
 10
1286.782244277455
 20
2038.282612179079
 10
1286.794236279247
 20
2038.082985380166
 10
1286.81420163149
 20
2037.883997813567
 10
1286.842108393882
 20
2037.685967816941
 10
1286.877911921554
 20
2037.489212196037
 10
1286.9215549365
 20
2037.294045717876
 10
1286.972967619206
 20
2037.100780607191
 10
1287.032067720348
 20
2036.909726046931
 10
1287.09876069237
 20
2036.721187683637
 10
1287.172939840745
 20
2036.535467138469
 10
1287.25448649466
 20
2036.352861524682
 10
1287.343270196863
 20
2036.173662972304
 10
1287.439148912372
 20
2035.998158160793
 10
1287.541969255693
 20
2035.826627860407
 10
1287.651566736211
 20
2035.659346483036
 10
1287.767766021338
 20
2035.4965816432
 10
1287.890381217005
 20
2035.338593729919
 10
1288.019216165055
 20
2035.185635490154
 10
1288.154064757055
 20
2035.037951624459
 10
1288.294711264024
 20
2034.895778395514
 10
1288.440930681553
 20
2034.759343250158
 10
1288.592489089767
 20
2034.628864455517
 10
1288.749144027543
 20
2034.50455074983
 10
1288.910644880397
 20
2034.386601008507
 10
1289.076733281419
 20
2034.275203925972
 10
1289.247143524596
 20
2034.170537713795
 10
1289.421602989891
 20
2034.072769815587
 10
1289.599832579376
 20
2033.982056639129
 10
1289.781547163728
 20
2033.898543306153
 10
1289.966456038377
 20
2033.822363420175
 10
1290.154263388566
 20
2033.753638852764
 10
1290.3446687626
 20
2033.692479548566
 10
1290.537367552498
 20
2033.63898334942
 10
1290.732051481303
 20
2033.593235837835
 10
1290.928409096259
 20
2033.555310200069
 10
1291.126126267069
 20
2033.525267109054
 10
1291.324886688438
 20
2033.503154627323
  0
LINE
  5
228
330
1DE
100
AcDbEntity
  8
P-SANR-FIXT
100
AcDbLine
 10
1286.77824481076
 20
2038.482558850012
 30
0.0
 11
1286.77824481076
 21
2044.482558850012
 31
0.0
  0
LINE
  5
229
330
1DE
100
AcDbEntity
  8
P-SANR-FIXT
100
AcDbLine
 10
1286.77824481076
 20
2044.482558850011
 30
0.0
 11
1286.27824481076
 21
2044.982558850012
 31
0.0
  0
LINE
  5
22A
330
1DE
100
AcDbEntity
  8
P-SANR-FIXT
100
AcDbLine
 10
1309.77824481076
 20
1917.482558850011
 30
0.0
 11
1310.27824481076
 21
1917.982558850011
 31
0.0
  0
LWPOLYLINE
  5
22B
330
1DE
100
AcDbEntity
  8
P-SANR-FIXT
100
AcDbPolyline
 90
       41
 70
   128
 43
0.0
 10
1283.27824481076
 20
2048.980829327393
 10
1283.39821281332
 20
2048.978429647377
 10
1283.517988892668
 20
2048.971234446302
 10
1283.637381432627
 20
2048.959255234955
 10
1283.756199430603
 20
2048.942511177521
 10
1283.874252803145
 20
2048.921029060917
 10
1283.991352690042
 20
2048.89484325195
 10
1284.107311756452
 20
2048.863995642326
 10
1284.221944492609
 20
2048.828535581641
 10
1284.335067510585
 20
2048.788519798427
 10
1284.446499837686
 20
2048.744012309402
 10
1284.556063205958
 20
2048.695084317054
 10
1284.663582337384
 20
2048.641814095731
 10
1284.768885224291
 20
2048.584286866427
 10
1284.871803404523
 20
2048.522594660434
 10
1284.972172230945
 20
2048.456836172122
 10
1285.069831134847
 20
2048.387116601046
 10
1285.164623882816
 20
2048.313547483646
 10
1285.256398826675
 20
2048.236246514816
 10
1285.345009146092
 20
2048.155337359616
 10
1285.430313083459
 20
2048.070949455435
 10
1285.512174170673
 20
2047.983217804917
 10
1285.590461447457
 20
2047.892282759989
 10
1285.665049670869
 20
2047.798289797324
 10
1285.735819515663
 20
2047.701389285611
 10
1285.802657765184
 20
2047.601736244998
 10
1285.86545749249
 20
2047.499490099092
 10
1285.924118231415
 20
2047.394814419915
 10
1285.978546137289
 20
2047.287876666223
 10
1286.028654137076
 20
2047.178847915612
 10
1286.074362068662
 20
2047.067902590823
 10
1286.115596809109
 20
2046.95521818071
 10
1286.152292391628
 20
2046.840974956289
 10
1286.184390111115
 20
2046.725355682351
 10
1286.211838618066
 20
2046.608545325068
 10
1286.234594000726
 20
2046.490730756094
 10
1286.252619855335
 20
2046.372100453608
 10
1286.265887344373
 20
2046.252844200786
 10
1286.274375242687
 20
2046.133152782195
 10
1286.27806997145
 20
2046.013217678568
 10
1286.27824481076
 20
2045.980829327394
  0
LWPOLYLINE
  5
22C
330
1DE
100
AcDbEntity
  8
P-SANR-FIXT
100
AcDbPolyline
 90
       41
 70
   128
 43
0.0
 10
1270.77824481076
 20
2048.980829327393
 10
1271.278111488093
 20
2048.980829327393
 10
1271.777178485374
 20
2048.980829327393
 10
1272.274647401871
 20
2048.980829327393
 10
1272.769722393438
 20
2048.980829327393
 10
1273.261611445698
 20
2048.980829327393
 10
1273.749527641099
 20
2048.980829327393
 10
1274.232690417811
 20
2048.980829327393
 10
1274.710326818461
 20
2048.980829327393
 10
1275.181672726698
 20
2048.980829327393
 10
1275.645974089618
 20
2048.980829327393
 10
1276.102488124085
 20
2048.980829327393
 10
1276.550484505029
 20
2048.980829327393
 10
1276.989246533807
 20
2048.980829327393
 10
1277.418072284771
 20
2048.980829327393
 10
1277.836275728198
 20
2048.980829327393
 10
1278.24318782779
 20
2048.980829327393
 10
1278.638157610991
 20
2048.980829327393
 10
1279.020553210403
 20
2048.980829327393
 10
1279.389762874642
 20
2048.980829327393
 10
1279.745195947004
 20
2048.980829327393
 10
1280.086283810396
 20
2048.980829327393
 10
1280.412480796997
 20
2048.980829327393
 10
1280.723265061215
 20
2048.980829327393
 10
1281.018139414523
 20
2048.980829327393
 10
1281.296632120859
 20
2048.980829327393
 10
1281.558297651302
 20
2048.980829327393
 10
1281.802717396822
 20
2048.980829327393
 10
1282.029500337966
 20
2048.980829327393
 10
1282.238283670407
 20
2048.980829327393
 10
1282.42873338535
 20
2048.980829327393
 10
1282.600544803879
 20
2048.980829327393
 10
1282.753443064375
 20
2048.980829327393
 10
1282.887183562238
 20
2048.980829327393
 10
1283.001552341201
 20
2048.980829327393
 10
1283.096366435616
 20
2048.980829327393
 10
1283.171474163156
 20
2048.980829327393
 10
1283.226755367481
 20
2048.980829327393
 10
1283.262121610455
 20
2048.980829327393
 10
1283.277516313635
 20
2048.980829327393
 10
1283.27824481076
 20
2048.980829327393
  0
LWPOLYLINE
  5
22D
330
1DE
100
AcDbEntity
  8
P-SANR-FIXT
100
AcDbPolyline
 90
       41
 70
   128
 43
0.0
 10
1283.27824481076
 20
2048.980829327393
 10
1283.268246144022
 20
2048.980829327393
 10
1283.238266139543
 20
2048.980829327393
 10
1283.188352758934
 20
2048.980829327393
 10
1283.118585852955
 20
2048.980829327393
 10
1283.029077033775
 20
2048.980829327393
 10
1282.919969496411
 20
2048.980829327393
 10
1282.791437789645
 20
2048.980829327393
 10
1282.643687536791
 20
2048.980829327393
 10
1282.476955106734
 20
2048.980829327393
 10
1282.291507235796
 20
2048.980829327393
 10
1282.08764060101
 20
2048.980829327393
 10
1281.865681345501
 20
2048.980829327393
 10
1281.625984556731
 20
2048.980829327393
 10
1281.368933698428
 20
2048.980829327393
 10
1281.094939997131
 20
2048.980829327393
 10
1280.804441784314
 20
2048.980829327393
 10
1280.497903795147
 20
2048.980829327393
 10
1280.175816425021
 20
2048.980829327393
 10
1279.838694945022
 20
2048.980829327393
 10
1279.4870786776
 20
2048.980829327393
 10
1279.121530133777
 20
2048.980829327393
 10
1278.742634113242
 20
2048.980829327393
 10
1278.350996768803
 20
2048.980829327393
 10
1277.947244636666
 20
2048.980829327393
 10
1277.532023634112
 20
2048.980829327393
 10
1277.10599802617
 20
2048.980829327393
 10
1276.669849362932
 20
2048.980829327393
 10
1276.224275389219
 20
2048.980829327393
 10
1275.769988928338
 20
2048.980829327393
 10
1275.307716741718
 20
2048.980829327393
 10
1274.838198366245
 20
2048.980829327393
 10
1274.36218493116
 20
2048.980829327393
 10
1273.880437956415
 20
2048.980829327393
 10
1273.393728134403
 20
2048.980829327393
 10
1272.902834097013
 20
2048.980829327393
 10
1272.408541169987
 20
2048.980829327393
 10
1271.911640116564
 20
2048.980829327393
 10
1271.41292587243
 20
2048.980829327393
 10
1270.913196273988
 20
2048.980829327393
 10
1270.77824481076
 20
2048.980829327393
  0
LINE
  5
22E
330
1DE
100
AcDbEntity
  8
P-SANR-FIXT
100
AcDbLine
 10
1286.27824481076
 20
2044.982558850012
 30
0.0
 11
1286.27824481076
 21
2045.980829327394
 31
0.0
  0
LINE
  5
22F
330
1DE
100
AcDbEntity
  8
P-SANR-FIXT
100
AcDbLine
 10
1260.128244810823
 20
1848.482558849996
 30
0.0
 11
1260.128244810823
 21
1847.482558849966
 31
0.0
  0
LINE
  5
230
330
1DE
100
AcDbEntity
  8
P-SANR-FIXT
100
AcDbLine
 10
1281.428244810696
 20
1847.482558849966
 30
0.0
 11
1281.428244810696
 21
1848.482558849996
 31
0.0
  0
LINE
  5
231
330
1DE
100
AcDbEntity
  8
P-SANR-FIXT
100
AcDbLine
 10
1259.283280918171
 20
1847.482558849966
 30
0.0
 11
1259.283280918171
 21
1843.282558849981
 31
0.0
  0
LINE
  5
232
330
1DE
100
AcDbEntity
  8
P-SANR-FIXT
100
AcDbLine
 10
1282.273208703349
 20
1843.282558849981
 30
0.0
 11
1282.273208703349
 21
1847.482558849966
 31
0.0
  0
LINE
  5
233
330
1DE
100
AcDbEntity
  8
P-SANR-FIXT
100
AcDbLine
 10
1256.138823392962
 20
1843.282558849981
 30
0.0
 11
1256.138823392962
 21
1829.763137432179
 31
0.0
  0
LINE
  5
234
330
1DE
100
AcDbEntity
  8
P-SANR-FIXT
100
AcDbLine
 10
1285.417666228558
 20
1829.763137432179
 30
0.0
 11
1285.417666228558
 21
1843.282558849981
 31
0.0
  0
LINE
  5
235
330
1DE
100
AcDbEntity
  8
P-SANR-FIXT
100
AcDbLine
 10
1255.358244810764
 20
1829.763137432179
 30
0.0
 11
1255.358244810764
 21
1819.482558849982
 31
0.0
  0
LINE
  5
236
330
1DE
100
AcDbEntity
  8
P-SANR-FIXT
100
AcDbLine
 10
1286.198244810755
 20
1819.482558849982
 30
0.0
 11
1286.198244810755
 21
1829.763137432179
 31
0.0
  0
LINE
  5
237
330
1DE
100
AcDbEntity
  8
P-SANR-FIXT
100
AcDbLine
 10
1256.278244810766
 20
1819.482558849982
 30
0.0
 11
1256.278244810766
 21
1817.982558849966
 31
0.0
  0
LINE
  5
238
330
1DE
100
AcDbEntity
  8
P-SANR-FIXT
100
AcDbLine
 10
1285.278244810754
 20
1817.982558849966
 30
0.0
 11
1285.278244810754
 21
1819.482558849982
 31
0.0
  0
LINE
  5
239
330
1DE
100
AcDbEntity
  8
P-SANR-FIXT
100
AcDbLine
 10
1259.028244810764
 20
1817.982558849966
 30
0.0
 11
1259.028244810764
 21
1814.982558849965
 31
0.0
  0
LINE
  5
23A
330
1DE
100
AcDbEntity
  8
P-SANR-FIXT
100
AcDbLine
 10
1282.528244810755
 20
1814.982558849965
 30
0.0
 11
1282.528244810755
 21
1817.982558849966
 31
0.0
  0
LINE
  5
23B
330
1DE
100
AcDbEntity
  8
P-SANR-FIXT
100
AcDbLine
 10
1257.328244810764
 20
1814.982558849965
 30
0.0
 11
1257.328244810764
 21
1812.982558849994
 31
0.0
  0
LINE
  5
23C
330
1DE
100
AcDbEntity
  8
P-SANR-FIXT
100
AcDbLine
 10
1284.228244810755
 20
1812.982558849994
 30
0.0
 11
1284.228244810755
 21
1814.982558849965
 31
0.0
  0
LINE
  5
23D
330
1DE
100
AcDbEntity
  8
P-SANR-FIXT
100
AcDbLine
 10
1255.978244810777
 20
1812.982558849994
 30
0.0
 11
1255.978244810777
 21
1803.982558849994
 31
0.0
  0
LINE
  5
23E
330
1DE
100
AcDbEntity
  8
P-SANR-FIXT
100
AcDbLine
 10
1285.578244810742
 20
1803.982558849994
 30
0.0
 11
1285.578244810742
 21
1812.982558849994
 31
0.0
  0
LINE
  5
23F
330
1DE
100
AcDbEntity
  8
P-SANR-FIXT
100
AcDbLine
 10
1263.278244810764
 20
1803.982558849994
 30
0.0
 11
1263.278244810764
 21
1780.982558849994
 31
0.0
  0
LINE
  5
240
330
1DE
100
AcDbEntity
  8
P-SANR-FIXT
100
AcDbLine
 10
1278.278244810756
 20
1780.982558849994
 30
0.0
 11
1278.278244810756
 21
1803.982558849994
 31
0.0
  0
SPLINE
  5
241
330
1DE
100
AcDbEntity
  8
P-SANR-FIXT
100
AcDbSpline
210
0.0
220
0.0
230
1.0
 70
     8
 71
     3
 72
     8
 73
     4
 74
     0
 42
0.000000001
 43
0.0000000001
 40
0.5
 40
0.5
 40
0.5
 40
0.5
 40
0.5025760366530859
 40
0.5025760366530859
 40
0.5025760366530859
 40
0.5025760366530859
 10
1297.182746356759
 20
1984.716508342194
 30
0.0
 10
1297.185784735751
 20
1984.721763606763
 30
0.0
 10
1297.188818518911
 20
1984.727021848726
 30
0.0
 10
1297.191847753518
 20
1984.732283037458
 30
0.0
  0
SPLINE
  5
242
330
1DE
100
AcDbEntity
  8
P-SANR-FIXT
100
AcDbSpline
210
0.0
220
0.0
230
1.0
 70
     8
 71
     3
 72
     8
 73
     4
 74
     0
 42
0.000000001
 43
0.0000000001
 40
0.75
 40
0.75
 40
0.75
 40
0.75
 40
0.7521203144558751
 40
0.7521203144558751
 40
0.7521203144558751
 40
0.7521203144558751
 10
1298.024618364207
 20
1986.275472410266
 30
0.0
 10
1298.026875629231
 20
1986.279959301638
 30
0.0
 10
1298.029129688522
 20
1986.284448094664
 30
0.0
 10
1298.031380596303
 20
1986.288938757178
 30
0.0
  0
SPLINE
  5
243
330
1DE
100
AcDbEntity
  8
P-SANR-FIXT
100
AcDbSpline
210
0.0
220
0.0
230
1.0
 70
     8
 71
     3
 72
     8
 73
     4
 74
     0
 42
0.000000001
 43
0.0000000001
 40
0.2478796855442036
 40
0.2478796855442036
 40
0.2478796855442036
 40
0.2478796855442036
 40
0.25
 40
0.25
 40
0.25
 40
0.25
 10
1298.031386985028
 20
2013.676182647492
 30
0.0
 10
1298.029131836313
 20
2013.680670850803
 30
0.0
 10
1298.026876606481
 20
2013.685159131017
 30
0.0
 10
1298.024621271301
 20
2013.689647469175
 30
0.0
  0
SPLINE
  5
244
330
1DE
100
AcDbEntity
  8
P-SANR-FIXT
100
AcDbSpline
210
0.0
220
0.0
230
1.0
 70
     8
 71
     3
 72
     8
 73
     4
 74
     0
 42
0.000000001
 43
0.0000000001
 40
0.4974239633469956
 40
0.4974239633469956
 40
0.4974239633469956
 40
0.4974239633469956
 40
0.5
 40
0.5
 40
0.5
 40
0.5
 10
1297.191857028984
 20
2015.232840411905
 30
0.0
 10
1297.188821626745
 20
2015.238097777668
 30
0.0
 10
1297.185786135974
 20
2015.243355209306
 30
0.0
 10
1297.182746356759
 20
2015.248609357827
 30
0.0
  0
SPLINE
  5
245
330
1DE
100
AcDbEntity
  8
P-SANR-FIXT
100
AcDbSpline
210
0.0
220
0.0
230
1.0
 70
    24
 71
     3
 72
     9
 73
     5
 74
     0
 42
0.000000001
 43
0.0000000001
 40
-0.506628505472418
 40
-0.506628505472418
 40
-0.506628505472418
 40
-0.506628505472418
 40
-0.5
 40
-0.480102649595218
 40
-0.480102649595218
 40
-0.480102649595218
 40
-0.480102649595218
 10
1256.961836361766
 20
2024.33726678737
 30
0.0
 10
1256.915560584895
 20
2024.310549455137
 30
0.0
 10
1256.730374311091
 20
2024.203632110106
 30
0.0
 10
1256.545066468092
 20
2024.096644577068
 30
0.0
 10
1256.406001896108
 20
2024.016355608998
 30
0.0
  0
SPLINE
  5
246
330
1DE
100
AcDbEntity
  8
P-SANR-FIXT
100
AcDbSpline
210
0.0
220
0.0
230
1.0
 70
    24
 71
     3
 72
     9
 73
     5
 74
     0
 42
0.000000001
 43
0.0000000001
 40
-0.5222483648054388
 40
-0.5222483648054388
 40
-0.5222483648054388
 40
-0.5222483648054388
 40
-0.5
 40
-0.4977558855106472
 40
-0.4977558855106472
 40
-0.4977558855106472
 40
-0.4977558855106472
 10
1242.778244810758
 20
2000.572252866666
 30
0.0
 10
1242.778244810758
 20
2000.392949031558
 30
0.0
 10
1242.778244810758
 20
2000.195557686814
 30
0.0
 10
1242.778244810758
 20
1999.998046211271
 30
0.0
 10
1242.778244810758
 20
1999.979948294903
 30
0.0
  0
SPLINE
  5
247
330
1DE
100
AcDbEntity
  8
P-SANR-FIXT
100
AcDbSpline
210
0.0
220
0.0
230
1.0
 70
    24
 71
     3
 72
     9
 73
     5
 74
     0
 42
0.000000001
 43
0.0000000001
 40
-0.5154580603625804
 40
-0.5154580603625804
 40
-0.5154580603625804
 40
-0.5154580603625804
 40
-0.5
 40
-0.48890425084721
 40
-0.48890425084721
 40
-0.48890425084721
 40
-0.48890425084721
 10
1256.409741136361
 20
1975.946603239657
 30
0.0
 10
1256.517642650174
 20
1975.884306271611
 30
0.0
 10
1256.702996807346
 20
1975.777291999072
 30
0.0
 10
1256.888472860986
 20
1975.670207349575
 30
0.0
 10
1256.965996046996
 20
1975.625449317263
 30
0.0
  0
ARC
  5
248
330
1DE
100
AcDbEntity
  8
P-SANR-FIXT
100
AcDbCircle
 10
1270.778244810758
 20
1999.982558850011
 30
0.0
 40
30.49999999999972
100
AcDbArc
 50
269.9999999999997
 51
276.6401623249819
  0
SPLINE
  5
249
330
1DE
100
AcDbEntity
  8
P-SANR-FIXT
100
AcDbSpline
210
0.0
220
0.0
230
1.0
 70
    24
 71
     3
 72
     8
 73
     4
 74
     0
 42
0.000000001
 43
0.0000000001
 40
-1.0
 40
-1.0
 40
-1.0
 40
-1.0
 40
-0.5625484549729998
 40
-0.5625484549729998
 40
-0.5625484549729998
 40
-0.5625484549729998
 10
1274.305064777931
 20
1969.687154232823
 30
0.0
 10
1277.333298987143
 20
1971.43550606868
 30
0.0
 10
1280.372952861032
 20
1973.190451051013
 30
0.0
 10
1283.424026399596
 20
1974.951989179821
 30
0.0
  0
SPLINE
  5
24A
330
1DE
100
AcDbEntity
  8
P-SANR-FIXT
100
AcDbSpline
210
0.0
220
0.0
230
1.0
 70
    24
 71
     3
 72
     8
 73
     4
 74
     0
 42
0.000000001
 43
0.0000000001
 40
-0.466169265992154
 40
-0.466169265992154
 40
-0.466169265992154
 40
-0.466169265992154
 40
0.0
 40
0.0
 40
0.0
 40
0.0
 10
1285.442324089945
 20
1976.117253894648
 30
0.0
 10
1288.699056110774
 20
1977.997529003552
 30
0.0
 10
1291.968756361987
 20
1979.885291323759
 30
0.0
 10
1295.251424843584
 20
1981.78054085527
 30
0.0
  0
ARC
  5
24B
330
1DE
100
AcDbEntity
  8
P-SANR-FIXT
100
AcDbCircle
 10
1270.778244810758
 20
1999.982558850011
 30
0.0
 40
30.4999999999999
100
AcDbArc
 50
323.3598376750185
 51
336.640162324982
  0
SPLINE
  5
24C
330
1DE
100
AcDbEntity
  8
P-SANR-FIXT
100
AcDbSpline
210
0.0
220
0.0
230
1.0
 70
    24
 71
     3
 72
     9
 73
     5
 74
     0
 42
0.000000001
 43
0.0000000001
 40
-1.0
 40
-1.0
 40
-1.0
 40
-1.0
 40
-0.5
 40
0.0
 40
0.0
 40
0.0
 40
0.0
 10
1298.778244810758
 20
1987.889172227563
 30
0.0
 10
1298.778244810758
 20
1991.885847643923
 30
0.0
 10
1298.778244810758
 20
1999.913651934431
 30
0.0
 10
1298.778244810758
 20
2008.010363140519
 30
0.0
 10
1298.778244810758
 20
2012.075945472458
 30
0.0
  0
ARC
  5
24D
330
1DE
100
AcDbEntity
  8
P-SANR-FIXT
100
AcDbCircle
 10
1270.778244810758
 20
1999.982558850011
 30
0.0
 40
30.49999999999992
100
AcDbArc
 50
23.35983767501918
 51
36.64016232498256
  0
SPLINE
  5
24E
330
1DE
100
AcDbEntity
  8
P-SANR-FIXT
100
AcDbSpline
210
0.0
220
0.0
230
1.0
 70
    24
 71
     3
 72
     8
 73
     4
 74
     0
 42
0.000000001
 43
0.0000000001
 40
-1.0
 40
-1.0
 40
-1.0
 40
-1.0
 40
-0.5294356960003071
 40
-0.5294356960003071
 40
-0.5294356960003071
 40
-0.5294356960003071
 10
1295.251424843584
 20
2018.184576844751
 30
0.0
 10
1291.993969385476
 20
2020.065269630363
 30
0.0
 10
1288.72330001565
 20
2021.953591471463
 30
0.0
 10
1285.439416734105
 20
2023.84954236805
 30
0.0
  0
SPLINE
  5
24F
330
1DE
100
AcDbEntity
  8
P-SANR-FIXT
100
AcDbSpline
210
0.0
220
0.0
230
1.0
 70
    24
 71
     3
 72
     8
 73
     4
 74
     0
 42
0.000000001
 43
0.0000000001
 40
-0.5
 40
-0.5
 40
-0.5
 40
-0.5
 40
-0.4944330584584828
 40
-0.4944330584584828
 40
-0.4944330584584828
 40
-0.4944330584584828
 10
1284.823001165299
 20
2024.205430062632
 30
0.0
 10
1284.784132111301
 20
2024.227871121421
 30
0.0
 10
1284.745257550337
 20
2024.250315359659
 30
0.0
 10
1284.706377604577
 20
2024.27276270681
 30
0.0
  0
SPLINE
  5
250
330
1DE
100
AcDbEntity
  8
P-SANR-FIXT
100
AcDbSpline
210
0.0
220
0.0
230
1.0
 70
    24
 71
     3
 72
     8
 73
     4
 74
     0
 42
0.000000001
 43
0.0000000001
 40
-0.4331613392668825
 40
-0.4331613392668825
 40
-0.4331613392668825
 40
-0.4331613392668825
 40
0.0
 40
0.0
 40
0.0
 40
0.0
 10
1283.422174731948
 20
2025.014197581016
 30
0.0
 10
1280.39433485217
 20
2026.762321750669
 30
0.0
 10
1277.355298200831
 20
2028.516910379396
 30
0.0
 10
1274.305064777931
 20
2030.277963467199
 30
0.0
  0
ARC
  5
251
330
1DE
100
AcDbEntity
  8
P-SANR-FIXT
100
AcDbCircle
 10
1270.778244810758
 20
1999.982558850011
 30
0.0
 40
30.5
100
AcDbArc
 50
83.35983767501859
 51
90.0
  0
ARC
  5
252
330
1DE
100
AcDbEntity
  8
P-SANR-FIXT
100
AcDbCircle
 10
1270.778244810758
 20
1999.982558850011
 30
0.0
 40
28.0
100
AcDbArc
 50
90.00000000000047
 51
269.9999999999997
  0
ARC
  5
253
330
1DE
100
AcDbEntity
  8
P-SANR-FIXT
100
AcDbCircle
 10
1270.778244810758
 20
1999.982558850011
 30
0.0
 40
19.05000000000032
100
AcDbArc
 50
90.00000000000138
 51
270.0000000000003
  0
ARC
  5
254
330
1DE
100
AcDbEntity
  8
P-SANR-FIXT
100
AcDbCircle
 10
1270.778244810758
 20
1999.982558850011
 30
0.0
 40
28.00000000000023
100
AcDbArc
 50
269.9999999999997
 51
90.0
  0
ARC
  5
255
330
1DE
100
AcDbEntity
  8
P-SANR-FIXT
100
AcDbCircle
 10
1270.778244810758
 20
1999.982558850011
 30
0.0
 40
19.05000000000018
100
AcDbArc
 50
269.9999999999997
 51
89.99999999999863
  0
SPLINE
  5
256
330
1DE
100
AcDbEntity
  8
P-SANR-FIXT
100
AcDbSpline
210
0.0
220
0.0
230
1.0
 70
    24
 71
     3
 72
     8
 73
     4
 74
     0
 42
0.000000001
 43
0.0000000001
 40
0.8585776363630385
 40
0.8585776363630385
 40
0.8585776363630385
 40
0.8585776363630385
 40
0.8947819220713522
 40
0.8947819220713522
 40
0.8947819220713522
 40
0.8947819220713522
 10
1285.408737182463
 20
1976.097862484573
 30
0.0
 10
1285.561562219117
 20
1976.186096060624
 30
0.0
 10
1285.71404657605
 20
1976.274132945146
 30
0.0
 10
1285.8663467343
 20
1976.362063482509
 30
0.0
  0
LINE
  5
257
330
1DE
100
AcDbEntity
  8
P-SANR-FIXT
100
AcDbLine
 10
1298.778244810758
 20
1998.88413150982
 30
0.0
 11
1298.778244810758
 21
2001.080986190201
 31
0.0
  0
SPLINE
  5
258
330
1DE
100
AcDbEntity
  8
P-SANR-FIXT
100
AcDbSpline
210
0.0
220
0.0
230
1.0
 70
    24
 71
     3
 72
     9
 73
     5
 74
     0
 42
0.000000001
 43
0.0000000001
 40
0.2448454315975464
 40
0.2448454315975464
 40
0.2448454315975464
 40
0.2448454315975464
 40
0.25
 40
0.274529229766105
 40
0.274529229766105
 40
0.274529229766105
 40
0.274529229766105
 10
1285.865432499209
 20
2023.603582051388
 30
0.0
 10
1285.839158177684
 20
2023.618751537993
 30
0.0
 10
1285.687785845184
 20
2023.70614639491
 30
0.0
 10
1285.536008960709
 20
2023.793774820019
 30
0.0
 10
1285.410339949144
 20
2023.866329857675
 30
0.0
  0
LINE
  5
259
330
1DE
100
AcDbEntity
  8
P-SANR-FIXT
100
AcDbLine
 10
1309.778244810758
 20
1917.482558850011
 30
0.0
 11
1270.778244810758
 21
1917.482558850011
 31
0.0
  0
LINE
  5
25A
330
1DE
100
AcDbEntity
  8
P-SANR-FIXT
100
AcDbLine
 10
1270.778244810758
 20
1917.98255885001
 30
0.0
 11
1310.278244810757
 21
1917.98255885001
 31
0.0
  0
LINE
  5
25B
330
1DE
100
AcDbEntity
  8
P-SANR-FIXT
100
AcDbLine
 10
1310.278244810757
 20
1927.48255885001
 30
0.0
 11
1270.778244810758
 21
1927.48255885001
 31
0.0
  0
LINE
  5
25C
330
1DE
100
AcDbEntity
  8
P-SANR-FIXT
100
AcDbLine
 10
1286.778244810758
 20
2044.482558850011
 30
0.0
 11
1270.778244810758
 21
2044.482558850011
 31
0.0
  0
LINE
  5
25D
330
1DE
100
AcDbEntity
  8
P-SANR-FIXT
100
AcDbLine
 10
1286.278244810758
 20
2044.982558850011
 30
0.0
 11
1281.738399919175
 21
2044.982558850011
 31
0.0
  0
LINE
  5
25E
330
1DE
100
AcDbEntity
  8
P-SANR-FIXT
100
AcDbLine
 10
1281.738399919175
 20
2044.982558850011
 30
0.0
 11
1270.778244810758
 21
2044.982558850011
 31
0.0
  0
LINE
  5
25F
330
1DE
100
AcDbEntity
  8
P-SANR-FIXT
100
AcDbLine
 10
1259.283280918169
 20
1847.482558849965
 30
0.0
 11
1270.778244810758
 21
1847.482558849965
 31
0.0
  0
LINE
  5
260
330
1DE
100
AcDbEntity
  8
P-SANR-FIXT
100
AcDbLine
 10
1270.778244810758
 20
1847.482558849965
 30
0.0
 11
1282.273208703347
 21
1847.482558849965
 31
0.0
  0
LINE
  5
261
330
1DE
100
AcDbEntity
  8
P-SANR-FIXT
100
AcDbLine
 10
1256.13882339296
 20
1843.282558849981
 30
0.0
 11
1270.778244810758
 21
1843.282558849981
 31
0.0
  0
LINE
  5
262
330
1DE
100
AcDbEntity
  8
P-SANR-FIXT
100
AcDbLine
 10
1270.778244810758
 20
1843.282558849981
 30
0.0
 11
1285.417666228556
 21
1843.282558849981
 31
0.0
  0
LINE
  5
263
330
1DE
100
AcDbEntity
  8
P-SANR-FIXT
100
AcDbLine
 10
1255.3590488015
 20
1829.763137432178
 30
0.0
 11
1270.778244810758
 21
1829.763137432178
 31
0.0
  0
LINE
  5
264
330
1DE
100
AcDbEntity
  8
P-SANR-FIXT
100
AcDbLine
 10
1270.778244810758
 20
1829.763137432178
 30
0.0
 11
1286.197440820016
 21
1829.763137432178
 31
0.0
  0
LINE
  5
265
330
1DE
100
AcDbEntity
  8
P-SANR-FIXT
100
AcDbLine
 10
1255.358244810762
 20
1819.482558849981
 30
0.0
 11
1270.778244810758
 21
1819.482558849981
 31
0.0
  0
LINE
  5
266
330
1DE
100
AcDbEntity
  8
P-SANR-FIXT
100
AcDbLine
 10
1270.778244810758
 20
1819.482558849981
 30
0.0
 11
1286.198244810753
 21
1819.482558849981
 31
0.0
  0
LINE
  5
267
330
1DE
100
AcDbEntity
  8
P-SANR-FIXT
100
AcDbLine
 10
1256.278244810763
 20
1817.982558849965
 30
0.0
 11
1270.778244810758
 21
1817.982558849965
 31
0.0
  0
LINE
  5
268
330
1DE
100
AcDbEntity
  8
P-SANR-FIXT
100
AcDbLine
 10
1270.778244810758
 20
1817.982558849965
 30
0.0
 11
1285.278244810752
 21
1817.982558849965
 31
0.0
  0
LINE
  5
269
330
1DE
100
AcDbEntity
  8
P-SANR-FIXT
100
AcDbLine
 10
1257.328244810762
 20
1814.982558849965
 30
0.0
 11
1270.778244810758
 21
1814.982558849965
 31
0.0
  0
LINE
  5
26A
330
1DE
100
AcDbEntity
  8
P-SANR-FIXT
100
AcDbLine
 10
1270.778244810758
 20
1814.982558849965
 30
0.0
 11
1284.228244810753
 21
1814.982558849965
 31
0.0
  0
LINE
  5
26B
330
1DE
100
AcDbEntity
  8
P-SANR-FIXT
100
AcDbLine
 10
1255.978244810775
 20
1812.982558849993
 30
0.0
 11
1270.778244810758
 21
1812.982558849993
 31
0.0
  0
LINE
  5
26C
330
1DE
100
AcDbEntity
  8
P-SANR-FIXT
100
AcDbLine
 10
1270.778244810758
 20
1812.982558849993
 30
0.0
 11
1285.57824481074
 21
1812.982558849993
 31
0.0
  0
LINE
  5
26D
330
1DE
100
AcDbEntity
  8
P-SANR-FIXT
100
AcDbLine
 10
1255.978244810775
 20
1803.982558849993
 30
0.0
 11
1270.778244810758
 21
1803.982558849993
 31
0.0
  0
LINE
  5
26E
330
1DE
100
AcDbEntity
  8
P-SANR-FIXT
100
AcDbLine
 10
1270.778244810758
 20
1803.982558849993
 30
0.0
 11
1285.57824481074
 21
1803.982558849993
 31
0.0
  0
LINE
  5
26F
330
1DE
100
AcDbEntity
  8
P-SANR-FIXT
100
AcDbLine
 10
1263.278244810762
 20
1780.982558849993
 30
0.0
 11
1270.778244810758
 21
1780.982558849993
 31
0.0
  0
LINE
  5
270
330
1DE
100
AcDbEntity
  8
P-SANR-FIXT
100
AcDbLine
 10
1270.778244810758
 20
1780.982558849993
 30
0.0
 11
1278.278244810753
 21
1780.982558849993
 31
0.0
  0
ENDBLK
  5
272
330
1DE
100
AcDbEntity
  8
0
100
AcDbBlockEnd
  0
ENDSEC
  0
SECTION
  2
ENTITIES
  0
INSERT
  5
182
330
71
100
AcDbEntity
  8
P-SANR-FIXT
100
AcDbBlockReference
  2
Automatic flow rate regulator valve_Caleffi_121 DN15 - 1 1_2___Insulation-982133-Est - Idraulica
 10
0.0
 20
0.0
 30
0.0
1001
REVIT
1002
{
1070
     1
1000
863131
1002
}
1002
{
1070
     5
1000
982133
1002
}
1002
{
1070
     2
1000
-2001160
1002
}
  0
INSERT
  5
1DD
330
71
100
AcDbEntity
  8
P-SANR-FIXT
100
AcDbBlockReference
  2
Automatic flow rate regulator valve_Caleffi_121 DN15 - 3_4___Insulation-975047-Est - Idraulica
 10
0.0
 20
0.0
 30
0.0
1001
REVIT
1002
{
1070
     1
1000
863152
1002
}
1002
{
1070
     5
1000
975047
1002
}
1002
{
1070
     2
1000
-2001160
1002
}
  0
INSERT
  5
273
330
71
100
AcDbEntity
  8
P-SANR-FIXT
100
AcDbBlockReference
  2
Automatic flow rate regulator valve_Caleffi_121 DN15 - 3_4___Insulation-V1-Est - Idraulica
 10
0.0
 20
0.0
 30
0.0
1001
REVIT
1002
{
1070
     1
1000
863172
1002
}
1002
{
1070
     5
1000
975047
1002
}
1002
{
1070
     2
1000
-2001160
1002
}
  0
ENDSEC
  0
SECTION
  2
OBJECTS
  0
DICTIONARY
  5
C
330
0
100
AcDbDictionary
281
     1
  3
ACAD_CIP_PREVIOUS_PRODUCT_INFO
350
7A
  3
ACAD_COLOR
350
63
  3
ACAD_DETAILVIEWSTYLE
350
6B
  3
ACAD_GROUP
350
D
  3
ACAD_IMAGE_VARS
350
7B
  3
ACAD_LAYOUT
350
62
  3
ACAD_MATERIAL
350
10
  3
ACAD_MLEADERSTYLE
350
66
  3
ACAD_MLINESTYLE
350
5F
  3
ACAD_PLOTSETTINGS
350
61
  3
ACAD_PLOTSTYLENAME
350
E
  3
ACAD_SCALELIST
350
42
  3
ACAD_SECTIONVIEWSTYLE
350
68
  3
ACAD_TABLESTYLE
350
64
  3
ACAD_VISUALSTYLE
350
29
  3
ACDB_RECOMPOSE_DATA
350
27D
  3
AcDbVariableDictionary
350
7C
  3
REVIT_DICTIONARY
350
275
  0
DICTIONARY
  5
279
330
71
100
AcDbDictionary
280
     1
281
     1
  3
ACAD_SORTENTS
360
27A
  0
XRECORD
  5
7A
102
{ACAD_REACTORS
330
C
102
}
330
C
100
AcDbXrecord
280
     1
300
RVT
300
2013
300
RVT2013
  0
DICTIONARY
  5
63
102
{ACAD_REACTORS
330
C
102
}
330
C
100
AcDbDictionary
281
     1
  0
DICTIONARY
  5
6B
102
{ACAD_REACTORS
330
C
102
}
330
C
100
AcDbDictionary
281
     1
  3
Imperial24
350
6C
  0
DICTIONARY
  5
D
102
{ACAD_REACTORS
330
C
102
}
330
C
100
AcDbDictionary
281
     1
  0
RASTERVARIABLES
  5
7B
102
{ACAD_REACTORS
330
C
102
}
330
C
100
AcDbRasterVariables
 90
        0
 70
     0
 71
     1
 72
     1
  0
DICTIONARY
  5
62
102
{ACAD_REACTORS
330
C
102
}
330
C
100
AcDbDictionary
281
     1
  3
Layout1
350
70
  3
Layout2
350
78
  3
Model
350
74
  0
DICTIONARY
  5
10
102
{ACAD_REACTORS
330
C
102
}
330
C
100
AcDbDictionary
281
     1
  3
ByBlock
350
19
  3
ByLayer
350
11
  3
Global
350
21
  0
DICTIONARY
  5
66
102
{ACAD_REACTORS
330
C
102
}
330
C
100
AcDbDictionary
281
     1
  3
Standard
350
67
  0
DICTIONARY
  5
5F
102
{ACAD_REACTORS
330
C
102
}
330
C
100
AcDbDictionary
281
     1
  3
Standard
350
60
  0
DICTIONARY
  5
61
102
{ACAD_REACTORS
330
C
102
}
330
C
100
AcDbDictionary
281
     1
  0
ACDBDICTIONARYWDFLT
  5
E
102
{ACAD_REACTORS
330
C
102
}
330
C
100
AcDbDictionary
281
     1
  3
Normal
350
F
100
AcDbDictionaryWithDefault
340
F
  0
DICTIONARY
  5
42
102
{ACAD_REACTORS
330
C
102
}
330
C
100
AcDbDictionary
281
     1
  3
A0
350
43
  3
A1
350
44
  3
A2
350
45
  3
A3
350
46
  3
A4
350
47
  3
A5
350
48
  3
A6
350
49
  3
A7
350
4A
  3
A8
350
4B
  3
A9
350
4C
  3
B0
350
4D
  3
B1
350
4E
  3
B2
350
4F
  3
B3
350
50
  3
B4
350
51
  3
B5
350
52
  3
B6
350
53
  0
DICTIONARY
  5
68
102
{ACAD_REACTORS
330
C
102
}
330
C
100
AcDbDictionary
281
     1
  3
Imperial24
350
6A
  0
DICTIONARY
  5
64
102
{ACAD_REACTORS
330
C
102
}
330
C
100
AcDbDictionary
281
     1
  3
Standard
350
65
  0
DICTIONARY
  5
29
102
{ACAD_REACTORS
330
C
102
}
330
C
100
AcDbDictionary
281
     1
  3
2dWireframe
350
2F
  3
Basic
350
2E
  3
Brighten
350
35
  3
ColorChange
350
39
  3
Conceptual
350
32
  3
Dim
350
34
  3
EdgeColorOff
350
41
  3
Facepattern
350
38
  3
Flat
350
2A
  3
FlatWithEdges
350
2B
  3
Gouraud
350
2C
  3
GouraudWithEdges
350
2D
  3
Hidden
350
31
  3
JitterOff
350
3F
  3
Linepattern
350
37
  3
OverhangOff
350
40
  3
Realistic
350
33
  3
Shaded
350
3E
  3
Shaded with edges
350
3D
  3
Shades of Gray
350
3A
  3
Sketchy
350
3B
  3
Thicken
350
36
  3
Wireframe
350
30
  3
X-Ray
350
3C
  0
XRECORD
  5
27D
102
{ACAD_REACTORS
330
C
102
}
330
C
100
AcDbXrecord
280
     1
 90
        1
330
65
  0
DICTIONARY
  5
7C
102
{ACAD_REACTORS
330
C
102
}
330
C
100
AcDbDictionary
281
     1
  3
CANNOSCALE
350
81
  3
CMLEADERSTYLE
350
7E
  3
CTABLESTYLE
350
7D
  3
CVIEWDETAILSTYLE
350
7F
  3
CVIEWSECTIONSTYLE
350
80
  0
DICTIONARY
  5
275
102
{ACAD_REACTORS
330
C
102
}
330
C
100
AcDbDictionary
281
     1
  3
DRAWING_TOOL
350
278
  3
REVIT_CATEGORY_MAPPING
350
277
  3
REVIT_TYPE_MAPPING
350
276
  0
SORTENTSTABLE
  5
27A
102
{ACAD_REACTORS
330
279
102
}
330
279
100
AcDbSortentsTable
330
71
  0
ACDBDETAILVIEWSTYLE
  5
6C
102
{ACAD_REACTORS
330
6B
102
}
330
6B
100
AcDbModelDocViewStyle
 70
     0
  3
Imperial24
290
     1
100
AcDbDetailViewStyle
 70
     0
 71
     0
 90
        3
 71
     1
340
55
 62
   256
 40
0.24
340
0
 62
   256
 40
0.24
300

 40
0.36
280
     3
 71
     2
340
5D
 90
       25
 62
   256
 71
     3
340
55
 62
   256
 40
0.24
 90
        1
 40
0.75
 90
        1
300
%<\AcVar ViewType \f "%tc1">% %<\AcVar ViewDetailId>%\PSCALA %<\AcVar ViewScale \f "%sn">%
 71
     4
340
5D
 90
       25
 62
   256
340
5D
 90
       25
 62
   256
280
     0
  0
LAYOUT
  5
70
102
{ACAD_REACTORS
330
62
102
}
330
62
100
AcDbPlotSettings
  1

  2

  4

  6

 40
0.0
 41
0.0
 42
0.0
 43
0.0
 44
0.0
 45
0.0
 46
0.0
 47
0.0
 48
0.0
 49
0.0
140
0.0
141
0.0
142
1.0
143
1.0
 70
   688
 72
     0
 73
     0
 74
     5
  7

 75
    16
147
1.0
 76
     0
 77
     2
 78
   300
148
0.0
149
0.0
100
AcDbLayout
  1
Layout1
 70
     1
 71
     1
 10
0.0
 20
0.0
 11
12.0
 21
9.0
 12
0.0
 22
0.0
 32
0.0
 14
0.0
 24
0.0
 34
0.0
 15
0.0
 25
0.0
 35
0.0
146
0.0
 13
0.0
 23
0.0
 33
0.0
 16
1.0
 26
0.0
 36
0.0
 17
0.0
 27
1.0
 37
0.0
 76
     0
330
6D
  0
LAYOUT
  5
78
102
{ACAD_REACTORS
330
62
102
}
330
62
100
AcDbPlotSettings
  1

  2

  4

  6

 40
0.0
 41
0.0
 42
0.0
 43
0.0
 44
0.0
 45
0.0
 46
0.0
 47
0.0
 48
0.0
 49
0.0
140
0.0
141
0.0
142
1.0
143
1.0
 70
   688
 72
     0
 73
     0
 74
     5
  7

 75
    16
147
1.0
 76
     0
 77
     2
 78
   300
148
0.0
149
0.0
100
AcDbLayout
  1
Layout2
 70
     1
 71
     2
 10
0.0
 20
0.0
 11
12.0
 21
9.0
 12
0.0
 22
0.0
 32
0.0
 14
0.0
 24
0.0
 34
0.0
 15
0.0
 25
0.0
 35
0.0
146
0.0
 13
0.0
 23
0.0
 33
0.0
 16
1.0
 26
0.0
 36
0.0
 17
0.0
 27
1.0
 37
0.0
 76
     0
330
75
  0
LAYOUT
  5
74
102
{ACAD_REACTORS
330
62
102
}
330
62
100
AcDbPlotSettings
  1

  2

  4

  6

 40
0.0
 41
0.0
 42
0.0
 43
0.0
 44
0.0
 45
0.0
 46
0.0
 47
0.0
 48
0.0
 49
0.0
140
0.0
141
0.0
142
1.0
143
1.0
 70
  1712
 72
     0
 73
     0
 74
     0
  7

 75
     0
147
1.0
 76
     0
 77
     2
 78
   300
148
0.0
149
0.0
100
AcDbLayout
  1
Model
 70
     1
 71
     0
 10
0.0
 20
0.0
 11
12.0
 21
9.0
 12
0.0
 22
0.0
 32
0.0
 14
0.0
 24
0.0
 34
0.0
 15
0.0
 25
0.0
 35
0.0
146
0.0
 13
0.0
 23
0.0
 33
0.0
 16
1.0
 26
0.0
 36
0.0
 17
0.0
 27
1.0
 37
0.0
 76
     0
330
71
  0
MATERIAL
  5
19
102
{ACAD_XDICTIONARY
360
1A
102
}
102
{ACAD_REACTORS
330
10
102
}
330
10
100
AcDbMaterial
  1
ByBlock
 72
     0
 43
0.0208333333333333
 43
0.0
 43
0.0
 43
0.0
 43
0.0
 43
0.0208333333333333
 43
0.0
 43
0.0
 43
0.0
 43
0.0
 43
1.0
 43
0.0
 43
0.0
 43
0.0
 43
0.0
 43
1.0
 77
     0
 47
0.0208333333333333
 47
0.0
 47
0.0
 47
0.0
 47
0.0
 47
0.0208333333333333
 47
0.0
 47
0.0
 47
0.0
 47
0.0
 47
1.0
 47
0.0
 47
0.0
 47
0.0
 47
0.0
 47
1.0
171
     0
 49
0.0208333333333333
 49
0.0
 49
0.0
 49
0.0
 49
0.0
 49
0.0208333333333333
 49
0.0
 49
0.0
 49
0.0
 49
0.0
 49
1.0
 49
0.0
 49
0.0
 49
0.0
 49
0.0
 49
1.0
175
     0
142
0.0208333333333333
142
0.0
142
0.0
142
0.0
142
0.0
142
0.0208333333333333
142
0.0
142
0.0
142
0.0
142
0.0
142
1.0
142
0.0
142
0.0
142
0.0
142
0.0
142
1.0
179
     0
144
0.0208333333333333
144
0.0
144
0.0
144
0.0
144
0.0
144
0.0208333333333333
144
0.0
144
0.0
144
0.0
144
0.0
144
1.0
144
0.0
144
0.0
144
0.0
144
0.0
144
1.0
147
0.0208333333333333
147
0.0
147
0.0
147
0.0
147
0.0
147
0.0208333333333333
147
0.0
147
0.0
147
0.0
147
0.0
147
1.0
147
0.0
147
0.0
147
0.0
147
0.0
147
1.0
  0
MATERIAL
  5
11
102
{ACAD_XDICTIONARY
360
12
102
}
102
{ACAD_REACTORS
330
10
102
}
330
10
100
AcDbMaterial
  1
ByLayer
 72
     0
 43
0.0208333333333333
 43
0.0
 43
0.0
 43
0.0
 43
0.0
 43
0.0208333333333333
 43
0.0
 43
0.0
 43
0.0
 43
0.0
 43
1.0
 43
0.0
 43
0.0
 43
0.0
 43
0.0
 43
1.0
 77
     0
 47
0.0208333333333333
 47
0.0
 47
0.0
 47
0.0
 47
0.0
 47
0.0208333333333333
 47
0.0
 47
0.0
 47
0.0
 47
0.0
 47
1.0
 47
0.0
 47
0.0
 47
0.0
 47
0.0
 47
1.0
171
     0
 49
0.0208333333333333
 49
0.0
 49
0.0
 49
0.0
 49
0.0
 49
0.0208333333333333
 49
0.0
 49
0.0
 49
0.0
 49
0.0
 49
1.0
 49
0.0
 49
0.0
 49
0.0
 49
0.0
 49
1.0
175
     0
142
0.0208333333333333
142
0.0
142
0.0
142
0.0
142
0.0
142
0.0208333333333333
142
0.0
142
0.0
142
0.0
142
0.0
142
1.0
142
0.0
142
0.0
142
0.0
142
0.0
142
1.0
179
     0
144
0.0208333333333333
144
0.0
144
0.0
144
0.0
144
0.0
144
0.0208333333333333
144
0.0
144
0.0
144
0.0
144
0.0
144
1.0
144
0.0
144
0.0
144
0.0
144
0.0
144
1.0
147
0.0208333333333333
147
0.0
147
0.0
147
0.0
147
0.0
147
0.0208333333333333
147
0.0
147
0.0
147
0.0
147
0.0
147
1.0
147
0.0
147
0.0
147
0.0
147
0.0
147
1.0
  0
MATERIAL
  5
21
102
{ACAD_XDICTIONARY
360
22
102
}
102
{ACAD_REACTORS
330
10
102
}
330
10
100
AcDbMaterial
  1
Global
 72
     0
 43
0.0208333333333333
 43
0.0
 43
0.0
 43
0.0
 43
0.0
 43
0.0208333333333333
 43
0.0
 43
0.0
 43
0.0
 43
0.0
 43
1.0
 43
0.0
 43
0.0
 43
0.0
 43
0.0
 43
1.0
 77
     0
 47
0.0208333333333333
 47
0.0
 47
0.0
 47
0.0
 47
0.0
 47
0.0208333333333333
 47
0.0
 47
0.0
 47
0.0
 47
0.0
 47
1.0
 47
0.0
 47
0.0
 47
0.0
 47
0.0
 47
1.0
171
     0
 49
0.0208333333333333
 49
0.0
 49
0.0
 49
0.0
 49
0.0
 49
0.0208333333333333
 49
0.0
 49
0.0
 49
0.0
 49
0.0
 49
1.0
 49
0.0
 49
0.0
 49
0.0
 49
0.0
 49
1.0
175
     0
142
0.0208333333333333
142
0.0
142
0.0
142
0.0
142
0.0
142
0.0208333333333333
142
0.0
142
0.0
142
0.0
142
0.0
142
1.0
142
0.0
142
0.0
142
0.0
142
0.0
142
1.0
179
     0
144
0.0208333333333333
144
0.0
144
0.0
144
0.0
144
0.0
144
0.0208333333333333
144
0.0
144
0.0
144
0.0
144
0.0
144
1.0
144
0.0
144
0.0
144
0.0
144
0.0
144
1.0
147
0.0208333333333333
147
0.0
147
0.0
147
0.0
147
0.0
147
0.0208333333333333
147
0.0
147
0.0
147
0.0
147
0.0
147
1.0
147
0.0
147
0.0
147
0.0
147
0.0
147
1.0
  0
MLEADERSTYLE
  5
67
102
{ACAD_REACTORS
330
66
102
}
330
66
100
AcDbMLeaderStyle
179
     2
170
     2
171
     1
172
     0
 90
        2
 40
0.0
 41
0.0
173
     1
 91
-1056964608
340
5B
 92
       -2
290
     1
 42
0.09
291
     1
 43
0.36
  3
Standard
 44
0.18
300

342
55
174
     1
178
     6
175
     1
176
     0
 93
-1056964608
 45
0.18
292
     0
297
     0
 46
0.18
 94
-1056964608
 47
1.0
 49
1.0
140
1.0
293
     1
141
0.0
294
     1
177
     0
142
1.0
295
     1
296
     0
143
0.125
271
     0
272
     9
273
     9
298
     1
  0
MLINESTYLE
  5
60
102
{ACAD_REACTORS
330
5F
102
}
330
5F
100
AcDbMlineStyle
  2
STANDARD
 70
     0
  3

 62
   256
 51
90.0
 52
90.0
 71
     2
 49
0.5
 62
   256
  6
BYLAYER
 49
-0.5
 62
   256
  6
BYLAYER
  0
ACDBPLACEHOLDER
  5
F
102
{ACAD_REACTORS
330
E
102
}
330
E
  0
SCALE
  5
43
102
{ACAD_REACTORS
330
42
102
}
330
42
100
AcDbScale
 70
     0
300
1:1
140
1.0
141
1.0
290
     1
  0
SCALE
  5
44
102
{ACAD_REACTORS
330
42
102
}
330
42
100
AcDbScale
 70
     0
300
1/128" = 1'-0"
140
0.0078125
141
12.0
290
     0
  0
SCALE
  5
45
102
{ACAD_REACTORS
330
42
102
}
330
42
100
AcDbScale
 70
     0
300
1/64" = 1'-0"
140
0.015625
141
12.0
290
     0
  0
SCALE
  5
46
102
{ACAD_REACTORS
330
42
102
}
330
42
100
AcDbScale
 70
     0
300
1/32" = 1'-0"
140
0.03125
141
12.0
290
     0
  0
SCALE
  5
47
102
{ACAD_REACTORS
330
42
102
}
330
42
100
AcDbScale
 70
     0
300
1/16" = 1'-0"
140
0.0625
141
12.0
290
     0
  0
SCALE
  5
48
102
{ACAD_REACTORS
330
42
102
}
330
42
100
AcDbScale
 70
     0
300
3/32" = 1'-0"
140
0.09375
141
12.0
290
     0
  0
SCALE
  5
49
102
{ACAD_REACTORS
330
42
102
}
330
42
100
AcDbScale
 70
     0
300
1/8" = 1'-0"
140
0.125
141
12.0
290
     0
  0
SCALE
  5
4A
102
{ACAD_REACTORS
330
42
102
}
330
42
100
AcDbScale
 70
     0
300
3/16" = 1'-0"
140
0.1875
141
12.0
290
     0
  0
SCALE
  5
4B
102
{ACAD_REACTORS
330
42
102
}
330
42
100
AcDbScale
 70
     0
300
1/4" = 1'-0"
140
0.25
141
12.0
290
     0
  0
SCALE
  5
4C
102
{ACAD_REACTORS
330
42
102
}
330
42
100
AcDbScale
 70
     0
300
3/8" = 1'-0"
140
0.375
141
12.0
290
     0
  0
SCALE
  5
4D
102
{ACAD_REACTORS
330
42
102
}
330
42
100
AcDbScale
 70
     0
300
1/2" = 1'-0"
140
0.5
141
12.0
290
     0
  0
SCALE
  5
4E
102
{ACAD_REACTORS
330
42
102
}
330
42
100
AcDbScale
 70
     0
300
3/4" = 1'-0"
140
0.75
141
12.0
290
     0
  0
SCALE
  5
4F
102
{ACAD_REACTORS
330
42
102
}
330
42
100
AcDbScale
 70
     0
300
1" = 1'-0"
140
1.0
141
12.0
290
     0
  0
SCALE
  5
50
102
{ACAD_REACTORS
330
42
102
}
330
42
100
AcDbScale
 70
     0
300
1-1/2" = 1'-0"
140
1.5
141
12.0
290
     0
  0
SCALE
  5
51
102
{ACAD_REACTORS
330
42
102
}
330
42
100
AcDbScale
 70
     0
300
3" = 1'-0"
140
3.0
141
12.0
290
     0
  0
SCALE
  5
52
102
{ACAD_REACTORS
330
42
102
}
330
42
100
AcDbScale
 70
     0
300
6" = 1'-0"
140
6.0
141
12.0
290
     0
  0
SCALE
  5
53
102
{ACAD_REACTORS
330
42
102
}
330
42
100
AcDbScale
 70
     0
300
1'-0" = 1'-0"
140
12.0
141
12.0
290
     0
  0
ACDBSECTIONVIEWSTYLE
  5
6A
102
{ACAD_REACTORS
330
68
102
}
330
68
100
AcDbModelDocViewStyle
 70
     0
  3
Imperial24
290
     1
100
AcDbSectionViewStyle
 70
     0
 71
     0
 90
       78
 71
     1
340
55
 62
   256
 40
0.24
340
0
340
0
 62
   256
 40
0.24
300
I, O, Q, S, X, Z
 40
0.48
 90
        3
 40
0.18
 90
        1
 71
     2
340
69
 90
       25
 62
   256
340
5D
 90
       50
 62
   256
 40
0.24
 40
0.0
 40
0.24
 71
     3
340
55
 62
   256
 40
0.24
 90
        1
 40
0.75
 90
        1
300
%<\AcVar ViewType \f "%tc1">% %<\AcVar ViewSectionStartId>%-%<\AcVar ViewSectionEndId>%\PSCALA %<\AcVar ViewScale \f "%sn">%
 71
     4
 62
   256
 62
   257
300
ANSI31
 40
1.0
 90
        0
290
     0
290
     0
 90
        6
 40
0.0
 40
1.570796326794896
 40
0.2617993877991494
 40
1.308996938995747
 40
-0.2617993877991494
 40
1.832595714594046
  0
TABLESTYLE
  5
65
102
{ACAD_XDICTIONARY
360
27B
102
}
102
{ACAD_REACTORS
330
64
102
}
330
64
100
AcDbTableStyle
280
     0
  3
Standard
 70
     0
 71
     0
 40
0.06
 41
0.06
280
     0
281
     0
  7
Standard
140
0.18
170
     2
 62
     0
 63
     7
283
     0
 90
      512
 91
        0
  1

274
    -2
284
     1
 64
     0
275
    -2
285
     1
 65
     0
276
    -2
286
     1
 66
     0
277
    -2
287
     1
 67
     0
278
    -2
288
     1
 68
     0
279
    -2
289
     1
 69
     0
  7
Standard
140
0.25
170
     5
 62
     0
 63
     7
283
     0
 90
      512
 91
        0
  1

274
    -2
284
     1
 64
     0
275
    -2
285
     1
 65
     0
276
    -2
286
     1
 66
     0
277
    -2
287
     1
 67
     0
278
    -2
288
     1
 68
     0
279
    -2
289
     1
 69
     0
  7
Standard
140
0.18
170
     5
 62
     0
 63
     7
283
     0
 90
      512
 91
        0
  1

274
    -2
284
     1
 64
     0
275
    -2
285
     1
 65
     0
276
    -2
286
     1
 66
     0
277
    -2
287
     1
 67
     0
278
    -2
288
     1
 68
     0
279
    -2
289
     1
 69
     0
  0
VISUALSTYLE
  5
2F
102
{ACAD_REACTORS
330
29
102
}
330
29
100
AcDbVisualStyle
  2
2dWireframe
 70
     4
177
     3
291
     0
 70
    58
 90
        0
176
     1
 90
        2
176
     1
 90
        0
176
     1
 90
        0
176
     1
 40
0.6
176
     1
 40
30.0
176
     1
 62
     7
420
 16777215
176
     1
 90
        1
176
     1
 90
        4
176
     1
 62
     7
176
     1
 62
   257
176
     1
 90
        1
176
     1
 90
        1
176
     1
 40
1.0
176
     1
 90
        0
176
     1
 62
   257
176
     1
 40
1.0
176
     1
 90
        1
176
     1
 90
        6
176
     1
 90
        2
176
     1
 62
     7
176
     1
 90
        5
176
     1
 90
        0
176
     1
 90
        0
176
     1
290
     0
176
     1
 90
        1
176
     1
 40
0.0
176
     1
 90
        0
176
     1
290
     1
176
     1
290
     1
176
     1
290
     0
176
     1
290
     0
176
     1
290
     0
176
     1
290
     0
176
     1
290
     0
176
     1
290
     0
176
     1
290
     0
176
     1
 90
       50
176
     1
 40
0.0
176
     1
 40
1.0
176
     1
 90
        0
176
     1
 62
    18
420
        0
176
     1
 90
       50
176
     1
 90
        3
176
     1
 62
     5
420
      255
176
     1
290
     0
176
     1
 90
       50
176
     1
 90
       50
176
     1
 90
       50
176
     1
290
     0
176
     1
 90
       50
176
     1
 62
   256
176
     0
 40
1.0
176
     0
 90
        2
176
     1
  1
strokes_ogs.tif
176
     1
290
     0
176
     1
 40
1.0
176
     1
 40
1.0
176
     1
  0
VISUALSTYLE
  5
2E
102
{ACAD_REACTORS
330
29
102
}
330
29
100
AcDbVisualStyle
  2
Basic
 70
     7
177
     3
291
     1
 70
    58
 90
        1
176
     1
 90
        0
176
     1
 90
        1
176
     1
 90
        0
176
     1
 40
0.6
176
     1
 40
30.0
176
     1
 62
     7
420
 16777215
176
     1
 90
        0
176
     1
 90
        4
176
     1
 62
     7
176
     1
 62
   257
176
     1
 90
        1
176
     1
 90
        1
176
     1
 40
1.0
176
     1
 90
        8
176
     1
 62
     7
176
     1
 40
1.0
176
     1
 90
        1
176
     1
 90
        6
176
     1
 90
        2
176
     1
 62
     7
176
     1
 90
        5
176
     1
 90
        0
176
     1
 90
        0
176
     1
290
     0
176
     1
 90
        1
176
     1
 40
0.0
176
     1
 90
        0
176
     1
290
     0
176
     1
290
     1
176
     1
290
     1
176
     1
290
     0
176
     1
290
     0
176
     1
290
     0
176
     1
290
     0
176
     1
290
     0
176
     1
290
     0
176
     1
 90
       50
176
     1
 40
0.0
176
     1
 40
1.0
176
     1
 90
        0
176
     1
 62
    18
420
        0
176
     1
 90
       50
176
     1
 90
        3
176
     1
 62
     5
420
      255
176
     1
290
     0
176
     1
 90
       50
176
     1
 90
       50
176
     1
 90
       50
176
     1
290
     0
176
     1
 90
       50
176
     1
 62
   256
176
     0
 40
1.0
176
     0
 90
        2
176
     1
  1
strokes_ogs.tif
176
     1
290
     0
176
     1
 40
1.0
176
     1
 40
1.0
176
     1
  0
VISUALSTYLE
  5
35
102
{ACAD_REACTORS
330
29
102
}
330
29
100
AcDbVisualStyle
  2
Brighten
 70
    12
177
     3
291
     1
 70
    58
 90
        2
176
     1
 90
        2
176
     1
 90
        0
176
     1
 90
        0
176
     1
 40
0.6
176
     1
 40
30.0
176
     1
 62
     7
420
 16777215
176
     1
 90
        1
176
     1
 90
        4
176
     1
 62
     7
176
     1
 62
   257
176
     1
 90
        1
176
     1
 90
        1
176
     1
 40
1.0
176
     1
 90
        8
176
     1
 62
     7
176
     1
 40
1.0
176
     1
 90
        1
176
     1
 90
        6
176
     1
 90
        2
176
     1
 62
     7
176
     1
 90
        5
176
     1
 90
        0
176
     1
 90
        0
176
     1
290
     0
176
     1
 90
        1
176
     1
 40
50.0
176
     1
 90
        0
176
     1
290
     0
176
     1
290
     1
176
     1
290
     1
176
     1
290
     0
176
     1
290
     0
176
     1
290
     0
176
     1
290
     0
176
     1
290
     0
176
     1
290
     0
176
     1
 90
       50
176
     1
 40
0.0
176
     1
 40
1.0
176
     1
 90
        0
176
     1
 62
    18
420
        0
176
     1
 90
       50
176
     1
 90
        3
176
     1
 62
     5
420
      255
176
     1
290
     0
176
     1
 90
       50
176
     1
 90
       50
176
     1
 90
       50
176
     1
290
     0
176
     1
 90
       50
176
     1
 62
   256
176
     0
 40
1.0
176
     0
 90
        2
176
     1
  1
strokes_ogs.tif
176
     1
290
     0
176
     1
 40
1.0
176
     1
 40
1.0
176
     1
  0
VISUALSTYLE
  5
39
102
{ACAD_REACTORS
330
29
102
}
330
29
100
AcDbVisualStyle
  2
ColorChange
 70
    16
177
     3
291
     1
 70
    58
 90
        2
176
     1
 90
        2
176
     1
 90
        3
176
     1
 90
        0
176
     1
 40
0.6
176
     1
 40
30.0
176
     1
 62
     8
420
  8421504
176
     1
 90
        1
176
     1
 90
        4
176
     1
 62
     7
176
     1
 62
   257
176
     1
 90
        1
176
     1
 90
        1
176
     1
 40
1.0
176
     1
 90
        8
176
     1
 62
     8
420
  8421504
176
     1
 40
1.0
176
     1
 90
        1
176
     1
 90
        6
176
     1
 90
        2
176
     1
 62
     7
176
     1
 90
        5
176
     1
 90
        0
176
     1
 90
        0
176
     1
290
     0
176
     1
 90
        1
176
     1
 40
0.0
176
     1
 90
        0
176
     1
290
     0
176
     1
290
     1
176
     1
290
     1
176
     1
290
     0
176
     1
290
     0
176
     1
290
     0
176
     1
290
     0
176
     1
290
     0
176
     1
290
     0
176
     1
 90
       50
176
     1
 40
0.0
176
     1
 40
1.0
176
     1
 90
        0
176
     1
 62
    18
420
        0
176
     1
 90
       50
176
     1
 90
        3
176
     1
 62
     5
420
      255
176
     1
290
     0
176
     1
 90
       50
176
     1
 90
       50
176
     1
 90
       50
176
     1
290
     0
176
     1
 90
       50
176
     1
 62
   256
176
     0
 40
1.0
176
     0
 90
        2
176
     1
  1
strokes_ogs.tif
176
     1
290
     0
176
     1
 40
1.0
176
     1
 40
1.0
176
     1
  0
VISUALSTYLE
  5
32
102
{ACAD_REACTORS
330
29
102
}
330
29
100
AcDbVisualStyle
  2
Conceptual
 70
     9
177
     3
291
     0
 70
    58
 90
        3
176
     1
 90
        2
176
     1
 90
        0
176
     1
 90
        0
176
     1
 40
0.6
176
     1
 40
30.0
176
     1
 62
     7
420
 16777215
176
     1
 90
        2
176
     1
 90
        2
176
     1
 62
     7
176
     1
 62
   257
176
     1
 90
        1
176
     1
 90
        1
176
     1
 40
179.0
176
     1
 90
        8
176
     1
 62
     7
176
     1
 40
1.0
176
     1
 90
        1
176
     1
 90
        6
176
     1
 90
        2
176
     1
 62
     7
176
     1
 90
        3
176
     1
 90
        0
176
     1
 90
        0
176
     1
290
     0
176
     1
 90
        1
176
     1
 40
0.0
176
     1
 90
        0
176
     1
290
     0
176
     1
290
     1
176
     1
290
     1
176
     1
290
     0
176
     1
290
     0
176
     1
290
     0
176
     1
290
     0
176
     1
290
     0
176
     1
290
     0
176
     1
 90
       50
176
     1
 40
0.0
176
     1
 40
1.0
176
     1
 90
        0
176
     1
 62
    18
420
        0
176
     1
 90
       50
176
     1
 90
        3
176
     1
 62
     5
420
      255
176
     1
290
     0
176
     1
 90
       50
176
     1
 90
       50
176
     1
 90
       50
176
     1
290
     0
176
     1
 90
       50
176
     1
 62
   256
176
     0
 40
1.0
176
     0
 90
        2
176
     1
  1
strokes_ogs.tif
176
     1
290
     0
176
     1
 40
1.0
176
     1
 40
1.0
176
     1
  0
VISUALSTYLE
  5
34
102
{ACAD_REACTORS
330
29
102
}
330
29
100
AcDbVisualStyle
  2
Dim
 70
    11
177
     3
291
     1
 70
    58
 90
        2
176
     1
 90
        2
176
     1
 90
        0
176
     1
 90
        0
176
     1
 40
0.6
176
     1
 40
30.0
176
     1
 62
     7
420
 16777215
176
     1
 90
        1
176
     1
 90
        4
176
     1
 62
     7
176
     1
 62
   257
176
     1
 90
        1
176
     1
 90
        1
176
     1
 40
1.0
176
     1
 90
        8
176
     1
 62
     7
176
     1
 40
1.0
176
     1
 90
        1
176
     1
 90
        6
176
     1
 90
        2
176
     1
 62
     7
176
     1
 90
        5
176
     1
 90
        0
176
     1
 90
        0
176
     1
290
     0
176
     1
 90
        1
176
     1
 40
-50.0
176
     1
 90
        0
176
     1
290
     0
176
     1
290
     1
176
     1
290
     1
176
     1
290
     0
176
     1
290
     0
176
     1
290
     0
176
     1
290
     0
176
     1
290
     0
176
     1
290
     0
176
     1
 90
       50
176
     1
 40
0.0
176
     1
 40
1.0
176
     1
 90
        0
176
     1
 62
    18
420
        0
176
     1
 90
       50
176
     1
 90
        3
176
     1
 62
     5
420
      255
176
     1
290
     0
176
     1
 90
       50
176
     1
 90
       50
176
     1
 90
       50
176
     1
290
     0
176
     1
 90
       50
176
     1
 62
   256
176
     0
 40
1.0
176
     0
 90
        2
176
     1
  1
strokes_ogs.tif
176
     1
290
     0
176
     1
 40
1.0
176
     1
 40
1.0
176
     1
  0
VISUALSTYLE
  5
41
102
{ACAD_REACTORS
330
29
102
}
330
29
100
AcDbVisualStyle
  2
EdgeColorOff
 70
    22
177
     3
291
     1
 70
    58
 90
        2
176
     0
 90
        2
176
     0
 90
        0
176
     0
 90
        0
176
     0
 40
0.6
176
     0
 40
30.0
176
     0
 62
     7
420
 16777215
176
     0
 90
        1
176
     0
 90
        4
176
     0
 62
     7
176
     0
 62
   257
176
     0
 90
        1
176
     0
 90
        1
176
     0
 40
1.0
176
     0
 90
        8
176
     2
 62
     7
176
     0
 40
1.0
176
     0
 90
        1
176
     0
 90
        6
176
     0
 90
        2
176
     0
 62
     7
176
     0
 90
        5
176
     0
 90
        0
176
     0
 90
        0
176
     0
290
     0
176
     0
 90
        1
176
     0
 40
0.0
176
     0
 90
        0
176
     0
290
     0
176
     0
290
     1
176
     0
290
     1
176
     0
290
     0
176
     0
290
     0
176
     0
290
     0
176
     0
290
     0
176
     0
290
     0
176
     0
290
     0
176
     0
 90
       50
176
     0
 40
0.0
176
     0
 40
1.0
176
     0
 90
        0
176
     0
 62
    18
420
        0
176
     0
 90
       50
176
     0
 90
        3
176
     0
 62
     5
420
      255
176
     0
290
     0
176
     0
 90
       50
176
     0
 90
       50
176
     0
 90
       50
176
     0
290
     0
176
     0
 90
       50
176
     0
 62
   256
176
     0
 40
1.0
176
     0
 90
        2
176
     0
  1
strokes_ogs.tif
176
     0
290
     0
176
     0
 40
1.0
176
     0
 40
1.0
176
     0
  0
VISUALSTYLE
  5
38
102
{ACAD_REACTORS
330
29
102
}
330
29
100
AcDbVisualStyle
  2
Facepattern
 70
    15
177
     3
291
     1
 70
    58
 90
        2
176
     1
 90
        2
176
     1
 90
        0
176
     1
 90
        0
176
     1
 40
0.6
176
     1
 40
30.0
176
     1
 62
     7
420
 16777215
176
     1
 90
        1
176
     1
 90
        4
176
     1
 62
     7
176
     1
 62
   257
176
     1
 90
        1
176
     1
 90
        1
176
     1
 40
1.0
176
     1
 90
        8
176
     1
 62
     7
176
     1
 40
1.0
176
     1
 90
        1
176
     1
 90
        6
176
     1
 90
        2
176
     1
 62
     7
176
     1
 90
        5
176
     1
 90
        0
176
     1
 90
        0
176
     1
290
     0
176
     1
 90
        1
176
     1
 40
0.0
176
     1
 90
        0
176
     1
290
     0
176
     1
290
     1
176
     1
290
     1
176
     1
290
     0
176
     1
290
     0
176
     1
290
     0
176
     1
290
     0
176
     1
290
     0
176
     1
290
     0
176
     1
 90
       50
176
     1
 40
0.0
176
     1
 40
1.0
176
     1
 90
        0
176
     1
 62
    18
420
        0
176
     1
 90
       50
176
     1
 90
        3
176
     1
 62
     5
420
      255
176
     1
290
     0
176
     1
 90
       50
176
     1
 90
       50
176
     1
 90
       50
176
     1
290
     0
176
     1
 90
       50
176
     1
 62
   256
176
     0
 40
1.0
176
     0
 90
        2
176
     1
  1
strokes_ogs.tif
176
     1
290
     0
176
     1
 40
1.0
176
     1
 40
1.0
176
     1
  0
VISUALSTYLE
  5
2A
102
{ACAD_REACTORS
330
29
102
}
330
29
100
AcDbVisualStyle
  2
Flat
 70
     0
177
     3
291
     1
 70
    58
 90
        2
176
     1
 90
        1
176
     1
 90
        1
176
     1
 90
        2
176
     1
 40
0.6
176
     1
 40
30.0
176
     1
 62
     7
420
 16777215
176
     1
 90
        0
176
     1
 90
        0
176
     1
 62
     7
176
     1
 62
   257
176
     1
 90
        1
176
     1
 90
        1
176
     1
 40
1.0
176
     1
 90
        8
176
     1
 62
     7
176
     1
 40
1.0
176
     1
 90
        1
176
     1
 90
        6
176
     1
 90
        2
176
     1
 62
     7
176
     1
 90
        5
176
     1
 90
        0
176
     1
 90
        0
176
     1
290
     0
176
     1
 90
       13
176
     1
 40
0.0
176
     1
 90
        0
176
     1
290
     0
176
     1
290
     1
176
     1
290
     1
176
     1
290
     0
176
     1
290
     0
176
     1
290
     0
176
     1
290
     0
176
     1
290
     0
176
     1
290
     0
176
     1
 90
       50
176
     1
 40
0.0
176
     1
 40
1.0
176
     1
 90
        0
176
     1
 62
    18
420
        0
176
     1
 90
       50
176
     1
 90
        3
176
     1
 62
     5
420
      255
176
     1
290
     0
176
     1
 90
       50
176
     1
 90
       50
176
     1
 90
       50
176
     1
290
     0
176
     1
 90
       50
176
     1
 62
   256
176
     0
 40
1.0
176
     0
 90
        2
176
     1
  1
strokes_ogs.tif
176
     1
290
     0
176
     1
 40
1.0
176
     1
 40
1.0
176
     1
  0
VISUALSTYLE
  5
2B
102
{ACAD_REACTORS
330
29
102
}
330
29
100
AcDbVisualStyle
  2
FlatWithEdges
 70
     1
177
     3
291
     1
 70
    58
 90
        2
176
     1
 90
        1
176
     1
 90
        1
176
     1
 90
        2
176
     1
 40
0.6
176
     1
 40
30.0
176
     1
 62
     7
420
 16777215
176
     1
 90
        1
176
     1
 90
        0
176
     1
 62
     7
176
     1
 62
   257
176
     1
 90
        1
176
     1
 90
        1
176
     1
 40
1.0
176
     1
 90
        0
176
     1
 62
   257
176
     1
 40
1.0
176
     1
 90
        1
176
     1
 90
        6
176
     1
 90
        2
176
     1
 62
     7
176
     1
 90
        5
176
     1
 90
        0
176
     1
 90
        0
176
     1
290
     0
176
     1
 90
       13
176
     1
 40
0.0
176
     1
 90
        0
176
     1
290
     0
176
     1
290
     1
176
     1
290
     1
176
     1
290
     0
176
     1
290
     0
176
     1
290
     0
176
     1
290
     0
176
     1
290
     0
176
     1
290
     0
176
     1
 90
       50
176
     1
 40
0.0
176
     1
 40
1.0
176
     1
 90
        0
176
     1
 62
    18
420
        0
176
     1
 90
       50
176
     1
 90
        3
176
     1
 62
     5
420
      255
176
     1
290
     0
176
     1
 90
       50
176
     1
 90
       50
176
     1
 90
       50
176
     1
290
     0
176
     1
 90
       50
176
     1
 62
   256
176
     0
 40
1.0
176
     0
 90
        2
176
     1
  1
strokes_ogs.tif
176
     1
290
     0
176
     1
 40
1.0
176
     1
 40
1.0
176
     1
  0
VISUALSTYLE
  5
2C
102
{ACAD_REACTORS
330
29
102
}
330
29
100
AcDbVisualStyle
  2
Gouraud
 70
     2
177
     3
291
     1
 70
    58
 90
        2
176
     1
 90
        2
176
     1
 90
        1
176
     1
 90
        2
176
     1
 40
0.6
176
     1
 40
30.0
176
     1
 62
     7
420
 16777215
176
     1
 90
        0
176
     1
 90
        0
176
     1
 62
     7
176
     1
 62
   257
176
     1
 90
        1
176
     1
 90
        1
176
     1
 40
1.0
176
     1
 90
        0
176
     1
 62
     7
176
     1
 40
1.0
176
     1
 90
        1
176
     1
 90
        6
176
     1
 90
        2
176
     1
 62
     7
176
     1
 90
        5
176
     1
 90
        0
176
     1
 90
        0
176
     1
290
     0
176
     1
 90
       13
176
     1
 40
0.0
176
     1
 90
        0
176
     1
290
     0
176
     1
290
     1
176
     1
290
     1
176
     1
290
     0
176
     1
290
     0
176
     1
290
     0
176
     1
290
     0
176
     1
290
     0
176
     1
290
     0
176
     1
 90
       50
176
     1
 40
0.0
176
     1
 40
1.0
176
     1
 90
        0
176
     1
 62
    18
420
        0
176
     1
 90
       50
176
     1
 90
        3
176
     1
 62
     5
420
      255
176
     1
290
     0
176
     1
 90
       50
176
     1
 90
       50
176
     1
 90
       50
176
     1
290
     0
176
     1
 90
       50
176
     1
 62
   256
176
     0
 40
1.0
176
     0
 90
        2
176
     1
  1
strokes_ogs.tif
176
     1
290
     0
176
     1
 40
1.0
176
     1
 40
1.0
176
     1
  0
VISUALSTYLE
  5
2D
102
{ACAD_REACTORS
330
29
102
}
330
29
100
AcDbVisualStyle
  2
GouraudWithEdges
 70
     3
177
     3
291
     1
 70
    58
 90
        2
176
     1
 90
        2
176
     1
 90
        1
176
     1
 90
        2
176
     1
 40
0.6
176
     1
 40
30.0
176
     1
 62
     7
420
 16777215
176
     1
 90
        1
176
     1
 90
        0
176
     1
 62
     7
176
     1
 62
   257
176
     1
 90
        1
176
     1
 90
        1
176
     1
 40
1.0
176
     1
 90
        0
176
     1
 62
   257
176
     1
 40
1.0
176
     1
 90
        1
176
     1
 90
        6
176
     1
 90
        2
176
     1
 62
     7
176
     1
 90
        5
176
     1
 90
        0
176
     1
 90
        0
176
     1
290
     0
176
     1
 90
       13
176
     1
 40
0.0
176
     1
 90
        0
176
     1
290
     0
176
     1
290
     1
176
     1
290
     1
176
     1
290
     0
176
     1
290
     0
176
     1
290
     0
176
     1
290
     0
176
     1
290
     0
176
     1
290
     0
176
     1
 90
       50
176
     1
 40
0.0
176
     1
 40
1.0
176
     1
 90
        0
176
     1
 62
    18
420
        0
176
     1
 90
       50
176
     1
 90
        3
176
     1
 62
     5
420
      255
176
     1
290
     0
176
     1
 90
       50
176
     1
 90
       50
176
     1
 90
       50
176
     1
290
     0
176
     1
 90
       50
176
     1
 62
   256
176
     0
 40
1.0
176
     0
 90
        2
176
     1
  1
strokes_ogs.tif
176
     1
290
     0
176
     1
 40
1.0
176
     1
 40
1.0
176
     1
  0
VISUALSTYLE
  5
31
102
{ACAD_REACTORS
330
29
102
}
330
29
100
AcDbVisualStyle
  2
Hidden
 70
     6
177
     3
291
     0
 70
    58
 90
        1
176
     1
 90
        2
176
     1
 90
        2
176
     1
 90
        0
176
     1
 40
0.6
176
     1
 40
30.0
176
     1
 62
     7
420
 16777215
176
     1
 90
        2
176
     1
 90
        2
176
     1
 62
     7
176
     1
 62
   257
176
     1
 90
        2
176
     1
 90
        1
176
     1
 40
40.0
176
     1
 90
        0
176
     1
 62
   257
176
     1
 40
1.0
176
     1
 90
        1
176
     1
 90
        6
176
     1
 90
        2
176
     1
 62
     7
176
     1
 90
        3
176
     1
 90
        0
176
     1
 90
        0
176
     1
290
     0
176
     1
 90
        1
176
     1
 40
0.0
176
     1
 90
        0
176
     1
290
     0
176
     1
290
     1
176
     1
290
     1
176
     1
290
     0
176
     1
290
     0
176
     1
290
     0
176
     1
290
     0
176
     1
290
     0
176
     1
290
     0
176
     1
 90
       50
176
     1
 40
0.0
176
     1
 40
1.0
176
     1
 90
        0
176
     1
 62
    18
420
        0
176
     1
 90
       50
176
     1
 90
        3
176
     1
 62
     5
420
      255
176
     1
290
     0
176
     1
 90
       50
176
     1
 90
       50
176
     1
 90
       50
176
     1
290
     0
176
     1
 90
       50
176
     1
 62
   256
176
     0
 40
1.0
176
     0
 90
        2
176
     1
  1
strokes_ogs.tif
176
     1
290
     0
176
     1
 40
1.0
176
     1
 40
1.0
176
     1
  0
VISUALSTYLE
  5
3F
102
{ACAD_REACTORS
330
29
102
}
330
29
100
AcDbVisualStyle
  2
JitterOff
 70
    20
177
     3
291
     1
 70
    58
 90
        2
176
     0
 90
        2
176
     0
 90
        0
176
     0
 90
        0
176
     0
 40
0.6
176
     0
 40
30.0
176
     0
 62
     7
420
 16777215
176
     0
 90
        1
176
     0
 90
        4
176
     0
 62
     7
176
     0
 62
   257
176
     0
 90
        1
176
     0
 90
        1
176
     0
 40
1.0
176
     0
 90
       10
176
     2
 62
     7
176
     0
 40
1.0
176
     0
 90
        1
176
     0
 90
        6
176
     0
 90
        2
176
     0
 62
     7
176
     0
 90
        5
176
     0
 90
        0
176
     0
 90
        0
176
     0
290
     0
176
     0
 90
        1
176
     0
 40
0.0
176
     0
 90
        0
176
     0
290
     0
176
     0
290
     1
176
     0
290
     1
176
     0
290
     0
176
     0
290
     0
176
     0
290
     0
176
     0
290
     0
176
     0
290
     0
176
     0
290
     0
176
     0
 90
       50
176
     0
 40
0.0
176
     0
 40
1.0
176
     0
 90
        0
176
     0
 62
    18
420
        0
176
     0
 90
       50
176
     0
 90
        3
176
     0
 62
     5
420
      255
176
     0
290
     0
176
     0
 90
       50
176
     0
 90
       50
176
     0
 90
       50
176
     0
290
     0
176
     0
 90
       50
176
     0
 62
   256
176
     0
 40
1.0
176
     0
 90
        2
176
     0
  1
strokes_ogs.tif
176
     0
290
     0
176
     0
 40
1.0
176
     0
 40
1.0
176
     0
  0
VISUALSTYLE
  5
37
102
{ACAD_REACTORS
330
29
102
}
330
29
100
AcDbVisualStyle
  2
Linepattern
 70
    14
177
     3
291
     1
 70
    58
 90
        2
176
     1
 90
        2
176
     1
 90
        0
176
     1
 90
        0
176
     1
 40
0.6
176
     1
 40
30.0
176
     1
 62
     7
420
 16777215
176
     1
 90
        1
176
     1
 90
        4
176
     1
 62
     7
176
     1
 62
   257
176
     1
 90
        7
176
     1
 90
        7
176
     1
 40
1.0
176
     1
 90
        8
176
     1
 62
     7
176
     1
 40
1.0
176
     1
 90
        1
176
     1
 90
        6
176
     1
 90
        2
176
     1
 62
     7
176
     1
 90
        5
176
     1
 90
        0
176
     1
 90
        0
176
     1
290
     0
176
     1
 90
        1
176
     1
 40
0.0
176
     1
 90
        0
176
     1
290
     0
176
     1
290
     1
176
     1
290
     1
176
     1
290
     0
176
     1
290
     0
176
     1
290
     0
176
     1
290
     0
176
     1
290
     0
176
     1
290
     0
176
     1
 90
       50
176
     1
 40
0.0
176
     1
 40
1.0
176
     1
 90
        0
176
     1
 62
    18
420
        0
176
     1
 90
       50
176
     1
 90
        3
176
     1
 62
     5
420
      255
176
     1
290
     0
176
     1
 90
       50
176
     1
 90
       50
176
     1
 90
       50
176
     1
290
     0
176
     1
 90
       50
176
     1
 62
   256
176
     0
 40
1.0
176
     0
 90
        2
176
     1
  1
strokes_ogs.tif
176
     1
290
     0
176
     1
 40
1.0
176
     1
 40
1.0
176
     1
  0
VISUALSTYLE
  5
40
102
{ACAD_REACTORS
330
29
102
}
330
29
100
AcDbVisualStyle
  2
OverhangOff
 70
    21
177
     3
291
     1
 70
    58
 90
        2
176
     0
 90
        2
176
     0
 90
        0
176
     0
 90
        0
176
     0
 40
0.6
176
     0
 40
30.0
176
     0
 62
     7
420
 16777215
176
     0
 90
        1
176
     0
 90
        4
176
     0
 62
     7
176
     0
 62
   257
176
     0
 90
        1
176
     0
 90
        1
176
     0
 40
1.0
176
     0
 90
        9
176
     2
 62
     7
176
     0
 40
1.0
176
     0
 90
        1
176
     0
 90
        6
176
     0
 90
        2
176
     0
 62
     7
176
     0
 90
        5
176
     0
 90
        0
176
     0
 90
        0
176
     0
290
     0
176
     0
 90
        1
176
     0
 40
0.0
176
     0
 90
        0
176
     0
290
     0
176
     0
290
     1
176
     0
290
     1
176
     0
290
     0
176
     0
290
     0
176
     0
290
     0
176
     0
290
     0
176
     0
290
     0
176
     0
290
     0
176
     0
 90
       50
176
     0
 40
0.0
176
     0
 40
1.0
176
     0
 90
        0
176
     0
 62
    18
420
        0
176
     0
 90
       50
176
     0
 90
        3
176
     0
 62
     5
420
      255
176
     0
290
     0
176
     0
 90
       50
176
     0
 90
       50
176
     0
 90
       50
176
     0
290
     0
176
     0
 90
       50
176
     0
 62
   256
176
     0
 40
1.0
176
     0
 90
        2
176
     0
  1
strokes_ogs.tif
176
     0
290
     0
176
     0
 40
1.0
176
     0
 40
1.0
176
     0
  0
VISUALSTYLE
  5
33
102
{ACAD_REACTORS
330
29
102
}
330
29
100
AcDbVisualStyle
  2
Realistic
 70
     8
177
     3
291
     0
 70
    58
 90
        2
176
     1
 90
        3
176
     1
 90
        0
176
     1
 90
        2
176
     1
 40
0.6
176
     1
 40
30.0
176
     1
 62
     7
420
 16777215
176
     1
 90
        0
176
     1
 90
        0
176
     1
 62
     7
176
     1
 62
   257
176
     1
 90
        1
176
     1
 90
        1
176
     1
 40
1.0
176
     1
 90
        8
176
     1
 62
   257
176
     1
 40
1.0
176
     1
 90
        1
176
     1
 90
        6
176
     1
 90
        2
176
     1
 62
     7
176
     1
 90
        3
176
     1
 90
        0
176
     1
 90
        0
176
     1
290
     0
176
     1
 90
       13
176
     1
 40
0.0
176
     1
 90
        0
176
     1
290
     0
176
     1
290
     1
176
     1
290
     1
176
     1
290
     0
176
     1
290
     0
176
     1
290
     0
176
     1
290
     0
176
     1
290
     0
176
     1
290
     0
176
     1
 90
       50
176
     1
 40
0.0
176
     1
 40
1.0
176
     1
 90
        0
176
     1
 62
    18
420
        0
176
     1
 90
       50
176
     1
 90
        3
176
     1
 62
     5
420
      255
176
     1
290
     0
176
     1
 90
       50
176
     1
 90
       50
176
     1
 90
       50
176
     1
290
     0
176
     1
 90
       50
176
     1
 62
   256
176
     0
 40
1.0
176
     0
 90
        2
176
     1
  1
strokes_ogs.tif
176
     1
290
     0
176
     1
 40
1.0
176
     1
 40
1.0
176
     1
  0
VISUALSTYLE
  5
3E
102
{ACAD_REACTORS
330
29
102
}
330
29
100
AcDbVisualStyle
  2
Shaded
 70
    27
177
     3
291
     0
 70
    58
 90
        2
176
     1
 90
        2
176
     1
 90
        1
176
     1
 90
        2
176
     1
 40
0.6
176
     1
 40
30.0
176
     1
 62
     7
420
 16777215
176
     1
 90
        0
176
     1
 90
        4
176
     1
 62
     7
176
     1
 62
   257
176
     1
 90
        1
176
     1
 90
        1
176
     1
 40
1.0
176
     1
 90
        8
176
     1
 62
   257
176
     1
 40
1.0
176
     1
 90
        1
176
     1
 90
        6
176
     1
 90
        2
176
     1
 62
     8
420
  7895160
176
     1
 90
        3
176
     1
 90
        0
176
     1
 90
        0
176
     1
290
     0
176
     1
 90
        5
176
     1
 40
0.0
176
     1
 90
        0
176
     1
290
     0
176
     1
290
     1
176
     1
290
     1
176
     1
290
     0
176
     1
290
     0
176
     1
290
     0
176
     1
290
     0
176
     1
290
     0
176
     1
290
     0
176
     1
 90
       50
176
     1
 40
0.0
176
     1
 40
1.0
176
     1
 90
        0
176
     1
 62
    18
420
        0
176
     1
 90
       50
176
     1
 90
        3
176
     1
 62
     5
420
      255
176
     1
290
     0
176
     1
 90
       50
176
     1
 90
       50
176
     1
 90
       50
176
     1
290
     0
176
     1
 90
       50
176
     1
 62
   256
176
     0
 40
1.0
176
     0
 90
        2
176
     1
  1
strokes_ogs.tif
176
     1
290
     0
176
     1
 40
1.0
176
     1
 40
1.0
176
     1
  0
VISUALSTYLE
  5
3D
102
{ACAD_REACTORS
330
29
102
}
330
29
100
AcDbVisualStyle
  2
Shaded with edges
 70
    26
177
     3
291
     0
 70
    58
 90
        2
176
     1
 90
        2
176
     1
 90
        1
176
     1
 90
        2
176
     1
 40
0.6
176
     1
 40
30.0
176
     1
 62
     7
420
 16777215
176
     1
 90
        1
176
     1
 90
       10
176
     1
 62
     7
176
     1
 62
   257
176
     1
 90
        2
176
     1
 90
        1
176
     1
 40
1.0
176
     1
 90
        8
176
     1
 62
   257
176
     1
 40
1.0
176
     1
 90
        1
176
     1
 90
        6
176
     1
 90
        2
176
     1
 62
     7
176
     1
 90
        3
176
     1
 90
        0
176
     1
 90
        0
176
     1
290
     0
176
     1
 90
        5
176
     1
 40
0.0
176
     1
 90
        0
176
     1
290
     0
176
     1
290
     1
176
     1
290
     1
176
     1
290
     0
176
     1
290
     0
176
     1
290
     0
176
     1
290
     0
176
     1
290
     0
176
     1
290
     0
176
     1
 90
       50
176
     1
 40
0.0
176
     1
 40
1.0
176
     1
 90
        0
176
     1
 62
    18
420
        0
176
     1
 90
       50
176
     1
 90
        3
176
     1
 62
     5
420
      255
176
     1
290
     0
176
     1
 90
       50
176
     1
 90
       50
176
     1
 90
       50
176
     1
290
     0
176
     1
 90
       50
176
     1
 62
   256
176
     0
 40
1.0
176
     0
 90
        2
176
     1
  1
strokes_ogs.tif
176
     1
290
     0
176
     1
 40
1.0
176
     1
 40
1.0
176
     1
  0
VISUALSTYLE
  5
3A
102
{ACAD_REACTORS
330
29
102
}
330
29
100
AcDbVisualStyle
  2
Shades of Gray
 70
    23
177
     3
291
     0
 70
    58
 90
        2
176
     1
 90
        2
176
     1
 90
        3
176
     1
 90
        0
176
     1
 40
0.6
176
     1
 40
30.0
176
     1
 62
     7
420
 16777215
176
     1
 90
        2
176
     1
 90
        2
176
     1
 62
     7
176
     1
 62
     7
176
     1
 90
        1
176
     1
 90
        1
176
     1
 40
40.0
176
     1
 90
        8
176
     1
 62
     7
176
     1
 40
1.0
176
     1
 90
        1
176
     1
 90
        6
176
     1
 90
        2
176
     1
 62
     7
176
     1
 90
        3
176
     1
 90
        0
176
     1
 90
        0
176
     1
290
     0
176
     1
 90
        1
176
     1
 40
0.0
176
     1
 90
        0
176
     1
290
     0
176
     1
290
     1
176
     1
290
     1
176
     1
290
     0
176
     1
290
     0
176
     1
290
     0
176
     1
290
     0
176
     1
290
     0
176
     1
290
     0
176
     1
 90
       50
176
     1
 40
0.0
176
     1
 40
1.0
176
     1
 90
        0
176
     1
 62
    18
420
        0
176
     1
 90
       50
176
     1
 90
        3
176
     1
 62
     5
420
      255
176
     1
290
     0
176
     1
 90
       50
176
     1
 90
       50
176
     1
 90
       50
176
     1
290
     0
176
     1
 90
       50
176
     1
 62
   256
176
     0
 40
1.0
176
     0
 90
        2
176
     1
  1
strokes_ogs.tif
176
     1
290
     0
176
     1
 40
1.0
176
     1
 40
1.0
176
     1
  0
VISUALSTYLE
  5
3B
102
{ACAD_REACTORS
330
29
102
}
330
29
100
AcDbVisualStyle
  2
Sketchy
 70
    24
177
     3
291
     0
 70
    58
 90
        1
176
     1
 90
        2
176
     1
 90
        2
176
     1
 90
        0
176
     1
 40
0.6
176
     1
 40
30.0
176
     1
 62
     7
420
 16777215
176
     1
 90
        2
176
     1
 90
        2
176
     1
 62
     7
176
     1
 62
     7
176
     1
 90
        1
176
     1
 90
        1
176
     1
 40
40.0
176
     1
 90
       11
176
     1
 62
     7
176
     1
 40
1.0
176
     1
 90
        1
176
     1
 90
        6
176
     1
 90
        2
176
     1
 62
     7
176
     1
 90
        6
176
     1
 90
        0
176
     1
 90
        0
176
     1
290
     0
176
     1
 90
        1
176
     1
 40
0.0
176
     1
 90
        0
176
     1
290
     0
176
     1
290
     1
176
     1
290
     1
176
     1
290
     0
176
     1
290
     0
176
     1
290
     0
176
     1
290
     0
176
     1
290
     0
176
     1
290
     0
176
     1
 90
       50
176
     1
 40
0.0
176
     1
 40
1.0
176
     1
 90
        0
176
     1
 62
    18
420
        0
176
     1
 90
       50
176
     1
 90
        3
176
     1
 62
     5
420
      255
176
     1
290
     0
176
     1
 90
       50
176
     1
 90
       50
176
     1
 90
       50
176
     1
290
     0
176
     1
 90
       50
176
     1
 62
   256
176
     0
 40
1.0
176
     0
 90
        2
176
     1
  1
strokes_ogs.tif
176
     1
290
     0
176
     1
 40
1.0
176
     1
 40
1.0
176
     1
  0
VISUALSTYLE
  5
36
102
{ACAD_REACTORS
330
29
102
}
330
29
100
AcDbVisualStyle
  2
Thicken
 70
    13
177
     3
291
     1
 70
    58
 90
        2
176
     1
 90
        2
176
     1
 90
        0
176
     1
 90
        0
176
     1
 40
0.6
176
     1
 40
30.0
176
     1
 62
     7
420
 16777215
176
     1
 90
        1
176
     1
 90
        4
176
     1
 62
     7
176
     1
 62
   257
176
     1
 90
        1
176
     1
 90
        1
176
     1
 40
1.0
176
     1
 90
       12
176
     1
 62
     7
176
     1
 40
1.0
176
     1
 90
        1
176
     1
 90
        6
176
     1
 90
        2
176
     1
 62
     7
176
     1
 90
        5
176
     1
 90
        0
176
     1
 90
        0
176
     1
290
     0
176
     1
 90
        1
176
     1
 40
0.0
176
     1
 90
        0
176
     1
290
     0
176
     1
290
     1
176
     1
290
     1
176
     1
290
     0
176
     1
290
     0
176
     1
290
     0
176
     1
290
     0
176
     1
290
     0
176
     1
290
     0
176
     1
 90
       50
176
     1
 40
0.0
176
     1
 40
1.0
176
     1
 90
        0
176
     1
 62
    18
420
        0
176
     1
 90
       50
176
     1
 90
        3
176
     1
 62
     5
420
      255
176
     1
290
     0
176
     1
 90
       50
176
     1
 90
       50
176
     1
 90
       50
176
     1
290
     0
176
     1
 90
       50
176
     1
 62
   256
176
     0
 40
1.0
176
     0
 90
        2
176
     1
  1
strokes_ogs.tif
176
     1
290
     0
176
     1
 40
1.0
176
     1
 40
1.0
176
     1
  0
VISUALSTYLE
  5
30
102
{ACAD_REACTORS
330
29
102
}
330
29
100
AcDbVisualStyle
  2
Wireframe
 70
     5
177
     3
291
     0
 70
    58
 90
        0
176
     1
 90
        2
176
     1
 90
        0
176
     1
 90
        0
176
     1
 40
0.6
176
     1
 40
30.0
176
     1
 62
     7
420
 16777215
176
     1
 90
        1
176
     1
 90
        4
176
     1
 62
     7
176
     1
 62
   257
176
     1
 90
        1
176
     1
 90
        1
176
     1
 40
1.0
176
     1
 90
        0
176
     1
 62
   257
176
     1
 40
1.0
176
     1
 90
        1
176
     1
 90
        6
176
     1
 90
        2
176
     1
 62
     7
176
     1
 90
        3
176
     1
 90
        0
176
     1
 90
        0
176
     1
290
     0
176
     1
 90
        1
176
     1
 40
0.0
176
     1
 90
        0
176
     1
290
     0
176
     1
290
     1
176
     1
290
     1
176
     1
290
     0
176
     1
290
     0
176
     1
290
     0
176
     1
290
     0
176
     1
290
     0
176
     1
290
     0
176
     1
 90
       50
176
     1
 40
0.0
176
     1
 40
1.0
176
     1
 90
        0
176
     1
 62
    18
420
        0
176
     1
 90
       50
176
     1
 90
        3
176
     1
 62
     5
420
      255
176
     1
290
     0
176
     1
 90
       50
176
     1
 90
       50
176
     1
 90
       50
176
     1
290
     0
176
     1
 90
       50
176
     1
 62
   256
176
     0
 40
1.0
176
     0
 90
        2
176
     1
  1
strokes_ogs.tif
176
     1
290
     0
176
     1
 40
1.0
176
     1
 40
1.0
176
     1
  0
VISUALSTYLE
  5
3C
102
{ACAD_REACTORS
330
29
102
}
330
29
100
AcDbVisualStyle
  2
X-Ray
 70
    25
177
     3
291
     0
 70
    58
 90
        2
176
     1
 90
        2
176
     1
 90
        1
176
     1
 90
        1
176
     1
 40
0.5
176
     1
 40
30.0
176
     1
 62
     7
420
 16777215
176
     1
 90
        1
176
     1
 90
        0
176
     1
 62
     7
176
     1
 62
   257
176
     1
 90
        1
176
     1
 90
        1
176
     1
 40
1.0
176
     1
 90
        8
176
     1
 62
     7
176
     1
 40
1.0
176
     1
 90
        1
176
     1
 90
        6
176
     1
 90
        2
176
     1
 62
     7
176
     1
 90
        3
176
     1
 90
        0
176
     1
 90
        0
176
     1
290
     0
176
     1
 90
       13
176
     1
 40
0.0
176
     1
 90
        0
176
     1
290
     0
176
     1
290
     1
176
     1
290
     1
176
     1
290
     0
176
     1
290
     0
176
     1
290
     0
176
     1
290
     0
176
     1
290
     0
176
     1
290
     0
176
     1
 90
       50
176
     1
 40
0.0
176
     1
 40
1.0
176
     1
 90
        0
176
     1
 62
    18
420
        0
176
     1
 90
       50
176
     1
 90
        3
176
     1
 62
     5
420
      255
176
     1
290
     0
176
     1
 90
       50
176
     1
 90
       50
176
     1
 90
       50
176
     1
290
     0
176
     1
 90
       50
176
     1
 62
   256
176
     0
 40
1.0
176
     0
 90
        2
176
     1
  1
strokes_ogs.tif
176
     1
290
     0
176
     1
 40
1.0
176
     1
 40
1.0
176
     1
  0
DICTIONARYVAR
  5
81
102
{ACAD_REACTORS
330
7C
102
}
330
7C
100
DictionaryVariables
280
     0
  1
1:1
  0
DICTIONARYVAR
  5
7E
102
{ACAD_REACTORS
330
7C
102
}
330
7C
100
DictionaryVariables
280
     0
  1
STANDARD
  0
DICTIONARYVAR
  5
7D
102
{ACAD_REACTORS
330
7C
102
}
330
7C
100
DictionaryVariables
280
     0
  1
STANDARD
  0
DICTIONARYVAR
  5
7F
102
{ACAD_REACTORS
330
7C
102
}
330
7C
100
DictionaryVariables
280
     0
  1
Imperial24
  0
DICTIONARYVAR
  5
80
102
{ACAD_REACTORS
330
7C
102
}
330
7C
100
DictionaryVariables
280
     0
  1
Imperial24
  0
XRECORD
  5
278
102
{ACAD_REACTORS
330
275
102
}
330
275
100
AcDbXrecord
280
     1
  1
BUILDING_ID
  1
Progetto per messa in tavola DXF, DWG
  1
FLOOR_ID
  1
694395
  0
XRECORD
  5
277
102
{ACAD_REACTORS
330
275
102
}
330
275
100
AcDbXrecord
280
     1
  1
-2001160
  1
Apparecchi idraulici
  0
XRECORD
  5
276
102
{ACAD_REACTORS
330
275
102
}
330
275
100
AcDbXrecord
280
     1
  1
975047
  1
Automatic flow rate regulator valve_Caleffi_121 DN15 : 3/4''_Insulation
  1
982133
  1
Automatic flow rate regulator valve_Caleffi_121 DN15 : 1 1/2''_Insulation
  0
DICTIONARY
  5
1A
330
19
100
AcDbDictionary
280
     1
281
     1
  3
BUMPTILE
360
1C
  3
DIFFUSETILE
360
1B
  3
OPACITYTILE
360
1F
  3
REFLECTIONTILE
360
1E
  3
REFRACTIONTILE
360
20
  3
SPECULARTILE
360
1D
  0
DICTIONARY
  5
12
330
11
100
AcDbDictionary
280
     1
281
     1
  3
BUMPTILE
360
14
  3
DIFFUSETILE
360
13
  3
OPACITYTILE
360
17
  3
REFLECTIONTILE
360
16
  3
REFRACTIONTILE
360
18
  3
SPECULARTILE
360
15
  0
DICTIONARY
  5
22
330
21
100
AcDbDictionary
280
     1
281
     1
  3
BUMPTILE
360
24
  3
DIFFUSETILE
360
23
  3
OPACITYTILE
360
27
  3
REFLECTIONTILE
360
26
  3
REFRACTIONTILE
360
28
  3
SPECULARTILE
360
25
  0
DICTIONARY
  5
27B
330
65
100
AcDbDictionary
280
     1
281
     1
  3
ACAD_ROUNDTRIP_2008_TABLESTYLE_CELLSTYLEMAP
360
27C
  0
XRECORD
  5
1C
102
{ACAD_REACTORS
330
1A
102
}
330
1A
100
AcDbXrecord
280
     1
270
     1
271
     1
  0
XRECORD
  5
1B
102
{ACAD_REACTORS
330
1A
102
}
330
1A
100
AcDbXrecord
280
     1
270
     1
271
     1
  0
XRECORD
  5
1F
102
{ACAD_REACTORS
330
1A
102
}
330
1A
100
AcDbXrecord
280
     1
270
     1
271
     1
  0
XRECORD
  5
1E
102
{ACAD_REACTORS
330
1A
102
}
330
1A
100
AcDbXrecord
280
     1
270
     1
271
     1
  0
XRECORD
  5
20
102
{ACAD_REACTORS
330
1A
102
}
330
1A
100
AcDbXrecord
280
     1
270
     1
271
     1
  0
XRECORD
  5
1D
102
{ACAD_REACTORS
330
1A
102
}
330
1A
100
AcDbXrecord
280
     1
270
     1
271
     1
  0
XRECORD
  5
14
102
{ACAD_REACTORS
330
12
102
}
330
12
100
AcDbXrecord
280
     1
270
     1
271
     1
  0
XRECORD
  5
13
102
{ACAD_REACTORS
330
12
102
}
330
12
100
AcDbXrecord
280
     1
270
     1
271
     1
  0
XRECORD
  5
17
102
{ACAD_REACTORS
330
12
102
}
330
12
100
AcDbXrecord
280
     1
270
     1
271
     1
  0
XRECORD
  5
16
102
{ACAD_REACTORS
330
12
102
}
330
12
100
AcDbXrecord
280
     1
270
     1
271
     1
  0
XRECORD
  5
18
102
{ACAD_REACTORS
330
12
102
}
330
12
100
AcDbXrecord
280
     1
270
     1
271
     1
  0
XRECORD
  5
15
102
{ACAD_REACTORS
330
12
102
}
330
12
100
AcDbXrecord
280
     1
270
     1
271
     1
  0
XRECORD
  5
24
102
{ACAD_REACTORS
330
22
102
}
330
22
100
AcDbXrecord
280
     1
270
     1
271
     1
  0
XRECORD
  5
23
102
{ACAD_REACTORS
330
22
102
}
330
22
100
AcDbXrecord
280
     1
270
     1
271
     1
  0
XRECORD
  5
27
102
{ACAD_REACTORS
330
22
102
}
330
22
100
AcDbXrecord
280
     1
270
     1
271
     1
  0
XRECORD
  5
26
102
{ACAD_REACTORS
330
22
102
}
330
22
100
AcDbXrecord
280
     1
270
     1
271
     1
  0
XRECORD
  5
28
102
{ACAD_REACTORS
330
22
102
}
330
22
100
AcDbXrecord
280
     1
270
     1
271
     1
  0
XRECORD
  5
25
102
{ACAD_REACTORS
330
22
102
}
330
22
100
AcDbXrecord
280
     1
270
     1
271
     1
  0
CELLSTYLEMAP
  5
27C
102
{ACAD_REACTORS
330
27B
102
}
330
27B
100
AcDbCellStyleMap
 90
        3
300
CELLSTYLE
  1
TABLEFORMAT_BEGIN
 90
        5
170
     1
 91
        0
 92
    32768
 62
   257
 93
        1
300
CONTENTFORMAT
  1
CONTENTFORMAT_BEGIN
 90
        0
 91
        0
 92
      512
 93
        0
300

 40
0.0
140
1.0
 94
        5
 62
     0
340
55
144
0.25
309
CONTENTFORMAT_END
171
     0
 94
        0
309
TABLEFORMAT_END
  1
CELLSTYLE_BEGIN
 90
        1
 91
        1
300
_TITLE
309
CELLSTYLE_END
300
CELLSTYLE
  1
TABLEFORMAT_BEGIN
 90
        5
170
     1
 91
        0
 92
        0
 62
   257
 93
        1
300
CONTENTFORMAT
  1
CONTENTFORMAT_BEGIN
 90
        0
 91
        0
 92
      512
 93
        0
300

 40
0.0
140
1.0
 94
        5
 62
     0
340
55
144
0.18
309
CONTENTFORMAT_END
171
     0
 94
        0
309
TABLEFORMAT_END
  1
CELLSTYLE_BEGIN
 90
        2
 91
        1
300
_HEADER
309
CELLSTYLE_END
300
CELLSTYLE
  1
TABLEFORMAT_BEGIN
 90
        5
170
     1
 91
        0
 92
        0
 62
   257
 93
        1
300
CONTENTFORMAT
  1
CONTENTFORMAT_BEGIN
 90
        0
 91
        0
 92
      512
 93
        0
300

 40
0.0
140
1.0
 94
        2
 62
     0
340
55
144
0.18
309
CONTENTFORMAT_END
171
     0
 94
        0
309
TABLEFORMAT_END
  1
CELLSTYLE_BEGIN
 90
        3
 91
        2
300
_DATA
309
CELLSTYLE_END
  0
ENDSEC
  0
EOF
