  0
SECTION
  2
HEADER
  9
$ACADVER
  1
AC1027
  9
$ACADMAINTVER
 70
    20
  9
$DWGCODEPAGE
  3
ANSI_1252
  9
$REQUIREDVERSIONS
160
                 0
  9
$INSBASE
 10
0.0
 20
0.0
 30
0.0
  9
$EXTMIN
 10
743.285599393053
 20
1441.354668938551
 30
-0.00000001
  9
$EXTMAX
 10
1313.72824481076
 20
2060.629762835001
 30
0.00000001
  9
$LIMMIN
 10
0.0
 20
0.0
  9
$LIMMAX
 10
12.0
 20
9.0
  9
$ORTHOMODE
 70
     0
  9
$REGENMODE
 70
     1
  9
$FILLMODE
 70
     1
  9
$QTEXTMODE
 70
     0
  9
$MIRRTEXT
 70
     0
  9
$LTSCALE
 40
1.0
  9
$ATTMODE
 70
     1
  9
$TEXTSIZE
 40
0.2
  9
$TRACEWID
 40
0.05
  9
$TEXTSTYLE
  7
Standard
  9
$CLAYER
  8
0
  9
$CELTYPE
  6
ByLayer
  9
$CECOLOR
 62
   256
  9
$CELTSCALE
 40
1.0
  9
$DISPSILH
 70
     0
  9
$DIMSCALE
 40
1.0
  9
$DIMASZ
 40
0.18
  9
$DIMEXO
 40
0.0625
  9
$DIMDLI
 40
0.38
  9
$DIMRND
 40
0.0
  9
$DIMDLE
 40
0.0
  9
$DIMEXE
 40
0.18
  9
$DIMTP
 40
0.0
  9
$DIMTM
 40
0.0
  9
$DIMTXT
 40
0.18
  9
$DIMCEN
 40
0.09
  9
$DIMTSZ
 40
0.0
  9
$DIMTOL
 70
     0
  9
$DIMLIM
 70
     0
  9
$DIMTIH
 70
     1
  9
$DIMTOH
 70
     1
  9
$DIMSE1
 70
     0
  9
$DIMSE2
 70
     0
  9
$DIMTAD
 70
     0
  9
$DIMZIN
 70
     0
  9
$DIMBLK
  1

  9
$DIMASO
 70
     1
  9
$DIMSHO
 70
     1
  9
$DIMPOST
  1

  9
$DIMAPOST
  1

  9
$DIMALT
 70
     0
  9
$DIMALTD
 70
     2
  9
$DIMALTF
 40
25.4
  9
$DIMLFAC
 40
1.0
  9
$DIMTOFL
 70
     0
  9
$DIMTVP
 40
0.0
  9
$DIMTIX
 70
     0
  9
$DIMSOXD
 70
     0
  9
$DIMSAH
 70
     0
  9
$DIMBLK1
  1

  9
$DIMBLK2
  1

  9
$DIMSTYLE
  2
Standard
  9
$DIMCLRD
 70
     0
  9
$DIMCLRE
 70
     0
  9
$DIMCLRT
 70
     0
  9
$DIMTFAC
 40
1.0
  9
$DIMGAP
 40
0.09
  9
$DIMJUST
 70
     0
  9
$DIMSD1
 70
     0
  9
$DIMSD2
 70
     0
  9
$DIMTOLJ
 70
     1
  9
$DIMTZIN
 70
     0
  9
$DIMALTZ
 70
     0
  9
$DIMALTTZ
 70
     0
  9
$DIMUPT
 70
     0
  9
$DIMDEC
 70
     4
  9
$DIMTDEC
 70
     4
  9
$DIMALTU
 70
     2
  9
$DIMALTTD
 70
     2
  9
$DIMTXSTY
  7
Standard
  9
$DIMAUNIT
 70
     0
  9
$DIMADEC
 70
     0
  9
$DIMALTRND
 40
0.0
  9
$DIMAZIN
 70
     0
  9
$DIMDSEP
 70
    46
  9
$DIMATFIT
 70
     3
  9
$DIMFRAC
 70
     0
  9
$DIMLDRBLK
  1

  9
$DIMLUNIT
 70
     2
  9
$DIMLWD
 70
    -2
  9
$DIMLWE
 70
    -2
  9
$DIMTMOVE
 70
     0
  9
$DIMFXL
 40
1.0
  9
$DIMFXLON
 70
     0
  9
$DIMJOGANG
 40
0.7853981633974483
  9
$DIMTFILL
 70
     0
  9
$DIMTFILLCLR
 70
     0
  9
$DIMARCSYM
 70
     0
  9
$DIMLTYPE
  6

  9
$DIMLTEX1
  6

  9
$DIMLTEX2
  6

  9
$DIMTXTDIRECTION
 70
     0
  9
$LUNITS
 70
     2
  9
$LUPREC
 70
     4
  9
$SKETCHINC
 40
0.1
  9
$FILLETRAD
 40
0.0
  9
$AUNITS
 70
     0
  9
$AUPREC
 70
     0
  9
$MENU
  1
.
  9
$ELEVATION
 40
0.0
  9
$PELEVATION
 40
0.0
  9
$THICKNESS
 40
0.0
  9
$LIMCHECK
 70
     0
  9
$CHAMFERA
 40
0.0
  9
$CHAMFERB
 40
0.0
  9
$CHAMFERC
 40
0.0
  9
$CHAMFERD
 40
0.0
  9
$SKPOLY
 70
     0
  9
$TDCREATE
 40
2457585.416784699
  9
$TDUCREATE
 40
2457585.333451366
  9
$TDUPDATE
 40
2457585.416784699
  9
$TDUUPDATE
 40
2457585.333451366
  9
$TDINDWG
 40
0.0000203935
  9
$TDUSRTIMER
 40
0.0000203935
  9
$USRTIMER
 70
     1
  9
$ANGBASE
 50
0.0
  9
$ANGDIR
 70
     0
  9
$PDMODE
 70
     0
  9
$PDSIZE
 40
0.0
  9
$PLINEWID
 40
0.0
  9
$SPLFRAME
 70
     0
  9
$SPLINETYPE
 70
     6
  9
$SPLINESEGS
 70
     8
  9
$HANDSEED
  5
315
  9
$SURFTAB1
 70
     6
  9
$SURFTAB2
 70
     6
  9
$SURFTYPE
 70
     6
  9
$SURFU
 70
     6
  9
$SURFV
 70
     6
  9
$UCSBASE
  2

  9
$UCSNAME
  2

  9
$UCSORG
 10
0.0
 20
0.0
 30
0.0
  9
$UCSXDIR
 10
1.0
 20
0.0
 30
0.0
  9
$UCSYDIR
 10
0.0
 20
1.0
 30
0.0
  9
$UCSORTHOREF
  2

  9
$UCSORTHOVIEW
 70
     0
  9
$UCSORGTOP
 10
0.0
 20
0.0
 30
0.0
  9
$UCSORGBOTTOM
 10
0.0
 20
0.0
 30
0.0
  9
$UCSORGLEFT
 10
0.0
 20
0.0
 30
0.0
  9
$UCSORGRIGHT
 10
0.0
 20
0.0
 30
0.0
  9
$UCSORGFRONT
 10
0.0
 20
0.0
 30
0.0
  9
$UCSORGBACK
 10
0.0
 20
0.0
 30
0.0
  9
$PUCSBASE
  2

  9
$PUCSNAME
  2

  9
$PUCSORG
 10
0.0
 20
0.0
 30
0.0
  9
$PUCSXDIR
 10
1.0
 20
0.0
 30
0.0
  9
$PUCSYDIR
 10
0.0
 20
1.0
 30
0.0
  9
$PUCSORTHOREF
  2

  9
$PUCSORTHOVIEW
 70
     0
  9
$PUCSORGTOP
 10
0.0
 20
0.0
 30
0.0
  9
$PUCSORGBOTTOM
 10
0.0
 20
0.0
 30
0.0
  9
$PUCSORGLEFT
 10
0.0
 20
0.0
 30
0.0
  9
$PUCSORGRIGHT
 10
0.0
 20
0.0
 30
0.0
  9
$PUCSORGFRONT
 10
0.0
 20
0.0
 30
0.0
  9
$PUCSORGBACK
 10
0.0
 20
0.0
 30
0.0
  9
$USERI1
 70
     0
  9
$USERI2
 70
     0
  9
$USERI3
 70
     0
  9
$USERI4
 70
     0
  9
$USERI5
 70
     0
  9
$USERR1
 40
0.0
  9
$USERR2
 40
0.0
  9
$USERR3
 40
0.0
  9
$USERR4
 40
0.0
  9
$USERR5
 40
0.0
  9
$WORLDVIEW
 70
     1
  9
$SHADEDGE
 70
     3
  9
$SHADEDIF
 70
    70
  9
$TILEMODE
 70
     1
  9
$MAXACTVP
 70
    64
  9
$PINSBASE
 10
0.0
 20
0.0
 30
0.0
  9
$PLIMCHECK
 70
     0
  9
$PEXTMIN
 10
1.000000000000000E+20
 20
1.000000000000000E+20
 30
1.000000000000000E+20
  9
$PEXTMAX
 10
-1.000000000000000E+20
 20
-1.000000000000000E+20
 30
-1.000000000000000E+20
  9
$PLIMMIN
 10
0.0
 20
0.0
  9
$PLIMMAX
 10
12.0
 20
9.0
  9
$UNITMODE
 70
     0
  9
$VISRETAIN
 70
     1
  9
$PLINEGEN
 70
     0
  9
$PSLTSCALE
 70
     1
  9
$TREEDEPTH
 70
  3020
  9
$CMLSTYLE
  2
Standard
  9
$CMLJUST
 70
     0
  9
$CMLSCALE
 40
1.0
  9
$PROXYGRAPHICS
 70
     1
  9
$MEASUREMENT
 70
     1
  9
$CELWEIGHT
370
    -1
  9
$ENDCAPS
280
     0
  9
$JOINSTYLE
280
     0
  9
$LWDISPLAY
290
     0
  9
$INSUNITS
 70
     4
  9
$HYPERLINKBASE
  1

  9
$STYLESHEET
  1

  9
$XEDIT
290
     1
  9
$CEPSNTYPE
380
     0
  9
$PSTYLEMODE
290
     1
  9
$FINGERPRINTGUID
  2
{154A327D-5B3D-4123-933D-1B1C6244DCDE}
  9
$VERSIONGUID
  2
{4115663A-D81F-4C1D-B5E0-C49498ABE97E}
  9
$EXTNAMES
290
     1
  9
$PSVPSCALE
 40
0.0
  9
$OLESTARTUP
290
     0
  9
$SORTENTS
280
   127
  9
$INDEXCTL
280
     0
  9
$HIDETEXT
280
     1
  9
$XCLIPFRAME
280
     2
  9
$HALOGAP
280
     0
  9
$OBSCOLOR
 70
   257
  9
$OBSLTYPE
280
     0
  9
$INTERSECTIONDISPLAY
280
     0
  9
$INTERSECTIONCOLOR
 70
   257
  9
$DIMASSOC
280
     2
  9
$PROJECTNAME
  1

  9
$CAMERADISPLAY
290
     0
  9
$LENSLENGTH
 40
50.0
  9
$CAMERAHEIGHT
 40
0.0
  9
$STEPSPERSEC
 40
2.0
  9
$STEPSIZE
 40
6.0
  9
$3DDWFPREC
 40
2.0
  9
$PSOLWIDTH
 40
0.25
  9
$PSOLHEIGHT
 40
4.0
  9
$LOFTANG1
 40
1.570796326794896
  9
$LOFTANG2
 40
1.570796326794896
  9
$LOFTMAG1
 40
0.0
  9
$LOFTMAG2
 40
0.0
  9
$LOFTPARAM
 70
     7
  9
$LOFTNORMALS
280
     1
  9
$LATITUDE
 40
37.795
  9
$LONGITUDE
 40
-122.394
  9
$NORTHDIRECTION
 40
0.0
  9
$TIMEZONE
 70
 -8000
  9
$LIGHTGLYPHDISPLAY
280
     1
  9
$TILEMODELIGHTSYNCH
280
     1
  9
$CMATERIAL
347
11
  9
$SOLIDHIST
280
     0
  9
$SHOWHIST
280
     1
  9
$DWFFRAME
280
     2
  9
$DGNFRAME
280
     0
  9
$REALWORLDSCALE
290
     1
  9
$INTERFERECOLOR
 62
     1
  9
$INTERFEREOBJVS
345
33
  9
$INTERFEREVPVS
346
30
  9
$CSHADOW
280
     0
  9
$SHADOWPLANELOCATION
 40
0.0
  0
ENDSEC
  0
SECTION
  2
CLASSES
  0
CLASS
  1
ACDBDICTIONARYWDFLT
  2
AcDbDictionaryWithDefault
  3
ObjectDBX Classes
 90
        0
 91
        1
280
     0
281
     0
  0
CLASS
  1
MATERIAL
  2
AcDbMaterial
  3
ObjectDBX Classes
 90
     1153
 91
        3
280
     0
281
     0
  0
CLASS
  1
VISUALSTYLE
  2
AcDbVisualStyle
  3
ObjectDBX Classes
 90
     4095
 91
       24
280
     0
281
     0
  0
CLASS
  1
SCALE
  2
AcDbScale
  3
ObjectDBX Classes
 90
     1153
 91
       17
280
     0
281
     0
  0
CLASS
  1
TABLESTYLE
  2
AcDbTableStyle
  3
ObjectDBX Classes
 90
     4095
 91
        1
280
     0
281
     0
  0
CLASS
  1
MLEADERSTYLE
  2
AcDbMLeaderStyle
  3
ACDB_MLEADERSTYLE_CLASS
 90
     4095
 91
        1
280
     0
281
     0
  0
CLASS
  1
ACDBSECTIONVIEWSTYLE
  2
AcDbSectionViewStyle
  3
ObjectDBX Classes
 90
     1025
 91
        1
280
     0
281
     0
  0
CLASS
  1
ACDBDETAILVIEWSTYLE
  2
AcDbDetailViewStyle
  3
ObjectDBX Classes
 90
     1025
 91
        1
280
     0
281
     0
  0
CLASS
  1
RASTERVARIABLES
  2
AcDbRasterVariables
  3
ISM
 90
        0
 91
        1
280
     0
281
     0
  0
CLASS
  1
DICTIONARYVAR
  2
AcDbDictionaryVar
  3
ObjectDBX Classes
 90
        0
 91
        5
280
     0
281
     0
  0
CLASS
  1
CELLSTYLEMAP
  2
AcDbCellStyleMap
  3
ObjectDBX Classes
 90
     1152
 91
        2
280
     0
281
     0
  0
CLASS
  1
SORTENTSTABLE
  2
AcDbSortentsTable
  3
ObjectDBX Classes
 90
        0
 91
        1
280
     0
281
     0
  0
ENDSEC
  0
SECTION
  2
TABLES
  0
TABLE
  2
VPORT
  5
8
330
0
100
AcDbSymbolTable
 70
     1
  0
VPORT
  5
57
330
8
100
AcDbSymbolTableRecord
100
AcDbViewportTableRecord
  2
*Active
 70
     0
 10
0.0
 20
0.0
 11
1.0
 21
1.0
 12
1028.506922101906
 22
1750.992215886776
 13
0.0
 23
0.0
 14
1.0
 24
1.0
 15
0.0
 25
0.0
 16
0.0
 26
0.0
 36
1.0
 17
0.0
 27
0.0
 37
0.0
 40
619.27509389645
 41
0.9211457897144036
 42
50.0
 43
0.0
 44
0.0
 50
0.0
 51
0.0
 71
     0
 72
  1000
 73
     1
 74
     1
 75
     0
 76
     0
 77
     0
 78
     0
281
     0
 65
     1
110
0.0
120
0.0
130
0.0
111
1.0
121
0.0
131
0.0
112
0.0
122
1.0
132
0.0
 79
     0
146
0.0
 60
     3
 61
     5
292
     1
282
     1
141
0.0
142
0.0
 63
   250
421
  3355443
  0
ENDTAB
  0
TABLE
  2
LTYPE
  5
5
330
0
100
AcDbSymbolTable
 70
     3
  0
LTYPE
  5
5B
330
5
100
AcDbSymbolTableRecord
100
AcDbLinetypeTableRecord
  2
ByBlock
 70
     0
  3

 72
    65
 73
     0
 40
0.0
  0
LTYPE
  5
5C
330
5
100
AcDbSymbolTableRecord
100
AcDbLinetypeTableRecord
  2
ByLayer
 70
     0
  3

 72
    65
 73
     0
 40
0.0
  0
LTYPE
  5
5D
330
5
100
AcDbSymbolTableRecord
100
AcDbLinetypeTableRecord
  2
Continuous
 70
     0
  3
Solid line
 72
    65
 73
     0
 40
0.0
  0
LTYPE
  5
69
330
5
100
AcDbSymbolTableRecord
100
AcDbLinetypeTableRecord
  2
PHANTOM2
 70
     0
  3
___ _ _ ___ _ _ ___ _ _ ___ _ _
 72
    65
 73
     6
 40
1.25
 49
0.625
 74
     0
 49
-0.125
 74
     0
 49
0.125
 74
     0
 49
-0.125
 74
     0
 49
0.125
 74
     0
 49
-0.125
 74
     0
  0
LTYPE
  5
86
330
5
100
AcDbSymbolTableRecord
100
AcDbLinetypeTableRecord
  2
Nascosto 1_5 mm
 70
     0
  3

 72
    65
 73
     2
 40
2.2
 49
1.5
 74
     0
 49
-0.7000000000000001
 74
     0
  0
ENDTAB
  0
TABLE
  2
LAYER
  5
2
330
0
100
AcDbSymbolTable
 70
     3
  0
LAYER
  5
54
330
2
100
AcDbSymbolTableRecord
100
AcDbLayerTableRecord
  2
0
 70
     0
 62
     7
  6
Continuous
370
    -3
390
F
347
21
348
0
  0
LAYER
  5
85
330
2
100
AcDbSymbolTableRecord
100
AcDbLayerTableRecord
  2
M-PIPE
 70
     0
 62
     3
  6
Continuous
370
    70
390
F
347
21
348
0
  0
ENDTAB
  0
TABLE
  2
STYLE
  5
3
330
0
100
AcDbSymbolTable
 70
     2
  0
STYLE
  5
55
330
3
100
AcDbSymbolTableRecord
100
AcDbTextStyleTableRecord
  2
Standard
 70
     0
 40
0.0
 41
1.0
 50
0.0
 71
     0
 42
0.2
  3
txt
  4

  0
STYLE
  5
5A
330
3
100
AcDbSymbolTableRecord
100
AcDbTextStyleTableRecord
  2
Annotative
 70
     0
 40
0.0
 41
1.0
 50
0.0
 71
     0
 42
0.2
  3
txt
  4

1001
AcadAnnotative
1000
AnnotativeData
1002
{
1070
     1
1070
     1
1002
}
  0
ENDTAB
  0
TABLE
  2
VIEW
  5
6
330
0
100
AcDbSymbolTable
 70
     0
  0
ENDTAB
  0
TABLE
  2
UCS
  5
7
330
0
100
AcDbSymbolTable
 70
     0
  0
ENDTAB
  0
TABLE
  2
APPID
  5
9
330
0
100
AcDbSymbolTable
 70
     3
  0
APPID
  5
56
330
9
100
AcDbSymbolTableRecord
100
AcDbRegAppTableRecord
  2
ACAD
 70
     0
  0
APPID
  5
5E
330
9
100
AcDbSymbolTableRecord
100
AcDbRegAppTableRecord
  2
AcadAnnotative
 70
     0
  0
APPID
  5
79
330
9
100
AcDbSymbolTableRecord
100
AcDbRegAppTableRecord
  2
REVIT
 70
     0
  0
ENDTAB
  0
TABLE
  2
DIMSTYLE
  5
A
330
0
100
AcDbSymbolTable
 70
     2
100
AcDbDimStyleTable
 71
     0
  0
DIMSTYLE
105
58
330
A
100
AcDbSymbolTableRecord
100
AcDbDimStyleTableRecord
  2
Standard
 70
     0
340
55
  0
DIMSTYLE
105
59
330
A
100
AcDbSymbolTableRecord
100
AcDbDimStyleTableRecord
  2
Annotative
 70
     0
340
55
1001
AcadAnnotative
1000
AnnotativeData
1002
{
1070
     1
1070
     1
1002
}
  0
ENDTAB
  0
TABLE
  2
BLOCK_RECORD
  5
1
330
0
100
AcDbSymbolTable
 70
     4
  0
BLOCK_RECORD
  5
71
102
{ACAD_XDICTIONARY
360
310
102
}
330
1
100
AcDbSymbolTableRecord
100
AcDbBlockTableRecord
  2
*Model_Space
340
74
 70
     0
280
     1
281
     0
  0
BLOCK_RECORD
  5
6D
330
1
100
AcDbSymbolTableRecord
100
AcDbBlockTableRecord
  2
*Paper_Space
340
70
 70
     0
280
     1
281
     0
  0
BLOCK_RECORD
  5
75
330
1
100
AcDbSymbolTableRecord
100
AcDbBlockTableRecord
  2
*Paper_Space0
340
78
 70
     0
280
     1
281
     0
  0
BLOCK_RECORD
  5
87
330
1
100
AcDbSymbolTableRecord
100
AcDbBlockTableRecord
  2
Automatic flow rate regulator valve_Caleffi_121 DN15 - 3_4___Insulation-975047-Est - Idraulica
340
0
102
{BLKREFS
331
1E5
102
}
 70
     0
280
     1
281
     0
  0
BLOCK_RECORD
  5
1E6
330
1
100
AcDbSymbolTableRecord
100
AcDbBlockTableRecord
  2
Automatic flow rate regulator valve_Caleffi_121 DN15 - 3_4___Insulation-V1-Est - Idraulica
340
0
102
{BLKREFS
331
242
102
}
 70
     0
280
     1
281
     0
  0
BLOCK_RECORD
  5
243
330
1
100
AcDbSymbolTableRecord
100
AcDbBlockTableRecord
  2
Automatic flow rate regulator valve_Caleffi_121 DN15 - 3_4___Insulation-V2-Est - Idraulica
340
0
102
{BLKREFS
331
309
102
}
 70
     0
280
     1
281
     0
  0
ENDTAB
  0
ENDSEC
  0
SECTION
  2
BLOCKS
  0
BLOCK
  5
72
330
71
100
AcDbEntity
  8
0
100
AcDbBlockBegin
  2
*Model_Space
 70
     0
 10
0.0
 20
0.0
 30
0.0
  3
*Model_Space
  1

  0
ENDBLK
  5
73
330
71
100
AcDbEntity
  8
0
100
AcDbBlockEnd
  0
BLOCK
  5
6E
330
6D
100
AcDbEntity
 67
     1
  8
0
100
AcDbBlockBegin
  2
*Paper_Space
 70
     0
 10
0.0
 20
0.0
 30
0.0
  3
*Paper_Space
  1

  0
ENDBLK
  5
6F
330
6D
100
AcDbEntity
 67
     1
  8
0
100
AcDbBlockEnd
  0
BLOCK
  5
76
330
75
100
AcDbEntity
 67
     1
  8
0
100
AcDbBlockBegin
  2
*Paper_Space0
 70
     0
 10
0.0
 20
0.0
 30
0.0
  3
*Paper_Space0
  1

  0
ENDBLK
  5
77
330
75
100
AcDbEntity
 67
     1
  8
0
100
AcDbBlockEnd
  0
BLOCK
  5
1E3
330
87
100
AcDbEntity
  8
0
100
AcDbBlockBegin
  2
Automatic flow rate regulator valve_Caleffi_121 DN15 - 3_4___Insulation-975047-Est - Idraulica
 70
     0
 10
0.0
 20
0.0
 30
0.0
  3
Automatic flow rate regulator valve_Caleffi_121 DN15 - 3_4___Insulation-975047-Est - Idraulica
  1

  0
LWPOLYLINE
  5
88
330
87
100
AcDbEntity
  8
M-PIPE
370
    18
100
AcDbPolyline
 90
       41
 70
   128
 43
0.0
 10
850.2359905061473
 20
1955.060198559122
 10
850.3559585087069
 20
1955.057798879105
 10
850.4757345880546
 20
1955.05060367803
 10
850.5951271280139
 20
1955.038624466684
 10
850.7139451259899
 20
1955.021880409249
 10
850.8319984985321
 20
1955.000398292646
 10
850.9490983854286
 20
1954.974212483678
 10
851.0650574518393
 20
1954.943364874055
 10
851.1796901879955
 20
1954.90790481337
 10
851.2928132059723
 20
1954.867889030156
 10
851.4042455330729
 20
1954.823381541131
 10
851.5138089013451
 20
1954.774453548782
 10
851.6213280327717
 20
1954.72118332746
 10
851.7266309196781
 20
1954.663656098156
 10
851.8295490999097
 20
1954.601963892162
 10
851.9299179263324
 20
1954.536205403852
 10
852.0275768302344
 20
1954.466485832776
 10
852.1223695782024
 20
1954.392916715375
 10
852.2141445220615
 20
1954.315615746545
 10
852.3027548414788
 20
1954.234706591345
 10
852.3880587788458
 20
1954.150318687164
 10
852.4699198660597
 20
1954.062587036646
 10
852.548207142844
 20
1953.971651991718
 10
852.622795366256
 20
1953.877659029053
 10
852.69356521105
 20
1953.78075851734
 10
852.7604034605706
 20
1953.681105476727
 10
852.8232031878772
 20
1953.578859330821
 10
852.8818639268019
 20
1953.474183651644
 10
852.9362918326766
 20
1953.367245897952
 10
852.9863998324625
 20
1953.258217147342
 10
853.0321077640488
 20
1953.147271822552
 10
853.0733425044957
 20
1953.034587412438
 10
853.1100380870148
 20
1952.920344188018
 10
853.1421358065019
 20
1952.80472491408
 10
853.1695843134531
 20
1952.687914556797
 10
853.1923396961126
 20
1952.570099987823
 10
853.2103655507221
 20
1952.451469685337
 10
853.2236330397601
 20
1952.332213432515
 10
853.2321209380739
 20
1952.212522013923
 10
853.2358156668369
 20
1952.092586910297
 10
853.2348366584132
 20
1951.977001473603
1001
REVIT
1002
{
1070
     3
1000
973634
1002
}
  0
LWPOLYLINE
  5
89
330
87
100
AcDbEntity
  8
M-PIPE
370
    18
100
AcDbPolyline
 90
       41
 70
   128
 43
0.0
 10
743.3363621476957
 20
1951.977001473603
 10
743.3354339087015
 20
1952.096989883354
 10
743.3393046688157
 20
1952.216919434836
 10
743.3479682356473
 20
1952.336598266348
 10
743.3614107493383
 20
1952.455834917291
 10
743.3796107047339
 20
1952.574438634458
 10
743.4025389857878
 20
1952.692219677205
 10
743.4301589121418
 20
1952.808989620985
 10
743.4624262978055
 20
1952.924561658801
 10
743.4992895218453
 20
1953.038750900045
 10
743.5406896109659
 20
1953.15137466629
 10
743.586560333857
 20
1953.262252783535
 10
743.636828307147
 20
1953.371207870445
 10
743.6914131128016
 20
1953.478065622125
 10
743.7502274267761
 20
1953.582655088967
 10
743.8131771587148
 20
1953.684808950133
 10
743.8801616024747
 20
1953.784363781239
 10
743.951073597235
 20
1953.881160315792
 10
744.0257996989316
 20
1953.975043699986
 10
744.1042203617422
 20
1954.065863740432
 10
744.1862101293354
 20
1954.153475144441
 10
744.2716378355732
 20
1954.237737752456
 10
744.3603668143489
 20
1954.318516762278
 10
744.4522551182246
 20
1954.395682944723
 10
744.5471557455159
 20
1954.469112850362
 10
744.6449168754634
 20
1954.538689007009
 10
744.7453821111137
 20
1954.604300107656
 10
744.8483907295212
 20
1954.665841188538
 10
744.9537779388711
 20
1954.723213797054
 10
745.0613751421088
 20
1954.776326149269
 10
745.1710102066628
 20
1954.825093276749
 10
745.282507739817
 20
1954.869437162494
 10
745.3956893693031
 20
1954.909286865745
 10
745.5103740286585
 20
1954.944578635479
 10
745.6263782468925
 20
1954.975256012392
 10
745.7435164420025
 20
1955.001269919226
 10
745.8616012178644
 20
1955.02257873928
 10
745.9804436640268
 20
1955.039148382985
 10
746.0998536579278
 20
1955.050952342448
 10
746.2196401690495
 20
1955.05797173385
 10
746.335208299962
 20
1955.060198559122
1001
REVIT
1002
{
1070
     3
1000
973634
1002
}
  0
LWPOLYLINE
  5
8A
330
87
100
AcDbEntity
  8
M-PIPE
370
    18
100
AcDbPolyline
 90
        4
 70
   128
 43
0.0
 10
746.335208299962
 20
1955.060198559122
 10
746.3767630717649
 20
1955.060198559122
 10
746.5013609084033
 20
1955.060198559122
 10
746.5451712445029
 20
1955.060198559122
1001
REVIT
1002
{
1070
     3
1000
973634
1002
}
  0
LWPOLYLINE
  5
8B
330
87
100
AcDbEntity
  8
M-PIPE
370
    18
100
AcDbPolyline
 90
        4
 70
   128
 43
0.0
 10
850.019064403277
 20
1955.060198559122
 10
850.1374807248694
 20
1955.060198559122
 10
850.2238802316629
 20
1955.060198559122
 10
850.2359905061473
 20
1955.060198559122
1001
REVIT
1002
{
1070
     3
1000
973634
1002
}
  0
LWPOLYLINE
  5
8C
330
87
100
AcDbEntity
  8
M-PIPE
370
    18
100
AcDbPolyline
 90
       14
 70
   128
 43
0.0
 10
853.2348366584132
 20
1951.977001473603
 10
852.9737961350862
 20
1946.512725811586
 10
852.4944516707993
 20
1941.063259823996
 10
851.7975701144397
 20
1935.637321493925
 10
850.8842663278379
 20
1930.243591165227
 10
849.7560014022246
 20
1924.890697655829
 10
848.4145803207972
 20
1919.587204453454
 10
846.8621490711313
 20
1914.341596015876
 10
845.1011912120588
 20
1909.16226419759
 10
843.1345239005031
 20
1904.057494824642
 10
840.9652933846297
 20
1899.035454439068
 10
838.596969970519
 20
1894.104177234174
 10
836.0333424704185
 20
1889.271552201538
 10
835.0774651450326
 20
1887.581889890596
1001
REVIT
1002
{
1070
     3
1000
973634
1002
}
  0
LWPOLYLINE
  5
8D
330
87
100
AcDbEntity
  8
M-PIPE
370
    18
100
AcDbPolyline
 90
       14
 70
   128
 43
0.0
 10
761.4937336610765
 20
1887.581889890596
 10
758.8617730902558
 20
1892.377641575054
 10
756.42369672395
 20
1897.274807520516
 10
754.1834049642501
 20
1902.265553306143
 10
752.1444818000685
 20
1907.341894803313
 10
750.3101890735202
 20
1912.495710948527
 10
748.6834612616736
 20
1917.718756735374
 10
747.2669007820101
 20
1923.002676404785
 10
746.0627738291139
 20
1928.339016812465
 10
745.073006749243
 20
1933.719240952121
 10
744.2991829585864
 20
1939.134741612849
 10
743.7425404101352
 20
1944.576855148837
 10
743.403969613223
 20
1950.03687533935
 10
743.3363621476957
 20
1951.977001473603
1001
REVIT
1002
{
1070
     3
1000
973634
1002
}
  0
LWPOLYLINE
  5
8E
330
87
100
AcDbEntity
  8
M-PIPE
370
    18
100
AcDbPolyline
 90
       28
 70
   128
 43
0.0
 10
835.0774651450326
 20
1887.581889890596
 10
834.7680116430927
 20
1887.067895209012
 10
834.4382513658555
 20
1886.566686507854
 10
834.0887118594197
 20
1886.079065614125
 10
833.7199523124315
 20
1885.605812617236
 10
833.3325626615009
 20
1885.147684621026
 10
832.9271626474309
 20
1884.705414532559
 10
832.5044008237634
 20
1884.279709889632
 10
832.064953519232
 20
1883.871251728862
 10
831.6095237557799
 20
1883.480693496172
 10
831.1388401238756
 20
1883.10866000142
 10
830.6536556169231
 20
1882.755746418835
 10
830.1547464266329
 20
1882.422517334864
 10
829.6429107012812
 20
1882.109505844958
 10
829.1189672688426
 20
1881.817212700727
 10
828.5837543270407
 20
1881.546105508849
 10
828.0381281024093
 20
1881.296617983
 10
827.4829614805142
 20
1881.069149249998
 10
826.9191426095208
 20
1880.864063211293
 10
826.3475734793482
 20
1880.681687960797
 10
825.769168478676
 20
1880.522315260006
 10
825.1848529321188
 20
1880.386200071245
 10
824.595561619904
 20
1880.273560149777
 10
824.0022372824224
 20
1880.184575695451
 10
823.4058291120446
 20
1880.119389064408
 10
822.8072912346165
 20
1880.078104541356
 10
822.2075811830606
 20
1880.060788172721
 10
822.0745847157493
 20
1880.060198559122
1001
REVIT
1002
{
1070
     3
1000
973634
1002
}
  0
LWPOLYLINE
  5
8F
330
87
100
AcDbEntity
  8
M-PIPE
370
    18
100
AcDbPolyline
 90
       28
 70
   128
 43
0.0
 10
774.49661409036
 20
1880.060198559122
 10
773.8967740775604
 20
1880.072196959208
 10
773.2978936808222
 20
1880.108172964583
 10
772.700930981026
 20
1880.168069021314
 10
772.1068409911463
 20
1880.251789308488
 10
771.516574128434
 20
1880.359199891504
 10
770.931074693953
 20
1880.490128936342
 10
770.3512793618982
 20
1880.644366984461
 10
769.7781156811181
 20
1880.821667287886
 10
769.2125005912336
 20
1881.021746203953
 10
768.6553389557302
 20
1881.244283649079
 10
768.1075221143698
 20
1881.488923610823
 10
767.5699264572377
 20
1881.755274717433
 10
767.0434120227038
 20
1882.042910863958
 10
766.5288211215466
 20
1882.351371893921
 10
766.0269769894344
 20
1882.680164335477
 10
765.5386824699241
 20
1883.028762190858
 10
765.0647187300828
 20
1883.396607777859
 10
764.6058440107879
 20
1883.783112622009
 10
764.1627924137016
 20
1884.187658398009
 10
763.7362727268671
 20
1884.609597918915
 10
763.3269672907971
 20
1885.048256171503
 10
762.9355309068754
 20
1885.502931396144
 10
762.5625897898145
 20
1885.972896209471
 10
762.208740565845
 20
1886.457398768036
 10
761.8745493182415
 20
1886.9556639711
 10
761.5605506817098
 20
1887.466894700631
 10
761.4937336610765
 20
1887.581889890596
1001
REVIT
1002
{
1070
     3
1000
973634
1002
}
  0
LWPOLYLINE
  5
90
330
87
100
AcDbEntity
  8
M-PIPE
370
    18
100
AcDbPolyline
 90
        6
 70
   128
 43
0.0
 10
822.0745847157493
 20
1880.060198559122
 10
822.0555560648554
 20
1880.060198559122
 10
821.9985005539562
 20
1880.060198559122
 10
821.9035094596986
 20
1880.060198559122
 10
821.7707347475686
 20
1880.060198559122
 10
821.6244920417032
 20
1880.060198559122
1001
REVIT
1002
{
1070
     3
1000
973634
1002
}
  0
LWPOLYLINE
  5
91
330
87
100
AcDbEntity
  8
M-PIPE
370
    18
100
AcDbPolyline
 90
        7
 70
   128
 43
0.0
 10
774.9497537620267
 20
1880.060198559122
 10
774.8877689290951
 20
1880.060198559122
 10
774.7346824417487
 20
1880.060198559122
 10
774.6192723976125
 20
1880.060198559122
 10
774.5417234281382
 20
1880.060198559122
 10
774.5021595951334
 20
1880.060198559122
 10
774.49661409036
 20
1880.060198559122
1001
REVIT
1002
{
1070
     3
1000
973634
1002
}
  0
LINE
  5
92
330
87
100
AcDbEntity
  8
M-PIPE
370
    18
100
AcDbLine
 10
746.3352082999607
 20
1955.060198559122
 30
0.0
 11
758.7855994030535
 21
1955.060198559122
 31
0.0
1001
REVIT
1002
{
1070
     3
1000
973634
1002
}
  0
LINE
  5
93
330
87
100
AcDbEntity
  8
M-PIPE
370
    18
100
AcDbLine
 10
837.7855994030536
 20
1955.060198559122
 30
0.0
 11
850.2359905061457
 21
1955.060198559122
 31
0.0
1001
REVIT
1002
{
1070
     3
1000
973634
1002
}
  0
ARC
  5
94
330
87
100
AcDbEntity
  8
M-PIPE
370
    18
100
AcDbCircle
 10
850.2359905061457
 20
1952.060198559122
 30
0.0
 40
3.0
100
AcDbArc
 50
358.4108489678282
 51
90.0
1001
REVIT
1002
{
1070
     3
1000
973634
1002
}
  0
ARC
  5
95
330
87
100
AcDbEntity
  8
M-PIPE
370
    18
100
AcDbCircle
 10
746.3352082999607
 20
1952.060198559122
 30
0.0
 40
3.000000000000017
100
AcDbArc
 50
90.00000000000435
 51
181.5891510321711
1001
REVIT
1002
{
1070
     3
1000
973634
1002
}
  0
ARC
  5
96
330
87
100
AcDbEntity
  8
M-PIPE
370
    18
100
AcDbCircle
 10
716.5156395842565
 20
1955.770006567479
 30
0.0
 40
136.771801685303
100
AcDbArc
 50
330.0956264343811
 51
358.4108489678093
1001
REVIT
1002
{
1070
     3
1000
973634
1002
}
  0
ARC
  5
97
330
87
100
AcDbEntity
  8
M-PIPE
370
    18
100
AcDbCircle
 10
880.0555592218499
 20
1955.770006567479
 30
0.0
 40
136.7718016853032
100
AcDbArc
 50
181.5891510321903
 51
209.9043735656187
1001
REVIT
1002
{
1070
     3
1000
973634
1002
}
  0
ARC
  5
98
330
87
100
AcDbEntity
  8
M-PIPE
370
    18
100
AcDbCircle
 10
822.0745847157475
 20
1895.060198559122
 30
0.0
 40
15.00000000000002
100
AcDbArc
 50
270.0000000000001
 51
330.0956264343849
1001
REVIT
1002
{
1070
     3
1000
973634
1002
}
  0
ARC
  5
99
330
87
100
AcDbEntity
  8
M-PIPE
370
    18
100
AcDbCircle
 10
774.4966140903586
 20
1895.060198559122
 30
0.0
 40
14.99999999999988
100
AcDbArc
 50
209.9043735656142
 51
269.9999999999997
1001
REVIT
1002
{
1070
     3
1000
973634
1002
}
  0
LINE
  5
9A
330
87
100
AcDbEntity
  8
M-PIPE
370
    18
100
AcDbLine
 10
822.0745847157475
 20
1880.060198559122
 30
0.0
 11
812.2855994030544
 21
1880.060198559122
 31
0.0
1001
REVIT
1002
{
1070
     3
1000
973634
1002
}
  0
LINE
  5
9B
330
87
100
AcDbEntity
  8
M-PIPE
370
    18
100
AcDbLine
 10
784.2855994030523
 20
1880.060198559122
 30
0.0
 11
774.4966140903586
 21
1880.060198559122
 31
0.0
1001
REVIT
1002
{
1070
     3
1000
973634
1002
}
  0
LINE
  5
9C
330
87
100
AcDbEntity
  8
M-PIPE
370
    18
100
AcDbLine
 10
743.2855994030532
 20
1976.84691622935
 30
0.0
 11
743.2855994030532
 21
1979.999999999995
 31
0.0
1001
REVIT
1002
{
1070
     3
1000
973634
1002
}
  0
LINE
  5
9D
330
87
100
AcDbEntity
  8
M-PIPE
370
    18
100
AcDbLine
 10
743.2855994030532
 20
1982.085176299795
 30
0.0
 11
743.2855994030532
 21
1983.273807548814
 31
0.0
1001
REVIT
1002
{
1070
     3
1000
973634
1002
}
  0
LINE
  5
9E
330
87
100
AcDbEntity
  8
M-PIPE
370
    18
100
AcDbLine
 10
743.2855994030532
 20
1998.811079609069
 30
0.0
 11
743.2855994030532
 21
1999.999999999994
 31
0.0
1001
REVIT
1002
{
1070
     3
1000
973634
1002
}
  0
LINE
  5
9F
330
87
100
AcDbEntity
  8
M-PIPE
370
    18
100
AcDbLine
 10
743.2855994030532
 20
1999.999999999994
 30
0.0
 11
743.2855994030532
 21
2001.188917722645
 31
0.0
1001
REVIT
1002
{
1070
     3
1000
973634
1002
}
  0
LINE
  5
A0
330
87
100
AcDbEntity
  8
M-PIPE
370
    18
100
AcDbLine
 10
743.2855994030532
 20
2016.72619245114
 30
0.0
 11
743.2855994030532
 21
2017.914823700225
 31
0.0
1001
REVIT
1002
{
1070
     3
1000
973634
1002
}
  0
LINE
  5
A1
330
87
100
AcDbEntity
  8
M-PIPE
370
    18
100
AcDbLine
 10
743.2855994030532
 20
2019.999999999995
 30
0.0
 11
743.2855994030532
 21
2023.153083770639
 31
0.0
1001
REVIT
1002
{
1070
     3
1000
973634
1002
}
  0
LINE
  5
A2
330
87
100
AcDbEntity
  8
M-PIPE
370
    18
100
AcDbLine
 10
743.2855994030532
 20
2023.153083770639
 30
0.0
 11
755.4679980038597
 21
2023.153083770639
 31
0.0
1001
REVIT
1002
{
1070
     3
1000
973634
1002
}
  0
LINE
  5
A3
330
87
100
AcDbEntity
  8
M-PIPE
370
    18
100
AcDbLine
 10
756.6224671101061
 20
1976.84691622935
 30
0.0
 11
743.2855994030532
 21
1976.84691622935
 31
0.0
1001
REVIT
1002
{
1070
     3
1000
973634
1002
}
  0
LINE
  5
A4
330
87
100
AcDbEntity
  8
M-PIPE
370
    18
100
AcDbLine
 10
841.1032008022457
 20
2023.153083770639
 30
0.0
 11
853.285599403053
 21
2023.153083770639
 31
0.0
1001
REVIT
1002
{
1070
     3
1000
973634
1002
}
  0
LINE
  5
A5
330
87
100
AcDbEntity
  8
M-PIPE
370
    18
100
AcDbLine
 10
853.285599403053
 20
1976.846916229351
 30
0.0
 11
839.948731696
 21
1976.846916229351
 31
0.0
1001
REVIT
1002
{
1070
     3
1000
973634
1002
}
  0
LINE
  5
A6
330
87
100
AcDbEntity
  8
M-PIPE
370
    18
100
AcDbLine
 10
853.285599403053
 20
2023.153083770639
 30
0.0
 11
853.285599403053
 21
2019.999999999995
 31
0.0
1001
REVIT
1002
{
1070
     3
1000
973634
1002
}
  0
LINE
  5
A7
330
87
100
AcDbEntity
  8
M-PIPE
370
    18
100
AcDbLine
 10
853.285599403053
 20
2017.914823700225
 30
0.0
 11
853.285599403053
 21
2016.72619245114
 31
0.0
1001
REVIT
1002
{
1070
     3
1000
973634
1002
}
  0
LINE
  5
A8
330
87
100
AcDbEntity
  8
M-PIPE
370
    18
100
AcDbLine
 10
853.285599403053
 20
2001.188917539133
 30
0.0
 11
853.285599403053
 21
1999.999999999994
 31
0.0
1001
REVIT
1002
{
1070
     3
1000
973634
1002
}
  0
LINE
  5
A9
330
87
100
AcDbEntity
  8
M-PIPE
370
    18
100
AcDbLine
 10
853.285599403053
 20
1999.999999999994
 30
0.0
 11
853.285599403053
 21
1998.811080501991
 31
0.0
1001
REVIT
1002
{
1070
     3
1000
973634
1002
}
  0
LINE
  5
AA
330
87
100
AcDbEntity
  8
M-PIPE
370
    18
100
AcDbLine
 10
853.285599403053
 20
1983.273807548814
 30
0.0
 11
853.285599403053
 21
1982.085176299795
 31
0.0
1001
REVIT
1002
{
1070
     3
1000
973634
1002
}
  0
LINE
  5
AB
330
87
100
AcDbEntity
  8
M-PIPE
370
    18
100
AcDbLine
 10
853.285599403053
 20
1979.999999999995
 30
0.0
 11
853.285599403053
 21
1976.84691622935
 31
0.0
1001
REVIT
1002
{
1070
     3
1000
973634
1002
}
  0
LWPOLYLINE
  5
AC
330
87
100
AcDbEntity
  8
M-PIPE
370
    18
100
AcDbPolyline
 90
       41
 70
   128
 43
0.0
 10
822.285052840737
 20
2060.629762825002
 10
822.4050208432968
 20
2060.627363144985
 10
822.5247969226444
 20
2060.62016794391
 10
822.6441894626038
 20
2060.608188732564
 10
822.7630074605796
 20
2060.591444675129
 10
822.8810608331221
 20
2060.569962558526
 10
822.9981607200183
 20
2060.543776749558
 10
823.1141197864292
 20
2060.512929139934
 10
823.2287525225851
 20
2060.477469079249
 10
823.3418755405621
 20
2060.437453296036
 10
823.4533078676628
 20
2060.392945807011
 10
823.562871235935
 20
2060.344017814662
 10
823.6703903673614
 20
2060.29074759334
 10
823.775693254268
 20
2060.233220364035
 10
823.8786114344996
 20
2060.171528158042
 10
823.9789802609221
 20
2060.105769669732
 10
824.0766391648241
 20
2060.036050098655
 10
824.1714319127922
 20
2059.962480981255
 10
824.2632068566514
 20
2059.885180012425
 10
824.3518171760685
 20
2059.804270857225
 10
824.4371211134355
 20
2059.719882953043
 10
824.5189822006494
 20
2059.632151302526
 10
824.5972694774339
 20
2059.541216257598
 10
824.671857700846
 20
2059.447223294933
 10
824.7426275456399
 20
2059.350322783219
 10
824.8094657951606
 20
2059.250669742607
 10
824.8722655224669
 20
2059.148423596701
 10
824.930926261392
 20
2059.043747917524
 10
824.9853541672663
 20
2058.936810163832
 10
825.0354621670521
 20
2058.827781413221
 10
825.0811700986385
 20
2058.716836088432
 10
825.1224048390856
 20
2058.604151678318
 10
825.1591004216047
 20
2058.489908453898
 10
825.1911981410916
 20
2058.37428917996
 10
825.2186466480427
 20
2058.257478822676
 10
825.2414020307023
 20
2058.139664253703
 10
825.2594278853118
 20
2058.021033951217
 10
825.2726953743497
 20
2057.901777698395
 10
825.2811832726635
 20
2057.782086279803
 10
825.2848780014268
 20
2057.662151176177
 10
825.2850528407368
 20
2057.629762825002
1001
REVIT
1002
{
1070
     3
1000
973634
1002
}
  0
LWPOLYLINE
  5
AD
330
87
100
AcDbEntity
  8
M-PIPE
370
    18
100
AcDbPolyline
 90
       41
 70
   128
 43
0.0
 10
771.2861459653723
 20
2057.629762825002
 10
771.2885456453892
 20
2057.749730827562
 10
771.2957408464643
 20
2057.869506906909
 10
771.3077200578108
 20
2057.988899446869
 10
771.3244641152453
 20
2058.107717444845
 10
771.3459462318484
 20
2058.225770817387
 10
771.372132040816
 20
2058.342870704283
 10
771.40297965044
 20
2058.458829770694
 10
771.438439711125
 20
2058.573462506851
 10
771.4784554943385
 20
2058.686585524827
 10
771.5229629833637
 20
2058.798017851928
 10
771.5718909757123
 20
2058.9075812202
 10
771.6251611970343
 20
2059.015100351627
 10
771.6826884263392
 20
2059.120403238533
 10
771.7443806323321
 20
2059.223321418764
 10
771.8101391206431
 20
2059.323690245188
 10
771.8798586917192
 20
2059.421349149089
 10
771.9534278091193
 20
2059.516141897058
 10
772.0307287779497
 20
2059.607916840917
 10
772.1116379331495
 20
2059.696527160333
 10
772.1960258373308
 20
2059.781831097701
 10
772.2837574878482
 20
2059.863692184915
 10
772.3746925327765
 20
2059.941979461699
 10
772.4686854954418
 20
2060.016567685111
 10
772.5655860071548
 20
2060.087337529905
 10
772.6652390477678
 20
2060.154175779426
 10
772.767485193674
 20
2060.216975506732
 10
772.8721608728509
 20
2060.275636245657
 10
772.979098626542
 20
2060.330064151532
 10
773.0881273771534
 20
2060.380172151317
 10
773.1990727019422
 20
2060.425880082903
 10
773.3117571120558
 20
2060.467114823351
 10
773.4260003364763
 20
2060.50381040587
 10
773.541619610415
 20
2060.535908125357
 10
773.6584299676979
 20
2060.563356632308
 10
773.7762445366715
 20
2060.586112014968
 10
773.8948748391577
 20
2060.604137869578
 10
774.0141310919794
 20
2060.617405358615
 10
774.1338225105716
 20
2060.625893256929
 10
774.2537576141975
 20
2060.629587985692
 10
774.2861459653725
 20
2060.629762825002
1001
REVIT
1002
{
1070
     3
1000
973634
1002
}
  0
LWPOLYLINE
  5
AE
330
87
100
AcDbEntity
  8
M-PIPE
370
    18
100
AcDbPolyline
 90
        5
 70
   128
 43
0.0
 10
774.2861459653725
 20
2060.629762825002
 10
774.3053429683172
 20
2060.629762825002
 10
774.3629032660424
 20
2060.629762825002
 10
774.4587347743508
 20
2060.629762825002
 10
774.4906178060777
 20
2060.629762825002
1001
REVIT
1002
{
1070
     3
1000
973634
1002
}
  0
LWPOLYLINE
  5
AF
330
87
100
AcDbEntity
  8
M-PIPE
370
    18
100
AcDbPolyline
 90
        5
 70
   128
 43
0.0
 10
822.0785731912506
 20
2060.629762825002
 10
822.1613093394919
 20
2060.629762825002
 10
822.2395444074271
 20
2060.629762825002
 10
822.2794582732577
 20
2060.629762825002
 10
822.285052840737
 20
2060.629762825002
1001
REVIT
1002
{
1070
     3
1000
973634
1002
}
  0
LWPOLYLINE
  5
B0
330
87
100
AcDbEntity
  8
M-PIPE
370
    18
100
AcDbPolyline
 90
       38
 70
   128
 43
0.0
 10
825.2850528407368
 20
2051.653279786019
 10
825.2874525207541
 20
2051.533311783459
 10
825.2946477218291
 20
2051.413535704111
 10
825.3066269331753
 20
2051.294143164152
 10
825.3233709906101
 20
2051.175325166176
 10
825.3448531072132
 20
2051.057271793634
 10
825.3710389161808
 20
2050.940171906738
 10
825.4018865258048
 20
2050.824212840327
 10
825.4373465864896
 20
2050.709580104171
 10
825.4773623697031
 20
2050.596457086194
 10
825.5218698587283
 20
2050.485024759093
 10
825.570797851077
 20
2050.375461390821
 10
825.624068072399
 20
2050.267942259395
 10
825.6815953017039
 20
2050.162639372488
 10
825.7432875076968
 20
2050.059721192257
 10
825.8090459960079
 20
2049.959352365834
 10
825.8787655670841
 20
2049.861693461932
 10
825.9523346844842
 20
2049.766900713963
 10
826.0296356533142
 20
2049.675125770105
 10
826.1105448085142
 20
2049.586515450688
 10
826.1949327126954
 20
2049.50121151332
 10
826.2826643632131
 20
2049.419350426107
 10
826.3735994081411
 20
2049.341063149322
 10
826.4675923708066
 20
2049.26647492591
 10
826.5644928825196
 20
2049.195705081116
 10
826.6641459231324
 20
2049.128866831595
 10
826.7663920690386
 20
2049.066067104289
 10
826.8710677482157
 20
2049.007406365364
 10
826.9780055019069
 20
2048.95297845949
 10
827.0870342525181
 20
2048.902870459704
 10
827.1979795773068
 20
2048.857162528117
 10
827.3106639874207
 20
2048.81592778767
 10
827.4249072118411
 20
2048.779232205152
 10
827.5405264857798
 20
2048.747134485664
 10
827.6573368430627
 20
2048.719685978713
 10
827.7751514120362
 20
2048.696930596054
 10
827.8937817145225
 20
2048.678904741444
 10
827.9184469723011
 20
2048.675764019944
1001
REVIT
1002
{
1070
     3
1000
973634
1002
}
  0
LWPOLYLINE
  5
B1
330
87
100
AcDbEntity
  8
M-PIPE
370
    18
100
AcDbPolyline
 90
       38
 70
   128
 43
0.0
 10
768.6527518338079
 20
2048.675764019944
 10
768.7715274612312
 20
2048.692806039559
 10
768.8895265818039
 20
2048.714584185635
 10
769.0065604221045
 20
2048.741063617784
 10
769.1224417529545
 20
2048.772201974562
 10
769.2369851889447
 20
2048.807949441241
 10
769.350007485012
 20
2048.8482488295
 10
769.4613278295927
 20
2048.893035668915
 10
769.5707681338831
 20
2048.942238310097
 10
769.6781533167417
 20
2048.995778039315
 10
769.7833115847839
 20
2049.053569204425
 10
769.8860747072135
 20
2049.11551935189
 10
769.986278284956
 20
2049.18152937469
 10
770.0837620136627
 20
2049.251493670869
 10
770.178369940163
 20
2049.325300312479
 10
770.2699507119569
 20
2049.402831224636
 10
770.3583578193451
 20
2049.483962374423
 10
770.4434498298153
 20
2049.568563969305
 10
770.5250906143025
 20
2049.656500664777
 10
770.6031495649677
 20
2049.747631780888
 10
770.6775018041411
 20
2049.841811527289
 10
770.7480283841014
 20
2049.938889236479
 10
770.8146164773651
 20
2050.038709604831
 10
770.8771595571881
 20
2050.141112941049
 10
770.935557567984
 20
2050.245935421641
 10
770.9897170853934
 20
2050.353009352999
 10
771.039551465742
 20
2050.462163439673
 10
771.0849809846519
 20
2050.57322305841
 10
771.1259329645837
 20
2050.686010537511
 10
771.162341891106
 20
2050.800345441071
 10
771.1941495177027
 20
2050.916044857632
 10
771.2213049589565
 20
2051.032923692811
 10
771.2437647719545
 20
2051.150794965403
 10
771.2614930257873
 20
2051.269470106517
 10
771.2744613590301
 20
2051.388759261243
 10
771.2826490251161
 20
2051.508471592381
 10
771.2860429255268
 20
2051.628415585738
 10
771.2861459653723
 20
2051.653279786019
1001
REVIT
1002
{
1070
     3
1000
973634
1002
}
  0
LWPOLYLINE
  5
B2
330
87
100
AcDbEntity
  8
M-PIPE
370
    18
100
AcDbPolyline
 90
       38
 70
   128
 43
0.0
 10
840.1186287452338
 20
2047.173619754278
 10
840.7125068823507
 20
2047.088409656199
 10
841.3025024852133
 20
2046.979518925818
 10
841.887671686716
 20
2046.847121765076
 10
842.4670783409661
 20
2046.691429981186
 10
843.0397955209166
 20
2046.512692647791
 10
843.6049070012531
 20
2046.311195706495
 10
844.1615087241576
 20
2046.087261509419
 10
844.7087102456089
 20
2045.841248303511
 10
845.2456361599024
 20
2045.573549657418
 10
845.7714275001137
 20
2045.284593831869
 10
846.2852431122612
 20
2044.974843094544
 10
846.7862610009738
 20
2044.644792980546
 10
847.2736796445072
 20
2044.294971499651
 10
847.7467192770093
 20
2043.925938291602
 10
848.2046231359776
 20
2043.538283730812
 10
848.6466586729189
 20
2043.13262798188
 10
849.0721187252697
 20
2042.709620007471
 10
849.4803226477063
 20
2042.269936530107
 10
849.8706174010319
 20
2041.814280949557
 10
850.2423785968995
 20
2041.343382217549
 10
850.5950114967001
 20
2040.8579936716
 10
850.9279519630192
 20
2040.358891829841
 10
851.2406673621333
 20
2039.846875148748
 10
851.5326574161136
 20
2039.322762745789
 10
851.8034550031611
 20
2038.787393089001
 10
852.0526269049039
 20
2038.24162265563
 10
852.279774499453
 20
2037.686324561945
 10
852.4845343991128
 20
2037.122387166438
 10
852.6665790317235
 20
2036.550712648641
 10
852.8256171647067
 20
2035.972215565834
 10
852.9613943709764
 20
2035.387821389941
 10
853.0736934359669
 20
2034.79846502698
 10
853.1623347051299
 20
2034.20508932141
 10
853.2271763713437
 20
2033.608643547779
 10
853.2681147017749
 20
2033.010081892089
 10
853.2850842038273
 20
2032.410361925305
 10
853.2855994030546
 20
2032.286040923899
1001
REVIT
1002
{
1070
     3
1000
973634
1002
}
  0
LWPOLYLINE
  5
B3
330
87
100
AcDbEntity
  8
M-PIPE
370
    18
100
AcDbPolyline
 90
       38
 70
   128
 43
0.0
 10
743.2855994030545
 20
2032.286040923899
 10
743.2975978031399
 20
2032.885880936699
 10
743.3335738085153
 20
2033.484761333437
 10
743.3934698652464
 20
2034.081724033233
 10
743.4771901524201
 20
2034.675814023113
 10
743.5846007354359
 20
2035.266080885826
 10
743.7155297802742
 20
2035.851580320306
 10
743.8697678283929
 20
2036.431375652361
 10
744.0470681318179
 20
2037.004539333141
 10
744.2471470478856
 20
2037.570154423026
 10
744.4696844930112
 20
2038.127316058529
 10
744.7143244547551
 20
2038.675132899889
 10
744.9806755613653
 20
2039.212728557021
 10
745.2683117078898
 20
2039.739242991556
 10
745.5767727378534
 20
2040.253833892712
 10
745.9055651794093
 20
2040.755678024825
 10
746.2541630347902
 20
2041.243972544335
 10
746.6220086217908
 20
2041.717936284177
 10
747.0085134659411
 20
2042.176811003471
 10
747.4130592419411
 20
2042.619862600558
 10
747.8349987628471
 20
2043.046382287392
 10
748.273657015435
 20
2043.455687723462
 10
748.7283322400759
 20
2043.847124107384
 10
749.1982970534027
 20
2044.220065224445
 10
749.6827996119677
 20
2044.573914448414
 10
750.1810648150325
 20
2044.908105696018
 10
750.6922955445628
 20
2045.22210433255
 10
751.2156739404483
 20
2045.515408027174
 10
751.7503627089038
 20
2045.787547556547
 10
752.2955064619606
 20
2046.038087555476
 10
752.8502330859045
 20
2046.266627213408
 10
753.4136551364729
 20
2046.472800915642
 10
753.9848712585752
 20
2046.656278828238
 10
754.5629676282691
 20
2046.816767425673
 10
755.1470194146832
 20
2046.954009960429
 10
755.7360922595509
 20
2047.067786873726
 10
756.3292437719825
 20
2047.157916146775
 10
756.4525700608751
 20
2047.173619754277
1001
REVIT
1002
{
1070
     3
1000
973634
1002
}
  0
LWPOLYLINE
  5
B4
330
87
100
AcDbEntity
  8
M-PIPE
370
    18
100
AcDbPolyline
 90
       41
 70
   128
 43
0.0
 10
853.2855994030549
 20
1958.060198559122
 10
853.2831997230376
 20
1957.940230556562
 10
853.2760045219625
 20
1957.820454477215
 10
853.2640253106164
 20
1957.701061937256
 10
853.2472812531816
 20
1957.582243939279
 10
853.2257991365785
 20
1957.464190566737
 10
853.1996133276109
 20
1957.347090679841
 10
853.1687657179871
 20
1957.23113161343
 10
853.1333056573021
 20
1957.116498877274
 10
853.0932898740886
 20
1957.003375859297
 10
853.0487823850634
 20
1956.891943532196
 10
852.9998543927147
 20
1956.782380163924
 10
852.9465841713927
 20
1956.674861032498
 10
852.8890569420877
 20
1956.569558145591
 10
852.8273647360951
 20
1956.46663996536
 10
852.7616062477838
 20
1956.366271138938
 10
852.6918866767076
 20
1956.268612235035
 10
852.6183175593075
 20
1956.173819487067
 10
852.5410165904775
 20
1956.082044543208
 10
852.4601074352775
 20
1955.993434223791
 10
852.3757195310961
 20
1955.908130286424
 10
852.2879878805786
 20
1955.82626919921
 10
852.1970528356504
 20
1955.747981922425
 10
852.1030598729851
 20
1955.673393699013
 10
852.0061593612721
 20
1955.60262385422
 10
851.9065063206593
 20
1955.535785604699
 10
851.8042601747531
 20
1955.472985877392
 10
851.699584495576
 20
1955.414325138468
 10
851.5926467418848
 20
1955.359897232593
 10
851.4836179912736
 20
1955.309789232807
 10
851.3726726664847
 20
1955.264081301221
 10
851.259988256371
 20
1955.222846560774
 10
851.1457450319506
 20
1955.186150978255
 10
851.0301257580119
 20
1955.154053258767
 10
850.9133154007288
 20
1955.126604751816
 10
850.7955008317555
 20
1955.103849369157
 10
850.6768705292692
 20
1955.085823514547
 10
850.5576142764477
 20
1955.072556025509
 10
850.4379228578555
 20
1955.064068127196
 10
850.3179877542297
 20
1955.060373398433
 10
850.285599403055
 20
1955.060198559122
1001
REVIT
1002
{
1070
     3
1000
973634
1002
}
  0
LWPOLYLINE
  5
B5
330
87
100
AcDbEntity
  8
M-PIPE
370
    18
100
AcDbPolyline
 90
       41
 70
   128
 43
0.0
 10
746.2855994030546
 20
1955.060198559122
 10
746.1656314004945
 20
1955.062598239139
 10
746.0458553211469
 20
1955.069793440214
 10
745.9264627811877
 20
1955.081772651561
 10
745.8076447832117
 20
1955.098516708996
 10
745.6895914106693
 20
1955.119998825599
 10
745.572491523773
 20
1955.146184634566
 10
745.456532457362
 20
1955.17703224419
 10
745.3418997212061
 20
1955.212492304875
 10
745.2287767032292
 20
1955.252508088089
 10
745.1173443761284
 20
1955.297015577114
 10
745.0077810078564
 20
1955.345943569463
 10
744.9002618764299
 20
1955.399213790785
 10
744.7949589895232
 20
1955.456741020089
 10
744.6920408092917
 20
1955.518433226082
 10
744.5916719828691
 20
1955.584191714393
 10
744.4940130789672
 20
1955.65391128547
 10
744.3992203309989
 20
1955.72748040287
 10
744.3074453871398
 20
1955.804781371699
 10
744.2188350677227
 20
1955.885690526899
 10
744.1335311303557
 20
1955.970078431081
 10
744.0516700431418
 20
1956.057810081599
 10
743.9733827663575
 20
1956.148745126527
 10
743.8987945429452
 20
1956.242738089192
 10
743.8280246981513
 20
1956.339638600905
 10
743.7611864486306
 20
1956.439291641518
 10
743.6983867213244
 20
1956.541537787424
 10
743.6397259823997
 20
1956.646213466601
 10
743.585298076525
 20
1956.753151220292
 10
743.5351900767391
 20
1956.862179970903
 10
743.4894821451527
 20
1956.973125295692
 10
743.4482474047057
 20
1957.085809705806
 10
743.4115518221867
 20
1957.200052930227
 10
743.3794541026996
 20
1957.315672204165
 10
743.3520055957485
 20
1957.432482561448
 10
743.329250213089
 20
1957.550297130422
 10
743.3112243584794
 20
1957.668927432908
 10
743.2979568694415
 20
1957.78818368573
 10
743.2894689711276
 20
1957.907875104322
 10
743.2857742423644
 20
1958.027810207947
 10
743.2855994030544
 20
1958.060198559122
1001
REVIT
1002
{
1070
     3
1000
973634
1002
}
  0
LWPOLYLINE
  5
B6
330
87
100
AcDbEntity
  8
M-PIPE
370
    18
100
AcDbPolyline
 90
        4
 70
   128
 43
0.0
 10
850.2855994030548
 20
1955.060198559122
 10
850.2440049494257
 20
1955.060198559122
 10
850.1192881307909
 20
1955.060198559122
 10
850.0756811788681
 20
1955.060198559122
1001
REVIT
1002
{
1070
     3
1000
973634
1002
}
  0
LWPOLYLINE
  5
B7
330
87
100
AcDbEntity
  8
M-PIPE
370
    18
100
AcDbPolyline
 90
        4
 70
   128
 43
0.0
 10
746.5025688562965
 20
1955.060198559122
 10
746.3842032541069
 20
1955.060198559122
 10
746.2977212419823
 20
1955.060198559122
 10
746.2855994030546
 20
1955.060198559122
1001
REVIT
1002
{
1070
     3
1000
973634
1002
}
  0
LINE
  5
B8
330
87
100
AcDbEntity
  8
M-PIPE
370
    18
100
AcDbLine
 10
774.2861459653709
 20
2060.629762825001
 30
0.0
 11
798.2855994030532
 21
2060.629762825001
 31
0.0
1001
REVIT
1002
{
1070
     3
1000
973634
1002
}
  0
LINE
  5
B9
330
87
100
AcDbEntity
  8
M-PIPE
370
    18
100
AcDbLine
 10
798.2855994030532
 20
2060.629762825001
 30
0.0
 11
822.2850528407354
 21
2060.629762825001
 31
0.0
1001
REVIT
1002
{
1070
     3
1000
973634
1002
}
  0
ARC
  5
BA
330
87
100
AcDbEntity
  8
M-PIPE
370
    18
100
AcDbCircle
 10
822.2850528407354
 20
2057.629762825001
 30
0.0
 40
3.0
100
AcDbArc
 50
0.0
 51
90.0
1001
REVIT
1002
{
1070
     3
1000
973634
1002
}
  0
ARC
  5
BB
330
87
100
AcDbEntity
  8
M-PIPE
370
    18
100
AcDbCircle
 10
774.2861459653709
 20
2057.629762825001
 30
0.0
 40
3.0
100
AcDbArc
 50
90.0
 51
180.0
1001
REVIT
1002
{
1070
     3
1000
973634
1002
}
  0
LINE
  5
BC
330
87
100
AcDbEntity
  8
M-PIPE
370
    18
100
AcDbLine
 10
825.2850528407353
 20
2057.629762825001
 30
0.0
 11
825.2850528407353
 21
2051.653279786018
 31
0.0
1001
REVIT
1002
{
1070
     3
1000
973634
1002
}
  0
LINE
  5
BD
330
87
100
AcDbEntity
  8
M-PIPE
370
    18
100
AcDbLine
 10
771.2861459653711
 20
2051.653279786018
 30
0.0
 11
771.2861459653711
 21
2057.629762825001
 31
0.0
1001
REVIT
1002
{
1070
     3
1000
973634
1002
}
  0
ARC
  5
BE
330
87
100
AcDbEntity
  8
M-PIPE
370
    18
100
AcDbCircle
 10
828.2850528407356
 20
2051.653279786018
 30
0.0
 40
3.0
100
AcDbArc
 50
180.0
 51
262.9807991813424
1001
REVIT
1002
{
1070
     3
1000
973634
1002
}
  0
ARC
  5
BF
330
87
100
AcDbEntity
  8
M-PIPE
370
    18
100
AcDbCircle
 10
768.2861459653708
 20
2051.653279786018
 30
0.0
 40
2.999999999999833
100
AcDbArc
 50
277.0192008186531
 51
0.0
1001
REVIT
1002
{
1070
     3
1000
973634
1002
}
  0
LINE
  5
C0
330
87
100
AcDbEntity
  8
M-PIPE
370
    18
100
AcDbLine
 10
827.9184469722997
 20
2048.675764019943
 30
0.0
 11
840.1186287452325
 21
2047.173619754276
 31
0.0
1001
REVIT
1002
{
1070
     3
1000
973634
1002
}
  0
LINE
  5
C1
330
87
100
AcDbEntity
  8
M-PIPE
370
    18
100
AcDbLine
 10
756.4525700608737
 20
2047.173619754276
 30
0.0
 11
768.6527518338066
 21
2048.675764019943
 31
0.0
1001
REVIT
1002
{
1070
     3
1000
973634
1002
}
  0
ARC
  5
C2
330
87
100
AcDbEntity
  8
M-PIPE
370
    18
100
AcDbCircle
 10
838.2855994030531
 20
2032.286040923898
 30
0.0
 40
15.00000000000004
100
AcDbArc
 50
0.0
 51
82.98079918134437
1001
REVIT
1002
{
1070
     3
1000
973634
1002
}
  0
ARC
  5
C3
330
87
100
AcDbEntity
  8
M-PIPE
370
    18
100
AcDbCircle
 10
758.2855994030532
 20
2032.286040923898
 30
0.0
 40
15.0
100
AcDbArc
 50
97.0192008186561
 51
180.0
1001
REVIT
1002
{
1070
     3
1000
973634
1002
}
  0
LINE
  5
C4
330
87
100
AcDbEntity
  8
M-PIPE
370
    18
100
AcDbLine
 10
853.2855994030528
 20
2032.286040923898
 30
0.0
 11
853.2855994030528
 21
2021.90308377064
 31
0.0
1001
REVIT
1002
{
1070
     3
1000
973634
1002
}
  0
LINE
  5
C5
330
87
100
AcDbEntity
  8
M-PIPE
370
    18
100
AcDbLine
 10
743.2855994030535
 20
2021.90308377064
 30
0.0
 11
743.2855994030535
 21
2032.286040923898
 31
0.0
1001
REVIT
1002
{
1070
     3
1000
973634
1002
}
  0
LINE
  5
C6
330
87
100
AcDbEntity
  8
M-PIPE
370
    18
100
AcDbLine
 10
853.285599403053
 20
2021.90308377064
 30
0.0
 11
853.285599403053
 21
2019.999999999996
 31
0.0
1001
REVIT
1002
{
1070
     3
1000
973634
1002
}
  0
LINE
  5
C7
330
87
100
AcDbEntity
  8
M-PIPE
370
    18
100
AcDbLine
 10
853.285599403053
 20
2017.914823700225
 30
0.0
 11
853.285599403053
 21
2016.72619245114
 31
0.0
1001
REVIT
1002
{
1070
     3
1000
973634
1002
}
  0
LINE
  5
C8
330
87
100
AcDbEntity
  8
M-PIPE
370
    18
100
AcDbLine
 10
853.285599403053
 20
2001.188917539133
 30
0.0
 11
853.285599403053
 21
1998.811080501991
 31
0.0
1001
REVIT
1002
{
1070
     3
1000
973634
1002
}
  0
LINE
  5
C9
330
87
100
AcDbEntity
  8
M-PIPE
370
    18
100
AcDbLine
 10
853.285599403053
 20
1983.273807548814
 30
0.0
 11
853.285599403053
 21
1982.085176299795
 31
0.0
1001
REVIT
1002
{
1070
     3
1000
973634
1002
}
  0
LINE
  5
CA
330
87
100
AcDbEntity
  8
M-PIPE
370
    18
100
AcDbLine
 10
853.285599403053
 20
1979.999999999994
 30
0.0
 11
853.285599403053
 21
1958.060198559122
 31
0.0
1001
REVIT
1002
{
1070
     3
1000
973634
1002
}
  0
LINE
  5
CB
330
87
100
AcDbEntity
  8
M-PIPE
370
    18
100
AcDbLine
 10
743.2855994030535
 20
1958.060198559122
 30
0.0
 11
743.2855994030535
 21
1979.999999999994
 31
0.0
1001
REVIT
1002
{
1070
     3
1000
973634
1002
}
  0
LINE
  5
CC
330
87
100
AcDbEntity
  8
M-PIPE
370
    18
100
AcDbLine
 10
743.2855994030535
 20
1982.085176299795
 30
0.0
 11
743.2855994030535
 21
1983.273807548815
 31
0.0
1001
REVIT
1002
{
1070
     3
1000
973634
1002
}
  0
LINE
  5
CD
330
87
100
AcDbEntity
  8
M-PIPE
370
    18
100
AcDbLine
 10
743.2855994030535
 20
1998.811079609069
 30
0.0
 11
743.2855994030535
 21
2001.188917722645
 31
0.0
1001
REVIT
1002
{
1070
     3
1000
973634
1002
}
  0
LINE
  5
CE
330
87
100
AcDbEntity
  8
M-PIPE
370
    18
100
AcDbLine
 10
743.2855994030535
 20
2016.72619245114
 30
0.0
 11
743.2855994030535
 21
2017.914823700225
 31
0.0
1001
REVIT
1002
{
1070
     3
1000
973634
1002
}
  0
LINE
  5
CF
330
87
100
AcDbEntity
  8
M-PIPE
370
    18
100
AcDbLine
 10
743.2855994030535
 20
2019.999999999996
 30
0.0
 11
743.2855994030535
 21
2021.90308377064
 31
0.0
1001
REVIT
1002
{
1070
     3
1000
973634
1002
}
  0
LINE
  5
D0
330
87
100
AcDbEntity
  8
M-PIPE
370
    18
100
AcDbLine
 10
850.2855994030534
 20
1955.060198559122
 30
0.0
 11
837.7855994030536
 21
1955.060198559122
 31
0.0
1001
REVIT
1002
{
1070
     3
1000
973634
1002
}
  0
LINE
  5
D1
330
87
100
AcDbEntity
  8
M-PIPE
370
    18
100
AcDbLine
 10
758.7855994030536
 20
1955.060198559122
 30
0.0
 11
746.2855994030531
 21
1955.060198559122
 31
0.0
1001
REVIT
1002
{
1070
     3
1000
973634
1002
}
  0
ARC
  5
D2
330
87
100
AcDbEntity
  8
M-PIPE
370
    18
100
AcDbCircle
 10
850.2855994030534
 20
1958.060198559122
 30
0.0
 40
3.0
100
AcDbArc
 50
269.9999999999997
 51
0.0
1001
REVIT
1002
{
1070
     3
1000
973634
1002
}
  0
ARC
  5
D3
330
87
100
AcDbEntity
  8
M-PIPE
370
    18
100
AcDbCircle
 10
746.2855994030531
 20
1958.060198559122
 30
0.0
 40
3.0
100
AcDbArc
 50
180.0
 51
269.9999999999997
1001
REVIT
1002
{
1070
     3
1000
973634
1002
}
  0
LINE
  5
D4
330
87
100
AcDbEntity
  8
M-PIPE
370
    18
100
AcDbLine
 10
834.7855994030554
 20
1907.465415000832
 30
0.0
 11
834.7855994030554
 21
1934.465415000832
 31
0.0
1001
REVIT
1002
{
1070
     3
1000
790271
1002
}
  0
LINE
  5
D5
330
87
100
AcDbEntity
  8
M-PIPE
370
    18
100
AcDbLine
 10
761.7855994030553
 20
1934.465415000832
 30
0.0
 11
761.7855994030553
 21
1907.465415000832
 31
0.0
1001
REVIT
1002
{
1070
     3
1000
790271
1002
}
  0
LINE
  5
D6
330
87
100
AcDbEntity
  8
M-PIPE
370
    18
100
AcDbLine
 10
761.785599403054
 20
1934.465415000831
 30
0.0
 11
834.785599403054
 21
1934.465415000831
 31
0.0
1001
REVIT
1002
{
1070
     3
1000
790271
1002
}
  0
LINE
  5
D7
330
87
100
AcDbEntity
  8
M-PIPE
370
    18
100
AcDbLine
 10
834.785599403054
 20
1907.465415000831
 30
0.0
 11
761.785599403054
 21
1907.465415000831
 31
0.0
1001
REVIT
1002
{
1070
     3
1000
790271
1002
}
  0
LINE
  5
D8
330
87
100
AcDbEntity
  8
M-PIPE
370
    18
100
AcDbLine
 10
787.635599403107
 20
1868.499999999996
 30
0.0
 11
787.635599403107
 21
1867.529999999965
 31
0.0
1001
REVIT
1002
{
1070
     3
1000
790271
1002
}
  0
LINE
  5
D9
330
87
100
AcDbEntity
  8
M-PIPE
370
    18
100
AcDbLine
 10
808.9355994030022
 20
1867.529999999965
 30
0.0
 11
808.9355994030022
 21
1868.499999999996
 31
0.0
1001
REVIT
1002
{
1070
     3
1000
790271
1002
}
  0
LINE
  5
DA
330
87
100
AcDbEntity
  8
M-PIPE
370
    18
100
AcDbLine
 10
786.7906355104545
 20
1867.529999999965
 30
0.0
 11
786.7906355104545
 21
1863.329999999981
 31
0.0
1001
REVIT
1002
{
1070
     3
1000
790271
1002
}
  0
LINE
  5
DB
330
87
100
AcDbEntity
  8
M-PIPE
370
    18
100
AcDbLine
 10
809.7805632956546
 20
1863.329999999981
 30
0.0
 11
809.7805632956546
 21
1867.529999999965
 31
0.0
1001
REVIT
1002
{
1070
     3
1000
790271
1002
}
  0
LINE
  5
DC
330
87
100
AcDbEntity
  8
M-PIPE
370
    18
100
AcDbLine
 10
783.6461779852453
 20
1863.329999999981
 30
0.0
 11
783.6461779852453
 21
1849.810578582178
 31
0.0
1001
REVIT
1002
{
1070
     3
1000
790271
1002
}
  0
LINE
  5
DD
330
87
100
AcDbEntity
  8
M-PIPE
370
    18
100
AcDbLine
 10
812.9250208208636
 20
1856.479999999981
 30
0.0
 11
812.9250208208636
 21
1863.329999999981
 31
0.0
1001
REVIT
1002
{
1070
     3
1000
790271
1002
}
  0
LINE
  5
DE
330
87
100
AcDbEntity
  8
M-PIPE
370
    18
100
AcDbLine
 10
782.8655994030477
 20
1849.810578582178
 30
0.0
 11
782.8655994030477
 21
1839.529999999981
 31
0.0
1001
REVIT
1002
{
1070
     3
1000
790271
1002
}
  0
LINE
  5
DF
330
87
100
AcDbEntity
  8
M-PIPE
370
    18
100
AcDbLine
 10
813.7055994030612
 20
1839.529999999981
 30
0.0
 11
813.7055994030612
 21
1843.579999999981
 31
0.0
1001
REVIT
1002
{
1070
     3
1000
790271
1002
}
  0
LINE
  5
E0
330
87
100
AcDbEntity
  8
M-PIPE
370
    18
100
AcDbLine
 10
783.785599403049
 20
1839.529999999981
 30
0.0
 11
783.785599403049
 21
1838.029999999965
 31
0.0
1001
REVIT
1002
{
1070
     3
1000
790271
1002
}
  0
LINE
  5
E1
330
87
100
AcDbEntity
  8
M-PIPE
370
    18
100
AcDbLine
 10
812.7855994030602
 20
1838.029999999965
 30
0.0
 11
812.7855994030602
 21
1839.529999999981
 31
0.0
1001
REVIT
1002
{
1070
     3
1000
790271
1002
}
  0
LINE
  5
E2
330
87
100
AcDbEntity
  8
M-PIPE
370
    18
100
AcDbLine
 10
786.5355994030477
 20
1838.029999999965
 30
0.0
 11
786.5355994030477
 21
1835.029999999965
 31
0.0
1001
REVIT
1002
{
1070
     3
1000
790271
1002
}
  0
LINE
  5
E3
330
87
100
AcDbEntity
  8
M-PIPE
370
    18
100
AcDbLine
 10
810.0355994030614
 20
1835.029999999965
 30
0.0
 11
810.0355994030614
 21
1838.029999999965
 31
0.0
1001
REVIT
1002
{
1070
     3
1000
790271
1002
}
  0
LINE
  5
E4
330
87
100
AcDbEntity
  8
M-PIPE
370
    18
100
AcDbLine
 10
784.8355994030478
 20
1835.029999999965
 30
0.0
 11
784.8355994030478
 21
1833.029999999993
 31
0.0
1001
REVIT
1002
{
1070
     3
1000
790271
1002
}
  0
LINE
  5
E5
330
87
100
AcDbEntity
  8
M-PIPE
370
    18
100
AcDbLine
 10
811.7355994030614
 20
1833.029999999993
 30
0.0
 11
811.7355994030614
 21
1835.029999999965
 31
0.0
1001
REVIT
1002
{
1070
     3
1000
790271
1002
}
  0
LINE
  5
E6
330
87
100
AcDbEntity
  8
M-PIPE
370
    18
100
AcDbLine
 10
783.4855994030609
 20
1833.029999999993
 30
0.0
 11
783.4855994030609
 21
1824.029999999993
 31
0.0
1001
REVIT
1002
{
1070
     3
1000
790271
1002
}
  0
LINE
  5
E7
330
87
100
AcDbEntity
  8
M-PIPE
370
    18
100
AcDbLine
 10
813.0855994030481
 20
1824.029999999993
 30
0.0
 11
813.0855994030481
 21
1833.029999999993
 31
0.0
1001
REVIT
1002
{
1070
     3
1000
790271
1002
}
  0
LINE
  5
E8
330
87
100
AcDbEntity
  8
M-PIPE
370
    18
100
AcDbLine
 10
790.7855994030478
 20
1824.029999999993
 30
0.0
 11
790.7855994030478
 21
1802.029999999993
 31
0.0
1001
REVIT
1002
{
1070
     3
1000
790271
1002
}
  0
LINE
  5
E9
330
87
100
AcDbEntity
  8
M-PIPE
370
    18
100
AcDbLine
 10
805.7855994030612
 20
1802.029999999993
 30
0.0
 11
805.7855994030612
 21
1824.029999999993
 31
0.0
1001
REVIT
1002
{
1070
     3
1000
790271
1002
}
  0
LINE
  5
EA
330
87
100
AcDbEntity
  8
M-PIPE
370
    18
100
AcDbLine
 10
790.7855994030478
 20
1802.029999999993
 30
0.0
 11
790.834037634015
 21
1801.981561769026
 31
0.0
1001
REVIT
1002
{
1070
     3
1000
790271
1002
}
  0
LINE
  5
EB
330
87
100
AcDbEntity
  8
M-PIPE
370
    18
100
AcDbLine
 10
790.8497629427444
 20
1801.965836460297
 30
0.0
 11
791.8155994030453
 21
1800.999999999996
 31
0.0
1001
REVIT
1002
{
1070
     3
1000
790271
1002
}
  0
LINE
  5
EC
330
87
100
AcDbEntity
  8
M-PIPE
370
    18
100
AcDbLine
 10
804.7555994030636
 20
1800.999999999996
 30
0.0
 11
805.7214358633647
 21
1801.965836460297
 31
0.0
1001
REVIT
1002
{
1070
     3
1000
790271
1002
}
  0
LINE
  5
ED
330
87
100
AcDbEntity
  8
M-PIPE
370
    18
100
AcDbLine
 10
805.7371611720942
 20
1801.981561769026
 30
0.0
 11
805.7855994030614
 21
1802.029999999993
 31
0.0
1001
REVIT
1002
{
1070
     3
1000
790271
1002
}
  0
LINE
  5
EE
330
87
100
AcDbEntity
  8
M-PIPE
370
    18
100
AcDbLine
 10
824.785599403048
 20
1853.779999999918
 30
0.0
 11
820.2855994030477
 21
1853.779999999918
 31
0.0
1001
REVIT
1002
{
1070
     3
1000
790271
1002
}
  0
LINE
  5
EF
330
87
100
AcDbEntity
  8
M-PIPE
370
    18
100
AcDbLine
 10
820.2855994030477
 20
1846.280000000044
 30
0.0
 11
824.785599403048
 21
1846.280000000044
 31
0.0
1001
REVIT
1002
{
1070
     3
1000
790271
1002
}
  0
LINE
  5
F0
330
87
100
AcDbEntity
  8
M-PIPE
370
    18
100
AcDbLine
 10
820.2855994030477
 20
1856.479999999981
 30
0.0
 11
812.9250208208636
 21
1856.479999999981
 31
0.0
1001
REVIT
1002
{
1070
     3
1000
790271
1002
}
  0
LINE
  5
F1
330
87
100
AcDbEntity
  8
M-PIPE
370
    18
100
AcDbLine
 10
813.7055994030612
 20
1843.579999999981
 30
0.0
 11
820.2855994030477
 21
1843.579999999981
 31
0.0
1001
REVIT
1002
{
1070
     3
1000
790271
1002
}
  0
LINE
  5
F2
330
87
100
AcDbEntity
  8
M-PIPE
370
    18
100
AcDbLine
 10
786.7906355104532
 20
1867.529999999965
 30
0.0
 11
809.780563295653
 21
1867.529999999965
 31
0.0
1001
REVIT
1002
{
1070
     3
1000
790271
1002
}
  0
LINE
  5
F3
330
87
100
AcDbEntity
  8
M-PIPE
370
    18
100
AcDbLine
 10
783.646177985244
 20
1863.32999999998
 30
0.0
 11
812.9250208208622
 21
1863.32999999998
 31
0.0
1001
REVIT
1002
{
1070
     3
1000
790271
1002
}
  0
SPLINE
  5
F4
330
87
100
AcDbEntity
  8
M-PIPE
370
    18
100
AcDbSpline
210
0.0
220
0.0
230
1.0
 70
     8
 71
     3
 72
    12
 73
     8
 74
     0
 42
0.000000001
 43
0.0000000001
 40
0.0
 40
0.0
 40
0.0
 40
0.0
 40
0.1428571428571428
 40
0.2857142857142857
 40
0.5714285714285714
 40
0.7857142857142857
 40
1.0
 40
1.0
 40
1.0
 40
1.0
 10
811.4293547723073
 20
1849.810578582178
 30
0.0
 10
811.422433131533
 20
1850.319066289708
 30
0.0
 10
811.4617876371465
 20
1851.30580930616
 30
0.0
 10
811.7538073223729
 20
1853.208360864497
 30
0.0
 10
812.3013474858051
 20
1854.975929147422
 30
0.0
 10
812.8050361399644
 20
1856.2150459678
 30
0.0
 10
812.9250208208622
 20
1856.476208070993
 30
0.0
 10
812.9250208208622
 20
1856.47999999998
 30
0.0
1001
REVIT
1002
{
1070
     3
1000
790271
1002
}
  0
SPLINE
  5
F5
330
87
100
AcDbEntity
  8
M-PIPE
370
    18
100
AcDbSpline
210
0.0
220
0.0
230
1.0
 70
     8
 71
     3
 72
    15
 73
    11
 74
     0
 42
0.000000001
 43
0.0000000001
 40
0.0
 40
0.0
 40
0.0
 40
0.0
 40
0.1428571428571428
 40
0.2857142857142857
 40
0.5714285714285714
 40
0.6785714285714287
 40
0.7857142857142857
 40
0.8392857142857142
 40
0.8928571428571427
 40
1.0
 40
1.0
 40
1.0
 40
1.0
 10
813.7055994030598
 20
1843.57999999998
 30
0.0
 10
813.7055994030598
 20
1843.582080499189
 30
0.0
 10
813.6602888813383
 20
1843.686156532373
 30
0.0
 10
813.4074925835429
 20
1844.312250999459
 30
0.0
 10
813.0084606839327
 20
1845.409817772027
 30
0.0
 10
812.6599506425026
 20
1846.755799832761
 30
0.0
 10
812.5033767972558
 20
1847.550497942064
 30
0.0
 10
812.4040740413741
 20
1848.226847322235
 30
0.0
 10
812.3296458887386
 20
1848.911804004625
 30
0.0
 10
812.3003039051035
 20
1849.446067698292
 30
0.0
 10
812.29352736399
 20
1849.810578582178
 30
0.0
1001
REVIT
1002
{
1070
     3
1000
790271
1002
}
  0
LINE
  5
F6
330
87
100
AcDbEntity
  8
M-PIPE
370
    18
100
AcDbLine
 10
782.8655994030464
 20
1849.810578582178
 30
0.0
 11
812.29352736399
 21
1849.810578582178
 31
0.0
1001
REVIT
1002
{
1070
     3
1000
790271
1002
}
  0
LINE
  5
F7
330
87
100
AcDbEntity
  8
M-PIPE
370
    18
100
AcDbLine
 10
782.8655994030464
 20
1839.529999999981
 30
0.0
 11
813.7055994030598
 21
1839.529999999981
 31
0.0
1001
REVIT
1002
{
1070
     3
1000
790271
1002
}
  0
LINE
  5
F8
330
87
100
AcDbEntity
  8
M-PIPE
370
    18
100
AcDbLine
 10
783.7855994030476
 20
1838.029999999965
 30
0.0
 11
812.7855994030586
 21
1838.029999999965
 31
0.0
1001
REVIT
1002
{
1070
     3
1000
790271
1002
}
  0
LINE
  5
F9
330
87
100
AcDbEntity
  8
M-PIPE
370
    18
100
AcDbLine
 10
784.8355994030463
 20
1835.029999999964
 30
0.0
 11
811.7355994030599
 21
1835.029999999964
 31
0.0
1001
REVIT
1002
{
1070
     3
1000
790271
1002
}
  0
LINE
  5
FA
330
87
100
AcDbEntity
  8
M-PIPE
370
    18
100
AcDbLine
 10
783.4855994030594
 20
1833.029999999993
 30
0.0
 11
813.0855994030467
 21
1833.029999999993
 31
0.0
1001
REVIT
1002
{
1070
     3
1000
790271
1002
}
  0
LINE
  5
FB
330
87
100
AcDbEntity
  8
M-PIPE
370
    18
100
AcDbLine
 10
783.4855994030594
 20
1824.029999999993
 30
0.0
 11
813.0855994030467
 21
1824.029999999993
 31
0.0
1001
REVIT
1002
{
1070
     3
1000
790271
1002
}
  0
LINE
  5
FC
330
87
100
AcDbEntity
  8
M-PIPE
370
    18
100
AcDbLine
 10
790.7855994030463
 20
1802.029999999993
 30
0.0
 11
805.78559940306
 21
1802.029999999993
 31
0.0
1001
REVIT
1002
{
1070
     3
1000
790271
1002
}
  0
LINE
  5
FD
330
87
100
AcDbEntity
  8
M-PIPE
370
    18
100
AcDbLine
 10
791.8155994030438
 20
1800.999999999995
 30
0.0
 11
804.7555994030624
 21
1800.999999999995
 31
0.0
1001
REVIT
1002
{
1070
     3
1000
790271
1002
}
  0
LINE
  5
FE
330
87
100
AcDbEntity
  8
M-PIPE
370
    18
100
AcDbLine
 10
824.7855994030464
 20
1846.280000000044
 30
0.0
 11
824.7855994030464
 21
1853.779999999917
 31
0.0
1001
REVIT
1002
{
1070
     3
1000
790271
1002
}
  0
LINE
  5
FF
330
87
100
AcDbEntity
  8
M-PIPE
370
    18
100
AcDbLine
 10
820.2855994030464
 20
1856.47999999998
 30
0.0
 11
820.2855994030464
 21
1843.57999999998
 31
0.0
1001
REVIT
1002
{
1070
     3
1000
790271
1002
}
  0
LINE
  5
100
330
87
100
AcDbEntity
  8
M-PIPE
370
    18
100
AcDbLine
 10
784.2855994030538
 20
1881.175052467645
 30
0.0
 11
784.2855994030538
 21
1868.499999999996
 31
0.0
1001
REVIT
1002
{
1070
     3
1000
790271
1002
}
  0
LINE
  5
101
330
87
100
AcDbEntity
  8
M-PIPE
370
    18
100
AcDbLine
 10
812.2855994030558
 20
1868.499999999996
 30
0.0
 11
812.2855994030558
 21
1881.175052467645
 31
0.0
1001
REVIT
1002
{
1070
     3
1000
790271
1002
}
  0
LINE
  5
102
330
87
100
AcDbEntity
  8
M-PIPE
370
    18
100
AcDbLine
 10
784.3992118408505
 20
1881.175052467644
 30
0.0
 11
784.4291929425061
 21
1881.175052467644
 31
0.0
1001
REVIT
1002
{
1070
     3
1000
790271
1002
}
  0
LINE
  5
103
330
87
100
AcDbEntity
  8
M-PIPE
370
    18
100
AcDbLine
 10
784.4291929425061
 20
1881.175052467644
 30
0.0
 11
784.4519897026887
 21
1881.175052467644
 31
0.0
1001
REVIT
1002
{
1070
     3
1000
790271
1002
}
  0
LINE
  5
104
330
87
100
AcDbEntity
  8
M-PIPE
370
    18
100
AcDbLine
 10
789.6253453651838
 20
1881.175052467644
 30
0.0
 11
789.8571371813793
 21
1881.175052467644
 31
0.0
1001
REVIT
1002
{
1070
     3
1000
790271
1002
}
  0
LINE
  5
105
330
87
100
AcDbEntity
  8
M-PIPE
370
    18
100
AcDbLine
 10
790.487584860096
 20
1881.175052467644
 30
0.0
 11
791.285599403053
 21
1881.175052467644
 31
0.0
1001
REVIT
1002
{
1070
     3
1000
790271
1002
}
  0
LINE
  5
106
330
87
100
AcDbEntity
  8
M-PIPE
370
    18
100
AcDbLine
 10
791.6749054804404
 20
1881.175052467644
 30
0.0
 11
792.9231238172048
 21
1881.175052467644
 31
0.0
1001
REVIT
1002
{
1070
     3
1000
790271
1002
}
  0
LINE
  5
107
330
87
100
AcDbEntity
  8
M-PIPE
370
    18
100
AcDbLine
 10
803.6480749889019
 20
1881.175052467644
 30
0.0
 11
804.896293325666
 21
1881.175052467644
 31
0.0
1001
REVIT
1002
{
1070
     3
1000
790271
1002
}
  0
LINE
  5
108
330
87
100
AcDbEntity
  8
M-PIPE
370
    18
100
AcDbLine
 10
805.2855994030538
 20
1881.175052467644
 30
0.0
 11
805.500419931551
 21
1881.175052467644
 31
0.0
1001
REVIT
1002
{
1070
     3
1000
790271
1002
}
  0
LINE
  5
109
330
87
100
AcDbEntity
  8
M-PIPE
370
    18
100
AcDbLine
 10
806.0836139460105
 20
1881.175052467644
 30
0.0
 11
806.9458534409232
 21
1881.175052467644
 31
0.0
1001
REVIT
1002
{
1070
     3
1000
790271
1002
}
  0
LINE
  5
10A
330
87
100
AcDbEntity
  8
M-PIPE
370
    18
100
AcDbLine
 10
812.1192091034171
 20
1881.175052467644
 30
0.0
 11
812.142005863601
 21
1881.175052467644
 31
0.0
1001
REVIT
1002
{
1070
     3
1000
790271
1002
}
  0
LINE
  5
10B
330
87
100
AcDbEntity
  8
M-PIPE
370
    18
100
AcDbLine
 10
812.142005863601
 20
1881.175052467644
 30
0.0
 11
812.1719869652579
 21
1881.175052467644
 31
0.0
1001
REVIT
1002
{
1070
     3
1000
790271
1002
}
  0
LINE
  5
10C
330
87
100
AcDbEntity
  8
M-PIPE
370
    18
100
AcDbLine
 10
812.2855994030544
 20
1868.499999999995
 30
0.0
 11
812.142005863601
 21
1868.499999999995
 31
0.0
1001
REVIT
1002
{
1070
     3
1000
790271
1002
}
  0
LINE
  5
10D
330
87
100
AcDbEntity
  8
M-PIPE
370
    18
100
AcDbLine
 10
812.142005863601
 20
1868.499999999995
 30
0.0
 11
806.9458534409232
 21
1868.499999999995
 31
0.0
1001
REVIT
1002
{
1070
     3
1000
790271
1002
}
  0
LINE
  5
10E
330
87
100
AcDbEntity
  8
M-PIPE
370
    18
100
AcDbLine
 10
806.9458534409232
 20
1868.499999999995
 30
0.0
 11
803.4817518257314
 21
1868.499999999995
 31
0.0
1001
REVIT
1002
{
1070
     3
1000
790271
1002
}
  0
LINE
  5
10F
330
87
100
AcDbEntity
  8
M-PIPE
370
    18
100
AcDbLine
 10
803.4817518257314
 20
1868.499999999995
 30
0.0
 11
793.0894469803757
 21
1868.499999999995
 31
0.0
1001
REVIT
1002
{
1070
     3
1000
790271
1002
}
  0
LINE
  5
110
330
87
100
AcDbEntity
  8
M-PIPE
370
    18
100
AcDbLine
 10
793.0894469803757
 20
1868.499999999995
 30
0.0
 11
789.6253453651838
 21
1868.499999999995
 31
0.0
1001
REVIT
1002
{
1070
     3
1000
790271
1002
}
  0
LINE
  5
111
330
87
100
AcDbEntity
  8
M-PIPE
370
    18
100
AcDbLine
 10
789.6253453651838
 20
1868.499999999995
 30
0.0
 11
784.4291929425061
 21
1868.499999999995
 31
0.0
1001
REVIT
1002
{
1070
     3
1000
790271
1002
}
  0
LINE
  5
112
330
87
100
AcDbEntity
  8
M-PIPE
370
    18
100
AcDbLine
 10
784.4291929425061
 20
1868.499999999995
 30
0.0
 11
784.2855994030526
 21
1868.499999999995
 31
0.0
1001
REVIT
1002
{
1070
     3
1000
790271
1002
}
  0
LINE
  5
113
330
87
100
AcDbEntity
  8
M-PIPE
370
    18
100
AcDbLine
 10
784.4291929425061
 20
1868.499999999995
 30
0.0
 11
784.4291929425061
 21
1881.175052467644
 31
0.0
1001
REVIT
1002
{
1070
     3
1000
790271
1002
}
  0
LINE
  5
114
330
87
100
AcDbEntity
  8
M-PIPE
370
    18
100
AcDbLine
 10
789.6253453651838
 20
1868.499999999995
 30
0.0
 11
789.6253453651838
 21
1881.175052467644
 31
0.0
1001
REVIT
1002
{
1070
     3
1000
790271
1002
}
  0
LINE
  5
115
330
87
100
AcDbEntity
  8
M-PIPE
370
    18
100
AcDbLine
 10
793.0894469803757
 20
1868.499999999995
 30
0.0
 11
793.0894469803757
 21
1881.175052467644
 31
0.0
1001
REVIT
1002
{
1070
     3
1000
790271
1002
}
  0
LINE
  5
116
330
87
100
AcDbEntity
  8
M-PIPE
370
    18
100
AcDbLine
 10
803.4817518257311
 20
1868.499999999995
 30
0.0
 11
803.4817518257311
 21
1881.175052467644
 31
0.0
1001
REVIT
1002
{
1070
     3
1000
790271
1002
}
  0
LINE
  5
117
330
87
100
AcDbEntity
  8
M-PIPE
370
    18
100
AcDbLine
 10
806.9458534409232
 20
1868.499999999995
 30
0.0
 11
806.9458534409232
 21
1881.175052467644
 31
0.0
1001
REVIT
1002
{
1070
     3
1000
790271
1002
}
  0
LINE
  5
118
330
87
100
AcDbEntity
  8
M-PIPE
370
    18
100
AcDbLine
 10
812.142005863601
 20
1868.499999999995
 30
0.0
 11
812.142005863601
 21
1881.175052467644
 31
0.0
1001
REVIT
1002
{
1070
     3
1000
790271
1002
}
  0
LINE
  5
119
330
87
100
AcDbEntity
  8
M-PIPE
370
    18
100
AcDbLine
 10
759.28559940304
 20
1937.465415000896
 30
0.0
 11
759.7568735458247
 21
1935.706595955729
 31
0.0
1001
REVIT
1002
{
1070
     3
1000
790271
1002
}
  0
LINE
  5
11A
330
87
100
AcDbEntity
  8
M-PIPE
370
    18
100
AcDbLine
 10
836.8143252602843
 20
1935.706595955729
 30
0.0
 11
837.2855994030691
 21
1937.465415000896
 31
0.0
1001
REVIT
1002
{
1070
     3
1000
790271
1002
}
  0
LINE
  5
11B
330
87
100
AcDbEntity
  8
M-PIPE
370
    18
100
AcDbLine
 10
767.2855994030542
 20
1934.965415000832
 30
0.0
 11
767.2855994030542
 21
1934.465415000832
 31
0.0
1001
REVIT
1002
{
1070
     3
1000
790271
1002
}
  0
LINE
  5
11C
330
87
100
AcDbEntity
  8
M-PIPE
370
    18
100
AcDbLine
 10
829.2855994030547
 20
1934.465415000832
 30
0.0
 11
829.2855994030547
 21
1934.965415000832
 31
0.0
1001
REVIT
1002
{
1070
     3
1000
790271
1002
}
  0
LWPOLYLINE
  5
11D
330
87
100
AcDbEntity
  8
M-PIPE
370
    18
100
AcDbPolyline
 90
       22
 70
   128
 43
0.0
 10
830.2855994030545
 20
1907.465415000832
 10
829.9462493082677
 20
1905.942878613591
 10
829.5462854409604
 20
1904.435130477411
 10
829.0863476579998
 20
1902.944582667674
 10
828.567171761723
 20
1901.47361974291
 10
827.9895883228132
 20
1900.02459493001
 10
827.3545213515609
 20
1898.599826359564
 10
826.6629868196467
 20
1897.201593357352
 10
825.916091034802
 20
1895.832132797903
 10
825.1150288709535
 20
1894.493635525976
 10
824.2610818566786
 20
1893.188242851676
 10
823.3556161250353
 20
1891.918043124812
 10
822.4000802280379
 20
1890.685068393987
 10
821.3960028192852
 20
1889.491291155748
 10
820.344990208439
 20
1888.338621199018
 10
819.2487237914733
 20
1887.228902549838
 10
818.108957360797
 20
1886.163910521319
 10
816.9275142995621
 20
1885.145348873521
 10
815.7062846646386
 20
1884.174847087799
 10
814.4472221629277
 20
1883.25395775998
 10
813.1523410258465
 20
1882.384154116543
 10
812.6995136390943
 20
1882.097328793793
1001
REVIT
1002
{
1070
     3
1000
790271
1002
}
  0
LWPOLYLINE
  5
11E
330
87
100
AcDbEntity
  8
M-PIPE
370
    18
100
AcDbPolyline
 90
       22
 70
   128
 43
0.0
 10
783.8716851670149
 20
1882.097328793793
 10
782.5649718626383
 20
1882.949253601197
 10
781.2933716953554
 20
1883.852751554637
 10
780.0589189541729
 20
1884.806377250124
 10
778.8635885001414
 20
1885.808605089974
 10
777.7092926069967
 20
1886.85783172344
 10
776.5978779019317
 20
1887.952378611732
 10
775.5311224113848
 20
1889.09049471332
 10
774.5107327165787
 20
1890.270359285226
 10
773.5383412233537
 20
1891.490084795826
 10
772.6155035506664
 20
1892.747719944497
 10
771.7436960419316
 20
1894.041252783284
 10
770.9243134031876
 20
1895.368613935582
 10
770.1586664718639
 20
1896.727679906703
 10
769.4479801197214
 20
1898.116276481013
 10
768.7933912933187
 20
1899.532182200209
 10
768.1959471951398
 20
1900.973131917186
 10
767.6566036082937
 20
1902.436820419783
 10
767.1762233674659
 20
1903.920906118631
 10
766.7555749785657
 20
1905.423014793202
 10
766.3953313892817
 20
1906.940743390048
 10
766.2855994030544
 20
1907.465415000832
1001
REVIT
1002
{
1070
     3
1000
790271
1002
}
  0
LWPOLYLINE
  5
11F
330
87
100
AcDbEntity
  8
M-PIPE
370
    18
100
AcDbPolyline
 90
       34
 70
   128
 43
0.0
 10
836.8143252602843
 20
1935.706595955729
 10
836.8032026213613
 20
1935.668176252693
 10
836.790552501019
 20
1935.630232068245
 10
836.7763951367514
 20
1935.592824104989
 10
836.7607531773217
 20
1935.556012207683
 10
836.7436516465273
 20
1935.519855267512
 10
836.7251179031699
 20
1935.484411127866
 10
836.705181597285
 20
1935.449736491809
 10
836.6838746227095
 20
1935.415886831361
 10
836.6612310660572
 20
1935.382916298757
 10
836.6372871521884
 20
1935.350877639816
 10
836.6120811862574
 20
1935.319822109559
 10
836.5856534924331
 20
1935.28979939021
 10
836.5580463493875
 20
1935.260857511713
 10
836.5293039226608
 20
1935.233042774902
 10
836.4994721940041
 20
1935.20639967742
 10
836.4685988878196
 20
1935.180970842542
 10
836.4367333948109
 20
1935.156796950978
 10
836.4039266929694
 20
1935.133916675797
 10
836.3702312660199
 20
1935.11236662056
 10
836.3357010194574
 20
1935.092181260757
 10
836.3003911943101
 20
1935.073392888658
 10
836.2643582787663
 20
1935.056031561651
 10
836.2276599178038
 20
1935.040125054155
 10
836.1903548209717
 20
1935.025698813189
 10
836.1525026684674
 20
1935.012775917662
 10
836.1141640156596
 20
1935.001377041448
 10
836.0754001962144
 20
1934.991520420319
 10
836.0362732239741
 20
1934.983221822766
 10
835.9968456937474
 20
1934.976494524775
 10
835.957180681172
 20
1934.971349288586
 10
835.9173416418066
 20
1934.967794345482
 10
835.8773923096155
 20
1934.965835382611
 10
835.8483994339952
 20
1934.965415000832
1001
REVIT
1002
{
1070
     3
1000
790271
1002
}
  0
LWPOLYLINE
  5
120
330
87
100
AcDbEntity
  8
M-PIPE
370
    18
100
AcDbPolyline
 90
       34
 70
   128
 43
0.0
 10
760.722799372114
 20
1934.965415000832
 10
760.6828100379272
 20
1934.966214894171
 10
760.6428846781446
 20
1934.968613294529
 10
760.603087164825
 20
1934.972606364978
 10
760.5634811654997
 20
1934.978187717456
 10
760.5241300413188
 20
1934.985348422991
 10
760.4850967456867
 20
1934.99407702598
 10
760.4464437235498
 20
1935.004359562521
 10
760.4082328114977
 20
1935.01617958275
 10
760.3705251388388
 20
1935.029518177154
 10
760.3333810298053
 20
1935.044354006829
 10
760.2968599070479
 20
1935.060663337612
 10
760.2610201965724
 20
1935.078420078053
 10
760.22591923427
 20
1935.097595821154
 10
760.1916131741931
 20
1935.118159889819
 10
760.158156898719
 20
1935.140079385922
 10
760.1256039307514
 20
1935.163319242948
 10
760.0940063480954
 20
1935.187842282081
 10
760.0634147001423
 20
1935.213609271691
 10
760.0338779270032
 20
1935.240578990091
 10
760.0054432812143
 20
1935.268708291485
 10
759.9781562521428
 20
1935.297952174991
 10
759.9520604932149
 20
1935.328263856634
 10
759.9271977520775
 20
1935.359594844189
 10
759.9036078038128
 20
1935.39189501476
 10
759.8813283873059
 20
1935.425112694964
 10
759.8603951448706
 20
1935.459194743599
 10
759.8408415652289
 20
1935.494086636659
 10
759.8226989299375
 20
1935.529732554556
 10
759.805996263342
 20
1935.566075471426
 10
759.7907602861465
 20
1935.603057246355
 10
759.7770153726643
 20
1935.640618716393
 10
759.7647835118245
 20
1935.6786997912
 10
759.7568735458247
 20
1935.706595955729
1001
REVIT
1002
{
1070
     3
1000
790271
1002
}
  0
LWPOLYLINE
  5
121
330
87
100
AcDbEntity
  8
M-PIPE
370
    18
100
AcDbPolyline
 90
        3
 70
   128
 43
0.0
 10
835.8483994339952
 20
1934.965415000832
 10
835.8183532004554
 20
1934.965415000832
 10
835.7690975265999
 20
1934.965415000832
1001
REVIT
1002
{
1070
     3
1000
790271
1002
}
  0
LWPOLYLINE
  5
122
330
87
100
AcDbEntity
  8
M-PIPE
370
    18
100
AcDbPolyline
 90
        3
 70
   128
 43
0.0
 10
760.794027001717
 20
1934.965415000832
 10
760.7315557223378
 20
1934.965415000832
 10
760.722799372114
 20
1934.965415000832
1001
REVIT
1002
{
1070
     3
1000
790271
1002
}
  0
LWPOLYLINE
  5
123
330
87
100
AcDbEntity
  8
M-PIPE
370
    18
100
AcDbPolyline
 90
       80
 70
   128
 43
0.0
 10
760.722799372114
 20
1934.965415000832
 10
760.7528456056537
 20
1934.965415000832
 10
760.8429362387088
 20
1934.965415000832
 10
760.9929271454849
 20
1934.965415000832
 10
761.2025783725271
 20
1934.965415000832
 10
761.4715545225956
 20
1934.965415000832
 10
761.7994252912291
 20
1934.965415000832
 10
762.1856661551394
 20
1934.965415000832
 10
762.6296592113377
 20
1934.965415000832
 10
763.130694165648
 20
1934.965415000832
 10
763.687969469025
 20
1934.965415000832
 10
764.3005935998623
 20
1934.965415000832
 10
764.967586490237
 20
1934.965415000832
 10
765.6878810938085
 20
1934.965415000832
 10
766.4603250928656
 20
1934.965415000832
 10
767.283682741789
 20
1934.965415000832
 10
768.1566368439814
 20
1934.965415000832
 10
769.0777908590989
 20
1934.965415000832
 10
770.0456711372198
 20
1934.965415000832
 10
771.0587292763695
 20
1934.965415000832
 10
772.1153445996326
 20
1934.965415000832
 10
773.2138267478912
 20
1934.965415000832
 10
774.3524183840387
 20
1934.965415000832
 10
775.5292980043434
 20
1934.965415000832
 10
776.7425828524674
 20
1934.965415000832
 10
777.9903319314739
 20
1934.965415000832
 10
779.2705491090088
 20
1934.965415000832
 10
780.5811863106866
 20
1934.965415000832
 10
781.9201467965719
 20
1934.965415000832
 10
783.2852885155173
 20
1934.965415000832
 10
784.6744275319872
 20
1934.965415000832
 10
786.085341519889
 20
1934.965415000832
 10
787.5157733178207
 20
1934.965415000832
 10
788.9634345400486
 20
1934.965415000832
 10
790.4260092374349
 20
1934.965415000832
 10
791.9011576024631
 20
1934.965415000832
 10
793.3865197124306
 20
1934.965415000832
 10
794.8797193048218
 20
1934.965415000832
 10
796.3783675788211
 20
1934.965415000832
 10
797.8800670168848
 20
1934.965415000832
 10
799.3824152202575
 20
1934.965415000832
 10
800.8830087522975
 20
1934.965415000832
 10
802.3794469834632
 20
1934.965415000832
 10
803.8693359318077
 20
1934.965415000832
 10
805.35029209284
 20
1934.965415000832
 10
806.8199462526225
 20
1934.965415000832
 10
808.2759472780093
 20
1934.965415000832
 10
809.7159658779567
 20
1934.965415000832
 10
811.1376983298924
 20
1934.965415000832
 10
812.53887016518
 20
1934.965415000832
 10
813.9172398077841
 20
1934.965415000832
 10
815.2706021603123
 20
1934.965415000832
 10
816.5967921317033
 20
1934.965415000832
 10
817.8936881009077
 20
1934.965415000832
 10
819.1592153110311
 20
1934.965415000832
 10
820.3913491885026
 20
1934.965415000832
 10
821.5881185819593
 20
1934.965415000832
 10
822.7476089156686
 20
1934.965415000832
 10
823.8679652524412
 20
1934.965415000832
 10
824.9473952611353
 20
1934.965415000832
 10
825.984172084003
 20
1934.965415000832
 10
826.976637099295
 20
1934.965415000832
 10
827.9232025747008
 20
1934.965415000832
 10
828.8223542073838
 20
1934.965415000832
 10
829.6726535465403
 20
1934.965415000832
 10
830.4727402946149
 20
1934.965415000832
 10
831.2213344834866
 20
1934.965415000832
 10
831.9172385221451
 20
1934.965415000832
 10
832.5593391125803
 20
1934.965415000832
 10
833.1466090308211
 20
1934.965415000832
 10
833.6781087702764
 20
1934.965415000832
 10
834.1529880447435
 20
1934.965415000832
 10
834.5704871486853
 20
1934.965415000832
 10
834.9299381725975
 20
1934.965415000832
 10
835.2307660715204
 20
1934.965415000832
 10
835.4724895849887
 20
1934.965415000832
 10
835.6547220069463
 20
1934.965415000832
 10
835.7771718043919
 20
1934.965415000832
 10
835.8396430837712
 20
1934.965415000832
 10
835.8483994339952
 20
1934.965415000832
1001
REVIT
1002
{
1070
     3
1000
790271
1002
}
  0
LWPOLYLINE
  5
124
330
87
100
AcDbEntity
  8
M-PIPE
370
    18
100
AcDbPolyline
 90
       19
 70
   128
 43
0.0
 10
812.6995136390943
 20
1882.097328793793
 10
812.6597457485345
 20
1882.055441173916
 10
812.6216847260756
 20
1882.011996768201
 10
812.5853914612335
 20
1881.967065078431
 10
812.5509240154901
 20
1881.920717985723
 10
812.5183375294055
 20
1881.87302963554
 10
812.4876841344066
 20
1881.824076319068
 10
812.4590128693862
 20
1881.773936351172
 10
812.4323696022516
 20
1881.722689945103
 10
812.4077969565476
 20
1881.670419084181
 10
812.3853342432646
 20
1881.61720739063
 10
812.3650173979525
 20
1881.563139991811
 10
812.3468789232292
 20
1881.508303384027
 10
812.3309478367858
 20
1881.452785294152
 10
812.3172496249617
 20
1881.39667453929
 10
812.3058062019735
 20
1881.340060884675
 10
812.296635874857
 20
1881.283034900079
 10
812.2897533141795
 20
1881.225687814913
 10
812.2855994030551
 20
1881.175052467645
1001
REVIT
1002
{
1070
     3
1000
790271
1002
}
  0
LWPOLYLINE
  5
125
330
87
100
AcDbEntity
  8
M-PIPE
370
    18
100
AcDbPolyline
 90
       19
 70
   128
 43
0.0
 10
784.2855994030538
 20
1881.175052467645
 10
784.2807383935141
 20
1881.232606167828
 10
784.2735797381131
 20
1881.289919442655
 10
784.2641348891725
 20
1881.346900603112
 10
784.2524189564358
 20
1881.403458491497
 10
784.2384506828963
 20
1881.459502627255
 10
784.2222524148115
 20
1881.514943351724
 10
784.2038500659553
 20
1881.56969197157
 10
784.1832730761598
 20
1881.623660900682
 10
784.1605543642197
 20
1881.676763800286
 10
784.1357302752275
 20
1881.72891571707
 10
784.1088405224297
 20
1881.780033219092
 10
784.079928123695
 20
1881.830034529254
 10
784.0490393326935
 20
1881.878839656127
 10
784.0162235649018
 20
1881.926370521917
 10
783.981533318548
 20
1881.972551087379
 10
783.9450240906259
 20
1882.017307473461
 10
783.9067542881121
 20
1882.06056807949
 10
783.8716851670149
 20
1882.097328793793
1001
REVIT
1002
{
1070
     3
1000
790271
1002
}
  0
LINE
  5
126
330
87
100
AcDbEntity
  8
M-PIPE
370
    18
100
AcDbLine
 10
837.2855994030677
 20
1937.465415000895
 30
0.0
 11
759.2855994030387
 21
1937.465415000895
 31
0.0
1001
REVIT
1002
{
1070
     3
1000
790271
1002
}
  0
LINE
  5
127
330
87
100
AcDbEntity
  8
M-PIPE
370
    18
100
AcDbLine
 10
812.2855994030537
 20
1881.175052467644
 30
0.0
 11
812.1718963053213
 21
1881.175052467644
 31
0.0
1001
REVIT
1002
{
1070
     3
1000
790271
1002
}
  0
LINE
  5
128
330
87
100
AcDbEntity
  8
M-PIPE
370
    18
100
AcDbLine
 10
812.1358854866166
 20
1881.175052467644
 30
0.0
 11
806.9659645341534
 21
1881.175052467644
 31
0.0
1001
REVIT
1002
{
1070
     3
1000
790271
1002
}
  0
LINE
  5
129
330
87
100
AcDbEntity
  8
M-PIPE
370
    18
100
AcDbLine
 10
806.9523792635951
 20
1881.175052467644
 30
0.0
 11
803.4843185123598
 21
1881.175052467644
 31
0.0
1001
REVIT
1002
{
1070
     3
1000
790271
1002
}
  0
LINE
  5
12A
330
87
100
AcDbEntity
  8
M-PIPE
370
    18
100
AcDbLine
 10
803.4624435508453
 20
1881.175052467644
 30
0.0
 11
793.1087552552611
 21
1881.175052467644
 31
0.0
1001
REVIT
1002
{
1070
     3
1000
790271
1002
}
  0
LINE
  5
12B
330
87
100
AcDbEntity
  8
M-PIPE
370
    18
100
AcDbLine
 10
793.0868802937472
 20
1881.175052467644
 30
0.0
 11
791.686045087489
 21
1881.175052467644
 31
0.0
1001
REVIT
1002
{
1070
     3
1000
790271
1002
}
  0
LINE
  5
12C
330
87
100
AcDbEntity
  8
M-PIPE
370
    18
100
AcDbLine
 10
791.2778878241097
 20
1881.175052467644
 30
0.0
 11
789.6188195425118
 21
1881.175052467644
 31
0.0
1001
REVIT
1002
{
1070
     3
1000
790271
1002
}
  0
LINE
  5
12D
330
87
100
AcDbEntity
  8
M-PIPE
370
    18
100
AcDbLine
 10
789.6052342719543
 20
1881.175052467644
 30
0.0
 11
784.4353133194895
 21
1881.175052467644
 31
0.0
1001
REVIT
1002
{
1070
     3
1000
790271
1002
}
  0
LINE
  5
12E
330
87
100
AcDbEntity
  8
M-PIPE
370
    18
100
AcDbLine
 10
784.3993025007862
 20
1881.175052467644
 30
0.0
 11
784.2855994030526
 21
1881.175052467644
 31
0.0
1001
REVIT
1002
{
1070
     3
1000
790271
1002
}
  0
LINE
  5
12F
330
87
100
AcDbEntity
  8
M-PIPE
370
    18
100
AcDbLine
 10
783.8716851670135
 20
1882.097328793792
 30
0.0
 11
812.6995136390927
 21
1882.097328793792
 31
0.0
1001
REVIT
1002
{
1070
     3
1000
790271
1002
}
  0
LWPOLYLINE
  5
130
330
87
100
AcDbEntity
  8
M-PIPE
370
    18
100
AcDbPolyline
 90
       41
 70
   128
 43
0.0
 10
810.7855994030693
 20
2048.999999999996
 10
810.9055674056289
 20
2048.997600319979
 10
811.0253434849768
 20
2048.990405118904
 10
811.1447360249359
 20
2048.978425907558
 10
811.2635540229119
 20
2048.961681850123
 10
811.3816073954545
 20
2048.94019973352
 10
811.4987072823506
 20
2048.914013924552
 10
811.6146663487615
 20
2048.883166314928
 10
811.7292990849175
 20
2048.847706254243
 10
811.8424221028945
 20
2048.80769047103
 10
811.9538544299953
 20
2048.763182982005
 10
812.0634177982672
 20
2048.714254989656
 10
812.1709369296937
 20
2048.660984768334
 10
812.2762398166004
 20
2048.603457539029
 10
812.3791579968319
 20
2048.541765333037
 10
812.4795268232542
 20
2048.476006844725
 10
812.5771857271564
 20
2048.406287273649
 10
812.6719784751244
 20
2048.332718156249
 10
812.7637534189835
 20
2048.255417187419
 10
812.8523637384008
 20
2048.174508032219
 10
812.9376676757678
 20
2048.090120128037
 10
813.0195287629817
 20
2048.00238847752
 10
813.0978160397662
 20
2047.911453432592
 10
813.1724042631784
 20
2047.817460469927
 10
813.2431741079722
 20
2047.720559958214
 10
813.310012357493
 20
2047.620906917601
 10
813.3728120847992
 20
2047.518660771695
 10
813.431472823724
 20
2047.413985092517
 10
813.4859007295986
 20
2047.307047338826
 10
813.5360087293843
 20
2047.198018588215
 10
813.5817166609708
 20
2047.087073263426
 10
813.6229514014178
 20
2046.974388853312
 10
813.6596469839368
 20
2046.860145628892
 10
813.6917447034239
 20
2046.744526354953
 10
813.7191932103752
 20
2046.62771599767
 10
813.7419485930346
 20
2046.509901428697
 10
813.7599744476442
 20
2046.391271126211
 10
813.7732419366821
 20
2046.272014873389
 10
813.7817298349959
 20
2046.152323454797
 10
813.7854245637591
 20
2046.032388351171
 10
813.7855994030694
 20
2045.999999999996
1001
REVIT
1002
{
1070
     3
1000
790271
1002
}
  0
LWPOLYLINE
  5
131
330
87
100
AcDbEntity
  8
M-PIPE
370
    18
100
AcDbPolyline
 90
       41
 70
   128
 43
0.0
 10
782.7855994030398
 20
2045.999999999996
 10
782.7879990830569
 20
2046.119968002556
 10
782.7951942841318
 20
2046.239744081904
 10
782.8071734954783
 20
2046.359136621863
 10
782.823917552913
 20
2046.477954619839
 10
782.8453996695161
 20
2046.596007992381
 10
782.8715854784838
 20
2046.713107879277
 10
782.9024330881074
 20
2046.829066945688
 10
782.9378931487926
 20
2046.943699681844
 10
782.9779089320061
 20
2047.056822699822
 10
783.0224164210311
 20
2047.168255026922
 10
783.07134441338
 20
2047.277818395194
 10
783.1246146347019
 20
2047.385337526621
 10
783.1821418640068
 20
2047.490640413528
 10
783.2438340699996
 20
2047.593558593759
 10
783.3095925583108
 20
2047.693927420182
 10
783.3793121293869
 20
2047.791586324084
 10
783.4528812467871
 20
2047.886379072052
 10
783.5301822156171
 20
2047.978154015911
 10
783.6110913708171
 20
2048.066764335328
 10
783.6954792749984
 20
2048.152068272695
 10
783.783210925516
 20
2048.233929359909
 10
783.8741459704441
 20
2048.312216636693
 10
783.9681389331095
 20
2048.386804860105
 10
784.0650394448226
 20
2048.457574704899
 10
784.1646924854354
 20
2048.52441295442
 10
784.2669386313416
 20
2048.587212681726
 10
784.3716143105186
 20
2048.645873420651
 10
784.4785520642098
 20
2048.700301326526
 10
784.587580814821
 20
2048.750409326312
 10
784.6985261396099
 20
2048.796117257898
 10
784.8112105497236
 20
2048.837351998345
 10
784.925453774144
 20
2048.874047580864
 10
785.0410730480827
 20
2048.906145300351
 10
785.1578834053657
 20
2048.933593807302
 10
785.2756979743392
 20
2048.956349189962
 10
785.3943282768255
 20
2048.974375044571
 10
785.5135845296469
 20
2048.987642533609
 10
785.6332759482392
 20
2048.996130431923
 10
785.753211051865
 20
2048.999825160686
 10
785.78559940304
 20
2048.999999999996
1001
REVIT
1002
{
1070
     3
1000
790271
1002
}
  0
LWPOLYLINE
  5
132
330
87
100
AcDbEntity
  8
M-PIPE
370
    18
100
AcDbPolyline
 90
        5
 70
   128
 43
0.0
 10
785.7855994030399
 20
2048.999999999996
 10
785.7955980697775
 20
2048.999999999996
 10
785.8255780742572
 20
2048.999999999996
 10
785.8754914548666
 20
2048.999999999996
 10
785.887942008467
 20
2048.999999999996
1001
REVIT
1002
{
1070
     3
1000
790271
1002
}
  0
LWPOLYLINE
  5
133
330
87
100
AcDbEntity
  8
M-PIPE
370
    18
100
AcDbPolyline
 90
        5
 70
   128
 43
0.0
 10
810.681674703294
 20
2048.999999999996
 10
810.7211481950624
 20
2048.999999999996
 10
810.7618965542584
 20
2048.999999999996
 10
810.782685499481
 20
2048.999999999996
 10
810.7855994030694
 20
2048.999999999996
1001
REVIT
1002
{
1070
     3
1000
790271
1002
}
  0
LWPOLYLINE
  5
134
330
87
100
AcDbEntity
  8
M-PIPE
370
    18
100
AcDbPolyline
 90
       80
 70
   128
 43
0.0
 10
810.7855994030694
 20
2048.999999999996
 10
810.7756007363315
 20
2048.999999999996
 10
810.7456207318518
 20
2048.999999999996
 10
810.6957073512425
 20
2048.999999999996
 10
810.6259404452643
 20
2048.999999999996
 10
810.5364316260844
 20
2048.999999999996
 10
810.4273240887192
 20
2048.999999999996
 10
810.2987923819533
 20
2048.999999999996
 10
810.1510421290988
 20
2048.999999999996
 10
809.9843096990424
 20
2048.999999999996
 10
809.7988618281041
 20
2048.999999999996
 10
809.5949951933173
 20
2048.999999999996
 10
809.3730359378085
 20
2048.999999999996
 10
809.133339149038
 20
2048.999999999996
 10
808.8762882907348
 20
2048.999999999996
 10
808.6022945894375
 20
2048.999999999996
 10
808.31179637662
 20
2048.999999999996
 10
808.0052583874525
 20
2048.999999999996
 10
807.6831710173266
 20
2048.999999999996
 10
807.3460495373264
 20
2048.999999999996
 10
806.9944332699044
 20
2048.999999999996
 10
806.6288847260809
 20
2048.999999999996
 10
806.249988705546
 20
2048.999999999996
 10
805.8583513611067
 20
2048.999999999996
 10
805.4545992289689
 20
2048.999999999996
 10
805.0393782264144
 20
2048.999999999996
 10
804.6133526184719
 20
2048.999999999996
 10
804.1772039552334
 20
2048.999999999996
 10
803.7316299815202
 20
2048.999999999996
 10
803.2773435206392
 20
2048.999999999996
 10
802.8150713340183
 20
2048.999999999996
 10
802.3455529585444
 20
2048.999999999996
 10
801.8695395234583
 20
2048.999999999996
 10
801.3877925487131
 20
2048.999999999996
 10
800.9010827267006
 20
2048.999999999996
 10
800.4101886893105
 20
2048.999999999996
 10
799.9158957622835
 20
2048.999999999996
 10
799.41899470886
 20
2048.999999999996
 10
798.9202804647252
 20
2048.999999999996
 10
798.4205508662832
 20
2048.999999999996
 10
797.9206053742882
 20
2048.999999999996
 10
797.4212437948779
 20
2048.999999999996
 10
796.9232650000548
 20
2048.999999999996
 10
796.4274656496605
 20
2048.999999999996
 10
795.9346389168911
 20
2048.999999999996
 10
795.4455732193879
 20
2048.999999999996
 10
794.9610509579387
 20
2048.999999999996
 10
794.4818472648024
 20
2048.999999999996
 10
794.0087287636635
 20
2048.999999999996
 10
793.5424523431974
 20
2048.999999999996
 10
793.0837639462094
 20
2048.999999999996
 10
792.6333973762868
 20
2048.999999999996
 10
792.1920731238681
 20
2048.999999999996
 10
791.7604972136132
 20
2048.999999999996
 10
791.339360074914
 20
2048.999999999996
 10
790.9293354373541
 20
2048.999999999996
 10
790.5310792528871
 20
2048.999999999996
 10
790.1452286464507
 20
2048.999999999996
 10
789.7724008967052
 20
2048.999999999996
 10
789.4131924485176
 20
2048.999999999996
 10
789.0681779587781
 20
2048.999999999996
 10
788.7379093770712
 20
2048.999999999996
 10
788.4229150626739
 20
2048.999999999996
 10
788.123698939294
 20
2048.999999999996
 10
787.8407396888998
 20
2048.999999999996
 10
787.5744899859301
 20
2048.999999999996
 10
787.3253757731133
 20
2048.999999999996
 10
787.0937955800479
 20
2048.999999999996
 10
786.8801198856417
 20
2048.999999999996
 10
786.6846905254242
 20
2048.999999999996
 10
786.5078201446825
 20
2048.999999999996
 10
786.3497916982952
 20
2048.999999999996
 10
786.2108579980656
 20
2048.999999999996
 10
786.0912413082767
 20
2048.999999999996
 10
785.9911329901152
 20
2048.999999999996
 10
785.9106931955344
 20
2048.999999999996
 10
785.8500506110466
 20
2048.999999999996
 10
785.8093022518507
 20
2048.999999999996
 10
785.7885133066283
 20
2048.999999999996
 10
785.7855994030399
 20
2048.999999999996
1001
REVIT
1002
{
1070
     3
1000
790271
1002
}
  0
LINE
  5
135
330
87
100
AcDbEntity
  8
M-PIPE
370
    18
100
AcDbLine
 10
782.7855994030398
 20
2045.999999999996
 30
0.0
 11
782.7855994030398
 21
2045.000000859741
 31
0.0
1001
REVIT
1002
{
1070
     3
1000
790271
1002
}
  0
LINE
  5
136
330
87
100
AcDbEntity
  8
M-PIPE
370
    18
100
AcDbLine
 10
813.7855994030694
 20
2045.000000859741
 30
0.0
 11
813.7855994030694
 21
2045.999999999996
 31
0.0
1001
REVIT
1002
{
1070
     3
1000
790271
1002
}
  0
LINE
  5
137
330
87
100
AcDbEntity
  8
M-PIPE
370
    18
100
AcDbLine
 10
813.5174784661741
 20
2045.00000085974
 30
0.0
 11
813.3222203155579
 21
2045.00000085974
 31
0.0
1001
REVIT
1002
{
1070
     3
1000
790271
1002
}
  0
LINE
  5
138
330
87
100
AcDbEntity
  8
M-PIPE
370
    18
100
AcDbLine
 10
812.6057321569916
 20
2045.00000085974
 30
0.0
 11
812.3498233077102
 21
2045.00000085974
 31
0.0
1001
REVIT
1002
{
1070
     3
1000
790271
1002
}
  0
LINE
  5
139
330
87
100
AcDbEntity
  8
M-PIPE
370
    18
100
AcDbLine
 10
811.9553790004657
 20
2045.00000085974
 30
0.0
 11
811.7228664357471
 21
2045.00000085974
 31
0.0
1001
REVIT
1002
{
1070
     3
1000
790271
1002
}
  0
LINE
  5
13A
330
87
100
AcDbEntity
  8
M-PIPE
370
    18
100
AcDbLine
 10
810.9925014209709
 20
2045.00000085974
 30
0.0
 11
810.2672614301868
 21
2045.00000085974
 31
0.0
1001
REVIT
1002
{
1070
     3
1000
790271
1002
}
  0
LINE
  5
13B
330
87
100
AcDbEntity
  8
M-PIPE
370
    18
100
AcDbLine
 10
810.1645795136777
 20
2045.00000085974
 30
0.0
 11
808.2538571026935
 21
2045.00000085974
 31
0.0
1001
REVIT
1002
{
1070
     3
1000
790271
1002
}
  0
LINE
  5
13C
330
87
100
AcDbEntity
  8
M-PIPE
370
    18
100
AcDbLine
 10
808.1186953075992
 20
2045.00000085974
 30
0.0
 11
807.1837809123296
 21
2045.00000085974
 31
0.0
1001
REVIT
1002
{
1070
     3
1000
790271
1002
}
  0
LINE
  5
13D
330
87
100
AcDbEntity
  8
M-PIPE
370
    18
100
AcDbLine
 10
806.8969380148653
 20
2045.00000085974
 30
0.0
 11
806.0441372226048
 21
2045.00000085974
 31
0.0
1001
REVIT
1002
{
1070
     3
1000
790271
1002
}
  0
LINE
  5
13E
330
87
100
AcDbEntity
  8
M-PIPE
370
    18
100
AcDbLine
 10
805.5922488238632
 20
2045.00000085974
 30
0.0
 11
804.8440584935521
 21
2045.00000085974
 31
0.0
1001
REVIT
1002
{
1070
     3
1000
790271
1002
}
  0
LINE
  5
13F
330
87
100
AcDbEntity
  8
M-PIPE
370
    18
100
AcDbLine
 10
803.5931451416956
 20
2045.00000085974
 30
0.0
 11
802.7850119005018
 21
2045.00000085974
 31
0.0
1001
REVIT
1002
{
1070
     3
1000
790271
1002
}
  0
LINE
  5
140
330
87
100
AcDbEntity
  8
M-PIPE
370
    18
100
AcDbLine
 10
802.3013988653881
 20
2045.00000085974
 30
0.0
 11
801.3094993943063
 21
2045.00000085974
 31
0.0
1001
REVIT
1002
{
1070
     3
1000
790271
1002
}
  0
LINE
  5
141
330
87
100
AcDbEntity
  8
M-PIPE
370
    18
100
AcDbLine
 10
800.9791480045013
 20
2045.00000085974
 30
0.0
 11
799.8048650781631
 21
2045.00000085974
 31
0.0
1001
REVIT
1002
{
1070
     3
1000
790271
1002
}
  0
LINE
  5
142
330
87
100
AcDbEntity
  8
M-PIPE
370
    18
100
AcDbLine
 10
799.636968045903
 20
2045.00000085974
 30
0.0
 11
796.9342307602032
 21
2045.00000085974
 31
0.0
1001
REVIT
1002
{
1070
     3
1000
790271
1002
}
  0
LINE
  5
143
330
87
100
AcDbEntity
  8
M-PIPE
370
    18
100
AcDbLine
 10
796.7663337279438
 20
2045.00000085974
 30
0.0
 11
795.5920508016052
 21
2045.00000085974
 31
0.0
1001
REVIT
1002
{
1070
     3
1000
790271
1002
}
  0
LINE
  5
144
330
87
100
AcDbEntity
  8
M-PIPE
370
    18
100
AcDbLine
 10
795.2616994118004
 20
2045.00000085974
 30
0.0
 11
794.2697999407186
 21
2045.00000085974
 31
0.0
1001
REVIT
1002
{
1070
     3
1000
790271
1002
}
  0
LINE
  5
145
330
87
100
AcDbEntity
  8
M-PIPE
370
    18
100
AcDbLine
 10
793.786186905605
 20
2045.00000085974
 30
0.0
 11
792.978053664411
 21
2045.00000085974
 31
0.0
1001
REVIT
1002
{
1070
     3
1000
790271
1002
}
  0
LINE
  5
146
330
87
100
AcDbEntity
  8
M-PIPE
370
    18
100
AcDbLine
 10
791.7271403125543
 20
2045.00000085974
 30
0.0
 11
790.9789499822435
 21
2045.00000085974
 31
0.0
1001
REVIT
1002
{
1070
     3
1000
790271
1002
}
  0
LINE
  5
147
330
87
100
AcDbEntity
  8
M-PIPE
370
    18
100
AcDbLine
 10
790.5270615835014
 20
2045.00000085974
 30
0.0
 11
789.6742607912414
 21
2045.00000085974
 31
0.0
1001
REVIT
1002
{
1070
     3
1000
790271
1002
}
  0
LINE
  5
148
330
87
100
AcDbEntity
  8
M-PIPE
370
    18
100
AcDbLine
 10
789.3874178937767
 20
2045.00000085974
 30
0.0
 11
788.4525034985077
 21
2045.00000085974
 31
0.0
1001
REVIT
1002
{
1070
     3
1000
790271
1002
}
  0
LINE
  5
149
330
87
100
AcDbEntity
  8
M-PIPE
370
    18
100
AcDbLine
 10
788.3173417034128
 20
2045.00000085974
 30
0.0
 11
786.4066192924286
 21
2045.00000085974
 31
0.0
1001
REVIT
1002
{
1070
     3
1000
790271
1002
}
  0
LINE
  5
14A
330
87
100
AcDbEntity
  8
M-PIPE
370
    18
100
AcDbLine
 10
786.3039373759195
 20
2045.00000085974
 30
0.0
 11
785.5786973851352
 21
2045.00000085974
 31
0.0
1001
REVIT
1002
{
1070
     3
1000
790271
1002
}
  0
LINE
  5
14B
330
87
100
AcDbEntity
  8
M-PIPE
370
    18
100
AcDbLine
 10
784.848332370359
 20
2045.00000085974
 30
0.0
 11
784.6158198056408
 21
2045.00000085974
 31
0.0
1001
REVIT
1002
{
1070
     3
1000
790271
1002
}
  0
LINE
  5
14C
330
87
100
AcDbEntity
  8
M-PIPE
370
    18
100
AcDbLine
 10
784.2213754983961
 20
2045.00000085974
 30
0.0
 11
783.9654666491147
 21
2045.00000085974
 31
0.0
1001
REVIT
1002
{
1070
     3
1000
790271
1002
}
  0
LINE
  5
14D
330
87
100
AcDbEntity
  8
M-PIPE
370
    18
100
AcDbLine
 10
783.1678227484404
 20
2045.00000085974
 30
0.0
 11
783.0537203399324
 21
2045.00000085974
 31
0.0
1001
REVIT
1002
{
1070
     3
1000
790271
1002
}
  0
LINE
  5
14E
330
87
100
AcDbEntity
  8
M-PIPE
370
    18
100
AcDbLine
 10
853.2855994030546
 20
2019.999999999996
 30
0.0
 11
852.1868534757825
 21
2021.903083770641
 31
0.0
1001
REVIT
1002
{
1070
     3
1000
790271
1002
}
  0
LINE
  5
14F
330
87
100
AcDbEntity
  8
M-PIPE
370
    18
100
AcDbLine
 10
852.1642681401015
 20
2021.942202719546
 30
0.0
 11
852.1308988646755
 21
2021.999999999996
 31
0.0
1001
REVIT
1002
{
1070
     3
1000
790271
1002
}
  0
LINE
  5
150
330
87
100
AcDbEntity
  8
M-PIPE
370
    18
100
AcDbLine
 10
852.1308988646753
 20
1977.999999999995
 30
0.0
 11
852.1642691570521
 21
1978.057799041856
 31
0.0
1001
REVIT
1002
{
1070
     3
1000
790271
1002
}
  0
LINE
  5
151
330
87
100
AcDbEntity
  8
M-PIPE
370
    18
100
AcDbLine
 10
852.1868534757825
 20
1978.096916229351
 30
0.0
 11
853.2855994030546
 21
1979.999999999996
 31
0.0
1001
REVIT
1002
{
1070
     3
1000
790271
1002
}
  0
LINE
  5
152
330
87
100
AcDbEntity
  8
M-PIPE
370
    18
100
AcDbLine
 10
852.1308988646753
 20
2021.999999999996
 30
0.0
 11
841.2251783077353
 21
2021.999999999996
 31
0.0
1001
REVIT
1002
{
1070
     3
1000
790271
1002
}
  0
LINE
  5
153
330
87
100
AcDbEntity
  8
M-PIPE
370
    18
100
AcDbLine
 10
840.2109667016491
 20
1977.999999999995
 30
0.0
 11
852.1308988646755
 21
1977.999999999995
 31
0.0
1001
REVIT
1002
{
1070
     3
1000
790271
1002
}
  0
LINE
  5
154
330
87
100
AcDbEntity
  8
M-PIPE
370
    18
100
AcDbLine
 10
744.4402999414336
 20
1977.999999999996
 30
0.0
 11
756.3602321044598
 21
1977.999999999996
 31
0.0
1001
REVIT
1002
{
1070
     3
1000
790271
1002
}
  0
LINE
  5
155
330
87
100
AcDbEntity
  8
M-PIPE
370
    18
100
AcDbLine
 10
755.346020498373
 20
2021.999999999996
 30
0.0
 11
744.4402999414336
 21
2021.999999999996
 31
0.0
1001
REVIT
1002
{
1070
     3
1000
790271
1002
}
  0
LINE
  5
156
330
87
100
AcDbEntity
  8
M-PIPE
370
    18
100
AcDbLine
 10
744.4402999414336
 20
2021.999999999996
 30
0.0
 11
744.4069306660071
 21
2021.942202719545
 31
0.0
1001
REVIT
1002
{
1070
     3
1000
790271
1002
}
  0
LINE
  5
157
330
87
100
AcDbEntity
  8
M-PIPE
370
    18
100
AcDbLine
 10
744.3843453303262
 20
2021.90308377064
 30
0.0
 11
743.2855994030544
 21
2019.999999999996
 31
0.0
1001
REVIT
1002
{
1070
     3
1000
790271
1002
}
  0
LINE
  5
158
330
87
100
AcDbEntity
  8
M-PIPE
370
    18
100
AcDbLine
 10
743.2855994030544
 20
1979.999999999996
 30
0.0
 11
744.3843453303263
 21
1978.096916229351
 31
0.0
1001
REVIT
1002
{
1070
     3
1000
790271
1002
}
  0
LINE
  5
159
330
87
100
AcDbEntity
  8
M-PIPE
370
    18
100
AcDbLine
 10
744.4069296490567
 20
1978.057799041856
 30
0.0
 11
744.4402999414336
 21
1977.999999999996
 31
0.0
1001
REVIT
1002
{
1070
     3
1000
790271
1002
}
  0
LINE
  5
15A
330
87
100
AcDbEntity
  8
M-PIPE
370
    18
100
AcDbLine
 10
837.785599403055
 20
1937.965415000897
 30
0.0
 11
837.7855994030548
 21
1963.342046273145
 31
0.0
1001
REVIT
1002
{
1070
     3
1000
790271
1002
}
  0
LINE
  5
15B
330
87
100
AcDbEntity
  8
M-PIPE
370
    18
100
AcDbLine
 10
758.7855994030547
 20
1963.342046273143
 30
0.0
 11
758.7855994030551
 21
1937.965415000896
 31
0.0
1001
REVIT
1002
{
1070
     3
1000
790271
1002
}
  0
LWPOLYLINE
  5
15C
330
87
100
AcDbEntity
  8
M-PIPE
370
    18
100
AcDbPolyline
 90
        8
 70
   128
 43
0.0
 10
758.7855994030551
 20
1963.342046273143
 10
758.7536036694942
 20
1964.941619640609
 10
758.6576676551596
 20
1966.53863403191
 10
758.4979448372096
 20
1968.1305345647
 10
758.27469073808
 20
1969.714774537713
 10
757.9882625167045
 20
1971.288819504946
 10
757.639118397136
 20
1972.850151330229
 10
757.2283715602497
 20
1974.394343268339
1001
REVIT
1002
{
1070
     3
1000
790271
1002
}
  0
LWPOLYLINE
  5
15D
330
87
100
AcDbEntity
  8
M-PIPE
370
    18
100
AcDbPolyline
 90
        8
 70
   128
 43
0.0
 10
839.3428272458596
 20
1974.39434326834
 10
838.9316033651708
 20
1972.848201746737
 10
838.5825375897324
 20
1971.28685240425
 10
838.2961883503213
 20
1969.712793066753
 10
838.0730137446363
 20
1968.128541893407
 10
837.9133708044383
 20
1966.536633348134
 10
837.8175149243762
 20
1964.939614145015
 10
837.7855994030545
 20
1963.342046273145
1001
REVIT
1002
{
1070
     3
1000
790271
1002
}
  0
LWPOLYLINE
  5
15E
330
87
100
AcDbEntity
  8
M-PIPE
370
    18
100
AcDbPolyline
 90
       40
 70
   128
 43
0.0
 10
755.3460204983728
 20
2021.999999999996
 10
755.3756054573312
 20
2022.479055332752
 10
755.4243238552731
 20
2022.956544389527
 10
755.4920977531551
 20
2023.43170328969
 10
755.5788187271977
 20
2023.903771880362
 10
755.6843480423425
 20
2024.371994952502
 10
755.8085168741966
 20
2024.835623449074
 10
755.9511265791171
 20
2025.293915663388
 10
756.1119490119978
 20
2025.746138425664
 10
756.2907268912534
 20
2026.191568275952
 10
756.4871742104136
 20
2026.629492621511
 10
756.7009766956751
 20
2027.059210876807
 10
756.9317923086698
 20
2027.480035584299
 10
757.1792517936553
 20
2027.891293514228
 10
757.4429592682434
 20
2028.292326741635
 10
757.7224928567301
 20
2028.682493698906
 10
758.0174053650044
 20
2029.06117020214
 10
758.327224995964
 20
2029.427750449713
 10
758.651456104291
 20
2029.781647991427
 10
758.9895799893777
 20
2030.122296666711
 10
759.3410557251367
 20
2030.44915151035
 10
759.7053210253688
 20
2030.761689624323
 10
760.0817931432997
 20
2031.059411014315
 10
760.4698698038495
 20
2031.341839389615
 10
760.8689301671475
 20
2031.608522925071
 10
761.2783358217405
 20
2031.859034983913
 10
761.6974318059162
 20
2032.09297480029
 10
762.1255476555023
 20
2032.309968120398
 10
762.561998476466
 20
2032.509667801215
 10
763.0060860405983
 20
2032.691754365851
 10
763.4570999025304
 20
2032.855936514648
 10
763.9143185362944
 20
2033.00195159119
 10
764.3770104896108
 20
2033.129566002503
 10
764.8444355540564
 20
2033.238575592751
 10
765.3158459492407
 20
2033.328805969845
 10
765.7904875190935
 20
2033.400112784429
 10
766.2676009383542
 20
2033.452381960812
 10
766.7464229273308
 20
2033.485529879461
 10
767.2261874729845
 20
2033.499503510777
 10
767.3355994030542
 20
2033.500002311579
1001
REVIT
1002
{
1070
     3
1000
790271
1002
}
  0
LWPOLYLINE
  5
15F
330
87
100
AcDbEntity
  8
M-PIPE
370
    18
100
AcDbPolyline
 90
       40
 70
   128
 43
0.0
 10
829.2355994030542
 20
2033.50000231158
 10
829.7154714132936
 20
2033.490403591512
 10
830.1945757306841
 20
2033.461622787211
 10
830.672145890521
 20
2033.413705941827
 10
831.1474178824251
 20
2033.346729712087
 10
831.6196313725948
 20
2033.260801245674
 10
832.0880309201795
 20
2033.156058009804
 10
832.5518671858233
 20
2033.032667571309
 10
833.0103981304473
 20
2032.890827328569
 10
833.4628902023551
 20
2032.730764195715
 10
833.9086195107578
 20
2032.552734239615
 10
834.3468729838461
 20
2032.357022270219
 10
834.7769495095519
 20
2032.143941384931
 10
835.1981610571789
 20
2031.913832467711
 10
835.6098337781046
 20
2031.667063643741
 10
836.0113090837945
 20
2031.404029690496
 10
836.4019446994028
 20
2031.125151406191
 10
836.7811156912758
 20
2030.830874936591
 10
837.1482154667118
 20
2030.52167106127
 10
837.5026567443807
 20
2030.198034440471
 10
837.8438724938483
 20
2029.860482823746
 10
838.1713168427042
 20
2029.509556221675
 10
838.4844659498417
 20
2029.145816041963
 10
838.7828188434905
 20
2028.769844191301
 10
839.0658982226659
 20
2028.382242144449
 10
839.3332512207487
 20
2027.983629981997
 10
839.5844501299743
 20
2027.574645398373
 10
839.8190930856735
 20
2027.155942681665
 10
840.0368047091722
 20
2026.7281916669
 10
840.2372367083152
 20
2026.292076664455
 10
840.4200684346609
 20
2025.8482953653
 10
840.5850073964487
 20
2025.397557724845
 10
840.7317897265246
 20
2024.940584827163
 10
840.8601806044734
 20
2024.478107731408
 10
840.9699746322779
 20
2024.010866302277
 10
841.0609961629157
 20
2023.539608026382
 10
841.1330995813543
 20
2023.065086816437
 10
841.1861695375057
 20
2022.588061805151
 10
841.2201211307612
 20
2022.109296130783
 10
841.2251783077353
 20
2021.999999999996
1001
REVIT
1002
{
1070
     3
1000
790271
1002
}
  0
LWPOLYLINE
  5
160
330
87
100
AcDbEntity
  8
M-PIPE
370
    18
100
AcDbPolyline
 90
        4
 70
   128
 43
0.0
 10
767.3355994030543
 20
2033.500002311579
 10
767.3603561018969
 20
2033.500002311579
 10
767.4345865929879
 20
2033.500002311579
 10
767.5443964310432
 20
2033.500002311579
1001
REVIT
1002
{
1070
     3
1000
790271
1002
}
  0
LWPOLYLINE
  5
161
330
87
100
AcDbEntity
  8
M-PIPE
370
    18
100
AcDbPolyline
 90
        5
 70
   128
 43
0.0
 10
829.0225809676016
 20
2033.50000231158
 10
829.0760182120292
 20
2033.50000231158
 10
829.1769111493989
 20
2033.50000231158
 10
829.2283845777694
 20
2033.50000231158
 10
829.2355994030542
 20
2033.50000231158
1001
REVIT
1002
{
1070
     3
1000
790271
1002
}
  0
LWPOLYLINE
  5
162
330
87
100
AcDbEntity
  8
M-PIPE
370
    18
100
AcDbPolyline
 90
       80
 70
   128
 43
0.0
 10
829.2355994030542
 20
2033.50000231158
 10
829.2108427042114
 20
2033.50000231158
 10
829.1366122131202
 20
2033.50000231158
 10
829.0130266827311
 20
2033.50000231158
 10
828.8402838235297
 20
2033.50000231158
 10
828.6186599872403
 20
2033.50000231158
 10
828.3485097247243
 20
2033.50000231158
 10
828.0302652187724
 20
2033.50000231158
 10
827.6644355927057
 20
2033.50000231158
 10
827.2516060958862
 20
2033.50000231158
 10
826.7924371674434
 20
2033.50000231158
 10
826.287663379712
 20
2033.50000231158
 10
825.738092263073
 20
2033.50000231158
 10
825.1446030140774
 20
2033.50000231158
 10
824.5081450889193
 20
2033.50000231158
 10
823.8297366845085
 20
2033.50000231158
 10
823.1104631095728
 20
2033.50000231158
 10
822.3514750483953
 20
2033.50000231158
 10
821.5539867199645
 20
2033.50000231158
 10
820.719273935485
 20
2033.50000231158
 10
819.8486720573487
 20
2033.50000231158
 10
818.9435738628425
 20
2033.50000231158
 10
818.0054273159999
 20
2033.50000231158
 10
817.035733251169
 20
2033.50000231158
 10
816.0360429719967
 20
2033.50000231158
 10
815.0079557696727
 20
2033.50000231158
 10
813.9531163644084
 20
2033.50000231158
 10
812.8732122742311
 20
2033.50000231158
 10
811.769971115318
 20
2033.50000231158
 10
810.6451578381781
 20
2033.50000231158
 10
809.500571904107
 20
2033.50000231158
 10
808.338044406434
 20
2033.50000231158
 10
807.1594351411629
 20
2033.50000231158
 10
805.9666296316949
 20
2033.50000231158
 10
804.7615361123934
 20
2033.50000231158
 10
803.5460824758162
 20
2033.50000231158
 10
802.3222131884995
 20
2033.50000231158
 10
801.0918861802243
 20
2033.50000231158
 10
799.8570697117481
 20
2033.50000231158
 10
798.6197392260073
 20
2033.500002311579
 10
797.381874187829
 20
2033.500002311579
 10
796.1454549172108
 20
2033.500002311579
 10
794.9124594212299
 20
2033.500002311579
 10
793.6848602296552
 20
2033.500002311579
 10
792.4646212393192
 20
2033.500002311579
 10
791.2536945723028
 20
2033.500002311579
 10
790.054017452956
 20
2033.500002311579
 10
788.8675091087521
 20
2033.500002311579
 10
787.6960676999336
 20
2033.500002311579
 10
786.5415672828604
 20
2033.500002311579
 10
785.40585481192
 20
2033.500002311579
 10
784.2907471847927
 20
2033.500002311579
 10
783.1980283358054
 20
2033.500002311579
 10
782.1294463820159
 20
2033.500002311579
 10
781.0867108265975
 20
2033.500002311579
 10
780.0714898240008
 20
2033.500002311579
 10
779.0854075112614
 20
2033.500002311579
 10
778.1300414097264
 20
2033.500002311579
 10
777.2069199013576
 20
2033.500002311579
 10
776.3175197836463
 20
2033.500002311579
 10
775.4632639070523
 20
2033.500002311579
 10
774.645518898747
 20
2033.500002311579
 10
773.8655929763001
 20
2033.500002311579
 10
773.1247338548124
 20
2033.500002311579
 10
772.4241267508371
 20
2033.500002311579
 10
771.7648924862852
 20
2033.500002311579
 10
771.1480856953512
 20
2033.500002311579
 10
770.5746931373218
 20
2033.500002311579
 10
770.0456321179731
 20
2033.500002311579
 10
769.5617490220752
 20
2033.500002311579
 10
769.1238179593591
 20
2033.500002311579
 10
768.7325395261047
 20
2033.500002311579
 10
768.3885396843368
 20
2033.500002311579
 10
768.0923687604194
 20
2033.500002311579
 10
767.8445005646515
 20
2033.500002311579
 10
767.6453316332704
 20
2033.500002311579
 10
767.4951805940788
 20
2033.500002311579
 10
767.3942876567094
 20
2033.500002311579
 10
767.342814228339
 20
2033.500002311579
 10
767.3355994030543
 20
2033.500002311579
1001
REVIT
1002
{
1070
     3
1000
790271
1002
}
  0
LWPOLYLINE
  5
163
330
87
100
AcDbEntity
  8
M-PIPE
370
    18
100
AcDbPolyline
 90
       39
 70
   128
 43
0.0
 10
777.6851728729
 20
2033.515993780066
 10
777.884160439499
 20
2033.53595913231
 10
778.0821904361255
 20
2033.563865894701
 10
778.2789460570295
 20
2033.599669422373
 10
778.4741125351899
 20
2033.643312437319
 10
778.6673776458748
 20
2033.694725120025
 10
778.8584322061349
 20
2033.753825221167
 10
779.0469705694298
 20
2033.82051819319
 10
779.2326911145975
 20
2033.894697341565
 10
779.4152967283843
 20
2033.976243995479
 10
779.5944952807617
 20
2034.065027697683
 10
779.770000092273
 20
2034.160906413191
 10
779.9415303926588
 20
2034.263726756512
 10
780.1088117700294
 20
2034.373324237031
 10
780.2715766098661
 20
2034.489523522158
 10
780.4295645231465
 20
2034.612138717824
 10
780.5825227629116
 20
2034.740973665875
 10
780.730206628607
 20
2034.875822257875
 10
780.8723798575519
 20
2035.016468764843
 10
781.0088150029086
 20
2035.162688182373
 10
781.139293797549
 20
2035.314246590586
 10
781.2636075032361
 20
2035.470901528362
 10
781.3815572445593
 20
2035.632402381217
 10
781.4929543270939
 20
2035.798490782239
 10
781.5976205392709
 20
2035.968901025415
 10
781.695388437479
 20
2036.143360490711
 10
781.7861016139368
 20
2036.321590080196
 10
781.8696149469131
 20
2036.503304664548
 10
781.9457948328904
 20
2036.688213539196
 10
782.0145194003019
 20
2036.876020889385
 10
782.0756787045005
 20
2037.066426263419
 10
782.1291749036455
 20
2037.259125053318
 10
782.1749224152307
 20
2037.453808982122
 10
782.2128480529965
 20
2037.650166597078
 10
782.2428911440127
 20
2037.847883767888
 10
782.2650036257424
 20
2038.046644189257
 10
782.2791501229321
 20
2038.246129886911
 10
782.2853080042039
 20
2038.446021726288
 10
782.2855994030541
 20
2038.500002311579
1001
REVIT
1002
{
1070
     3
1000
790271
1002
}
  0
LWPOLYLINE
  5
164
330
87
100
AcDbEntity
  8
M-PIPE
370
    18
100
AcDbPolyline
 90
       39
 70
   128
 43
0.0
 10
814.2855994030536
 20
2038.500002311579
 10
814.2895988697487
 20
2038.300055640647
 10
814.3015908715407
 20
2038.100428841733
 10
814.3215562237841
 20
2037.901441275135
 10
814.3494629861756
 20
2037.703411278508
 10
814.3852665138474
 20
2037.506655657604
 10
814.4289095287936
 20
2037.311489179444
 10
814.4803222114997
 20
2037.118224068759
 10
814.5394223126414
 20
2036.927169508499
 10
814.6061152846639
 20
2036.738631145204
 10
814.6802944330392
 20
2036.552910600036
 10
814.7618410869538
 20
2036.370304986249
 10
814.8506247891571
 20
2036.191106433872
 10
814.9465035046654
 20
2036.015601622361
 10
815.0493238479866
 20
2035.844071321975
 10
815.1589213285053
 20
2035.676789944604
 10
815.275120613632
 20
2035.514025104768
 10
815.3977358092991
 20
2035.356037191487
 10
815.5265707573491
 20
2035.203078951722
 10
815.661419349349
 20
2035.055395086027
 10
815.8020658563177
 20
2034.913221857082
 10
815.948285273847
 20
2034.776786711725
 10
816.0998436820607
 20
2034.646307917085
 10
816.2564986198363
 20
2034.521994211398
 10
816.4179994726914
 20
2034.404044470075
 10
816.584087873713
 20
2034.29264738754
 10
816.7544981168898
 20
2034.187981175363
 10
816.9289575821849
 20
2034.090213277155
 10
817.1071871716701
 20
2033.999500100697
 10
817.2889017560223
 20
2033.915986767721
 10
817.4738106306703
 20
2033.839806881744
 10
817.6616179808599
 20
2033.771082314332
 10
817.8520233548939
 20
2033.709923010134
 10
818.0447221447918
 20
2033.656426810988
 10
818.2394060735967
 20
2033.610679299403
 10
818.4357636885525
 20
2033.572753661637
 10
818.6334808593631
 20
2033.542710570621
 10
818.832241280732
 20
2033.520598088891
 10
819.0317269783859
 20
2033.506451591701
1001
REVIT
1002
{
1070
     3
1000
790271
1002
}
  0
LINE
  5
165
330
87
100
AcDbEntity
  8
M-PIPE
370
    18
100
AcDbLine
 10
814.2855994030536
 20
2038.500002311579
 30
0.0
 11
814.2855994030535
 21
2044.500000859741
 31
0.0
1001
REVIT
1002
{
1070
     3
1000
790271
1002
}
  0
LINE
  5
166
330
87
100
AcDbEntity
  8
M-PIPE
370
    18
100
AcDbLine
 10
782.2855994030541
 20
2044.500000859741
 30
0.0
 11
782.2855994030541
 21
2038.500002311579
 31
0.0
1001
REVIT
1002
{
1070
     3
1000
790271
1002
}
  0
LWPOLYLINE
  5
167
330
87
100
AcDbEntity
  8
M-PIPE
370
    18
100
AcDbPolyline
 90
        3
 70
   128
 43
0.0
 10
757.2471416306534
 20
1974.346036567926
 10
756.7340764702866
 20
1976.313330975894
 10
756.3602321044598
 20
1977.999999999996
1001
REVIT
1002
{
1070
     3
1000
790271
1002
}
  0
LWPOLYLINE
  5
168
330
87
100
AcDbEntity
  8
M-PIPE
370
    18
100
AcDbPolyline
 90
        3
 70
   128
 43
0.0
 10
840.2109667016491
 20
1977.999999999995
 10
839.7650512769313
 20
1976.016406649431
 10
839.324057175456
 20
1974.346036567927
1001
REVIT
1002
{
1070
     3
1000
790271
1002
}
  0
LINE
  5
169
330
87
100
AcDbEntity
  8
M-PIPE
370
    18
100
AcDbLine
 10
782.7855994030398
 20
2045.000000859726
 30
0.0
 11
782.2855994030555
 21
2044.500000859741
 31
0.0
1001
REVIT
1002
{
1070
     3
1000
790271
1002
}
  0
LINE
  5
16A
330
87
100
AcDbEntity
  8
M-PIPE
370
    18
100
AcDbLine
 10
814.2855994030536
 20
2044.500000859741
 30
0.0
 11
813.7855994030694
 21
2045.000000859726
 31
0.0
1001
REVIT
1002
{
1070
     3
1000
790271
1002
}
  0
LINE
  5
16B
330
87
100
AcDbEntity
  8
M-PIPE
370
    18
100
AcDbLine
 10
758.7855994030547
 20
1937.965415000895
 30
0.0
 11
759.28559940304
 21
1937.46541500091
 31
0.0
1001
REVIT
1002
{
1070
     3
1000
790271
1002
}
  0
LINE
  5
16C
330
87
100
AcDbEntity
  8
M-PIPE
370
    18
100
AcDbLine
 10
837.2855994030691
 20
1937.46541500091
 30
0.0
 11
837.7855994030543
 21
1937.965415000895
 31
0.0
1001
REVIT
1002
{
1070
     3
1000
790271
1002
}
  0
LINE
  5
16D
330
87
100
AcDbEntity
  8
M-PIPE
370
    18
100
AcDbLine
 10
853.285599403053
 20
1998.810773564549
 30
0.0
 11
853.285599403053
 21
2001.18922448626
 31
0.0
1001
REVIT
1002
{
1070
     3
1000
790271
1002
}
  0
SPLINE
  5
16E
330
87
100
AcDbEntity
  8
M-PIPE
370
    18
100
AcDbSpline
210
0.0
220
0.0
230
1.0
 70
     8
 71
     3
 72
     9
 73
     5
 74
     0
 42
0.000000001
 43
0.0000000001
 40
-1.0
 40
-1.0
 40
-1.0
 40
-1.0
 40
-0.5
 40
0.0
 40
0.0
 40
0.0
 40
0.0
 10
852.1308988646737
 20
2021.90308377064
 30
0.0
 10
852.5058797876921
 20
2021.150456036363
 30
0.0
 10
853.0733108004405
 20
2019.634065686261
 30
0.0
 10
853.2756801466117
 20
2018.09540557306
 30
0.0
 10
853.285599403053
 20
2017.320508075684
 30
0.0
1001
REVIT
1002
{
1070
     3
1000
790271
1002
}
  0
LINE
  5
16F
330
87
100
AcDbEntity
  8
M-PIPE
370
    18
100
AcDbLine
 10
853.285599403053
 20
2019.999999999995
 30
0.0
 11
853.285599403053
 21
2017.320508075684
 31
0.0
1001
REVIT
1002
{
1070
     3
1000
790271
1002
}
  0
LINE
  5
170
330
87
100
AcDbEntity
  8
M-PIPE
370
    18
100
AcDbLine
 10
853.285599403053
 20
1982.679491924306
 30
0.0
 11
853.285599403053
 21
1979.999999999995
 31
0.0
1001
REVIT
1002
{
1070
     3
1000
790271
1002
}
  0
SPLINE
  5
171
330
87
100
AcDbEntity
  8
M-PIPE
370
    18
100
AcDbSpline
210
0.0
220
0.0
230
1.0
 70
     8
 71
     3
 72
     9
 73
     5
 74
     0
 42
0.000000001
 43
0.0000000001
 40
-1.0
 40
-1.0
 40
-1.0
 40
-1.0
 40
-0.5
 40
0.0
 40
0.0
 40
0.0
 40
0.0
 10
853.285599403053
 20
1982.679491924306
 30
0.0
 10
853.2756801466117
 20
1981.904594426931
 30
0.0
 10
853.0733108004405
 20
1980.365934313729
 30
0.0
 10
852.5058797876923
 20
1978.849543963627
 30
0.0
 10
852.1308988646737
 20
1978.09691622935
 30
0.0
1001
REVIT
1002
{
1070
     3
1000
790271
1002
}
  0
SPLINE
  5
172
330
87
100
AcDbEntity
  8
M-PIPE
370
    18
100
AcDbSpline
210
0.0
220
0.0
230
1.0
 70
     8
 71
     3
 72
     9
 73
     5
 74
     0
 42
0.000000001
 43
0.0000000001
 40
-1.0
 40
-1.0
 40
-1.0
 40
-1.0
 40
-0.5
 40
0.0
 40
0.0
 40
0.0
 40
0.0
 10
852.130898864674
 20
1987.262067619262
 30
0.0
 10
852.5058797876923
 20
1986.509439884986
 30
0.0
 10
853.0733108004406
 20
1984.993049534883
 30
0.0
 10
853.2756801466119
 20
1983.454389421681
 30
0.0
 10
853.285599403053
 20
1982.679491924306
 30
0.0
1001
REVIT
1002
{
1070
     3
1000
790271
1002
}
  0
LINE
  5
173
330
87
100
AcDbEntity
  8
M-PIPE
370
    18
100
AcDbLine
 10
853.2855994030533
 20
1999.999999999995
 30
0.0
 11
853.285599403053
 21
1982.679491924306
 31
0.0
1001
REVIT
1002
{
1070
     3
1000
790271
1002
}
  0
SPLINE
  5
174
330
87
100
AcDbEntity
  8
M-PIPE
370
    18
100
AcDbSpline
210
0.0
220
0.0
230
1.0
 70
     8
 71
     3
 72
     9
 73
     5
 74
     0
 42
0.000000001
 43
0.0000000001
 40
-1.0
 40
-1.0
 40
-1.0
 40
-1.0
 40
-0.5
 40
0.0
 40
0.0
 40
0.0
 40
0.0
 10
853.2855994030533
 20
1999.999999999995
 30
0.0
 10
853.2756801466119
 20
1998.450205005244
 30
0.0
 10
853.0733108004406
 20
1995.372884778841
 30
0.0
 10
852.5058797876923
 20
1992.340104078636
 30
0.0
 10
852.130898864674
 20
1990.834848610083
 30
0.0
1001
REVIT
1002
{
1070
     3
1000
790271
1002
}
  0
SPLINE
  5
175
330
87
100
AcDbEntity
  8
M-PIPE
370
    18
100
AcDbSpline
210
0.0
220
0.0
230
1.0
 70
     8
 71
     3
 72
     9
 73
     5
 74
     0
 42
0.000000001
 43
0.0000000001
 40
-1.0
 40
-1.0
 40
-1.0
 40
-1.0
 40
-0.5
 40
0.0
 40
0.0
 40
0.0
 40
0.0
 10
852.130898864674
 20
2009.165151389908
 30
0.0
 10
852.5058797876923
 20
2007.659895921355
 30
0.0
 10
853.0733108004406
 20
2004.627115221149
 30
0.0
 10
853.2756801466119
 20
2001.549794994746
 30
0.0
 10
853.2855994030533
 20
1999.999999999995
 30
0.0
1001
REVIT
1002
{
1070
     3
1000
790271
1002
}
  0
LINE
  5
176
330
87
100
AcDbEntity
  8
M-PIPE
370
    18
100
AcDbLine
 10
853.285599403053
 20
2017.320508075684
 30
0.0
 11
853.2855994030533
 21
1999.999999999995
 31
0.0
1001
REVIT
1002
{
1070
     3
1000
790271
1002
}
  0
SPLINE
  5
177
330
87
100
AcDbEntity
  8
M-PIPE
370
    18
100
AcDbSpline
210
0.0
220
0.0
230
1.0
 70
     8
 71
     3
 72
     9
 73
     5
 74
     0
 42
0.000000001
 43
0.0000000001
 40
-1.0
 40
-1.0
 40
-1.0
 40
-1.0
 40
-0.5
 40
0.0
 40
0.0
 40
0.0
 40
0.0
 10
853.285599403053
 20
2017.320508075684
 30
0.0
 10
853.2756801466119
 20
2016.545610578309
 30
0.0
 10
853.0733108004406
 20
2015.006950465107
 30
0.0
 10
852.5058797876923
 20
2013.490560115005
 30
0.0
 10
852.130898864674
 20
2012.737932380728
 30
0.0
1001
REVIT
1002
{
1070
     3
1000
790271
1002
}
  0
LINE
  5
178
330
87
100
AcDbEntity
  8
M-PIPE
370
    18
100
AcDbLine
 10
852.1308988646737
 20
2021.999999999995
 30
0.0
 11
852.1308988646737
 21
2021.90308377064
 31
0.0
1001
REVIT
1002
{
1070
     3
1000
790271
1002
}
  0
SPLINE
  5
179
330
87
100
AcDbEntity
  8
M-PIPE
370
    18
100
AcDbSpline
210
0.0
220
0.0
230
1.0
 70
     8
 71
     3
 72
     9
 73
     5
 74
     0
 42
0.000000001
 43
0.0000000001
 40
0.0
 40
0.0
 40
0.0
 40
0.0
 40
0.5
 40
1.0
 40
1.0
 40
1.0
 40
1.0
 10
841.2251783077339
 20
2021.999999999995
 30
0.0
 10
841.2252086519792
 20
2021.999999999995
 30
0.0
 10
841.2175855895828
 20
2021.983816401867
 30
0.0
 10
841.1945950254121
 20
2021.935349420068
 30
0.0
 10
841.1792578678834
 20
2021.90308377064
 30
0.0
1001
REVIT
1002
{
1070
     3
1000
790271
1002
}
  0
LINE
  5
17A
330
87
100
AcDbEntity
  8
M-PIPE
370
    18
100
AcDbLine
 10
841.1792578678834
 20
2021.90308377064
 30
0.0
 11
852.1308988646737
 21
2021.90308377064
 31
0.0
1001
REVIT
1002
{
1070
     3
1000
790271
1002
}
  0
LINE
  5
17B
330
87
100
AcDbEntity
  8
M-PIPE
370
    18
100
AcDbLine
 10
852.130898864674
 20
1978.09691622935
 30
0.0
 11
852.130898864674
 21
1977.999999999995
 31
0.0
1001
REVIT
1002
{
1070
     3
1000
790271
1002
}
  0
LINE
  5
17C
330
87
100
AcDbEntity
  8
M-PIPE
370
    18
100
AcDbLine
 10
852.1308988646737
 20
1978.09691622935
 30
0.0
 11
840.1798771267039
 21
1978.09691622935
 31
0.0
1001
REVIT
1002
{
1070
     3
1000
790271
1002
}
  0
SPLINE
  5
17D
330
87
100
AcDbEntity
  8
M-PIPE
370
    18
100
AcDbSpline
210
0.0
220
0.0
230
1.0
 70
     8
 71
     3
 72
     9
 73
     5
 74
     0
 42
0.000000001
 43
0.0000000001
 40
0.0
 40
0.0
 40
0.0
 40
0.0
 40
0.5
 40
1.0
 40
1.0
 40
1.0
 40
1.0
 10
840.1798771267039
 20
1978.09691622935
 30
0.0
 10
840.19023542254
 20
1978.064641865176
 30
0.0
 10
840.2057753142001
 20
1978.016174866594
 30
0.0
 10
840.2109618058359
 20
1977.999999999995
 30
0.0
 10
840.2109667016478
 20
1977.999999999995
 30
0.0
1001
REVIT
1002
{
1070
     3
1000
790271
1002
}
  0
LINE
  5
17E
330
87
100
AcDbEntity
  8
M-PIPE
370
    18
100
AcDbLine
 10
852.130898864674
 20
1990.834848610083
 30
0.0
 11
852.130898864674
 21
1987.262067619262
 31
0.0
1001
REVIT
1002
{
1070
     3
1000
790271
1002
}
  0
LINE
  5
17F
330
87
100
AcDbEntity
  8
M-PIPE
370
    18
100
AcDbLine
 10
852.130898864674
 20
1990.834848610083
 30
0.0
 11
836.2948417001575
 21
1990.834848610083
 31
0.0
1001
REVIT
1002
{
1070
     3
1000
790271
1002
}
  0
SPLINE
  5
180
330
87
100
AcDbEntity
  8
M-PIPE
370
    18
100
AcDbSpline
210
0.0
220
0.0
230
1.0
 70
     8
 71
     3
 72
     9
 73
     5
 74
     0
 42
0.000000001
 43
0.0000000001
 40
0.0
 40
0.0
 40
0.0
 40
0.0
 40
0.5
 40
1.0
 40
1.0
 40
1.0
 40
1.0
 10
836.2948417001575
 20
1990.834848610083
 30
0.0
 10
836.4078664105189
 20
1990.369926002038
 30
0.0
 10
836.6431752364274
 20
1989.456973009635
 30
0.0
 10
836.8970028727082
 20
1988.581806845645
 30
0.0
 10
837.0285463934413
 20
1988.15460251827
 30
0.0
1001
REVIT
1002
{
1070
     3
1000
790271
1002
}
  0
SPLINE
  5
181
330
87
100
AcDbEntity
  8
M-PIPE
370
    18
100
AcDbSpline
210
0.0
220
0.0
230
1.0
 70
     8
 71
     3
 72
     9
 73
     5
 74
     0
 42
0.000000001
 43
0.0000000001
 40
0.0
 40
0.0
 40
0.0
 40
0.0
 40
0.5
 40
1.0
 40
1.0
 40
1.0
 40
1.0
 10
837.0285463934413
 20
1988.15460251827
 30
0.0
 10
837.074740236631
 20
1988.003553909988
 30
0.0
 10
837.166519942734
 20
1987.703685654564
 30
0.0
 10
837.2570836882847
 20
1987.408467063964
 30
0.0
 10
837.3020615709219
 20
1987.262067619262
 30
0.0
1001
REVIT
1002
{
1070
     3
1000
790271
1002
}
  0
LINE
  5
182
330
87
100
AcDbEntity
  8
M-PIPE
370
    18
100
AcDbLine
 10
837.3020615709219
 20
1987.262067619262
 30
0.0
 11
852.130898864674
 21
1987.262067619262
 31
0.0
1001
REVIT
1002
{
1070
     3
1000
790271
1002
}
  0
LINE
  5
183
330
87
100
AcDbEntity
  8
M-PIPE
370
    18
100
AcDbLine
 10
852.130898864674
 20
2012.737932380728
 30
0.0
 11
852.130898864674
 21
2009.165151389908
 31
0.0
1001
REVIT
1002
{
1070
     3
1000
790271
1002
}
  0
LINE
  5
184
330
87
100
AcDbEntity
  8
M-PIPE
370
    18
100
AcDbLine
 10
852.130898864674
 20
2012.737932380728
 30
0.0
 11
837.3106864796515
 21
2012.737932380728
 31
0.0
1001
REVIT
1002
{
1070
     3
1000
790271
1002
}
  0
SPLINE
  5
185
330
87
100
AcDbEntity
  8
M-PIPE
370
    18
100
AcDbSpline
210
0.0
220
0.0
230
1.0
 70
     8
 71
     3
 72
     9
 73
     5
 74
     0
 42
0.000000001
 43
0.0000000001
 40
0.0
 40
0.0
 40
0.0
 40
0.0
 40
0.5
 40
1.0
 40
1.0
 40
1.0
 40
1.0
 10
837.3106864796515
 20
2012.737932380728
 30
0.0
 10
837.1261248844307
 20
2012.179564131023
 30
0.0
 10
836.7722558259607
 20
2011.022695838461
 30
0.0
 10
836.4488950314346
 20
2009.794560104564
 30
0.0
 10
836.2948417001573
 20
2009.165151389908
 30
0.0
1001
REVIT
1002
{
1070
     3
1000
790271
1002
}
  0
LINE
  5
186
330
87
100
AcDbEntity
  8
M-PIPE
370
    18
100
AcDbLine
 10
836.2948417001573
 20
2009.165151389908
 30
0.0
 11
852.130898864674
 21
2009.165151389908
 31
0.0
1001
REVIT
1002
{
1070
     3
1000
790271
1002
}
  0
SPLINE
  5
187
330
87
100
AcDbEntity
  8
M-PIPE
370
    18
100
AcDbSpline
210
0.0
220
0.0
230
1.0
 70
     8
 71
     3
 72
     9
 73
     5
 74
     0
 42
0.000000001
 43
0.0000000001
 40
0.0
 40
0.0
 40
0.0
 40
0.0
 40
0.5
 40
1.0
 40
1.0
 40
1.0
 40
1.0
 10
756.3602321044585
 20
1977.999999999995
 30
0.0
 10
756.3602370002703
 20
1977.999999999995
 30
0.0
 10
756.365423491906
 20
1978.016174866595
 30
0.0
 10
756.3809633835661
 20
1978.064641865177
 30
0.0
 10
756.3913216794023
 20
1978.09691622935
 30
0.0
1001
REVIT
1002
{
1070
     3
1000
790271
1002
}
  0
LINE
  5
188
330
87
100
AcDbEntity
  8
M-PIPE
370
    18
100
AcDbLine
 10
756.3913216794023
 20
1978.09691622935
 30
0.0
 11
744.4402999414323
 21
1978.09691622935
 31
0.0
1001
REVIT
1002
{
1070
     3
1000
790271
1002
}
  0
LINE
  5
189
330
87
100
AcDbEntity
  8
M-PIPE
370
    18
100
AcDbLine
 10
744.4402999414323
 20
1987.262067619262
 30
0.0
 11
759.2691372351842
 21
1987.262067619262
 31
0.0
1001
REVIT
1002
{
1070
     3
1000
790271
1002
}
  0
SPLINE
  5
18A
330
87
100
AcDbEntity
  8
M-PIPE
370
    18
100
AcDbSpline
210
0.0
220
0.0
230
1.0
 70
     8
 71
     3
 72
     9
 73
     5
 74
     0
 42
0.000000001
 43
0.0000000001
 40
0.0
 40
0.0
 40
0.0
 40
0.0
 40
0.5
 40
1.0
 40
1.0
 40
1.0
 40
1.0
 10
759.2691372351842
 20
1987.262067619262
 30
0.0
 10
759.3141151178214
 20
1987.408467063963
 30
0.0
 10
759.4046788633723
 20
1987.703685654564
 30
0.0
 10
759.4964585694753
 20
1988.003553909988
 30
0.0
 10
759.5426524126649
 20
1988.15460251827
 30
0.0
1001
REVIT
1002
{
1070
     3
1000
790271
1002
}
  0
SPLINE
  5
18B
330
87
100
AcDbEntity
  8
M-PIPE
370
    18
100
AcDbSpline
210
0.0
220
0.0
230
1.0
 70
     8
 71
     3
 72
     9
 73
     5
 74
     0
 42
0.000000001
 43
0.0000000001
 40
0.0
 40
0.0
 40
0.0
 40
0.0
 40
0.5
 40
1.0
 40
1.0
 40
1.0
 40
1.0
 10
759.5426524126649
 20
1988.15460251827
 30
0.0
 10
759.6741959333982
 20
1988.581806845645
 30
0.0
 10
759.9280235696788
 20
1989.456973009635
 30
0.0
 10
760.1633323955875
 20
1990.369926002039
 30
0.0
 10
760.2763571059489
 20
1990.834848610084
 30
0.0
1001
REVIT
1002
{
1070
     3
1000
790271
1002
}
  0
LINE
  5
18C
330
87
100
AcDbEntity
  8
M-PIPE
370
    18
100
AcDbLine
 10
760.2763571059489
 20
1990.834848610084
 30
0.0
 11
744.4402999414323
 21
1990.834848610084
 31
0.0
1001
REVIT
1002
{
1070
     3
1000
790271
1002
}
  0
LINE
  5
18D
330
87
100
AcDbEntity
  8
M-PIPE
370
    18
100
AcDbLine
 10
744.4402999414323
 20
2021.90308377064
 30
0.0
 11
755.3919409382223
 21
2021.90308377064
 31
0.0
1001
REVIT
1002
{
1070
     3
1000
790271
1002
}
  0
SPLINE
  5
18E
330
87
100
AcDbEntity
  8
M-PIPE
370
    18
100
AcDbSpline
210
0.0
220
0.0
230
1.0
 70
     8
 71
     3
 72
     9
 73
     5
 74
     0
 42
0.000000001
 43
0.0000000001
 40
0.0
 40
0.0
 40
0.0
 40
0.0
 40
0.5
 40
1.0
 40
1.0
 40
1.0
 40
1.0
 10
755.3919409382223
 20
2021.90308377064
 30
0.0
 10
755.3766037806934
 20
2021.935349420067
 30
0.0
 10
755.3536132165227
 20
2021.983816401867
 30
0.0
 10
755.3459901541263
 20
2021.999999999995
 30
0.0
 10
755.3460204983716
 20
2021.999999999995
 30
0.0
1001
REVIT
1002
{
1070
     3
1000
790271
1002
}
  0
LINE
  5
18F
330
87
100
AcDbEntity
  8
M-PIPE
370
    18
100
AcDbLine
 10
744.4402999414323
 20
2009.165151389907
 30
0.0
 11
760.2763571059486
 21
2009.165151389907
 31
0.0
1001
REVIT
1002
{
1070
     3
1000
790271
1002
}
  0
SPLINE
  5
190
330
87
100
AcDbEntity
  8
M-PIPE
370
    18
100
AcDbSpline
210
0.0
220
0.0
230
1.0
 70
     8
 71
     3
 72
     9
 73
     5
 74
     0
 42
0.000000001
 43
0.0000000001
 40
0.0
 40
0.0
 40
0.0
 40
0.0
 40
0.5
 40
1.0
 40
1.0
 40
1.0
 40
1.0
 10
760.2763571059486
 20
2009.165151389907
 30
0.0
 10
760.1223037746714
 20
2009.794560104563
 30
0.0
 10
759.798942980145
 20
2011.02269583846
 30
0.0
 10
759.445073921675
 20
2012.179564131024
 30
0.0
 10
759.260512326454
 20
2012.737932380728
 30
0.0
1001
REVIT
1002
{
1070
     3
1000
790271
1002
}
  0
LINE
  5
191
330
87
100
AcDbEntity
  8
M-PIPE
370
    18
100
AcDbLine
 10
759.260512326454
 20
2012.737932380728
 30
0.0
 11
744.4402999414323
 21
2012.737932380728
 31
0.0
1001
REVIT
1002
{
1070
     3
1000
790271
1002
}
  0
LINE
  5
192
330
87
100
AcDbEntity
  8
M-PIPE
370
    18
100
AcDbLine
 10
744.4402999414323
 20
1990.834848610084
 30
0.0
 11
744.4402999414323
 21
1987.262067619262
 31
0.0
1001
REVIT
1002
{
1070
     3
1000
790271
1002
}
  0
SPLINE
  5
193
330
87
100
AcDbEntity
  8
M-PIPE
370
    18
100
AcDbSpline
210
0.0
220
0.0
230
1.0
 70
     8
 71
     3
 72
     9
 73
     5
 74
     0
 42
0.000000001
 43
0.0000000001
 40
-1.0
 40
-1.0
 40
-1.0
 40
-1.0
 40
-0.5
 40
0.0
 40
0.0
 40
0.0
 40
0.0
 10
744.4402999414323
 20
1990.834848610084
 30
0.0
 10
744.0653190184141
 20
1992.340104078637
 30
0.0
 10
743.497888005666
 20
1995.372884778842
 30
0.0
 10
743.2955186594947
 20
1998.450205005244
 30
0.0
 10
743.2855994030533
 20
1999.999999999995
 30
0.0
1001
REVIT
1002
{
1070
     3
1000
790271
1002
}
  0
SPLINE
  5
194
330
87
100
AcDbEntity
  8
M-PIPE
370
    18
100
AcDbSpline
210
0.0
220
0.0
230
1.0
 70
     8
 71
     3
 72
     9
 73
     5
 74
     0
 42
0.000000001
 43
0.0000000001
 40
-1.0
 40
-1.0
 40
-1.0
 40
-1.0
 40
-0.5
 40
0.0
 40
0.0
 40
0.0
 40
0.0
 10
743.2855994030532
 20
1982.679491924306
 30
0.0
 10
743.2955186594946
 20
1983.454389421681
 30
0.0
 10
743.497888005666
 20
1984.993049534883
 30
0.0
 10
744.0653190184141
 20
1986.509439884985
 30
0.0
 10
744.4402999414323
 20
1987.262067619262
 30
0.0
1001
REVIT
1002
{
1070
     3
1000
790271
1002
}
  0
LINE
  5
195
330
87
100
AcDbEntity
  8
M-PIPE
370
    18
100
AcDbLine
 10
744.4402999414323
 20
2012.737932380729
 30
0.0
 11
744.4402999414323
 21
2009.165151389907
 31
0.0
1001
REVIT
1002
{
1070
     3
1000
790271
1002
}
  0
SPLINE
  5
196
330
87
100
AcDbEntity
  8
M-PIPE
370
    18
100
AcDbSpline
210
0.0
220
0.0
230
1.0
 70
     8
 71
     3
 72
     9
 73
     5
 74
     0
 42
0.000000001
 43
0.0000000001
 40
-1.0
 40
-1.0
 40
-1.0
 40
-1.0
 40
-0.5
 40
0.0
 40
0.0
 40
0.0
 40
0.0
 10
744.4402999414323
 20
2012.737932380728
 30
0.0
 10
744.0653190184141
 20
2013.490560115005
 30
0.0
 10
743.497888005666
 20
2015.006950465107
 30
0.0
 10
743.2955186594947
 20
2016.545610578309
 30
0.0
 10
743.2855994030532
 20
2017.320508075684
 30
0.0
1001
REVIT
1002
{
1070
     3
1000
790271
1002
}
  0
SPLINE
  5
197
330
87
100
AcDbEntity
  8
M-PIPE
370
    18
100
AcDbSpline
210
0.0
220
0.0
230
1.0
 70
     8
 71
     3
 72
     9
 73
     5
 74
     0
 42
0.000000001
 43
0.0000000001
 40
-1.0
 40
-1.0
 40
-1.0
 40
-1.0
 40
-0.5
 40
0.0
 40
0.0
 40
0.0
 40
0.0
 10
743.2855994030533
 20
1999.999999999995
 30
0.0
 10
743.2955186594946
 20
2001.549794994746
 30
0.0
 10
743.497888005666
 20
2004.627115221148
 30
0.0
 10
744.0653190184141
 20
2007.659895921353
 30
0.0
 10
744.4402999414323
 20
2009.165151389907
 30
0.0
1001
REVIT
1002
{
1070
     3
1000
790271
1002
}
  0
SPLINE
  5
198
330
87
100
AcDbEntity
  8
M-PIPE
370
    18
100
AcDbSpline
210
0.0
220
0.0
230
1.0
 70
     8
 71
     3
 72
     9
 73
     5
 74
     0
 42
0.000000001
 43
0.0000000001
 40
-1.0
 40
-1.0
 40
-1.0
 40
-1.0
 40
-0.5
 40
0.0
 40
0.0
 40
0.0
 40
0.0
 10
743.2855994030532
 20
2017.320508075684
 30
0.0
 10
743.2955186594945
 20
2018.095405573059
 30
0.0
 10
743.4978880056659
 20
2019.634065686261
 30
0.0
 10
744.065319018414
 20
2021.150456036363
 30
0.0
 10
744.4402999414323
 20
2021.90308377064
 30
0.0
1001
REVIT
1002
{
1070
     3
1000
790271
1002
}
  0
LINE
  5
199
330
87
100
AcDbEntity
  8
M-PIPE
370
    18
100
AcDbLine
 10
744.4402999414323
 20
2021.999999999995
 30
0.0
 11
744.4402999414323
 21
2021.90308377064
 31
0.0
1001
REVIT
1002
{
1070
     3
1000
790271
1002
}
  0
LINE
  5
19A
330
87
100
AcDbEntity
  8
M-PIPE
370
    18
100
AcDbLine
 10
744.4402999414323
 20
1978.09691622935
 30
0.0
 11
744.4402999414323
 21
1977.999999999995
 31
0.0
1001
REVIT
1002
{
1070
     3
1000
790271
1002
}
  0
SPLINE
  5
19B
330
87
100
AcDbEntity
  8
M-PIPE
370
    18
100
AcDbSpline
210
0.0
220
0.0
230
1.0
 70
     8
 71
     3
 72
     9
 73
     5
 74
     0
 42
0.000000001
 43
0.0000000001
 40
-1.0
 40
-1.0
 40
-1.0
 40
-1.0
 40
-0.5
 40
0.0
 40
0.0
 40
0.0
 40
0.0
 10
744.4402999414323
 20
1978.09691622935
 30
0.0
 10
744.065319018414
 20
1978.849543963627
 30
0.0
 10
743.4978880056659
 20
1980.36593431373
 30
0.0
 10
743.2955186594946
 20
1981.904594426931
 30
0.0
 10
743.2855994030532
 20
1982.679491924306
 30
0.0
1001
REVIT
1002
{
1070
     3
1000
790271
1002
}
  0
LINE
  5
19C
330
87
100
AcDbEntity
  8
M-PIPE
370
    18
100
AcDbLine
 10
743.2855994030533
 20
1999.999999999995
 30
0.0
 11
743.2855994030532
 21
1982.679491924306
 31
0.0
1001
REVIT
1002
{
1070
     3
1000
790271
1002
}
  0
LINE
  5
19D
330
87
100
AcDbEntity
  8
M-PIPE
370
    18
100
AcDbLine
 10
743.2855994030532
 20
2017.320508075684
 30
0.0
 11
743.2855994030533
 21
1999.999999999995
 31
0.0
1001
REVIT
1002
{
1070
     3
1000
790271
1002
}
  0
LINE
  5
19E
330
87
100
AcDbEntity
  8
M-PIPE
370
    18
100
AcDbLine
 10
743.2855994030532
 20
2019.999999999995
 30
0.0
 11
743.2855994030532
 21
2017.320508075684
 31
0.0
1001
REVIT
1002
{
1070
     3
1000
790271
1002
}
  0
LINE
  5
19F
330
87
100
AcDbEntity
  8
M-PIPE
370
    18
100
AcDbLine
 10
743.2855994030532
 20
2001.189224668865
 30
0.0
 11
743.2855994030532
 21
1998.810772676042
 31
0.0
1001
REVIT
1002
{
1070
     3
1000
790271
1002
}
  0
LINE
  5
1A0
330
87
100
AcDbEntity
  8
M-PIPE
370
    18
100
AcDbLine
 10
743.2855994030532
 20
1982.679491924306
 30
0.0
 11
743.2855994030532
 21
1979.999999999995
 31
0.0
1001
REVIT
1002
{
1070
     3
1000
790271
1002
}
  0
SPLINE
  5
1A1
330
87
100
AcDbEntity
  8
M-PIPE
370
    18
100
AcDbSpline
210
0.0
220
0.0
230
1.0
 70
     8
 71
     3
 72
     9
 73
     5
 74
     0
 42
0.000000001
 43
0.0000000001
 40
0.0
 40
0.0
 40
0.0
 40
0.0
 40
0.5
 40
1.0
 40
1.0
 40
1.0
 40
1.0
 10
837.3020615709219
 20
1987.262067619262
 30
0.0
 10
838.438370144507
 20
1985.788525606488
 30
0.0
 10
840.0543146440558
 20
1982.787458362062
 30
0.0
 10
840.3569138483616
 20
1979.67842467988
 30
0.0
 10
840.1798771267039
 20
1978.09691622935
 30
0.0
1001
REVIT
1002
{
1070
     3
1000
790271
1002
}
  0
SPLINE
  5
1A2
330
87
100
AcDbEntity
  8
M-PIPE
370
    18
100
AcDbSpline
210
0.0
220
0.0
230
1.0
 70
     8
 71
     3
 72
     9
 73
     5
 74
     0
 42
0.000000001
 43
0.0000000001
 40
0.0
 40
0.0
 40
0.0
 40
0.0
 40
0.5
 40
1.0
 40
1.0
 40
1.0
 40
1.0
 10
756.3913216794023
 20
1978.09691622935
 30
0.0
 10
756.2142849577447
 20
1979.67842467988
 30
0.0
 10
756.5168841620504
 20
1982.787458362062
 30
0.0
 10
758.1328286615992
 20
1985.788525606488
 30
0.0
 10
759.2691372351842
 20
1987.262067619262
 30
0.0
1001
REVIT
1002
{
1070
     3
1000
790271
1002
}
  0
LINE
  5
1A3
330
87
100
AcDbEntity
  8
M-PIPE
370
    18
100
AcDbLine
 10
836.2948417001565
 20
2009.165151389908
 30
0.0
 11
836.2948417001568
 21
1990.834848610083
 31
0.0
1001
REVIT
1002
{
1070
     3
1000
790271
1002
}
  0
LINE
  5
1A4
330
87
100
AcDbEntity
  8
M-PIPE
370
    18
100
AcDbLine
 10
760.2763571059497
 20
1990.834848610084
 30
0.0
 11
760.2763571059496
 21
2009.165151389907
 31
0.0
1001
REVIT
1002
{
1070
     3
1000
790271
1002
}
  0
ELLIPSE
  5
1A5
330
87
100
AcDbEntity
  8
M-PIPE
370
    18
100
AcDbEllipse
 10
815.0831016066259
 20
2022.227051600314
 30
0.0
 11
26.10419874714843
 21
0.0
 31
0.0
210
0.0
220
0.0
230
0.9999999999999998
 40
0.4999999999999804
 41
6.227452831757777
 42
6.25836162976979
1001
REVIT
1002
{
1070
     3
1000
790271
1002
}
  0
LWPOLYLINE
  5
1A6
330
87
100
AcDbEntity
  8
M-PIPE
370
    18
100
AcDbPolyline
 90
        3
 70
   128
 43
0.0
 10
841.14676960554
 20
2021.500002311579
 10
839.9259666552637
 20
2017.017215693941
 10
837.3106864796515
 20
2012.737932380728
1001
REVIT
1002
{
1070
     3
1000
790271
1002
}
  0
LWPOLYLINE
  5
1A7
330
87
100
AcDbEntity
  8
M-PIPE
370
    18
100
AcDbPolyline
 90
        3
 70
   128
 43
0.0
 10
759.260512326454
 20
2012.737932380728
 10
756.6452321508418
 20
2017.017215693941
 10
755.4244292005656
 20
2021.500002311578
1001
REVIT
1002
{
1070
     3
1000
790271
1002
}
  0
ELLIPSE
  5
1A8
330
87
100
AcDbEntity
  8
M-PIPE
370
    18
100
AcDbEllipse
 10
781.4880971987542
 20
2022.227051600297
 30
0.0
 11
26.10419874642202
 21
0.0
 31
0.0
210
0.0
220
0.0
230
0.9999999999999998
 40
0.499999999999983
 41
3.166416330998977
 42
3.197325129011885
1001
REVIT
1002
{
1070
     3
1000
790271
1002
}
  0
LINE
  5
1A9
330
87
100
AcDbEntity
  8
M-PIPE
370
    18
100
AcDbLine
 10
837.2855994030677
 20
1937.465415000909
 30
0.0
 11
759.2855994030387
 21
1937.465415000909
 31
0.0
1001
REVIT
1002
{
1070
     3
1000
790271
1002
}
  0
LINE
  5
1AA
330
87
100
AcDbEntity
  8
M-PIPE
370
    18
100
AcDbLine
 10
758.7855994030538
 20
1937.965415000895
 30
0.0
 11
837.7855994030536
 21
1937.965415000896
 31
0.0
1001
REVIT
1002
{
1070
     3
1000
790271
1002
}
  0
LINE
  5
1AB
330
87
100
AcDbEntity
  8
M-PIPE
370
    18
100
AcDbLine
 10
814.285599403052
 20
2044.500000859741
 30
0.0
 11
782.2855994030528
 21
2044.50000085974
 31
0.0
1001
REVIT
1002
{
1070
     3
1000
790271
1002
}
  0
LINE
  5
1AC
330
87
100
AcDbEntity
  8
M-PIPE
370
    18
100
AcDbLine
 10
782.7855994030385
 20
2045.000000859725
 30
0.0
 11
782.8555002842291
 21
2045.000000859725
 31
0.0
1001
REVIT
1002
{
1070
     3
1000
790271
1002
}
  0
LINE
  5
1AD
330
87
100
AcDbEntity
  8
M-PIPE
370
    18
100
AcDbLine
 10
782.9038880771471
 20
2045.000000859725
 30
0.0
 11
783.0537805699957
 21
2045.000000859725
 31
0.0
1001
REVIT
1002
{
1070
     3
1000
790271
1002
}
  0
LINE
  5
1AE
330
87
100
AcDbEntity
  8
M-PIPE
370
    18
100
AcDbLine
 10
783.1677641250785
 20
2045.000000859725
 30
0.0
 11
783.4403319761332
 21
2045.000000859725
 31
0.0
1001
REVIT
1002
{
1070
     3
1000
790271
1002
}
  0
LINE
  5
1AF
330
87
100
AcDbEntity
  8
M-PIPE
370
    18
100
AcDbLine
 10
783.5621862144895
 20
2045.000000859725
 30
0.0
 11
783.9518705702454
 21
2045.000000859725
 31
0.0
1001
REVIT
1002
{
1070
     3
1000
790271
1002
}
  0
LINE
  5
1B0
330
87
100
AcDbEntity
  8
M-PIPE
370
    18
100
AcDbLine
 10
784.2378287039718
 20
2045.000000859725
 30
0.0
 11
784.603335530448
 21
2045.000000859725
 31
0.0
1001
REVIT
1002
{
1070
     3
1000
790271
1002
}
  0
LINE
  5
1B1
330
87
100
AcDbEntity
  8
M-PIPE
370
    18
100
AcDbLine
 10
784.8622056443815
 20
2045.000000859725
 30
0.0
 11
785.3882215147376
 21
2045.000000859725
 31
0.0
1001
REVIT
1002
{
1070
     3
1000
790271
1002
}
  0
LINE
  5
1B2
330
87
100
AcDbEntity
  8
M-PIPE
370
    18
100
AcDbLine
 10
785.5887427165616
 20
2045.000000859725
 30
0.0
 11
786.2986464766678
 21
2045.000000859725
 31
0.0
1001
REVIT
1002
{
1070
     3
1000
790271
1002
}
  0
LINE
  5
1B3
330
87
100
AcDbEntity
  8
M-PIPE
370
    18
100
AcDbLine
 10
786.4119105346977
 20
2045.000000859725
 30
0.0
 11
788.3223914529025
 21
2045.000000859725
 31
0.0
1001
REVIT
1002
{
1070
     3
1000
790271
1002
}
  0
LINE
  5
1B4
330
87
100
AcDbEntity
  8
M-PIPE
370
    18
100
AcDbLine
 10
788.448620351962
 20
2045.000000859725
 30
0.0
 11
790.5355994030458
 21
2045.000000859725
 31
0.0
1001
REVIT
1002
{
1070
     3
1000
790271
1002
}
  0
LINE
  5
1B5
330
87
100
AcDbEntity
  8
M-PIPE
370
    18
100
AcDbLine
 10
790.9725548775926
 20
2045.000000859725
 30
0.0
 11
792.3483593086014
 21
2045.000000859725
 31
0.0
1001
REVIT
1002
{
1070
     3
1000
790271
1002
}
  0
LINE
  5
1B6
330
87
100
AcDbEntity
  8
M-PIPE
370
    18
100
AcDbLine
 10
792.9842871815002
 20
2045.000000859725
 30
0.0
 11
795.2593719325035
 21
2045.000000859725
 31
0.0
1001
REVIT
1002
{
1070
     3
1000
790271
1002
}
  0
LINE
  5
1B7
330
87
100
AcDbEntity
  8
M-PIPE
370
    18
100
AcDbLine
 10
795.5940526492132
 20
2045.000000859725
 30
0.0
 11
796.7655579996394
 21
2045.000000859725
 31
0.0
1001
REVIT
1002
{
1070
     3
1000
790271
1002
}
  0
LINE
  5
1B8
330
87
100
AcDbEntity
  8
M-PIPE
370
    18
100
AcDbLine
 10
796.9346853904632
 20
2045.000000859725
 30
0.0
 11
799.636513415643
 21
2045.000000859725
 31
0.0
1001
REVIT
1002
{
1070
     3
1000
790271
1002
}
  0
LINE
  5
1B9
330
87
100
AcDbEntity
  8
M-PIPE
370
    18
100
AcDbLine
 10
799.8056408064671
 20
2045.000000859725
 30
0.0
 11
802.2972946021461
 21
2045.000000859725
 31
0.0
1001
REVIT
1002
{
1070
     3
1000
790271
1002
}
  0
LINE
  5
1BA
330
87
100
AcDbEntity
  8
M-PIPE
370
    18
100
AcDbLine
 10
802.7891378445477
 20
2045.000000859725
 30
0.0
 11
803.5869116246059
 21
2045.000000859725
 31
0.0
1001
REVIT
1002
{
1070
     3
1000
790271
1002
}
  0
LINE
  5
1BB
330
87
100
AcDbEntity
  8
M-PIPE
370
    18
100
AcDbLine
 10
804.2228394975051
 20
2045.000000859725
 30
0.0
 11
806.9028665329895
 21
2045.000000859725
 31
0.0
1001
REVIT
1002
{
1070
     3
1000
790271
1002
}
  0
LINE
  5
1BC
330
87
100
AcDbEntity
  8
M-PIPE
370
    18
100
AcDbLine
 10
807.1760341665028
 20
2045.000000859725
 30
0.0
 11
808.1225784541446
 21
2045.000000859725
 31
0.0
1001
REVIT
1002
{
1070
     3
1000
790271
1002
}
  0
LINE
  5
1BD
330
87
100
AcDbEntity
  8
M-PIPE
370
    18
100
AcDbLine
 10
808.2488073532038
 20
2045.000000859725
 30
0.0
 11
810.1592882714085
 21
2045.000000859725
 31
0.0
1001
REVIT
1002
{
1070
     3
1000
790271
1002
}
  0
LINE
  5
1BE
330
87
100
AcDbEntity
  8
M-PIPE
370
    18
100
AcDbLine
 10
810.2725523294385
 20
2045.000000859725
 30
0.0
 11
810.9824560895443
 21
2045.000000859725
 31
0.0
1001
REVIT
1002
{
1070
     3
1000
790271
1002
}
  0
LINE
  5
1BF
330
87
100
AcDbEntity
  8
M-PIPE
370
    18
100
AcDbLine
 10
811.1829772913688
 20
2045.000000859725
 30
0.0
 11
811.7089931617245
 21
2045.000000859725
 31
0.0
1001
REVIT
1002
{
1070
     3
1000
790271
1002
}
  0
LINE
  5
1C0
330
87
100
AcDbEntity
  8
M-PIPE
370
    18
100
AcDbLine
 10
811.9678632756583
 20
2045.000000859725
 30
0.0
 11
812.3333701021344
 21
2045.000000859725
 31
0.0
1001
REVIT
1002
{
1070
     3
1000
790271
1002
}
  0
LINE
  5
1C1
330
87
100
AcDbEntity
  8
M-PIPE
370
    18
100
AcDbLine
 10
812.619328235861
 20
2045.000000859725
 30
0.0
 11
813.0090125916165
 21
2045.000000859725
 31
0.0
1001
REVIT
1002
{
1070
     3
1000
790271
1002
}
  0
LINE
  5
1C2
330
87
100
AcDbEntity
  8
M-PIPE
370
    18
100
AcDbLine
 10
813.130866829973
 20
2045.000000859725
 30
0.0
 11
813.311812697376
 21
2045.000000859725
 31
0.0
1001
REVIT
1002
{
1070
     3
1000
790271
1002
}
  0
LINE
  5
1C3
330
87
100
AcDbEntity
  8
M-PIPE
370
    18
100
AcDbLine
 10
813.5174182361108
 20
2045.000000859725
 30
0.0
 11
813.6673107289601
 21
2045.000000859725
 31
0.0
1001
REVIT
1002
{
1070
     3
1000
790271
1002
}
  0
LINE
  5
1C4
330
87
100
AcDbEntity
  8
M-PIPE
370
    18
100
AcDbLine
 10
813.7156985218773
 20
2045.000000859725
 30
0.0
 11
813.7855994030678
 21
2045.000000859725
 31
0.0
1001
REVIT
1002
{
1070
     3
1000
790271
1002
}
  0
LINE
  5
1C5
330
87
100
AcDbEntity
  8
M-PIPE
370
    18
100
AcDbLine
 10
838.7005907889781
 20
1974.346036567926
 30
0.0
 11
837.9473103644809
 21
1974.346036567926
 31
0.0
1001
REVIT
1002
{
1070
     3
1000
790271
1002
}
  0
LINE
  5
1C6
330
87
100
AcDbEntity
  8
M-PIPE
370
    18
100
AcDbLine
 10
837.925705636489
 20
1974.346036567926
 30
0.0
 11
836.8691637022854
 21
1974.346036567926
 31
0.0
1001
REVIT
1002
{
1070
     3
1000
790271
1002
}
  0
LINE
  5
1C7
330
87
100
AcDbEntity
  8
M-PIPE
370
    18
100
AcDbLine
 10
836.8491353402131
 20
1974.346036567926
 30
0.0
 11
835.497844062484
 21
1974.346036567926
 31
0.0
1001
REVIT
1002
{
1070
     3
1000
790271
1002
}
  0
LINE
  5
1C8
330
87
100
AcDbEntity
  8
M-PIPE
370
    18
100
AcDbLine
 10
835.4790732501554
 20
1974.346036567926
 30
0.0
 11
833.8435408219165
 21
1974.346036567926
 31
0.0
1001
REVIT
1002
{
1070
     3
1000
790271
1002
}
  0
LINE
  5
1C9
330
87
100
AcDbEntity
  8
M-PIPE
370
    18
100
AcDbLine
 10
833.8259463660879
 20
1974.346036567926
 30
0.0
 11
831.9187466629578
 21
1974.346036567926
 31
0.0
1001
REVIT
1002
{
1070
     3
1000
790271
1002
}
  0
LINE
  5
1CA
330
87
100
AcDbEntity
  8
M-PIPE
370
    18
100
AcDbLine
 10
831.9023359817833
 20
1974.346036567926
 30
0.0
 11
829.7380639346123
 21
1974.346036567926
 31
0.0
1001
REVIT
1002
{
1070
     3
1000
790271
1002
}
  0
LINE
  5
1CB
330
87
100
AcDbEntity
  8
M-PIPE
370
    18
100
AcDbLine
 10
829.7228819337743
 20
1974.346036567926
 30
0.0
 11
827.3180638738667
 21
1974.346036567926
 31
0.0
1001
REVIT
1002
{
1070
     3
1000
790271
1002
}
  0
LINE
  5
1CC
330
87
100
AcDbEntity
  8
M-PIPE
370
    18
100
AcDbLine
 10
827.3041711833561
 20
1974.346036567926
 30
0.0
 11
824.6771493872877
 21
1974.346036567926
 31
0.0
1001
REVIT
1002
{
1070
     3
1000
790271
1002
}
  0
LINE
  5
1CD
330
87
100
AcDbEntity
  8
M-PIPE
370
    18
100
AcDbLine
 10
824.6646115797972
 20
1974.346036567926
 30
0.0
 11
821.8354101727349
 21
1974.346036567926
 31
0.0
1001
REVIT
1002
{
1070
     3
1000
790271
1002
}
  0
LINE
  5
1CE
330
87
100
AcDbEntity
  8
M-PIPE
370
    18
100
AcDbLine
 10
821.8242917654903
 20
1974.346036567926
 30
0.0
 11
818.8144674927407
 21
1974.346036567926
 31
0.0
1001
REVIT
1002
{
1070
     3
1000
790271
1002
}
  0
LINE
  5
1CF
330
87
100
AcDbEntity
  8
M-PIPE
370
    18
100
AcDbLine
 10
818.8048282892541
 20
1974.346036567926
 30
0.0
 11
815.6373083996053
 21
1974.346036567926
 31
0.0
1001
REVIT
1002
{
1070
     3
1000
790271
1002
}
  0
LINE
  5
1D0
330
87
100
AcDbEntity
  8
M-PIPE
370
    18
100
AcDbLine
 10
815.6292010913448
 20
1974.346036567926
 30
0.0
 11
812.3281101054875
 21
1974.346036567926
 31
0.0
1001
REVIT
1002
{
1070
     3
1000
790271
1002
}
  0
LINE
  5
1D1
330
87
100
AcDbEntity
  8
M-PIPE
370
    18
100
AcDbLine
 10
812.3215786122347
 20
1974.346036567926
 30
0.0
 11
808.9120555772643
 21
1974.346036567926
 31
0.0
1001
REVIT
1002
{
1070
     3
1000
790271
1002
}
  0
LINE
  5
1D2
330
87
100
AcDbEntity
  8
M-PIPE
370
    18
100
AcDbLine
 10
808.9071338561867
 20
1974.346036567926
 30
0.0
 11
801.8639809470561
 21
1974.346036567926
 31
0.0
1001
REVIT
1002
{
1070
     3
1000
790271
1002
}
  0
LINE
  5
1D3
330
87
100
AcDbEntity
  8
M-PIPE
370
    18
100
AcDbLine
 10
801.8623366714257
 20
1974.346036567926
 30
0.0
 11
794.7088621346815
 21
1974.346036567926
 31
0.0
1001
REVIT
1002
{
1070
     3
1000
790271
1002
}
  0
LINE
  5
1D4
330
87
100
AcDbEntity
  8
M-PIPE
370
    18
100
AcDbLine
 10
794.7072178590513
 20
1974.346036567926
 30
0.0
 11
791.1593459966149
 21
1974.346036567926
 31
0.0
1001
REVIT
1002
{
1070
     3
1000
790271
1002
}
  0
LINE
  5
1D5
330
87
100
AcDbEntity
  8
M-PIPE
370
    18
100
AcDbLine
 10
791.1560571715337
 20
1974.346036567926
 30
0.0
 11
787.6640649499205
 21
1974.346036567926
 31
0.0
1001
REVIT
1002
{
1070
     3
1000
790271
1002
}
  0
LINE
  5
1D6
330
87
100
AcDbEntity
  8
M-PIPE
370
    18
100
AcDbLine
 10
787.6591432288429
 20
1974.346036567926
 30
0.0
 11
784.2496201938724
 21
1974.346036567926
 31
0.0
1001
REVIT
1002
{
1070
     3
1000
790271
1002
}
  0
LINE
  5
1D7
330
87
100
AcDbEntity
  8
M-PIPE
370
    18
100
AcDbLine
 10
784.2430887006194
 20
1974.346036567926
 30
0.0
 11
780.9419977147622
 21
1974.346036567926
 31
0.0
1001
REVIT
1002
{
1070
     3
1000
790271
1002
}
  0
LINE
  5
1D8
330
87
100
AcDbEntity
  8
M-PIPE
370
    18
100
AcDbLine
 10
780.9338904065022
 20
1974.346036567926
 30
0.0
 11
777.766370516853
 21
1974.346036567925
 31
0.0
1001
REVIT
1002
{
1070
     3
1000
790271
1002
}
  0
LINE
  5
1D9
330
87
100
AcDbEntity
  8
M-PIPE
370
    18
100
AcDbLine
 10
777.7567313133667
 20
1974.346036567925
 30
0.0
 11
774.7469070406167
 21
1974.346036567925
 31
0.0
1001
REVIT
1002
{
1070
     3
1000
790271
1002
}
  0
LINE
  5
1DA
330
87
100
AcDbEntity
  8
M-PIPE
370
    18
100
AcDbLine
 10
774.7357886333719
 20
1974.346036567925
 30
0.0
 11
771.9065872263097
 21
1974.346036567925
 31
0.0
1001
REVIT
1002
{
1070
     3
1000
790271
1002
}
  0
LINE
  5
1DB
330
87
100
AcDbEntity
  8
M-PIPE
370
    18
100
AcDbLine
 10
771.8940494188191
 20
1974.346036567925
 30
0.0
 11
769.2670276227508
 21
1974.346036567925
 31
0.0
1001
REVIT
1002
{
1070
     3
1000
790271
1002
}
  0
LINE
  5
1DC
330
87
100
AcDbEntity
  8
M-PIPE
370
    18
100
AcDbLine
 10
769.2531349322402
 20
1974.346036567925
 30
0.0
 11
766.8483168723327
 21
1974.346036567925
 31
0.0
1001
REVIT
1002
{
1070
     3
1000
790271
1002
}
  0
LINE
  5
1DD
330
87
100
AcDbEntity
  8
M-PIPE
370
    18
100
AcDbLine
 10
766.8331348714945
 20
1974.346036567925
 30
0.0
 11
764.6688628243236
 21
1974.346036567925
 31
0.0
1001
REVIT
1002
{
1070
     3
1000
790271
1002
}
  0
LINE
  5
1DE
330
87
100
AcDbEntity
  8
M-PIPE
370
    18
100
AcDbLine
 10
764.652452143149
 20
1974.346036567925
 30
0.0
 11
762.745252440019
 21
1974.346036567925
 31
0.0
1001
REVIT
1002
{
1070
     3
1000
790271
1002
}
  0
LINE
  5
1DF
330
87
100
AcDbEntity
  8
M-PIPE
370
    18
100
AcDbLine
 10
762.7276579841904
 20
1974.346036567925
 30
0.0
 11
761.0921255559515
 21
1974.346036567925
 31
0.0
1001
REVIT
1002
{
1070
     3
1000
790271
1002
}
  0
LINE
  5
1E0
330
87
100
AcDbEntity
  8
M-PIPE
370
    18
100
AcDbLine
 10
761.0733547436228
 20
1974.346036567925
 30
0.0
 11
759.7220634658939
 21
1974.346036567925
 31
0.0
1001
REVIT
1002
{
1070
     3
1000
790271
1002
}
  0
LINE
  5
1E1
330
87
100
AcDbEntity
  8
M-PIPE
370
    18
100
AcDbLine
 10
759.7020351038213
 20
1974.346036567925
 30
0.0
 11
758.6454931696176
 21
1974.346036567925
 31
0.0
1001
REVIT
1002
{
1070
     3
1000
790271
1002
}
  0
LINE
  5
1E2
330
87
100
AcDbEntity
  8
M-PIPE
370
    18
100
AcDbLine
 10
758.613408414834
 20
1974.346036567925
 30
0.0
 11
757.8706080171285
 21
1974.346036567925
 31
0.0
1001
REVIT
1002
{
1070
     3
1000
790271
1002
}
  0
ENDBLK
  5
1E4
330
87
100
AcDbEntity
  8
0
100
AcDbBlockEnd
  0
BLOCK
  5
240
330
1E6
100
AcDbEntity
  8
0
100
AcDbBlockBegin
  2
Automatic flow rate regulator valve_Caleffi_121 DN15 - 3_4___Insulation-V1-Est - Idraulica
 70
     0
 10
0.0
 20
0.0
 30
0.0
  3
Automatic flow rate regulator valve_Caleffi_121 DN15 - 3_4___Insulation-V1-Est - Idraulica
  1

  0
LINE
  5
1E7
330
1E6
100
AcDbEntity
  8
M-PIPE
370
    18
100
AcDbLine
 10
748.4223141407881
 20
1507.453821633025
 30
0.0
 11
743.2855994030582
 21
1507.453821633025
 31
0.0
1001
REVIT
1002
{
1070
     3
1000
973634
1002
}
  0
LINE
  5
1E8
330
1E6
100
AcDbEntity
  8
M-PIPE
370
    18
100
AcDbLine
 10
853.2855994030583
 20
1507.453821633025
 30
0.0
 11
848.1488846653288
 21
1507.453821633025
 31
0.0
1001
REVIT
1002
{
1070
     3
1000
973634
1002
}
  0
LINE
  5
1E9
330
1E6
100
AcDbEntity
  8
M-PIPE
370
    18
100
AcDbLine
 10
743.2855994030568
 20
1484.30073786238
 30
0.0
 11
743.2855994030567
 21
1507.453821633025
 31
0.0
1001
REVIT
1002
{
1070
     3
1000
973634
1002
}
  0
LINE
  5
1EA
330
1E6
100
AcDbEntity
  8
M-PIPE
370
    18
100
AcDbLine
 10
853.2855994030567
 20
1484.300737862381
 30
0.0
 11
853.2855994030565
 21
1507.453821633025
 31
0.0
1001
REVIT
1002
{
1070
     3
1000
973634
1002
}
  0
LWPOLYLINE
  5
1EB
330
1E6
100
AcDbEntity
  8
M-PIPE
370
    18
100
AcDbPolyline
 90
       80
 70
   128
 43
0.0
 10
825.2850528407407
 20
1484.300737862381
 10
825.2634561577787
 20
1485.380428028757
 10
825.1987006589784
 20
1486.458390921188
 10
825.0908899393236
 20
1487.532902029
 10
824.9401964729683
 20
1488.602242363637
 10
824.7468613373117
 20
1489.664701208678
 10
824.5111938273284
 20
1490.718578856616
 10
824.2335709607612
 20
1491.762189328029
 10
823.9144368749741
 20
1492.793863068788
 10
823.5543021164257
 20
1493.811949620987
 10
823.1537428239048
 20
1494.814820263323
 10
822.7133998068316
 20
1495.800870616702
 10
822.2339775200984
 20
1496.768523210905
 10
821.7162429370928
 20
1497.716230008202
 10
821.1610243227035
 20
1498.642474879886
 10
820.569209908273
 20
1499.545776031748
 10
819.9417464706179
 20
1500.424688374641
 10
819.2796378173859
 20
1501.277805836308
 10
818.5839431811807
 20
1502.103763610796
 10
817.8557755250128
 20
1502.901240341865
 10
817.0962997617978
 20
1503.668960236861
 10
816.3067308907445
 20
1504.405695107725
 10
815.4883320536137
 20
1505.110266335825
 10
814.6424125139628
 20
1505.781546757498
 10
813.7703255626016
 20
1506.418462467266
 10
812.8734663526174
 20
1507.019994535863
 10
811.9532696674262
 20
1507.585180640298
 10
811.011207625426
 20
1508.113116603372
 10
810.0487873249218
 20
1508.602957840163
 10
809.0675484330887
 20
1509.053920709187
 10
808.0690607228344
 20
1509.465283766053
 10
807.0549215614951
 20
1509.836388917624
 10
806.0267533553915
 20
1510.166642474821
 10
804.9862009543222
 20
1510.455516102404
 10
803.9349290201563
 20
1510.702547664191
 10
802.8746193637291
 20
1510.907341962381
 10
801.8069682543035
 20
1511.069571369784
 10
800.7336837059012
 20
1511.188976353955
 10
799.6564827448447
 20
1511.265365892391
 10
798.5770886628807
 20
1511.298617778126
 10
797.497228260282
 20
1511.288678815236
 10
796.4186290833348
 20
1511.235564903943
 10
795.3430166606335
 20
1511.139361015173
 10
794.2721117426025
 20
1511.000221054625
 10
793.2076275486633
 20
1510.818367616557
 10
792.1512670264482
 20
1510.594091627674
 10
791.1047201274478
 20
1510.327751881717
 10
790.0696611034495
 20
1510.019774465462
 10
789.0477458280902
 20
1509.670652077077
 10
788.040609147814
 20
1509.280943237908
 10
787.0498622664647
 20
1508.851271398966
 10
786.0770901677047
 20
1508.382323943532
 10
785.123849079378
 20
1507.874851087499
 10
784.1916639838792
 20
1507.329664679183
 10
783.2820261785049
 20
1506.747636900534
 10
782.3963908896984
 20
1506.129698871842
 10
781.5361749449962
 20
1505.476839162131
 10
780.702754506407
 20
1504.790102207667
 10
779.8974628688455
 20
1504.070586641083
 10
779.1215883271457
 20
1503.319443533795
 10
778.3763721150627
 20
1502.537874554541
 10
777.6630064195654
 20
1501.72713004696
 10
776.9826324735897
 20
1500.888507029317
 10
776.3363387303109
 20
1500.023347119542
 10
775.7251591218491
 20
1499.133034388933
 10
775.1500714051998
 20
1498.218993147936
 10
774.6119955980311
 20
1497.282685667552
 10
774.1117925068509
 20
1496.325609840013
 10
773.6502623499011
 20
1495.349296782481
 10
773.2281434769778
 20
1494.355308387575
 10
772.8461111882308
 20
1493.345234824691
 10
772.5047766538262
 20
1492.320691996056
 10
772.2046859362047
 20
1491.28331895164
 10
771.946319116499
 20
1490.234775267018
 10
771.7300895265048
 20
1489.176738388411
 10
771.5563430874396
 20
1488.110900949119
 10
771.4253577565424
 20
1487.038968061679
 10
771.3373430824003
 20
1485.962654590046
 10
771.2924398697165
 20
1484.883682406172
 10
771.286145965376
 20
1484.300737862381
1001
REVIT
1002
{
1070
     3
1000
973634
1002
}
  0
LWPOLYLINE
  5
1EC
330
1E6
100
AcDbEntity
  8
M-PIPE
370
    18
100
AcDbPolyline
 90
       80
 70
   128
 43
0.0
 10
853.2855994030585
 20
1484.300737862381
 10
853.2416052694122
 20
1486.500151242646
 10
853.1096932497023
 20
1488.696046030686
 10
852.890074375021
 20
1490.884909263272
 10
852.5830999887178
 20
1493.063239226165
 10
852.1892611843268
 20
1495.22755105611
 10
851.7091880199201
 20
1497.374382315874
 10
851.1436485101508
 20
1499.500298533408
 10
850.4935473975924
 20
1501.601898696268
 10
849.7599247053447
 20
1503.675820692512
 10
848.9439540732169
 20
1505.718746689357
 10
848.0469408801562
 20
1507.727408441011
 10
847.0703201559187
 20
1509.698592517163
 10
846.015654285329
 20
1511.629145443787
 10
844.8846305087959
 20
1513.51597874803
 10
843.6790582230905
 20
1515.356073899108
 10
842.4008660866942
 20
1517.146487137313
 10
841.0520989343591
 20
1518.884354183397
 10
839.6349145058074
 20
1520.566894820812
 10
838.151579993808
 20
1522.191417343462
 10
836.6044684171521
 20
1523.755322861855
 10
834.99605482433
 20
1525.256109460779
 10
833.3289123339801
 20
1526.691376201825
 10
831.6057080184487
 20
1528.058826964382
 10
829.8291986370433
 20
1529.356274118936
 10
828.0022262258059
 20
1530.581642026815
 10
826.127713550861
 20
1531.732970360765
 10
824.2086594326138
 20
1532.808417241053
 10
822.2481339482772
 20
1533.806262182089
 10
820.249273520403
 20
1534.724908844828
 10
818.2152758992751
 20
1535.562887590579
 10
816.1493950471907
 20
1536.318857832106
 10
814.0549359328154
 20
1536.991610178288
 10
811.9352492439386
 20
1537.580068368886
 10
809.793726027086
 20
1538.083290996324
 10
807.6337922625713
 20
1538.500473011747
 10
805.4589033836558
 20
1538.830947012924
 10
803.272538748595
 20
1539.074184311951
 10
801.0781960744047
 20
1539.229795781038
 10
798.8793858412628
 20
1539.297532475029
 10
796.679625676487
 20
1539.277286029664
 10
794.4824347270845
 20
1539.169088834936
 10
792.291328029865
 20
1538.973113983275
 10
790.1098108881329
 20
1538.68967499264
 10
787.9413732639494
 20
1538.31922530495
 10
785.7894841949382
 20
1537.862357560682
 10
783.657586244564
 20
1537.319802650766
 10
781.5490899947672
 20
1536.692428547319
 10
779.4673685897585
 20
1535.981238915074
 10
777.4157523397093
 20
1535.18737150573
 10
775.3975233929652
 20
1534.312096337793
 10
773.4159104853078
 20
1533.356813664817
 10
771.4740837746682
 20
1532.323051735294
 10
769.5751497695491
 20
1531.212464347789
 10
767.7221463592744
 20
1530.026828205208
 10
765.9180379540141
 20
1528.768040072458
 10
764.1657107423608
 20
1527.438113742024
 10
762.467968074043
 20
1526.039176812331
 10
760.8275259751645
 20
1524.573467284044
 10
759.2470088031415
 20
1523.04332997974
 10
757.7289450482894
 20
1521.451212792694
 10
756.2757632887804
 20
1519.799662770771
 10
754.889788305434
 20
1518.091322041695
 10
753.573237362564
 20
1516.328923586205
 10
752.3282166608306
 20
1514.515286865872
 10
751.1567179677659
 20
1512.653313312561
 10
750.0606154313726
 20
1510.745981686756
 10
749.0416625818861
 20
1508.796343312184
 10
748.1014895265005
 20
1506.807517194341
 10
747.2416003415449
 20
1504.782685030759
 10
746.4633706662821
 20
1502.725086120956
 10
745.7680455021789
 20
1500.638012184256
 10
745.1567372211698
 20
1498.524802093742
 10
744.630423786099
 20
1496.388836534762
 10
744.1899471861879
 20
1494.233532596563
 10
743.8360120900338
 20
1492.062338305673
 10
743.569184718288
 20
1489.878727109793
 10
743.3898919378255
 20
1487.686192321026
 10
743.2984205788472
 20
1485.488241527316
 10
743.2855994030584
 20
1484.300737862381
1001
REVIT
1002
{
1070
     3
1000
973634
1002
}
  0
LINE
  5
1ED
330
1E6
100
AcDbEntity
  8
M-PIPE
370
    18
100
AcDbLine
 10
774.2861459653745
 20
1484.300737862381
 30
0.0
 11
798.2855994030568
 21
1484.300737862381
 31
0.0
1001
REVIT
1002
{
1070
     3
1000
973634
1002
}
  0
LINE
  5
1EE
330
1E6
100
AcDbEntity
  8
M-PIPE
370
    18
100
AcDbLine
 10
798.2855994030568
 20
1484.300737862381
 30
0.0
 11
822.2850528407391
 21
1484.30073786238
 31
0.0
1001
REVIT
1002
{
1070
     3
1000
973634
1002
}
  0
LINE
  5
1EF
330
1E6
100
AcDbEntity
  8
M-PIPE
370
    18
100
AcDbLine
 10
822.2850528407391
 20
1484.300737862381
 30
0.0
 11
825.2850528407391
 21
1484.300737862381
 31
0.0
1001
REVIT
1002
{
1070
     3
1000
973634
1002
}
  0
LINE
  5
1F0
330
1E6
100
AcDbEntity
  8
M-PIPE
370
    18
100
AcDbLine
 10
771.2861459653745
 20
1484.300737862381
 30
0.0
 11
774.2861459653745
 21
1484.300737862381
 31
0.0
1001
REVIT
1002
{
1070
     3
1000
973634
1002
}
  0
LINE
  5
1F1
330
1E6
100
AcDbEntity
  8
M-PIPE
370
    18
100
AcDbLine
 10
825.2850528407392
 20
1484.300737862381
 30
0.0
 11
827.9184469723034
 21
1484.300737862381
 31
0.0
1001
REVIT
1002
{
1070
     3
1000
973634
1002
}
  0
LINE
  5
1F2
330
1E6
100
AcDbEntity
  8
M-PIPE
370
    18
100
AcDbLine
 10
768.6527518338103
 20
1484.300737862381
 30
0.0
 11
771.2861459653745
 21
1484.300737862381
 31
0.0
1001
REVIT
1002
{
1070
     3
1000
973634
1002
}
  0
LINE
  5
1F3
330
1E6
100
AcDbEntity
  8
M-PIPE
370
    18
100
AcDbLine
 10
827.9184469723034
 20
1484.300737862381
 30
0.0
 11
840.1186287452361
 21
1484.300737862381
 31
0.0
1001
REVIT
1002
{
1070
     3
1000
973634
1002
}
  0
LINE
  5
1F4
330
1E6
100
AcDbEntity
  8
M-PIPE
370
    18
100
AcDbLine
 10
756.4525700608775
 20
1484.30073786238
 30
0.0
 11
768.6527518338103
 21
1484.300737862381
 31
0.0
1001
REVIT
1002
{
1070
     3
1000
973634
1002
}
  0
LINE
  5
1F5
330
1E6
100
AcDbEntity
  8
M-PIPE
370
    18
100
AcDbLine
 10
840.1186287452361
 20
1484.300737862381
 30
0.0
 11
853.2855994030567
 21
1484.300737862381
 31
0.0
1001
REVIT
1002
{
1070
     3
1000
973634
1002
}
  0
LINE
  5
1F6
330
1E6
100
AcDbEntity
  8
M-PIPE
370
    18
100
AcDbLine
 10
743.2855994030568
 20
1484.30073786238
 30
0.0
 11
756.4525700608775
 21
1484.30073786238
 31
0.0
1001
REVIT
1002
{
1070
     3
1000
973634
1002
}
  0
LWPOLYLINE
  5
1F7
330
1E6
100
AcDbEntity
  8
M-PIPE
370
    18
100
AcDbPolyline
 90
       80
 70
   128
 43
0.0
 10
782.7855994030437
 20
1484.300737862381
 10
782.7979977497985
 20
1483.680903182487
 10
782.835172955353
 20
1483.062060105858
 10
782.8970655473089
 20
1482.445198649401
 10
782.9835765107218
 20
1481.831305659858
 10
783.0945674465047
 20
1481.221363235055
 10
783.2298607928378
 20
1480.616347152757
 10
783.3892401092273
 20
1480.017225309633
 10
783.5724504227666
 20
1479.424956172827
 10
783.7791986360367
 20
1478.840487246612
 10
784.0091539960003
 20
1478.264753556591
 10
784.2619486231357
 20
1477.698676153852
 10
784.5371780999664
 20
1477.143160641481
 10
784.8344021180421
 20
1476.599095725796
 10
785.1531451823382
 20
1476.067351794599
 10
785.4928973719463
 20
1475.54877952475
 10
785.8531151558401
 20
1475.044208521255
 10
786.2332222624075
 20
1474.554445990085
 10
786.6326106013636
 20
1474.080275446813
 10
787.0506412365637
 20
1473.622455463157
 10
787.4866454081673
 20
1473.181718453428
 10
787.9399256025084
 20
1472.758769502822
 10
788.4097566679711
 20
1472.354285239435
 10
788.8953869750759
 20
1471.968912751806
 10
789.3960396189271
 20
1471.603268553703
 10
789.9109136620944
 20
1471.257937597846
 10
790.439185415943
 20
1470.933472340096
 10
790.9800097583585
 20
1470.630391855651
 10
791.5325214857631
 20
1470.349181008632
 10
792.0958366972554
 20
1470.090289676405
 10
792.6690542086647
 20
1469.854132029875
 10
793.2512569942526
 20
1469.641085870899
 10
793.8415136537591
 20
1469.451492027884
 10
794.4388799024431
 20
1469.285653810534
 10
795.0424000817385
 20
1469.143836524619
 10
795.6511086881023
 20
1469.026267047546
 10
796.2640319176153
 20
1468.933133465395
 10
796.8801892238603
 20
1468.864584772033
 10
797.4985948865874
 20
1468.820730630745
 10
798.1182595886552
 20
1468.801641198802
 10
798.7381919987289
 20
1468.807347015223
 10
799.3574003571974
 20
1468.837838951919
 10
799.9748940627782
 20
1468.893068228296
 10
800.5896852572668
 20
1468.972946489293
 10
801.2007904059009
 20
1469.077345946733
 10
801.8072318708048
 20
1469.206099583755
 10
802.4080394750017
 20
1469.359001422004
 10
803.0022520544903
 20
1469.535806851157
 10
803.5889189959025
 20
1469.736233020245
 10
804.1671017572806
 20
1469.959959290151
 10
804.7358753695453
 20
1470.20662774657
 10
805.2943299162494
 20
1470.475843772591
 10
805.8415719892481
 20
1470.767176680002
 10
806.3767261179641
 20
1471.080160398299
 10
806.8989361699511
 20
1471.414294220299
 10
807.4073667205251
 20
1471.769043603165
 10
807.9012043892641
 20
1472.143841023561
 10
808.379659141245
 20
1472.538086885565
 10
808.8419655509294
 20
1472.951150479901
 10
809.2873840266818
 20
1473.382370992933
 10
809.7152019939585
 20
1473.831058563829
 10
810.124735035275
 20
1474.296495388189
 10
810.5153279851277
 20
1474.777936866384
 10
810.8863559781186
 20
1475.274612794749
 10
811.2372254486075
 20
1475.785728597753
 10
811.5673750802898
 20
1476.310466599141
 10
811.8762767041825
 20
1476.84798733005
 10
812.1634361435836
 20
1477.397430871976
 10
812.4283940046471
 20
1477.957918232459
 10
812.6707264113164
 20
1478.528552751287
 10
812.8900456834365
 20
1479.10842153496
 10
813.0860009569566
 20
1479.696596917121
 10
813.2582787452411
 20
1480.29213794263
 10
813.4066034405794
 20
1480.894091872889
 10
813.5307377550999
 20
1481.501495710018
 10
813.6304831003799
 20
1482.113377737451
 10
813.7056799051446
 20
1482.728759074472
 10
813.7562078705478
 20
1483.346655242216
 10
813.7819861626233
 20
1483.966077738626
 10
813.7855994030731
 20
1484.300737862381
1001
REVIT
1002
{
1070
     3
1000
790271
1002
}
  0
LWPOLYLINE
  5
1F8
330
1E6
100
AcDbEntity
  8
M-PIPE
370
    18
100
AcDbPolyline
 90
       77
 70
   128
 43
0.0
 10
755.4244292005708
 20
1481.539834228891
 10
755.5691202631751
 20
1479.82805299846
 10
755.7821485800404
 20
1478.123427109689
 10
756.0631733513034
 20
1476.428683600366
 10
756.4117449972783
 20
1474.74653369858
 10
756.8273058776903
 20
1473.079668485335
 10
757.3091911837785
 20
1471.430754589393
 10
757.8566300018501
 20
1469.802429921238
 10
758.4687465465767
 20
1468.197299452981
 10
759.144561562065
 20
1466.617931050963
 10
759.8829938884558
 20
1465.066851367711
 10
760.6828621915513
 20
1463.546541799841
 10
761.5428868526955
 20
1462.059434518345
 10
762.461692015893
 20
1460.607908577641
 10
763.4378077888842
 20
1459.194286109592
 10
764.4696725946588
 20
1457.82082860859
 10
765.5556356696473
 20
1456.489733313649
 10
766.6939597045893
 20
1455.203129693287
 10
767.8828236238586
 20
1453.963076038837
 10
769.1203254987949
 20
1452.771556171615
 10
770.4044855903849
 20
1451.630476269232
 10
771.7332495164212
 20
1450.541661816114
 10
773.1044915380772
 20
1449.506854683118
 10
774.5160179606338
 20
1448.527710340909
 10
775.9655706429248
 20
1447.605795211563
 10
777.4508306098796
 20
1446.742584162621
 10
778.9694217623901
 20
1445.939458147619
 10
780.5189146785607
 20
1445.197701996859
 10
782.0968305002668
 20
1444.518502361947
 10
783.7006448987973
 20
1443.902945817411
 10
785.3277921132437
 20
1443.352017122411
 10
786.975669055169
 20
1442.866597645334
 10
788.6416394729945
 20
1442.447463953793
 10
790.3230381694396
 20
1442.095286572282
 10
792.0171752652692
 20
1441.810628909487
 10
793.721340502527
 20
1441.593946356943
 10
795.4328075803689
 20
1441.445585560512
 10
797.1488385165642
 20
1441.365783865818
 10
798.8666880276814
 20
1441.354668938551
 10
800.5836079209586
 20
1441.412258560223
 10
802.2968514908226
 20
1441.538460599723
 10
804.0036779130346
 20
1441.733073160712
 10
805.7013566294219
 20
1441.995784904605
 10
807.3871717161912
 20
1442.326175548656
 10
809.0584262288244
 20
1442.723716538312
 10
810.7124465166171
 20
1443.187771892796
 10
812.3465864999474
 20
1443.717599222533
 10
813.9582319034397
 20
1444.312350916819
 10
815.5448044382485
 20
1444.971075499817
 10
817.103765926768
 20
1445.692719152715
 10
818.6326223631775
 20
1446.47612739961
 10
820.1289279033179
 20
1447.320046954425
 10
821.5902887775193
 20
1448.223127725901
 10
823.0143671201235
 20
1449.183924977448
 10
824.3988847095694
 20
1450.200901638423
 10
825.7416266130622
 20
1451.272430763114
 10
827.0404447299924
 20
1452.3967981335
 10
828.2932612284392
 20
1453.572205001641
 10
829.4980718692587
 20
1454.796770967289
 10
830.6529492124376
 20
1456.068536986125
 10
831.7560457005878
 20
1457.385468503815
 10
832.8055966146434
 20
1458.745458710861
 10
833.7999228970337
 20
1460.146331913047
 10
834.7374338378186
 20
1461.585847012086
 10
835.6166296194846
 20
1463.061701090902
 10
836.4361037163325
 20
1464.571533097799
 10
837.1945451446194
 20
1466.112927623646
 10
837.8907405598521
 20
1467.683418766016
 10
838.5235761978803
 20
1469.280494074102
 10
839.0920396566807
 20
1470.901598568101
 10
839.5952215159846
 20
1472.54413882664
 10
840.0323167921577
 20
1474.205487135696
 10
840.4026262259993
 20
1475.882985692375
 10
840.7055574014108
 20
1477.573950856835
 10
840.9406256931333
 20
1479.275677445533
 10
841.1074550420455
 20
1480.985443058943
 10
841.1467696055453
 20
1481.539834228893
1001
REVIT
1002
{
1070
     3
1000
790271
1002
}
  0
LINE
  5
1F9
330
1E6
100
AcDbEntity
  8
M-PIPE
370
    18
100
AcDbLine
 10
853.2855994030567
 20
1475.312156122096
 30
0.0
 11
853.2855994030567
 21
1475.312156122096
 31
0.0
1001
REVIT
1002
{
1070
     3
1000
790271
1002
}
  0
SPLINE
  5
1FA
330
1E6
100
AcDbEntity
  8
M-PIPE
370
    18
100
AcDbSpline
210
0.0
220
0.0
230
1.0
 70
     8
 71
     3
 72
     9
 73
     5
 74
     0
 42
0.000000001
 43
0.0000000001
 40
-1.0
 40
-1.0
 40
-1.0
 40
-1.0
 40
-0.5
 40
0.0
 40
0.0
 40
0.0
 40
0.0
 10
852.1308988646776
 20
1482.237991795576
 30
0.0
 10
852.5058797876958
 20
1480.934402320623
 30
0.0
 10
853.073310800444
 20
1478.307937190138
 30
0.0
 10
853.2756801466154
 20
1475.642899698493
 30
0.0
 10
853.2855994030567
 20
1474.300737862381
 30
0.0
1001
REVIT
1002
{
1070
     3
1000
790271
1002
}
  0
LINE
  5
1FB
330
1E6
100
AcDbEntity
  8
M-PIPE
370
    18
100
AcDbLine
 10
853.2855994030567
 20
1484.300737862381
 30
0.0
 11
853.2855994030567
 21
1474.300737862381
 31
0.0
1001
REVIT
1002
{
1070
     3
1000
790271
1002
}
  0
LINE
  5
1FC
330
1E6
100
AcDbEntity
  8
M-PIPE
370
    18
100
AcDbLine
 10
853.2855994030567
 20
1474.300737862381
 30
0.0
 11
853.2855994030567
 21
1474.784745763694
 31
0.0
1001
REVIT
1002
{
1070
     3
1000
790271
1002
}
  0
LINE
  5
1FD
330
1E6
100
AcDbEntity
  8
M-PIPE
370
    18
100
AcDbLine
 10
853.2855994030567
 20
1473.28088652739
 30
0.0
 11
853.2855994030567
 21
1474.300737862381
 31
0.0
1001
REVIT
1002
{
1070
     3
1000
790271
1002
}
  0
SPLINE
  5
1FE
330
1E6
100
AcDbEntity
  8
M-PIPE
370
    18
100
AcDbSpline
210
0.0
220
0.0
230
1.0
 70
    24
 71
     3
 72
     9
 73
     5
 74
     0
 42
0.000000001
 43
0.0000000001
 40
-1.0
 40
-1.0
 40
-1.0
 40
-1.0
 40
-0.5
 40
0.0
 40
0.0
 40
0.0
 40
0.0
 10
852.1308988646776
 20
1464.300737862381
 30
0.0
 10
852.5058797876958
 20
1464.300737862381
 30
0.0
 10
853.0733108004442
 20
1464.300737862381
 30
0.0
 10
853.2756801466154
 20
1464.300737862381
 30
0.0
 10
853.2855994030571
 20
1464.300737862381
 30
0.0
1001
REVIT
1002
{
1070
     3
1000
790271
1002
}
  0
LINE
  5
1FF
330
1E6
100
AcDbEntity
  8
M-PIPE
370
    18
100
AcDbLine
 10
853.2855994030567
 20
1474.300737862381
 30
0.0
 11
853.2855994030569
 21
1464.300737862381
 31
0.0
1001
REVIT
1002
{
1070
     3
1000
790271
1002
}
  0
SPLINE
  5
200
330
1E6
100
AcDbEntity
  8
M-PIPE
370
    18
100
AcDbSpline
210
0.0
220
0.0
230
1.0
 70
     8
 71
     3
 72
     9
 73
     5
 74
     0
 42
0.000000001
 43
0.0000000001
 40
-1.0
 40
-1.0
 40
-1.0
 40
-1.0
 40
-0.5
 40
0.0
 40
0.0
 40
0.0
 40
0.0
 10
853.2855994030567
 20
1474.300737862381
 30
0.0
 10
853.2756801466154
 20
1472.958576026269
 30
0.0
 10
853.073310800444
 20
1470.293538534624
 30
0.0
 10
852.5058797876958
 20
1467.66707340414
 30
0.0
 10
852.1308988646776
 20
1466.363483929187
 30
0.0
1001
REVIT
1002
{
1070
     3
1000
790271
1002
}
  0
LINE
  5
201
330
1E6
100
AcDbEntity
  8
M-PIPE
370
    18
100
AcDbLine
 10
852.1308988646776
 20
1484.300737862381
 30
0.0
 11
852.1308988646776
 21
1482.237991795576
 31
0.0
1001
REVIT
1002
{
1070
     3
1000
790271
1002
}
  0
SPLINE
  5
202
330
1E6
100
AcDbEntity
  8
M-PIPE
370
    18
100
AcDbSpline
210
0.0
220
0.0
230
1.0
 70
     8
 71
     3
 72
     8
 73
     4
 74
     0
 42
0.000000001
 43
0.0000000001
 40
0.0
 40
0.0
 40
0.0
 40
0.0
 40
0.4999999939542203
 40
0.4999999939542203
 40
0.4999999939542203
 40
0.4999999939542203
 10
841.2251783077376
 20
1484.300737862381
 30
0.0
 10
841.2252086519824
 20
1483.956270268524
 30
0.0
 10
841.2213971208768
 20
1483.611888214624
 30
0.0
 10
841.2137437144206
 20
1483.267971076413
 30
0.0
1001
REVIT
1002
{
1070
     3
1000
790271
1002
}
  0
SPLINE
  5
203
330
1E6
100
AcDbEntity
  8
M-PIPE
370
    18
100
AcDbSpline
210
0.0
220
0.0
230
1.0
 70
     8
 71
     3
 72
     8
 73
     4
 74
     0
 42
0.000000001
 43
0.0000000001
 40
0.5
 40
0.5
 40
0.5
 40
0.5
 40
1.0
 40
1.0
 40
1.0
 40
1.0
 10
841.213743714143
 20
1483.267971063938
 30
0.0
 10
841.2060903075012
 20
1482.924053921579
 30
0.0
 10
841.1945950254157
 20
1482.580601694927
 30
0.0
 10
841.179257867887
 20
1482.237991795575
 30
0.0
1001
REVIT
1002
{
1070
     3
1000
790271
1002
}
  0
LINE
  5
204
330
1E6
100
AcDbEntity
  8
M-PIPE
370
    18
100
AcDbLine
 10
841.179257867887
 20
1482.237991795575
 30
0.0
 11
852.1308988646776
 21
1482.237991795575
 31
0.0
1001
REVIT
1002
{
1070
     3
1000
790271
1002
}
  0
LINE
  5
205
330
1E6
100
AcDbEntity
  8
M-PIPE
370
    18
100
AcDbLine
 10
852.1308988646776
 20
1466.363483929187
 30
0.0
 11
852.1308988646776
 21
1464.300737862381
 31
0.0
1001
REVIT
1002
{
1070
     3
1000
790271
1002
}
  0
LINE
  5
206
330
1E6
100
AcDbEntity
  8
M-PIPE
370
    18
100
AcDbLine
 10
852.1308988646776
 20
1466.363483929187
 30
0.0
 11
837.310686479655
 21
1466.363483929187
 31
0.0
1001
REVIT
1002
{
1070
     3
1000
790271
1002
}
  0
SPLINE
  5
207
330
1E6
100
AcDbEntity
  8
M-PIPE
370
    18
100
AcDbSpline
210
0.0
220
0.0
230
1.0
 70
     8
 71
     3
 72
     8
 73
     4
 74
     0
 42
0.000000001
 43
0.0000000001
 40
0.5
 40
0.5
 40
0.5
 40
0.5
 40
1.0
 40
1.0
 40
1.0
 40
1.0
 10
836.7798828919504
 20
1465.250996691523
 30
0.0
 10
836.6105754287014
 20
1464.906547682306
 30
0.0
 10
836.4488950314383
 20
1464.589169170179
 30
0.0
 10
836.2948417001611
 20
1464.300737862381
 30
0.0
1001
REVIT
1002
{
1070
     3
1000
790271
1002
}
  0
LINE
  5
208
330
1E6
100
AcDbEntity
  8
M-PIPE
370
    18
100
AcDbLine
 10
836.2948417001611
 20
1464.300737862381
 30
0.0
 11
852.1308988646776
 21
1464.300737862381
 31
0.0
1001
REVIT
1002
{
1070
     3
1000
790271
1002
}
  0
LINE
  5
209
330
1E6
100
AcDbEntity
  8
M-PIPE
370
    18
100
AcDbLine
 10
744.4402999414359
 20
1482.237991795574
 30
0.0
 11
755.391940938226
 21
1482.237991795574
 31
0.0
1001
REVIT
1002
{
1070
     3
1000
790271
1002
}
  0
SPLINE
  5
20A
330
1E6
100
AcDbEntity
  8
M-PIPE
370
    18
100
AcDbSpline
210
0.0
220
0.0
230
1.0
 70
     8
 71
     3
 72
     8
 73
     4
 74
     0
 42
0.000000001
 43
0.0000000001
 40
0.0
 40
0.0
 40
0.0
 40
0.0
 40
0.5
 40
0.5
 40
0.5
 40
0.5
 10
755.391940938226
 20
1482.237991795574
 30
0.0
 10
755.3766037806972
 20
1482.580601694925
 30
0.0
 10
755.3651084986117
 20
1482.924053921579
 30
0.0
 10
755.3574550919698
 20
1483.267971063937
 30
0.0
1001
REVIT
1002
{
1070
     3
1000
790271
1002
}
  0
SPLINE
  5
20B
330
1E6
100
AcDbEntity
  8
M-PIPE
370
    18
100
AcDbSpline
210
0.0
220
0.0
230
1.0
 70
     8
 71
     3
 72
     8
 73
     4
 74
     0
 42
0.000000001
 43
0.0000000001
 40
0.5000000060457389
 40
0.5000000060457389
 40
0.5000000060457389
 40
0.5000000060457389
 40
1.0
 40
1.0
 40
1.0
 40
1.0
 10
755.3574550916922
 20
1483.267971076412
 30
0.0
 10
755.3498016852359
 20
1483.611888214623
 30
0.0
 10
755.3459901541303
 20
1483.956270268523
 30
0.0
 10
755.3460204983752
 20
1484.30073786238
 30
0.0
1001
REVIT
1002
{
1070
     3
1000
790271
1002
}
  0
LINE
  5
20C
330
1E6
100
AcDbEntity
  8
M-PIPE
370
    18
100
AcDbLine
 10
744.440299941436
 20
1464.30073786238
 30
0.0
 11
760.2763571059522
 21
1464.30073786238
 31
0.0
1001
REVIT
1002
{
1070
     3
1000
790271
1002
}
  0
SPLINE
  5
20D
330
1E6
100
AcDbEntity
  8
M-PIPE
370
    18
100
AcDbSpline
210
0.0
220
0.0
230
1.0
 70
     8
 71
     3
 72
     8
 73
     4
 74
     0
 42
0.000000001
 43
0.0000000001
 40
0.0
 40
0.0
 40
0.0
 40
0.0
 40
0.5
 40
0.5
 40
0.5
 40
0.5
 10
760.2763571059522
 20
1464.30073786238
 30
0.0
 10
760.122303774675
 20
1464.589169170179
 30
0.0
 10
759.9606233774119
 20
1464.906547682306
 30
0.0
 10
759.7913159141628
 20
1465.250996691523
 30
0.0
1001
REVIT
1002
{
1070
     3
1000
790271
1002
}
  0
LINE
  5
20E
330
1E6
100
AcDbEntity
  8
M-PIPE
370
    18
100
AcDbLine
 10
759.2605123264577
 20
1466.363483929187
 30
0.0
 11
744.440299941436
 21
1466.363483929187
 31
0.0
1001
REVIT
1002
{
1070
     3
1000
790271
1002
}
  0
LINE
  5
20F
330
1E6
100
AcDbEntity
  8
M-PIPE
370
    18
100
AcDbLine
 10
744.440299941436
 20
1466.363483929187
 30
0.0
 11
744.440299941436
 21
1464.300737862381
 31
0.0
1001
REVIT
1002
{
1070
     3
1000
790271
1002
}
  0
SPLINE
  5
210
330
1E6
100
AcDbEntity
  8
M-PIPE
370
    18
100
AcDbSpline
210
0.0
220
0.0
230
1.0
 70
     8
 71
     3
 72
     9
 73
     5
 74
     0
 42
0.000000001
 43
0.0000000001
 40
-1.0
 40
-1.0
 40
-1.0
 40
-1.0
 40
-0.5
 40
0.0
 40
0.0
 40
0.0
 40
0.0
 10
744.440299941436
 20
1466.363483929187
 30
0.0
 10
744.0653190184177
 20
1467.66707340414
 30
0.0
 10
743.4978880056696
 20
1470.293538534624
 30
0.0
 10
743.2955186594982
 20
1472.958576026269
 30
0.0
 10
743.2855994030568
 20
1474.300737862381
 30
0.0
1001
REVIT
1002
{
1070
     3
1000
790271
1002
}
  0
SPLINE
  5
211
330
1E6
100
AcDbEntity
  8
M-PIPE
370
    18
100
AcDbSpline
210
0.0
220
0.0
230
1.0
 70
    24
 71
     3
 72
     9
 73
     5
 74
     0
 42
0.000000001
 43
0.0000000001
 40
-1.0
 40
-1.0
 40
-1.0
 40
-1.0
 40
-0.5
 40
0.0
 40
0.0
 40
0.0
 40
0.0
 10
743.285599403057
 20
1464.30073786238
 30
0.0
 10
743.2955186594982
 20
1464.30073786238
 30
0.0
 10
743.4978880056696
 20
1464.30073786238
 30
0.0
 10
744.0653190184177
 20
1464.300737862381
 30
0.0
 10
744.440299941436
 20
1464.300737862381
 30
0.0
1001
REVIT
1002
{
1070
     3
1000
790271
1002
}
  0
SPLINE
  5
212
330
1E6
100
AcDbEntity
  8
M-PIPE
370
    18
100
AcDbSpline
210
0.0
220
0.0
230
1.0
 70
     8
 71
     3
 72
     9
 73
     5
 74
     0
 42
0.000000001
 43
0.0000000001
 40
-1.0
 40
-1.0
 40
-1.0
 40
-1.0
 40
-0.5
 40
0.0
 40
0.0
 40
0.0
 40
0.0
 10
743.2855994030568
 20
1474.300737862381
 30
0.0
 10
743.2955186594981
 20
1475.642899698493
 30
0.0
 10
743.4978880056696
 20
1478.307937190137
 30
0.0
 10
744.0653190184177
 20
1480.934402320622
 30
0.0
 10
744.4402999414359
 20
1482.237991795574
 30
0.0
1001
REVIT
1002
{
1070
     3
1000
790271
1002
}
  0
LINE
  5
213
330
1E6
100
AcDbEntity
  8
M-PIPE
370
    18
100
AcDbLine
 10
744.4402999414359
 20
1484.30073786238
 30
0.0
 11
744.4402999414359
 21
1482.237991795574
 31
0.0
1001
REVIT
1002
{
1070
     3
1000
790271
1002
}
  0
LINE
  5
214
330
1E6
100
AcDbEntity
  8
M-PIPE
370
    18
100
AcDbLine
 10
743.2855994030568
 20
1473.281025781958
 30
0.0
 11
743.2855994030568
 21
1474.30073786238
 31
0.0
1001
REVIT
1002
{
1070
     3
1000
790271
1002
}
  0
LINE
  5
215
330
1E6
100
AcDbEntity
  8
M-PIPE
370
    18
100
AcDbLine
 10
743.2855994030568
 20
1474.300737862381
 30
0.0
 11
743.285599403057
 21
1464.30073786238
 31
0.0
1001
REVIT
1002
{
1070
     3
1000
790271
1002
}
  0
LINE
  5
216
330
1E6
100
AcDbEntity
  8
M-PIPE
370
    18
100
AcDbLine
 10
743.2855994030568
 20
1484.30073786238
 30
0.0
 11
743.2855994030568
 21
1474.300737862381
 31
0.0
1001
REVIT
1002
{
1070
     3
1000
790271
1002
}
  0
LINE
  5
217
330
1E6
100
AcDbEntity
  8
M-PIPE
370
    18
100
AcDbLine
 10
743.2855994030568
 20
1475.312156122095
 30
0.0
 11
743.2855994030568
 21
1475.312156122095
 31
0.0
1001
REVIT
1002
{
1070
     3
1000
790271
1002
}
  0
LINE
  5
218
330
1E6
100
AcDbEntity
  8
M-PIPE
370
    18
100
AcDbLine
 10
743.2855994030568
 20
1474.30073786238
 30
0.0
 11
743.2855994030568
 21
1474.784656783703
 31
0.0
1001
REVIT
1002
{
1070
     3
1000
790271
1002
}
  0
ELLIPSE
  5
219
330
1E6
100
AcDbEntity
  8
M-PIPE
370
    18
100
AcDbEllipse
 10
815.0831016066295
 20
1482.799120536589
 30
0.0
 11
26.10419874714843
 21
0.0
 31
0.0
210
0.0
220
0.0
230
0.9999999999999998
 40
0.8660254037844337
 41
6.242907230763792
 42
6.258361629769789
1001
REVIT
1002
{
1070
     3
1000
790271
1002
}
  0
ELLIPSE
  5
21A
330
1E6
100
AcDbEntity
  8
M-PIPE
370
    18
100
AcDbEllipse
 10
815.0831016066295
 20
1482.799120536589
 30
0.0
 11
26.10419874714847
 21
0.0
 31
0.0
210
0.0
220
0.0
230
0.9999999999999998
 40
0.8660254037844307
 41
6.227452831757792
 42
6.242907230655745
1001
REVIT
1002
{
1070
     3
1000
790271
1002
}
  0
LINE
  5
21B
330
1E6
100
AcDbEntity
  8
M-PIPE
370
    18
100
AcDbLine
 10
840.7625057988665
 20
1477.951937466429
 30
0.0
 11
840.7106777835727
 21
1477.613567380427
 31
0.0
1001
REVIT
1002
{
1070
     3
1000
790271
1002
}
  0
LINE
  5
21C
330
1E6
100
AcDbEntity
  8
M-PIPE
370
    18
100
AcDbLine
 10
840.0857303801547
 20
1474.429174922397
 30
0.0
 11
839.9259666552675
 21
1473.775420047655
 31
0.0
1001
REVIT
1002
{
1070
     3
1000
790271
1002
}
  0
LINE
  5
21D
330
1E6
100
AcDbEntity
  8
M-PIPE
370
    18
100
AcDbLine
 10
839.1163966256385
 20
1470.978317696387
 30
0.0
 11
837.310686479655
 21
1466.363483929187
 31
0.0
1001
REVIT
1002
{
1070
     3
1000
790271
1002
}
  0
LINE
  5
21E
330
1E6
100
AcDbEntity
  8
M-PIPE
370
    18
100
AcDbLine
 10
759.2605123264577
 20
1466.363483929187
 30
0.0
 11
757.454802180475
 21
1470.978317696384
 31
0.0
1001
REVIT
1002
{
1070
     3
1000
790271
1002
}
  0
LINE
  5
21F
330
1E6
100
AcDbEntity
  8
M-PIPE
370
    18
100
AcDbLine
 10
756.6452321508454
 20
1473.775420047654
 30
0.0
 11
756.4854684259587
 21
1474.429174922395
 31
0.0
1001
REVIT
1002
{
1070
     3
1000
790271
1002
}
  0
LINE
  5
220
330
1E6
100
AcDbEntity
  8
M-PIPE
370
    18
100
AcDbLine
 10
755.8605210225404
 20
1477.613567380426
 30
0.0
 11
755.8086930072467
 21
1477.951937466426
 31
0.0
1001
REVIT
1002
{
1070
     3
1000
790271
1002
}
  0
ELLIPSE
  5
221
330
1E6
100
AcDbEntity
  8
M-PIPE
370
    18
100
AcDbEllipse
 10
781.4880971987578
 20
1482.799120536559
 30
0.0
 11
26.10419874642202
 21
0.0
 31
0.0
210
0.0
220
0.0
230
0.9999999999999998
 40
0.8660254037844413
 41
3.181870730113483
 42
3.197325129011886
1001
REVIT
1002
{
1070
     3
1000
790271
1002
}
  0
ELLIPSE
  5
222
330
1E6
100
AcDbEntity
  8
M-PIPE
370
    18
100
AcDbEllipse
 10
781.4880971987578
 20
1482.799120536559
 30
0.0
 11
26.10419874642207
 21
0.0
 31
0.0
210
0.0
220
0.0
230
1.0
 40
0.8660254037844509
 41
3.16641633099899
 42
3.181870730005426
1001
REVIT
1002
{
1070
     3
1000
790271
1002
}
  0
ARC
  5
223
330
1E6
100
AcDbEntity
  8
M-PIPE
370
    18
100
AcDbCircle
 10
798.2855994030561
 20
1484.300737862381
 30
0.0
 40
15.99999999999952
100
AcDbArc
 50
180.0000000000002
 51
359.999999999999
1001
REVIT
1002
{
1070
     3
1000
790271
1002
}
  0
ARC
  5
224
330
1E6
100
AcDbEntity
  8
M-PIPE
370
    18
100
AcDbCircle
 10
798.2855994030568
 20
1484.300737862381
 30
0.0
 40
15.50000000001461
100
AcDbArc
 50
184.9999999999981
 51
185.6278813628054
1001
REVIT
1002
{
1070
     3
1000
790271
1002
}
  0
ARC
  5
225
330
1E6
100
AcDbEntity
  8
M-PIPE
370
    18
100
AcDbCircle
 10
798.2855994030568
 20
1484.300737862381
 30
0.0
 40
15.50000000001465
100
AcDbArc
 50
189.9999999999987
 51
191.2587722184111
1001
REVIT
1002
{
1070
     3
1000
790271
1002
}
  0
ARC
  5
226
330
1E6
100
AcDbEntity
  8
M-PIPE
370
    18
100
AcDbCircle
 10
798.2855994030568
 20
1484.300737862381
 30
0.0
 40
15.50000000001474
100
AcDbArc
 50
194.9999999999989
 51
196.890938510664
1001
REVIT
1002
{
1070
     3
1000
790271
1002
}
  0
ARC
  5
227
330
1E6
100
AcDbEntity
  8
M-PIPE
370
    18
100
AcDbCircle
 10
798.2855994030568
 20
1484.300737862381
 30
0.0
 40
15.50000000001457
100
AcDbArc
 50
199.9999999999984
 51
204.999999999999
1001
REVIT
1002
{
1070
     3
1000
790271
1002
}
  0
ARC
  5
228
330
1E6
100
AcDbEntity
  8
M-PIPE
370
    18
100
AcDbCircle
 10
798.2855994030568
 20
1484.300737862381
 30
0.0
 40
15.50000000001463
100
AcDbArc
 50
208.1518079189321
 51
209.9999999999988
1001
REVIT
1002
{
1070
     3
1000
790271
1002
}
  0
ARC
  5
229
330
1E6
100
AcDbEntity
  8
M-PIPE
370
    18
100
AcDbCircle
 10
798.2855994030568
 20
1484.300737862381
 30
0.0
 40
15.50000000001462
100
AcDbArc
 50
213.7763607328345
 51
214.9999999999985
1001
REVIT
1002
{
1070
     3
1000
790271
1002
}
  0
ARC
  5
22A
330
1E6
100
AcDbEntity
  8
M-PIPE
370
    18
100
AcDbCircle
 10
798.2855994030568
 20
1484.300737862381
 30
0.0
 40
15.50000000001458
100
AcDbArc
 50
219.3935715059905
 51
219.9999999999987
1001
REVIT
1002
{
1070
     3
1000
790271
1002
}
  0
ARC
  5
22B
330
1E6
100
AcDbEntity
  8
M-PIPE
370
    18
100
AcDbCircle
 10
798.2855994030568
 20
1484.300737862381
 30
0.0
 40
15.50000000001463
100
AcDbArc
 50
229.9999999999991
 51
230.6064284940094
1001
REVIT
1002
{
1070
     3
1000
790271
1002
}
  0
ARC
  5
22C
330
1E6
100
AcDbEntity
  8
M-PIPE
370
    18
100
AcDbCircle
 10
798.2855994030568
 20
1484.300737862381
 30
0.0
 40
15.50000000001467
100
AcDbArc
 50
234.9999999999991
 51
236.2236392671654
1001
REVIT
1002
{
1070
     3
1000
790271
1002
}
  0
ARC
  5
22D
330
1E6
100
AcDbEntity
  8
M-PIPE
370
    18
100
AcDbCircle
 10
798.2855994030568
 20
1484.300737862381
 30
0.0
 40
15.50000000001451
100
AcDbArc
 50
239.9999999999992
 51
241.8481920810655
1001
REVIT
1002
{
1070
     3
1000
790271
1002
}
  0
ARC
  5
22E
330
1E6
100
AcDbEntity
  8
M-PIPE
370
    18
100
AcDbCircle
 10
798.2855994030568
 20
1484.300737862381
 30
0.0
 40
15.50000000001467
100
AcDbArc
 50
244.9999999999991
 51
249.9999999999989
1001
REVIT
1002
{
1070
     3
1000
790271
1002
}
  0
ARC
  5
22F
330
1E6
100
AcDbEntity
  8
M-PIPE
370
    18
100
AcDbCircle
 10
798.2855994030568
 20
1484.300737862381
 30
0.0
 40
15.50000000001454
100
AcDbArc
 50
253.1090614893355
 51
254.9999999999991
1001
REVIT
1002
{
1070
     3
1000
790271
1002
}
  0
ARC
  5
230
330
1E6
100
AcDbEntity
  8
M-PIPE
370
    18
100
AcDbCircle
 10
798.2855994030568
 20
1484.300737862381
 30
0.0
 40
15.50000000001473
100
AcDbArc
 50
258.7412277815879
 51
259.9999999999994
1001
REVIT
1002
{
1070
     3
1000
790271
1002
}
  0
ARC
  5
231
330
1E6
100
AcDbEntity
  8
M-PIPE
370
    18
100
AcDbCircle
 10
798.2855994030568
 20
1484.300737862381
 30
0.0
 40
15.50000000001473
100
AcDbArc
 50
264.3721186371938
 51
264.9999999999992
1001
REVIT
1002
{
1070
     3
1000
790271
1002
}
  0
ARC
  5
232
330
1E6
100
AcDbEntity
  8
M-PIPE
370
    18
100
AcDbCircle
 10
798.2855994030568
 20
1484.300737862381
 30
0.0
 40
15.50000000001461
100
AcDbArc
 50
274.9999999999989
 51
275.6278813628055
1001
REVIT
1002
{
1070
     3
1000
790271
1002
}
  0
ARC
  5
233
330
1E6
100
AcDbEntity
  8
M-PIPE
370
    18
100
AcDbCircle
 10
798.2855994030568
 20
1484.300737862381
 30
0.0
 40
15.50000000001465
100
AcDbArc
 50
279.9999999999991
 51
281.2587722184124
1001
REVIT
1002
{
1070
     3
1000
790271
1002
}
  0
ARC
  5
234
330
1E6
100
AcDbEntity
  8
M-PIPE
370
    18
100
AcDbCircle
 10
798.2855994030568
 20
1484.300737862381
 30
0.0
 40
15.50000000001474
100
AcDbArc
 50
284.9999999999991
 51
286.8909385106639
1001
REVIT
1002
{
1070
     3
1000
790271
1002
}
  0
ARC
  5
235
330
1E6
100
AcDbEntity
  8
M-PIPE
370
    18
100
AcDbCircle
 10
798.2855994030568
 20
1484.300737862381
 30
0.0
 40
15.50000000001457
100
AcDbArc
 50
289.9999999999987
 51
294.9999999999997
1001
REVIT
1002
{
1070
     3
1000
790271
1002
}
  0
ARC
  5
236
330
1E6
100
AcDbEntity
  8
M-PIPE
370
    18
100
AcDbCircle
 10
798.2855994030568
 20
1484.300737862381
 30
0.0
 40
15.50000000001463
100
AcDbArc
 50
298.151807918933
 51
299.9999999999989
1001
REVIT
1002
{
1070
     3
1000
790271
1002
}
  0
ARC
  5
237
330
1E6
100
AcDbEntity
  8
M-PIPE
370
    18
100
AcDbCircle
 10
798.2855994030568
 20
1484.300737862381
 30
0.0
 40
15.50000000001462
100
AcDbArc
 50
303.7763607328348
 51
304.9999999999996
1001
REVIT
1002
{
1070
     3
1000
790271
1002
}
  0
ARC
  5
238
330
1E6
100
AcDbEntity
  8
M-PIPE
370
    18
100
AcDbCircle
 10
798.2855994030568
 20
1484.300737862381
 30
0.0
 40
15.50000000001475
100
AcDbArc
 50
309.3935715059898
 51
309.9999999999984
1001
REVIT
1002
{
1070
     3
1000
790271
1002
}
  0
ARC
  5
239
330
1E6
100
AcDbEntity
  8
M-PIPE
370
    18
100
AcDbCircle
 10
798.2855994030568
 20
1484.300737862381
 30
0.0
 40
15.50000000001463
100
AcDbArc
 50
319.9999999999993
 51
320.6064284940085
1001
REVIT
1002
{
1070
     3
1000
790271
1002
}
  0
ARC
  5
23A
330
1E6
100
AcDbEntity
  8
M-PIPE
370
    18
100
AcDbCircle
 10
798.2855994030568
 20
1484.300737862381
 30
0.0
 40
15.50000000001467
100
AcDbArc
 50
324.9999999999996
 51
326.2236392671649
1001
REVIT
1002
{
1070
     3
1000
790271
1002
}
  0
ARC
  5
23B
330
1E6
100
AcDbEntity
  8
M-PIPE
370
    18
100
AcDbCircle
 10
798.2855994030568
 20
1484.300737862381
 30
0.0
 40
15.50000000001471
100
AcDbArc
 50
329.9999999999999
 51
331.848192081066
1001
REVIT
1002
{
1070
     3
1000
790271
1002
}
  0
ARC
  5
23C
330
1E6
100
AcDbEntity
  8
M-PIPE
370
    18
100
AcDbCircle
 10
798.2855994030568
 20
1484.300737862381
 30
0.0
 40
15.50000000001467
100
AcDbArc
 50
334.9999999999995
 51
340.0000000000001
1001
REVIT
1002
{
1070
     3
1000
790271
1002
}
  0
ARC
  5
23D
330
1E6
100
AcDbEntity
  8
M-PIPE
370
    18
100
AcDbCircle
 10
798.2855994030568
 20
1484.300737862381
 30
0.0
 40
15.50000000001461
100
AcDbArc
 50
343.1090614893357
 51
344.9999999999998
1001
REVIT
1002
{
1070
     3
1000
790271
1002
}
  0
ARC
  5
23E
330
1E6
100
AcDbEntity
  8
M-PIPE
370
    18
100
AcDbCircle
 10
798.2855994030568
 20
1484.300737862381
 30
0.0
 40
15.50000000001455
100
AcDbArc
 50
348.7412277815882
 51
349.9999999999999
1001
REVIT
1002
{
1070
     3
1000
790271
1002
}
  0
ARC
  5
23F
330
1E6
100
AcDbEntity
  8
M-PIPE
370
    18
100
AcDbCircle
 10
798.2855994030568
 20
1484.300737862381
 30
0.0
 40
15.50000000001474
100
AcDbArc
 50
354.3721186371939
 51
354.9999999999987
1001
REVIT
1002
{
1070
     3
1000
790271
1002
}
  0
ENDBLK
  5
241
330
1E6
100
AcDbEntity
  8
0
100
AcDbBlockEnd
  0
BLOCK
  5
307
330
243
100
AcDbEntity
  8
0
100
AcDbBlockBegin
  2
Automatic flow rate regulator valve_Caleffi_121 DN15 - 3_4___Insulation-V2-Est - Idraulica
 70
     0
 10
0.0
 20
0.0
 30
0.0
  3
Automatic flow rate regulator valve_Caleffi_121 DN15 - 3_4___Insulation-V2-Est - Idraulica
  1

  0
LWPOLYLINE
  5
244
330
243
100
AcDbEntity
  8
M-PIPE
370
    18
100
AcDbPolyline
 90
       41
 70
   128
 43
0.0
 10
1215.829007555401
 20
1951.959560323618
 10
1215.828079316407
 20
1952.079548733371
 10
1215.831950076521
 20
1952.199478284851
 10
1215.840613643353
 20
1952.319157116364
 10
1215.854056157043
 20
1952.438393767307
 10
1215.872256112439
 20
1952.556997484474
 10
1215.895184393493
 20
1952.674778527221
 10
1215.922804319847
 20
1952.791548471001
 10
1215.955071705511
 20
1952.907120508817
 10
1215.991934929551
 20
1953.021309750061
 10
1216.033335018671
 20
1953.133933516305
 10
1216.079205741563
 20
1953.24481163355
 10
1216.129473714852
 20
1953.353766720461
 10
1216.184058520507
 20
1953.460624472141
 10
1216.242872834482
 20
1953.565213938982
 10
1216.30582256642
 20
1953.667367800149
 10
1216.37280701018
 20
1953.766922631255
 10
1216.443719004941
 20
1953.863719165808
 10
1216.518445106637
 20
1953.957602550001
 10
1216.596865769448
 20
1954.048422590448
 10
1216.678855537041
 20
1954.136033994457
 10
1216.764283243278
 20
1954.220296602471
 10
1216.853012222054
 20
1954.301075612293
 10
1216.94490052593
 20
1954.378241794739
 10
1217.039801153221
 20
1954.451671700378
 10
1217.137562283169
 20
1954.521247857025
 10
1217.238027518819
 20
1954.586858957672
 10
1217.341036137227
 20
1954.648400038554
 10
1217.446423346577
 20
1954.70577264707
 10
1217.554020549814
 20
1954.758884999284
 10
1217.663655614368
 20
1954.807652126764
 10
1217.775153147522
 20
1954.851996012509
 10
1217.888334777008
 20
1954.891845715761
 10
1218.003019436364
 20
1954.927137485495
 10
1218.119023654598
 20
1954.957814862408
 10
1218.236161849708
 20
1954.983828769242
 10
1218.35424662557
 20
1955.005137589295
 10
1218.473089071732
 20
1955.021707233001
 10
1218.592499065633
 20
1955.033511192463
 10
1218.712285576755
 20
1955.040530583866
 10
1218.815189757697
 20
1955.042513393737
1001
REVIT
1002
{
1070
     3
1000
973634
1002
}
  0
LWPOLYLINE
  5
245
330
243
100
AcDbEntity
  8
M-PIPE
370
    18
100
AcDbPolyline
 90
       41
 70
   128
 43
0.0
 10
1270.77824481076
 20
1955.042757409138
 10
1268.700783259812
 20
1955.042757409138
 10
1266.626645204177
 20
1955.042757409138
 10
1264.559148822286
 20
1955.042757409138
 10
1262.501601667307
 20
1955.042757409138
 10
1260.457295375767
 20
1955.042757409138
 10
1258.429500401638
 20
1955.042757409138
 10
1256.421460784305
 20
1955.042757409138
 10
1254.436388958798
 20
1955.042757409138
 10
1252.477460616577
 20
1955.042757409138
 10
1250.547809625107
 20
1955.042757409138
 10
1248.650523014339
 20
1955.042757409138
 10
1246.788636038116
 20
1955.042757409138
 10
1244.965127318419
 20
1955.042757409138
 10
1243.182914080205
 20
1955.042757409138
 10
1241.44484748447
 20
1955.042757409138
 10
1239.753708067
 20
1955.042757409138
 10
1238.112201290104
 20
1955.042757409138
 10
1236.522953214457
 20
1955.042757409138
 10
1234.988506297959
 20
1955.042757409138
 10
1233.511315328344
 20
1955.042757409138
 10
1232.093743496047
 20
1955.042757409138
 10
1230.7380586136
 20
1955.042757409138
 10
1229.446429487617
 20
1955.042757409138
 10
1228.220922449167
 20
1955.042757409138
 10
1227.063498048085
 20
1955.042757409138
 10
1225.976007916508
 20
1955.042757409138
 10
1224.960191806661
 20
1955.042757409138
 10
1224.017674807624
 20
1955.042757409138
 10
1223.149964745535
 20
1955.042757409138
 10
1222.358449771393
 20
1955.042757409138
 10
1221.644396140309
 20
1955.042757409138
 10
1221.008946185769
 20
1955.042757409138
 10
1220.453116492145
 20
1955.042757409138
 10
1219.977796268375
 20
1955.042757409138
 10
1219.583745925423
 20
1955.042757409138
 10
1219.271595859775
 20
1955.042757409138
 10
1219.041845444951
 20
1955.042757409138
 10
1218.894862232603
 20
1955.042757409138
 10
1218.830881364514
 20
1955.042757409138
 10
1218.827853707667
 20
1955.042757409138
1001
REVIT
1002
{
1070
     3
1000
973634
1002
}
  0
LWPOLYLINE
  5
246
330
243
100
AcDbEntity
  8
M-PIPE
370
    18
100
AcDbPolyline
 90
        3
 70
   128
 43
0.0
 10
1218.827853707667
 20
1955.042757409138
 10
1218.86940847947
 20
1955.042757409138
 10
1218.926703323014
 20
1955.042757409138
1001
REVIT
1002
{
1070
     3
1000
973634
1002
}
  0
LWPOLYLINE
  5
247
330
243
100
AcDbEntity
  8
M-PIPE
370
    18
100
AcDbPolyline
 90
       14
 70
   128
 43
0.0
 10
1233.986379068782
 20
1887.564448740612
 10
1231.354418497961
 20
1892.36020042507
 10
1228.916342131655
 20
1897.257366370531
 10
1226.676050371956
 20
1902.248112156159
 10
1224.637127207774
 20
1907.324453653329
 10
1222.802834481226
 20
1912.478269798543
 10
1221.176106669379
 20
1917.701315585389
 10
1219.759546189715
 20
1922.9852352548
 10
1218.555419236819
 20
1928.321575662481
 10
1217.565652156949
 20
1933.701799802136
 10
1216.791828366292
 20
1939.117300462865
 10
1216.23518581784
 20
1944.559413998853
 10
1215.896615020929
 20
1950.019434189366
 10
1215.829007555401
 20
1951.959560323618
1001
REVIT
1002
{
1070
     3
1000
973634
1002
}
  0
LWPOLYLINE
  5
248
330
243
100
AcDbEntity
  8
M-PIPE
370
    18
100
AcDbPolyline
 90
       28
 70
   128
 43
0.0
 10
1246.989259498065
 20
1880.042757409138
 10
1246.389419485266
 20
1880.054755809223
 10
1245.790539088528
 20
1880.090731814599
 10
1245.193576388732
 20
1880.15062787133
 10
1244.599486398852
 20
1880.234348158504
 10
1244.009219536139
 20
1880.34175874152
 10
1243.423720101658
 20
1880.472687786358
 10
1242.843924769603
 20
1880.626925834476
 10
1242.270761088824
 20
1880.804226137902
 10
1241.705145998939
 20
1881.004305053969
 10
1241.147984363436
 20
1881.226842499095
 10
1240.600167522075
 20
1881.471482460838
 10
1240.062571864943
 20
1881.737833567449
 10
1239.536057430409
 20
1882.025469713973
 10
1239.021466529252
 20
1882.333930743937
 10
1238.51962239714
 20
1882.662723185493
 10
1238.031327877629
 20
1883.011321040874
 10
1237.557364137788
 20
1883.379166627874
 10
1237.098489418493
 20
1883.765671472025
 10
1236.655437821407
 20
1884.170217248025
 10
1236.228918134573
 20
1884.592156768931
 10
1235.819612698503
 20
1885.030815021519
 10
1235.428176314581
 20
1885.48549024616
 10
1235.05523519752
 20
1885.955455059486
 10
1234.701385973551
 20
1886.439957618051
 10
1234.367194725947
 20
1886.938222821116
 10
1234.053196089415
 20
1887.449453550647
 10
1233.986379068782
 20
1887.564448740612
1001
REVIT
1002
{
1070
     3
1000
973634
1002
}
  0
LWPOLYLINE
  5
249
330
243
100
AcDbEntity
  8
M-PIPE
370
    18
100
AcDbPolyline
 90
       27
 70
   128
 43
0.0
 10
1257.778244810748
 20
1880.042757409138
 10
1257.345973304242
 20
1880.042757409138
 10
1256.571571227382
 20
1880.042757409138
 10
1255.81989679766
 20
1880.042757409138
 10
1255.092152533815
 20
1880.042757409138
 10
1254.389502671425
 20
1880.042757409138
 10
1253.713071300379
 20
1880.042757409138
 10
1253.063940566574
 20
1880.042757409138
 10
1252.44314894071
 20
1880.042757409138
 10
1251.851689556959
 20
1880.042757409138
 10
1251.290508624164
 20
1880.042757409138
 10
1250.760503912106
 20
1880.042757409138
 10
1250.262523315262
 20
1880.042757409138
 10
1249.797363496358
 20
1880.042757409138
 10
1249.365768611873
 20
1880.042757409138
 10
1248.968429121556
 20
1880.042757409138
 10
1248.605980683828
 20
1880.042757409138
 10
1248.279003138873
 20
1880.042757409138
 10
1247.988019581011
 20
1880.042757409138
 10
1247.733495521861
 20
1880.042757409138
 10
1247.515838145622
 20
1880.042757409138
 10
1247.335395657666
 20
1880.042757409138
 10
1247.19245672748
 20
1880.042757409138
 10
1247.08725002686
 20
1880.042757409138
 10
1247.019943864086
 20
1880.042757409138
 10
1246.990645914659
 20
1880.042757409138
 10
1246.989259498065
 20
1880.042757409138
1001
REVIT
1002
{
1070
     3
1000
973634
1002
}
  0
LWPOLYLINE
  5
24A
330
243
100
AcDbEntity
  8
M-PIPE
370
    18
100
AcDbPolyline
 90
       41
 70
   128
 43
0.0
 10
1246.989259498065
 20
1880.042757409138
 10
1247.008288148959
 20
1880.042757409138
 10
1247.065343659858
 20
1880.042757409138
 10
1247.160334754116
 20
1880.042757409138
 10
1247.293109466246
 20
1880.042757409138
 10
1247.463455385032
 20
1880.042757409138
 10
1247.671099993343
 20
1880.042757409138
 10
1247.9157111041
 20
1880.042757409138
 10
1248.196897391707
 20
1880.042757409138
 10
1248.514209018088
 20
1880.042757409138
 10
1248.867138352329
 20
1880.042757409138
 10
1249.255120782784
 20
1880.042757409138
 10
1249.677535620329
 20
1880.042757409138
 10
1250.133707091334
 20
1880.042757409138
 10
1250.622905418756
 20
1880.042757409138
 10
1251.14434798963
 20
1880.042757409138
 10
1251.697200607076
 20
1880.042757409138
 10
1252.280578824842
 20
1880.042757409138
 10
1252.893549362227
 20
1880.042757409138
 10
1253.535131597132
 20
1880.042757409138
 10
1254.204299134844
 20
1880.042757409138
 10
1254.899981450052
 20
1880.042757409138
 10
1255.621065599453
 20
1880.042757409138
 10
1256.366398002234
 20
1880.042757409138
 10
1257.134786285545
 20
1880.042757409138
 10
1257.925001192048
 20
1880.042757409138
 10
1258.735778546461
 20
1880.042757409138
 10
1259.565821277975
 20
1880.042757409138
 10
1260.413801495285
 20
1880.042757409138
 10
1261.278362610936
 20
1880.042757409138
 10
1262.158121511573
 20
1880.042757409138
 10
1263.051670770628
 20
1880.042757409138
 10
1263.957580899899
 20
1880.042757409138
 10
1264.87440263643
 20
1880.042757409138
 10
1265.800669261021
 20
1880.042757409138
 10
1266.734898944665
 20
1880.042757409138
 10
1267.675597119161
 20
1880.042757409138
 10
1268.6212588681
 20
1880.042757409138
 10
1269.570371334415
 20
1880.042757409138
 10
1270.521416140627
 20
1880.042757409138
 10
1270.77824481076
 20
1880.042757409138
1001
REVIT
1002
{
1070
     3
1000
973634
1002
}
  0
LINE
  5
24B
330
243
100
AcDbEntity
  8
M-PIPE
370
    18
100
AcDbLine
 10
1270.778244810758
 20
1951.959560323617
 30
0.0
 11
1270.778244810758
 21
1955.042757409137
 31
0.0
1001
REVIT
1002
{
1070
     3
1000
973634
1002
}
  0
LINE
  5
24C
330
243
100
AcDbEntity
  8
M-PIPE
370
    18
100
AcDbLine
 10
1270.778244810758
 20
1887.56444874061
 30
0.0
 11
1270.778244810758
 21
1951.959560323617
 31
0.0
1001
REVIT
1002
{
1070
     3
1000
973634
1002
}
  0
LINE
  5
24D
330
243
100
AcDbEntity
  8
M-PIPE
370
    18
100
AcDbLine
 10
1270.778244810758
 20
1880.042757409137
 30
0.0
 11
1270.778244810758
 21
1887.564448740611
 31
0.0
1001
REVIT
1002
{
1070
     3
1000
973634
1002
}
  0
LINE
  5
24E
330
243
100
AcDbEntity
  8
M-PIPE
370
    18
100
AcDbLine
 10
1270.778244810758
 20
1976.829475079366
 30
0.0
 11
1270.778244810758
 21
1999.98255885001
 31
0.0
1001
REVIT
1002
{
1070
     3
1000
973634
1002
}
  0
LINE
  5
24F
330
243
100
AcDbEntity
  8
M-PIPE
370
    18
100
AcDbLine
 10
1270.778244810758
 20
1999.98255885001
 30
0.0
 11
1270.778244810758
 21
2023.135642620655
 31
0.0
1001
REVIT
1002
{
1070
     3
1000
973634
1002
}
  0
ARC
  5
250
330
243
100
AcDbEntity
  8
M-PIPE
370
    18
100
AcDbCircle
 10
1270.778244810758
 20
1999.982558850011
 30
0.0
 40
23.15308377064434
100
AcDbArc
 50
90.0
 51
269.9999999999991
1001
REVIT
1002
{
1070
     3
1000
973634
1002
}
  0
LWPOLYLINE
  5
251
330
243
100
AcDbEntity
  8
M-PIPE
370
    18
100
AcDbPolyline
 90
       41
 70
   128
 43
0.0
 10
1243.778791373078
 20
2057.612321675018
 10
1243.781191053095
 20
2057.732289677578
 10
1243.78838625417
 20
2057.852065756925
 10
1243.800365465516
 20
2057.971458296885
 10
1243.817109522951
 20
2058.09027629486
 10
1243.838591639554
 20
2058.208329667403
 10
1243.864777448522
 20
2058.325429554299
 10
1243.895625058145
 20
2058.44138862071
 10
1243.93108511883
 20
2058.556021356866
 10
1243.971100902044
 20
2058.669144374843
 10
1244.015608391069
 20
2058.780576701944
 10
1244.064536383418
 20
2058.890140070216
 10
1244.11780660474
 20
2058.997659201642
 10
1244.175333834045
 20
2059.102962088549
 10
1244.237026040037
 20
2059.20588026878
 10
1244.302784528348
 20
2059.306249095203
 10
1244.372504099425
 20
2059.403907999105
 10
1244.446073216825
 20
2059.498700747073
 10
1244.523374185655
 20
2059.590475690932
 10
1244.604283340855
 20
2059.679086010349
 10
1244.688671245036
 20
2059.764389947716
 10
1244.776402895554
 20
2059.84625103493
 10
1244.867337940482
 20
2059.924538311715
 10
1244.961330903147
 20
2059.999126535127
 10
1245.05823141486
 20
2060.069896379921
 10
1245.157884455473
 20
2060.136734629441
 10
1245.260130601379
 20
2060.199534356748
 10
1245.364806280556
 20
2060.258195095673
 10
1245.471744034247
 20
2060.312623001547
 10
1245.580772784859
 20
2060.362731001333
 10
1245.691718109648
 20
2060.40843893292
 10
1245.804402519761
 20
2060.449673673366
 10
1245.918645744182
 20
2060.486369255885
 10
1246.034265018121
 20
2060.518466975373
 10
1246.151075375404
 20
2060.545915482324
 10
1246.268889944377
 20
2060.568670864983
 10
1246.387520246863
 20
2060.586696719593
 10
1246.506776499685
 20
2060.599964208631
 10
1246.626467918277
 20
2060.608452106945
 10
1246.746403021903
 20
2060.612146835708
 10
1246.778791373077
 20
2060.612321675018
1001
REVIT
1002
{
1070
     3
1000
973634
1002
}
  0
LWPOLYLINE
  5
252
330
243
100
AcDbEntity
  8
M-PIPE
370
    18
100
AcDbPolyline
 90
       41
 70
   128
 43
0.0
 10
1270.77824481076
 20
2060.612321675018
 10
1269.818522646944
 20
2060.612321675018
 10
1268.86033583386
 20
2060.612321675018
 10
1267.905217266007
 20
2060.612321675018
 10
1266.954694929346
 20
2060.612321675018
 10
1266.010289456848
 20
2060.612321675018
 10
1265.073511695807
 20
2060.612321675018
 10
1264.145860290805
 20
2060.612321675018
 10
1263.228819286202
 20
2060.612321675018
 10
1262.323855751979
 20
2060.612321675018
 10
1261.432417436744
 20
2060.612321675018
 10
1260.555930451637
 20
2060.612321675018
 10
1259.695796988861
 20
2060.612321675018
 10
1258.85339307847
 20
2060.612321675018
 10
1258.030066387018
 20
2060.612321675018
 10
1257.227134061578
 20
2060.612321675018
 10
1256.445880622587
 20
2060.612321675018
 10
1255.687555908889
 20
2060.612321675018
 10
1254.953373078259
 20
2060.612321675018
 10
1254.244506666608
 20
2060.612321675018
 10
1253.562090708979
 20
2060.612321675018
 10
1252.907216925329
 20
2060.612321675018
 10
1252.280932974012
 20
2060.612321675018
 10
1251.684240775752
 20
2060.612321675018
 10
1251.118094910778
 20
2060.612321675018
 10
1250.583401091702
 20
2060.612321675018
 10
1250.081014714573
 20
2060.612321675018
 10
1249.611739490424
 20
2060.612321675018
 10
1249.176326159508
 20
2060.612321675018
 10
1248.775471290269
 20
2060.612321675018
 10
1248.409816164989
 20
2060.612321675018
 10
1248.079945753866
 20
2060.612321675018
 10
1247.786387779187
 20
2060.612321675018
 10
1247.529611871092
 20
2060.612321675018
 10
1247.310028816256
 20
2060.612321675018
 10
1247.127989900725
 20
2060.612321675018
 10
1246.983786347932
 20
2060.612321675018
 10
1246.877648852799
 20
2060.612321675018
 10
1246.809747212677
 20
2060.612321675018
 10
1246.780190055705
 20
2060.612321675018
 10
1246.778791373077
 20
2060.612321675018
1001
REVIT
1002
{
1070
     3
1000
973634
1002
}
  0
LWPOLYLINE
  5
253
330
243
100
AcDbEntity
  8
M-PIPE
370
    18
100
AcDbPolyline
 90
       41
 70
   128
 43
0.0
 10
1246.778791373077
 20
2060.612321675018
 10
1246.797988376022
 20
2060.612321675018
 10
1246.855548673748
 20
2060.612321675018
 10
1246.951380182056
 20
2060.612321675018
 10
1247.085329590977
 20
2060.612321675018
 10
1247.25718261003
 20
2060.612321675018
 10
1247.466664311046
 20
2060.612321675018
 10
1247.713439567989
 20
2060.612321675018
 10
1247.997113593092
 20
2060.612321675018
 10
1248.317232568427
 20
2060.612321675018
 10
1248.673284371922
 20
2060.612321675018
 10
1249.064699396647
 20
2060.612321675018
 10
1249.490851462058
 20
2060.612321675018
 10
1249.951058815758
 20
2060.612321675018
 10
1250.444585224155
 20
2060.612321675018
 10
1250.970641150274
 20
2060.612321675018
 10
1251.528385016853
 20
2060.612321675018
 10
1252.116924552685
 20
2060.612321675018
 10
1252.73531822006
 20
2060.612321675018
 10
1253.382576721028
 20
2060.612321675018
 10
1254.057664580062
 20
2060.612321675018
 10
1254.759501800598
 20
2060.612321675018
 10
1255.4869655928
 20
2060.612321675018
 10
1256.238892169786
 20
2060.612321675018
 10
1257.014078609434
 20
2060.612321675018
 10
1257.811284778805
 20
2060.612321675018
 10
1258.62923531809
 20
2060.612321675018
 10
1259.466621680913
 20
2060.612321675018
 10
1260.322104227727
 20
2060.612321675018
 10
1261.194314368948
 20
2060.612321675018
 10
1262.081856754414
 20
2060.612321675018
 10
1262.983311505639
 20
2060.612321675018
 10
1263.897236487322
 20
2060.612321675018
 10
1264.822169614453
 20
2060.612321675018
 10
1265.756631191336
 20
2060.612321675018
 10
1266.69912627879
 20
2060.612321675018
 10
1267.648147085729
 20
2060.612321675018
 10
1268.60217538131
 20
2060.612321675018
 10
1269.559684923774
 20
2060.612321675018
 10
1270.519143902112
 20
2060.612321675018
 10
1270.77824481076
 20
2060.612321675018
1001
REVIT
1002
{
1070
     3
1000
973634
1002
}
  0
LINE
  5
254
330
243
100
AcDbEntity
  8
M-PIPE
370
    18
100
AcDbLine
 10
1243.778791373078
 20
2057.612321675018
 30
0.0
 11
1243.778791373078
 21
2051.635838636035
 31
0.0
1001
REVIT
1002
{
1070
     3
1000
973634
1002
}
  0
LWPOLYLINE
  5
255
330
243
100
AcDbEntity
  8
M-PIPE
370
    18
100
AcDbPolyline
 90
       38
 70
   128
 43
0.0
 10
1241.145397241514
 20
2048.658322869959
 10
1241.264172868937
 20
2048.675364889575
 10
1241.382171989509
 20
2048.697143035651
 10
1241.49920582981
 20
2048.7236224678
 10
1241.61508716066
 20
2048.754760824577
 10
1241.72963059665
 20
2048.790508291256
 10
1241.842652892718
 20
2048.830807679516
 10
1241.953973237298
 20
2048.875594518931
 10
1242.063413541589
 20
2048.924797160113
 10
1242.170798724447
 20
2048.978336889331
 10
1242.275956992489
 20
2049.036128054441
 10
1242.378720114919
 20
2049.098078201906
 10
1242.478923692661
 20
2049.164088224705
 10
1242.576407421368
 20
2049.234052520885
 10
1242.671015347869
 20
2049.307859162494
 10
1242.762596119662
 20
2049.385390074652
 10
1242.85100322705
 20
2049.466521224438
 10
1242.936095237521
 20
2049.551122819321
 10
1243.017736022008
 20
2049.639059514793
 10
1243.095794972673
 20
2049.730190630903
 10
1243.170147211847
 20
2049.824370377305
 10
1243.240673791807
 20
2049.921448086495
 10
1243.30726188507
 20
2050.021268454846
 10
1243.369804964893
 20
2050.123671791065
 10
1243.428202975689
 20
2050.228494271657
 10
1243.482362493099
 20
2050.335568203015
 10
1243.532196873447
 20
2050.444722289689
 10
1243.577626392357
 20
2050.555781908426
 10
1243.618578372289
 20
2050.668569387527
 10
1243.654987298811
 20
2050.782904291087
 10
1243.686794925408
 20
2050.898603707648
 10
1243.713950366662
 20
2051.015482542826
 10
1243.73641017966
 20
2051.133353815419
 10
1243.754138433493
 20
2051.252028956533
 10
1243.767106766735
 20
2051.371318111259
 10
1243.775294432821
 20
2051.491030442397
 10
1243.778688333232
 20
2051.610974435754
 10
1243.778791373078
 20
2051.635838636035
1001
REVIT
1002
{
1070
     3
1000
973634
1002
}
  0
LINE
  5
256
330
243
100
AcDbEntity
  8
M-PIPE
370
    18
100
AcDbLine
 10
1241.145397241514
 20
2048.658322869959
 30
0.0
 11
1228.94521546858
 21
2047.156178604293
 31
0.0
1001
REVIT
1002
{
1070
     3
1000
973634
1002
}
  0
LWPOLYLINE
  5
257
330
243
100
AcDbEntity
  8
M-PIPE
370
    18
100
AcDbPolyline
 90
       38
 70
   128
 43
0.0
 10
1215.77824481076
 20
2032.268599773916
 10
1215.790243210845
 20
2032.868439786715
 10
1215.826219216221
 20
2033.467320183453
 10
1215.886115272952
 20
2034.064282883249
 10
1215.969835560125
 20
2034.658372873129
 10
1216.077246143141
 20
2035.248639735841
 10
1216.208175187979
 20
2035.834139170322
 10
1216.362413236098
 20
2036.413934502377
 10
1216.539713539523
 20
2036.987098183157
 10
1216.739792455591
 20
2037.552713273042
 10
1216.962329900717
 20
2038.109874908545
 10
1217.206969862461
 20
2038.657691749905
 10
1217.473320969071
 20
2039.195287407038
 10
1217.760957115595
 20
2039.721801841571
 10
1218.069418145559
 20
2040.236392742729
 10
1218.398210587115
 20
2040.738236874841
 10
1218.746808442495
 20
2041.226531394351
 10
1219.114654029496
 20
2041.700495134192
 10
1219.501158873647
 20
2042.159369853488
 10
1219.905704649646
 20
2042.602421450574
 10
1220.327644170553
 20
2043.028941137408
 10
1220.76630242314
 20
2043.438246573478
 10
1221.220977647781
 20
2043.8296829574
 10
1221.690942461108
 20
2044.202624074461
 10
1222.175445019673
 20
2044.55647329843
 10
1222.673710222738
 20
2044.890664546034
 10
1223.184940952269
 20
2045.204663182565
 10
1223.708319348154
 20
2045.497966877189
 10
1224.243008116609
 20
2045.770106406563
 10
1224.788151869666
 20
2046.020646405492
 10
1225.34287849361
 20
2046.249186063424
 10
1225.906300544178
 20
2046.455359765658
 10
1226.477516666281
 20
2046.638837678254
 10
1227.055613035975
 20
2046.799326275689
 10
1227.639664822389
 20
2046.936568810445
 10
1228.228737667256
 20
2047.050345723742
 10
1228.821889179688
 20
2047.14047499679
 10
1228.945215468581
 20
2047.156178604293
1001
REVIT
1002
{
1070
     3
1000
973634
1002
}
  0
LINE
  5
258
330
243
100
AcDbEntity
  8
M-PIPE
370
    18
100
AcDbLine
 10
1215.77824481076
 20
2032.268599773915
 30
0.0
 11
1215.77824481076
 21
2021.885642620656
 31
0.0
1001
REVIT
1002
{
1070
     3
1000
973634
1002
}
  0
LINE
  5
259
330
243
100
AcDbEntity
  8
M-PIPE
370
    18
100
AcDbLine
 10
1215.77824481076
 20
2021.885642620656
 30
0.0
 11
1215.77824481076
 21
1958.042757409138
 31
0.0
1001
REVIT
1002
{
1070
     3
1000
973634
1002
}
  0
LWPOLYLINE
  5
25A
330
243
100
AcDbEntity
  8
M-PIPE
370
    18
100
AcDbPolyline
 90
       41
 70
   128
 43
0.0
 10
1218.77824481076
 20
1955.042757409138
 10
1218.6582768082
 20
1955.045157089156
 10
1218.538500728852
 20
1955.05235229023
 10
1218.419108188893
 20
1955.064331501577
 10
1218.300290190917
 20
1955.081075559011
 10
1218.182236818374
 20
1955.102557675614
 10
1218.065136931478
 20
1955.128743484582
 10
1217.949177865067
 20
1955.159591094206
 10
1217.834545128911
 20
1955.195051154891
 10
1217.721422110934
 20
1955.235066938104
 10
1217.609989783834
 20
1955.27957442713
 10
1217.500426415561
 20
1955.328502419478
 10
1217.392907284135
 20
1955.3817726408
 10
1217.287604397228
 20
1955.439299870105
 10
1217.184686216997
 20
1955.500992076098
 10
1217.084317390575
 20
1955.566750564409
 10
1216.986658486672
 20
1955.636470135485
 10
1216.891865738704
 20
1955.710039252885
 10
1216.800090794845
 20
1955.787340221715
 10
1216.711480475428
 20
1955.868249376915
 10
1216.626176538061
 20
1955.952637281097
 10
1216.544315450847
 20
1956.040368931614
 10
1216.466028174063
 20
1956.131303976542
 10
1216.391439950651
 20
1956.225296939208
 10
1216.320670105857
 20
1956.322197450921
 10
1216.253831856336
 20
1956.421850491534
 10
1216.19103212903
 20
1956.52409663744
 10
1216.132371390105
 20
1956.628772316617
 10
1216.07794348423
 20
1956.735710070308
 10
1216.027835484444
 20
1956.844738820919
 10
1215.982127552858
 20
1956.955684145708
 10
1215.940892812411
 20
1957.068368555822
 10
1215.904197229892
 20
1957.182611780243
 10
1215.872099510405
 20
1957.298231054181
 10
1215.844651003454
 20
1957.415041411464
 10
1215.821895620794
 20
1957.532855980437
 10
1215.803869766185
 20
1957.651486282924
 10
1215.790602277147
 20
1957.770742535745
 10
1215.782114378833
 20
1957.890433954337
 10
1215.77841965007
 20
1958.010369057964
 10
1215.77824481076
 20
1958.042757409138
1001
REVIT
1002
{
1070
     3
1000
973634
1002
}
  0
LWPOLYLINE
  5
25B
330
243
100
AcDbEntity
  8
M-PIPE
370
    18
100
AcDbPolyline
 90
        4
 70
   128
 43
0.0
 10
1218.918063190822
 20
1955.042757409138
 10
1218.845317324029
 20
1955.042757409138
 10
1218.781275358801
 20
1955.042757409138
 10
1218.77824481076
 20
1955.042757409138
1001
REVIT
1002
{
1070
     3
1000
973634
1002
}
  0
LWPOLYLINE
  5
25C
330
243
100
AcDbEntity
  8
M-PIPE
370
    18
100
AcDbPolyline
 90
       41
 70
   128
 43
0.0
 10
1218.77824481076
 20
1955.042757409138
 10
1218.819839264389
 20
1955.042757409138
 10
1218.944556083023
 20
1955.042757409138
 10
1219.152195746359
 20
1955.042757409138
 10
1219.442426075227
 20
1955.042757409138
 10
1219.814782763015
 20
1955.042757409138
 10
1220.268670118454
 20
1955.042757409138
 10
1220.8033620186
 20
1955.042757409138
 10
1221.418003070473
 20
1955.042757409138
 10
1222.111609979507
 20
1955.042757409138
 10
1222.88307312261
 20
1955.042757409138
 10
1223.731158323322
 20
1955.042757409138
 10
1224.654508826237
 20
1955.042757409138
 10
1225.651647467522
 20
1955.042757409138
 10
1226.720979038062
 20
1955.042757409138
 10
1227.860792835457
 20
1955.042757409138
 10
1229.069265400777
 20
1955.042757409138
 10
1230.344463435711
 20
1955.042757409138
 10
1231.684346895433
 20
1955.042757409138
 10
1233.086772252233
 20
1955.042757409138
 10
1234.549495924707
 20
1955.042757409138
 10
1236.070177867012
 20
1955.042757409138
 10
1237.646385312433
 20
1955.042757409138
 10
1239.2755966653
 20
1955.042757409138
 10
1240.955205534992
 20
1955.042757409138
 10
1242.682524905617
 20
1955.042757409138
 10
1244.454791434655
 20
1955.042757409138
 10
1246.269169873725
 20
1955.042757409138
 10
1248.122757604371
 20
1955.042757409138
 10
1250.012589281634
 20
1955.042757409138
 10
1251.935641577973
 20
1955.042757409138
 10
1253.888838019944
 20
1955.042757409138
 10
1255.869053909898
 20
1955.042757409138
 10
1257.873121324836
 20
1955.042757409138
 10
1259.897834184406
 20
1955.042757409138
 10
1261.939953379947
 20
1955.042757409138
 10
1263.996211956376
 20
1955.042757409138
 10
1266.063320338616
 20
1955.042757409138
 10
1268.137971594214
 20
1955.042757409138
 10
1270.21684672373
 20
1955.042757409138
 10
1270.77824481076
 20
1955.042757409138
1001
REVIT
1002
{
1070
     3
1000
973634
1002
}
  0
LINE
  5
25D
330
243
100
AcDbEntity
  8
M-PIPE
370
    18
100
AcDbLine
 10
1270.778244810758
 20
2057.612321675017
 30
0.0
 11
1270.778244810758
 21
2060.612321675017
 31
0.0
1001
REVIT
1002
{
1070
     3
1000
973634
1002
}
  0
LINE
  5
25E
330
243
100
AcDbEntity
  8
M-PIPE
370
    18
100
AcDbLine
 10
1270.778244810758
 20
2051.635838636034
 30
0.0
 11
1270.778244810758
 21
2057.612321675017
 31
0.0
1001
REVIT
1002
{
1070
     3
1000
973634
1002
}
  0
LINE
  5
25F
330
243
100
AcDbEntity
  8
M-PIPE
370
    18
100
AcDbLine
 10
1270.778244810758
 20
2048.658322869958
 30
0.0
 11
1270.778244810758
 21
2051.635838636034
 31
0.0
1001
REVIT
1002
{
1070
     3
1000
973634
1002
}
  0
LINE
  5
260
330
243
100
AcDbEntity
  8
M-PIPE
370
    18
100
AcDbLine
 10
1270.778244810758
 20
2047.156178604292
 30
0.0
 11
1270.778244810758
 21
2048.658322869958
 31
0.0
1001
REVIT
1002
{
1070
     3
1000
973634
1002
}
  0
LINE
  5
261
330
243
100
AcDbEntity
  8
M-PIPE
370
    18
100
AcDbLine
 10
1270.778244810758
 20
2032.268599773914
 30
0.0
 11
1270.778244810758
 21
2047.156178604292
 31
0.0
1001
REVIT
1002
{
1070
     3
1000
973634
1002
}
  0
LINE
  5
262
330
243
100
AcDbEntity
  8
M-PIPE
370
    18
100
AcDbLine
 10
1270.778244810758
 20
2021.885642620655
 30
0.0
 11
1270.778244810758
 21
2032.268599773914
 31
0.0
1001
REVIT
1002
{
1070
     3
1000
973634
1002
}
  0
LINE
  5
263
330
243
100
AcDbEntity
  8
M-PIPE
370
    18
100
AcDbLine
 10
1270.778244810758
 20
1958.042757409137
 30
0.0
 11
1270.778244810758
 21
2021.885642620655
 31
0.0
1001
REVIT
1002
{
1070
     3
1000
973634
1002
}
  0
LINE
  5
264
330
243
100
AcDbEntity
  8
M-PIPE
370
    18
100
AcDbLine
 10
1270.778244810758
 20
1955.042757409137
 30
0.0
 11
1270.778244810758
 21
1958.042757409137
 31
0.0
1001
REVIT
1002
{
1070
     3
1000
973634
1002
}
  0
LINE
  5
265
330
243
100
AcDbEntity
  8
M-PIPE
370
    18
100
AcDbLine
 10
1307.27824481076
 20
1907.447973850848
 30
0.0
 11
1307.27824481076
 21
1934.447973850848
 31
0.0
1001
REVIT
1002
{
1070
     3
1000
790271
1002
}
  0
LINE
  5
266
330
243
100
AcDbEntity
  8
M-PIPE
370
    18
100
AcDbLine
 10
1270.777869727292
 20
1934.447973850847
 30
0.0
 11
1307.278244810758
 21
1934.447973850847
 31
0.0
1001
REVIT
1002
{
1070
     3
1000
790271
1002
}
  0
LINE
  5
267
330
243
100
AcDbEntity
  8
M-PIPE
370
    18
100
AcDbLine
 10
1307.278244810758
 20
1907.447973850847
 30
0.0
 11
1270.777869727292
 21
1907.447973850847
 31
0.0
1001
REVIT
1002
{
1070
     3
1000
790271
1002
}
  0
LINE
  5
268
330
243
100
AcDbEntity
  8
M-PIPE
370
    18
100
AcDbLine
 10
1260.128244810812
 20
1868.482558850011
 30
0.0
 11
1260.128244810812
 21
1867.512558849982
 31
0.0
1001
REVIT
1002
{
1070
     3
1000
790271
1002
}
  0
LINE
  5
269
330
243
100
AcDbEntity
  8
M-PIPE
370
    18
100
AcDbLine
 10
1281.428244810707
 20
1867.512558849982
 30
0.0
 11
1281.428244810707
 21
1868.482558850011
 31
0.0
1001
REVIT
1002
{
1070
     3
1000
790271
1002
}
  0
LINE
  5
26A
330
243
100
AcDbEntity
  8
M-PIPE
370
    18
100
AcDbLine
 10
1259.28328091816
 20
1867.512558849982
 30
0.0
 11
1259.28328091816
 21
1863.312558849997
 31
0.0
1001
REVIT
1002
{
1070
     3
1000
790271
1002
}
  0
LINE
  5
26B
330
243
100
AcDbEntity
  8
M-PIPE
370
    18
100
AcDbLine
 10
1282.27320870336
 20
1863.312558849997
 30
0.0
 11
1282.27320870336
 21
1867.512558849982
 31
0.0
1001
REVIT
1002
{
1070
     3
1000
790271
1002
}
  0
LINE
  5
26C
330
243
100
AcDbEntity
  8
M-PIPE
370
    18
100
AcDbLine
 10
1256.138823392951
 20
1863.312558849997
 30
0.0
 11
1256.138823392951
 21
1849.793137432194
 31
0.0
1001
REVIT
1002
{
1070
     3
1000
790271
1002
}
  0
LINE
  5
26D
330
243
100
AcDbEntity
  8
M-PIPE
370
    18
100
AcDbLine
 10
1285.417666228569
 20
1849.793137432194
 30
0.0
 11
1285.417666228569
 21
1863.312558849997
 31
0.0
1001
REVIT
1002
{
1070
     3
1000
790271
1002
}
  0
LINE
  5
26E
330
243
100
AcDbEntity
  8
M-PIPE
370
    18
100
AcDbLine
 10
1255.358244810753
 20
1849.793137432194
 30
0.0
 11
1255.358244810753
 21
1839.512558849997
 31
0.0
1001
REVIT
1002
{
1070
     3
1000
790271
1002
}
  0
LINE
  5
26F
330
243
100
AcDbEntity
  8
M-PIPE
370
    18
100
AcDbLine
 10
1286.198244810767
 20
1839.512558849997
 30
0.0
 11
1286.198244810767
 21
1849.793137432194
 31
0.0
1001
REVIT
1002
{
1070
     3
1000
790271
1002
}
  0
LINE
  5
270
330
243
100
AcDbEntity
  8
M-PIPE
370
    18
100
AcDbLine
 10
1256.278244810754
 20
1839.512558849997
 30
0.0
 11
1256.278244810754
 21
1838.012558849981
 31
0.0
1001
REVIT
1002
{
1070
     3
1000
790271
1002
}
  0
LINE
  5
271
330
243
100
AcDbEntity
  8
M-PIPE
370
    18
100
AcDbLine
 10
1285.278244810766
 20
1838.012558849981
 30
0.0
 11
1285.278244810766
 21
1839.512558849997
 31
0.0
1001
REVIT
1002
{
1070
     3
1000
790271
1002
}
  0
LINE
  5
272
330
243
100
AcDbEntity
  8
M-PIPE
370
    18
100
AcDbLine
 10
1259.028244810753
 20
1838.012558849981
 30
0.0
 11
1259.028244810753
 21
1835.012558849981
 31
0.0
1001
REVIT
1002
{
1070
     3
1000
790271
1002
}
  0
LINE
  5
273
330
243
100
AcDbEntity
  8
M-PIPE
370
    18
100
AcDbLine
 10
1282.528244810767
 20
1835.012558849981
 30
0.0
 11
1282.528244810767
 21
1838.012558849981
 31
0.0
1001
REVIT
1002
{
1070
     3
1000
790271
1002
}
  0
LINE
  5
274
330
243
100
AcDbEntity
  8
M-PIPE
370
    18
100
AcDbLine
 10
1257.328244810753
 20
1835.012558849981
 30
0.0
 11
1257.328244810753
 21
1833.012558850009
 31
0.0
1001
REVIT
1002
{
1070
     3
1000
790271
1002
}
  0
LINE
  5
275
330
243
100
AcDbEntity
  8
M-PIPE
370
    18
100
AcDbLine
 10
1284.228244810767
 20
1833.012558850009
 30
0.0
 11
1284.228244810767
 21
1835.012558849981
 31
0.0
1001
REVIT
1002
{
1070
     3
1000
790271
1002
}
  0
LINE
  5
276
330
243
100
AcDbEntity
  8
M-PIPE
370
    18
100
AcDbLine
 10
1255.978244810766
 20
1833.012558850009
 30
0.0
 11
1255.978244810766
 21
1824.012558850009
 31
0.0
1001
REVIT
1002
{
1070
     3
1000
790271
1002
}
  0
LINE
  5
277
330
243
100
AcDbEntity
  8
M-PIPE
370
    18
100
AcDbLine
 10
1285.578244810754
 20
1824.012558850009
 30
0.0
 11
1285.578244810754
 21
1833.012558850009
 31
0.0
1001
REVIT
1002
{
1070
     3
1000
790271
1002
}
  0
LINE
  5
278
330
243
100
AcDbEntity
  8
M-PIPE
370
    18
100
AcDbLine
 10
1263.278244810753
 20
1824.012558850009
 30
0.0
 11
1263.278244810753
 21
1802.012558850009
 31
0.0
1001
REVIT
1002
{
1070
     3
1000
790271
1002
}
  0
LINE
  5
279
330
243
100
AcDbEntity
  8
M-PIPE
370
    18
100
AcDbLine
 10
1278.278244810767
 20
1802.012558850009
 30
0.0
 11
1278.278244810767
 21
1824.012558850009
 31
0.0
1001
REVIT
1002
{
1070
     3
1000
790271
1002
}
  0
LINE
  5
27A
330
243
100
AcDbEntity
  8
M-PIPE
370
    18
100
AcDbLine
 10
1263.278244810753
 20
1802.012558850009
 30
0.0
 11
1263.326683041721
 21
1801.964120619041
 31
0.0
1001
REVIT
1002
{
1070
     3
1000
790271
1002
}
  0
LINE
  5
27B
330
243
100
AcDbEntity
  8
M-PIPE
370
    18
100
AcDbLine
 10
1263.34240835045
 20
1801.948395310312
 30
0.0
 11
1264.308244810751
 21
1800.982558850011
 31
0.0
1001
REVIT
1002
{
1070
     3
1000
790271
1002
}
  0
LINE
  5
27C
330
243
100
AcDbEntity
  8
M-PIPE
370
    18
100
AcDbLine
 10
1277.248244810769
 20
1800.982558850011
 30
0.0
 11
1278.21408127107
 21
1801.948395310312
 31
0.0
1001
REVIT
1002
{
1070
     3
1000
790271
1002
}
  0
LINE
  5
27D
330
243
100
AcDbEntity
  8
M-PIPE
370
    18
100
AcDbLine
 10
1278.229806579799
 20
1801.964120619042
 30
0.0
 11
1278.278244810767
 21
1802.012558850009
 31
0.0
1001
REVIT
1002
{
1070
     3
1000
790271
1002
}
  0
LINE
  5
27E
330
243
100
AcDbEntity
  8
M-PIPE
370
    18
100
AcDbLine
 10
1259.283280918158
 20
1867.512558849981
 30
0.0
 11
1270.778244810758
 21
1867.512558849981
 31
0.0
1001
REVIT
1002
{
1070
     3
1000
790271
1002
}
  0
LINE
  5
27F
330
243
100
AcDbEntity
  8
M-PIPE
370
    18
100
AcDbLine
 10
1270.778244810758
 20
1867.512558849981
 30
0.0
 11
1282.273208703358
 21
1867.512558849981
 31
0.0
1001
REVIT
1002
{
1070
     3
1000
790271
1002
}
  0
LINE
  5
280
330
243
100
AcDbEntity
  8
M-PIPE
370
    18
100
AcDbLine
 10
1256.138823392949
 20
1863.312558849996
 30
0.0
 11
1270.778244810758
 21
1863.312558849996
 31
0.0
1001
REVIT
1002
{
1070
     3
1000
790271
1002
}
  0
LINE
  5
281
330
243
100
AcDbEntity
  8
M-PIPE
370
    18
100
AcDbLine
 10
1270.778244810758
 20
1863.312558849996
 30
0.0
 11
1285.417666228567
 21
1863.312558849996
 31
0.0
1001
REVIT
1002
{
1070
     3
1000
790271
1002
}
  0
LINE
  5
282
330
243
100
AcDbEntity
  8
M-PIPE
370
    18
100
AcDbLine
 10
1255.359048801488
 20
1849.793137432193
 30
0.0
 11
1270.778244810758
 21
1849.793137432193
 31
0.0
1001
REVIT
1002
{
1070
     3
1000
790271
1002
}
  0
LINE
  5
283
330
243
100
AcDbEntity
  8
M-PIPE
370
    18
100
AcDbLine
 10
1270.778244810758
 20
1849.793137432193
 30
0.0
 11
1286.197440820027
 21
1849.793137432193
 31
0.0
1001
REVIT
1002
{
1070
     3
1000
790271
1002
}
  0
LINE
  5
284
330
243
100
AcDbEntity
  8
M-PIPE
370
    18
100
AcDbLine
 10
1255.358244810751
 20
1839.512558849996
 30
0.0
 11
1270.778244810758
 21
1839.512558849996
 31
0.0
1001
REVIT
1002
{
1070
     3
1000
790271
1002
}
  0
LINE
  5
285
330
243
100
AcDbEntity
  8
M-PIPE
370
    18
100
AcDbLine
 10
1270.778244810758
 20
1839.512558849996
 30
0.0
 11
1286.198244810764
 21
1839.512558849996
 31
0.0
1001
REVIT
1002
{
1070
     3
1000
790271
1002
}
  0
LINE
  5
286
330
243
100
AcDbEntity
  8
M-PIPE
370
    18
100
AcDbLine
 10
1256.278244810753
 20
1838.01255884998
 30
0.0
 11
1270.778244810758
 21
1838.01255884998
 31
0.0
1001
REVIT
1002
{
1070
     3
1000
790271
1002
}
  0
LINE
  5
287
330
243
100
AcDbEntity
  8
M-PIPE
370
    18
100
AcDbLine
 10
1270.778244810758
 20
1838.01255884998
 30
0.0
 11
1285.278244810763
 21
1838.01255884998
 31
0.0
1001
REVIT
1002
{
1070
     3
1000
790271
1002
}
  0
LINE
  5
288
330
243
100
AcDbEntity
  8
M-PIPE
370
    18
100
AcDbLine
 10
1257.328244810751
 20
1835.01255884998
 30
0.0
 11
1270.778244810758
 21
1835.01255884998
 31
0.0
1001
REVIT
1002
{
1070
     3
1000
790271
1002
}
  0
LINE
  5
289
330
243
100
AcDbEntity
  8
M-PIPE
370
    18
100
AcDbLine
 10
1270.778244810758
 20
1835.01255884998
 30
0.0
 11
1284.228244810764
 21
1835.01255884998
 31
0.0
1001
REVIT
1002
{
1070
     3
1000
790271
1002
}
  0
LINE
  5
28A
330
243
100
AcDbEntity
  8
M-PIPE
370
    18
100
AcDbLine
 10
1255.978244810764
 20
1833.012558850008
 30
0.0
 11
1270.778244810758
 21
1833.012558850008
 31
0.0
1001
REVIT
1002
{
1070
     3
1000
790271
1002
}
  0
LINE
  5
28B
330
243
100
AcDbEntity
  8
M-PIPE
370
    18
100
AcDbLine
 10
1270.778244810758
 20
1833.012558850008
 30
0.0
 11
1285.578244810752
 21
1833.012558850008
 31
0.0
1001
REVIT
1002
{
1070
     3
1000
790271
1002
}
  0
LINE
  5
28C
330
243
100
AcDbEntity
  8
M-PIPE
370
    18
100
AcDbLine
 10
1255.978244810764
 20
1824.012558850008
 30
0.0
 11
1270.778244810758
 21
1824.012558850008
 31
0.0
1001
REVIT
1002
{
1070
     3
1000
790271
1002
}
  0
LINE
  5
28D
330
243
100
AcDbEntity
  8
M-PIPE
370
    18
100
AcDbLine
 10
1270.778244810758
 20
1824.012558850008
 30
0.0
 11
1285.578244810752
 21
1824.012558850008
 31
0.0
1001
REVIT
1002
{
1070
     3
1000
790271
1002
}
  0
LINE
  5
28E
330
243
100
AcDbEntity
  8
M-PIPE
370
    18
100
AcDbLine
 10
1263.278244810751
 20
1802.012558850008
 30
0.0
 11
1270.778244810758
 21
1802.012558850008
 31
0.0
1001
REVIT
1002
{
1070
     3
1000
790271
1002
}
  0
LINE
  5
28F
330
243
100
AcDbEntity
  8
M-PIPE
370
    18
100
AcDbLine
 10
1270.778244810758
 20
1802.012558850008
 30
0.0
 11
1278.278244810765
 21
1802.012558850008
 31
0.0
1001
REVIT
1002
{
1070
     3
1000
790271
1002
}
  0
LINE
  5
290
330
243
100
AcDbEntity
  8
M-PIPE
370
    18
100
AcDbLine
 10
1264.308244810748
 20
1800.982558850011
 30
0.0
 11
1270.778244810758
 21
1800.982558850011
 31
0.0
1001
REVIT
1002
{
1070
     3
1000
790271
1002
}
  0
LINE
  5
291
330
243
100
AcDbEntity
  8
M-PIPE
370
    18
100
AcDbLine
 10
1270.778244810758
 20
1800.982558850011
 30
0.0
 11
1277.248244810767
 21
1800.982558850011
 31
0.0
1001
REVIT
1002
{
1070
     3
1000
790271
1002
}
  0
LINE
  5
292
330
243
100
AcDbEntity
  8
M-PIPE
370
    18
100
AcDbLine
 10
1270.778244810758
 20
1881.15761131766
 30
0.0
 11
1272.152976749933
 21
1881.15761131766
 31
0.0
1001
REVIT
1002
{
1070
     3
1000
790271
1002
}
  0
LINE
  5
293
330
243
100
AcDbEntity
  8
M-PIPE
370
    18
100
AcDbLine
 10
1281.778244810739
 20
1881.15761131766
 30
0.0
 11
1282.058704494213
 21
1881.15761131766
 31
0.0
1001
REVIT
1002
{
1070
     3
1000
790271
1002
}
  0
LINE
  5
294
330
243
100
AcDbEntity
  8
M-PIPE
370
    18
100
AcDbLine
 10
1283.721618856157
 20
1881.15761131766
 30
0.0
 11
1283.778244810771
 21
1881.15761131766
 31
0.0
1001
REVIT
1002
{
1070
     3
1000
790271
1002
}
  0
LINE
  5
295
330
243
100
AcDbEntity
  8
M-PIPE
370
    18
100
AcDbLine
 10
1259.778244810777
 20
1868.482558850011
 30
0.0
 11
1257.778244810746
 21
1868.482558850011
 31
0.0
1001
REVIT
1002
{
1070
     3
1000
790271
1002
}
  0
LINE
  5
296
330
243
100
AcDbEntity
  8
M-PIPE
370
    18
100
AcDbLine
 10
1283.778244810771
 20
1868.482558850011
 30
0.0
 11
1281.778244810739
 21
1868.482558850011
 31
0.0
1001
REVIT
1002
{
1070
     3
1000
790271
1002
}
  0
LINE
  5
297
330
243
100
AcDbEntity
  8
M-PIPE
370
    18
100
AcDbLine
 10
1281.778244810739
 20
1868.482558850011
 30
0.0
 11
1272.77824481079
 21
1868.482558850011
 31
0.0
1001
REVIT
1002
{
1070
     3
1000
790271
1002
}
  0
LINE
  5
298
330
243
100
AcDbEntity
  8
M-PIPE
370
    18
100
AcDbLine
 10
1272.77824481079
 20
1868.482558850011
 30
0.0
 11
1268.778244810727
 21
1868.482558850011
 31
0.0
1001
REVIT
1002
{
1070
     3
1000
790271
1002
}
  0
LINE
  5
299
330
243
100
AcDbEntity
  8
M-PIPE
370
    18
100
AcDbLine
 10
1268.778244810727
 20
1868.482558850011
 30
0.0
 11
1259.778244810777
 21
1868.482558850011
 31
0.0
1001
REVIT
1002
{
1070
     3
1000
790271
1002
}
  0
LINE
  5
29A
330
243
100
AcDbEntity
  8
M-PIPE
370
    18
100
AcDbLine
 10
1259.778244810777
 20
1880.042757409137
 30
0.0
 11
1259.778244810777
 21
1868.482558850011
 31
0.0
1001
REVIT
1002
{
1070
     3
1000
790271
1002
}
  0
LINE
  5
29B
330
243
100
AcDbEntity
  8
M-PIPE
370
    18
100
AcDbLine
 10
1268.778244810727
 20
1868.482558850011
 30
0.0
 11
1268.778244810727
 21
1880.042757409137
 31
0.0
1001
REVIT
1002
{
1070
     3
1000
790271
1002
}
  0
LINE
  5
29C
330
243
100
AcDbEntity
  8
M-PIPE
370
    18
100
AcDbLine
 10
1272.77824481079
 20
1868.482558850011
 30
0.0
 11
1272.77824481079
 21
1881.15761131766
 31
0.0
1001
REVIT
1002
{
1070
     3
1000
790271
1002
}
  0
LINE
  5
29D
330
243
100
AcDbEntity
  8
M-PIPE
370
    18
100
AcDbLine
 10
1281.778244810739
 20
1868.482558850011
 30
0.0
 11
1281.778244810739
 21
1881.15761131766
 31
0.0
1001
REVIT
1002
{
1070
     3
1000
790271
1002
}
  0
LINE
  5
29E
330
243
100
AcDbEntity
  8
M-PIPE
370
    18
100
AcDbLine
 10
1283.778244810771
 20
1868.482558850011
 30
0.0
 11
1283.778244810771
 21
1881.15761131766
 31
0.0
1001
REVIT
1002
{
1070
     3
1000
790271
1002
}
  0
LINE
  5
29F
330
243
100
AcDbEntity
  8
M-PIPE
370
    18
100
AcDbLine
 10
1257.778244810746
 20
1868.482558850011
 30
0.0
 11
1257.778244810746
 21
1880.042757409137
 31
0.0
1001
REVIT
1002
{
1070
     3
1000
790271
1002
}
  0
LINE
  5
2A0
330
243
100
AcDbEntity
  8
M-PIPE
370
    18
100
AcDbLine
 10
1309.30697066799
 20
1935.689154805745
 30
0.0
 11
1309.778244810775
 21
1937.447973850912
 31
0.0
1001
REVIT
1002
{
1070
     3
1000
790271
1002
}
  0
LINE
  5
2A1
330
243
100
AcDbEntity
  8
M-PIPE
370
    18
100
AcDbLine
 10
1301.77824481076
 20
1934.447973850848
 30
0.0
 11
1301.77824481076
 21
1934.947973850848
 31
0.0
1001
REVIT
1002
{
1070
     3
1000
790271
1002
}
  0
LWPOLYLINE
  5
2A2
330
243
100
AcDbEntity
  8
M-PIPE
370
    18
100
AcDbPolyline
 90
       22
 70
   128
 43
0.0
 10
1302.77824481076
 20
1907.447973850848
 10
1302.438894715973
 20
1905.925437463606
 10
1302.038930848666
 20
1904.417689327427
 10
1301.578993065705
 20
1902.927141517691
 10
1301.059817169428
 20
1901.456178592926
 10
1300.482233730519
 20
1900.007153780025
 10
1299.847166759267
 20
1898.58238520958
 10
1299.155632227352
 20
1897.184152207367
 10
1298.408736442507
 20
1895.814691647919
 10
1297.607674278659
 20
1894.476194375992
 10
1296.753727264384
 20
1893.170801701692
 10
1295.84826153274
 20
1891.900601974828
 10
1294.892725635743
 20
1890.667627244002
 10
1293.888648226991
 20
1889.473850005763
 10
1292.837635616145
 20
1888.321180049033
 10
1291.741369199179
 20
1887.211461399854
 10
1290.601602768502
 20
1886.146469371334
 10
1289.420159707267
 20
1885.127907723537
 10
1288.198930072344
 20
1884.157405937814
 10
1286.939867570633
 20
1883.236516609996
 10
1285.644986433552
 20
1882.366712966559
 10
1285.192159046799
 20
1882.079887643809
1001
REVIT
1002
{
1070
     3
1000
790271
1002
}
  0
LWPOLYLINE
  5
2A3
330
243
100
AcDbEntity
  8
M-PIPE
370
    18
100
AcDbPolyline
 90
       34
 70
   128
 43
0.0
 10
1309.30697066799
 20
1935.689154805745
 10
1309.295848029067
 20
1935.650735102709
 10
1309.283197908725
 20
1935.612790918261
 10
1309.269040544457
 20
1935.575382955004
 10
1309.253398585027
 20
1935.538571057699
 10
1309.236297054233
 20
1935.502414117528
 10
1309.217763310875
 20
1935.466969977882
 10
1309.197827004991
 20
1935.432295341825
 10
1309.176520030415
 20
1935.398445681376
 10
1309.153876473762
 20
1935.365475148772
 10
1309.129932559894
 20
1935.333436489832
 10
1309.104726593963
 20
1935.302380959575
 10
1309.078298900139
 20
1935.272358240225
 10
1309.050691757093
 20
1935.243416361729
 10
1309.021949330366
 20
1935.215601624917
 10
1308.99211760171
 20
1935.188958527436
 10
1308.961244295525
 20
1935.163529692557
 10
1308.929378802516
 20
1935.139355800993
 10
1308.896572100675
 20
1935.116475525813
 10
1308.862876673726
 20
1935.094925470576
 10
1308.828346427163
 20
1935.074740110772
 10
1308.793036602016
 20
1935.055951738674
 10
1308.757003686472
 20
1935.038590411666
 10
1308.720305325509
 20
1935.022683904171
 10
1308.683000228677
 20
1935.008257663205
 10
1308.645148076173
 20
1934.995334767678
 10
1308.606809423365
 20
1934.983935891464
 10
1308.56804560392
 20
1934.974079270335
 10
1308.52891863168
 20
1934.965780672782
 10
1308.489491101453
 20
1934.959053374791
 10
1308.449826088877
 20
1934.953908138602
 10
1308.409987049512
 20
1934.950353195497
 10
1308.370037717321
 20
1934.948394232627
 10
1308.3410448417
 20
1934.947973850848
1001
REVIT
1002
{
1070
     3
1000
790271
1002
}
  0
LWPOLYLINE
  5
2A4
330
243
100
AcDbEntity
  8
M-PIPE
370
    18
100
AcDbPolyline
 90
       41
 70
   128
 43
0.0
 10
1270.77824481076
 20
1934.947973850848
 10
1272.280356174183
 20
1934.947973850848
 10
1273.780064479858
 20
1934.947973850848
 10
1275.274970514416
 20
1934.947973850848
 10
1276.762682747099
 20
1934.947973850848
 10
1278.240821155696
 20
1934.947973850848
 10
1279.707021034072
 20
1934.947973850848
 10
1281.158936775195
 20
1934.947973850848
 10
1282.594245623604
 20
1934.947973850848
 10
1284.010651391325
 20
1934.947973850848
 10
1285.40588813128
 20
1934.947973850848
 10
1286.77772376232
 20
1934.947973850848
 10
1288.123963640077
 20
1934.947973850848
 10
1289.442454067931
 20
1934.947973850848
 10
1290.731085742458
 20
1934.947973850848
 10
1291.987797127874
 20
1934.947973850848
 10
1293.210577754045
 20
1934.947973850848
 10
1294.397471432817
 20
1934.947973850848
 10
1295.546579387492
 20
1934.947973850848
 10
1296.656063290474
 20
1934.947973850848
 10
1297.724148204196
 20
1934.947973850848
 10
1298.749125420641
 20
1934.947973850848
 10
1299.729355194914
 20
1934.947973850848
 10
1300.663269368478
 20
1934.947973850848
 10
1301.549373877883
 20
1934.947973850848
 10
1302.386251144938
 20
1934.947973850848
 10
1303.17256234454
 20
1934.947973850848
 10
1303.907049546506
 20
1934.947973850848
 10
1304.588537727997
 20
1934.947973850848
 10
1305.215936653299
 20
1934.947973850848
 10
1305.788242617968
 20
1934.947973850848
 10
1306.304540054546
 20
1934.947973850848
 10
1306.764002997274
 20
1934.947973850848
 10
1307.165896403455
 20
1934.947973850848
 10
1307.509577329373
 20
1934.947973850848
 10
1307.794495958861
 20
1934.947973850848
 10
1308.020196482891
 20
1934.947973850848
 10
1308.186317828772
 20
1934.947973850848
 10
1308.292594237787
 20
1934.947973850848
 10
1308.338855690353
 20
1934.947973850848
 10
1308.3410448417
 20
1934.947973850848
1001
REVIT
1002
{
1070
     3
1000
790271
1002
}
  0
LWPOLYLINE
  5
2A5
330
243
100
AcDbEntity
  8
M-PIPE
370
    18
100
AcDbPolyline
 90
       16
 70
   128
 43
0.0
 10
1308.3410448417
 20
1934.947973850848
 10
1308.310998608161
 20
1934.947973850848
 10
1308.220907975106
 20
1934.947973850848
 10
1308.07091706833
 20
1934.947973850848
 10
1307.861265841287
 20
1934.947973850848
 10
1307.592289691219
 20
1934.947973850848
 10
1307.264418922585
 20
1934.947973850848
 10
1306.878178058675
 20
1934.947973850848
 10
1306.434185002477
 20
1934.947973850848
 10
1305.933150048167
 20
1934.947973850848
 10
1305.375874744789
 20
1934.947973850848
 10
1304.763250613952
 20
1934.947973850848
 10
1304.096257723578
 20
1934.947973850848
 10
1303.375963120006
 20
1934.947973850848
 10
1302.603519120949
 20
1934.947973850848
 10
1301.780161472025
 20
1934.947973850848
1001
REVIT
1002
{
1070
     3
1000
790271
1002
}
  0
LWPOLYLINE
  5
2A6
330
243
100
AcDbEntity
  8
M-PIPE
370
    18
100
AcDbPolyline
 90
       19
 70
   128
 43
0.0
 10
1285.192159046799
 20
1882.079887643809
 10
1285.15239115624
 20
1882.038000023932
 10
1285.114330133781
 20
1881.994555618217
 10
1285.078036868939
 20
1881.949623928446
 10
1285.043569423195
 20
1881.903276835739
 10
1285.010982937111
 20
1881.855588485556
 10
1284.980329542112
 20
1881.806635169084
 10
1284.951658277092
 20
1881.756495201187
 10
1284.925015009957
 20
1881.705248795119
 10
1284.900442364253
 20
1881.652977934196
 10
1284.87797965097
 20
1881.599766240646
 10
1284.857662805658
 20
1881.545698841826
 10
1284.839524330935
 20
1881.490862234042
 10
1284.823593244492
 20
1881.435344144168
 10
1284.809895032667
 20
1881.379233389305
 10
1284.798451609679
 20
1881.322619734691
 10
1284.789281282562
 20
1881.265593750094
 10
1284.782398721885
 20
1881.208246664928
 10
1284.778244810761
 20
1881.15761131766
1001
REVIT
1002
{
1070
     3
1000
790271
1002
}
  0
LINE
  5
2A7
330
243
100
AcDbEntity
  8
M-PIPE
370
    18
100
AcDbLine
 10
1309.778244810772
 20
1937.447973850911
 30
0.0
 11
1270.778244810758
 21
1937.447973850911
 31
0.0
1001
REVIT
1002
{
1070
     3
1000
790271
1002
}
  0
LINE
  5
2A8
330
243
100
AcDbEntity
  8
M-PIPE
370
    18
100
AcDbLine
 10
1284.778244810758
 20
1881.15761131766
 30
0.0
 11
1283.785945786314
 21
1881.15761131766
 31
0.0
1001
REVIT
1002
{
1070
     3
1000
790271
1002
}
  0
LINE
  5
2A9
330
243
100
AcDbEntity
  8
M-PIPE
370
    18
100
AcDbLine
 10
1283.712558265916
 20
1881.15761131766
 30
0.0
 11
1282.915131162858
 21
1881.15761131766
 31
0.0
1001
REVIT
1002
{
1070
     3
1000
790271
1002
}
  0
LINE
  5
2AA
330
243
100
AcDbEntity
  8
M-PIPE
370
    18
100
AcDbLine
 10
1282.764964753824
 20
1881.15761131766
 30
0.0
 11
1281.787396294803
 21
1881.15761131766
 31
0.0
1001
REVIT
1002
{
1070
     3
1000
790271
1002
}
  0
LINE
  5
2AB
330
243
100
AcDbEntity
  8
M-PIPE
370
    18
100
AcDbLine
 10
1281.762381608468
 20
1881.15761131766
 30
0.0
 11
1272.820198630867
 21
1881.15761131766
 31
0.0
1001
REVIT
1002
{
1070
     3
1000
790271
1002
}
  0
LINE
  5
2AC
330
243
100
AcDbEntity
  8
M-PIPE
370
    18
100
AcDbLine
 10
1272.780684192454
 20
1881.15761131766
 30
0.0
 11
1270.778244810758
 21
1881.15761131766
 31
0.0
1001
REVIT
1002
{
1070
     3
1000
790271
1002
}
  0
LINE
  5
2AD
330
243
100
AcDbEntity
  8
M-PIPE
370
    18
100
AcDbLine
 10
1270.778244810758
 20
1882.079887643808
 30
0.0
 11
1285.192159046797
 21
1882.079887643808
 31
0.0
1001
REVIT
1002
{
1070
     3
1000
790271
1002
}
  0
LWPOLYLINE
  5
2AE
330
243
100
AcDbEntity
  8
M-PIPE
370
    18
100
AcDbPolyline
 90
       41
 70
   128
 43
0.0
 10
1283.278244810774
 20
2048.982558850012
 10
1283.398212813334
 20
2048.980159169995
 10
1283.517988892682
 20
2048.97296396892
 10
1283.637381432641
 20
2048.960984757574
 10
1283.756199430617
 20
2048.944240700139
 10
1283.87425280316
 20
2048.922758583536
 10
1283.991352690056
 20
2048.896572774568
 10
1284.107311756467
 20
2048.865725164944
 10
1284.221944492623
 20
2048.830265104259
 10
1284.3350675106
 20
2048.790249321045
 10
1284.4464998377
 20
2048.74574183202
 10
1284.556063205972
 20
2048.696813839672
 10
1284.663582337399
 20
2048.64354361835
 10
1284.768885224306
 20
2048.586016389045
 10
1284.871803404537
 20
2048.524324183052
 10
1284.972172230959
 20
2048.458565694741
 10
1285.069831134862
 20
2048.388846123665
 10
1285.16462388283
 20
2048.315277006265
 10
1285.256398826689
 20
2048.237976037435
 10
1285.345009146106
 20
2048.157066882235
 10
1285.430313083473
 20
2048.072678978053
 10
1285.512174170687
 20
2047.984947327536
 10
1285.590461447472
 20
2047.894012282608
 10
1285.665049670884
 20
2047.800019319943
 10
1285.735819515678
 20
2047.703118808229
 10
1285.802657765198
 20
2047.603465767616
 10
1285.865457492505
 20
2047.50121962171
 10
1285.924118231429
 20
2047.396543942533
 10
1285.978546137304
 20
2047.289606188842
 10
1286.02865413709
 20
2047.180577438231
 10
1286.074362068676
 20
2047.069632113442
 10
1286.115596809123
 20
2046.956947703328
 10
1286.152292391642
 20
2046.842704478908
 10
1286.184390111129
 20
2046.727085204969
 10
1286.21183861808
 20
2046.610274847687
 10
1286.23459400074
 20
2046.492460278713
 10
1286.252619855349
 20
2046.373829976226
 10
1286.265887344387
 20
2046.254573723405
 10
1286.274375242701
 20
2046.134882304813
 10
1286.278069971465
 20
2046.014947201187
 10
1286.278244810774
 20
2045.982558850012
1001
REVIT
1002
{
1070
     3
1000
790271
1002
}
  0
LWPOLYLINE
  5
2AF
330
243
100
AcDbEntity
  8
M-PIPE
370
    18
100
AcDbPolyline
 90
       41
 70
   128
 43
0.0
 10
1270.77824481076
 20
2048.982558850012
 10
1271.278111488093
 20
2048.982558850012
 10
1271.777178485376
 20
2048.982558850012
 10
1272.274647401873
 20
2048.982558850012
 10
1272.76972239344
 20
2048.982558850012
 10
1273.261611445701
 20
2048.982558850012
 10
1273.749527641103
 20
2048.982558850012
 10
1274.232690417816
 20
2048.982558850012
 10
1274.710326818466
 20
2048.982558850012
 10
1275.181672726704
 20
2048.982558850012
 10
1275.645974089623
 20
2048.982558850012
 10
1276.102488124091
 20
2048.982558850012
 10
1276.550484505035
 20
2048.982558850012
 10
1276.989246533814
 20
2048.982558850012
 10
1277.418072284778
 20
2048.982558850012
 10
1277.836275728206
 20
2048.982558850012
 10
1278.243187827799
 20
2048.982558850012
 10
1278.638157611
 20
2048.982558850012
 10
1279.020553210413
 20
2048.982558850012
 10
1279.389762874652
 20
2048.982558850012
 10
1279.745195947014
 20
2048.982558850012
 10
1280.086283810407
 20
2048.982558850012
 10
1280.412480797008
 20
2048.982558850012
 10
1280.723265061226
 20
2048.982558850012
 10
1281.018139414534
 20
2048.982558850012
 10
1281.296632120871
 20
2048.982558850012
 10
1281.558297651314
 20
2048.982558850012
 10
1281.802717396835
 20
2048.982558850012
 10
1282.029500337979
 20
2048.982558850012
 10
1282.23828367042
 20
2048.982558850012
 10
1282.428733385364
 20
2048.982558850012
 10
1282.600544803893
 20
2048.982558850012
 10
1282.753443064389
 20
2048.982558850012
 10
1282.887183562252
 20
2048.982558850012
 10
1283.001552341216
 20
2048.982558850012
 10
1283.09636643563
 20
2048.982558850012
 10
1283.171474163171
 20
2048.982558850012
 10
1283.226755367495
 20
2048.982558850012
 10
1283.26212161047
 20
2048.982558850012
 10
1283.277516313649
 20
2048.982558850012
 10
1283.278244810775
 20
2048.982558850012
1001
REVIT
1002
{
1070
     3
1000
790271
1002
}
  0
LWPOLYLINE
  5
2B0
330
243
100
AcDbEntity
  8
M-PIPE
370
    18
100
AcDbPolyline
 90
       41
 70
   128
 43
0.0
 10
1283.278244810775
 20
2048.982558850012
 10
1283.268246144037
 20
2048.982558850012
 10
1283.238266139557
 20
2048.982558850012
 10
1283.188352758948
 20
2048.982558850012
 10
1283.11858585297
 20
2048.982558850012
 10
1283.02907703379
 20
2048.982558850012
 10
1282.919969496425
 20
2048.982558850012
 10
1282.791437789659
 20
2048.982558850012
 10
1282.643687536804
 20
2048.982558850012
 10
1282.476955106748
 20
2048.982558850012
 10
1282.29150723581
 20
2048.982558850012
 10
1282.087640601023
 20
2048.982558850012
 10
1281.865681345514
 20
2048.982558850012
 10
1281.625984556743
 20
2048.982558850012
 10
1281.36893369844
 20
2048.982558850012
 10
1281.094939997143
 20
2048.982558850012
 10
1280.804441784326
 20
2048.982558850012
 10
1280.497903795158
 20
2048.982558850012
 10
1280.175816425032
 20
2048.982558850012
 10
1279.838694945032
 20
2048.982558850012
 10
1279.48707867761
 20
2048.982558850012
 10
1279.121530133786
 20
2048.982558850012
 10
1278.742634113251
 20
2048.982558850012
 10
1278.350996768812
 20
2048.982558850012
 10
1277.947244636674
 20
2048.982558850012
 10
1277.53202363412
 20
2048.982558850012
 10
1277.105998026177
 20
2048.982558850012
 10
1276.669849362939
 20
2048.982558850012
 10
1276.224275389225
 20
2048.982558850012
 10
1275.769988928344
 20
2048.982558850012
 10
1275.307716741724
 20
2048.982558850012
 10
1274.838198366249
 20
2048.982558850012
 10
1274.362184931164
 20
2048.982558850012
 10
1273.880437956418
 20
2048.982558850012
 10
1273.393728134406
 20
2048.982558850012
 10
1272.902834097015
 20
2048.982558850012
 10
1272.408541169989
 20
2048.982558850012
 10
1271.911640116565
 20
2048.982558850012
 10
1271.41292587243
 20
2048.982558850012
 10
1270.913196273988
 20
2048.982558850012
 10
1270.77824481076
 20
2048.982558850012
1001
REVIT
1002
{
1070
     3
1000
790271
1002
}
  0
LINE
  5
2B1
330
243
100
AcDbEntity
  8
M-PIPE
370
    18
100
AcDbLine
 10
1286.278244810774
 20
2044.982559709756
 30
0.0
 11
1286.278244810774
 21
2045.982558850012
 31
0.0
1001
REVIT
1002
{
1070
     3
1000
790271
1002
}
  0
LINE
  5
2B2
330
243
100
AcDbEntity
  8
M-PIPE
370
    18
100
AcDbLine
 10
1286.010123873878
 20
2044.982559709756
 30
0.0
 11
1285.95034521214
 21
2044.982559709756
 31
0.0
1001
REVIT
1002
{
1070
     3
1000
790271
1002
}
  0
LINE
  5
2B3
330
243
100
AcDbEntity
  8
M-PIPE
370
    18
100
AcDbLine
 10
1285.098377564696
 20
2044.982559709756
 30
0.0
 11
1284.842468715415
 21
2044.982559709756
 31
0.0
1001
REVIT
1002
{
1070
     3
1000
790271
1002
}
  0
LINE
  5
2B4
330
243
100
AcDbEntity
  8
M-PIPE
370
    18
100
AcDbLine
 10
1284.44802440817
 20
2044.982559709756
 30
0.0
 11
1284.215511843452
 21
2044.982559709756
 31
0.0
1001
REVIT
1002
{
1070
     3
1000
790271
1002
}
  0
LINE
  5
2B5
330
243
100
AcDbEntity
  8
M-PIPE
370
    18
100
AcDbLine
 10
1283.485146828676
 20
2044.982559709756
 30
0.0
 11
1282.759906837891
 21
2044.982559709756
 31
0.0
1001
REVIT
1002
{
1070
     3
1000
790271
1002
}
  0
LINE
  5
2B6
330
243
100
AcDbEntity
  8
M-PIPE
370
    18
100
AcDbLine
 10
1282.657224921382
 20
2044.982559709756
 30
0.0
 11
1280.746502510398
 21
2044.982559709756
 31
0.0
1001
REVIT
1002
{
1070
     3
1000
790271
1002
}
  0
LINE
  5
2B7
330
243
100
AcDbEntity
  8
M-PIPE
370
    18
100
AcDbLine
 10
1280.611340715304
 20
2044.982559709756
 30
0.0
 11
1279.676426320034
 21
2044.982559709756
 31
0.0
1001
REVIT
1002
{
1070
     3
1000
790271
1002
}
  0
LINE
  5
2B8
330
243
100
AcDbEntity
  8
M-PIPE
370
    18
100
AcDbLine
 10
1279.38958342257
 20
2044.982559709756
 30
0.0
 11
1278.53678263031
 21
2044.982559709756
 31
0.0
1001
REVIT
1002
{
1070
     3
1000
790271
1002
}
  0
LINE
  5
2B9
330
243
100
AcDbEntity
  8
M-PIPE
370
    18
100
AcDbLine
 10
1278.132934819005
 20
2044.982559709756
 30
0.0
 11
1277.336703901256
 21
2044.982559709756
 31
0.0
1001
REVIT
1002
{
1070
     3
1000
790271
1002
}
  0
LINE
  5
2BA
330
243
100
AcDbEntity
  8
M-PIPE
370
    18
100
AcDbLine
 10
1276.0857905494
 20
2044.982559709756
 30
0.0
 11
1275.277657308206
 21
2044.982559709756
 31
0.0
1001
REVIT
1002
{
1070
     3
1000
790271
1002
}
  0
LINE
  5
2BB
330
243
100
AcDbEntity
  8
M-PIPE
370
    18
100
AcDbLine
 10
1274.794044273092
 20
2044.982559709756
 30
0.0
 11
1273.80214480201
 21
2044.982559709756
 31
0.0
1001
REVIT
1002
{
1070
     3
1000
790271
1002
}
  0
LINE
  5
2BC
330
243
100
AcDbEntity
  8
M-PIPE
370
    18
100
AcDbLine
 10
1273.471793412206
 20
2044.982559709756
 30
0.0
 11
1272.297510485867
 21
2044.982559709756
 31
0.0
1001
REVIT
1002
{
1070
     3
1000
790271
1002
}
  0
LINE
  5
2BD
330
243
100
AcDbEntity
  8
M-PIPE
370
    18
100
AcDbLine
 10
1272.129613453608
 20
2044.982559709756
 30
0.0
 11
1270.778244810758
 21
2044.982559709756
 31
0.0
1001
REVIT
1002
{
1070
     3
1000
790271
1002
}
  0
LINE
  5
2BE
330
243
100
AcDbEntity
  8
M-PIPE
370
    18
100
AcDbLine
 10
1310.27824481076
 20
1937.947973850912
 30
0.0
 11
1310.27824481076
 21
1963.32460512316
 31
0.0
1001
REVIT
1002
{
1070
     3
1000
790271
1002
}
  0
LWPOLYLINE
  5
2BF
330
243
100
AcDbEntity
  8
M-PIPE
370
    18
100
AcDbPolyline
 90
        8
 70
   128
 43
0.0
 10
1311.835472653565
 20
1974.376902118355
 10
1311.424248772876
 20
1972.830760596753
 10
1311.075182997437
 20
1971.269411254264
 10
1310.788833758026
 20
1969.695351916769
 10
1310.565659152342
 20
1968.111100743422
 10
1310.406016212143
 20
1966.519192198149
 10
1310.310160332081
 20
1964.922172995031
 10
1310.27824481076
 20
1963.32460512316
1001
REVIT
1002
{
1070
     3
1000
790271
1002
}
  0
LINE
  5
2C0
330
243
100
AcDbEntity
  8
M-PIPE
370
    18
100
AcDbLine
 10
1313.72824481076
 20
1988.137161368287
 30
0.0
 11
1313.72824481076
 21
2021.482561161596
 31
0.0
1001
REVIT
1002
{
1070
     3
1000
790271
1002
}
  0
LINE
  5
2C1
330
243
100
AcDbEntity
  8
M-PIPE
370
    18
100
AcDbLine
 10
1239.848991497778
 20
2033.482561161595
 30
0.0
 11
1239.830048569642
 21
2033.482561161595
 31
0.0
1001
REVIT
1002
{
1070
     3
1000
790271
1002
}
  0
LWPOLYLINE
  5
2C2
330
243
100
AcDbEntity
  8
M-PIPE
370
    18
100
AcDbPolyline
 90
       41
 70
   128
 43
0.0
 10
1301.72824481076
 20
2033.482561161595
 10
1302.208116821
 20
2033.472962441527
 10
1302.68722113839
 20
2033.444181637227
 10
1303.164791298227
 20
2033.396264791841
 10
1303.640063290131
 20
2033.329288562103
 10
1304.112276780301
 20
2033.24336009569
 10
1304.580676327885
 20
2033.138616859819
 10
1305.044512593529
 20
2033.015226421325
 10
1305.503043538154
 20
2032.873386178585
 10
1305.955535610061
 20
2032.71332304573
 10
1306.401264918464
 20
2032.53529308963
 10
1306.839518391552
 20
2032.339581120234
 10
1307.269594917258
 20
2032.126500234946
 10
1307.690806464885
 20
2031.896391317727
 10
1308.10247918581
 20
2031.649622493756
 10
1308.5039544915
 20
2031.386588540511
 10
1308.894590107109
 20
2031.107710256207
 10
1309.273761098981
 20
2030.813433786606
 10
1309.640860874418
 20
2030.504229911286
 10
1309.995302152087
 20
2030.180593290486
 10
1310.336517901554
 20
2029.843041673761
 10
1310.663962250411
 20
2029.492115071691
 10
1310.977111357548
 20
2029.128374891978
 10
1311.275464251196
 20
2028.752403041317
 10
1311.558543630372
 20
2028.364800994465
 10
1311.825896628455
 20
2027.966188832013
 10
1312.07709553768
 20
2027.557204248388
 10
1312.311738493379
 20
2027.13850153168
 10
1312.529450116878
 20
2026.710750516916
 10
1312.729882116021
 20
2026.274635514471
 10
1312.912713842367
 20
2025.830854215315
 10
1313.077652804154
 20
2025.38011657486
 10
1313.224435134231
 20
2024.923143677178
 10
1313.352826012179
 20
2024.460666581424
 10
1313.462620039984
 20
2023.993425152292
 10
1313.553641570621
 20
2023.522166876398
 10
1313.62574498906
 20
2023.047645666453
 10
1313.678814945212
 20
2022.570620655167
 10
1313.712766538467
 20
2022.091854980798
 10
1313.727545453519
 20
2021.612114566294
 10
1313.72824481076
 20
2021.482561161596
1001
REVIT
1002
{
1070
     3
1000
790271
1002
}
  0
LWPOLYLINE
  5
2C3
330
243
100
AcDbEntity
  8
M-PIPE
370
    18
100
AcDbPolyline
 90
       23
 70
   128
 43
0.0
 10
1291.77824481076
 20
2033.482561161596
 10
1292.100363536931
 20
2033.482561161596
 10
1292.9804158241
 20
2033.482561161596
 10
1293.824949373858
 20
2033.482561161596
 10
1294.632613112683
 20
2033.482561161596
 10
1295.402114950885
 20
2033.482561161596
 10
1296.132223849676
 20
2033.482561161596
 10
1296.821771790564
 20
2033.482561161596
 10
1297.469655643941
 20
2033.482561161595
 10
1298.074838933849
 20
2033.482561161595
 10
1298.636353496123
 20
2033.482561161595
 10
1299.153301027246
 20
2033.482561161595
 10
1299.624854521446
 20
2033.482561161595
 10
1300.050259593723
 20
2033.482561161595
 10
1300.428835686711
 20
2033.482561161595
 10
1300.75997715942
 20
2033.482561161595
 10
1301.043154256133
 20
2033.482561161595
 10
1301.277913953903
 20
2033.482561161595
 10
1301.463880687293
 20
2033.482561161595
 10
1301.6007569492
 20
2033.482561161595
 10
1301.688323766804
 20
2033.482561161595
 10
1301.726441051878
 20
2033.482561161595
 10
1301.72824481076
 20
2033.482561161595
1001
REVIT
1002
{
1070
     3
1000
790271
1002
}
  0
LWPOLYLINE
  5
2C4
330
243
100
AcDbEntity
  8
M-PIPE
370
    18
100
AcDbPolyline
 90
       41
 70
   128
 43
0.0
 10
1301.72824481076
 20
2033.482561161595
 10
1301.703488111917
 20
2033.482561161595
 10
1301.629257620826
 20
2033.482561161595
 10
1301.505672090437
 20
2033.482561161595
 10
1301.332929231235
 20
2033.482561161595
 10
1301.111305394946
 20
2033.482561161595
 10
1300.84115513243
 20
2033.482561161595
 10
1300.522910626478
 20
2033.482561161595
 10
1300.157081000411
 20
2033.482561161595
 10
1299.744251503592
 20
2033.482561161595
 10
1299.285082575149
 20
2033.482561161595
 10
1298.780308787418
 20
2033.482561161595
 10
1298.230737670779
 20
2033.482561161595
 10
1297.637248421783
 20
2033.482561161595
 10
1297.000790496625
 20
2033.482561161595
 10
1296.322382092214
 20
2033.482561161595
 10
1295.603108517279
 20
2033.482561161595
 10
1294.844120456101
 20
2033.482561161595
 10
1294.04663212767
 20
2033.482561161595
 10
1293.211919343191
 20
2033.482561161595
 10
1292.341317465054
 20
2033.482561161595
 10
1291.436219270548
 20
2033.482561161595
 10
1290.498072723706
 20
2033.482561161595
 10
1289.528378658875
 20
2033.482561161595
 10
1288.528688379702
 20
2033.482561161595
 10
1287.500601177379
 20
2033.482561161595
 10
1286.445761772114
 20
2033.482561161595
 10
1285.365857681937
 20
2033.482561161595
 10
1284.262616523024
 20
2033.482561161595
 10
1283.137803245884
 20
2033.482561161595
 10
1281.993217311813
 20
2033.482561161595
 10
1280.83068981414
 20
2033.482561161595
 10
1279.652080548869
 20
2033.482561161595
 10
1278.459275039401
 20
2033.482561161595
 10
1277.254181520099
 20
2033.482561161595
 10
1276.038727883522
 20
2033.482561161595
 10
1274.814858596205
 20
2033.482561161595
 10
1273.58453158793
 20
2033.482561161595
 10
1272.349715119454
 20
2033.482561161595
 10
1271.112384633713
 20
2033.482561161595
 10
1270.77824481076
 20
2033.482561161595
1001
REVIT
1002
{
1070
     3
1000
790271
1002
}
  0
LWPOLYLINE
  5
2C5
330
243
100
AcDbEntity
  8
M-PIPE
370
    18
100
AcDbPolyline
 90
       39
 70
   128
 43
0.0
 10
1286.778244810759
 20
2038.482561161595
 10
1286.782244277455
 20
2038.282614490662
 10
1286.794236279246
 20
2038.082987691749
 10
1286.81420163149
 20
2037.884000125151
 10
1286.842108393881
 20
2037.685970128524
 10
1286.877911921553
 20
2037.48921450762
 10
1286.921554936499
 20
2037.29404802946
 10
1286.972967619206
 20
2037.100782918775
 10
1287.032067720347
 20
2036.909728358515
 10
1287.09876069237
 20
2036.72118999522
 10
1287.172939840745
 20
2036.535469450052
 10
1287.25448649466
 20
2036.352863836265
 10
1287.343270196863
 20
2036.173665283888
 10
1287.439148912371
 20
2035.998160472376
 10
1287.541969255693
 20
2035.826630171991
 10
1287.651566736211
 20
2035.65934879462
 10
1287.767766021338
 20
2035.496583954783
 10
1287.890381217005
 20
2035.338596041503
 10
1288.019216165055
 20
2035.185637801738
 10
1288.154064757055
 20
2035.037953936043
 10
1288.294711264024
 20
2034.895780707098
 10
1288.440930681553
 20
2034.759345561741
 10
1288.592489089767
 20
2034.6288667671
 10
1288.749144027542
 20
2034.504553061413
 10
1288.910644880397
 20
2034.38660332009
 10
1289.076733281419
 20
2034.275206237555
 10
1289.247143524596
 20
2034.170540025378
 10
1289.421602989891
 20
2034.072772127171
 10
1289.599832579376
 20
2033.982058950713
 10
1289.781547163728
 20
2033.898545617736
 10
1289.966456038376
 20
2033.822365731759
 10
1290.154263388566
 20
2033.753641164347
 10
1290.3446687626
 20
2033.692481860149
 10
1290.537367552498
 20
2033.638985661004
 10
1290.732051481303
 20
2033.593238149419
 10
1290.928409096259
 20
2033.555312511653
 10
1291.126126267069
 20
2033.525269420636
 10
1291.324886688438
 20
2033.503156938907
 10
1291.524372386092
 20
2033.489010441718
1001
REVIT
1002
{
1070
     3
1000
790271
1002
}
  0
LINE
  5
2C6
330
243
100
AcDbEntity
  8
M-PIPE
370
    18
100
AcDbLine
 10
1286.778244810759
 20
2038.482561161595
 30
0.0
 11
1286.778244810759
 21
2044.482559709757
 31
0.0
1001
REVIT
1002
{
1070
     3
1000
790271
1002
}
  0
LWPOLYLINE
  5
2C7
330
243
100
AcDbEntity
  8
M-PIPE
370
    18
100
AcDbPolyline
 90
        8
 70
   128
 43
0.0
 10
1313.72824481076
 20
1988.137161368286
 10
1313.687585582805
 20
1986.104471039293
 10
1313.565672945032
 20
1984.075032581207
 10
1313.362701931654
 20
1982.05209266264
 10
1313.078997252994
 20
1980.038887555923
 10
1312.715012776019
 20
1978.038637959767
 10
1312.271330798244
 20
1976.054543846827
 10
1311.816702583161
 20
1974.328595417943
1001
REVIT
1002
{
1070
     3
1000
790271
1002
}
  0
LINE
  5
2C8
330
243
100
AcDbEntity
  8
M-PIPE
370
    18
100
AcDbLine
 10
1286.778244810759
 20
2044.482559709758
 30
0.0
 11
1286.278244810774
 21
2044.982559709742
 31
0.0
1001
REVIT
1002
{
1070
     3
1000
790271
1002
}
  0
LINE
  5
2C9
330
243
100
AcDbEntity
  8
M-PIPE
370
    18
100
AcDbLine
 10
1309.778244810775
 20
1937.447973850926
 30
0.0
 11
1310.27824481076
 21
1937.947973850911
 31
0.0
1001
REVIT
1002
{
1070
     3
1000
790271
1002
}
  0
SPLINE
  5
2CA
330
243
100
AcDbEntity
  8
M-PIPE
370
    18
100
AcDbSpline
210
0.0
220
0.0
230
1.0
 70
     8
 71
     3
 72
     8
 73
     4
 74
     0
 42
0.000000001
 43
0.0000000001
 40
0.0
 40
0.0
 40
0.0
 40
0.0
 40
0.5
 40
0.5
 40
0.5
 40
0.5
 10
1288.715498743951
 20
1987.244626469277
 30
0.0
 10
1288.819462607881
 20
1987.391025913979
 30
0.0
 10
1288.92158932707
 20
1987.538635209279
 30
0.0
 10
1289.021852980121
 20
1987.687406920785
 30
0.0
1001
REVIT
1002
{
1070
     3
1000
790271
1002
}
  0
SPLINE
  5
2CB
330
243
100
AcDbEntity
  8
M-PIPE
370
    18
100
AcDbSpline
210
0.0
220
0.0
230
1.0
 70
     8
 71
     3
 72
     8
 73
     4
 74
     0
 42
0.000000001
 43
0.0000000001
 40
0.0
 40
0.0
 40
0.0
 40
0.0
 40
0.5
 40
0.5
 40
0.5
 40
0.5
 10
1289.317030059526
 20
1988.137161368286
 30
0.0
 10
1289.589993201164
 20
1988.56436569566
 30
0.0
 10
1289.848784365608
 20
1989.001948777655
 30
0.0
 10
1290.092583691915
 20
1989.448978566754
 30
0.0
1001
REVIT
1002
{
1070
     3
1000
790271
1002
}
  0
SPLINE
  5
2CC
330
243
100
AcDbEntity
  8
M-PIPE
370
    18
100
AcDbSpline
210
0.0
220
0.0
230
1.0
 70
    24
 71
     3
 72
     8
 73
     4
 74
     0
 42
0.000000001
 43
0.0000000001
 40
-0.0600888576058203
 40
-0.0600888576058203
 40
-0.0600888576058203
 40
-0.0600888576058203
 40
0.0
 40
0.0
 40
0.0
 40
0.0
 10
1250.778244810758
 20
2000.540828861856
 30
0.0
 10
1250.778244810758
 20
2000.354899675475
 30
0.0
 10
1250.778244810758
 20
2000.168809671526
 30
0.0
 10
1250.778244810758
 20
1999.98255885001
 30
0.0
1001
REVIT
1002
{
1070
     3
1000
790271
1002
}
  0
SPLINE
  5
2CD
330
243
100
AcDbEntity
  8
M-PIPE
370
    18
100
AcDbSpline
210
0.0
220
0.0
230
1.0
 70
    24
 71
     3
 72
     8
 73
     4
 74
     0
 42
0.000000001
 43
0.0000000001
 40
-1.0
 40
-1.0
 40
-1.0
 40
-1.0
 40
-0.9440460496025149
 40
-0.9440460496025149
 40
-0.9440460496025149
 40
-0.9440460496025149
 10
1260.778244810758
 20
2017.3030669257
 30
0.0
 10
1260.628046297151
 20
2017.216349773437
 30
0.0
 10
1260.477968547612
 20
2017.129702344341
 30
0.0
 10
1260.32801156214
 20
2017.043124638412
 30
0.0
1001
REVIT
1002
{
1070
     3
1000
790271
1002
}
  0
SPLINE
  5
2CE
330
243
100
AcDbEntity
  8
M-PIPE
370
    18
100
AcDbSpline
210
0.0
220
0.0
230
1.0
 70
    24
 71
     3
 72
     8
 73
     4
 74
     0
 42
0.000000001
 43
0.0000000001
 40
-0.0559539503975268
 40
-0.0559539503975268
 40
-0.0559539503975268
 40
-0.0559539503975268
 40
0.0
 40
0.0
 40
0.0
 40
0.0
 10
1260.32801156214
 20
1982.921993061609
 30
0.0
 10
1260.477968547612
 20
1982.83541535568
 30
0.0
 10
1260.628046297151
 20
1982.748767926584
 30
0.0
 10
1260.778244810758
 20
1982.662050774322
 30
0.0
1001
REVIT
1002
{
1070
     3
1000
790271
1002
}
  0
SPLINE
  5
2CF
330
243
100
AcDbEntity
  8
M-PIPE
370
    18
100
AcDbSpline
210
0.0
220
0.0
230
1.0
 70
    24
 71
     3
 72
     8
 73
     4
 74
     0
 42
0.000000001
 43
0.0000000001
 40
-0.0401762051746233
 40
-0.0401762051746233
 40
-0.0401762051746233
 40
-0.0401762051746233
 40
0.0
 40
0.0
 40
0.0
 40
0.0
 10
1261.101595844466
 20
2017.489753732053
 30
0.0
 10
1260.993874427271
 20
2017.427560742838
 30
0.0
 10
1260.886090749368
 20
2017.365331807387
 30
0.0
 10
1260.778244810758
 20
2017.3030669257
 30
0.0
1001
REVIT
1002
{
1070
     3
1000
790271
1002
}
  0
ARC
  5
2D0
330
243
100
AcDbEntity
  8
M-PIPE
370
    18
100
AcDbCircle
 10
1270.778244810758
 20
1999.982558850011
 30
0.0
 40
21.99999999999983
100
AcDbArc
 50
324.6199773286568
 51
335.3800226713445
1001
REVIT
1002
{
1070
     3
1000
790271
1002
}
  0
SPLINE
  5
2D1
330
243
100
AcDbEntity
  8
M-PIPE
370
    18
100
AcDbSpline
210
0.0
220
0.0
230
1.0
 70
    24
 71
     3
 72
     9
 73
     5
 74
     0
 42
0.000000001
 43
0.0000000001
 40
-1.0
 40
-1.0
 40
-1.0
 40
-1.0
 40
-0.5
 40
0.0
 40
0.0
 40
0.0
 40
0.0
 10
1290.778244810758
 20
1990.817407460099
 30
0.0
 10
1290.778244810758
 20
1992.322662928652
 30
0.0
 10
1290.778244810758
 20
1995.355443628858
 30
0.0
 10
1290.778244810758
 20
1998.43276385526
 30
0.0
 10
1290.778244810758
 20
1999.982558850011
 30
0.0
1001
REVIT
1002
{
1070
     3
1000
790271
1002
}
  0
SPLINE
  5
2D2
330
243
100
AcDbEntity
  8
M-PIPE
370
    18
100
AcDbSpline
210
0.0
220
0.0
230
1.0
 70
    24
 71
     3
 72
     9
 73
     5
 74
     0
 42
0.000000001
 43
0.0000000001
 40
-1.0
 40
-1.0
 40
-1.0
 40
-1.0
 40
-0.5
 40
0.0
 40
0.0
 40
0.0
 40
0.0
 10
1280.778244810758
 20
1982.662050774322
 30
0.0
 10
1282.12040664687
 20
1983.436948271697
 30
0.0
 10
1284.785444138514
 20
1984.975608384899
 30
0.0
 10
1287.411909268999
 20
1986.491998735001
 30
0.0
 10
1288.715498743951
 20
1987.244626469277
 30
0.0
1001
REVIT
1002
{
1070
     3
1000
790271
1002
}
  0
ARC
  5
2D3
330
243
100
AcDbEntity
  8
M-PIPE
370
    18
100
AcDbCircle
 10
1270.778244810758
 20
1999.982558850011
 30
0.0
 40
21.99999999999994
100
AcDbArc
 50
24.61997732865751
 51
35.38002267134532
1001
REVIT
1002
{
1070
     3
1000
790271
1002
}
  0
SPLINE
  5
2D4
330
243
100
AcDbEntity
  8
M-PIPE
370
    18
100
AcDbSpline
210
0.0
220
0.0
230
1.0
 70
    24
 71
     3
 72
     9
 73
     5
 74
     0
 42
0.000000001
 43
0.0000000001
 40
-1.0
 40
-1.0
 40
-1.0
 40
-1.0
 40
-0.5
 40
0.0
 40
0.0
 40
0.0
 40
0.0
 10
1288.715498743951
 20
2012.720491230744
 30
0.0
 10
1287.411909268999
 20
2013.47311896502
 30
0.0
 10
1284.785444138514
 20
2014.989509315123
 30
0.0
 10
1282.12040664687
 20
2016.528169428324
 30
0.0
 10
1280.778244810758
 20
2017.3030669257
 30
0.0
1001
REVIT
1002
{
1070
     3
1000
790271
1002
}
  0
SPLINE
  5
2D5
330
243
100
AcDbEntity
  8
M-PIPE
370
    18
100
AcDbSpline
210
0.0
220
0.0
230
1.0
 70
    24
 71
     3
 72
     9
 73
     5
 74
     0
 42
0.000000001
 43
0.0000000001
 40
-1.0
 40
-1.0
 40
-1.0
 40
-1.0
 40
-0.5
 40
0.0
 40
0.0
 40
0.0
 40
0.0
 10
1290.778244810758
 20
1999.982558850011
 30
0.0
 10
1290.778244810758
 20
2001.532353844762
 30
0.0
 10
1290.778244810758
 20
2004.609674071164
 30
0.0
 10
1290.778244810757
 20
2007.642454771369
 30
0.0
 10
1290.778244810757
 20
2009.147710239922
 30
0.0
1001
REVIT
1002
{
1070
     3
1000
790271
1002
}
  0
SPLINE
  5
2D6
330
243
100
AcDbEntity
  8
M-PIPE
370
    18
100
AcDbSpline
210
0.0
220
0.0
230
1.0
 70
    24
 71
     3
 72
     9
 73
     5
 74
     0
 42
0.000000001
 43
0.0000000001
 40
-1.0
 40
-1.0
 40
-1.0
 40
-1.0
 40
-0.5
 40
0.0
 40
0.0
 40
0.0
 40
0.0
 10
1280.778244810758
 20
2017.3030669257
 30
0.0
 10
1279.436082974645
 20
2018.077964423075
 30
0.0
 10
1276.771045483001
 20
2019.616624536276
 30
0.0
 10
1274.144580352517
 20
2021.133014886379
 30
0.0
 10
1272.840990877564
 20
2021.885642620655
 30
0.0
1001
REVIT
1002
{
1070
     3
1000
790271
1002
}
  0
ARC
  5
2D7
330
243
100
AcDbEntity
  8
M-PIPE
370
    18
100
AcDbCircle
 10
1270.778244810758
 20
1999.982558850011
 30
0.0
 40
22.0
100
AcDbArc
 50
84.61997732865688
 51
90.0
1001
REVIT
1002
{
1070
     3
1000
790271
1002
}
  0
ARC
  5
2D8
330
243
100
AcDbEntity
  8
M-PIPE
370
    18
100
AcDbCircle
 10
1270.778244810758
 20
1999.982558850011
 30
0.0
 40
21.99999999999983
100
AcDbArc
 50
269.9999999999997
 51
275.3800226713452
1001
REVIT
1002
{
1070
     3
1000
790271
1002
}
  0
SPLINE
  5
2D9
330
243
100
AcDbEntity
  8
M-PIPE
370
    18
100
AcDbSpline
210
0.0
220
0.0
230
1.0
 70
    24
 71
     3
 72
     9
 73
     5
 74
     0
 42
0.000000001
 43
0.0000000001
 40
-1.0
 40
-1.0
 40
-1.0
 40
-1.0
 40
-0.5
 40
0.0
 40
0.0
 40
0.0
 40
0.0
 10
1272.840990877565
 20
1978.079475079366
 30
0.0
 10
1274.144580352517
 20
1978.832102813643
 30
0.0
 10
1276.771045483001
 20
1980.348493163745
 30
0.0
 10
1279.436082974646
 20
1981.887153276946
 30
0.0
 10
1280.778244810758
 20
1982.662050774322
 30
0.0
1001
REVIT
1002
{
1070
     3
1000
790271
1002
}
  0
ARC
  5
2DA
330
243
100
AcDbEntity
  8
M-PIPE
370
    18
100
AcDbCircle
 10
1270.778244810758
 20
1999.982558850011
 30
0.0
 40
19.99999999999987
100
AcDbArc
 50
90.0
 51
120.0000000000006
1001
REVIT
1002
{
1070
     3
1000
790271
1002
}
  0
ARC
  5
2DB
330
243
100
AcDbEntity
  8
M-PIPE
370
    18
100
AcDbCircle
 10
1270.778244810758
 20
1999.982558850011
 30
0.0
 40
20.00000000000011
100
AcDbArc
 50
120.0000000000007
 51
180.000000000001
1001
REVIT
1002
{
1070
     3
1000
790271
1002
}
  0
ARC
  5
2DC
330
243
100
AcDbEntity
  8
M-PIPE
370
    18
100
AcDbCircle
 10
1270.778244810758
 20
1999.982558850011
 30
0.0
 40
19.99999999999995
100
AcDbArc
 50
180.0000000000009
 51
240.0000000000005
1001
REVIT
1002
{
1070
     3
1000
790271
1002
}
  0
ARC
  5
2DD
330
243
100
AcDbEntity
  8
M-PIPE
370
    18
100
AcDbCircle
 10
1270.778244810758
 20
1999.982558850011
 30
0.0
 40
20.0
100
AcDbArc
 50
240.0000000000009
 51
269.9999999999997
1001
REVIT
1002
{
1070
     3
1000
790271
1002
}
  0
ARC
  5
2DE
330
243
100
AcDbEntity
  8
M-PIPE
370
    18
100
AcDbCircle
 10
1270.778244810758
 20
1999.982558850011
 30
0.0
 40
9.549999999999954
100
AcDbArc
 50
90.0
 51
269.9999999999997
1001
REVIT
1002
{
1070
     3
1000
790271
1002
}
  0
ARC
  5
2DF
330
243
100
AcDbEntity
  8
M-PIPE
370
    18
100
AcDbCircle
 10
1270.778244810758
 20
1999.982558850011
 30
0.0
 40
20.00000000000023
100
AcDbArc
 50
300.0
 51
0.0
1001
REVIT
1002
{
1070
     3
1000
790271
1002
}
  0
ARC
  5
2E0
330
243
100
AcDbEntity
  8
M-PIPE
370
    18
100
AcDbCircle
 10
1270.778244810758
 20
1999.982558850011
 30
0.0
 40
20.00000000000026
100
AcDbArc
 50
0.0
 51
60.00000000000036
1001
REVIT
1002
{
1070
     3
1000
790271
1002
}
  0
ARC
  5
2E1
330
243
100
AcDbEntity
  8
M-PIPE
370
    18
100
AcDbCircle
 10
1270.778244810758
 20
1999.982558850011
 30
0.0
 40
20.00000000000023
100
AcDbArc
 50
60.00000000000007
 51
90.0
1001
REVIT
1002
{
1070
     3
1000
790271
1002
}
  0
ARC
  5
2E2
330
243
100
AcDbEntity
  8
M-PIPE
370
    18
100
AcDbCircle
 10
1270.778244810758
 20
1999.982558850011
 30
0.0
 40
9.550000000000181
100
AcDbArc
 50
269.9999999999997
 51
90.0
1001
REVIT
1002
{
1070
     3
1000
790271
1002
}
  0
ARC
  5
2E3
330
243
100
AcDbEntity
  8
M-PIPE
370
    18
100
AcDbCircle
 10
1270.778244810758
 20
1999.982558850011
 30
0.0
 40
19.99999999999998
100
AcDbArc
 50
269.9999999999997
 51
300.0000000000003
1001
REVIT
1002
{
1070
     3
1000
790271
1002
}
  0
SPLINE
  5
2E4
330
243
100
AcDbEntity
  8
M-PIPE
370
    18
100
AcDbSpline
210
0.0
220
0.0
230
1.0
 70
    24
 71
     3
 72
     8
 73
     4
 74
     0
 42
0.000000001
 43
0.0000000001
 40
0.4309055141571722
 40
0.4309055141571722
 40
0.4309055141571722
 40
0.4309055141571722
 40
0.4912853783280167
 40
0.4912853783280167
 40
0.4912853783280167
 40
0.4912853783280167
 10
1279.818978079527
 20
1982.108217868821
 30
0.0
 10
1280.14003861357
 20
1982.293582254577
 30
0.0
 10
1280.461026813792
 20
1982.478904878382
 30
0.0
 10
1280.780344986562
 20
1982.663263311388
 30
0.0
1001
REVIT
1002
{
1070
     3
1000
790271
1002
}
  0
LWPOLYLINE
  5
2E5
330
243
100
AcDbEntity
  8
M-PIPE
370
    18
100
AcDbPolyline
 90
        3
 70
   128
 43
0.0
 10
1281.739882047359
 20
2016.747865408285
 10
1281.303562625484
 20
2016.999774543958
 10
1279.823708973823
 20
2017.854168448105
1001
REVIT
1002
{
1070
     3
1000
790271
1002
}
  0
LINE
  5
2E6
330
243
100
AcDbEntity
  8
M-PIPE
370
    18
100
AcDbLine
 10
1309.778244810772
 20
1937.447973850925
 30
0.0
 11
1270.778244810758
 21
1937.447973850925
 31
0.0
1001
REVIT
1002
{
1070
     3
1000
790271
1002
}
  0
LINE
  5
2E7
330
243
100
AcDbEntity
  8
M-PIPE
370
    18
100
AcDbLine
 10
1270.778244810758
 20
1937.947973850911
 30
0.0
 11
1310.278244810757
 21
1937.947973850911
 31
0.0
1001
REVIT
1002
{
1070
     3
1000
790271
1002
}
  0
LINE
  5
2E8
330
243
100
AcDbEntity
  8
M-PIPE
370
    18
100
AcDbLine
 10
1286.778244810757
 20
2044.482559709756
 30
0.0
 11
1270.778244810758
 21
2044.482559709756
 31
0.0
1001
REVIT
1002
{
1070
     3
1000
790271
1002
}
  0
LINE
  5
2E9
330
243
100
AcDbEntity
  8
M-PIPE
370
    18
100
AcDbLine
 10
1270.778244810757
 20
2044.982559709741
 30
0.0
 11
1272.129158823347
 21
2044.982559709741
 31
0.0
1001
REVIT
1002
{
1070
     3
1000
790271
1002
}
  0
LINE
  5
2EA
330
243
100
AcDbEntity
  8
M-PIPE
370
    18
100
AcDbLine
 10
1272.298286214171
 20
2044.982559709741
 30
0.0
 11
1274.78994000985
 21
2044.982559709741
 31
0.0
1001
REVIT
1002
{
1070
     3
1000
790271
1002
}
  0
LINE
  5
2EB
330
243
100
AcDbEntity
  8
M-PIPE
370
    18
100
AcDbLine
 10
1275.281783252252
 20
2044.982559709741
 30
0.0
 11
1276.07955703231
 21
2044.982559709741
 31
0.0
1001
REVIT
1002
{
1070
     3
1000
790271
1002
}
  0
LINE
  5
2EC
330
243
100
AcDbEntity
  8
M-PIPE
370
    18
100
AcDbLine
 10
1276.71548490521
 20
2044.982559709741
 30
0.0
 11
1278.091289336218
 21
2044.982559709741
 31
0.0
1001
REVIT
1002
{
1070
     3
1000
790271
1002
}
  0
LINE
  5
2ED
330
243
100
AcDbEntity
  8
M-PIPE
370
    18
100
AcDbLine
 10
1278.137729862811
 20
2044.982559709741
 30
0.0
 11
1279.395511940694
 21
2044.982559709741
 31
0.0
1001
REVIT
1002
{
1070
     3
1000
790271
1002
}
  0
LINE
  5
2EE
330
243
100
AcDbEntity
  8
M-PIPE
370
    18
100
AcDbLine
 10
1279.668679574207
 20
2044.982559709741
 30
0.0
 11
1280.615223861849
 21
2044.982559709741
 31
0.0
1001
REVIT
1002
{
1070
     3
1000
790271
1002
}
  0
LINE
  5
2EF
330
243
100
AcDbEntity
  8
M-PIPE
370
    18
100
AcDbLine
 10
1280.741452760908
 20
2044.982559709741
 30
0.0
 11
1282.651933679113
 21
2044.982559709741
 31
0.0
1001
REVIT
1002
{
1070
     3
1000
790271
1002
}
  0
LINE
  5
2F0
330
243
100
AcDbEntity
  8
M-PIPE
370
    18
100
AcDbLine
 10
1282.765197737143
 20
2044.982559709741
 30
0.0
 11
1283.475101497249
 21
2044.982559709741
 31
0.0
1001
REVIT
1002
{
1070
     3
1000
790271
1002
}
  0
LINE
  5
2F1
330
243
100
AcDbEntity
  8
M-PIPE
370
    18
100
AcDbLine
 10
1283.675622699073
 20
2044.982559709741
 30
0.0
 11
1284.201638569429
 21
2044.982559709741
 31
0.0
1001
REVIT
1002
{
1070
     3
1000
790271
1002
}
  0
LINE
  5
2F2
330
243
100
AcDbEntity
  8
M-PIPE
370
    18
100
AcDbLine
 10
1284.460508683363
 20
2044.982559709741
 30
0.0
 11
1284.826015509839
 21
2044.982559709741
 31
0.0
1001
REVIT
1002
{
1070
     3
1000
790271
1002
}
  0
LINE
  5
2F3
330
243
100
AcDbEntity
  8
M-PIPE
370
    18
100
AcDbLine
 10
1285.111973643566
 20
2044.982559709741
 30
0.0
 11
1285.501657999324
 21
2044.982559709741
 31
0.0
1001
REVIT
1002
{
1070
     3
1000
790271
1002
}
  0
LINE
  5
2F4
330
243
100
AcDbEntity
  8
M-PIPE
370
    18
100
AcDbLine
 10
1285.623512237678
 20
2044.982559709741
 30
0.0
 11
1285.956772146571
 21
2044.982559709741
 31
0.0
1001
REVIT
1002
{
1070
     3
1000
790271
1002
}
  0
LINE
  5
2F5
330
243
100
AcDbEntity
  8
M-PIPE
370
    18
100
AcDbLine
 10
1286.010063643816
 20
2044.982559709741
 30
0.0
 11
1286.159956136664
 21
2044.982559709741
 31
0.0
1001
REVIT
1002
{
1070
     3
1000
790271
1002
}
  0
LINE
  5
2F6
330
243
100
AcDbEntity
  8
M-PIPE
370
    18
100
AcDbLine
 10
1286.208343929582
 20
2044.982559709741
 30
0.0
 11
1286.278244810773
 21
2044.982559709741
 31
0.0
1001
REVIT
1002
{
1070
     3
1000
790271
1002
}
  0
LINE
  5
2F7
330
243
100
AcDbEntity
  8
M-PIPE
370
    18
100
AcDbLine
 10
1311.193236196682
 20
1974.328595417941
 30
0.0
 11
1310.439955772185
 21
1974.328595417941
 31
0.0
1001
REVIT
1002
{
1070
     3
1000
790271
1002
}
  0
LINE
  5
2F8
330
243
100
AcDbEntity
  8
M-PIPE
370
    18
100
AcDbLine
 10
1310.418351044193
 20
1974.328595417941
 30
0.0
 11
1309.36180910999
 21
1974.328595417941
 31
0.0
1001
REVIT
1002
{
1070
     3
1000
790271
1002
}
  0
LINE
  5
2F9
330
243
100
AcDbEntity
  8
M-PIPE
370
    18
100
AcDbLine
 10
1309.341780747917
 20
1974.328595417941
 30
0.0
 11
1307.990489470188
 21
1974.328595417941
 31
0.0
1001
REVIT
1002
{
1070
     3
1000
790271
1002
}
  0
LINE
  5
2FA
330
243
100
AcDbEntity
  8
M-PIPE
370
    18
100
AcDbLine
 10
1307.97171865786
 20
1974.328595417941
 30
0.0
 11
1306.336186229621
 21
1974.328595417941
 31
0.0
1001
REVIT
1002
{
1070
     3
1000
790271
1002
}
  0
LINE
  5
2FB
330
243
100
AcDbEntity
  8
M-PIPE
370
    18
100
AcDbLine
 10
1306.318591773792
 20
1974.328595417941
 30
0.0
 11
1304.411392070662
 21
1974.328595417941
 31
0.0
1001
REVIT
1002
{
1070
     3
1000
790271
1002
}
  0
LINE
  5
2FC
330
243
100
AcDbEntity
  8
M-PIPE
370
    18
100
AcDbLine
 10
1304.394981389488
 20
1974.328595417941
 30
0.0
 11
1302.230709342317
 21
1974.328595417941
 31
0.0
1001
REVIT
1002
{
1070
     3
1000
790271
1002
}
  0
LINE
  5
2FD
330
243
100
AcDbEntity
  8
M-PIPE
370
    18
100
AcDbLine
 10
1302.215527341479
 20
1974.328595417941
 30
0.0
 11
1299.810709281571
 21
1974.328595417941
 31
0.0
1001
REVIT
1002
{
1070
     3
1000
790271
1002
}
  0
LINE
  5
2FE
330
243
100
AcDbEntity
  8
M-PIPE
370
    18
100
AcDbLine
 10
1299.79681659106
 20
1974.328595417941
 30
0.0
 11
1297.169794794992
 21
1974.328595417941
 31
0.0
1001
REVIT
1002
{
1070
     3
1000
790271
1002
}
  0
LINE
  5
2FF
330
243
100
AcDbEntity
  8
M-PIPE
370
    18
100
AcDbLine
 10
1297.157256987502
 20
1974.328595417941
 30
0.0
 11
1294.328055580439
 21
1974.328595417941
 31
0.0
1001
REVIT
1002
{
1070
     3
1000
790271
1002
}
  0
LINE
  5
300
330
243
100
AcDbEntity
  8
M-PIPE
370
    18
100
AcDbLine
 10
1294.316937173195
 20
1974.328595417941
 30
0.0
 11
1291.307112900445
 21
1974.328595417941
 31
0.0
1001
REVIT
1002
{
1070
     3
1000
790271
1002
}
  0
LINE
  5
301
330
243
100
AcDbEntity
  8
M-PIPE
370
    18
100
AcDbLine
 10
1291.297473696958
 20
1974.328595417941
 30
0.0
 11
1288.129953807309
 21
1974.328595417941
 31
0.0
1001
REVIT
1002
{
1070
     3
1000
790271
1002
}
  0
LINE
  5
302
330
243
100
AcDbEntity
  8
M-PIPE
370
    18
100
AcDbLine
 10
1288.121846499049
 20
1974.328595417941
 30
0.0
 11
1284.820755513192
 21
1974.328595417941
 31
0.0
1001
REVIT
1002
{
1070
     3
1000
790271
1002
}
  0
LINE
  5
303
330
243
100
AcDbEntity
  8
M-PIPE
370
    18
100
AcDbLine
 10
1284.814224019939
 20
1974.328595417941
 30
0.0
 11
1281.404700984968
 21
1974.328595417941
 31
0.0
1001
REVIT
1002
{
1070
     3
1000
790271
1002
}
  0
LINE
  5
304
330
243
100
AcDbEntity
  8
M-PIPE
370
    18
100
AcDbLine
 10
1281.399779263891
 20
1974.328595417941
 30
0.0
 11
1277.907787042278
 21
1974.328595417941
 31
0.0
1001
REVIT
1002
{
1070
     3
1000
790271
1002
}
  0
LINE
  5
305
330
243
100
AcDbEntity
  8
M-PIPE
370
    18
100
AcDbLine
 10
1277.904498217196
 20
1974.328595417941
 30
0.0
 11
1274.35662635476
 21
1974.328595417941
 31
0.0
1001
REVIT
1002
{
1070
     3
1000
790271
1002
}
  0
LINE
  5
306
330
243
100
AcDbEntity
  8
M-PIPE
370
    18
100
AcDbLine
 10
1274.35498207913
 20
1974.328595417941
 30
0.0
 11
1270.778244810758
 21
1974.328595417941
 31
0.0
1001
REVIT
1002
{
1070
     3
1000
790271
1002
}
  0
ENDBLK
  5
308
330
243
100
AcDbEntity
  8
0
100
AcDbBlockEnd
  0
ENDSEC
  0
SECTION
  2
ENTITIES
  0
INSERT
  5
1E5
330
71
100
AcDbEntity
  8
M-PIPE
100
AcDbBlockReference
  2
Automatic flow rate regulator valve_Caleffi_121 DN15 - 3_4___Insulation-975047-Est - Idraulica
 10
0.0
 20
0.0
 30
0.0
1001
REVIT
1002
{
1070
     1
1000
863131
1002
}
1002
{
1070
     5
1000
975047
1002
}
1002
{
1070
     2
1000
-2008055
1002
}
  0
INSERT
  5
242
330
71
100
AcDbEntity
  8
M-PIPE
100
AcDbBlockReference
  2
Automatic flow rate regulator valve_Caleffi_121 DN15 - 3_4___Insulation-V1-Est - Idraulica
 10
0.0
 20
0.0
 30
0.0
1001
REVIT
1002
{
1070
     1
1000
863152
1002
}
1002
{
1070
     5
1000
975047
1002
}
1002
{
1070
     2
1000
-2008055
1002
}
  0
INSERT
  5
309
330
71
100
AcDbEntity
  8
M-PIPE
100
AcDbBlockReference
  2
Automatic flow rate regulator valve_Caleffi_121 DN15 - 3_4___Insulation-V2-Est - Idraulica
 10
0.0
 20
0.0
 30
0.0
1001
REVIT
1002
{
1070
     1
1000
863172
1002
}
1002
{
1070
     5
1000
975047
1002
}
1002
{
1070
     2
1000
-2008055
1002
}
  0
ENDSEC
  0
SECTION
  2
OBJECTS
  0
DICTIONARY
  5
C
330
0
100
AcDbDictionary
281
     1
  3
ACAD_CIP_PREVIOUS_PRODUCT_INFO
350
7A
  3
ACAD_COLOR
350
63
  3
ACAD_DETAILVIEWSTYLE
350
6B
  3
ACAD_GROUP
350
D
  3
ACAD_IMAGE_VARS
350
7B
  3
ACAD_LAYOUT
350
62
  3
ACAD_MATERIAL
350
10
  3
ACAD_MLEADERSTYLE
350
66
  3
ACAD_MLINESTYLE
350
5F
  3
ACAD_PLOTSETTINGS
350
61
  3
ACAD_PLOTSTYLENAME
350
E
  3
ACAD_SCALELIST
350
42
  3
ACAD_SECTIONVIEWSTYLE
350
68
  3
ACAD_TABLESTYLE
350
64
  3
ACAD_VISUALSTYLE
350
29
  3
ACDB_RECOMPOSE_DATA
350
314
  3
AcDbVariableDictionary
350
7C
  3
REVIT_DICTIONARY
350
30B
  0
DICTIONARY
  5
310
330
71
100
AcDbDictionary
280
     1
281
     1
  3
ACAD_SORTENTS
360
311
  0
XRECORD
  5
7A
102
{ACAD_REACTORS
330
C
102
}
330
C
100
AcDbXrecord
280
     1
300
RVT
300
2013
300
RVT2013
  0
DICTIONARY
  5
63
102
{ACAD_REACTORS
330
C
102
}
330
C
100
AcDbDictionary
281
     1
  0
DICTIONARY
  5
6B
102
{ACAD_REACTORS
330
C
102
}
330
C
100
AcDbDictionary
281
     1
  3
Imperial24
350
6C
  0
DICTIONARY
  5
D
102
{ACAD_REACTORS
330
C
102
}
330
C
100
AcDbDictionary
281
     1
  0
RASTERVARIABLES
  5
7B
102
{ACAD_REACTORS
330
C
102
}
330
C
100
AcDbRasterVariables
 90
        0
 70
     0
 71
     1
 72
     1
  0
DICTIONARY
  5
62
102
{ACAD_REACTORS
330
C
102
}
330
C
100
AcDbDictionary
281
     1
  3
Layout1
350
70
  3
Layout2
350
78
  3
Model
350
74
  0
DICTIONARY
  5
10
102
{ACAD_REACTORS
330
C
102
}
330
C
100
AcDbDictionary
281
     1
  3
ByBlock
350
19
  3
ByLayer
350
11
  3
Global
350
21
  0
DICTIONARY
  5
66
102
{ACAD_REACTORS
330
C
102
}
330
C
100
AcDbDictionary
281
     1
  3
Standard
350
67
  0
DICTIONARY
  5
5F
102
{ACAD_REACTORS
330
C
102
}
330
C
100
AcDbDictionary
281
     1
  3
Standard
350
60
  0
DICTIONARY
  5
61
102
{ACAD_REACTORS
330
C
102
}
330
C
100
AcDbDictionary
281
     1
  0
ACDBDICTIONARYWDFLT
  5
E
102
{ACAD_REACTORS
330
C
102
}
330
C
100
AcDbDictionary
281
     1
  3
Normal
350
F
100
AcDbDictionaryWithDefault
340
F
  0
DICTIONARY
  5
42
102
{ACAD_REACTORS
330
C
102
}
330
C
100
AcDbDictionary
281
     1
  3
A0
350
43
  3
A1
350
44
  3
A2
350
45
  3
A3
350
46
  3
A4
350
47
  3
A5
350
48
  3
A6
350
49
  3
A7
350
4A
  3
A8
350
4B
  3
A9
350
4C
  3
B0
350
4D
  3
B1
350
4E
  3
B2
350
4F
  3
B3
350
50
  3
B4
350
51
  3
B5
350
52
  3
B6
350
53
  0
DICTIONARY
  5
68
102
{ACAD_REACTORS
330
C
102
}
330
C
100
AcDbDictionary
281
     1
  3
Imperial24
350
6A
  0
DICTIONARY
  5
64
102
{ACAD_REACTORS
330
C
102
}
330
C
100
AcDbDictionary
281
     1
  3
Standard
350
65
  0
DICTIONARY
  5
29
102
{ACAD_REACTORS
330
C
102
}
330
C
100
AcDbDictionary
281
     1
  3
2dWireframe
350
2F
  3
Basic
350
2E
  3
Brighten
350
35
  3
ColorChange
350
39
  3
Conceptual
350
32
  3
Dim
350
34
  3
EdgeColorOff
350
41
  3
Facepattern
350
38
  3
Flat
350
2A
  3
FlatWithEdges
350
2B
  3
Gouraud
350
2C
  3
GouraudWithEdges
350
2D
  3
Hidden
350
31
  3
JitterOff
350
3F
  3
Linepattern
350
37
  3
OverhangOff
350
40
  3
Realistic
350
33
  3
Shaded
350
3E
  3
Shaded with edges
350
3D
  3
Shades of Gray
350
3A
  3
Sketchy
350
3B
  3
Thicken
350
36
  3
Wireframe
350
30
  3
X-Ray
350
3C
  0
XRECORD
  5
314
102
{ACAD_REACTORS
330
C
102
}
330
C
100
AcDbXrecord
280
     1
 90
        1
330
65
  0
DICTIONARY
  5
7C
102
{ACAD_REACTORS
330
C
102
}
330
C
100
AcDbDictionary
281
     1
  3
CANNOSCALE
350
81
  3
CMLEADERSTYLE
350
7E
  3
CTABLESTYLE
350
7D
  3
CVIEWDETAILSTYLE
350
7F
  3
CVIEWSECTIONSTYLE
350
80
  0
DICTIONARY
  5
30B
102
{ACAD_REACTORS
330
C
102
}
330
C
100
AcDbDictionary
281
     1
  3
DRAWING_TOOL
350
30F
  3
REVIT_CATEGORY_MAPPING
350
30D
  3
REVIT_SUB_CATEGORY_MAPPING
350
30E
  3
REVIT_TYPE_MAPPING
350
30C
  0
SORTENTSTABLE
  5
311
102
{ACAD_REACTORS
330
310
102
}
330
310
100
AcDbSortentsTable
330
71
  0
ACDBDETAILVIEWSTYLE
  5
6C
102
{ACAD_REACTORS
330
6B
102
}
330
6B
100
AcDbModelDocViewStyle
 70
     0
  3
Imperial24
290
     1
100
AcDbDetailViewStyle
 70
     0
 71
     0
 90
        3
 71
     1
340
55
 62
   256
 40
0.24
340
0
 62
   256
 40
0.24
300

 40
0.36
280
     3
 71
     2
340
5D
 90
       25
 62
   256
 71
     3
340
55
 62
   256
 40
0.24
 90
        1
 40
0.75
 90
        1
300
%<\AcVar ViewType \f "%tc1">% %<\AcVar ViewDetailId>%\PSCALA %<\AcVar ViewScale \f "%sn">%
 71
     4
340
5D
 90
       25
 62
   256
340
5D
 90
       25
 62
   256
280
     0
  0
LAYOUT
  5
70
102
{ACAD_REACTORS
330
62
102
}
330
62
100
AcDbPlotSettings
  1

  2

  4

  6

 40
0.0
 41
0.0
 42
0.0
 43
0.0
 44
0.0
 45
0.0
 46
0.0
 47
0.0
 48
0.0
 49
0.0
140
0.0
141
0.0
142
1.0
143
1.0
 70
   688
 72
     0
 73
     0
 74
     5
  7

 75
    16
147
1.0
 76
     0
 77
     2
 78
   300
148
0.0
149
0.0
100
AcDbLayout
  1
Layout1
 70
     1
 71
     1
 10
0.0
 20
0.0
 11
12.0
 21
9.0
 12
0.0
 22
0.0
 32
0.0
 14
0.0
 24
0.0
 34
0.0
 15
0.0
 25
0.0
 35
0.0
146
0.0
 13
0.0
 23
0.0
 33
0.0
 16
1.0
 26
0.0
 36
0.0
 17
0.0
 27
1.0
 37
0.0
 76
     0
330
6D
  0
LAYOUT
  5
78
102
{ACAD_REACTORS
330
62
102
}
330
62
100
AcDbPlotSettings
  1

  2

  4

  6

 40
0.0
 41
0.0
 42
0.0
 43
0.0
 44
0.0
 45
0.0
 46
0.0
 47
0.0
 48
0.0
 49
0.0
140
0.0
141
0.0
142
1.0
143
1.0
 70
   688
 72
     0
 73
     0
 74
     5
  7

 75
    16
147
1.0
 76
     0
 77
     2
 78
   300
148
0.0
149
0.0
100
AcDbLayout
  1
Layout2
 70
     1
 71
     2
 10
0.0
 20
0.0
 11
12.0
 21
9.0
 12
0.0
 22
0.0
 32
0.0
 14
0.0
 24
0.0
 34
0.0
 15
0.0
 25
0.0
 35
0.0
146
0.0
 13
0.0
 23
0.0
 33
0.0
 16
1.0
 26
0.0
 36
0.0
 17
0.0
 27
1.0
 37
0.0
 76
     0
330
75
  0
LAYOUT
  5
74
102
{ACAD_REACTORS
330
62
102
}
330
62
100
AcDbPlotSettings
  1

  2

  4

  6

 40
0.0
 41
0.0
 42
0.0
 43
0.0
 44
0.0
 45
0.0
 46
0.0
 47
0.0
 48
0.0
 49
0.0
140
0.0
141
0.0
142
1.0
143
1.0
 70
  1712
 72
     0
 73
     0
 74
     0
  7

 75
     0
147
1.0
 76
     0
 77
     2
 78
   300
148
0.0
149
0.0
100
AcDbLayout
  1
Model
 70
     1
 71
     0
 10
0.0
 20
0.0
 11
12.0
 21
9.0
 12
0.0
 22
0.0
 32
0.0
 14
0.0
 24
0.0
 34
0.0
 15
0.0
 25
0.0
 35
0.0
146
0.0
 13
0.0
 23
0.0
 33
0.0
 16
1.0
 26
0.0
 36
0.0
 17
0.0
 27
1.0
 37
0.0
 76
     0
330
71
  0
MATERIAL
  5
19
102
{ACAD_XDICTIONARY
360
1A
102
}
102
{ACAD_REACTORS
330
10
102
}
330
10
100
AcDbMaterial
  1
ByBlock
 72
     0
 43
0.0208333333333333
 43
0.0
 43
0.0
 43
0.0
 43
0.0
 43
0.0208333333333333
 43
0.0
 43
0.0
 43
0.0
 43
0.0
 43
1.0
 43
0.0
 43
0.0
 43
0.0
 43
0.0
 43
1.0
 77
     0
 47
0.0208333333333333
 47
0.0
 47
0.0
 47
0.0
 47
0.0
 47
0.0208333333333333
 47
0.0
 47
0.0
 47
0.0
 47
0.0
 47
1.0
 47
0.0
 47
0.0
 47
0.0
 47
0.0
 47
1.0
171
     0
 49
0.0208333333333333
 49
0.0
 49
0.0
 49
0.0
 49
0.0
 49
0.0208333333333333
 49
0.0
 49
0.0
 49
0.0
 49
0.0
 49
1.0
 49
0.0
 49
0.0
 49
0.0
 49
0.0
 49
1.0
175
     0
142
0.0208333333333333
142
0.0
142
0.0
142
0.0
142
0.0
142
0.0208333333333333
142
0.0
142
0.0
142
0.0
142
0.0
142
1.0
142
0.0
142
0.0
142
0.0
142
0.0
142
1.0
179
     0
144
0.0208333333333333
144
0.0
144
0.0
144
0.0
144
0.0
144
0.0208333333333333
144
0.0
144
0.0
144
0.0
144
0.0
144
1.0
144
0.0
144
0.0
144
0.0
144
0.0
144
1.0
147
0.0208333333333333
147
0.0
147
0.0
147
0.0
147
0.0
147
0.0208333333333333
147
0.0
147
0.0
147
0.0
147
0.0
147
1.0
147
0.0
147
0.0
147
0.0
147
0.0
147
1.0
  0
MATERIAL
  5
11
102
{ACAD_XDICTIONARY
360
12
102
}
102
{ACAD_REACTORS
330
10
102
}
330
10
100
AcDbMaterial
  1
ByLayer
 72
     0
 43
0.0208333333333333
 43
0.0
 43
0.0
 43
0.0
 43
0.0
 43
0.0208333333333333
 43
0.0
 43
0.0
 43
0.0
 43
0.0
 43
1.0
 43
0.0
 43
0.0
 43
0.0
 43
0.0
 43
1.0
 77
     0
 47
0.0208333333333333
 47
0.0
 47
0.0
 47
0.0
 47
0.0
 47
0.0208333333333333
 47
0.0
 47
0.0
 47
0.0
 47
0.0
 47
1.0
 47
0.0
 47
0.0
 47
0.0
 47
0.0
 47
1.0
171
     0
 49
0.0208333333333333
 49
0.0
 49
0.0
 49
0.0
 49
0.0
 49
0.0208333333333333
 49
0.0
 49
0.0
 49
0.0
 49
0.0
 49
1.0
 49
0.0
 49
0.0
 49
0.0
 49
0.0
 49
1.0
175
     0
142
0.0208333333333333
142
0.0
142
0.0
142
0.0
142
0.0
142
0.0208333333333333
142
0.0
142
0.0
142
0.0
142
0.0
142
1.0
142
0.0
142
0.0
142
0.0
142
0.0
142
1.0
179
     0
144
0.0208333333333333
144
0.0
144
0.0
144
0.0
144
0.0
144
0.0208333333333333
144
0.0
144
0.0
144
0.0
144
0.0
144
1.0
144
0.0
144
0.0
144
0.0
144
0.0
144
1.0
147
0.0208333333333333
147
0.0
147
0.0
147
0.0
147
0.0
147
0.0208333333333333
147
0.0
147
0.0
147
0.0
147
0.0
147
1.0
147
0.0
147
0.0
147
0.0
147
0.0
147
1.0
  0
MATERIAL
  5
21
102
{ACAD_XDICTIONARY
360
22
102
}
102
{ACAD_REACTORS
330
10
102
}
330
10
100
AcDbMaterial
  1
Global
 72
     0
 43
0.0208333333333333
 43
0.0
 43
0.0
 43
0.0
 43
0.0
 43
0.0208333333333333
 43
0.0
 43
0.0
 43
0.0
 43
0.0
 43
1.0
 43
0.0
 43
0.0
 43
0.0
 43
0.0
 43
1.0
 77
     0
 47
0.0208333333333333
 47
0.0
 47
0.0
 47
0.0
 47
0.0
 47
0.0208333333333333
 47
0.0
 47
0.0
 47
0.0
 47
0.0
 47
1.0
 47
0.0
 47
0.0
 47
0.0
 47
0.0
 47
1.0
171
     0
 49
0.0208333333333333
 49
0.0
 49
0.0
 49
0.0
 49
0.0
 49
0.0208333333333333
 49
0.0
 49
0.0
 49
0.0
 49
0.0
 49
1.0
 49
0.0
 49
0.0
 49
0.0
 49
0.0
 49
1.0
175
     0
142
0.0208333333333333
142
0.0
142
0.0
142
0.0
142
0.0
142
0.0208333333333333
142
0.0
142
0.0
142
0.0
142
0.0
142
1.0
142
0.0
142
0.0
142
0.0
142
0.0
142
1.0
179
     0
144
0.0208333333333333
144
0.0
144
0.0
144
0.0
144
0.0
144
0.0208333333333333
144
0.0
144
0.0
144
0.0
144
0.0
144
1.0
144
0.0
144
0.0
144
0.0
144
0.0
144
1.0
147
0.0208333333333333
147
0.0
147
0.0
147
0.0
147
0.0
147
0.0208333333333333
147
0.0
147
0.0
147
0.0
147
0.0
147
1.0
147
0.0
147
0.0
147
0.0
147
0.0
147
1.0
  0
MLEADERSTYLE
  5
67
102
{ACAD_REACTORS
330
66
102
}
330
66
100
AcDbMLeaderStyle
179
     2
170
     2
171
     1
172
     0
 90
        2
 40
0.0
 41
0.0
173
     1
 91
-1056964608
340
5B
 92
       -2
290
     1
 42
0.09
291
     1
 43
0.36
  3
Standard
 44
0.18
300

342
55
174
     1
178
     6
175
     1
176
     0
 93
-1056964608
 45
0.18
292
     0
297
     0
 46
0.18
 94
-1056964608
 47
1.0
 49
1.0
140
1.0
293
     1
141
0.0
294
     1
177
     0
142
1.0
295
     1
296
     0
143
0.125
271
     0
272
     9
273
     9
298
     1
  0
MLINESTYLE
  5
60
102
{ACAD_REACTORS
330
5F
102
}
330
5F
100
AcDbMlineStyle
  2
STANDARD
 70
     0
  3

 62
   256
 51
90.0
 52
90.0
 71
     2
 49
0.5
 62
   256
  6
BYLAYER
 49
-0.5
 62
   256
  6
BYLAYER
  0
ACDBPLACEHOLDER
  5
F
102
{ACAD_REACTORS
330
E
102
}
330
E
  0
SCALE
  5
43
102
{ACAD_REACTORS
330
42
102
}
330
42
100
AcDbScale
 70
     0
300
1:1
140
1.0
141
1.0
290
     1
  0
SCALE
  5
44
102
{ACAD_REACTORS
330
42
102
}
330
42
100
AcDbScale
 70
     0
300
1/128" = 1'-0"
140
0.0078125
141
12.0
290
     0
  0
SCALE
  5
45
102
{ACAD_REACTORS
330
42
102
}
330
42
100
AcDbScale
 70
     0
300
1/64" = 1'-0"
140
0.015625
141
12.0
290
     0
  0
SCALE
  5
46
102
{ACAD_REACTORS
330
42
102
}
330
42
100
AcDbScale
 70
     0
300
1/32" = 1'-0"
140
0.03125
141
12.0
290
     0
  0
SCALE
  5
47
102
{ACAD_REACTORS
330
42
102
}
330
42
100
AcDbScale
 70
     0
300
1/16" = 1'-0"
140
0.0625
141
12.0
290
     0
  0
SCALE
  5
48
102
{ACAD_REACTORS
330
42
102
}
330
42
100
AcDbScale
 70
     0
300
3/32" = 1'-0"
140
0.09375
141
12.0
290
     0
  0
SCALE
  5
49
102
{ACAD_REACTORS
330
42
102
}
330
42
100
AcDbScale
 70
     0
300
1/8" = 1'-0"
140
0.125
141
12.0
290
     0
  0
SCALE
  5
4A
102
{ACAD_REACTORS
330
42
102
}
330
42
100
AcDbScale
 70
     0
300
3/16" = 1'-0"
140
0.1875
141
12.0
290
     0
  0
SCALE
  5
4B
102
{ACAD_REACTORS
330
42
102
}
330
42
100
AcDbScale
 70
     0
300
1/4" = 1'-0"
140
0.25
141
12.0
290
     0
  0
SCALE
  5
4C
102
{ACAD_REACTORS
330
42
102
}
330
42
100
AcDbScale
 70
     0
300
3/8" = 1'-0"
140
0.375
141
12.0
290
     0
  0
SCALE
  5
4D
102
{ACAD_REACTORS
330
42
102
}
330
42
100
AcDbScale
 70
     0
300
1/2" = 1'-0"
140
0.5
141
12.0
290
     0
  0
SCALE
  5
4E
102
{ACAD_REACTORS
330
42
102
}
330
42
100
AcDbScale
 70
     0
300
3/4" = 1'-0"
140
0.75
141
12.0
290
     0
  0
SCALE
  5
4F
102
{ACAD_REACTORS
330
42
102
}
330
42
100
AcDbScale
 70
     0
300
1" = 1'-0"
140
1.0
141
12.0
290
     0
  0
SCALE
  5
50
102
{ACAD_REACTORS
330
42
102
}
330
42
100
AcDbScale
 70
     0
300
1-1/2" = 1'-0"
140
1.5
141
12.0
290
     0
  0
SCALE
  5
51
102
{ACAD_REACTORS
330
42
102
}
330
42
100
AcDbScale
 70
     0
300
3" = 1'-0"
140
3.0
141
12.0
290
     0
  0
SCALE
  5
52
102
{ACAD_REACTORS
330
42
102
}
330
42
100
AcDbScale
 70
     0
300
6" = 1'-0"
140
6.0
141
12.0
290
     0
  0
SCALE
  5
53
102
{ACAD_REACTORS
330
42
102
}
330
42
100
AcDbScale
 70
     0
300
1'-0" = 1'-0"
140
12.0
141
12.0
290
     0
  0
ACDBSECTIONVIEWSTYLE
  5
6A
102
{ACAD_REACTORS
330
68
102
}
330
68
100
AcDbModelDocViewStyle
 70
     0
  3
Imperial24
290
     1
100
AcDbSectionViewStyle
 70
     0
 71
     0
 90
       78
 71
     1
340
55
 62
   256
 40
0.24
340
0
340
0
 62
   256
 40
0.24
300
I, O, Q, S, X, Z
 40
0.48
 90
        3
 40
0.18
 90
        1
 71
     2
340
69
 90
       25
 62
   256
340
5D
 90
       50
 62
   256
 40
0.24
 40
0.0
 40
0.24
 71
     3
340
55
 62
   256
 40
0.24
 90
        1
 40
0.75
 90
        1
300
%<\AcVar ViewType \f "%tc1">% %<\AcVar ViewSectionStartId>%-%<\AcVar ViewSectionEndId>%\PSCALA %<\AcVar ViewScale \f "%sn">%
 71
     4
 62
   256
 62
   257
300
ANSI31
 40
1.0
 90
        0
290
     0
290
     0
 90
        6
 40
0.0
 40
1.570796326794896
 40
0.2617993877991494
 40
1.308996938995747
 40
-0.2617993877991494
 40
1.832595714594046
  0
TABLESTYLE
  5
65
102
{ACAD_XDICTIONARY
360
312
102
}
102
{ACAD_REACTORS
330
64
102
}
330
64
100
AcDbTableStyle
280
     0
  3
Standard
 70
     0
 71
     0
 40
0.06
 41
0.06
280
     0
281
     0
  7
Standard
140
0.18
170
     2
 62
     0
 63
     7
283
     0
 90
      512
 91
        0
  1

274
    -2
284
     1
 64
     0
275
    -2
285
     1
 65
     0
276
    -2
286
     1
 66
     0
277
    -2
287
     1
 67
     0
278
    -2
288
     1
 68
     0
279
    -2
289
     1
 69
     0
  7
Standard
140
0.25
170
     5
 62
     0
 63
     7
283
     0
 90
      512
 91
        0
  1

274
    -2
284
     1
 64
     0
275
    -2
285
     1
 65
     0
276
    -2
286
     1
 66
     0
277
    -2
287
     1
 67
     0
278
    -2
288
     1
 68
     0
279
    -2
289
     1
 69
     0
  7
Standard
140
0.18
170
     5
 62
     0
 63
     7
283
     0
 90
      512
 91
        0
  1

274
    -2
284
     1
 64
     0
275
    -2
285
     1
 65
     0
276
    -2
286
     1
 66
     0
277
    -2
287
     1
 67
     0
278
    -2
288
     1
 68
     0
279
    -2
289
     1
 69
     0
  0
VISUALSTYLE
  5
2F
102
{ACAD_REACTORS
330
29
102
}
330
29
100
AcDbVisualStyle
  2
2dWireframe
 70
     4
177
     3
291
     0
 70
    58
 90
        0
176
     1
 90
        2
176
     1
 90
        0
176
     1
 90
        0
176
     1
 40
0.6
176
     1
 40
30.0
176
     1
 62
     7
420
 16777215
176
     1
 90
        1
176
     1
 90
        4
176
     1
 62
     7
176
     1
 62
   257
176
     1
 90
        1
176
     1
 90
        1
176
     1
 40
1.0
176
     1
 90
        0
176
     1
 62
   257
176
     1
 40
1.0
176
     1
 90
        1
176
     1
 90
        6
176
     1
 90
        2
176
     1
 62
     7
176
     1
 90
        5
176
     1
 90
        0
176
     1
 90
        0
176
     1
290
     0
176
     1
 90
        1
176
     1
 40
0.0
176
     1
 90
        0
176
     1
290
     1
176
     1
290
     1
176
     1
290
     0
176
     1
290
     0
176
     1
290
     0
176
     1
290
     0
176
     1
290
     0
176
     1
290
     0
176
     1
290
     0
176
     1
 90
       50
176
     1
 40
0.0
176
     1
 40
1.0
176
     1
 90
        0
176
     1
 62
    18
420
        0
176
     1
 90
       50
176
     1
 90
        3
176
     1
 62
     5
420
      255
176
     1
290
     0
176
     1
 90
       50
176
     1
 90
       50
176
     1
 90
       50
176
     1
290
     0
176
     1
 90
       50
176
     1
 62
   256
176
     0
 40
1.0
176
     0
 90
        2
176
     1
  1
strokes_ogs.tif
176
     1
290
     0
176
     1
 40
1.0
176
     1
 40
1.0
176
     1
  0
VISUALSTYLE
  5
2E
102
{ACAD_REACTORS
330
29
102
}
330
29
100
AcDbVisualStyle
  2
Basic
 70
     7
177
     3
291
     1
 70
    58
 90
        1
176
     1
 90
        0
176
     1
 90
        1
176
     1
 90
        0
176
     1
 40
0.6
176
     1
 40
30.0
176
     1
 62
     7
420
 16777215
176
     1
 90
        0
176
     1
 90
        4
176
     1
 62
     7
176
     1
 62
   257
176
     1
 90
        1
176
     1
 90
        1
176
     1
 40
1.0
176
     1
 90
        8
176
     1
 62
     7
176
     1
 40
1.0
176
     1
 90
        1
176
     1
 90
        6
176
     1
 90
        2
176
     1
 62
     7
176
     1
 90
        5
176
     1
 90
        0
176
     1
 90
        0
176
     1
290
     0
176
     1
 90
        1
176
     1
 40
0.0
176
     1
 90
        0
176
     1
290
     0
176
     1
290
     1
176
     1
290
     1
176
     1
290
     0
176
     1
290
     0
176
     1
290
     0
176
     1
290
     0
176
     1
290
     0
176
     1
290
     0
176
     1
 90
       50
176
     1
 40
0.0
176
     1
 40
1.0
176
     1
 90
        0
176
     1
 62
    18
420
        0
176
     1
 90
       50
176
     1
 90
        3
176
     1
 62
     5
420
      255
176
     1
290
     0
176
     1
 90
       50
176
     1
 90
       50
176
     1
 90
       50
176
     1
290
     0
176
     1
 90
       50
176
     1
 62
   256
176
     0
 40
1.0
176
     0
 90
        2
176
     1
  1
strokes_ogs.tif
176
     1
290
     0
176
     1
 40
1.0
176
     1
 40
1.0
176
     1
  0
VISUALSTYLE
  5
35
102
{ACAD_REACTORS
330
29
102
}
330
29
100
AcDbVisualStyle
  2
Brighten
 70
    12
177
     3
291
     1
 70
    58
 90
        2
176
     1
 90
        2
176
     1
 90
        0
176
     1
 90
        0
176
     1
 40
0.6
176
     1
 40
30.0
176
     1
 62
     7
420
 16777215
176
     1
 90
        1
176
     1
 90
        4
176
     1
 62
     7
176
     1
 62
   257
176
     1
 90
        1
176
     1
 90
        1
176
     1
 40
1.0
176
     1
 90
        8
176
     1
 62
     7
176
     1
 40
1.0
176
     1
 90
        1
176
     1
 90
        6
176
     1
 90
        2
176
     1
 62
     7
176
     1
 90
        5
176
     1
 90
        0
176
     1
 90
        0
176
     1
290
     0
176
     1
 90
        1
176
     1
 40
50.0
176
     1
 90
        0
176
     1
290
     0
176
     1
290
     1
176
     1
290
     1
176
     1
290
     0
176
     1
290
     0
176
     1
290
     0
176
     1
290
     0
176
     1
290
     0
176
     1
290
     0
176
     1
 90
       50
176
     1
 40
0.0
176
     1
 40
1.0
176
     1
 90
        0
176
     1
 62
    18
420
        0
176
     1
 90
       50
176
     1
 90
        3
176
     1
 62
     5
420
      255
176
     1
290
     0
176
     1
 90
       50
176
     1
 90
       50
176
     1
 90
       50
176
     1
290
     0
176
     1
 90
       50
176
     1
 62
   256
176
     0
 40
1.0
176
     0
 90
        2
176
     1
  1
strokes_ogs.tif
176
     1
290
     0
176
     1
 40
1.0
176
     1
 40
1.0
176
     1
  0
VISUALSTYLE
  5
39
102
{ACAD_REACTORS
330
29
102
}
330
29
100
AcDbVisualStyle
  2
ColorChange
 70
    16
177
     3
291
     1
 70
    58
 90
        2
176
     1
 90
        2
176
     1
 90
        3
176
     1
 90
        0
176
     1
 40
0.6
176
     1
 40
30.0
176
     1
 62
     8
420
  8421504
176
     1
 90
        1
176
     1
 90
        4
176
     1
 62
     7
176
     1
 62
   257
176
     1
 90
        1
176
     1
 90
        1
176
     1
 40
1.0
176
     1
 90
        8
176
     1
 62
     8
420
  8421504
176
     1
 40
1.0
176
     1
 90
        1
176
     1
 90
        6
176
     1
 90
        2
176
     1
 62
     7
176
     1
 90
        5
176
     1
 90
        0
176
     1
 90
        0
176
     1
290
     0
176
     1
 90
        1
176
     1
 40
0.0
176
     1
 90
        0
176
     1
290
     0
176
     1
290
     1
176
     1
290
     1
176
     1
290
     0
176
     1
290
     0
176
     1
290
     0
176
     1
290
     0
176
     1
290
     0
176
     1
290
     0
176
     1
 90
       50
176
     1
 40
0.0
176
     1
 40
1.0
176
     1
 90
        0
176
     1
 62
    18
420
        0
176
     1
 90
       50
176
     1
 90
        3
176
     1
 62
     5
420
      255
176
     1
290
     0
176
     1
 90
       50
176
     1
 90
       50
176
     1
 90
       50
176
     1
290
     0
176
     1
 90
       50
176
     1
 62
   256
176
     0
 40
1.0
176
     0
 90
        2
176
     1
  1
strokes_ogs.tif
176
     1
290
     0
176
     1
 40
1.0
176
     1
 40
1.0
176
     1
  0
VISUALSTYLE
  5
32
102
{ACAD_REACTORS
330
29
102
}
330
29
100
AcDbVisualStyle
  2
Conceptual
 70
     9
177
     3
291
     0
 70
    58
 90
        3
176
     1
 90
        2
176
     1
 90
        0
176
     1
 90
        0
176
     1
 40
0.6
176
     1
 40
30.0
176
     1
 62
     7
420
 16777215
176
     1
 90
        2
176
     1
 90
        2
176
     1
 62
     7
176
     1
 62
   257
176
     1
 90
        1
176
     1
 90
        1
176
     1
 40
179.0
176
     1
 90
        8
176
     1
 62
     7
176
     1
 40
1.0
176
     1
 90
        1
176
     1
 90
        6
176
     1
 90
        2
176
     1
 62
     7
176
     1
 90
        3
176
     1
 90
        0
176
     1
 90
        0
176
     1
290
     0
176
     1
 90
        1
176
     1
 40
0.0
176
     1
 90
        0
176
     1
290
     0
176
     1
290
     1
176
     1
290
     1
176
     1
290
     0
176
     1
290
     0
176
     1
290
     0
176
     1
290
     0
176
     1
290
     0
176
     1
290
     0
176
     1
 90
       50
176
     1
 40
0.0
176
     1
 40
1.0
176
     1
 90
        0
176
     1
 62
    18
420
        0
176
     1
 90
       50
176
     1
 90
        3
176
     1
 62
     5
420
      255
176
     1
290
     0
176
     1
 90
       50
176
     1
 90
       50
176
     1
 90
       50
176
     1
290
     0
176
     1
 90
       50
176
     1
 62
   256
176
     0
 40
1.0
176
     0
 90
        2
176
     1
  1
strokes_ogs.tif
176
     1
290
     0
176
     1
 40
1.0
176
     1
 40
1.0
176
     1
  0
VISUALSTYLE
  5
34
102
{ACAD_REACTORS
330
29
102
}
330
29
100
AcDbVisualStyle
  2
Dim
 70
    11
177
     3
291
     1
 70
    58
 90
        2
176
     1
 90
        2
176
     1
 90
        0
176
     1
 90
        0
176
     1
 40
0.6
176
     1
 40
30.0
176
     1
 62
     7
420
 16777215
176
     1
 90
        1
176
     1
 90
        4
176
     1
 62
     7
176
     1
 62
   257
176
     1
 90
        1
176
     1
 90
        1
176
     1
 40
1.0
176
     1
 90
        8
176
     1
 62
     7
176
     1
 40
1.0
176
     1
 90
        1
176
     1
 90
        6
176
     1
 90
        2
176
     1
 62
     7
176
     1
 90
        5
176
     1
 90
        0
176
     1
 90
        0
176
     1
290
     0
176
     1
 90
        1
176
     1
 40
-50.0
176
     1
 90
        0
176
     1
290
     0
176
     1
290
     1
176
     1
290
     1
176
     1
290
     0
176
     1
290
     0
176
     1
290
     0
176
     1
290
     0
176
     1
290
     0
176
     1
290
     0
176
     1
 90
       50
176
     1
 40
0.0
176
     1
 40
1.0
176
     1
 90
        0
176
     1
 62
    18
420
        0
176
     1
 90
       50
176
     1
 90
        3
176
     1
 62
     5
420
      255
176
     1
290
     0
176
     1
 90
       50
176
     1
 90
       50
176
     1
 90
       50
176
     1
290
     0
176
     1
 90
       50
176
     1
 62
   256
176
     0
 40
1.0
176
     0
 90
        2
176
     1
  1
strokes_ogs.tif
176
     1
290
     0
176
     1
 40
1.0
176
     1
 40
1.0
176
     1
  0
VISUALSTYLE
  5
41
102
{ACAD_REACTORS
330
29
102
}
330
29
100
AcDbVisualStyle
  2
EdgeColorOff
 70
    22
177
     3
291
     1
 70
    58
 90
        2
176
     0
 90
        2
176
     0
 90
        0
176
     0
 90
        0
176
     0
 40
0.6
176
     0
 40
30.0
176
     0
 62
     7
420
 16777215
176
     0
 90
        1
176
     0
 90
        4
176
     0
 62
     7
176
     0
 62
   257
176
     0
 90
        1
176
     0
 90
        1
176
     0
 40
1.0
176
     0
 90
        8
176
     2
 62
     7
176
     0
 40
1.0
176
     0
 90
        1
176
     0
 90
        6
176
     0
 90
        2
176
     0
 62
     7
176
     0
 90
        5
176
     0
 90
        0
176
     0
 90
        0
176
     0
290
     0
176
     0
 90
        1
176
     0
 40
0.0
176
     0
 90
        0
176
     0
290
     0
176
     0
290
     1
176
     0
290
     1
176
     0
290
     0
176
     0
290
     0
176
     0
290
     0
176
     0
290
     0
176
     0
290
     0
176
     0
290
     0
176
     0
 90
       50
176
     0
 40
0.0
176
     0
 40
1.0
176
     0
 90
        0
176
     0
 62
    18
420
        0
176
     0
 90
       50
176
     0
 90
        3
176
     0
 62
     5
420
      255
176
     0
290
     0
176
     0
 90
       50
176
     0
 90
       50
176
     0
 90
       50
176
     0
290
     0
176
     0
 90
       50
176
     0
 62
   256
176
     0
 40
1.0
176
     0
 90
        2
176
     0
  1
strokes_ogs.tif
176
     0
290
     0
176
     0
 40
1.0
176
     0
 40
1.0
176
     0
  0
VISUALSTYLE
  5
38
102
{ACAD_REACTORS
330
29
102
}
330
29
100
AcDbVisualStyle
  2
Facepattern
 70
    15
177
     3
291
     1
 70
    58
 90
        2
176
     1
 90
        2
176
     1
 90
        0
176
     1
 90
        0
176
     1
 40
0.6
176
     1
 40
30.0
176
     1
 62
     7
420
 16777215
176
     1
 90
        1
176
     1
 90
        4
176
     1
 62
     7
176
     1
 62
   257
176
     1
 90
        1
176
     1
 90
        1
176
     1
 40
1.0
176
     1
 90
        8
176
     1
 62
     7
176
     1
 40
1.0
176
     1
 90
        1
176
     1
 90
        6
176
     1
 90
        2
176
     1
 62
     7
176
     1
 90
        5
176
     1
 90
        0
176
     1
 90
        0
176
     1
290
     0
176
     1
 90
        1
176
     1
 40
0.0
176
     1
 90
        0
176
     1
290
     0
176
     1
290
     1
176
     1
290
     1
176
     1
290
     0
176
     1
290
     0
176
     1
290
     0
176
     1
290
     0
176
     1
290
     0
176
     1
290
     0
176
     1
 90
       50
176
     1
 40
0.0
176
     1
 40
1.0
176
     1
 90
        0
176
     1
 62
    18
420
        0
176
     1
 90
       50
176
     1
 90
        3
176
     1
 62
     5
420
      255
176
     1
290
     0
176
     1
 90
       50
176
     1
 90
       50
176
     1
 90
       50
176
     1
290
     0
176
     1
 90
       50
176
     1
 62
   256
176
     0
 40
1.0
176
     0
 90
        2
176
     1
  1
strokes_ogs.tif
176
     1
290
     0
176
     1
 40
1.0
176
     1
 40
1.0
176
     1
  0
VISUALSTYLE
  5
2A
102
{ACAD_REACTORS
330
29
102
}
330
29
100
AcDbVisualStyle
  2
Flat
 70
     0
177
     3
291
     1
 70
    58
 90
        2
176
     1
 90
        1
176
     1
 90
        1
176
     1
 90
        2
176
     1
 40
0.6
176
     1
 40
30.0
176
     1
 62
     7
420
 16777215
176
     1
 90
        0
176
     1
 90
        0
176
     1
 62
     7
176
     1
 62
   257
176
     1
 90
        1
176
     1
 90
        1
176
     1
 40
1.0
176
     1
 90
        8
176
     1
 62
     7
176
     1
 40
1.0
176
     1
 90
        1
176
     1
 90
        6
176
     1
 90
        2
176
     1
 62
     7
176
     1
 90
        5
176
     1
 90
        0
176
     1
 90
        0
176
     1
290
     0
176
     1
 90
       13
176
     1
 40
0.0
176
     1
 90
        0
176
     1
290
     0
176
     1
290
     1
176
     1
290
     1
176
     1
290
     0
176
     1
290
     0
176
     1
290
     0
176
     1
290
     0
176
     1
290
     0
176
     1
290
     0
176
     1
 90
       50
176
     1
 40
0.0
176
     1
 40
1.0
176
     1
 90
        0
176
     1
 62
    18
420
        0
176
     1
 90
       50
176
     1
 90
        3
176
     1
 62
     5
420
      255
176
     1
290
     0
176
     1
 90
       50
176
     1
 90
       50
176
     1
 90
       50
176
     1
290
     0
176
     1
 90
       50
176
     1
 62
   256
176
     0
 40
1.0
176
     0
 90
        2
176
     1
  1
strokes_ogs.tif
176
     1
290
     0
176
     1
 40
1.0
176
     1
 40
1.0
176
     1
  0
VISUALSTYLE
  5
2B
102
{ACAD_REACTORS
330
29
102
}
330
29
100
AcDbVisualStyle
  2
FlatWithEdges
 70
     1
177
     3
291
     1
 70
    58
 90
        2
176
     1
 90
        1
176
     1
 90
        1
176
     1
 90
        2
176
     1
 40
0.6
176
     1
 40
30.0
176
     1
 62
     7
420
 16777215
176
     1
 90
        1
176
     1
 90
        0
176
     1
 62
     7
176
     1
 62
   257
176
     1
 90
        1
176
     1
 90
        1
176
     1
 40
1.0
176
     1
 90
        0
176
     1
 62
   257
176
     1
 40
1.0
176
     1
 90
        1
176
     1
 90
        6
176
     1
 90
        2
176
     1
 62
     7
176
     1
 90
        5
176
     1
 90
        0
176
     1
 90
        0
176
     1
290
     0
176
     1
 90
       13
176
     1
 40
0.0
176
     1
 90
        0
176
     1
290
     0
176
     1
290
     1
176
     1
290
     1
176
     1
290
     0
176
     1
290
     0
176
     1
290
     0
176
     1
290
     0
176
     1
290
     0
176
     1
290
     0
176
     1
 90
       50
176
     1
 40
0.0
176
     1
 40
1.0
176
     1
 90
        0
176
     1
 62
    18
420
        0
176
     1
 90
       50
176
     1
 90
        3
176
     1
 62
     5
420
      255
176
     1
290
     0
176
     1
 90
       50
176
     1
 90
       50
176
     1
 90
       50
176
     1
290
     0
176
     1
 90
       50
176
     1
 62
   256
176
     0
 40
1.0
176
     0
 90
        2
176
     1
  1
strokes_ogs.tif
176
     1
290
     0
176
     1
 40
1.0
176
     1
 40
1.0
176
     1
  0
VISUALSTYLE
  5
2C
102
{ACAD_REACTORS
330
29
102
}
330
29
100
AcDbVisualStyle
  2
Gouraud
 70
     2
177
     3
291
     1
 70
    58
 90
        2
176
     1
 90
        2
176
     1
 90
        1
176
     1
 90
        2
176
     1
 40
0.6
176
     1
 40
30.0
176
     1
 62
     7
420
 16777215
176
     1
 90
        0
176
     1
 90
        0
176
     1
 62
     7
176
     1
 62
   257
176
     1
 90
        1
176
     1
 90
        1
176
     1
 40
1.0
176
     1
 90
        0
176
     1
 62
     7
176
     1
 40
1.0
176
     1
 90
        1
176
     1
 90
        6
176
     1
 90
        2
176
     1
 62
     7
176
     1
 90
        5
176
     1
 90
        0
176
     1
 90
        0
176
     1
290
     0
176
     1
 90
       13
176
     1
 40
0.0
176
     1
 90
        0
176
     1
290
     0
176
     1
290
     1
176
     1
290
     1
176
     1
290
     0
176
     1
290
     0
176
     1
290
     0
176
     1
290
     0
176
     1
290
     0
176
     1
290
     0
176
     1
 90
       50
176
     1
 40
0.0
176
     1
 40
1.0
176
     1
 90
        0
176
     1
 62
    18
420
        0
176
     1
 90
       50
176
     1
 90
        3
176
     1
 62
     5
420
      255
176
     1
290
     0
176
     1
 90
       50
176
     1
 90
       50
176
     1
 90
       50
176
     1
290
     0
176
     1
 90
       50
176
     1
 62
   256
176
     0
 40
1.0
176
     0
 90
        2
176
     1
  1
strokes_ogs.tif
176
     1
290
     0
176
     1
 40
1.0
176
     1
 40
1.0
176
     1
  0
VISUALSTYLE
  5
2D
102
{ACAD_REACTORS
330
29
102
}
330
29
100
AcDbVisualStyle
  2
GouraudWithEdges
 70
     3
177
     3
291
     1
 70
    58
 90
        2
176
     1
 90
        2
176
     1
 90
        1
176
     1
 90
        2
176
     1
 40
0.6
176
     1
 40
30.0
176
     1
 62
     7
420
 16777215
176
     1
 90
        1
176
     1
 90
        0
176
     1
 62
     7
176
     1
 62
   257
176
     1
 90
        1
176
     1
 90
        1
176
     1
 40
1.0
176
     1
 90
        0
176
     1
 62
   257
176
     1
 40
1.0
176
     1
 90
        1
176
     1
 90
        6
176
     1
 90
        2
176
     1
 62
     7
176
     1
 90
        5
176
     1
 90
        0
176
     1
 90
        0
176
     1
290
     0
176
     1
 90
       13
176
     1
 40
0.0
176
     1
 90
        0
176
     1
290
     0
176
     1
290
     1
176
     1
290
     1
176
     1
290
     0
176
     1
290
     0
176
     1
290
     0
176
     1
290
     0
176
     1
290
     0
176
     1
290
     0
176
     1
 90
       50
176
     1
 40
0.0
176
     1
 40
1.0
176
     1
 90
        0
176
     1
 62
    18
420
        0
176
     1
 90
       50
176
     1
 90
        3
176
     1
 62
     5
420
      255
176
     1
290
     0
176
     1
 90
       50
176
     1
 90
       50
176
     1
 90
       50
176
     1
290
     0
176
     1
 90
       50
176
     1
 62
   256
176
     0
 40
1.0
176
     0
 90
        2
176
     1
  1
strokes_ogs.tif
176
     1
290
     0
176
     1
 40
1.0
176
     1
 40
1.0
176
     1
  0
VISUALSTYLE
  5
31
102
{ACAD_REACTORS
330
29
102
}
330
29
100
AcDbVisualStyle
  2
Hidden
 70
     6
177
     3
291
     0
 70
    58
 90
        1
176
     1
 90
        2
176
     1
 90
        2
176
     1
 90
        0
176
     1
 40
0.6
176
     1
 40
30.0
176
     1
 62
     7
420
 16777215
176
     1
 90
        2
176
     1
 90
        2
176
     1
 62
     7
176
     1
 62
   257
176
     1
 90
        2
176
     1
 90
        1
176
     1
 40
40.0
176
     1
 90
        0
176
     1
 62
   257
176
     1
 40
1.0
176
     1
 90
        1
176
     1
 90
        6
176
     1
 90
        2
176
     1
 62
     7
176
     1
 90
        3
176
     1
 90
        0
176
     1
 90
        0
176
     1
290
     0
176
     1
 90
        1
176
     1
 40
0.0
176
     1
 90
        0
176
     1
290
     0
176
     1
290
     1
176
     1
290
     1
176
     1
290
     0
176
     1
290
     0
176
     1
290
     0
176
     1
290
     0
176
     1
290
     0
176
     1
290
     0
176
     1
 90
       50
176
     1
 40
0.0
176
     1
 40
1.0
176
     1
 90
        0
176
     1
 62
    18
420
        0
176
     1
 90
       50
176
     1
 90
        3
176
     1
 62
     5
420
      255
176
     1
290
     0
176
     1
 90
       50
176
     1
 90
       50
176
     1
 90
       50
176
     1
290
     0
176
     1
 90
       50
176
     1
 62
   256
176
     0
 40
1.0
176
     0
 90
        2
176
     1
  1
strokes_ogs.tif
176
     1
290
     0
176
     1
 40
1.0
176
     1
 40
1.0
176
     1
  0
VISUALSTYLE
  5
3F
102
{ACAD_REACTORS
330
29
102
}
330
29
100
AcDbVisualStyle
  2
JitterOff
 70
    20
177
     3
291
     1
 70
    58
 90
        2
176
     0
 90
        2
176
     0
 90
        0
176
     0
 90
        0
176
     0
 40
0.6
176
     0
 40
30.0
176
     0
 62
     7
420
 16777215
176
     0
 90
        1
176
     0
 90
        4
176
     0
 62
     7
176
     0
 62
   257
176
     0
 90
        1
176
     0
 90
        1
176
     0
 40
1.0
176
     0
 90
       10
176
     2
 62
     7
176
     0
 40
1.0
176
     0
 90
        1
176
     0
 90
        6
176
     0
 90
        2
176
     0
 62
     7
176
     0
 90
        5
176
     0
 90
        0
176
     0
 90
        0
176
     0
290
     0
176
     0
 90
        1
176
     0
 40
0.0
176
     0
 90
        0
176
     0
290
     0
176
     0
290
     1
176
     0
290
     1
176
     0
290
     0
176
     0
290
     0
176
     0
290
     0
176
     0
290
     0
176
     0
290
     0
176
     0
290
     0
176
     0
 90
       50
176
     0
 40
0.0
176
     0
 40
1.0
176
     0
 90
        0
176
     0
 62
    18
420
        0
176
     0
 90
       50
176
     0
 90
        3
176
     0
 62
     5
420
      255
176
     0
290
     0
176
     0
 90
       50
176
     0
 90
       50
176
     0
 90
       50
176
     0
290
     0
176
     0
 90
       50
176
     0
 62
   256
176
     0
 40
1.0
176
     0
 90
        2
176
     0
  1
strokes_ogs.tif
176
     0
290
     0
176
     0
 40
1.0
176
     0
 40
1.0
176
     0
  0
VISUALSTYLE
  5
37
102
{ACAD_REACTORS
330
29
102
}
330
29
100
AcDbVisualStyle
  2
Linepattern
 70
    14
177
     3
291
     1
 70
    58
 90
        2
176
     1
 90
        2
176
     1
 90
        0
176
     1
 90
        0
176
     1
 40
0.6
176
     1
 40
30.0
176
     1
 62
     7
420
 16777215
176
     1
 90
        1
176
     1
 90
        4
176
     1
 62
     7
176
     1
 62
   257
176
     1
 90
        7
176
     1
 90
        7
176
     1
 40
1.0
176
     1
 90
        8
176
     1
 62
     7
176
     1
 40
1.0
176
     1
 90
        1
176
     1
 90
        6
176
     1
 90
        2
176
     1
 62
     7
176
     1
 90
        5
176
     1
 90
        0
176
     1
 90
        0
176
     1
290
     0
176
     1
 90
        1
176
     1
 40
0.0
176
     1
 90
        0
176
     1
290
     0
176
     1
290
     1
176
     1
290
     1
176
     1
290
     0
176
     1
290
     0
176
     1
290
     0
176
     1
290
     0
176
     1
290
     0
176
     1
290
     0
176
     1
 90
       50
176
     1
 40
0.0
176
     1
 40
1.0
176
     1
 90
        0
176
     1
 62
    18
420
        0
176
     1
 90
       50
176
     1
 90
        3
176
     1
 62
     5
420
      255
176
     1
290
     0
176
     1
 90
       50
176
     1
 90
       50
176
     1
 90
       50
176
     1
290
     0
176
     1
 90
       50
176
     1
 62
   256
176
     0
 40
1.0
176
     0
 90
        2
176
     1
  1
strokes_ogs.tif
176
     1
290
     0
176
     1
 40
1.0
176
     1
 40
1.0
176
     1
  0
VISUALSTYLE
  5
40
102
{ACAD_REACTORS
330
29
102
}
330
29
100
AcDbVisualStyle
  2
OverhangOff
 70
    21
177
     3
291
     1
 70
    58
 90
        2
176
     0
 90
        2
176
     0
 90
        0
176
     0
 90
        0
176
     0
 40
0.6
176
     0
 40
30.0
176
     0
 62
     7
420
 16777215
176
     0
 90
        1
176
     0
 90
        4
176
     0
 62
     7
176
     0
 62
   257
176
     0
 90
        1
176
     0
 90
        1
176
     0
 40
1.0
176
     0
 90
        9
176
     2
 62
     7
176
     0
 40
1.0
176
     0
 90
        1
176
     0
 90
        6
176
     0
 90
        2
176
     0
 62
     7
176
     0
 90
        5
176
     0
 90
        0
176
     0
 90
        0
176
     0
290
     0
176
     0
 90
        1
176
     0
 40
0.0
176
     0
 90
        0
176
     0
290
     0
176
     0
290
     1
176
     0
290
     1
176
     0
290
     0
176
     0
290
     0
176
     0
290
     0
176
     0
290
     0
176
     0
290
     0
176
     0
290
     0
176
     0
 90
       50
176
     0
 40
0.0
176
     0
 40
1.0
176
     0
 90
        0
176
     0
 62
    18
420
        0
176
     0
 90
       50
176
     0
 90
        3
176
     0
 62
     5
420
      255
176
     0
290
     0
176
     0
 90
       50
176
     0
 90
       50
176
     0
 90
       50
176
     0
290
     0
176
     0
 90
       50
176
     0
 62
   256
176
     0
 40
1.0
176
     0
 90
        2
176
     0
  1
strokes_ogs.tif
176
     0
290
     0
176
     0
 40
1.0
176
     0
 40
1.0
176
     0
  0
VISUALSTYLE
  5
33
102
{ACAD_REACTORS
330
29
102
}
330
29
100
AcDbVisualStyle
  2
Realistic
 70
     8
177
     3
291
     0
 70
    58
 90
        2
176
     1
 90
        3
176
     1
 90
        0
176
     1
 90
        2
176
     1
 40
0.6
176
     1
 40
30.0
176
     1
 62
     7
420
 16777215
176
     1
 90
        0
176
     1
 90
        0
176
     1
 62
     7
176
     1
 62
   257
176
     1
 90
        1
176
     1
 90
        1
176
     1
 40
1.0
176
     1
 90
        8
176
     1
 62
   257
176
     1
 40
1.0
176
     1
 90
        1
176
     1
 90
        6
176
     1
 90
        2
176
     1
 62
     7
176
     1
 90
        3
176
     1
 90
        0
176
     1
 90
        0
176
     1
290
     0
176
     1
 90
       13
176
     1
 40
0.0
176
     1
 90
        0
176
     1
290
     0
176
     1
290
     1
176
     1
290
     1
176
     1
290
     0
176
     1
290
     0
176
     1
290
     0
176
     1
290
     0
176
     1
290
     0
176
     1
290
     0
176
     1
 90
       50
176
     1
 40
0.0
176
     1
 40
1.0
176
     1
 90
        0
176
     1
 62
    18
420
        0
176
     1
 90
       50
176
     1
 90
        3
176
     1
 62
     5
420
      255
176
     1
290
     0
176
     1
 90
       50
176
     1
 90
       50
176
     1
 90
       50
176
     1
290
     0
176
     1
 90
       50
176
     1
 62
   256
176
     0
 40
1.0
176
     0
 90
        2
176
     1
  1
strokes_ogs.tif
176
     1
290
     0
176
     1
 40
1.0
176
     1
 40
1.0
176
     1
  0
VISUALSTYLE
  5
3E
102
{ACAD_REACTORS
330
29
102
}
330
29
100
AcDbVisualStyle
  2
Shaded
 70
    27
177
     3
291
     0
 70
    58
 90
        2
176
     1
 90
        2
176
     1
 90
        1
176
     1
 90
        2
176
     1
 40
0.6
176
     1
 40
30.0
176
     1
 62
     7
420
 16777215
176
     1
 90
        0
176
     1
 90
        4
176
     1
 62
     7
176
     1
 62
   257
176
     1
 90
        1
176
     1
 90
        1
176
     1
 40
1.0
176
     1
 90
        8
176
     1
 62
   257
176
     1
 40
1.0
176
     1
 90
        1
176
     1
 90
        6
176
     1
 90
        2
176
     1
 62
     8
420
  7895160
176
     1
 90
        3
176
     1
 90
        0
176
     1
 90
        0
176
     1
290
     0
176
     1
 90
        5
176
     1
 40
0.0
176
     1
 90
        0
176
     1
290
     0
176
     1
290
     1
176
     1
290
     1
176
     1
290
     0
176
     1
290
     0
176
     1
290
     0
176
     1
290
     0
176
     1
290
     0
176
     1
290
     0
176
     1
 90
       50
176
     1
 40
0.0
176
     1
 40
1.0
176
     1
 90
        0
176
     1
 62
    18
420
        0
176
     1
 90
       50
176
     1
 90
        3
176
     1
 62
     5
420
      255
176
     1
290
     0
176
     1
 90
       50
176
     1
 90
       50
176
     1
 90
       50
176
     1
290
     0
176
     1
 90
       50
176
     1
 62
   256
176
     0
 40
1.0
176
     0
 90
        2
176
     1
  1
strokes_ogs.tif
176
     1
290
     0
176
     1
 40
1.0
176
     1
 40
1.0
176
     1
  0
VISUALSTYLE
  5
3D
102
{ACAD_REACTORS
330
29
102
}
330
29
100
AcDbVisualStyle
  2
Shaded with edges
 70
    26
177
     3
291
     0
 70
    58
 90
        2
176
     1
 90
        2
176
     1
 90
        1
176
     1
 90
        2
176
     1
 40
0.6
176
     1
 40
30.0
176
     1
 62
     7
420
 16777215
176
     1
 90
        1
176
     1
 90
       10
176
     1
 62
     7
176
     1
 62
   257
176
     1
 90
        2
176
     1
 90
        1
176
     1
 40
1.0
176
     1
 90
        8
176
     1
 62
   257
176
     1
 40
1.0
176
     1
 90
        1
176
     1
 90
        6
176
     1
 90
        2
176
     1
 62
     7
176
     1
 90
        3
176
     1
 90
        0
176
     1
 90
        0
176
     1
290
     0
176
     1
 90
        5
176
     1
 40
0.0
176
     1
 90
        0
176
     1
290
     0
176
     1
290
     1
176
     1
290
     1
176
     1
290
     0
176
     1
290
     0
176
     1
290
     0
176
     1
290
     0
176
     1
290
     0
176
     1
290
     0
176
     1
 90
       50
176
     1
 40
0.0
176
     1
 40
1.0
176
     1
 90
        0
176
     1
 62
    18
420
        0
176
     1
 90
       50
176
     1
 90
        3
176
     1
 62
     5
420
      255
176
     1
290
     0
176
     1
 90
       50
176
     1
 90
       50
176
     1
 90
       50
176
     1
290
     0
176
     1
 90
       50
176
     1
 62
   256
176
     0
 40
1.0
176
     0
 90
        2
176
     1
  1
strokes_ogs.tif
176
     1
290
     0
176
     1
 40
1.0
176
     1
 40
1.0
176
     1
  0
VISUALSTYLE
  5
3A
102
{ACAD_REACTORS
330
29
102
}
330
29
100
AcDbVisualStyle
  2
Shades of Gray
 70
    23
177
     3
291
     0
 70
    58
 90
        2
176
     1
 90
        2
176
     1
 90
        3
176
     1
 90
        0
176
     1
 40
0.6
176
     1
 40
30.0
176
     1
 62
     7
420
 16777215
176
     1
 90
        2
176
     1
 90
        2
176
     1
 62
     7
176
     1
 62
     7
176
     1
 90
        1
176
     1
 90
        1
176
     1
 40
40.0
176
     1
 90
        8
176
     1
 62
     7
176
     1
 40
1.0
176
     1
 90
        1
176
     1
 90
        6
176
     1
 90
        2
176
     1
 62
     7
176
     1
 90
        3
176
     1
 90
        0
176
     1
 90
        0
176
     1
290
     0
176
     1
 90
        1
176
     1
 40
0.0
176
     1
 90
        0
176
     1
290
     0
176
     1
290
     1
176
     1
290
     1
176
     1
290
     0
176
     1
290
     0
176
     1
290
     0
176
     1
290
     0
176
     1
290
     0
176
     1
290
     0
176
     1
 90
       50
176
     1
 40
0.0
176
     1
 40
1.0
176
     1
 90
        0
176
     1
 62
    18
420
        0
176
     1
 90
       50
176
     1
 90
        3
176
     1
 62
     5
420
      255
176
     1
290
     0
176
     1
 90
       50
176
     1
 90
       50
176
     1
 90
       50
176
     1
290
     0
176
     1
 90
       50
176
     1
 62
   256
176
     0
 40
1.0
176
     0
 90
        2
176
     1
  1
strokes_ogs.tif
176
     1
290
     0
176
     1
 40
1.0
176
     1
 40
1.0
176
     1
  0
VISUALSTYLE
  5
3B
102
{ACAD_REACTORS
330
29
102
}
330
29
100
AcDbVisualStyle
  2
Sketchy
 70
    24
177
     3
291
     0
 70
    58
 90
        1
176
     1
 90
        2
176
     1
 90
        2
176
     1
 90
        0
176
     1
 40
0.6
176
     1
 40
30.0
176
     1
 62
     7
420
 16777215
176
     1
 90
        2
176
     1
 90
        2
176
     1
 62
     7
176
     1
 62
     7
176
     1
 90
        1
176
     1
 90
        1
176
     1
 40
40.0
176
     1
 90
       11
176
     1
 62
     7
176
     1
 40
1.0
176
     1
 90
        1
176
     1
 90
        6
176
     1
 90
        2
176
     1
 62
     7
176
     1
 90
        6
176
     1
 90
        0
176
     1
 90
        0
176
     1
290
     0
176
     1
 90
        1
176
     1
 40
0.0
176
     1
 90
        0
176
     1
290
     0
176
     1
290
     1
176
     1
290
     1
176
     1
290
     0
176
     1
290
     0
176
     1
290
     0
176
     1
290
     0
176
     1
290
     0
176
     1
290
     0
176
     1
 90
       50
176
     1
 40
0.0
176
     1
 40
1.0
176
     1
 90
        0
176
     1
 62
    18
420
        0
176
     1
 90
       50
176
     1
 90
        3
176
     1
 62
     5
420
      255
176
     1
290
     0
176
     1
 90
       50
176
     1
 90
       50
176
     1
 90
       50
176
     1
290
     0
176
     1
 90
       50
176
     1
 62
   256
176
     0
 40
1.0
176
     0
 90
        2
176
     1
  1
strokes_ogs.tif
176
     1
290
     0
176
     1
 40
1.0
176
     1
 40
1.0
176
     1
  0
VISUALSTYLE
  5
36
102
{ACAD_REACTORS
330
29
102
}
330
29
100
AcDbVisualStyle
  2
Thicken
 70
    13
177
     3
291
     1
 70
    58
 90
        2
176
     1
 90
        2
176
     1
 90
        0
176
     1
 90
        0
176
     1
 40
0.6
176
     1
 40
30.0
176
     1
 62
     7
420
 16777215
176
     1
 90
        1
176
     1
 90
        4
176
     1
 62
     7
176
     1
 62
   257
176
     1
 90
        1
176
     1
 90
        1
176
     1
 40
1.0
176
     1
 90
       12
176
     1
 62
     7
176
     1
 40
1.0
176
     1
 90
        1
176
     1
 90
        6
176
     1
 90
        2
176
     1
 62
     7
176
     1
 90
        5
176
     1
 90
        0
176
     1
 90
        0
176
     1
290
     0
176
     1
 90
        1
176
     1
 40
0.0
176
     1
 90
        0
176
     1
290
     0
176
     1
290
     1
176
     1
290
     1
176
     1
290
     0
176
     1
290
     0
176
     1
290
     0
176
     1
290
     0
176
     1
290
     0
176
     1
290
     0
176
     1
 90
       50
176
     1
 40
0.0
176
     1
 40
1.0
176
     1
 90
        0
176
     1
 62
    18
420
        0
176
     1
 90
       50
176
     1
 90
        3
176
     1
 62
     5
420
      255
176
     1
290
     0
176
     1
 90
       50
176
     1
 90
       50
176
     1
 90
       50
176
     1
290
     0
176
     1
 90
       50
176
     1
 62
   256
176
     0
 40
1.0
176
     0
 90
        2
176
     1
  1
strokes_ogs.tif
176
     1
290
     0
176
     1
 40
1.0
176
     1
 40
1.0
176
     1
  0
VISUALSTYLE
  5
30
102
{ACAD_REACTORS
330
29
102
}
330
29
100
AcDbVisualStyle
  2
Wireframe
 70
     5
177
     3
291
     0
 70
    58
 90
        0
176
     1
 90
        2
176
     1
 90
        0
176
     1
 90
        0
176
     1
 40
0.6
176
     1
 40
30.0
176
     1
 62
     7
420
 16777215
176
     1
 90
        1
176
     1
 90
        4
176
     1
 62
     7
176
     1
 62
   257
176
     1
 90
        1
176
     1
 90
        1
176
     1
 40
1.0
176
     1
 90
        0
176
     1
 62
   257
176
     1
 40
1.0
176
     1
 90
        1
176
     1
 90
        6
176
     1
 90
        2
176
     1
 62
     7
176
     1
 90
        3
176
     1
 90
        0
176
     1
 90
        0
176
     1
290
     0
176
     1
 90
        1
176
     1
 40
0.0
176
     1
 90
        0
176
     1
290
     0
176
     1
290
     1
176
     1
290
     1
176
     1
290
     0
176
     1
290
     0
176
     1
290
     0
176
     1
290
     0
176
     1
290
     0
176
     1
290
     0
176
     1
 90
       50
176
     1
 40
0.0
176
     1
 40
1.0
176
     1
 90
        0
176
     1
 62
    18
420
        0
176
     1
 90
       50
176
     1
 90
        3
176
     1
 62
     5
420
      255
176
     1
290
     0
176
     1
 90
       50
176
     1
 90
       50
176
     1
 90
       50
176
     1
290
     0
176
     1
 90
       50
176
     1
 62
   256
176
     0
 40
1.0
176
     0
 90
        2
176
     1
  1
strokes_ogs.tif
176
     1
290
     0
176
     1
 40
1.0
176
     1
 40
1.0
176
     1
  0
VISUALSTYLE
  5
3C
102
{ACAD_REACTORS
330
29
102
}
330
29
100
AcDbVisualStyle
  2
X-Ray
 70
    25
177
     3
291
     0
 70
    58
 90
        2
176
     1
 90
        2
176
     1
 90
        1
176
     1
 90
        1
176
     1
 40
0.5
176
     1
 40
30.0
176
     1
 62
     7
420
 16777215
176
     1
 90
        1
176
     1
 90
        0
176
     1
 62
     7
176
     1
 62
   257
176
     1
 90
        1
176
     1
 90
        1
176
     1
 40
1.0
176
     1
 90
        8
176
     1
 62
     7
176
     1
 40
1.0
176
     1
 90
        1
176
     1
 90
        6
176
     1
 90
        2
176
     1
 62
     7
176
     1
 90
        3
176
     1
 90
        0
176
     1
 90
        0
176
     1
290
     0
176
     1
 90
       13
176
     1
 40
0.0
176
     1
 90
        0
176
     1
290
     0
176
     1
290
     1
176
     1
290
     1
176
     1
290
     0
176
     1
290
     0
176
     1
290
     0
176
     1
290
     0
176
     1
290
     0
176
     1
290
     0
176
     1
 90
       50
176
     1
 40
0.0
176
     1
 40
1.0
176
     1
 90
        0
176
     1
 62
    18
420
        0
176
     1
 90
       50
176
     1
 90
        3
176
     1
 62
     5
420
      255
176
     1
290
     0
176
     1
 90
       50
176
     1
 90
       50
176
     1
 90
       50
176
     1
290
     0
176
     1
 90
       50
176
     1
 62
   256
176
     0
 40
1.0
176
     0
 90
        2
176
     1
  1
strokes_ogs.tif
176
     1
290
     0
176
     1
 40
1.0
176
     1
 40
1.0
176
     1
  0
DICTIONARYVAR
  5
81
102
{ACAD_REACTORS
330
7C
102
}
330
7C
100
DictionaryVariables
280
     0
  1
1:1
  0
DICTIONARYVAR
  5
7E
102
{ACAD_REACTORS
330
7C
102
}
330
7C
100
DictionaryVariables
280
     0
  1
STANDARD
  0
DICTIONARYVAR
  5
7D
102
{ACAD_REACTORS
330
7C
102
}
330
7C
100
DictionaryVariables
280
     0
  1
STANDARD
  0
DICTIONARYVAR
  5
7F
102
{ACAD_REACTORS
330
7C
102
}
330
7C
100
DictionaryVariables
280
     0
  1
Imperial24
  0
DICTIONARYVAR
  5
80
102
{ACAD_REACTORS
330
7C
102
}
330
7C
100
DictionaryVariables
280
     0
  1
Imperial24
  0
XRECORD
  5
30F
102
{ACAD_REACTORS
330
30B
102
}
330
30B
100
AcDbXrecord
280
     1
  1
BUILDING_ID
  1
Progetto per messa in tavola DXF, DWG
  1
FLOOR_ID
  1
694395
  0
XRECORD
  5
30D
102
{ACAD_REACTORS
330
30B
102
}
330
30B
100
AcDbXrecord
280
     1
  1
-2008055
  1
Accessorio per tubazioni
  0
XRECORD
  5
30E
102
{ACAD_REACTORS
330
30B
102
}
330
30B
100
AcDbXrecord
280
     1
  1
790271
  1
Body
  1
973634
  1
Insulation
  0
XRECORD
  5
30C
102
{ACAD_REACTORS
330
30B
102
}
330
30B
100
AcDbXrecord
280
     1
  1
975047
  1
Automatic flow rate regulator valve_Caleffi_121 DN15 : 3/4''_Insulation
  0
DICTIONARY
  5
1A
330
19
100
AcDbDictionary
280
     1
281
     1
  3
BUMPTILE
360
1C
  3
DIFFUSETILE
360
1B
  3
OPACITYTILE
360
1F
  3
REFLECTIONTILE
360
1E
  3
REFRACTIONTILE
360
20
  3
SPECULARTILE
360
1D
  0
DICTIONARY
  5
12
330
11
100
AcDbDictionary
280
     1
281
     1
  3
BUMPTILE
360
14
  3
DIFFUSETILE
360
13
  3
OPACITYTILE
360
17
  3
REFLECTIONTILE
360
16
  3
REFRACTIONTILE
360
18
  3
SPECULARTILE
360
15
  0
DICTIONARY
  5
22
330
21
100
AcDbDictionary
280
     1
281
     1
  3
BUMPTILE
360
24
  3
DIFFUSETILE
360
23
  3
OPACITYTILE
360
27
  3
REFLECTIONTILE
360
26
  3
REFRACTIONTILE
360
28
  3
SPECULARTILE
360
25
  0
DICTIONARY
  5
312
330
65
100
AcDbDictionary
280
     1
281
     1
  3
ACAD_ROUNDTRIP_2008_TABLESTYLE_CELLSTYLEMAP
360
313
  0
XRECORD
  5
1C
102
{ACAD_REACTORS
330
1A
102
}
330
1A
100
AcDbXrecord
280
     1
270
     1
271
     1
  0
XRECORD
  5
1B
102
{ACAD_REACTORS
330
1A
102
}
330
1A
100
AcDbXrecord
280
     1
270
     1
271
     1
  0
XRECORD
  5
1F
102
{ACAD_REACTORS
330
1A
102
}
330
1A
100
AcDbXrecord
280
     1
270
     1
271
     1
  0
XRECORD
  5
1E
102
{ACAD_REACTORS
330
1A
102
}
330
1A
100
AcDbXrecord
280
     1
270
     1
271
     1
  0
XRECORD
  5
20
102
{ACAD_REACTORS
330
1A
102
}
330
1A
100
AcDbXrecord
280
     1
270
     1
271
     1
  0
XRECORD
  5
1D
102
{ACAD_REACTORS
330
1A
102
}
330
1A
100
AcDbXrecord
280
     1
270
     1
271
     1
  0
XRECORD
  5
14
102
{ACAD_REACTORS
330
12
102
}
330
12
100
AcDbXrecord
280
     1
270
     1
271
     1
  0
XRECORD
  5
13
102
{ACAD_REACTORS
330
12
102
}
330
12
100
AcDbXrecord
280
     1
270
     1
271
     1
  0
XRECORD
  5
17
102
{ACAD_REACTORS
330
12
102
}
330
12
100
AcDbXrecord
280
     1
270
     1
271
     1
  0
XRECORD
  5
16
102
{ACAD_REACTORS
330
12
102
}
330
12
100
AcDbXrecord
280
     1
270
     1
271
     1
  0
XRECORD
  5
18
102
{ACAD_REACTORS
330
12
102
}
330
12
100
AcDbXrecord
280
     1
270
     1
271
     1
  0
XRECORD
  5
15
102
{ACAD_REACTORS
330
12
102
}
330
12
100
AcDbXrecord
280
     1
270
     1
271
     1
  0
XRECORD
  5
24
102
{ACAD_REACTORS
330
22
102
}
330
22
100
AcDbXrecord
280
     1
270
     1
271
     1
  0
XRECORD
  5
23
102
{ACAD_REACTORS
330
22
102
}
330
22
100
AcDbXrecord
280
     1
270
     1
271
     1
  0
XRECORD
  5
27
102
{ACAD_REACTORS
330
22
102
}
330
22
100
AcDbXrecord
280
     1
270
     1
271
     1
  0
XRECORD
  5
26
102
{ACAD_REACTORS
330
22
102
}
330
22
100
AcDbXrecord
280
     1
270
     1
271
     1
  0
XRECORD
  5
28
102
{ACAD_REACTORS
330
22
102
}
330
22
100
AcDbXrecord
280
     1
270
     1
271
     1
  0
XRECORD
  5
25
102
{ACAD_REACTORS
330
22
102
}
330
22
100
AcDbXrecord
280
     1
270
     1
271
     1
  0
CELLSTYLEMAP
  5
313
102
{ACAD_REACTORS
330
312
102
}
330
312
100
AcDbCellStyleMap
 90
        3
300
CELLSTYLE
  1
TABLEFORMAT_BEGIN
 90
        5
170
     1
 91
        0
 92
    32768
 62
   257
 93
        1
300
CONTENTFORMAT
  1
CONTENTFORMAT_BEGIN
 90
        0
 91
        0
 92
      512
 93
        0
300

 40
0.0
140
1.0
 94
        5
 62
     0
340
55
144
0.25
309
CONTENTFORMAT_END
171
     0
 94
        0
309
TABLEFORMAT_END
  1
CELLSTYLE_BEGIN
 90
        1
 91
        1
300
_TITLE
309
CELLSTYLE_END
300
CELLSTYLE
  1
TABLEFORMAT_BEGIN
 90
        5
170
     1
 91
        0
 92
        0
 62
   257
 93
        1
300
CONTENTFORMAT
  1
CONTENTFORMAT_BEGIN
 90
        0
 91
        0
 92
      512
 93
        0
300

 40
0.0
140
1.0
 94
        5
 62
     0
340
55
144
0.18
309
CONTENTFORMAT_END
171
     0
 94
        0
309
TABLEFORMAT_END
  1
CELLSTYLE_BEGIN
 90
        2
 91
        1
300
_HEADER
309
CELLSTYLE_END
300
CELLSTYLE
  1
TABLEFORMAT_BEGIN
 90
        5
170
     1
 91
        0
 92
        0
 62
   257
 93
        1
300
CONTENTFORMAT
  1
CONTENTFORMAT_BEGIN
 90
        0
 91
        0
 92
      512
 93
        0
300

 40
0.0
140
1.0
 94
        2
 62
     0
340
55
144
0.18
309
CONTENTFORMAT_END
171
     0
 94
        0
309
TABLEFORMAT_END
  1
CELLSTYLE_BEGIN
 90
        3
 91
        2
300
_DATA
309
CELLSTYLE_END
  0
ENDSEC
  0
EOF
