  0
SECTION
  2
HEADER
  9
$ACADVER
  1
AC1027
  9
$ACADMAINTVER
 70
    20
  9
$DWGCODEPAGE
  3
ANSI_1252
  9
$REQUIREDVERSIONS
160
                 0
  9
$INSBASE
 10
0.0
 20
0.0
 30
0.0
  9
$EXTMIN
 10
675.6619254977479
 20
1606.120872478304
 30
-0.00000001
  9
$EXTMAX
 10
1189.739374781822
 20
2110.496093962021
 30
0.00000001
  9
$LIMMIN
 10
0.0
 20
0.0
  9
$LIMMAX
 10
12.0
 20
9.0
  9
$ORTHOMODE
 70
     0
  9
$REGENMODE
 70
     1
  9
$FILLMODE
 70
     1
  9
$QTEXTMODE
 70
     0
  9
$MIRRTEXT
 70
     0
  9
$LTSCALE
 40
1.0
  9
$ATTMODE
 70
     1
  9
$TEXTSIZE
 40
0.2
  9
$TRACEWID
 40
0.05
  9
$TEXTSTYLE
  7
Standard
  9
$CLAYER
  8
0
  9
$CELTYPE
  6
ByLayer
  9
$CECOLOR
 62
   256
  9
$CELTSCALE
 40
1.0
  9
$DISPSILH
 70
     0
  9
$DIMSCALE
 40
1.0
  9
$DIMASZ
 40
0.18
  9
$DIMEXO
 40
0.0625
  9
$DIMDLI
 40
0.38
  9
$DIMRND
 40
0.0
  9
$DIMDLE
 40
0.0
  9
$DIMEXE
 40
0.18
  9
$DIMTP
 40
0.0
  9
$DIMTM
 40
0.0
  9
$DIMTXT
 40
0.18
  9
$DIMCEN
 40
0.09
  9
$DIMTSZ
 40
0.0
  9
$DIMTOL
 70
     0
  9
$DIMLIM
 70
     0
  9
$DIMTIH
 70
     1
  9
$DIMTOH
 70
     1
  9
$DIMSE1
 70
     0
  9
$DIMSE2
 70
     0
  9
$DIMTAD
 70
     0
  9
$DIMZIN
 70
     0
  9
$DIMBLK
  1

  9
$DIMASO
 70
     1
  9
$DIMSHO
 70
     1
  9
$DIMPOST
  1

  9
$DIMAPOST
  1

  9
$DIMALT
 70
     0
  9
$DIMALTD
 70
     2
  9
$DIMALTF
 40
25.4
  9
$DIMLFAC
 40
1.0
  9
$DIMTOFL
 70
     0
  9
$DIMTVP
 40
0.0
  9
$DIMTIX
 70
     0
  9
$DIMSOXD
 70
     0
  9
$DIMSAH
 70
     0
  9
$DIMBLK1
  1

  9
$DIMBLK2
  1

  9
$DIMSTYLE
  2
Standard
  9
$DIMCLRD
 70
     0
  9
$DIMCLRE
 70
     0
  9
$DIMCLRT
 70
     0
  9
$DIMTFAC
 40
1.0
  9
$DIMGAP
 40
0.09
  9
$DIMJUST
 70
     0
  9
$DIMSD1
 70
     0
  9
$DIMSD2
 70
     0
  9
$DIMTOLJ
 70
     1
  9
$DIMTZIN
 70
     0
  9
$DIMALTZ
 70
     0
  9
$DIMALTTZ
 70
     0
  9
$DIMUPT
 70
     0
  9
$DIMDEC
 70
     4
  9
$DIMTDEC
 70
     4
  9
$DIMALTU
 70
     2
  9
$DIMALTTD
 70
     2
  9
$DIMTXSTY
  7
Standard
  9
$DIMAUNIT
 70
     0
  9
$DIMADEC
 70
     0
  9
$DIMALTRND
 40
0.0
  9
$DIMAZIN
 70
     0
  9
$DIMDSEP
 70
    46
  9
$DIMATFIT
 70
     3
  9
$DIMFRAC
 70
     0
  9
$DIMLDRBLK
  1

  9
$DIMLUNIT
 70
     2
  9
$DIMLWD
 70
    -2
  9
$DIMLWE
 70
    -2
  9
$DIMTMOVE
 70
     0
  9
$DIMFXL
 40
1.0
  9
$DIMFXLON
 70
     0
  9
$DIMJOGANG
 40
0.7853981633974483
  9
$DIMTFILL
 70
     0
  9
$DIMTFILLCLR
 70
     0
  9
$DIMARCSYM
 70
     0
  9
$DIMLTYPE
  6

  9
$DIMLTEX1
  6

  9
$DIMLTEX2
  6

  9
$DIMTXTDIRECTION
 70
     0
  9
$LUNITS
 70
     2
  9
$LUPREC
 70
     4
  9
$SKETCHINC
 40
0.1
  9
$FILLETRAD
 40
0.0
  9
$AUNITS
 70
     0
  9
$AUPREC
 70
     0
  9
$MENU
  1
.
  9
$ELEVATION
 40
0.0
  9
$PELEVATION
 40
0.0
  9
$THICKNESS
 40
0.0
  9
$LIMCHECK
 70
     0
  9
$CHAMFERA
 40
0.0
  9
$CHAMFERB
 40
0.0
  9
$CHAMFERC
 40
0.0
  9
$CHAMFERD
 40
0.0
  9
$SKPOLY
 70
     0
  9
$TDCREATE
 40
2457589.392339803
  9
$TDUCREATE
 40
2457589.309006470
  9
$TDUPDATE
 40
2457589.392339803
  9
$TDUUPDATE
 40
2457589.309006470
  9
$TDINDWG
 40
0.0000212500
  9
$TDUSRTIMER
 40
0.0000212500
  9
$USRTIMER
 70
     1
  9
$ANGBASE
 50
0.0
  9
$ANGDIR
 70
     0
  9
$PDMODE
 70
     0
  9
$PDSIZE
 40
0.0
  9
$PLINEWID
 40
0.0
  9
$SPLFRAME
 70
     0
  9
$SPLINETYPE
 70
     6
  9
$SPLINESEGS
 70
     8
  9
$HANDSEED
  5
3E4
  9
$SURFTAB1
 70
     6
  9
$SURFTAB2
 70
     6
  9
$SURFTYPE
 70
     6
  9
$SURFU
 70
     6
  9
$SURFV
 70
     6
  9
$UCSBASE
  2

  9
$UCSNAME
  2

  9
$UCSORG
 10
0.0
 20
0.0
 30
0.0
  9
$UCSXDIR
 10
1.0
 20
0.0
 30
0.0
  9
$UCSYDIR
 10
0.0
 20
1.0
 30
0.0
  9
$UCSORTHOREF
  2

  9
$UCSORTHOVIEW
 70
     0
  9
$UCSORGTOP
 10
0.0
 20
0.0
 30
0.0
  9
$UCSORGBOTTOM
 10
0.0
 20
0.0
 30
0.0
  9
$UCSORGLEFT
 10
0.0
 20
0.0
 30
0.0
  9
$UCSORGRIGHT
 10
0.0
 20
0.0
 30
0.0
  9
$UCSORGFRONT
 10
0.0
 20
0.0
 30
0.0
  9
$UCSORGBACK
 10
0.0
 20
0.0
 30
0.0
  9
$PUCSBASE
  2

  9
$PUCSNAME
  2

  9
$PUCSORG
 10
0.0
 20
0.0
 30
0.0
  9
$PUCSXDIR
 10
1.0
 20
0.0
 30
0.0
  9
$PUCSYDIR
 10
0.0
 20
1.0
 30
0.0
  9
$PUCSORTHOREF
  2

  9
$PUCSORTHOVIEW
 70
     0
  9
$PUCSORGTOP
 10
0.0
 20
0.0
 30
0.0
  9
$PUCSORGBOTTOM
 10
0.0
 20
0.0
 30
0.0
  9
$PUCSORGLEFT
 10
0.0
 20
0.0
 30
0.0
  9
$PUCSORGRIGHT
 10
0.0
 20
0.0
 30
0.0
  9
$PUCSORGFRONT
 10
0.0
 20
0.0
 30
0.0
  9
$PUCSORGBACK
 10
0.0
 20
0.0
 30
0.0
  9
$USERI1
 70
     0
  9
$USERI2
 70
     0
  9
$USERI3
 70
     0
  9
$USERI4
 70
     0
  9
$USERI5
 70
     0
  9
$USERR1
 40
0.0
  9
$USERR2
 40
0.0
  9
$USERR3
 40
0.0
  9
$USERR4
 40
0.0
  9
$USERR5
 40
0.0
  9
$WORLDVIEW
 70
     1
  9
$SHADEDGE
 70
     3
  9
$SHADEDIF
 70
    70
  9
$TILEMODE
 70
     1
  9
$MAXACTVP
 70
    64
  9
$PINSBASE
 10
0.0
 20
0.0
 30
0.0
  9
$PLIMCHECK
 70
     0
  9
$PEXTMIN
 10
1.000000000000000E+20
 20
1.000000000000000E+20
 30
1.000000000000000E+20
  9
$PEXTMAX
 10
-1.000000000000000E+20
 20
-1.000000000000000E+20
 30
-1.000000000000000E+20
  9
$PLIMMIN
 10
0.0
 20
0.0
  9
$PLIMMAX
 10
12.0
 20
9.0
  9
$UNITMODE
 70
     0
  9
$VISRETAIN
 70
     1
  9
$PLINEGEN
 70
     0
  9
$PSLTSCALE
 70
     1
  9
$TREEDEPTH
 70
  3020
  9
$CMLSTYLE
  2
Standard
  9
$CMLJUST
 70
     0
  9
$CMLSCALE
 40
1.0
  9
$PROXYGRAPHICS
 70
     1
  9
$MEASUREMENT
 70
     1
  9
$CELWEIGHT
370
    -1
  9
$ENDCAPS
280
     0
  9
$JOINSTYLE
280
     0
  9
$LWDISPLAY
290
     0
  9
$INSUNITS
 70
     4
  9
$HYPERLINKBASE
  1

  9
$STYLESHEET
  1

  9
$XEDIT
290
     1
  9
$CEPSNTYPE
380
     0
  9
$PSTYLEMODE
290
     1
  9
$FINGERPRINTGUID
  2
{4FE34A9D-807B-42C6-8BA7-6BFB70AC09AE}
  9
$VERSIONGUID
  2
{D98CE07D-FDA4-48CB-B6B7-B8693B815B4D}
  9
$EXTNAMES
290
     1
  9
$PSVPSCALE
 40
0.0
  9
$OLESTARTUP
290
     0
  9
$SORTENTS
280
   127
  9
$INDEXCTL
280
     0
  9
$HIDETEXT
280
     1
  9
$XCLIPFRAME
280
     2
  9
$HALOGAP
280
     0
  9
$OBSCOLOR
 70
   257
  9
$OBSLTYPE
280
     0
  9
$INTERSECTIONDISPLAY
280
     0
  9
$INTERSECTIONCOLOR
 70
   257
  9
$DIMASSOC
280
     2
  9
$PROJECTNAME
  1

  9
$CAMERADISPLAY
290
     0
  9
$LENSLENGTH
 40
50.0
  9
$CAMERAHEIGHT
 40
0.0
  9
$STEPSPERSEC
 40
2.0
  9
$STEPSIZE
 40
6.0
  9
$3DDWFPREC
 40
2.0
  9
$PSOLWIDTH
 40
0.25
  9
$PSOLHEIGHT
 40
4.0
  9
$LOFTANG1
 40
1.570796326794896
  9
$LOFTANG2
 40
1.570796326794896
  9
$LOFTMAG1
 40
0.0
  9
$LOFTMAG2
 40
0.0
  9
$LOFTPARAM
 70
     7
  9
$LOFTNORMALS
280
     1
  9
$LATITUDE
 40
37.795
  9
$LONGITUDE
 40
-122.394
  9
$NORTHDIRECTION
 40
0.0
  9
$TIMEZONE
 70
 -8000
  9
$LIGHTGLYPHDISPLAY
280
     1
  9
$TILEMODELIGHTSYNCH
280
     1
  9
$CMATERIAL
347
11
  9
$SOLIDHIST
280
     0
  9
$SHOWHIST
280
     1
  9
$DWFFRAME
280
     2
  9
$DGNFRAME
280
     0
  9
$REALWORLDSCALE
290
     1
  9
$INTERFERECOLOR
 62
     1
  9
$INTERFEREOBJVS
345
33
  9
$INTERFEREVPVS
346
30
  9
$CSHADOW
280
     0
  9
$SHADOWPLANELOCATION
 40
0.0
  0
ENDSEC
  0
SECTION
  2
CLASSES
  0
CLASS
  1
ACDBDICTIONARYWDFLT
  2
AcDbDictionaryWithDefault
  3
ObjectDBX Classes
 90
        0
 91
        1
280
     0
281
     0
  0
CLASS
  1
MATERIAL
  2
AcDbMaterial
  3
ObjectDBX Classes
 90
     1153
 91
        3
280
     0
281
     0
  0
CLASS
  1
VISUALSTYLE
  2
AcDbVisualStyle
  3
ObjectDBX Classes
 90
     4095
 91
       24
280
     0
281
     0
  0
CLASS
  1
SCALE
  2
AcDbScale
  3
ObjectDBX Classes
 90
     1153
 91
       17
280
     0
281
     0
  0
CLASS
  1
TABLESTYLE
  2
AcDbTableStyle
  3
ObjectDBX Classes
 90
     4095
 91
        1
280
     0
281
     0
  0
CLASS
  1
MLEADERSTYLE
  2
AcDbMLeaderStyle
  3
ACDB_MLEADERSTYLE_CLASS
 90
     4095
 91
        1
280
     0
281
     0
  0
CLASS
  1
ACDBSECTIONVIEWSTYLE
  2
AcDbSectionViewStyle
  3
ObjectDBX Classes
 90
     1025
 91
        1
280
     0
281
     0
  0
CLASS
  1
ACDBDETAILVIEWSTYLE
  2
AcDbDetailViewStyle
  3
ObjectDBX Classes
 90
     1025
 91
        1
280
     0
281
     0
  0
CLASS
  1
RASTERVARIABLES
  2
AcDbRasterVariables
  3
ISM
 90
        0
 91
        1
280
     0
281
     0
  0
CLASS
  1
DICTIONARYVAR
  2
AcDbDictionaryVar
  3
ObjectDBX Classes
 90
        0
 91
        5
280
     0
281
     0
  0
CLASS
  1
CELLSTYLEMAP
  2
AcDbCellStyleMap
  3
ObjectDBX Classes
 90
     1152
 91
        2
280
     0
281
     0
  0
CLASS
  1
SORTENTSTABLE
  2
AcDbSortentsTable
  3
ObjectDBX Classes
 90
        0
 91
        1
280
     0
281
     0
  0
ENDSEC
  0
SECTION
  2
TABLES
  0
TABLE
  2
VPORT
  5
8
330
0
100
AcDbSymbolTable
 70
     1
  0
VPORT
  5
57
330
8
100
AcDbSymbolTableRecord
100
AcDbViewportTableRecord
  2
*Active
 70
     0
 10
0.0
 20
0.0
 11
1.0
 21
1.0
 12
932.7006501397852
 22
1858.308483220162
 13
0.0
 23
0.0
 14
1.0
 24
1.0
 15
0.0
 25
0.0
 16
0.0
 26
0.0
 36
1.0
 17
0.0
 27
0.0
 37
0.0
 40
504.3752214837166
 41
1.019236130934063
 42
50.0
 43
0.0
 44
0.0
 50
0.0
 51
0.0
 71
     0
 72
  1000
 73
     1
 74
     1
 75
     0
 76
     0
 77
     0
 78
     0
281
     0
 65
     1
110
0.0
120
0.0
130
0.0
111
1.0
121
0.0
131
0.0
112
0.0
122
1.0
132
0.0
 79
     0
146
0.0
 60
     3
 61
     5
292
     1
282
     1
141
0.0
142
0.0
 63
   250
421
  3355443
  0
ENDTAB
  0
TABLE
  2
LTYPE
  5
5
330
0
100
AcDbSymbolTable
 70
     3
  0
LTYPE
  5
5B
330
5
100
AcDbSymbolTableRecord
100
AcDbLinetypeTableRecord
  2
ByBlock
 70
     0
  3

 72
    65
 73
     0
 40
0.0
  0
LTYPE
  5
5C
330
5
100
AcDbSymbolTableRecord
100
AcDbLinetypeTableRecord
  2
ByLayer
 70
     0
  3

 72
    65
 73
     0
 40
0.0
  0
LTYPE
  5
5D
330
5
100
AcDbSymbolTableRecord
100
AcDbLinetypeTableRecord
  2
Continuous
 70
     0
  3
Solid line
 72
    65
 73
     0
 40
0.0
  0
LTYPE
  5
69
330
5
100
AcDbSymbolTableRecord
100
AcDbLinetypeTableRecord
  2
PHANTOM2
 70
     0
  3
___ _ _ ___ _ _ ___ _ _ ___ _ _
 72
    65
 73
     6
 40
1.25
 49
0.625
 74
     0
 49
-0.125
 74
     0
 49
0.125
 74
     0
 49
-0.125
 74
     0
 49
0.125
 74
     0
 49
-0.125
 74
     0
  0
LTYPE
  5
86
330
5
100
AcDbSymbolTableRecord
100
AcDbLinetypeTableRecord
  2
Nascosto 1_5 mm
 70
     0
  3

 72
    65
 73
     2
 40
2.2
 49
1.5
 74
     0
 49
-0.7000000000000001
 74
     0
  0
ENDTAB
  0
TABLE
  2
LAYER
  5
2
330
0
100
AcDbSymbolTable
 70
     4
  0
LAYER
  5
54
330
2
100
AcDbSymbolTableRecord
100
AcDbLayerTableRecord
  2
0
 70
     0
 62
     7
  6
Continuous
370
    -3
390
F
347
21
348
0
  0
LAYER
  5
85
330
2
100
AcDbSymbolTableRecord
100
AcDbLayerTableRecord
  2
P-SANR-FIXT
 70
     0
 62
     6
  6
Continuous
370
    18
390
F
347
21
348
0
  0
LAYER
  5
88
330
2
100
AcDbSymbolTableRecord
100
AcDbLayerTableRecord
  2
M-PIPE
 70
     0
 62
     3
  6
Continuous
370
    18
390
F
347
21
348
0
  0
ENDTAB
  0
TABLE
  2
STYLE
  5
3
330
0
100
AcDbSymbolTable
 70
     2
  0
STYLE
  5
55
330
3
100
AcDbSymbolTableRecord
100
AcDbTextStyleTableRecord
  2
Standard
 70
     0
 40
0.0
 41
1.0
 50
0.0
 71
     0
 42
0.2
  3
txt
  4

  0
STYLE
  5
5A
330
3
100
AcDbSymbolTableRecord
100
AcDbTextStyleTableRecord
  2
Annotative
 70
     0
 40
0.0
 41
1.0
 50
0.0
 71
     0
 42
0.2
  3
txt
  4

1001
AcadAnnotative
1000
AnnotativeData
1002
{
1070
     1
1070
     1
1002
}
  0
ENDTAB
  0
TABLE
  2
VIEW
  5
6
330
0
100
AcDbSymbolTable
 70
     0
  0
ENDTAB
  0
TABLE
  2
UCS
  5
7
330
0
100
AcDbSymbolTable
 70
     0
  0
ENDTAB
  0
TABLE
  2
APPID
  5
9
330
0
100
AcDbSymbolTable
 70
     3
  0
APPID
  5
56
330
9
100
AcDbSymbolTableRecord
100
AcDbRegAppTableRecord
  2
ACAD
 70
     0
  0
APPID
  5
5E
330
9
100
AcDbSymbolTableRecord
100
AcDbRegAppTableRecord
  2
AcadAnnotative
 70
     0
  0
APPID
  5
79
330
9
100
AcDbSymbolTableRecord
100
AcDbRegAppTableRecord
  2
REVIT
 70
     0
  0
ENDTAB
  0
TABLE
  2
DIMSTYLE
  5
A
330
0
100
AcDbSymbolTable
 70
     2
100
AcDbDimStyleTable
 71
     0
  0
DIMSTYLE
105
58
330
A
100
AcDbSymbolTableRecord
100
AcDbDimStyleTableRecord
  2
Standard
 70
     0
340
55
  0
DIMSTYLE
105
59
330
A
100
AcDbSymbolTableRecord
100
AcDbDimStyleTableRecord
  2
Annotative
 70
     0
340
55
1001
AcadAnnotative
1000
AnnotativeData
1002
{
1070
     1
1070
     1
1002
}
  0
ENDTAB
  0
TABLE
  2
BLOCK_RECORD
  5
1
330
0
100
AcDbSymbolTable
 70
     4
  0
BLOCK_RECORD
  5
71
102
{ACAD_XDICTIONARY
360
3DF
102
}
330
1
100
AcDbSymbolTableRecord
100
AcDbBlockTableRecord
  2
*Model_Space
340
74
 70
     0
280
     1
281
     0
  0
BLOCK_RECORD
  5
6D
330
1
100
AcDbSymbolTableRecord
100
AcDbBlockTableRecord
  2
*Paper_Space
340
70
 70
     0
280
     1
281
     0
  0
BLOCK_RECORD
  5
75
330
1
100
AcDbSymbolTableRecord
100
AcDbBlockTableRecord
  2
*Paper_Space0
340
78
 70
     0
280
     1
281
     0
  0
BLOCK_RECORD
  5
87
330
1
100
AcDbSymbolTableRecord
100
AcDbBlockTableRecord
  2
Automatic flow rate regulator valve_Caleffi_121 DN15 - DN25-941550-Est - Idraulica
340
0
102
{BLKREFS
331
20E
102
}
 70
     0
280
     1
281
     0
  0
BLOCK_RECORD
  5
20F
330
1
100
AcDbSymbolTableRecord
100
AcDbBlockTableRecord
  2
Automatic flow rate regulator valve_Caleffi_121 DN15 - DN25-V1-Est - Idraulica
340
0
102
{BLKREFS
331
2B2
102
}
 70
     0
280
     1
281
     0
  0
BLOCK_RECORD
  5
2B3
330
1
100
AcDbSymbolTableRecord
100
AcDbBlockTableRecord
  2
Automatic flow rate regulator valve_Caleffi_121 DN15 - DN25-V2-Est - Idraulica
340
0
102
{BLKREFS
331
3D8
102
}
 70
     0
280
     1
281
     0
  0
ENDTAB
  0
ENDSEC
  0
SECTION
  2
BLOCKS
  0
BLOCK
  5
72
330
71
100
AcDbEntity
  8
0
100
AcDbBlockBegin
  2
*Model_Space
 70
     0
 10
0.0
 20
0.0
 30
0.0
  3
*Model_Space
  1

  0
ENDBLK
  5
73
330
71
100
AcDbEntity
  8
0
100
AcDbBlockEnd
  0
BLOCK
  5
6E
330
6D
100
AcDbEntity
 67
     1
  8
0
100
AcDbBlockBegin
  2
*Paper_Space
 70
     0
 10
0.0
 20
0.0
 30
0.0
  3
*Paper_Space
  1

  0
ENDBLK
  5
6F
330
6D
100
AcDbEntity
 67
     1
  8
0
100
AcDbBlockEnd
  0
BLOCK
  5
76
330
75
100
AcDbEntity
 67
     1
  8
0
100
AcDbBlockBegin
  2
*Paper_Space0
 70
     0
 10
0.0
 20
0.0
 30
0.0
  3
*Paper_Space0
  1

  0
ENDBLK
  5
77
330
75
100
AcDbEntity
 67
     1
  8
0
100
AcDbBlockEnd
  0
BLOCK
  5
20C
330
87
100
AcDbEntity
  8
0
100
AcDbBlockBegin
  2
Automatic flow rate regulator valve_Caleffi_121 DN15 - DN25-941550-Est - Idraulica
 70
     0
 10
0.0
 20
0.0
 30
0.0
  3
Automatic flow rate regulator valve_Caleffi_121 DN15 - DN25-941550-Est - Idraulica
  1

  0
LINE
  5
89
330
87
100
AcDbEntity
  8
M-PIPE
100
AcDbLine
 10
725.161925500274
 20
1973.999997394242
 30
0.0
 11
743.6035030801045
 21
1973.999997394242
 31
0.0
1001
REVIT
1002
{
1070
     3
1000
790271
1002
}
  0
LINE
  5
8A
330
87
100
AcDbEntity
  8
M-PIPE
100
AcDbLine
 10
743.6035030801045
 20
2025.99999739409
 30
0.0
 11
729.3901744494982
 21
2025.99999739409
 31
0.0
1001
REVIT
1002
{
1070
     3
1000
790271
1002
}
  0
LINE
  5
8B
330
87
100
AcDbEntity
  8
M-PIPE
100
AcDbLine
 10
692.3119255077506
 20
2033.499994788337
 30
0.0
 11
692.3119255077506
 21
2031.000000459997
 31
0.0
1001
REVIT
1002
{
1070
     3
1000
790271
1002
}
  0
LINE
  5
8C
330
87
100
AcDbEntity
  8
M-PIPE
100
AcDbLine
 10
726.0119255077499
 20
2031.000000459997
 30
0.0
 11
726.0119255077499
 21
2033.499994788337
 31
0.0
1001
REVIT
1002
{
1070
     3
1000
790271
1002
}
  0
LINE
  5
8D
330
87
100
AcDbEntity
  8
M-PIPE
100
AcDbLine
 10
690.6619255077505
 20
2030.999999999995
 30
0.0
 11
690.6619255077505
 21
2027.309399718769
 31
0.0
1001
REVIT
1002
{
1070
     3
1000
790271
1002
}
  0
LINE
  5
8E
330
87
100
AcDbEntity
  8
M-PIPE
100
AcDbLine
 10
727.6619255077499
 20
2027.309399718769
 30
0.0
 11
727.6619255077499
 21
2030.999999999995
 31
0.0
1001
REVIT
1002
{
1070
     3
1000
790271
1002
}
  0
LWPOLYLINE
  5
8F
330
87
100
AcDbEntity
  8
M-PIPE
100
AcDbPolyline
 90
       28
 70
   128
 43
0.0
 10
727.6619255077502
 20
2027.309399718769
 10
727.6607256677416
 20
2027.249415717488
 10
727.6571280672039
 20
2027.189527677814
 10
727.651138461531
 20
2027.129831407835
 10
727.6427664328137
 20
2027.070422408847
 10
727.6320253745121
 20
2027.011395722576
 10
727.6189324700281
 20
2026.952845779128
 10
727.6035086652163
 20
2026.894866245922
 10
727.5857786348739
 20
2026.837549877844
 10
727.5657707432669
 20
2026.780988368855
 10
727.5435169987543
 20
2026.725272205306
 10
727.51905300258
 20
2026.670490521169
 10
727.4924178919192
 20
2026.616730955456
 10
727.4636542772665
 20
2026.564079512002
 10
727.4328081742701
 20
2026.512620421887
 10
727.3999289301147
 20
2026.462436008676
 10
727.3650691445765
 20
2026.413606556725
 10
727.3282845858765
 20
2026.36621018274
 10
727.2896341014615
 20
2026.320322710811
 10
727.2491795238614
 20
2026.276017551102
 10
727.2069855717709
 20
2026.233365582419
 10
727.1631197465121
 20
2026.192435038812
 10
727.1176522240481
 20
2026.15329140042
 10
727.0706557427152
 20
2026.115997288714
 10
727.0222054868587
 20
2026.080612366317
 10
726.9723789665524
 20
2026.047193241556
 10
726.9212558935993
 20
2026.015793377903
 10
726.9119255077502
 20
2026.010361613092
1001
REVIT
1002
{
1070
     3
1000
790271
1002
}
  0
LWPOLYLINE
  5
90
330
87
100
AcDbEntity
  8
M-PIPE
100
AcDbPolyline
 90
       28
 70
   128
 43
0.0
 10
691.4119255077504
 20
2026.010361613092
 10
691.3605777588257
 20
2026.04139270566
 10
691.3105119953541
 20
2026.074452338955
 10
691.261808311877
 20
2026.109487624616
 10
691.2145446238987
 20
2026.146442513661
 10
691.1687965432374
 20
2026.185257886149
 10
691.1246372570631
 20
2026.225871645765
 10
691.0821374108136
 20
2026.268218819158
 10
691.0413649951764
 20
2026.312231659884
 10
691.0023852373195
 20
2026.357839756785
 10
690.9652604965398
 20
2026.404970146638
 10
690.9300501645032
 20
2026.453547430871
 10
690.8968105702297
 20
2026.503493896193
 10
690.8655948899792
 20
2026.554729638913
 10
690.8364530621814
 20
2026.607172692774
 10
690.8094317075444
 20
2026.660739160075
 10
690.7845740544711
 20
2026.715343345897
 10
690.7619198699035
 20
2026.77089789519
 10
690.7415053957047
 20
2026.827313932527
 10
690.7233632906784
 20
2026.884501204282
 10
690.7075225783223
 20
2026.942368223021
 10
690.6940086003973
 20
2027.000822413856
 10
690.6828429763852
 20
2027.059770262553
 10
690.6740435689024
 20
2027.119117465129
 10
690.667624455124
 20
2027.178769078719
 10
690.6635959042624
 20
2027.238629673467
 10
690.6619643611401
 20
2027.29860348519
 10
690.6619255077503
 20
2027.309399718769
1001
REVIT
1002
{
1070
     3
1000
790271
1002
}
  0
LINE
  5
91
330
87
100
AcDbEntity
  8
M-PIPE
100
AcDbLine
 10
691.4119255077505
 20
2026.010361613092
 30
0.0
 11
691.497396609319
 21
2025.961014849594
 31
0.0
1001
REVIT
1002
{
1070
     3
1000
790271
1002
}
  0
LINE
  5
92
330
87
100
AcDbEntity
  8
M-PIPE
100
AcDbLine
 10
726.8264544061816
 20
2025.961014849593
 30
0.0
 11
726.9119255077501
 21
2026.010361613091
 31
0.0
1001
REVIT
1002
{
1070
     3
1000
790271
1002
}
  0
LWPOLYLINE
  5
93
330
87
100
AcDbEntity
  8
M-PIPE
100
AcDbPolyline
 90
       28
 70
   128
 43
0.0
 10
725.6619255078131
 20
2025.288673776641
 10
725.6276936751965
 20
2025.267986381596
 10
725.594316499549
 20
2025.245946626066
 10
725.5618473772308
 20
2025.222589768958
 10
725.5303382519119
 20
2025.197953176261
 10
725.4998395314713
 20
2025.17207626127
 10
725.470400007355
 20
2025.145000421526
 10
725.4420667765218
 20
2025.116768972597
 10
725.4148851660974
 20
2025.08742707878
 10
725.3888986608593
 20
2025.057021680845
 10
725.3641488336728
 20
2025.025601420944
 10
725.3406752789816
 20
2024.993216564788
 10
725.318515549466
 20
2024.95991892124
 10
725.2977050959656
 20
2024.925761759427
 10
725.2782772107671
 20
2024.89079972352
 10
725.2602629743425
 20
2024.855088745319
 10
725.2436912056269
 20
2024.818685954771
 10
725.2285884159152
 20
2024.781649588575
 10
725.2149787664493
 20
2024.744038897017
 10
725.2028840297652
 20
2024.70591404918
 10
725.1923235548609
 20
2024.667336036689
 10
725.1833142362443
 20
2024.628366576131
 10
725.1758704869029
 20
2024.589068010334
 10
725.1700042152479
 20
2024.549503208616
 10
725.1657248060622
 20
2024.509735466223
 10
725.1630391054878
 20
2024.469828403058
 10
725.1619514100728
 20
2024.429845861908
 10
725.1619255078132
 20
2024.422648372857
1001
REVIT
1002
{
1070
     3
1000
790271
1002
}
  0
LWPOLYLINE
  5
94
330
87
100
AcDbEntity
  8
M-PIPE
100
AcDbPolyline
 90
       28
 70
   128
 43
0.0
 10
693.1619255076873
 20
2024.422648372857
 10
693.1611256143483
 20
2024.462637707043
 10
693.15872721399
 20
2024.502563066826
 10
693.1547341435411
 20
2024.542360580146
 10
693.149152791063
 20
2024.581966579471
 10
693.1419920855286
 20
2024.621317703652
 10
693.1332634825395
 20
2024.660350999284
 10
693.1229809459981
 20
2024.699004021421
 10
693.1111609257698
 20
2024.737214933473
 10
693.0978223313651
 20
2024.774922606132
 10
693.0829865016901
 20
2024.812066715165
 10
693.0666771709074
 20
2024.848587837923
 10
693.0489204304666
 20
2024.884427548398
 10
693.029744687365
 20
2024.919528510701
 10
693.0091806187007
 20
2024.953834570778
 10
692.987261122597
 20
2024.987290846252
 10
692.9640212655717
 20
2025.019843814219
 10
692.9394982264383
 20
2025.051441396875
 10
692.9137312368282
 20
2025.082033044828
 10
692.8867615184282
 20
2025.111569817967
 10
692.8586322170346
 20
2025.140004463756
 10
692.8293883335286
 20
2025.167291492827
 10
692.7990766518859
 20
2025.193387251756
 10
692.7677456643309
 20
2025.218249992893
 10
692.7354454937599
 20
2025.241839941158
 10
692.7022278135555
 20
2025.264119357665
 10
692.66814576492
 20
2025.2850526001
 10
692.6619255076874
 20
2025.288673776641
1001
REVIT
1002
{
1070
     3
1000
790271
1002
}
  0
LINE
  5
95
330
87
100
AcDbEntity
  8
M-PIPE
100
AcDbLine
 10
693.1619255076874
 20
2024.422648372857
 30
0.0
 11
693.1619255076873
 21
1999.999999999995
 31
0.0
1001
REVIT
1002
{
1070
     3
1000
790271
1002
}
  0
LINE
  5
96
330
87
100
AcDbEntity
  8
M-PIPE
100
AcDbLine
 10
725.1619255078129
 20
2021.461118505872
 30
0.0
 11
725.1619255078129
 21
2024.422648372857
 31
0.0
1001
REVIT
1002
{
1070
     3
1000
790271
1002
}
  0
LINE
  5
97
330
87
100
AcDbEntity
  8
M-PIPE
100
AcDbLine
 10
693.1619255076866
 20
1999.999999999995
 30
0.0
 11
693.1619255076865
 21
1975.577351627133
 31
0.0
1001
REVIT
1002
{
1070
     3
1000
790271
1002
}
  0
LINE
  5
98
330
87
100
AcDbEntity
  8
M-PIPE
100
AcDbLine
 10
693.1619255077501
 20
1975.577351627133
 30
0.0
 11
693.1619255077501
 21
1969.402276398267
 31
0.0
1001
REVIT
1002
{
1070
     3
1000
790271
1002
}
  0
LINE
  5
99
330
87
100
AcDbEntity
  8
M-PIPE
100
AcDbLine
 10
725.1619255077494
 20
1969.402276398266
 30
0.0
 11
725.1619255077494
 21
1973.999997394242
 31
0.0
1001
REVIT
1002
{
1070
     3
1000
790271
1002
}
  0
LINE
  5
9A
330
87
100
AcDbEntity
  8
M-PIPE
100
AcDbLine
 10
691.4675310936476
 20
1911.589794652491
 30
0.0
 11
691.0818664829483
 21
1911.367131085687
 31
0.0
1001
REVIT
1002
{
1070
     3
1000
790271
1002
}
  0
LINE
  5
9B
330
87
100
AcDbEntity
  8
M-PIPE
100
AcDbLine
 10
727.2419845325505
 20
1911.367131085687
 30
0.0
 11
727.1868589068375
 21
1911.398957880532
 31
0.0
1001
REVIT
1002
{
1070
     3
1000
790271
1002
}
  0
LINE
  5
9C
330
87
100
AcDbEntity
  8
M-PIPE
100
AcDbLine
 10
727.1810898102345
 20
1911.402288670009
 30
0.0
 11
726.8563199218506
 21
1911.589794652491
 31
0.0
1001
REVIT
1002
{
1070
     3
1000
790271
1002
}
  0
LINE
  5
9D
330
87
100
AcDbEntity
  8
M-PIPE
100
AcDbLine
 10
691.0818664829483
 20
1911.367131085687
 30
0.0
 11
691.0818664829483
 21
1906.999997394166
 31
0.0
1001
REVIT
1002
{
1070
     3
1000
790271
1002
}
  0
LINE
  5
9E
330
87
100
AcDbEntity
  8
M-PIPE
100
AcDbLine
 10
727.2419845325504
 20
1906.999997394166
 30
0.0
 11
727.2419845325505
 21
1911.367131085687
 31
0.0
1001
REVIT
1002
{
1070
     3
1000
790271
1002
}
  0
LINE
  5
9F
330
87
100
AcDbEntity
  8
M-PIPE
100
AcDbLine
 10
726.8843581838869
 20
1911.573606754357
 30
0.0
 11
726.9566631380989
 21
1911.616948485814
 31
0.0
1001
REVIT
1002
{
1070
     3
1000
790271
1002
}
  0
LINE
  5
A0
330
87
100
AcDbEntity
  8
M-PIPE
100
AcDbLine
 10
728.077448366483
 20
1912.351251605288
 30
0.0
 11
729.1679727933894
 21
1913.129786815639
 31
0.0
1001
REVIT
1002
{
1070
     3
1000
790271
1002
}
  0
LINE
  5
A1
330
87
100
AcDbEntity
  8
M-PIPE
100
AcDbLine
 10
730.2264918123682
 20
1913.951308626607
 30
0.0
 11
731.2513120187937
 21
1914.814502778543
 31
0.0
1001
REVIT
1002
{
1070
     3
1000
790271
1002
}
  0
LINE
  5
A2
330
87
100
AcDbEntity
  8
M-PIPE
100
AcDbLine
 10
732.2407939189529
 20
1915.717988344942
 30
0.0
 11
733.1933545528833
 21
1916.660319941633
 31
0.0
1001
REVIT
1002
{
1070
     3
1000
790271
1002
}
  0
LWPOLYLINE
  5
A3
330
87
100
AcDbEntity
  8
M-PIPE
100
AcDbPolyline
 90
        7
 70
   128
 43
0.0
 10
734.1074700267731
 20
1917.639990039079
 10
734.9816779508647
 20
1918.655431374111
 10
735.8145797789676
 20
1919.705019457207
 10
736.6048430458326
 20
1920.787075171336
 10
737.351203498814
 20
1921.89986745818
 10
738.052467120401
 20
1923.041616087465
 10
738.7075120383951
 20
1924.210494504943
1001
REVIT
1002
{
1070
     3
1000
790271
1002
}
  0
LINE
  5
A4
330
87
100
AcDbEntity
  8
M-PIPE
100
AcDbLine
 10
739.3152903206622
 20
1925.404632754493
 30
0.0
 11
739.8748296516036
 21
1926.622120469653
 31
0.0
1001
REVIT
1002
{
1070
     3
1000
790271
1002
}
  0
LINE
  5
A5
330
87
100
AcDbEntity
  8
M-PIPE
100
AcDbLine
 10
740.3852348876514
 20
1927.861009929794
 30
0.0
 11
740.8456894893089
 21
1929.119319176064
 31
0.0
1001
REVIT
1002
{
1070
     3
1000
790271
1002
}
  0
LINE
  5
A6
330
87
100
AcDbEntity
  8
M-PIPE
100
AcDbLine
 10
741.2554568274384
 20
1930.395035182092
 30
0.0
 11
741.6138813617114
 21
1931.686117074409
 31
0.0
1001
REVIT
1002
{
1070
     3
1000
790271
1002
}
  0
LWPOLYLINE
  5
A7
330
87
100
AcDbEntity
  8
M-PIPE
100
AcDbPolyline
 90
        5
 70
   128
 43
0.0
 10
741.9203896893324
 20
1932.9904993974
 10
742.1744914623628
 20
1934.306095417605
 10
742.3757801721708
 20
1935.630800462035
 10
742.5239337997602
 20
1936.962495285209
 10
742.6187153309315
 20
1938.299049459488
1001
REVIT
1002
{
1070
     3
1000
790271
1002
}
  0
LINE
  5
A8
330
87
100
AcDbEntity
  8
M-PIPE
100
AcDbLine
 10
742.6599731354532
 20
1939.638324783311
 30
0.0
 11
742.6619255077492
 21
1939.999997350598
 31
0.0
1001
REVIT
1002
{
1070
     3
1000
790271
1002
}
  0
LWPOLYLINE
  5
A9
330
87
100
AcDbEntity
  8
M-PIPE
100
AcDbPolyline
 90
        4
 70
   128
 43
0.0
 10
675.6619255077493
 20
1939.999997350598
 10
675.6887218288015
 20
1938.66035465323
 10
675.7690681351706
 20
1937.322855094169
 10
675.9028358899061
 20
1935.989638387392
1001
REVIT
1002
{
1070
     3
1000
790271
1002
}
  0
LINE
  5
AA
330
87
100
AcDbEntity
  8
M-PIPE
100
AcDbLine
 10
676.0898110931361
 20
1934.662837395227
 30
0.0
 11
676.3296946244214
 21
1933.344574716223
 31
0.0
1001
REVIT
1002
{
1070
     3
1000
790271
1002
}
  0
LINE
  5
AB
330
87
100
AcDbEntity
  8
M-PIPE
100
AcDbLine
 10
676.6221027212842
 20
1932.036959289454
 30
0.0
 11
676.966567593147
 21
1930.74208302066
 31
0.0
1001
REVIT
1002
{
1070
     3
1000
790271
1002
}
  0
LINE
  5
AC
330
87
100
AcDbEntity
  8
M-PIPE
100
AcDbLine
 10
677.3625381696962
 20
1929.462017435644
 30
0.0
 11
677.8093809824788
 21
1928.198810366276
 31
0.0
1001
REVIT
1002
{
1070
     3
1000
790271
1002
}
  0
LWPOLYLINE
  5
AD
330
87
100
AcDbEntity
  8
M-PIPE
100
AcDbPolyline
 90
        5
 70
   128
 43
0.0
 10
678.3063811783158
 20
1926.954482674399
 10
678.8527436629148
 20
1925.731025018876
 10
679.4475943728516
 20
1924.530394670966
 10
680.0899816738851
 20
1923.354512383104
 10
680.7788778833687
 20
1922.205259316111
1001
REVIT
1002
{
1070
     3
1000
790271
1002
}
  0
LINE
  5
AE
330
87
100
AcDbEntity
  8
M-PIPE
100
AcDbLine
 10
681.513180914324
 20
1921.084474029731
 30
0.0
 11
682.2917160385448
 21
1919.993949541336
 31
0.0
1001
REVIT
1002
{
1070
     3
1000
790271
1002
}
  0
LINE
  5
AF
330
87
100
AcDbEntity
  8
M-PIPE
100
AcDbLine
 10
683.1132377659103
 20
1918.935430457474
 30
0.0
 11
683.976431836906
 21
1917.910610182873
 31
0.0
1001
REVIT
1002
{
1070
     3
1000
790271
1002
}
  0
LINE
  5
B0
330
87
100
AcDbEntity
  8
M-PIPE
100
AcDbLine
 10
684.8799173251563
 20
1916.921128211356
 30
0.0
 11
685.8222488466132
 21
1915.968567503
 31
0.0
1001
REVIT
1002
{
1070
     3
1000
790271
1002
}
  0
LWPOLYLINE
  5
B1
330
87
100
AcDbEntity
  8
M-PIPE
100
AcDbPolyline
 90
        6
 70
   128
 43
0.0
 10
686.8019188718624
 20
1915.054451951736
 10
687.8173601378485
 20
1914.180243947444
 10
688.8669481551623
 20
1913.347342036445
 10
689.9490038068758
 20
1912.557078684119
 10
691.0617960347728
 20
1911.810718143249
 10
691.4437976729787
 20
1911.576092155679
1001
REVIT
1002
{
1070
     3
1000
790271
1002
}
  0
LWPOLYLINE
  5
B2
330
87
100
AcDbEntity
  8
M-PIPE
100
AcDbPolyline
 90
       41
 70
   128
 43
0.0
 10
742.6619255077493
 20
1939.999999157064
 10
742.6351291179427
 20
1941.339641853058
 10
742.5547827429288
 20
1942.677141407995
 10
742.4210149197683
 20
1944.010358107906
 10
742.2340396484428
 20
1945.337159090476
 10
741.9941560495001
 20
1946.655421757167
 10
741.7017478855261
 20
1947.963037168929
 10
741.3572829472063
 20
1949.257913420044
 10
740.96131230496
 20
1950.537978984738
 10
740.5144694273457
 20
1951.801186031172
 10
740.0174691676457
 20
1953.045513697542
 10
739.4711066202552
 20
1954.268971325024
 10
738.8762558486982
 20
1955.469601642404
 10
738.2338684873147
 20
1956.645483897296
 10
737.5449722188477
 20
1957.794736928933
 10
736.8106691303701
 20
1958.915522177626
 10
736.0321339501803
 20
1960.006046626064
 10
735.2106121684879
 20
1961.064565667764
 10
734.3474180448953
 20
1962.089385898063
 10
733.4439325058617
 20
1963.07886782321
 10
732.5016009355165
 20
1964.031428483203
 10
731.5219308633519
 20
1964.945543984187
 10
730.5064895524985
 20
1965.819751936363
 10
729.4569014924376
 20
1966.652653793494
 10
728.3748458001653
 20
1967.442917090286
 10
727.2620535339626
 20
1968.189277574043
 10
726.1203049240728
 20
1968.890541227208
 10
724.9514265247118
 20
1969.545586177529
 10
723.7572882919705
 20
1970.153364492823
 10
722.539800592286
 20
1970.712903857436
 10
721.3009111462607
 20
1971.223309127748
 10
720.0426019127259
 20
1971.683763764206
 10
718.7668859180303
 20
1972.093531137619
 10
717.4758040356272
 20
1972.451955707598
 10
716.1714217211123
 20
1972.758464071295
 10
714.8558257079358
 20
1973.012565880711
 10
713.5311206690724
 20
1973.213854627156
 10
712.1994258499963
 20
1973.362008291577
 10
710.8628716783384
 20
1973.456789859713
 10
709.5235963556563
 20
1973.498047701275
 10
709.1619255077493
 20
1973.500000083573
1001
REVIT
1002
{
1070
     3
1000
790271
1002
}
  0
LWPOLYLINE
  5
B3
330
87
100
AcDbEntity
  8
M-PIPE
100
AcDbPolyline
 90
       41
 70
   128
 43
0.0
 10
709.1619255077492
 20
1973.500000083573
 10
707.8222828124969
 20
1973.473203656716
 10
706.4847832597819
 20
1973.392857244711
 10
705.1515665635704
 20
1973.259089384678
 10
703.8247655861718
 20
1973.072114076657
 10
702.5065029261146
 20
1972.832230441255
 10
701.1988875224401
 20
1972.539822241117
 10
699.9040112808513
 20
1972.195357266985
 10
698.6239457271092
 20
1971.799386589336
 10
697.3607386930336
 20
1971.352543676784
 10
696.1164110404093
 20
1970.85554338267
 10
694.892953428038
 20
1970.309180801442
 10
693.6923231271094
 20
1969.71432999668
 10
692.5164408899838
 20
1969.071942602775
 10
691.3671878773994
 20
1968.383046302523
 10
690.2464026490154
 20
1967.648743183048
 10
689.1558782221088
 20
1966.870207972698
 10
688.0973592031303
 20
1966.04868616173
 10
687.0725389967047
 20
1965.185492009794
 10
686.0830570965456
 20
1964.282006443394
 10
685.1304964626149
 20
1963.339674846704
 10
684.2163809887254
 20
1962.360004749258
 10
683.3421730646335
 20
1961.344563414226
 10
682.5092712365308
 20
1960.29497533113
 10
681.7190079696655
 20
1959.212919617001
 10
680.9726475166845
 20
1958.100127330156
 10
680.2713838950971
 20
1956.958378700871
 10
679.6163389771034
 20
1955.789500283394
 10
679.0085606948362
 20
1954.595362033843
 10
678.4490213638949
 20
1953.377874318684
 10
677.9386161278471
 20
1952.138984858542
 10
677.4781615261895
 20
1950.880675612272
 10
677.0683941880601
 20
1949.604959606244
 10
676.7099696537871
 20
1948.313877713928
 10
676.4034613261659
 20
1947.009495390936
 10
676.1493595531357
 20
1945.693899370732
 10
675.9480708433277
 20
1944.369194326301
 10
675.7999172157381
 20
1943.037499503128
 10
675.705135684567
 20
1941.700945328848
 10
675.6638778800452
 20
1940.361670005025
 10
675.6619255077493
 20
1939.999999157064
1001
REVIT
1002
{
1070
     3
1000
790271
1002
}
  0
SPLINE
  5
B4
330
87
100
AcDbEntity
  8
M-PIPE
100
AcDbSpline
210
0.0
220
0.0
230
1.0
 70
     8
 71
     3
 72
    11
 73
     7
 74
     0
 42
0.000000001
 43
0.0000000001
 40
0.0000003862170909
 40
0.0000003862170909
 40
0.0000003862170909
 40
0.0000003862170909
 40
0.25
 40
0.5
 40
0.75
 40
1.0
 40
1.0
 40
1.0
 40
1.0
 10
729.3901744494968
 20
2025.999997394089
 30
0.0
 10
729.3261960763602
 20
2025.999997394079
 30
0.0
 10
729.2006406093035
 20
2025.986655718628
 30
0.0
 10
729.0167846875499
 20
2025.926554257662
 30
0.0
 10
728.8455864701581
 20
2025.826200701815
 30
0.0
 10
728.7468402952586
 20
2025.732258101706
 30
0.0
 10
728.7007347472048
 20
2025.678506489814
 30
0.0
1001
REVIT
1002
{
1070
     3
1000
790271
1002
}
  0
LWPOLYLINE
  5
B5
330
87
100
AcDbEntity
  8
M-PIPE
100
AcDbPolyline
 90
        9
 70
   128
 43
0.0
 10
728.7007347472048
 20
2025.678506489814
 10
727.3288709389101
 20
2024.04358322034
 10
724.8667770143518
 20
2021.109374260652
 10
721.4475014891411
 20
2017.034440639915
 10
717.255817790708
 20
2012.038986739467
 10
712.5182393304315
 20
2006.392960719949
 10
707.4907789985773
 20
2000.40146685602
 10
702.4451145438188
 20
1994.388278078088
 10
697.653907443154
 20
1988.678339682922
1001
REVIT
1002
{
1070
     3
1000
790271
1002
}
  0
LINE
  5
B6
330
87
100
AcDbEntity
  8
M-PIPE
100
AcDbLine
 10
697.6539074431538
 20
1976.496073294064
 30
0.0
 11
697.6539074431541
 21
1988.678339682922
 31
0.0
1001
REVIT
1002
{
1070
     3
1000
790271
1002
}
  0
SPLINE
  5
B7
330
87
100
AcDbEntity
  8
M-PIPE
100
AcDbSpline
210
0.0
220
0.0
230
1.0
 70
     8
 71
     3
 72
    23
 73
    19
 74
     0
 42
0.000000001
 43
0.0000000001
 40
0.0
 40
0.0
 40
0.0
 40
0.0
 40
0.125
 40
0.1875
 40
0.25
 40
0.28125
 40
0.3125
 40
0.375
 40
0.4375
 40
0.5
 40
0.5625
 40
0.59375
 40
0.625
 40
0.6875
 40
0.71875
 40
0.75
 40
0.875
 40
1.0
 40
1.0
 40
1.0
 40
1.0
 10
697.6539074431534
 20
1976.496073294064
 30
0.0
 10
698.4695803489168
 20
1976.89893733605
 30
0.0
 10
699.8035071587056
 20
1977.501454615006
 30
0.0
 10
701.8321778890131
 20
1978.251788764756
 30
0.0
 10
703.1847255014768
 20
1978.665890099293
 30
0.0
 10
704.3119789733959
 20
1978.94233094131
 30
0.0
 10
705.4804379394311
 20
1979.190589559625
 30
0.0
 10
706.9668606958575
 20
1979.417519171317
 30
0.0
 10
708.8104834549636
 20
1979.524350299794
 30
0.0
 10
710.6595861979749
 20
1979.480948040465
 30
0.0
 10
712.1631775121905
 20
1979.299985143209
 30
0.0
 10
713.3507178045514
 20
1979.084841100637
 30
0.0
 10
714.4985985660341
 20
1978.837068153249
 30
0.0
 10
715.6035398380144
 20
1978.529099280999
 30
0.0
 10
716.6648343611532
 20
1978.178090316967
 30
0.0
 10
718.1922644360773
 20
1977.632893083306
 30
0.0
 10
720.2846494013304
 20
1976.716478811901
 30
0.0
 10
721.7815608068044
 20
1975.937778752474
 30
0.0
 10
722.4459620277935
 20
1975.577352167573
 30
0.0
1001
REVIT
1002
{
1070
     3
1000
790271
1002
}
  0
SPLINE
  5
B8
330
87
100
AcDbEntity
  8
M-PIPE
100
AcDbSpline
210
0.0
220
0.0
230
1.0
 70
     8
 71
     3
 72
    10
 73
     6
 74
     0
 42
0.000000001
 43
0.0000000001
 40
0.0
 40
0.0
 40
0.0
 40
0.0
 40
0.3333333333333333
 40
0.6666666666666666
 40
1.0
 40
1.0
 40
1.0
 40
1.0
 10
722.4459620277935
 20
1975.577352167573
 30
0.0
 10
723.0243303156838
 20
1975.264839446989
 30
0.0
 10
723.9972046659016
 20
1974.704733699707
 30
0.0
 10
724.9481959102723
 20
1974.13419981776
 30
0.0
 10
725.1567770944143
 20
1973.999997459999
 30
0.0
 10
725.161925507748
 20
1973.999997394241
 30
0.0
1001
REVIT
1002
{
1070
     3
1000
790271
1002
}
  0
ELLIPSE
  5
B9
330
87
100
AcDbEntity
  8
M-PIPE
100
AcDbEllipse
 10
709.1619255077489
 20
2030.999999999994
 30
0.0
 11
-18.49999999999977
 21
0.000000000000453
 31
0.0
210
0.0
220
0.0
230
1.0
 40
0.000001
 41
3.14159305765353
 42
6.283185305615234
1001
REVIT
1002
{
1070
     3
1000
790271
1002
}
  0
ELLIPSE
  5
BA
330
87
100
AcDbEntity
  8
M-PIPE
100
AcDbEllipse
 10
709.161925507748
 20
1911.367131085686
 30
0.0
 11
-18.08005902480099
 21
0.000000000000531
 31
0.0
210
0.0
220
0.0
230
1.0
 40
0.000001
 41
3.141592930739443
 42
3.424893205781597
1001
REVIT
1002
{
1070
     3
1000
790271
1002
}
  0
ELLIPSE
  5
BB
330
87
100
AcDbEntity
  8
M-PIPE
100
AcDbEllipse
 10
709.161925507748
 20
1911.367131085686
 30
0.0
 11
-18.08005902480111
 21
0.0000000000001135
 31
0.0
210
0.0
220
0.0
230
1.0
 40
0.000001
 41
6.002088561863865
 42
6.283185203260625
1001
REVIT
1002
{
1070
     3
1000
790271
1002
}
  0
ARC
  5
BC
330
87
100
AcDbEntity
  8
M-PIPE
100
AcDbCircle
 10
709.1619255077477
 20
1940.000000280227
 30
0.0
 40
19.45000000000027
100
AcDbArc
 50
269.9999999999997
 51
89.99999999999898
1001
REVIT
1002
{
1070
     3
1000
790271
1002
}
  0
ARC
  5
BD
330
87
100
AcDbEntity
  8
M-PIPE
100
AcDbCircle
 10
709.1619255077477
 20
1940.000000280227
 30
0.0
 40
19.45000000000016
100
AcDbArc
 50
89.99999999999968
 51
270.0
1001
REVIT
1002
{
1070
     3
1000
790271
1002
}
  0
LINE
  5
BE
330
87
100
AcDbEntity
  8
P-SANR-FIXT
100
AcDbLine
 10
729.5190683649597
 20
1833.193899493152
 30
0.0
 11
729.5190683649597
 21
1848.193899493152
 31
0.0
  0
LINE
  5
BF
330
87
100
AcDbEntity
  8
P-SANR-FIXT
100
AcDbLine
 10
688.8047826507099
 20
1848.193899493152
 30
0.0
 11
688.8047826507099
 21
1833.193899493152
 31
0.0
  0
LINE
  5
C0
330
87
100
AcDbEntity
  8
P-SANR-FIXT
100
AcDbLine
 10
729.2706271559827
 20
1848.193899493151
 30
0.0
 11
729.5190683649583
 21
1848.193899493151
 31
0.0
  0
LINE
  5
C1
330
87
100
AcDbEntity
  8
P-SANR-FIXT
100
AcDbLine
 10
688.8047826507085
 20
1848.193899493151
 30
0.0
 11
689.053223859684
 21
1848.193899493151
 31
0.0
  0
LINE
  5
C2
330
87
100
AcDbEntity
  8
P-SANR-FIXT
100
AcDbLine
 10
689.053223859684
 20
1848.193899493151
 30
0.0
 11
696.3616618121739
 21
1848.193899493151
 31
0.0
  0
LINE
  5
C3
330
87
100
AcDbEntity
  8
P-SANR-FIXT
100
AcDbLine
 10
696.3616618121739
 20
1848.193899493151
 30
0.0
 11
701.8534875553434
 21
1848.193899493151
 31
0.0
  0
LINE
  5
C4
330
87
100
AcDbEntity
  8
P-SANR-FIXT
100
AcDbLine
 10
701.8534875553434
 20
1848.193899493151
 30
0.0
 11
716.4703634603231
 21
1848.193899493151
 31
0.0
  0
LINE
  5
C5
330
87
100
AcDbEntity
  8
P-SANR-FIXT
100
AcDbLine
 10
716.4703634603231
 20
1848.193899493151
 30
0.0
 11
721.9621892034928
 21
1848.193899493151
 31
0.0
  0
LINE
  5
C6
330
87
100
AcDbEntity
  8
P-SANR-FIXT
100
AcDbLine
 10
721.9621892034928
 20
1848.193899493151
 30
0.0
 11
729.2706271559827
 21
1848.193899493151
 31
0.0
  0
LINE
  5
C7
330
87
100
AcDbEntity
  8
P-SANR-FIXT
100
AcDbLine
 10
729.2706271559827
 20
1833.193899493151
 30
0.0
 11
721.9621892034928
 21
1833.193899493151
 31
0.0
  0
LINE
  5
C8
330
87
100
AcDbEntity
  8
P-SANR-FIXT
100
AcDbLine
 10
721.9621892034929
 20
1833.193899493151
 30
0.0
 11
716.4703634603231
 21
1833.193899493151
 31
0.0
  0
LINE
  5
C9
330
87
100
AcDbEntity
  8
P-SANR-FIXT
100
AcDbLine
 10
716.4703634603231
 20
1833.193899493151
 30
0.0
 11
701.8534875553434
 21
1833.193899493151
 31
0.0
  0
LINE
  5
CA
330
87
100
AcDbEntity
  8
P-SANR-FIXT
100
AcDbLine
 10
701.8534875553434
 20
1833.193899493151
 30
0.0
 11
696.361661812174
 21
1833.193899493151
 31
0.0
  0
LINE
  5
CB
330
87
100
AcDbEntity
  8
P-SANR-FIXT
100
AcDbLine
 10
696.3616618121739
 20
1833.193899493151
 30
0.0
 11
689.053223859684
 21
1833.193899493151
 31
0.0
  0
LINE
  5
CC
330
87
100
AcDbEntity
  8
P-SANR-FIXT
100
AcDbLine
 10
689.053223859684
 20
1833.193899493151
 30
0.0
 11
688.8047826507085
 21
1833.193899493151
 31
0.0
  0
LINE
  5
CD
330
87
100
AcDbEntity
  8
P-SANR-FIXT
100
AcDbLine
 10
729.5190683649583
 20
1833.193899493151
 30
0.0
 11
729.2706271559827
 21
1833.193899493151
 31
0.0
  0
LINE
  5
CE
330
87
100
AcDbEntity
  8
P-SANR-FIXT
100
AcDbLine
 10
729.2706271559827
 20
1848.193899493151
 30
0.0
 11
729.2706271559827
 21
1833.193899493151
 31
0.0
  0
LINE
  5
CF
330
87
100
AcDbEntity
  8
P-SANR-FIXT
100
AcDbLine
 10
689.053223859684
 20
1833.193899493151
 30
0.0
 11
689.053223859684
 21
1848.193899493151
 31
0.0
  0
LINE
  5
D0
330
87
100
AcDbEntity
  8
P-SANR-FIXT
100
AcDbLine
 10
696.3616618121739
 20
1833.193899493151
 30
0.0
 11
696.3616618121739
 21
1848.193899493151
 31
0.0
  0
LINE
  5
D1
330
87
100
AcDbEntity
  8
P-SANR-FIXT
100
AcDbLine
 10
701.8534875553434
 20
1833.193899493151
 30
0.0
 11
701.8534875553434
 21
1848.193899493151
 31
0.0
  0
LINE
  5
D2
330
87
100
AcDbEntity
  8
P-SANR-FIXT
100
AcDbLine
 10
716.4703634603231
 20
1833.193899493151
 30
0.0
 11
716.4703634603231
 21
1848.193899493151
 31
0.0
  0
LINE
  5
D3
330
87
100
AcDbEntity
  8
P-SANR-FIXT
100
AcDbLine
 10
721.9621892034928
 20
1833.193899493151
 30
0.0
 11
721.9621892034928
 21
1848.193899493151
 31
0.0
  0
LINE
  5
D4
330
87
100
AcDbEntity
  8
P-SANR-FIXT
100
AcDbLine
 10
729.519068364979
 20
2094.666093962027
 30
0.0
 11
729.519068364979
 21
2110.496093962021
 31
0.0
  0
LINE
  5
D5
330
87
100
AcDbEntity
  8
P-SANR-FIXT
100
AcDbLine
 10
688.8047826507292
 20
2110.496093962021
 30
0.0
 11
688.8047826507292
 21
2094.666093962027
 31
0.0
  0
LINE
  5
D6
330
87
100
AcDbEntity
  8
P-SANR-FIXT
100
AcDbLine
 10
729.2706271560019
 20
2110.496093962019
 30
0.0
 11
729.5190683649775
 21
2110.496093962019
 31
0.0
  0
LINE
  5
D7
330
87
100
AcDbEntity
  8
P-SANR-FIXT
100
AcDbLine
 10
688.8047826507277
 20
2110.496093962019
 30
0.0
 11
689.0532238597034
 21
2110.496093962019
 31
0.0
  0
LINE
  5
D8
330
87
100
AcDbEntity
  8
P-SANR-FIXT
100
AcDbLine
 10
689.0532238597034
 20
2110.496093962019
 30
0.0
 11
696.3616618121931
 21
2110.496093962019
 31
0.0
  0
LINE
  5
D9
330
87
100
AcDbEntity
  8
P-SANR-FIXT
100
AcDbLine
 10
696.3616618121931
 20
2110.496093962019
 30
0.0
 11
701.8534875553626
 21
2110.496093962019
 31
0.0
  0
LINE
  5
DA
330
87
100
AcDbEntity
  8
P-SANR-FIXT
100
AcDbLine
 10
701.8534875553626
 20
2110.496093962019
 30
0.0
 11
716.4703634603423
 21
2110.496093962019
 31
0.0
  0
LINE
  5
DB
330
87
100
AcDbEntity
  8
P-SANR-FIXT
100
AcDbLine
 10
716.4703634603423
 20
2110.496093962019
 30
0.0
 11
721.962189203512
 21
2110.496093962019
 31
0.0
  0
LINE
  5
DC
330
87
100
AcDbEntity
  8
P-SANR-FIXT
100
AcDbLine
 10
721.9621892035121
 20
2110.496093962019
 30
0.0
 11
729.2706271560019
 21
2110.496093962019
 31
0.0
  0
LINE
  5
DD
330
87
100
AcDbEntity
  8
P-SANR-FIXT
100
AcDbLine
 10
729.2706271560019
 20
2094.666093962026
 30
0.0
 11
721.9621892035121
 21
2094.666093962026
 31
0.0
  0
LINE
  5
DE
330
87
100
AcDbEntity
  8
P-SANR-FIXT
100
AcDbLine
 10
721.9621892035121
 20
2094.666093962026
 30
0.0
 11
716.4703634603426
 21
2094.666093962026
 31
0.0
  0
LINE
  5
DF
330
87
100
AcDbEntity
  8
P-SANR-FIXT
100
AcDbLine
 10
716.4703634603423
 20
2094.666093962026
 30
0.0
 11
701.8534875553626
 21
2094.666093962026
 31
0.0
  0
LINE
  5
E0
330
87
100
AcDbEntity
  8
P-SANR-FIXT
100
AcDbLine
 10
701.8534875553629
 20
2094.666093962026
 30
0.0
 11
696.3616618121932
 21
2094.666093962026
 31
0.0
  0
LINE
  5
E1
330
87
100
AcDbEntity
  8
P-SANR-FIXT
100
AcDbLine
 10
696.3616618121931
 20
2094.666093962026
 30
0.0
 11
689.0532238597034
 21
2094.666093962026
 31
0.0
  0
LINE
  5
E2
330
87
100
AcDbEntity
  8
P-SANR-FIXT
100
AcDbLine
 10
689.0532238597034
 20
2094.666093962026
 30
0.0
 11
688.8047826507277
 21
2094.666093962026
 31
0.0
  0
LINE
  5
E3
330
87
100
AcDbEntity
  8
P-SANR-FIXT
100
AcDbLine
 10
729.5190683649775
 20
2094.666093962026
 30
0.0
 11
729.2706271560019
 21
2094.666093962026
 31
0.0
  0
LINE
  5
E4
330
87
100
AcDbEntity
  8
P-SANR-FIXT
100
AcDbLine
 10
729.2706271560019
 20
2110.496093962019
 30
0.0
 11
729.2706271560019
 21
2094.666093962026
 31
0.0
  0
LINE
  5
E5
330
87
100
AcDbEntity
  8
P-SANR-FIXT
100
AcDbLine
 10
689.0532238597034
 20
2094.666093962026
 30
0.0
 11
689.0532238597034
 21
2110.496093962019
 31
0.0
  0
LINE
  5
E6
330
87
100
AcDbEntity
  8
P-SANR-FIXT
100
AcDbLine
 10
696.3616618121931
 20
2094.666093962026
 30
0.0
 11
696.3616618121931
 21
2110.496093962019
 31
0.0
  0
LINE
  5
E7
330
87
100
AcDbEntity
  8
P-SANR-FIXT
100
AcDbLine
 10
701.8534875553626
 20
2094.666093962026
 30
0.0
 11
701.8534875553626
 21
2110.496093962019
 31
0.0
  0
LINE
  5
E8
330
87
100
AcDbEntity
  8
P-SANR-FIXT
100
AcDbLine
 10
716.4703634603423
 20
2094.666093962026
 30
0.0
 11
716.4703634603423
 21
2110.496093962019
 31
0.0
  0
LINE
  5
E9
330
87
100
AcDbEntity
  8
P-SANR-FIXT
100
AcDbLine
 10
721.9621892035121
 20
2094.666093962026
 30
0.0
 11
721.9621892035121
 21
2110.496093962019
 31
0.0
  0
LINE
  5
EA
330
87
100
AcDbEntity
  8
P-SANR-FIXT
100
AcDbLine
 10
730.6059478083029
 20
1852.846319860134
 30
0.0
 11
732.6580360623587
 21
1852.846319860134
 31
0.0
  0
LINE
  5
EB
330
87
100
AcDbEntity
  8
P-SANR-FIXT
100
AcDbLine
 10
732.6580360623587
 20
1872.846319860133
 30
0.0
 11
730.6059478083029
 21
1872.846319860133
 31
0.0
  0
LWPOLYLINE
  5
EC
330
87
100
AcDbEntity
  8
P-SANR-FIXT
100
AcDbPolyline
 90
       80
 70
   128
 43
0.0
 10
730.0902856025627
 20
1872.330657654393
 10
730.0902856025627
 20
1872.323071195767
 10
730.0902856025627
 20
1872.300323956602
 10
730.0902856025627
 20
1872.26245232763
 10
730.0902856025627
 20
1872.209516895378
 10
730.0902856025627
 20
1872.141602345244
 10
730.0902856025627
 20
1872.058817326022
 10
730.0902856025627
 20
1871.961294276083
 10
730.0902856025627
 20
1871.849189211503
 10
730.0902856025627
 20
1871.72268147647
 10
730.0902856025627
 20
1871.581973456374
 10
730.0902856025627
 20
1871.42729025403
 10
730.0902856025627
 20
1871.258879329566
 10
730.0902856025627
 20
1871.077010104533
 10
730.0902856025627
 20
1870.881973530898
 10
730.0902856025627
 20
1870.67408162557
 10
730.0902856025627
 20
1870.453666971251
 10
730.0902856025627
 20
1870.221082184368
 10
730.0902856025627
 20
1869.976699350965
 10
730.0902856025627
 20
1869.720909431444
 10
730.0902856025627
 20
1869.454121635109
 10
730.0902856025627
 20
1869.176762765524
 10
730.0902856025627
 20
1868.889276537712
 10
730.0902856025627
 20
1868.592122868311
 10
730.0902856025627
 20
1868.285777139804
 10
730.0902856025627
 20
1867.970729440004
 10
730.0902856025627
 20
1867.647483778026
 10
730.0902856025627
 20
1867.316557277973
 10
730.0902856025627
 20
1866.978479351651
 10
730.0902856025627
 20
1866.633790851623
 10
730.0902856025627
 20
1866.28304320596
 10
730.0902856025627
 20
1865.926797536072
 10
730.0902856025627
 20
1865.565623759035
 10
730.0902856025627
 20
1865.200099675847
 10
730.0902856025627
 20
1864.830810047068
 10
730.0902856025627
 20
1864.458345657325
 10
730.0902856025627
 20
1864.083302370186
 10
730.0902856025627
 20
1863.706280174907
 10
730.0902856025627
 20
1863.327882226573
 10
730.0902856025627
 20
1862.948713881181
 10
730.0902856025627
 20
1862.569381727197
 10
730.0902856025627
 20
1862.19049261515
 10
730.0902856025627
 20
1861.812652686791
 10
730.0902856025627
 20
1861.436466405407
 10
730.0902856025627
 20
1861.062535588797
 10
730.0902856025627
 20
1860.691458446501
 10
730.0902856025627
 20
1860.323828622787
 10
730.0902856025627
 20
1859.960234246951
 10
730.0902856025627
 20
1859.60125699243
 10
730.0902856025627
 20
1859.247471146255
 10
730.0902856025627
 20
1858.899442690308
 10
730.0902856025627
 20
1858.557728395877
 10
730.0902856025627
 20
1858.222874932939
 10
730.0902856025627
 20
1857.895417995601
 10
730.0902856025627
 20
1857.575881445111
 10
730.0902856025627
 20
1857.264776471784
 10
730.0902856025627
 20
1856.962600777214
 10
730.0902856025627
 20
1856.669837778049
 10
730.0902856025627
 20
1856.386955832637
 10
730.0902856025627
 20
1856.114407491744
 10
730.0902856025627
 20
1855.852628774576
 10
730.0902856025626
 20
1855.602038471237
 10
730.0902856025626
 20
1855.363037472756
 10
730.0902856025626
 20
1855.136008129747
 10
730.0902856025626
 20
1854.921313640727
 10
730.0902856025626
 20
1854.71929747108
 10
730.0902856025626
 20
1854.530282803584
 10
730.0902856025626
 20
1854.354572021385
 10
730.0902856025626
 20
1854.192446224251
 10
730.0902856025626
 20
1854.044164778874
 10
730.0902856025626
 20
1853.909964903934
 10
730.0902856025626
 20
1853.790061290603
 10
730.0902856025626
 20
1853.684645759084
 10
730.0902856025626
 20
1853.593886951741
 10
730.0902856025626
 20
1853.517930063305
 10
730.0902856025626
 20
1853.456896608593
 10
730.0902856025626
 20
1853.410884228113
 10
730.0902856025626
 20
1853.379966531858
 10
730.0902856025626
 20
1853.364192981548
 10
730.0902856025626
 20
1853.361982065874
  0
LWPOLYLINE
  5
ED
330
87
100
AcDbEntity
  8
P-SANR-FIXT
100
AcDbPolyline
 90
       41
 70
   128
 43
0.0
 10
730.0902856025627
 20
1872.330657654393
 10
730.0906980773262
 20
1872.351278642666
 10
730.0919348417454
 20
1872.371866641756
 10
730.0939939172605
 20
1872.392388715258
 10
730.0968720097905
 20
1872.412812032231
 10
730.1005645150011
 20
1872.433103919724
 10
730.1050655256715
 20
1872.453231915047
 10
730.1103678411449
 20
1872.473163817701
 10
730.1164629788478
 20
1872.492867740893
 10
730.1233411878598
 20
1872.51231216255
 10
730.130991464514
 20
1872.531465975744
 10
730.1394015699997
 20
1872.550298538461
 10
730.1485580499421
 20
1872.568779722618
 10
730.1584462559267
 20
1872.586879962262
 10
730.169050368933
 20
1872.604570300872
 10
730.1803534246428
 20
1872.621822437679
 10
730.1923373405774
 20
1872.638608772944
 10
730.2049829450285
 20
1872.654902452113
 10
730.2182700077259
 20
1872.670677408773
 10
730.2321772722043
 20
1872.685908406361
 10
730.246682489807
 20
1872.700571078528
 10
730.2617624552801
 20
1872.714641968127
 10
730.2773930438957
 20
1872.728098564736
 10
730.2935492500462
 20
1872.740919340672
 10
730.3102052272487
 20
1872.753083785427
 10
730.3273343294924
 20
1872.764572438486
 10
730.344909153868
 20
1872.775366920453
 10
730.3629015844051
 20
1872.785449962461
 10
730.3812828370536
 20
1872.794805433793
 10
730.4000235057301
 20
1872.803418367692
 10
730.4190936093625
 20
1872.811274985299
 10
730.4384626398531
 20
1872.818362717703
 10
730.4580996108848
 20
1872.824670226044
 10
730.4779731074934
 20
1872.830187419654
 10
730.4980513363233
 20
1872.8349054722
 10
730.5183021764916
 20
1872.838816835805
 10
730.5386932309743
 20
1872.841915253121
 10
730.5591918784336
 20
1872.844195767342
 10
730.5797653254067
 20
1872.845654730131
 10
730.6003806587673
 20
1872.846289807459
 10
730.6059478083029
 20
1872.846319860133
  0
LWPOLYLINE
  5
EE
330
87
100
AcDbEntity
  8
P-SANR-FIXT
100
AcDbPolyline
 90
       41
 70
   128
 43
0.0
 10
730.6059478083029
 20
1852.846319860134
 10
730.5853268200301
 20
1852.846732334897
 10
730.5647388209398
 20
1852.847969099316
 10
730.5442167474383
 20
1852.850028174831
 10
730.5237934304656
 20
1852.852906267361
 10
730.5035015429723
 20
1852.856598772572
 10
730.4833735476493
 20
1852.861099783243
 10
730.4634416449955
 20
1852.866402098716
 10
730.4437377218034
 20
1852.872497236418
 10
730.4242933001468
 20
1852.879375445431
 10
730.4051394869524
 20
1852.887025722085
 10
730.3863069242353
 20
1852.895435827571
 10
730.3678257400783
 20
1852.904592307513
 10
730.3497255004339
 20
1852.914480513498
 10
730.3320351618241
 20
1852.925084626504
 10
730.3147830250172
 20
1852.936387682213
 10
730.2979966897519
 20
1852.948371598148
 10
730.2817030105834
 20
1852.961017202599
 10
730.2659280539227
 20
1852.974304265297
 10
730.2506970563354
 20
1852.988211529775
 10
730.2360343841684
 20
1853.002716747378
 10
730.2219634945695
 20
1853.017796712851
 10
730.2085068979602
 20
1853.033427301467
 10
730.1956861220244
 20
1853.049583507617
 10
730.1835216772691
 20
1853.06623948482
 10
730.1720330242106
 20
1853.083368587063
 10
730.1612385422429
 20
1853.100943411439
 10
730.1511555002348
 20
1853.118935841976
 10
730.1418000289023
 20
1853.137317094624
 10
730.1331870950042
 20
1853.156057763301
 10
730.1253304773969
 20
1853.175127866933
 10
730.1182427449928
 20
1853.194496897424
 10
730.1119352366519
 20
1853.214133868456
 10
730.1064180430419
 20
1853.234007365064
 10
730.1016999904958
 20
1853.254085593894
 10
730.0977886268908
 20
1853.274336434063
 10
730.0946902095748
 20
1853.294727488545
 10
730.0924096953541
 20
1853.315226136005
 10
730.0909507325654
 20
1853.335799582978
 10
730.0903156552374
 20
1853.356414916338
 10
730.0902856025626
 20
1853.361982065874
  0
LWPOLYLINE
  5
EF
330
87
100
AcDbEntity
  8
P-SANR-FIXT
100
AcDbPolyline
 90
        4
 70
   128
 43
0.0
 10
730.0902856025626
 20
1853.361982065874
 10
730.0902856025626
 20
1853.369568524501
 10
730.0902856025626
 20
1853.392315763665
 10
730.0902856025626
 20
1853.416963881535
  0
LWPOLYLINE
  5
F0
330
87
100
AcDbEntity
  8
P-SANR-FIXT
100
AcDbPolyline
 90
        4
 70
   128
 43
0.0
 10
730.0902856025627
 20
1872.281755492155
 10
730.0902856025627
 20
1872.312673188409
 10
730.0902856025627
 20
1872.328446738719
 10
730.0902856025627
 20
1872.330657654393
  0
LINE
  5
F1
330
87
100
AcDbEntity
  8
P-SANR-FIXT
100
AcDbLine
 10
732.6580360623572
 20
1835.859993455161
 30
0.0
 11
742.230792071565
 21
1835.859993455161
 31
0.0
  0
ARC
  5
F2
330
87
100
AcDbEntity
  8
P-SANR-FIXT
100
AcDbCircle
 10
742.230792071565
 20
1836.405165987107
 30
0.0
 40
0.5451725319460366
100
AcDbArc
 50
269.9999999999997
 51
4.000000000007597
  0
LINE
  5
F3
330
87
100
AcDbEntity
  8
P-SANR-FIXT
100
AcDbLine
 10
742.7746365906235
 20
1836.443195300518
 30
0.0
 11
741.9349239913451
 21
1848.451644934352
 31
0.0
  0
LINE
  5
F4
330
87
100
AcDbEntity
  8
P-SANR-FIXT
100
AcDbLine
 10
741.9349239913451
 20
1848.451644934352
 30
0.0
 11
741.0825922045965
 21
1848.451644934352
 31
0.0
  0
LINE
  5
F5
330
87
100
AcDbEntity
  8
P-SANR-FIXT
100
AcDbLine
 10
741.0825922045965
 20
1848.451644934352
 30
0.0
 11
741.0825922045965
 21
1858.31037497284
 31
0.0
  0
ARC
  5
F6
330
87
100
AcDbEntity
  8
P-SANR-FIXT
100
AcDbCircle
 10
688.1558202698031
 20
1904.771487827785
 30
0.0
 40
70.42640268505524
100
AcDbArc
 50
317.4988406574438
 51
318.7221206254426
  0
LINE
  5
F7
330
87
100
AcDbEntity
  8
P-SANR-FIXT
100
AcDbLine
 10
740.0786481341881
 20
1857.191049182024
 30
0.0
 11
735.9359316841403
 21
1857.191049182024
 31
0.0
  0
ARC
  5
F8
330
87
100
AcDbEntity
  8
P-SANR-FIXT
100
AcDbCircle
 10
579.7266962102272
 20
1940.184373322691
 30
0.0
 40
176.8875832252288
100
AcDbArc
 50
330.8525840375736
 51
332.0184752592441
  0
LINE
  5
F9
330
87
100
AcDbEntity
  8
P-SANR-FIXT
100
AcDbLine
 10
734.2149074656601
 20
1854.02980477082
 30
0.0
 11
732.6580360623572
 21
1854.02980477082
 31
0.0
  0
LINE
  5
FA
330
87
100
AcDbEntity
  8
P-SANR-FIXT
100
AcDbLine
 10
732.6580360623572
 20
1853.163861494614
 30
0.0
 11
732.6580360623572
 21
1835.859993455161
 31
0.0
  0
ARC
  5
FB
330
87
100
AcDbEntity
  8
P-SANR-FIXT
100
AcDbCircle
 10
740.5825922045967
 20
1872.346319860133
 30
0.0
 40
0.4999999999998864
100
AcDbArc
 50
0.0
 51
90.0
  0
LINE
  5
FC
330
87
100
AcDbEntity
  8
P-SANR-FIXT
100
AcDbLine
 10
740.5825922045967
 20
1872.846319860133
 30
0.0
 11
732.6580360623575
 21
1872.846319860133
 31
0.0
  0
LINE
  5
FD
330
87
100
AcDbEntity
  8
P-SANR-FIXT
100
AcDbLine
 10
732.6580360623575
 20
1872.846319860133
 30
0.0
 11
732.6580360623575
 21
1872.528778225651
 31
0.0
  0
LINE
  5
FE
330
87
100
AcDbEntity
  8
P-SANR-FIXT
100
AcDbLine
 10
732.6580360623575
 20
1871.662834949446
 30
0.0
 11
734.2149074656601
 21
1871.662834949446
 31
0.0
  0
ARC
  5
FF
330
87
100
AcDbEntity
  8
P-SANR-FIXT
100
AcDbCircle
 10
579.7266962099754
 20
1785.508266397437
 30
0.0
 40
176.8875832255158
100
AcDbArc
 50
27.98152474075667
 51
29.14741596242512
  0
LINE
  5
100
330
87
100
AcDbEntity
  8
P-SANR-FIXT
100
AcDbLine
 10
735.9359316841403
 20
1868.501590538242
 30
0.0
 11
740.0786481341881
 21
1868.501590538242
 31
0.0
  0
ARC
  5
101
330
87
100
AcDbEntity
  8
P-SANR-FIXT
100
AcDbCircle
 10
688.1558202696464
 20
1820.921151892341
 30
0.0
 40
70.42640268526554
100
AcDbArc
 50
41.27787937455843
 51
42.50115934255358
  0
LINE
  5
102
330
87
100
AcDbEntity
  8
P-SANR-FIXT
100
AcDbLine
 10
741.0825922045965
 20
1867.382264747426
 30
0.0
 11
741.0825922045965
 21
1872.346319860133
 31
0.0
  0
LINE
  5
103
330
87
100
AcDbEntity
  8
P-SANR-FIXT
100
AcDbLine
 10
741.0825922045965
 20
1867.382264747426
 30
0.0
 11
741.0825922045965
 21
1858.31037497284
 31
0.0
  0
LINE
  5
104
330
87
100
AcDbEntity
  8
P-SANR-FIXT
100
AcDbLine
 10
740.0786481341881
 20
1868.501590538242
 30
0.0
 11
740.0786481341881
 21
1857.191049182024
 31
0.0
  0
LINE
  5
105
330
87
100
AcDbEntity
  8
P-SANR-FIXT
100
AcDbLine
 10
735.9359316841403
 20
1868.501590538242
 30
0.0
 11
735.9359316841403
 21
1857.191049182024
 31
0.0
  0
LINE
  5
106
330
87
100
AcDbEntity
  8
P-SANR-FIXT
100
AcDbLine
 10
734.2149074656601
 20
1871.662834949446
 30
0.0
 11
734.21490746566
 21
1854.02980477082
 31
0.0
  0
LINE
  5
107
330
87
100
AcDbEntity
  8
P-SANR-FIXT
100
AcDbLine
 10
732.6580360623575
 20
1872.528778225651
 30
0.0
 11
732.6580360623572
 21
1853.163861494614
 31
0.0
  0
LWPOLYLINE
  5
108
330
87
100
AcDbEntity
  8
P-SANR-FIXT
100
AcDbPolyline
 90
       80
 70
   128
 43
0.0
 10
691.9049391084808
 20
1893.357532566
 10
691.9187428569533
 20
1893.357532566
 10
691.9601320193178
 20
1893.357532566
 10
692.0290403817435
 20
1893.357532566
 10
692.1253577055506
 20
1893.357532566
 10
692.2489299035675
 20
1893.357532566
 10
692.3995592866377
 20
1893.357532566
 10
692.5770048798814
 20
1893.357532566
 10
692.7809828082021
 20
1893.357532566
 10
693.0111667504274
 20
1893.357532566
 10
693.267188461353
 20
1893.357532566
 10
693.5486383608568
 20
1893.357532566
 10
693.8550661891387
 20
1893.357532566
 10
694.1859817270416
 20
1893.357532566
 10
694.5408555802961
 20
1893.357532566
 10
694.9191200264394
 20
1893.357532566
 10
695.3201699230497
 20
1893.357532566
 10
695.7433636758458
 20
1893.357532566
 10
696.1880242650989
 20
1893.357532566
 10
696.6534403287225
 20
1893.357532566
 10
697.1388673002981
 20
1893.357532566
 10
697.6435286002234
 20
1893.357532566
 10
698.1666168780742
 20
1893.357532566
 10
698.7072953041919
 20
1893.357532566
 10
699.2646989084331
 20
1893.357532566
 10
699.8379359639378
 20
1893.357532566
 10
700.426089413701
 20
1893.357532566
 10
701.028218337669
 20
1893.357532566
 10
701.6433594580114
 20
1893.357532566
 10
702.2705286801581
 20
1893.357532566
 10
702.9087226671427
 20
1893.357532566
 10
703.5569204447273
 20
1893.357532566
 10
704.214085034742
 20
1893.357532566
 10
704.8791651140309
 20
1893.357532566
 10
705.5510966963431
 20
1893.357532566
 10
706.2288048344846
 20
1893.357532566
 10
706.9112053400044
 20
1893.357532566
 10
707.5972065176646
 20
1893.357532566
 10
708.2857109119204
 20
1893.357532566
 10
708.9756170626137
 20
1893.357532566
 10
709.6658212670758
 20
1893.357532566
 10
710.3552193458154
 20
1893.357532566
 10
711.0427084089698
 20
1893.357532566
 10
711.7271886206946
 20
1893.357532566
 10
712.4075649586658
 20
1893.357532566
 10
713.0827489658821
 20
1893.357532566
 10
713.7516604919631
 20
1893.357532566
 10
714.4132294211608
 20
1893.357532566
 10
715.0663973843157
 20
1893.357532566
 10
715.7101194520219
 20
1893.357532566
 10
716.3433658062906
 20
1893.357532566
 10
716.9651233880408
 20
1893.357532566
 10
717.5743975177763
 20
1893.357532566
 10
718.1702134868608
 20
1893.357532566
 10
718.7516181168446
 20
1893.357532566
 10
719.3176812843459
 20
1893.357532566
 10
719.8674974090506
 20
1893.357532566
 10
720.4001869024469
 20
1893.357532566
 10
720.9148975749796
 20
1893.357532566
 10
721.410805999372
 20
1893.357532566
 10
721.8871188279329
 20
1893.357532566
 10
722.3430740617452
 20
1893.357532566
 10
722.7779422696995
 20
1893.357532566
 10
723.1910277554301
 20
1893.357532566
 10
723.58166967028
 20
1893.357532566
 10
723.9492430705183
 20
1893.357532566
 10
724.2931599171157
 20
1893.357532566
 10
724.6128700164829
 20
1893.357532566
 10
724.9078619006619
 20
1893.357532566
 10
725.1776636455664
 20
1893.357532566
 10
725.421843625959
 20
1893.357532566
 10
725.6400112059605
 20
1893.357532566
 10
725.8318173639822
 20
1893.357532566
 10
725.9969552510882
 20
1893.357532566
 10
726.1351606818863
 20
1893.357532566
 10
726.2462125571699
 20
1893.357532566
 10
726.3299332176281
 20
1893.357532566
 10
726.3861887280636
 20
1893.357532566
 10
726.4148890916602
 20
1893.357532566
 10
726.4189119072279
 20
1893.357532566
  0
LWPOLYLINE
  5
109
330
87
100
AcDbEntity
  8
P-SANR-FIXT
100
AcDbPolyline
 90
       41
 70
   128
 43
0.0
 10
727.2189119072278
 20
1894.157532566
 10
727.2182719925565
 20
1894.125541098651
 10
727.2163532722698
 20
1894.093600810824
 10
727.2131588159107
 20
1894.061762800168
 10
727.2086937339281
 20
1894.030078000708
 10
727.2029651695008
 20
1893.998597101363
 10
727.1959822871093
 20
1893.967370464858
 10
727.1877562578762
 20
1893.936448047148
 10
727.1783002416936
 20
1893.905879317507
 10
727.1676293661701
 20
1893.875713179379
 10
727.1557607024301
 20
1893.845997892152
 10
727.1427132378037
 20
1893.816780993947
 10
727.1285078454511
 20
1893.788109225566
 10
727.11316725097
 20
1893.760028455725
 10
727.0967159960385
 20
1893.732583607663
 10
727.0791803991553
 20
1893.705818587283
 10
727.0605885135351
 20
1893.67977621291
 10
727.0409700822285
 20
1893.654498146785
 10
727.0203564905403
 20
1893.630024828422
 10
726.9987807158204
 20
1893.606395409911
 10
726.9762772747055
 20
1893.58364769328
 10
726.9528821679008
 20
1893.561818070023
 10
726.9286328225866
 20
1893.54094146288
 10
726.9035680325425
 20
1893.52105126997
 10
726.8777278960857
 20
1893.502179311359
 10
726.8511537519223
 20
1893.484355778153
 10
726.8238881130139
 20
1893.467609184205
 10
726.7959745985669
 20
1893.451966320492
 10
726.7674578642491
 20
1893.437452212258
 10
726.7383835307526
 20
1893.424090078982
 10
726.708798110809
 20
1893.411901297226
 10
726.6787489347787
 20
1893.40090536644
 10
726.6482840749333
 20
1893.391119877768
 10
726.6174522685496
 20
1893.382560485905
 10
726.586302839941
 20
1893.375240884051
 10
726.5548856215481
 20
1893.369172782009
 10
726.5232508742181
 20
1893.364365887446
 10
726.4914492067993
 20
1893.36082789037
 10
726.4595314951746
 20
1893.358564450819
 10
726.4275488008743
 20
1893.357579189816
 10
726.4189119072279
 20
1893.357532566
  0
LWPOLYLINE
  5
10A
330
87
100
AcDbEntity
  8
P-SANR-FIXT
100
AcDbPolyline
 90
       41
 70
   128
 43
0.0
 10
691.9049391084808
 20
1893.357532566
 10
691.8729476411315
 20
1893.358172480671
 10
691.8410073533054
 20
1893.360091200958
 10
691.8091693426496
 20
1893.363285657317
 10
691.7774845431893
 20
1893.367750739299
 10
691.7460036438447
 20
1893.373479303727
 10
691.714777007339
 20
1893.380462186118
 10
691.6838545896296
 20
1893.388688215351
 10
691.6532858599879
 20
1893.398144231534
 10
691.6231197218605
 20
1893.408815107057
 10
691.5934044346338
 20
1893.420683770797
 10
691.5641875364279
 20
1893.433731235424
 10
691.5355157680476
 20
1893.447936627777
 10
691.5074349982058
 20
1893.463277222258
 10
691.479990150144
 20
1893.479728477189
 10
691.4532251297647
 20
1893.497264074072
 10
691.427182755391
 20
1893.515855959692
 10
691.4019046892661
 20
1893.535474390999
 10
691.3774313709036
 20
1893.556087982687
 10
691.3538019523924
 20
1893.577663757407
 10
691.3310542357611
 20
1893.600167198522
 10
691.3092246125041
 20
1893.623562305327
 10
691.2883480053616
 20
1893.647811650641
 10
691.2684578124517
 20
1893.672876440685
 10
691.2495858538399
 20
1893.698716577142
 10
691.2317623206345
 20
1893.725290721305
 10
691.2150157266861
 20
1893.752556360214
 10
691.1993728629727
 20
1893.780469874661
 10
691.1848587547397
 20
1893.808986608978
 10
691.1714966214632
 20
1893.838060942474
 10
691.159307839707
 20
1893.867646362418
 10
691.1483119089211
 20
1893.897695538448
 10
691.1385264202494
 20
1893.928160398294
 10
691.1299670283861
 20
1893.958992204678
 10
691.1226474265324
 20
1893.990141633286
 10
691.1165793244899
 20
1894.021558851679
 10
691.1117724299274
 20
1894.053193599009
 10
691.1082344328507
 20
1894.084995266428
 10
691.1059709933002
 20
1894.116912978053
 10
691.1049857322969
 20
1894.148895672353
 10
691.1049391084808
 20
1894.157532566
  0
LWPOLYLINE
  5
10B
330
87
100
AcDbEntity
  8
P-SANR-FIXT
100
AcDbPolyline
 90
        3
 70
   128
 43
0.0
 10
726.4189119072279
 20
1893.357532566
 10
726.4051081587552
 20
1893.357532566
 10
726.3637189963908
 20
1893.357532566
  0
LWPOLYLINE
  5
10C
330
87
100
AcDbEntity
  8
P-SANR-FIXT
100
AcDbPolyline
 90
        4
 70
   128
 43
0.0
 10
691.9589108335084
 20
1893.357532566
 10
691.937662287645
 20
1893.357532566
 10
691.9089619240484
 20
1893.357532566
 10
691.9049391084808
 20
1893.357532566
  0
LINE
  5
10D
330
87
100
AcDbEntity
  8
P-SANR-FIXT
100
AcDbLine
 10
691.1049391084808
 20
1894.999997394165
 30
0.0
 11
691.1049391084808
 21
1894.157532566
 31
0.0
  0
LINE
  5
10E
330
87
100
AcDbEntity
  8
P-SANR-FIXT
100
AcDbLine
 10
727.2189119072278
 20
1894.157532566
 30
0.0
 11
727.2189119072278
 21
1894.999997394165
 31
0.0
  0
LINE
  5
10F
330
87
100
AcDbEntity
  8
P-SANR-FIXT
100
AcDbLine
 10
729.1619244799427
 20
1894.999997394165
 30
0.0
 11
724.707192690732
 21
1894.999997394165
 31
0.0
  0
LINE
  5
110
330
87
100
AcDbEntity
  8
P-SANR-FIXT
100
AcDbLine
 10
724.7071926907319
 20
1894.999997394165
 30
0.0
 11
713.6166574306866
 21
1894.999997394165
 31
0.0
  0
LINE
  5
111
330
87
100
AcDbEntity
  8
P-SANR-FIXT
100
AcDbLine
 10
713.6166574306867
 20
1894.999997394165
 30
0.0
 11
704.707193779242
 21
1894.999997394165
 31
0.0
  0
LINE
  5
112
330
87
100
AcDbEntity
  8
P-SANR-FIXT
100
AcDbLine
 10
704.7071937792418
 20
1894.999997394165
 30
0.0
 11
693.6166584585964
 21
1894.999997394165
 31
0.0
  0
LINE
  5
113
330
87
100
AcDbEntity
  8
P-SANR-FIXT
100
AcDbLine
 10
693.6166584585966
 20
1894.999997394165
 30
0.0
 11
689.1619265963626
 21
1894.999997394165
 31
0.0
  0
LINE
  5
114
330
87
100
AcDbEntity
  8
P-SANR-FIXT
100
AcDbLine
 10
689.1619265963626
 20
1906.999997394165
 30
0.0
 11
693.6166584585964
 21
1906.999997394165
 31
0.0
  0
LINE
  5
115
330
87
100
AcDbEntity
  8
P-SANR-FIXT
100
AcDbLine
 10
693.6166584585964
 20
1906.999997394165
 30
0.0
 11
703.3447115559057
 21
1906.999997394165
 31
0.0
  0
LINE
  5
116
330
87
100
AcDbEntity
  8
P-SANR-FIXT
100
AcDbLine
 10
714.9791394595901
 20
1906.999997394165
 30
0.0
 11
724.7071926907319
 21
1906.999997394165
 31
0.0
  0
LINE
  5
117
330
87
100
AcDbEntity
  8
P-SANR-FIXT
100
AcDbLine
 10
724.707192690732
 20
1906.999997394165
 30
0.0
 11
729.1619244799427
 21
1906.999997394165
 31
0.0
  0
LINE
  5
118
330
87
100
AcDbEntity
  8
P-SANR-FIXT
100
AcDbLine
 10
729.1619244799427
 20
1906.999997394165
 30
0.0
 11
729.1619244799427
 21
1894.999997394165
 31
0.0
  0
LINE
  5
119
330
87
100
AcDbEntity
  8
P-SANR-FIXT
100
AcDbLine
 10
689.1619265963626
 20
1894.999997394165
 30
0.0
 11
689.1619265963626
 21
1906.999997394165
 31
0.0
  0
LINE
  5
11A
330
87
100
AcDbEntity
  8
P-SANR-FIXT
100
AcDbLine
 10
693.6166584585964
 20
1894.999997394165
 30
0.0
 11
693.6166584585964
 21
1906.999997394165
 31
0.0
  0
LINE
  5
11B
330
87
100
AcDbEntity
  8
P-SANR-FIXT
100
AcDbLine
 10
704.7071937792418
 20
1894.999997394165
 30
0.0
 11
704.7071937792418
 21
1906.829566170043
 31
0.0
  0
LINE
  5
11C
330
87
100
AcDbEntity
  8
P-SANR-FIXT
100
AcDbLine
 10
713.6166574306866
 20
1894.999997394165
 30
0.0
 11
713.6166574306866
 21
1906.829566195641
 31
0.0
  0
LINE
  5
11D
330
87
100
AcDbEntity
  8
P-SANR-FIXT
100
AcDbLine
 10
724.707192690732
 20
1894.999997394165
 30
0.0
 11
724.707192690732
 21
1906.999997394165
 31
0.0
  0
LWPOLYLINE
  5
11E
330
87
100
AcDbEntity
  8
P-SANR-FIXT
100
AcDbPolyline
 90
       80
 70
   128
 43
0.0
 10
726.4189119072275
 20
2049.499994788334
 10
726.4051081587552
 20
2049.499994788334
 10
726.3637189963908
 20
2049.499994788334
 10
726.2948106339649
 20
2049.499994788334
 10
726.1984933101578
 20
2049.499994788334
 10
726.074921112141
 20
2049.499994788334
 10
725.9242917290706
 20
2049.499994788334
 10
725.746846135827
 20
2049.499994788334
 10
725.5428682075064
 20
2049.499994788334
 10
725.3126842652813
 20
2049.499994788334
 10
725.0566625543553
 20
2049.499994788334
 10
724.7752126548516
 20
2049.499994788334
 10
724.4687848265696
 20
2049.499994788334
 10
724.1378692886667
 20
2049.499994788334
 10
723.7829954354123
 20
2049.499994788334
 10
723.4047309892689
 20
2049.499994788334
 10
723.0036810926585
 20
2049.499994788334
 10
722.5804873398629
 20
2049.499994788334
 10
722.1358267506096
 20
2049.499994788334
 10
721.6704106869861
 20
2049.499994788334
 10
721.1849837154105
 20
2049.499994788334
 10
720.680322415485
 20
2049.499994788334
 10
720.1572341376344
 20
2049.499994788334
 10
719.6165557115167
 20
2049.499994788334
 10
719.0591521072754
 20
2049.499994788334
 10
718.4859150517707
 20
2049.499994788334
 10
717.8977616020077
 20
2049.499994788334
 10
717.2956326780393
 20
2049.499994788334
 10
716.6804915576972
 20
2049.499994788334
 10
716.0533223355504
 20
2049.499994788334
 10
715.4151283485657
 20
2049.499994788334
 10
714.7669305709811
 20
2049.499994788334
 10
714.1097659809662
 20
2049.499994788334
 10
713.4446859016776
 20
2049.499994788334
 10
712.7727543193653
 20
2049.499994788334
 10
712.095046181224
 20
2049.499994788334
 10
711.4126456757041
 20
2049.499994788334
 10
710.7266444980438
 20
2049.499994788334
 10
710.0381401037881
 20
2049.499994788334
 10
709.3482339530948
 20
2049.499994788334
 10
708.6580297486326
 20
2049.499994788334
 10
707.9686316698932
 20
2049.499994788334
 10
707.2811426067389
 20
2049.499994788334
 10
706.5966623950139
 20
2049.499994788334
 10
705.9162860570425
 20
2049.499994788334
 10
705.2411020498265
 20
2049.499994788334
 10
704.5721905237453
 20
2049.499994788334
 10
703.9106215945476
 20
2049.499994788334
 10
703.2574536313927
 20
2049.499994788334
 10
702.6137315636868
 20
2049.499994788334
 10
701.9804852094177
 20
2049.499994788334
 10
701.3587276276674
 20
2049.499994788334
 10
700.7494534979321
 20
2049.499994788334
 10
700.1536375288475
 20
2049.499994788334
 10
699.5722328988639
 20
2049.499994788334
 10
699.0061697313624
 20
2049.499994788334
 10
698.456353606658
 20
2049.499994788334
 10
697.9236641132616
 20
2049.499994788334
 10
697.408953440729
 20
2049.499994788334
 10
696.9130450163365
 20
2049.499994788334
 10
696.4367321877753
 20
2049.499994788334
 10
695.9807769539633
 20
2049.499994788334
 10
695.5459087460091
 20
2049.499994788334
 10
695.1328232602783
 20
2049.499994788334
 10
694.7421813454283
 20
2049.499994788334
 10
694.3746079451901
 20
2049.499994788334
 10
694.0306910985927
 20
2049.499994788334
 10
693.7109809992256
 20
2049.499994788334
 10
693.4159891150466
 20
2049.499994788334
 10
693.146187370142
 20
2049.499994788334
 10
692.9020073897492
 20
2049.499994788334
 10
692.6838398097479
 20
2049.499994788334
 10
692.492033651726
 20
2049.499994788334
 10
692.3268957646201
 20
2049.499994788334
 10
692.1886903338219
 20
2049.499994788334
 10
692.0776384585384
 20
2049.499994788334
 10
691.9939177980803
 20
2049.499994788334
 10
691.9376622876448
 20
2049.499994788334
 10
691.9089619240483
 20
2049.499994788334
 10
691.9049391084808
 20
2049.499994788334
  0
LWPOLYLINE
  5
11F
330
87
100
AcDbEntity
  8
P-SANR-FIXT
100
AcDbPolyline
 90
       41
 70
   128
 43
0.0
 10
726.4189119072275
 20
2049.499994788334
 10
726.450903374577
 20
2049.499354873663
 10
726.482843662403
 20
2049.497436153377
 10
726.5146816730588
 20
2049.494241697018
 10
726.546366472519
 20
2049.489776615035
 10
726.5778473718636
 20
2049.484048050608
 10
726.6090740083692
 20
2049.477065168217
 10
726.6399964260791
 20
2049.468839138983
 10
726.6705651557206
 20
2049.4593831228
 10
726.7007312938477
 20
2049.448712247277
 10
726.7304465810745
 20
2049.436843583537
 10
726.7596634792803
 20
2049.423796118911
 10
726.7883352476607
 20
2049.409590726558
 10
726.8164160175026
 20
2049.394250132077
 10
726.8438608655644
 20
2049.377798877145
 10
726.8706258859435
 20
2049.360263280262
 10
726.8966682603176
 20
2049.341671394643
 10
726.9219463264423
 20
2049.322052963336
 10
726.9464196448049
 20
2049.301439371647
 10
726.9700490633161
 20
2049.279863596928
 10
726.9927967799473
 20
2049.257360155813
 10
727.0146264032044
 20
2049.233965049008
 10
727.0355030103469
 20
2049.209715703693
 10
727.0553932032566
 20
2049.184650913649
 10
727.0742651618685
 20
2049.158810777193
 10
727.092088695074
 20
2049.132236633029
 10
727.1088352890223
 20
2049.104970994121
 10
727.1244781527355
 20
2049.077057479673
 10
727.1389922609688
 20
2049.048540745356
 10
727.1523543942451
 20
2049.01946641186
 10
727.1645431760015
 20
2048.989880991916
 10
727.1755391067871
 20
2048.959831815885
 10
727.1853245954589
 20
2048.92936695604
 10
727.1938839873224
 20
2048.898535149657
 10
727.2012035891759
 20
2048.867385721048
 10
727.2072716912183
 20
2048.835968502655
 10
727.2120785857809
 20
2048.804333755325
 10
727.2156165828576
 20
2048.772532087906
 10
727.2178800224081
 20
2048.740614376281
 10
727.2188652834115
 20
2048.708631681981
 10
727.2189119072278
 20
2048.699994788335
  0
LWPOLYLINE
  5
120
330
87
100
AcDbEntity
  8
P-SANR-FIXT
100
AcDbPolyline
 90
       41
 70
   128
 43
0.0
 10
691.1049391084807
 20
2048.699994788335
 10
691.105579023152
 20
2048.731986255684
 10
691.1074977434386
 20
2048.76392654351
 10
691.1106921997975
 20
2048.795764554166
 10
691.1151572817801
 20
2048.827449353626
 10
691.1208858462079
 20
2048.85893025297
 10
691.1278687285991
 20
2048.890156889476
 10
691.136094757832
 20
2048.921079307186
 10
691.1455507740148
 20
2048.951648036828
 10
691.1562216495384
 20
2048.981814174955
 10
691.1680903132784
 20
2049.011529462182
 10
691.1811377779048
 20
2049.040746360387
 10
691.1953431702571
 20
2049.069418128768
 10
691.2106837647386
 20
2049.09749889861
 10
691.2271350196699
 20
2049.124943746671
 10
691.2446706165529
 20
2049.151708767051
 10
691.2632625021732
 20
2049.177751141424
 10
691.2828809334801
 20
2049.20302920755
 10
691.3034945251679
 20
2049.227502525912
 10
691.3250702998879
 20
2049.251131944423
 10
691.3475737410029
 20
2049.273879661054
 10
691.3709688478076
 20
2049.295709284312
 10
691.3952181931218
 20
2049.316585891454
 10
691.4202829831659
 20
2049.336476084364
 10
691.4461231196227
 20
2049.355348042976
 10
691.4726972637862
 20
2049.373171576181
 10
691.4999629026945
 20
2049.389918170129
 10
691.5278764171418
 20
2049.405561033843
 10
691.5563931514594
 20
2049.420075142076
 10
691.5854674849556
 20
2049.433437275352
 10
691.6150529048992
 20
2049.445626057108
 10
691.6451020809297
 20
2049.456621987895
 10
691.675566940775
 20
2049.466407476566
 10
691.7063987471587
 20
2049.474966868429
 10
691.7375481757676
 20
2049.482286470283
 10
691.7689653941605
 20
2049.488354572325
 10
691.8006001414902
 20
2049.493161466888
 10
691.8324018089093
 20
2049.496699463965
 10
691.8643195205337
 20
2049.498962903515
 10
691.8963022148339
 20
2049.499948164519
 10
691.9049391084808
 20
2049.499994788334
  0
LWPOLYLINE
  5
121
330
87
100
AcDbEntity
  8
P-SANR-FIXT
100
AcDbPolyline
 90
        3
 70
   128
 43
0.0
 10
691.9049391084808
 20
2049.499994788334
 10
691.918742856953
 20
2049.499994788334
 10
691.9601320193176
 20
2049.499994788334
  0
LWPOLYLINE
  5
122
330
87
100
AcDbEntity
  8
P-SANR-FIXT
100
AcDbPolyline
 90
        4
 70
   128
 43
0.0
 10
726.3649401822
 20
2049.499994788334
 10
726.3861887280634
 20
2049.499994788334
 10
726.4148890916602
 20
2049.499994788334
 10
726.4189119072275
 20
2049.499994788334
  0
LINE
  5
123
330
87
100
AcDbEntity
  8
P-SANR-FIXT
100
AcDbLine
 10
691.1049391084807
 20
2048.699994788335
 30
0.0
 11
691.1049391084807
 21
2047.857529960169
 31
0.0
  0
LINE
  5
124
330
87
100
AcDbEntity
  8
P-SANR-FIXT
100
AcDbLine
 10
727.2189119072278
 20
2047.857529960169
 30
0.0
 11
727.2189119072278
 21
2048.699994788335
 31
0.0
  0
LINE
  5
125
330
87
100
AcDbEntity
  8
P-SANR-FIXT
100
AcDbLine
 10
730.6619255078136
 20
2033.499994788337
 30
0.0
 11
730.6619255078136
 21
2047.857529960169
 31
0.0
  0
LINE
  5
126
330
87
100
AcDbEntity
  8
P-SANR-FIXT
100
AcDbLine
 10
687.6619255078136
 20
2047.857529960169
 30
0.0
 11
687.6619255078136
 21
2033.499994788337
 31
0.0
  0
LINE
  5
127
330
87
100
AcDbEntity
  8
P-SANR-FIXT
100
AcDbLine
 10
730.5771134506775
 20
2047.857529960168
 30
0.0
 11
730.6619255078122
 21
2047.857529960168
 31
0.0
  0
LINE
  5
128
330
87
100
AcDbEntity
  8
P-SANR-FIXT
100
AcDbLine
 10
687.6619255078122
 20
2047.857529960168
 30
0.0
 11
687.7467375649469
 21
2047.857529960168
 31
0.0
  0
LINE
  5
129
330
87
100
AcDbEntity
  8
P-SANR-FIXT
100
AcDbLine
 10
687.7467375649469
 20
2047.857529960168
 30
0.0
 11
696.8021227030842
 21
2047.857529960168
 31
0.0
  0
LINE
  5
12A
330
87
100
AcDbEntity
  8
P-SANR-FIXT
100
AcDbLine
 10
696.8021227030842
 20
2047.857529960168
 30
0.0
 11
700.1065403696746
 21
2047.857529960168
 31
0.0
  0
LINE
  5
12B
330
87
100
AcDbEntity
  8
P-SANR-FIXT
100
AcDbLine
 10
700.1065403696746
 20
2047.857529960168
 30
0.0
 11
718.2173106459495
 21
2047.857529960168
 31
0.0
  0
LINE
  5
12C
330
87
100
AcDbEntity
  8
P-SANR-FIXT
100
AcDbLine
 10
718.2173106459495
 20
2047.857529960168
 30
0.0
 11
721.52172831254
 21
2047.857529960168
 31
0.0
  0
LINE
  5
12D
330
87
100
AcDbEntity
  8
P-SANR-FIXT
100
AcDbLine
 10
721.52172831254
 20
2047.857529960168
 30
0.0
 11
730.5771134506775
 21
2047.857529960168
 31
0.0
  0
LINE
  5
12E
330
87
100
AcDbEntity
  8
P-SANR-FIXT
100
AcDbLine
 10
730.5771134506775
 20
2033.499994788336
 30
0.0
 11
721.52172831254
 21
2033.499994788336
 31
0.0
  0
LINE
  5
12F
330
87
100
AcDbEntity
  8
P-SANR-FIXT
100
AcDbLine
 10
721.5217283125402
 20
2033.499994788336
 30
0.0
 11
718.2173106459496
 21
2033.499994788336
 31
0.0
  0
LINE
  5
130
330
87
100
AcDbEntity
  8
P-SANR-FIXT
100
AcDbLine
 10
718.2173106459495
 20
2033.499994788336
 30
0.0
 11
700.1065403696746
 21
2033.499994788336
 31
0.0
  0
LINE
  5
131
330
87
100
AcDbEntity
  8
P-SANR-FIXT
100
AcDbLine
 10
700.1065403696748
 20
2033.499994788336
 30
0.0
 11
696.8021227030844
 21
2033.499994788336
 31
0.0
  0
LINE
  5
132
330
87
100
AcDbEntity
  8
P-SANR-FIXT
100
AcDbLine
 10
696.8021227030842
 20
2033.499994788336
 30
0.0
 11
687.7467375649469
 21
2033.499994788336
 31
0.0
  0
LINE
  5
133
330
87
100
AcDbEntity
  8
P-SANR-FIXT
100
AcDbLine
 10
687.7467375649469
 20
2033.499994788336
 30
0.0
 11
687.6619255078122
 21
2033.499994788336
 31
0.0
  0
LINE
  5
134
330
87
100
AcDbEntity
  8
P-SANR-FIXT
100
AcDbLine
 10
730.6619255078122
 20
2033.499994788336
 30
0.0
 11
730.5771134506775
 21
2033.499994788336
 31
0.0
  0
LINE
  5
135
330
87
100
AcDbEntity
  8
P-SANR-FIXT
100
AcDbLine
 10
730.5771134506775
 20
2047.857529960168
 30
0.0
 11
730.5771134506775
 21
2033.499994788336
 31
0.0
  0
LINE
  5
136
330
87
100
AcDbEntity
  8
P-SANR-FIXT
100
AcDbLine
 10
687.7467375649469
 20
2033.499994788336
 30
0.0
 11
687.7467375649469
 21
2047.857529960168
 31
0.0
  0
LINE
  5
137
330
87
100
AcDbEntity
  8
P-SANR-FIXT
100
AcDbLine
 10
696.8021227030842
 20
2033.499994788336
 30
0.0
 11
696.8021227030842
 21
2047.857529960168
 31
0.0
  0
LINE
  5
138
330
87
100
AcDbEntity
  8
P-SANR-FIXT
100
AcDbLine
 10
700.1065403696746
 20
2033.499994788336
 30
0.0
 11
700.1065403696746
 21
2047.857529960168
 31
0.0
  0
LINE
  5
139
330
87
100
AcDbEntity
  8
P-SANR-FIXT
100
AcDbLine
 10
718.2173106459495
 20
2033.499994788336
 30
0.0
 11
718.2173106459495
 21
2047.857529960168
 31
0.0
  0
LINE
  5
13A
330
87
100
AcDbEntity
  8
P-SANR-FIXT
100
AcDbLine
 10
721.52172831254
 20
2033.499994788336
 30
0.0
 11
721.52172831254
 21
2047.857529960168
 31
0.0
  0
LINE
  5
13B
330
87
100
AcDbEntity
  8
P-SANR-FIXT
100
AcDbLine
 10
804.2279074775516
 20
2065.49704037704
 30
0.0
 11
803.6664074431774
 21
2064.935540342666
 31
0.0
  0
LINE
  5
13C
330
87
100
AcDbEntity
  8
P-SANR-FIXT
100
AcDbLine
 10
827.6664074432012
 20
2064.935540342666
 30
0.0
 11
827.1049074088271
 21
2065.49704037704
 31
0.0
  0
LINE
  5
13D
330
87
100
AcDbEntity
  8
P-SANR-FIXT
100
AcDbLine
 10
803.6664074431774
 20
2064.935540342666
 30
0.0
 11
803.6664074431774
 21
2063.49704037704
 31
0.0
  0
LINE
  5
13E
330
87
100
AcDbEntity
  8
P-SANR-FIXT
100
AcDbLine
 10
827.6664074432012
 20
2063.49704037704
 30
0.0
 11
827.6664074432012
 21
2064.935540342666
 31
0.0
  0
LINE
  5
13F
330
87
100
AcDbEntity
  8
P-SANR-FIXT
100
AcDbLine
 10
827.1049074088255
 20
2065.49704037704
 30
0.0
 11
804.22790747755
 21
2065.49704037704
 31
0.0
  0
LINE
  5
140
330
87
100
AcDbEntity
  8
P-SANR-FIXT
100
AcDbLine
 10
803.6664074431758
 20
2064.935540342665
 30
0.0
 11
827.6664074431996
 21
2064.935540342665
 31
0.0
  0
LINE
  5
141
330
87
100
AcDbEntity
  8
P-SANR-FIXT
100
AcDbLine
 10
821.6664074431943
 20
2063.49704037704
 30
0.0
 11
822.2392970448256
 21
2063.49704037704
 31
0.0
  0
LINE
  5
142
330
87
100
AcDbEntity
  8
P-SANR-FIXT
100
AcDbLine
 10
803.6664074431872
 20
2063.49704037704
 30
0.0
 11
804.5021069097161
 21
2063.49704037704
 31
0.0
  0
LINE
  5
143
330
87
100
AcDbEntity
  8
P-SANR-FIXT
100
AcDbLine
 10
804.5021069097161
 20
2063.49704037704
 30
0.0
 11
809.6664074431881
 21
2063.49704037704
 31
0.0
  0
LINE
  5
144
330
87
100
AcDbEntity
  8
P-SANR-FIXT
100
AcDbLine
 10
814.8307079766585
 20
2063.49704037704
 30
0.0
 11
816.5021069097161
 21
2063.49704037704
 31
0.0
  0
LINE
  5
145
330
87
100
AcDbEntity
  8
P-SANR-FIXT
100
AcDbLine
 10
816.5021069097161
 20
2063.49704037704
 30
0.0
 11
821.6664074431879
 21
2063.49704037704
 31
0.0
  0
LINE
  5
146
330
87
100
AcDbEntity
  8
P-SANR-FIXT
100
AcDbLine
 10
809.6664074431881
 20
2063.49704037704
 30
0.0
 11
814.8307079766585
 21
2063.49704037704
 31
0.0
  0
LINE
  5
147
330
87
100
AcDbEntity
  8
P-SANR-FIXT
100
AcDbLine
 10
826.830707976658
 20
2063.49704037704
 30
0.0
 11
827.6664074431868
 21
2063.49704037704
 31
0.0
  0
LINE
  5
148
330
87
100
AcDbEntity
  8
P-SANR-FIXT
100
AcDbLine
 10
821.6664074431879
 20
2063.49704037704
 30
0.0
 11
826.830707976658
 21
2063.49704037704
 31
0.0
  0
LINE
  5
149
330
87
100
AcDbEntity
  8
P-SANR-FIXT
100
AcDbLine
 10
827.6664074431868
 20
2052.970000000074
 30
0.0
 11
826.8307079766582
 21
2052.970000000074
 31
0.0
  0
LINE
  5
14A
330
87
100
AcDbEntity
  8
P-SANR-FIXT
100
AcDbLine
 10
826.830707976658
 20
2052.970000000074
 30
0.0
 11
816.5021069097161
 21
2052.970000000074
 31
0.0
  0
LINE
  5
14B
330
87
100
AcDbEntity
  8
P-SANR-FIXT
100
AcDbLine
 10
816.5021069097162
 20
2052.970000000074
 30
0.0
 11
814.8307079766587
 21
2052.970000000074
 31
0.0
  0
LINE
  5
14C
330
87
100
AcDbEntity
  8
P-SANR-FIXT
100
AcDbLine
 10
814.8307079766585
 20
2052.970000000074
 30
0.0
 11
804.5021069097161
 21
2052.970000000074
 31
0.0
  0
LINE
  5
14D
330
87
100
AcDbEntity
  8
P-SANR-FIXT
100
AcDbLine
 10
804.5021069097161
 20
2052.970000000074
 30
0.0
 11
803.6664074431874
 21
2052.970000000074
 31
0.0
  0
LINE
  5
14E
330
87
100
AcDbEntity
  8
P-SANR-FIXT
100
AcDbLine
 10
827.6664074431868
 20
2063.49704037704
 30
0.0
 11
827.6664074431868
 21
2052.970000000074
 31
0.0
  0
LINE
  5
14F
330
87
100
AcDbEntity
  8
P-SANR-FIXT
100
AcDbLine
 10
803.6664074431872
 20
2052.970000000074
 30
0.0
 11
803.6664074431872
 21
2063.49704037704
 31
0.0
  0
LINE
  5
150
330
87
100
AcDbEntity
  8
P-SANR-FIXT
100
AcDbLine
 10
804.5021069097161
 20
2052.970000000074
 30
0.0
 11
804.5021069097161
 21
2063.49704037704
 31
0.0
  0
LINE
  5
151
330
87
100
AcDbEntity
  8
P-SANR-FIXT
100
AcDbLine
 10
814.8307079766585
 20
2052.970000000074
 30
0.0
 11
814.8307079766585
 21
2063.49704037704
 31
0.0
  0
LINE
  5
152
330
87
100
AcDbEntity
  8
P-SANR-FIXT
100
AcDbLine
 10
816.5021069097161
 20
2052.970000000074
 30
0.0
 11
816.5021069097161
 21
2063.49704037704
 31
0.0
  0
LINE
  5
153
330
87
100
AcDbEntity
  8
P-SANR-FIXT
100
AcDbLine
 10
826.830707976658
 20
2052.970000000074
 30
0.0
 11
826.830707976658
 21
2063.49704037704
 31
0.0
  0
LINE
  5
154
330
87
100
AcDbEntity
  8
P-SANR-FIXT
100
AcDbLine
 10
789.1664074431897
 20
1872.748402062036
 30
0.0
 11
793.6664074431896
 21
1872.748402062036
 31
0.0
  0
LINE
  5
155
330
87
100
AcDbEntity
  8
P-SANR-FIXT
100
AcDbLine
 10
793.6664074431896
 20
1880.248402061909
 30
0.0
 11
789.1664074431897
 21
1880.248402061909
 31
0.0
  0
LINE
  5
156
330
87
100
AcDbEntity
  8
P-SANR-FIXT
100
AcDbLine
 10
793.6664074431896
 20
1870.048402061972
 30
0.0
 11
800.2464074431891
 21
1870.048402061972
 31
0.0
  0
LINE
  5
157
330
87
100
AcDbEntity
  8
P-SANR-FIXT
100
AcDbLine
 10
801.0269860253863
 20
1882.948402061973
 30
0.0
 11
793.6664074431896
 21
1882.948402061973
 31
0.0
  0
LINE
  5
158
330
87
100
AcDbEntity
  8
P-SANR-FIXT
100
AcDbLine
 10
804.1714435505957
 20
1891.699999999996
 30
0.0
 11
804.1714435505957
 21
1889.798402061973
 31
0.0
  0
LINE
  5
159
330
87
100
AcDbEntity
  8
P-SANR-FIXT
100
AcDbLine
 10
827.1613713357831
 20
1889.798402061973
 30
0.0
 11
827.1613713357831
 21
1891.699999999996
 31
0.0
  0
LINE
  5
15A
330
87
100
AcDbEntity
  8
P-SANR-FIXT
100
AcDbLine
 10
801.0269860253863
 20
1889.798402061973
 30
0.0
 11
801.0269860253863
 21
1882.948402061973
 31
0.0
  0
LINE
  5
15B
330
87
100
AcDbEntity
  8
P-SANR-FIXT
100
AcDbLine
 10
830.3058288609923
 20
1876.27898064417
 30
0.0
 11
830.3058288609923
 21
1889.798402061973
 31
0.0
  0
LINE
  5
15C
330
87
100
AcDbEntity
  8
P-SANR-FIXT
100
AcDbLine
 10
800.2464074431891
 20
1870.048402061972
 30
0.0
 11
800.2464074431891
 21
1865.998402061957
 31
0.0
  0
LINE
  5
15D
330
87
100
AcDbEntity
  8
P-SANR-FIXT
100
AcDbLine
 10
831.0864074431895
 20
1865.998402061957
 30
0.0
 11
831.0864074431895
 21
1876.27898064417
 31
0.0
  0
LINE
  5
15E
330
87
100
AcDbEntity
  8
P-SANR-FIXT
100
AcDbLine
 10
801.1664074431902
 20
1865.998402061957
 30
0.0
 11
801.1664074431902
 21
1864.498402061957
 31
0.0
  0
LINE
  5
15F
330
87
100
AcDbEntity
  8
P-SANR-FIXT
100
AcDbLine
 10
830.1664074431887
 20
1864.498402061957
 30
0.0
 11
830.1664074431887
 21
1865.998402061957
 31
0.0
  0
LINE
  5
160
330
87
100
AcDbEntity
  8
P-SANR-FIXT
100
AcDbLine
 10
803.9164074431887
 20
1864.498402061957
 30
0.0
 11
803.9164074431887
 21
1861.498402061957
 31
0.0
  0
LINE
  5
161
330
87
100
AcDbEntity
  8
P-SANR-FIXT
100
AcDbLine
 10
827.4164074431899
 20
1861.498402061957
 30
0.0
 11
827.4164074431899
 21
1864.498402061957
 31
0.0
  0
LINE
  5
162
330
87
100
AcDbEntity
  8
P-SANR-FIXT
100
AcDbLine
 10
802.2164074431886
 20
1861.498402061957
 30
0.0
 11
802.2164074431886
 21
1859.498402061985
 31
0.0
  0
LINE
  5
163
330
87
100
AcDbEntity
  8
P-SANR-FIXT
100
AcDbLine
 10
829.1164074431899
 20
1859.498402061985
 30
0.0
 11
829.1164074431899
 21
1861.498402061957
 31
0.0
  0
LINE
  5
164
330
87
100
AcDbEntity
  8
P-SANR-FIXT
100
AcDbLine
 10
800.8664074432019
 20
1859.498402061985
 30
0.0
 11
800.8664074432019
 21
1850.498402061985
 31
0.0
  0
LINE
  5
165
330
87
100
AcDbEntity
  8
P-SANR-FIXT
100
AcDbLine
 10
830.4664074431768
 20
1850.498402061985
 30
0.0
 11
830.4664074431768
 21
1859.498402061985
 31
0.0
  0
LINE
  5
166
330
87
100
AcDbEntity
  8
P-SANR-FIXT
100
AcDbLine
 10
808.1664074431888
 20
1850.498402061985
 30
0.0
 11
808.1664074431888
 21
1827.498402061985
 31
0.0
  0
LINE
  5
167
330
87
100
AcDbEntity
  8
P-SANR-FIXT
100
AcDbLine
 10
823.1664074431897
 20
1827.498402061985
 30
0.0
 11
823.1664074431897
 21
1850.498402061985
 31
0.0
  0
LINE
  5
168
330
87
100
AcDbEntity
  8
P-SANR-FIXT
100
AcDbLine
 10
789.1664074431881
 20
1880.248402061909
 30
0.0
 11
789.1664074431881
 21
1872.748402062035
 31
0.0
  0
LINE
  5
169
330
87
100
AcDbEntity
  8
P-SANR-FIXT
100
AcDbLine
 10
793.6664074431882
 20
1870.048402061972
 30
0.0
 11
793.6664074431882
 21
1882.948402061972
 31
0.0
  0
SPLINE
  5
16A
330
87
100
AcDbEntity
  8
P-SANR-FIXT
100
AcDbSpline
210
0.0
220
0.0
230
1.0
 70
     8
 71
     3
 72
    25
 73
    21
 74
     0
 42
0.000000001
 43
0.0000000001
 40
0.0
 40
0.0
 40
0.0
 40
0.0
 40
0.1428571428571428
 40
0.2142857142857143
 40
0.2857142857142857
 40
0.3214285714285714
 40
0.3571428571428571
 40
0.3928571428571428
 40
0.4285714285714286
 40
0.4642857142857144
 40
0.5
 40
0.5714285714285714
 40
0.6071428571428572
 40
0.6428571428571428
 40
0.6785714285714287
 40
0.7142857142857144
 40
0.75
 40
0.7857142857142857
 40
0.8571428571428571
 40
1.0
 40
1.0
 40
1.0
 40
1.0
 10
800.2464074431875
 20
1870.048402061972
 30
0.0
 10
800.248577247347
 20
1870.048402061972
 30
0.0
 10
800.2796120439288
 20
1870.128869682032
 30
0.0
 10
800.3870904594457
 20
1870.389487359319
 30
0.0
 10
800.4750284120978
 20
1870.613365089066
 30
0.0
 10
800.5546857632161
 20
1870.826594557768
 30
0.0
 10
800.6212893202642
 20
1871.002979342166
 30
0.0
 10
800.6916052590533
 20
1871.195329631571
 30
0.0
 10
800.7626761102454
 20
1871.403267525926
 30
0.0
 10
800.8361368451611
 20
1871.62590583783
 30
0.0
 10
800.9396277748185
 20
1871.941157263778
 30
0.0
 10
801.0423168995124
 20
1872.283728471727
 30
0.0
 10
801.1408868657458
 20
1872.651351029369
 30
0.0
 10
801.2156961182602
 20
1872.938312692919
 30
0.0
 10
801.2875851385
 20
1873.23624785138
 30
0.0
 10
801.3532968098223
 20
1873.544741529114
 30
0.0
 10
801.4141378088856
 20
1873.863024808399
 30
0.0
 10
801.4915273867991
 20
1874.298825188778
 30
0.0
 10
801.6030170446287
 20
1875.088581156837
 30
0.0
 10
801.6474825029483
 20
1875.800348472232
 30
0.0
 10
801.6584794822579
 20
1876.278980644169
 30
0.0
  0
SPLINE
  5
16B
330
87
100
AcDbEntity
  8
P-SANR-FIXT
100
AcDbSpline
210
0.0
220
0.0
230
1.0
 70
     8
 71
     3
 72
    26
 73
    22
 74
     0
 42
0.000000001
 43
0.0000000001
 40
0.0
 40
0.0
 40
0.0
 40
0.0
 40
0.1428571428571428
 40
0.2142857142857143
 40
0.2857142857142857
 40
0.3214285714285714
 40
0.3571428571428571
 40
0.3928571428571428
 40
0.4285714285714286
 40
0.4642857142857144
 40
0.5
 40
0.5357142857142857
 40
0.5714285714285714
 40
0.6071428571428572
 40
0.6428571428571428
 40
0.6785714285714287
 40
0.7142857142857144
 40
0.75
 40
0.7857142857142857
 40
0.8571428571428571
 40
1.0
 40
1.0
 40
1.0
 40
1.0
 10
802.5226520739403
 20
1876.278980644169
 30
0.0
 10
802.5278661388169
 20
1876.7788415129
 30
0.0
 10
802.5009883389863
 20
1877.528386268296
 30
0.0
 10
802.3797301799714
 20
1878.489109391699
 30
0.0
 10
802.2785676851617
 20
1879.065069665111
 30
0.0
 10
802.1875747956915
 20
1879.505582897349
 30
0.0
 10
802.1109494443692
 20
1879.82512846754
 30
0.0
 10
802.0304191002448
 20
1880.1332888272
 30
0.0
 10
801.9500075280374
 20
1880.429707850194
 30
0.0
 10
801.8677212704336
 20
1880.713053847101
 30
0.0
 10
801.7814740936124
 20
1880.982289660027
 30
0.0
 10
801.6953599149642
 20
1881.237249899137
 30
0.0
 10
801.6133543264553
 20
1881.477646812497
 30
0.0
 10
801.5337260705342
 20
1881.70245178994
 30
0.0
 10
801.454368142901
 20
1881.910589409612
 30
0.0
 10
801.3790075090632
 20
1882.101692958515
 30
0.0
 10
801.3110445389388
 20
1882.275204354951
 30
0.0
 10
801.2493520149961
 20
1882.430449718527
 30
0.0
 10
801.1725552348439
 20
1882.611958050597
 30
0.0
 10
801.0655249522651
 20
1882.860431828377
 30
0.0
 10
801.0296891702703
 20
1882.948402061972
 30
0.0
 10
801.0269860253847
 20
1882.948402061972
 30
0.0
  0
LINE
  5
16C
330
87
100
AcDbEntity
  8
P-SANR-FIXT
100
AcDbLine
 10
823.1664074431883
 20
1827.498402061984
 30
0.0
 11
808.1664074431873
 21
1827.498402061984
 31
0.0
  0
LINE
  5
16D
330
87
100
AcDbEntity
  8
P-SANR-FIXT
100
AcDbLine
 10
801.0269860253847
 20
1889.798402061972
 30
0.0
 11
830.3058288609909
 21
1889.798402061972
 31
0.0
  0
LINE
  5
16E
330
87
100
AcDbEntity
  8
P-SANR-FIXT
100
AcDbLine
 10
801.6584794822579
 20
1876.278980644169
 30
0.0
 11
831.0864074431879
 21
1876.278980644169
 31
0.0
  0
LINE
  5
16F
330
87
100
AcDbEntity
  8
P-SANR-FIXT
100
AcDbLine
 10
800.2464074431875
 20
1865.998402061956
 30
0.0
 11
831.0864074431879
 21
1865.998402061956
 31
0.0
  0
LINE
  5
170
330
87
100
AcDbEntity
  8
P-SANR-FIXT
100
AcDbLine
 10
801.1664074431886
 20
1864.498402061956
 30
0.0
 11
830.1664074431871
 21
1864.498402061956
 31
0.0
  0
LINE
  5
171
330
87
100
AcDbEntity
  8
P-SANR-FIXT
100
AcDbLine
 10
802.2164074431874
 20
1861.498402061956
 30
0.0
 11
829.1164074431883
 21
1861.498402061956
 31
0.0
  0
LINE
  5
172
330
87
100
AcDbEntity
  8
P-SANR-FIXT
100
AcDbLine
 10
800.8664074432003
 20
1859.498402061984
 30
0.0
 11
830.4664074431752
 21
1859.498402061984
 31
0.0
  0
LINE
  5
173
330
87
100
AcDbEntity
  8
P-SANR-FIXT
100
AcDbLine
 10
800.8664074432003
 20
1850.498402061984
 30
0.0
 11
830.4664074431752
 21
1850.498402061984
 31
0.0
  0
LINE
  5
174
330
87
100
AcDbEntity
  8
P-SANR-FIXT
100
AcDbLine
 10
730.0902856025627
 20
1870.946305109022
 30
0.0
 11
723.1132388891738
 21
1870.946305109022
 31
0.0
  0
LINE
  5
175
330
87
100
AcDbEntity
  8
P-SANR-FIXT
100
AcDbLine
 10
725.4037640761354
 20
1854.746334611245
 30
0.0
 11
730.0902856025626
 21
1854.746334611245
 31
0.0
  0
LINE
  5
176
330
87
100
AcDbEntity
  8
P-SANR-FIXT
100
AcDbLine
 10
692.9200869395343
 20
1856.978999109188
 30
0.0
 11
692.9200869395341
 21
1849.7570688079
 31
0.0
  0
LINE
  5
177
330
87
100
AcDbEntity
  8
P-SANR-FIXT
100
AcDbLine
 10
725.4037640761354
 20
1849.7570688079
 30
0.0
 11
725.4037640761354
 21
1854.746334611245
 31
0.0
  0
LINE
  5
178
330
87
100
AcDbEntity
  8
P-SANR-FIXT
100
AcDbLine
 10
694.2938125683463
 20
1859.35836169395
 30
0.0
 11
692.9200869395343
 21
1856.978999109188
 31
0.0
  0
LINE
  5
179
330
87
100
AcDbEntity
  8
P-SANR-FIXT
100
AcDbLine
 10
694.2938125683463
 20
1869.35836169395
 30
0.0
 11
694.2938125683463
 21
1859.35836169395
 31
0.0
  0
LINE
  5
17A
330
87
100
AcDbEntity
  8
P-SANR-FIXT
100
AcDbLine
 10
696.7938125683465
 20
1873.688488712872
 30
0.0
 11
694.2938125683463
 21
1869.35836169395
 31
0.0
  0
LINE
  5
17B
330
87
100
AcDbEntity
  8
P-SANR-FIXT
100
AcDbLine
 10
723.1132388891738
 20
1870.946305109022
 30
0.0
 11
721.5300384473232
 21
1873.688488712872
 31
0.0
  0
LINE
  5
17C
330
87
100
AcDbEntity
  8
P-SANR-FIXT
100
AcDbLine
 10
696.7938125683462
 20
1878.688488712872
 30
0.0
 11
696.7938125683462
 21
1873.688488712872
 31
0.0
  0
LINE
  5
17D
330
87
100
AcDbEntity
  8
P-SANR-FIXT
100
AcDbLine
 10
721.5300384473232
 20
1873.688488712872
 30
0.0
 11
721.5300384473232
 21
1878.688488712872
 31
0.0
  0
LINE
  5
17E
330
87
100
AcDbEntity
  8
P-SANR-FIXT
100
AcDbLine
 10
698.6619255078348
 20
1880.556601652361
 30
0.0
 11
696.7938125683462
 21
1878.688488712872
 31
0.0
  0
LINE
  5
17F
330
87
100
AcDbEntity
  8
P-SANR-FIXT
100
AcDbLine
 10
721.5300384473232
 20
1878.688488712872
 30
0.0
 11
719.6619255078347
 21
1880.556601652361
 31
0.0
  0
LINE
  5
180
330
87
100
AcDbEntity
  8
P-SANR-FIXT
100
AcDbLine
 10
698.661925507835
 20
1893.357532566
 30
0.0
 11
698.6619255078348
 21
1880.556601652361
 31
0.0
  0
LINE
  5
181
330
87
100
AcDbEntity
  8
P-SANR-FIXT
100
AcDbLine
 10
719.6619255078347
 20
1880.556601652361
 30
0.0
 11
719.6619255078347
 21
1893.357532566
 31
0.0
  0
LINE
  5
182
330
87
100
AcDbEntity
  8
P-SANR-FIXT
100
AcDbLine
 10
693.7674055555537
 20
1848.7570688079
 30
0.0
 11
694.3305748703025
 21
1848.193899493152
 31
0.0
  0
LINE
  5
183
330
87
100
AcDbEntity
  8
P-SANR-FIXT
100
AcDbLine
 10
723.9932761453671
 20
1848.193899493152
 30
0.0
 11
724.5564454601159
 21
1848.7570688079
 31
0.0
  0
LINE
  5
184
330
87
100
AcDbEntity
  8
P-SANR-FIXT
100
AcDbLine
 10
693.7674055555537
 20
1849.7570688079
 30
0.0
 11
693.7674055555537
 21
1848.7570688079
 31
0.0
  0
LINE
  5
185
330
87
100
AcDbEntity
  8
P-SANR-FIXT
100
AcDbLine
 10
724.5564454601159
 20
1848.7570688079
 30
0.0
 11
724.5564454601159
 21
1849.7570688079
 31
0.0
  0
SPLINE
  5
186
330
87
100
AcDbEntity
  8
P-SANR-FIXT
100
AcDbSpline
210
0.0
220
0.0
230
1.0
 70
     8
 71
     3
 72
    10
 73
     6
 74
     0
 42
0.000000001
 43
0.0000000001
 40
0.0
 40
0.0
 40
0.0
 40
0.0
 40
0.3333333333333333
 40
0.6666666666666666
 40
1.0
 40
1.0
 40
1.0
 40
1.0
 10
723.1132388891723
 20
1870.946305109021
 30
0.0
 10
723.1101672044317
 20
1870.946305109021
 30
0.0
 10
723.1142061120357
 20
1870.823705716951
 30
0.0
 10
723.1204431244199
 20
1870.281825295103
 30
0.0
 10
723.185456593884
 20
1869.698707187021
 30
0.0
 10
723.2281158305383
 20
1869.358361693949
 30
0.0
  0
SPLINE
  5
187
330
87
100
AcDbEntity
  8
P-SANR-FIXT
100
AcDbSpline
210
0.0
220
0.0
230
1.0
 70
     8
 71
     3
 72
    22
 73
    18
 74
     0
 42
0.000000001
 43
0.0000000001
 40
0.0
 40
0.0
 40
0.0
 40
0.0
 40
0.0833333333333333
 40
0.1666666666666666
 40
0.2083333333333333
 40
0.25
 40
0.2916666666666666
 40
0.3333333333333333
 40
0.375
 40
0.4166666666666666
 40
0.4583333333333333
 40
0.5
 40
0.5416666666666666
 40
0.5833333333333333
 40
0.6666666666666666
 40
0.8333333333333332
 40
1.0
 40
1.0
 40
1.0
 40
1.0
 10
723.2281158305383
 20
1869.358361693949
 30
0.0
 10
723.1387039583065
 20
1869.178045025425
 30
0.0
 10
722.9606971182258
 20
1868.789748003616
 30
0.0
 10
722.7434992272746
 20
1868.240427995187
 30
0.0
 10
722.5670441932554
 20
1867.767577372311
 30
0.0
 10
722.4328794082261
 20
1867.397511001909
 30
0.0
 10
722.3028721700192
 20
1867.012041343853
 30
0.0
 10
722.1839392836828
 20
1866.611122430233
 30
0.0
 10
722.0727983541999
 20
1866.195781461078
 30
0.0
 10
721.9660202717587
 20
1865.768056709167
 30
0.0
 10
721.8703218848949
 20
1865.328729402448
 30
0.0
 10
721.791670639444
 20
1864.87927888034
 30
0.0
 10
721.7288856336952
 20
1864.419968113727
 30
0.0
 10
721.6611584635623
 20
1863.796440800161
 30
0.0
 10
721.6003346531408
 20
1862.690769377212
 30
0.0
 10
721.7119350945196
 20
1861.098493788747
 30
0.0
 10
721.9482872808704
 20
1859.915603563701
 30
0.0
 10
722.108619043954
 20
1859.358361693949
 30
0.0
  0
SPLINE
  5
188
330
87
100
AcDbEntity
  8
P-SANR-FIXT
100
AcDbSpline
210
0.0
220
0.0
230
1.0
 70
     8
 71
     3
 72
     9
 73
     5
 74
     0
 42
0.000000001
 43
0.0000000001
 40
0.0
 40
0.0
 40
0.0
 40
0.0
 40
0.5
 40
1.0
 40
1.0
 40
1.0
 40
1.0
 10
722.108619043954
 20
1859.358361693949
 30
0.0
 10
722.5145587910718
 20
1858.932188140779
 30
0.0
 10
723.3046589548392
 20
1858.096725084357
 30
0.0
 10
724.0512004576701
 20
1857.332762440699
 30
0.0
 10
724.4135815438514
 20
1856.978999109188
 30
0.0
  0
SPLINE
  5
189
330
87
100
AcDbEntity
  8
P-SANR-FIXT
100
AcDbSpline
210
0.0
220
0.0
230
1.0
 70
     8
 71
     3
 72
    11
 73
     7
 74
     0
 42
0.000000001
 43
0.0000000001
 40
0.0
 40
0.0
 40
0.0
 40
0.0
 40
0.3333333333333333
 40
0.5
 40
0.6666666666666666
 40
1.0
 40
1.0
 40
1.0
 40
1.0
 10
724.4135815438514
 20
1856.978999109188
 30
0.0
 10
724.6040661059746
 20
1856.516569942226
 30
0.0
 10
724.8500381488607
 20
1855.909077403595
 30
0.0
 10
725.1242676364772
 20
1855.316986245011
 30
0.0
 10
725.336898602241
 20
1854.882513268467
 30
0.0
 10
725.3980750795691
 20
1854.746334611245
 30
0.0
 10
725.4037640761339
 20
1854.746334611245
 30
0.0
  0
LINE
  5
18A
330
87
100
AcDbEntity
  8
P-SANR-FIXT
100
AcDbLine
 10
724.4135815438514
 20
1856.978999109188
 30
0.0
 11
692.9200869395328
 21
1856.978999109188
 31
0.0
  0
LINE
  5
18B
330
87
100
AcDbEntity
  8
P-SANR-FIXT
100
AcDbLine
 10
722.108619043954
 20
1859.358361693949
 30
0.0
 11
694.2938125683449
 21
1859.358361693949
 31
0.0
  0
LINE
  5
18C
330
87
100
AcDbEntity
  8
P-SANR-FIXT
100
AcDbLine
 10
723.2281158305383
 20
1869.358361693949
 30
0.0
 11
694.2938125683449
 21
1869.358361693949
 31
0.0
  0
LINE
  5
18D
330
87
100
AcDbEntity
  8
P-SANR-FIXT
100
AcDbLine
 10
721.5300384473218
 20
1873.688488712872
 30
0.0
 11
696.793812568345
 21
1873.688488712872
 31
0.0
  0
LINE
  5
18E
330
87
100
AcDbEntity
  8
P-SANR-FIXT
100
AcDbLine
 10
721.5300384473218
 20
1878.688488712871
 30
0.0
 11
696.793812568345
 21
1878.688488712871
 31
0.0
  0
LINE
  5
18F
330
87
100
AcDbEntity
  8
P-SANR-FIXT
100
AcDbLine
 10
719.6619255078334
 20
1880.55660165236
 30
0.0
 11
698.6619255078335
 21
1880.55660165236
 31
0.0
  0
LINE
  5
190
330
87
100
AcDbEntity
  8
P-SANR-FIXT
100
AcDbLine
 10
724.5564454601145
 20
1848.7570688079
 30
0.0
 11
693.7674055555523
 21
1848.7570688079
 31
0.0
  0
LINE
  5
191
330
87
100
AcDbEntity
  8
P-SANR-FIXT
100
AcDbLine
 10
692.9200869395328
 20
1849.7570688079
 30
0.0
 11
725.4037640761339
 21
1849.7570688079
 31
0.0
  0
LINE
  5
192
330
87
100
AcDbEntity
  8
P-SANR-FIXT
100
AcDbLine
 10
732.6580360623586
 20
2090.013673595024
 30
0.0
 11
730.6059478083029
 21
2090.013673595024
 31
0.0
  0
LINE
  5
193
330
87
100
AcDbEntity
  8
P-SANR-FIXT
100
AcDbLine
 10
730.6059478083029
 20
2070.013673595024
 30
0.0
 11
732.6580360623586
 21
2070.013673595024
 31
0.0
  0
LWPOLYLINE
  5
194
330
87
100
AcDbEntity
  8
P-SANR-FIXT
100
AcDbPolyline
 90
       80
 70
   128
 43
0.0
 10
730.0902856025626
 20
2089.498011389284
 10
730.0902856025626
 20
2089.490424930657
 10
730.0902856025626
 20
2089.467677691493
 10
730.0902856025626
 20
2089.42980606252
 10
730.0902856025626
 20
2089.376870630268
 10
730.0902856025626
 20
2089.308956080134
 10
730.0902856025626
 20
2089.226171060913
 10
730.0902856025626
 20
2089.128648010973
 10
730.0902856025626
 20
2089.016542946393
 10
730.0902856025626
 20
2088.89003521136
 10
730.0902856025626
 20
2088.749327191264
 10
730.0902856025626
 20
2088.59464398892
 10
730.0902856025626
 20
2088.426233064456
 10
730.0902856025626
 20
2088.244363839424
 10
730.0902856025626
 20
2088.049327265788
 10
730.0902856025626
 20
2087.841435360461
 10
730.0902856025626
 20
2087.621020706141
 10
730.0902856025626
 20
2087.388435919258
 10
730.0902856025626
 20
2087.144053085856
 10
730.0902856025626
 20
2086.888263166335
 10
730.0902856025626
 20
2086.621475369999
 10
730.0902856025626
 20
2086.344116500414
 10
730.0902856025626
 20
2086.056630272603
 10
730.0902856025626
 20
2085.759476603202
 10
730.0902856025626
 20
2085.453130874694
 10
730.0902856025626
 20
2085.138083174895
 10
730.0902856025626
 20
2084.814837512917
 10
730.0902856025626
 20
2084.483911012863
 10
730.0902856025626
 20
2084.145833086542
 10
730.0902856025626
 20
2083.801144586514
 10
730.0902856025626
 20
2083.45039694085
 10
730.0902856025626
 20
2083.094151270961
 10
730.0902856025626
 20
2082.732977493925
 10
730.0902856025626
 20
2082.367453410737
 10
730.0902856025626
 20
2081.998163781959
 10
730.0902856025626
 20
2081.625699392215
 10
730.0902856025626
 20
2081.250656105077
 10
730.0902856025626
 20
2080.873633909797
 10
730.0902856025626
 20
2080.495235961464
 10
730.0902856025626
 20
2080.116067616071
 10
730.0902856025626
 20
2079.736735462088
 10
730.0902856025626
 20
2079.35784635004
 10
730.0902856025626
 20
2078.980006421682
 10
730.0902856025626
 20
2078.603820140297
 10
730.0902856025626
 20
2078.229889323687
 10
730.0902856025626
 20
2077.858812181391
 10
730.0902856025626
 20
2077.491182357678
 10
730.0902856025626
 20
2077.127587981841
 10
730.0902856025626
 20
2076.768610727321
 10
730.0902856025626
 20
2076.414824881145
 10
730.0902856025626
 20
2076.066796425198
 10
730.0902856025626
 20
2075.725082130768
 10
730.0902856025626
 20
2075.390228667829
 10
730.0902856025626
 20
2075.062771730491
 10
730.0902856025626
 20
2074.743235180001
 10
730.0902856025626
 20
2074.432130206675
 10
730.0902856025626
 20
2074.129954512104
 10
730.0902856025626
 20
2073.837191512939
 10
730.0902856025626
 20
2073.554309567527
 10
730.0902856025626
 20
2073.281761226635
 10
730.0902856025626
 20
2073.019982509467
 10
730.0902856025626
 20
2072.769392206128
 10
730.0902856025626
 20
2072.530391207647
 10
730.0902856025626
 20
2072.303361864637
 10
730.0902856025626
 20
2072.088667375617
 10
730.0902856025626
 20
2071.886651205971
 10
730.0902856025626
 20
2071.697636538475
 10
730.0902856025626
 20
2071.521925756275
 10
730.0902856025626
 20
2071.359799959142
 10
730.0902856025626
 20
2071.211518513765
 10
730.0902856025626
 20
2071.077318638824
 10
730.0902856025626
 20
2070.957415025493
 10
730.0902856025626
 20
2070.851999493975
 10
730.0902856025626
 20
2070.761240686632
 10
730.0902856025626
 20
2070.685283798195
 10
730.0902856025626
 20
2070.624250343483
 10
730.0902856025626
 20
2070.578237963003
 10
730.0902856025626
 20
2070.547320266749
 10
730.0902856025626
 20
2070.531546716439
 10
730.0902856025626
 20
2070.529335800764
  0
LWPOLYLINE
  5
195
330
87
100
AcDbEntity
  8
P-SANR-FIXT
100
AcDbPolyline
 90
       41
 70
   128
 43
0.0
 10
730.6059478083029
 20
2070.013673595024
 10
730.5853268200301
 20
2070.014086069788
 10
730.5647388209398
 20
2070.015322834207
 10
730.5442167474383
 20
2070.017381909722
 10
730.5237934304656
 20
2070.020260002252
 10
730.5035015429723
 20
2070.023952507462
 10
730.4833735476493
 20
2070.028453518133
 10
730.4634416449955
 20
2070.033755833606
 10
730.4437377218034
 20
2070.039850971308
 10
730.4242933001468
 20
2070.046729180321
 10
730.4051394869524
 20
2070.054379456975
 10
730.3863069242353
 20
2070.062789562461
 10
730.3678257400783
 20
2070.071946042403
 10
730.3497255004339
 20
2070.081834248388
 10
730.3320351618241
 20
2070.092438361394
 10
730.3147830250172
 20
2070.103741417104
 10
730.2979966897519
 20
2070.115725333039
 10
730.2817030105834
 20
2070.12837093749
 10
730.2659280539227
 20
2070.141658000187
 10
730.2506970563354
 20
2070.155565264665
 10
730.2360343841684
 20
2070.170070482268
 10
730.2219634945695
 20
2070.185150447741
 10
730.2085068979599
 20
2070.200781036357
 10
730.1956861220244
 20
2070.216937242507
 10
730.1835216772691
 20
2070.23359321971
 10
730.1720330242106
 20
2070.250722321954
 10
730.1612385422429
 20
2070.268297146329
 10
730.1511555002348
 20
2070.286289576866
 10
730.1418000289023
 20
2070.304670829515
 10
730.133187095004
 20
2070.323411498191
 10
730.1253304773969
 20
2070.342481601824
 10
730.1182427449928
 20
2070.361850632314
 10
730.1119352366519
 20
2070.381487603346
 10
730.1064180430419
 20
2070.401361099955
 10
730.1016999904958
 20
2070.421439328784
 10
730.0977886268908
 20
2070.441690168953
 10
730.0946902095748
 20
2070.462081223436
 10
730.0924096953541
 20
2070.482579870895
 10
730.0909507325654
 20
2070.503153317868
 10
730.0903156552374
 20
2070.523768651229
 10
730.0902856025626
 20
2070.529335800764
  0
LWPOLYLINE
  5
196
330
87
100
AcDbEntity
  8
P-SANR-FIXT
100
AcDbPolyline
 90
       41
 70
   128
 43
0.0
 10
730.0902856025626
 20
2089.498011389284
 10
730.0906980773261
 20
2089.518632377556
 10
730.0919348417451
 20
2089.539220376646
 10
730.0939939172604
 20
2089.559742450148
 10
730.0968720097903
 20
2089.580165767121
 10
730.1005645150008
 20
2089.600457654614
 10
730.1050655256712
 20
2089.620585649937
 10
730.1103678411449
 20
2089.640517552591
 10
730.1164629788477
 20
2089.660221475783
 10
730.1233411878598
 20
2089.67966589744
 10
730.130991464514
 20
2089.698819710634
 10
730.1394015699996
 20
2089.717652273352
 10
730.1485580499421
 20
2089.736133457508
 10
730.1584462559266
 20
2089.754233697153
 10
730.1690503689329
 20
2089.771924035762
 10
730.1803534246426
 20
2089.789176172569
 10
730.1923373405773
 20
2089.805962507835
 10
730.2049829450282
 20
2089.822256187003
 10
730.2182700077259
 20
2089.838031143663
 10
730.2321772722042
 20
2089.853262141251
 10
730.2466824898068
 20
2089.867924813418
 10
730.2617624552799
 20
2089.881995703017
 10
730.2773930438954
 20
2089.895452299626
 10
730.2935492500462
 20
2089.908273075562
 10
730.3102052272485
 20
2089.920437520317
 10
730.3273343294923
 20
2089.931926173376
 10
730.3449091538679
 20
2089.942720655344
 10
730.3629015844051
 20
2089.952803697352
 10
730.3812828370535
 20
2089.962159168684
 10
730.4000235057301
 20
2089.970772102582
 10
730.4190936093625
 20
2089.97862872019
 10
730.4384626398529
 20
2089.985716452594
 10
730.4580996108846
 20
2089.992023960935
 10
730.4779731074932
 20
2089.997541154545
 10
730.4980513363231
 20
2090.002259207091
 10
730.5183021764916
 20
2090.006170570696
 10
730.538693230974
 20
2090.009268988012
 10
730.5591918784336
 20
2090.011549502232
 10
730.5797653254066
 20
2090.013008465021
 10
730.600380658767
 20
2090.013643542349
 10
730.6059478083029
 20
2090.013673595024
  0
LWPOLYLINE
  5
197
330
87
100
AcDbEntity
  8
P-SANR-FIXT
100
AcDbPolyline
 90
        4
 70
   128
 43
0.0
 10
730.0902856025626
 20
2070.529335800764
 10
730.0902856025626
 20
2070.536922259391
 10
730.0902856025626
 20
2070.559669498555
 10
730.0902856025626
 20
2070.585744327102
  0
LWPOLYLINE
  5
198
330
87
100
AcDbEntity
  8
P-SANR-FIXT
100
AcDbPolyline
 90
        3
 70
   128
 43
0.0
 10
730.0902856025626
 20
2089.480026923299
 10
730.0902856025626
 20
2089.495800473609
 10
730.0902856025626
 20
2089.498011389284
  0
LINE
  5
199
330
87
100
AcDbEntity
  8
P-SANR-FIXT
100
AcDbLine
 10
732.6580360623572
 20
2070.013673595023
 30
0.0
 11
740.5825922045965
 21
2070.013673595023
 31
0.0
  0
ARC
  5
19A
330
87
100
AcDbEntity
  8
P-SANR-FIXT
100
AcDbCircle
 10
740.5825922045965
 20
2070.513673595023
 30
0.0
 40
0.5
100
AcDbArc
 50
269.9999999999997
 51
0.0
  0
LINE
  5
19B
330
87
100
AcDbEntity
  8
P-SANR-FIXT
100
AcDbLine
 10
741.0825922045965
 20
2070.513673595023
 30
0.0
 11
741.0825922045965
 21
2075.47772870773
 31
0.0
  0
ARC
  5
19C
330
87
100
AcDbEntity
  8
P-SANR-FIXT
100
AcDbCircle
 10
688.1558202695733
 20
2121.93884156288
 30
0.0
 40
70.42640268536351
100
AcDbArc
 50
317.4988406574469
 51
318.7221206254402
  0
LINE
  5
19D
330
87
100
AcDbEntity
  8
P-SANR-FIXT
100
AcDbLine
 10
740.0786481341881
 20
2074.358402916914
 30
0.0
 11
735.9359316841403
 21
2074.358402916914
 31
0.0
  0
ARC
  5
19E
330
87
100
AcDbEntity
  8
P-SANR-FIXT
100
AcDbCircle
 10
579.7266962095808
 20
2157.351727057934
 30
0.0
 40
176.8875832259648
100
AcDbArc
 50
330.852584037576
 51
332.0184752592416
  0
LINE
  5
19F
330
87
100
AcDbEntity
  8
P-SANR-FIXT
100
AcDbLine
 10
734.21490746566
 20
2071.19715850571
 30
0.0
 11
732.6580360623572
 21
2071.19715850571
 31
0.0
  0
LINE
  5
1A0
330
87
100
AcDbEntity
  8
P-SANR-FIXT
100
AcDbLine
 10
732.6580360623572
 20
2070.331215229504
 30
0.0
 11
732.6580360623572
 21
2070.013673595023
 31
0.0
  0
LINE
  5
1A1
330
87
100
AcDbEntity
  8
P-SANR-FIXT
100
AcDbLine
 10
741.0825922045965
 20
2094.408348520804
 30
0.0
 11
741.934923991345
 21
2094.408348520804
 31
0.0
  0
LINE
  5
1A2
330
87
100
AcDbEntity
  8
P-SANR-FIXT
100
AcDbLine
 10
741.934923991345
 20
2094.408348520804
 30
0.0
 11
742.7746365906233
 21
2106.416798154638
 31
0.0
  0
ARC
  5
1A3
330
87
100
AcDbEntity
  8
P-SANR-FIXT
100
AcDbCircle
 10
742.2307920715649
 20
2106.454827468049
 30
0.0
 40
0.5451725319459893
100
AcDbArc
 50
355.9999999999912
 51
90.0
  0
LINE
  5
1A4
330
87
100
AcDbEntity
  8
P-SANR-FIXT
100
AcDbLine
 10
742.2307920715649
 20
2106.999999999995
 30
0.0
 11
732.6580360623572
 21
2106.999999999995
 31
0.0
  0
LINE
  5
1A5
330
87
100
AcDbEntity
  8
P-SANR-FIXT
100
AcDbLine
 10
732.6580360623572
 20
2106.999999999995
 30
0.0
 11
732.6580360623572
 21
2089.696131960542
 31
0.0
  0
LINE
  5
1A6
330
87
100
AcDbEntity
  8
P-SANR-FIXT
100
AcDbLine
 10
732.6580360623572
 20
2088.830188684335
 30
0.0
 11
734.21490746566
 21
2088.830188684335
 31
0.0
  0
ARC
  5
1A7
330
87
100
AcDbEntity
  8
P-SANR-FIXT
100
AcDbCircle
 10
579.7266962101019
 20
2002.675620132395
 30
0.0
 40
176.8875832253725
100
AcDbArc
 50
27.98152474075672
 51
29.14741596242615
  0
LINE
  5
1A8
330
87
100
AcDbEntity
  8
P-SANR-FIXT
100
AcDbLine
 10
735.9359316841403
 20
2085.668944273132
 30
0.0
 11
740.078648134188
 21
2085.668944273132
 31
0.0
  0
ARC
  5
1A9
330
87
100
AcDbEntity
  8
P-SANR-FIXT
100
AcDbCircle
 10
688.1558202700154
 20
2038.088505627562
 30
0.0
 40
70.42640268477004
100
AcDbArc
 50
41.27787937455468
 51
42.50115934255836
  0
LINE
  5
1AA
330
87
100
AcDbEntity
  8
P-SANR-FIXT
100
AcDbLine
 10
741.0825922045965
 20
2084.549618482316
 30
0.0
 11
741.0825922045965
 21
2094.408348520804
 31
0.0
  0
LINE
  5
1AB
330
87
100
AcDbEntity
  8
P-SANR-FIXT
100
AcDbLine
 10
741.0825922045965
 20
2084.549618482316
 30
0.0
 11
741.0825922045965
 21
2075.47772870773
 31
0.0
  0
LINE
  5
1AC
330
87
100
AcDbEntity
  8
P-SANR-FIXT
100
AcDbLine
 10
740.078648134188
 20
2085.668944273132
 30
0.0
 11
740.0786481341881
 21
2074.358402916914
 31
0.0
  0
LINE
  5
1AD
330
87
100
AcDbEntity
  8
P-SANR-FIXT
100
AcDbLine
 10
735.9359316841403
 20
2085.668944273132
 30
0.0
 11
735.9359316841403
 21
2074.358402916914
 31
0.0
  0
LINE
  5
1AE
330
87
100
AcDbEntity
  8
P-SANR-FIXT
100
AcDbLine
 10
734.21490746566
 20
2088.830188684335
 30
0.0
 11
734.21490746566
 21
2071.19715850571
 31
0.0
  0
LINE
  5
1AF
330
87
100
AcDbEntity
  8
P-SANR-FIXT
100
AcDbLine
 10
732.6580360623572
 20
2089.696131960542
 30
0.0
 11
732.6580360623572
 21
2070.331215229504
 31
0.0
  0
LINE
  5
1B0
330
87
100
AcDbEntity
  8
P-SANR-FIXT
100
AcDbLine
 10
692.9200869395341
 20
2093.102924647257
 30
0.0
 11
692.9200869395341
 21
2085.88099434597
 31
0.0
  0
LINE
  5
1B1
330
87
100
AcDbEntity
  8
P-SANR-FIXT
100
AcDbLine
 10
725.4037640761353
 20
2088.113658843912
 30
0.0
 11
725.4037640761353
 21
2093.102924647257
 31
0.0
  0
LINE
  5
1B2
330
87
100
AcDbEntity
  8
P-SANR-FIXT
100
AcDbLine
 10
692.9200869395341
 20
2085.88099434597
 30
0.0
 11
694.2938125683463
 21
2083.501631761208
 31
0.0
  0
LINE
  5
1B3
330
87
100
AcDbEntity
  8
P-SANR-FIXT
100
AcDbLine
 10
694.2938125683463
 20
2083.501631761207
 30
0.0
 11
694.2938125683463
 21
2073.501631761208
 31
0.0
  0
LINE
  5
1B4
330
87
100
AcDbEntity
  8
P-SANR-FIXT
100
AcDbLine
 10
694.2938125683463
 20
2073.501631761208
 30
0.0
 11
696.7938125683462
 21
2069.171504742286
 31
0.0
  0
LINE
  5
1B5
330
87
100
AcDbEntity
  8
P-SANR-FIXT
100
AcDbLine
 10
721.5300384473232
 20
2069.171504742286
 30
0.0
 11
723.1132388891738
 21
2071.913688346135
 31
0.0
  0
LINE
  5
1B6
330
87
100
AcDbEntity
  8
P-SANR-FIXT
100
AcDbLine
 10
696.7938125683462
 20
2069.171504742286
 30
0.0
 11
696.7938125683462
 21
2064.171504742285
 31
0.0
  0
LINE
  5
1B7
330
87
100
AcDbEntity
  8
P-SANR-FIXT
100
AcDbLine
 10
721.5300384473232
 20
2064.171504742285
 30
0.0
 11
721.5300384473232
 21
2069.171504742286
 31
0.0
  0
LINE
  5
1B8
330
87
100
AcDbEntity
  8
P-SANR-FIXT
100
AcDbLine
 10
696.7938125683462
 20
2064.171504742285
 30
0.0
 11
698.6619255078348
 21
2062.303391802797
 31
0.0
  0
LINE
  5
1B9
330
87
100
AcDbEntity
  8
P-SANR-FIXT
100
AcDbLine
 10
719.6619255078347
 20
2062.303391802797
 30
0.0
 11
721.5300384473232
 21
2064.171504742285
 31
0.0
  0
LINE
  5
1BA
330
87
100
AcDbEntity
  8
P-SANR-FIXT
100
AcDbLine
 10
698.6619255078348
 20
2062.303391802797
 30
0.0
 11
698.6619255078348
 21
2049.499996060992
 31
0.0
  0
LINE
  5
1BB
330
87
100
AcDbEntity
  8
P-SANR-FIXT
100
AcDbLine
 10
719.6619255078347
 20
2049.499996060992
 30
0.0
 11
719.6619255078347
 21
2062.303391802797
 31
0.0
  0
LINE
  5
1BC
330
87
100
AcDbEntity
  8
P-SANR-FIXT
100
AcDbLine
 10
694.3305748703025
 20
2094.666093962006
 30
0.0
 11
693.7674055555535
 21
2094.102924647257
 31
0.0
  0
LINE
  5
1BD
330
87
100
AcDbEntity
  8
P-SANR-FIXT
100
AcDbLine
 10
724.5564454601159
 20
2094.102924647257
 30
0.0
 11
723.9932761453669
 21
2094.666093962006
 31
0.0
  0
LINE
  5
1BE
330
87
100
AcDbEntity
  8
P-SANR-FIXT
100
AcDbLine
 10
693.7674055555535
 20
2094.102924647257
 30
0.0
 11
693.7674055555535
 21
2093.102924647257
 31
0.0
  0
LINE
  5
1BF
330
87
100
AcDbEntity
  8
P-SANR-FIXT
100
AcDbLine
 10
724.5564454601159
 20
2093.102924647257
 30
0.0
 11
724.5564454601159
 21
2094.102924647257
 31
0.0
  0
LINE
  5
1C0
330
87
100
AcDbEntity
  8
P-SANR-FIXT
100
AcDbLine
 10
723.1132388891738
 20
2071.913688346135
 30
0.0
 11
730.0902856025626
 21
2071.913688346135
 31
0.0
  0
LINE
  5
1C1
330
87
100
AcDbEntity
  8
P-SANR-FIXT
100
AcDbLine
 10
730.0902856025626
 20
2088.113658843912
 30
0.0
 11
725.4037640761353
 21
2088.113658843912
 31
0.0
  0
LINE
  5
1C2
330
87
100
AcDbEntity
  8
P-SANR-FIXT
100
AcDbLine
 10
725.4037640761338
 20
2093.102924647256
 30
0.0
 11
692.9200869395327
 21
2093.102924647256
 31
0.0
  0
SPLINE
  5
1C3
330
87
100
AcDbEntity
  8
P-SANR-FIXT
100
AcDbSpline
210
0.0
220
0.0
230
1.0
 70
     8
 71
     3
 72
    10
 73
     6
 74
     0
 42
0.000000001
 43
0.0000000001
 40
0.0
 40
0.0
 40
0.0
 40
0.0
 40
0.3333333333333333
 40
0.6666666666666666
 40
1.0
 40
1.0
 40
1.0
 40
1.0
 10
724.4135815438514
 20
2085.880994345969
 30
0.0
 10
724.5953836668591
 20
2086.353053102556
 30
0.0
 10
724.9368391676187
 20
2087.148353660602
 30
0.0
 10
725.3126939195192
 20
2087.935866134839
 30
0.0
 10
725.4037640761339
 20
2088.108557203993
 30
0.0
 10
725.4037640761338
 20
2088.113658843911
 30
0.0
  0
SPLINE
  5
1C4
330
87
100
AcDbEntity
  8
P-SANR-FIXT
100
AcDbSpline
210
0.0
220
0.0
230
1.0
 70
     8
 71
     3
 72
     9
 73
     5
 74
     0
 42
0.000000001
 43
0.0000000001
 40
-1.0
 40
-1.0
 40
-1.0
 40
-1.0
 40
-0.5
 40
0.0
 40
0.0
 40
0.0
 40
0.0
 10
722.1086190439539
 20
2083.501631761206
 30
0.0
 10
722.5145587910717
 20
2083.927805314377
 30
0.0
 10
723.3046589548392
 20
2084.763268370799
 30
0.0
 10
724.0512004576701
 20
2085.527231014457
 30
0.0
 10
724.4135815438514
 20
2085.880994345968
 30
0.0
  0
LINE
  5
1C5
330
87
100
AcDbEntity
  8
P-SANR-FIXT
100
AcDbLine
 10
692.9200869395327
 20
2085.880994345969
 30
0.0
 11
724.4135815438514
 21
2085.880994345969
 31
0.0
  0
SPLINE
  5
1C6
330
87
100
AcDbEntity
  8
P-SANR-FIXT
100
AcDbSpline
210
0.0
220
0.0
230
1.0
 70
     8
 71
     3
 72
    15
 73
    11
 74
     0
 42
0.000000001
 43
0.0000000001
 40
0.0
 40
0.0
 40
0.0
 40
0.0
 40
0.1666666666666666
 40
0.3333333333333333
 40
0.4166666666666666
 40
0.5
 40
0.5833333333333333
 40
0.6666666666666666
 40
0.8333333333333332
 40
1.0
 40
1.0
 40
1.0
 40
1.0
 10
723.2281158305383
 20
2073.501631761207
 30
0.0
 10
723.0578461143855
 20
2073.86931076404
 30
0.0
 10
722.6982654994559
 20
2074.693131859779
 30
0.0
 10
722.2532659435052
 20
2075.960053932385
 30
0.0
 10
721.9601820312744
 20
2077.087100652286
 30
0.0
 10
721.7840888063713
 20
2077.97526873773
 30
0.0
 10
721.6693528196063
 20
2078.905972090197
 30
0.0
 10
721.6009085241461
 20
2080.168477341286
 30
0.0
 10
721.7092440541238
 20
2081.766357818218
 30
0.0
 10
721.9537484729364
 20
2082.934299346802
 30
0.0
 10
722.1086190439539
 20
2083.501631761206
 30
0.0
  0
LINE
  5
1C7
330
87
100
AcDbEntity
  8
P-SANR-FIXT
100
AcDbLine
 10
694.2938125683448
 20
2083.501631761206
 30
0.0
 11
722.1086190439539
 21
2083.501631761206
 31
0.0
  0
SPLINE
  5
1C8
330
87
100
AcDbEntity
  8
P-SANR-FIXT
100
AcDbSpline
210
0.0
220
0.0
230
1.0
 70
     8
 71
     3
 72
    10
 73
     6
 74
     0
 42
0.000000001
 43
0.0000000001
 40
-1.0
 40
-1.0
 40
-1.0
 40
-1.0
 40
-0.6666666666666666
 40
-0.3333333333333333
 40
0.0
 40
0.0
 40
0.0
 40
0.0
 10
723.1132388891722
 20
2071.913688346135
 30
0.0
 10
723.1101672044317
 20
2071.913688346135
 30
0.0
 10
723.1142061120357
 20
2072.036287738205
 30
0.0
 10
723.1204431244198
 20
2072.578168160053
 30
0.0
 10
723.1854565938839
 20
2073.161286268136
 30
0.0
 10
723.2281158305383
 20
2073.501631761207
 30
0.0
  0
LINE
  5
1C9
330
87
100
AcDbEntity
  8
P-SANR-FIXT
100
AcDbLine
 10
694.2938125683448
 20
2073.501631761207
 30
0.0
 11
723.228115830538
 21
2073.501631761207
 31
0.0
  0
LINE
  5
1CA
330
87
100
AcDbEntity
  8
P-SANR-FIXT
100
AcDbLine
 10
696.7938125683449
 20
2069.171504742284
 30
0.0
 11
721.5300384473217
 21
2069.171504742284
 31
0.0
  0
LINE
  5
1CB
330
87
100
AcDbEntity
  8
P-SANR-FIXT
100
AcDbLine
 10
696.7938125683449
 20
2064.171504742285
 30
0.0
 11
721.5300384473218
 21
2064.171504742285
 31
0.0
  0
LINE
  5
1CC
330
87
100
AcDbEntity
  8
P-SANR-FIXT
100
AcDbLine
 10
698.6619255078332
 20
2062.303391802796
 30
0.0
 11
719.6619255078332
 21
2062.303391802796
 31
0.0
  0
LINE
  5
1CD
330
87
100
AcDbEntity
  8
P-SANR-FIXT
100
AcDbLine
 10
693.7674055555521
 20
2094.102924647256
 30
0.0
 11
724.5564454601143
 21
2094.102924647256
 31
0.0
  0
LINE
  5
1CE
330
87
100
AcDbEntity
  8
P-SANR-FIXT
100
AcDbLine
 10
778.2420027344183
 20
2030.070000000056
 30
0.0
 11
781.1664074431893
 21
2028.381594154228
 31
0.0
  0
LINE
  5
1CF
330
87
100
AcDbEntity
  8
P-SANR-FIXT
100
AcDbLine
 10
850.1664074431893
 20
2028.381594154228
 30
0.0
 11
853.0908121519601
 21
2030.070000000056
 31
0.0
  0
LINE
  5
1D0
330
87
100
AcDbEntity
  8
P-SANR-FIXT
100
AcDbLine
 10
781.1664074431895
 20
2028.381594154228
 30
0.0
 11
781.1664074431895
 21
2025.499999999996
 31
0.0
  0
LINE
  5
1D1
330
87
100
AcDbEntity
  8
P-SANR-FIXT
100
AcDbLine
 10
781.1664074431895
 20
1974.499999999996
 30
0.0
 11
781.1664074431895
 21
1964.999999999996
 31
0.0
  0
LINE
  5
1D2
330
87
100
AcDbEntity
  8
P-SANR-FIXT
100
AcDbLine
 10
850.1664074431891
 20
1964.999999999996
 30
0.0
 11
850.1664074431891
 21
2028.381594154228
 31
0.0
  0
LWPOLYLINE
  5
1D3
330
87
100
AcDbEntity
  8
P-SANR-FIXT
100
AcDbPolyline
 90
       80
 70
   128
 43
0.0
 10
785.1664074431893
 20
1960.999999999996
 10
785.1908041900294
 20
1960.999999999996
 10
785.2639554009595
 20
1960.999999999996
 10
785.3857440496463
 20
1960.999999999996
 10
785.5559753002327
 20
1960.999999999996
 10
785.7743768190315
 20
1960.999999999996
 10
786.0405992102023
 20
1960.999999999996
 10
786.3542165747108
 20
1960.999999999996
 10
786.7147271916749
 20
1960.999999999996
 10
787.1215543210123
 20
1960.999999999996
 10
787.5740471261013
 20
1960.999999999996
 10
788.0714817149804
 20
1960.999999999996
 10
788.6130622984211
 20
1960.999999999996
 10
789.1979224630209
 20
1960.999999999996
 10
789.8251265572802
 20
1960.999999999996
 10
790.4936711884442
 20
1960.999999999996
 10
791.2024868277184
 20
1960.999999999996
 10
791.9504395212862
 20
1960.999999999996
 10
792.7363327043921
 20
1960.999999999996
 10
793.5589091155917
 20
1960.999999999996
 10
794.4168528081007
 20
1960.999999999996
 10
795.3087912550294
 20
1960.999999999996
 10
796.2332975451325
 20
1960.999999999996
 10
797.1888926655638
 20
1960.999999999996
 10
798.1740478679795
 20
1960.999999999996
 10
799.187187114211
 20
1960.999999999996
 10
800.2266895975896
 20
1960.999999999996
 10
801.2908923358905
 20
1960.999999999996
 10
802.3780928317497
 20
1960.999999999996
 10
803.486551796298
 20
1960.999999999996
 10
804.614495931651
 20
1960.999999999996
 10
805.7601207678068
 20
1960.999999999996
 10
806.9215935494149
 20
1960.999999999996
 10
808.0970561677919
 20
1960.999999999996
 10
809.284628133501
 20
1960.999999999996
 10
810.482409584732
 20
1960.999999999996
 10
811.688484326676
 20
1960.999999999996
 10
812.9009228970279
 20
1960.999999999996
 10
814.1177856527152
 20
1960.999999999996
 10
815.3371258729125
 20
1960.999999999996
 10
816.5569928733786
 20
1960.999999999996
 10
817.7754351271383
 20
1960.999999999996
 10
818.9905033865056
 20
1960.999999999996
 10
820.2002538014662
 20
1960.999999999996
 10
821.4027510294224
 20
1960.999999999996
 10
822.5960713313286
 20
1960.999999999996
 10
823.7783056492633
 20
1960.999999999996
 10
824.9475626605143
 20
1960.999999999996
 10
826.1019718032921
 20
1960.999999999996
 10
827.2396862692282
 20
1960.999999999996
 10
828.3588859578774
 20
1960.999999999996
 10
829.4577803884873
 20
1960.999999999996
 10
830.5346115643875
 20
1960.999999999996
 10
831.5876567854081
 20
1960.999999999996
 10
832.6152314038331
 20
1960.999999999996
 10
833.6156915194775
 20
1960.999999999996
 10
834.5874366095761
 20
1960.999999999996
 10
835.5289120892795
 20
1960.999999999996
 10
836.4386117986576
 20
1960.999999999996
 10
837.3150804122342
 20
1960.999999999996
 10
838.1569157671973
 20
1960.999999999996
 10
838.9627711065616
 20
1960.999999999996
 10
839.7313572336901
 20
1960.999999999996
 10
840.4614445747361
 20
1960.999999999996
 10
841.1518651456972
 20
1960.999999999996
 10
841.8015144209423
 20
1960.999999999996
 10
842.4093531002151
 20
1960.999999999996
 10
842.974408771294
 20
1960.999999999996
 10
843.4957774656442
 20
1960.999999999996
 10
843.972625104574
 20
1960.999999999996
 10
844.4041888335835
 20
1960.999999999996
 10
844.7897782427681
 20
1960.999999999996
 10
845.1287764713276
 20
1960.999999999996
 10
845.4206411944124
 20
1960.999999999996
 10
845.6649054907266
 20
1960.999999999996
 10
845.861178589503
 20
1960.999999999996
 10
846.0091464956528
 20
1960.999999999996
 10
846.1085724920913
 20
1960.999999999996
 10
846.1592975184334
 20
1960.999999999996
 10
846.1664074431894
 20
1960.999999999996
  0
LWPOLYLINE
  5
1D4
330
87
100
AcDbEntity
  8
P-SANR-FIXT
100
AcDbPolyline
 90
       41
 70
   128
 43
0.0
 10
850.1664074431893
 20
1964.999999999996
 10
850.1632078698332
 20
1964.840042663249
 10
850.1536142683997
 20
1964.680341224119
 10
850.1376419866048
 20
1964.52115117084
 10
850.1153165766918
 20
1964.362727173539
 10
850.0866737545543
 20
1964.205322676816
 10
850.0517593425975
 20
1964.049189494287
 10
850.0106291964325
 20
1963.894577405739
 10
849.963349115519
 20
1963.741733757531
 10
849.9099947379011
 20
1963.590903066895
 10
849.8506514192008
 20
1963.442326630761
 10
849.7854140960692
 20
1963.296242139732
 10
849.7143871343064
 20
1963.15288329783
 10
849.6376841618999
 20
1963.012479448621
 10
849.5554278872431
 20
1962.875255208312
 10
849.4677499028281
 20
1962.741430106415
 10
849.3747904747264
 20
1962.611218234546
 10
849.2766983181931
 20
1962.484827903922
 10
849.173630359753
 20
1962.36246131211
 10
849.0657514861531
 20
1962.244314219553
 10
848.953234280578
 20
1962.130575636398
 10
848.8362587465546
 20
1962.021427520112
 10
848.7150120199837
 20
1961.9170444844
 10
848.5896880697632
 20
1961.81759351985
 10
848.4604873874792
 20
1961.723233726791
 10
848.327616666662
 20
1961.634116060764
 10
848.1912884721205
 20
1961.550383091022
 10
848.0517208998843
 20
1961.472168772456
 10
847.9091372282962
 20
1961.39959823129
 10
847.7637655608145
 20
1961.332787564909
 10
847.6158384610959
 20
1961.271843656127
 10
847.4655925809443
 20
1961.216864002198
 10
847.3132682817173
 20
1961.167936558839
 10
847.1591092497989
 20
1961.125139599523
 10
847.003362106755
 20
1961.088541590255
 10
846.8462760147904
 20
1961.058201080042
 10
846.688102278142
 20
1961.034166607229
 10
846.5290939410467
 20
1961.016476621845
 10
846.3695053829237
 20
1961.005159424093
 10
846.2095919114224
 20
1961.000233119076
 10
846.1664074431894
 20
1960.999999999996
  0
LWPOLYLINE
  5
1D5
330
87
100
AcDbEntity
  8
P-SANR-FIXT
100
AcDbPolyline
 90
       41
 70
   128
 43
0.0
 10
785.1664074431893
 20
1960.999999999996
 10
785.0064501064426
 20
1961.003199573352
 10
784.8467486673126
 20
1961.012793174785
 10
784.6875586140336
 20
1961.02876545658
 10
784.5291346167323
 20
1961.051090866493
 10
784.3717301200089
 20
1961.079733688631
 10
784.2155969374807
 20
1961.114648100587
 10
784.0609848489328
 20
1961.155778246753
 10
783.9081412007248
 20
1961.203058327666
 10
783.7573105100889
 20
1961.256412705284
 10
783.6087340739546
 20
1961.315756023984
 10
783.4626495829252
 20
1961.380993347116
 10
783.3192907410232
 20
1961.452020308879
 10
783.1788868918143
 20
1961.528723281285
 10
783.0416626515058
 20
1961.610979555942
 10
782.9078375496091
 20
1961.698657540357
 10
782.7776256777397
 20
1961.791616968459
 10
782.6512353471153
 20
1961.889709124992
 10
782.5288687553034
 20
1961.992777083432
 10
782.4107216627472
 20
1962.100655957032
 10
782.2969830795912
 20
1962.213173162607
 10
782.1878349633059
 20
1962.330148696631
 10
782.0834519275933
 20
1962.451395423202
 10
781.9840009630439
 20
1962.576719373422
 10
781.8896411699851
 20
1962.705920055706
 10
781.8005235039577
 20
1962.838790776523
 10
781.7167905342158
 20
1962.975118971065
 10
781.6385762156495
 20
1963.114686543301
 10
781.5660056744832
 20
1963.257270214889
 10
781.4991950081022
 20
1963.402641882371
 10
781.4382510993204
 20
1963.550568982089
 10
781.383271445391
 20
1963.700814862241
 10
781.3343440020324
 20
1963.853139161468
 10
781.2915470427161
 20
1964.007298193386
 10
781.254949033448
 20
1964.16304533643
 10
781.2246085232353
 20
1964.320131428395
 10
781.2005740504226
 20
1964.478305165043
 10
781.1828840650386
 20
1964.637313502139
 10
781.1715668672869
 20
1964.796902060261
 10
781.1666405622694
 20
1964.956815531763
 10
781.1664074431893
 20
1964.999999999996
  0
LWPOLYLINE
  5
1D6
330
87
100
AcDbEntity
  8
P-SANR-FIXT
100
AcDbPolyline
 90
        4
 70
   128
 43
0.0
 10
846.1664074431894
 20
1960.999999999996
 10
846.1420106963492
 20
1960.999999999996
 10
846.0688594854191
 20
1960.999999999996
 10
846.0441929441785
 20
1960.999999999996
  0
LWPOLYLINE
  5
1D7
330
87
100
AcDbEntity
  8
P-SANR-FIXT
100
AcDbPolyline
 90
        4
 70
   128
 43
0.0
 10
785.2934142951556
 20
1960.999999999996
 10
785.2242423942873
 20
1960.999999999996
 10
785.173517367945
 20
1960.999999999996
 10
785.1664074431893
 20
1960.999999999996
  0
LINE
  5
1D8
330
87
100
AcDbEntity
  8
P-SANR-FIXT
100
AcDbLine
 10
787.1664074431897
 20
1960.999999999996
 30
0.0
 11
787.1664074431897
 21
1933.499999999996
 31
0.0
  0
LINE
  5
1D9
330
87
100
AcDbEntity
  8
P-SANR-FIXT
100
AcDbLine
 10
844.1664074431889
 20
1933.499999999996
 30
0.0
 11
844.1664074431889
 21
1960.999999999996
 31
0.0
  0
LINE
  5
1DA
330
87
100
AcDbEntity
  8
P-SANR-FIXT
100
AcDbLine
 10
787.1664074431897
 20
1930.499999999996
 30
0.0
 11
787.1664074431897
 21
1922.500976325003
 31
0.0
  0
LINE
  5
1DB
330
87
100
AcDbEntity
  8
P-SANR-FIXT
100
AcDbLine
 10
844.1664074431889
 20
1922.500976325003
 30
0.0
 11
844.1664074431889
 21
1930.499999999996
 31
0.0
  0
LWPOLYLINE
  5
1DC
330
87
100
AcDbEntity
  8
P-SANR-FIXT
100
AcDbPolyline
 90
       15
 70
   128
 43
0.0
 10
844.1664074431892
 20
1922.500976325003
 10
844.1548089897734
 20
1921.921130979297
 10
844.1200321845771
 20
1921.34221326245
 10
844.0621326630704
 20
1920.765149319313
 10
843.9812030521357
 20
1920.190862329096
 10
843.8773728218873
 20
1919.620271028474
 10
843.7508080785436
 20
1919.05428824181
 10
843.6017112986954
 20
1918.493819420823
 10
843.4303210053846
 20
1917.939761196069
 10
843.2369113865192
 20
1917.392999942514
 10
843.0217918562311
 20
1916.854410361527
 10
842.7853065598787
 20
1916.324854081545
 10
842.5278338234889
 20
1915.805178279651
 10
842.2497855485151
 20
1915.296214326269
 10
842.2324330678648
 20
1915.265991874432
  0
LWPOLYLINE
  5
1DD
330
87
100
AcDbEntity
  8
P-SANR-FIXT
100
AcDbPolyline
 90
       15
 70
   128
 43
0.0
 10
789.1003818185139
 20
1915.265991874432
 10
788.8211110876802
 20
1915.774286088405
 10
788.5623900908313
 20
1916.293341571806
 10
788.3246327263718
 20
1916.822327946587
 10
788.1082193553655
 20
1917.360398947393
 10
787.9134961930408
 20
1917.906693775405
 10
787.7407747549183
 20
1918.460338475435
 10
787.5903313584537
 20
1919.020447334068
 10
787.4624066809887
 20
1919.586124296614
 10
787.3572053747181
 20
1920.156464400602
 10
787.27489573929
 20
1920.730555223534
 10
787.2156094525627
 20
1921.307478342558
 10
787.179441359948
 20
1921.886310803756
 10
787.1664493226785
 20
1922.466126598665
 10
787.1664074431894
 20
1922.500976325003
  0
LINE
  5
1DE
330
87
100
AcDbEntity
  8
P-SANR-FIXT
100
AcDbLine
 10
789.1003818185139
 20
1915.265991874432
 30
0.0
 11
793.4653464081695
 21
1907.684737587135
 31
0.0
  0
LINE
  5
1DF
330
87
100
AcDbEntity
  8
P-SANR-FIXT
100
AcDbLine
 10
837.8674684782092
 20
1907.684737587135
 30
0.0
 11
842.2324330678648
 21
1915.265991874432
 31
0.0
  0
LWPOLYLINE
  5
1E0
330
87
100
AcDbEntity
  8
P-SANR-FIXT
100
AcDbPolyline
 90
       15
 70
   128
 43
0.0
 10
837.8674684782094
 20
1907.684737587135
 10
837.4052272685533
 20
1906.843423026077
 10
836.9769994117001
 20
1905.984296708724
 10
836.5834699808704
 20
1905.108733053914
 10
836.2252685392052
 20
1904.218132776718
 10
835.9029681325987
 20
1903.313920647594
 10
835.6170843729476
 20
1902.397543213061
 10
835.3680746132821
 20
1901.470466481531
 10
835.1563372160988
 20
1900.534173578008
 10
834.9822109160644
 20
1899.590162371406
 10
834.8459742781145
 20
1898.639943078277
 10
834.7478452518071
 20
1897.685035846789
 10
834.6879808226516
 20
1896.726968324808
 10
834.666476760964
 20
1895.767273215992
 10
834.6664074431894
 20
1895.709590910329
  0
LWPOLYLINE
  5
1E1
330
87
100
AcDbEntity
  8
P-SANR-FIXT
100
AcDbPolyline
 90
       15
 70
   128
 43
0.0
 10
796.6664074431893
 20
1895.709590910329
 10
796.6472100030528
 20
1896.669334930808
 10
796.5896483944523
 20
1897.627543565589
 10
796.4938147036821
 20
1898.582683885263
 10
796.3598622442043
 20
1899.533227869071
 10
796.1880053113791
 20
1900.47765484941
 10
795.978518839638
 20
1901.41445394458
 10
795.7317379626478
 20
1902.342126475868
 10
795.4480574771679
 20
1903.259188365116
 10
795.1279312114597
 20
1904.164172508931
 10
794.7718712992585
 20
1905.055631125737
 10
794.3804473604683
 20
1905.932138071913
 10
793.9542855898921
 20
1906.792291123325
 10
793.4940677554528
 20
1907.634714218579
 10
793.4653464081693
 20
1907.684737587135
  0
LINE
  5
1E2
330
87
100
AcDbEntity
  8
P-SANR-FIXT
100
AcDbLine
 10
796.6664074431893
 20
1895.709590910328
 30
0.0
 11
796.6664074431893
 21
1892.199999999996
 31
0.0
  0
LINE
  5
1E3
330
87
100
AcDbEntity
  8
P-SANR-FIXT
100
AcDbLine
 10
834.6664074431894
 20
1892.199999999996
 30
0.0
 11
834.6664074431894
 21
1895.709590910328
 31
0.0
  0
LINE
  5
1E4
330
87
100
AcDbEntity
  8
P-SANR-FIXT
100
AcDbLine
 10
767.2035030800258
 20
1970.999999999996
 30
0.0
 11
769.7035030800566
 21
1970.999999999996
 31
0.0
  0
LINE
  5
1E5
330
87
100
AcDbEntity
  8
P-SANR-FIXT
100
AcDbLine
 10
769.7035030800565
 20
2028.999999999996
 30
0.0
 11
767.2035030800257
 21
2028.999999999996
 31
0.0
  0
LINE
  5
1E6
330
87
100
AcDbEntity
  8
P-SANR-FIXT
100
AcDbLine
 10
769.7035030800566
 20
1970.999999999995
 30
0.0
 11
769.7413329620748
 21
1971.065523277695
 31
0.0
  0
LINE
  5
1E7
330
87
100
AcDbEntity
  8
P-SANR-FIXT
100
AcDbLine
 10
769.7551166478278
 20
1971.089397321735
 30
0.0
 11
771.4932889145445
 21
1974.099999999995
 31
0.0
  0
LINE
  5
1E8
330
87
100
AcDbEntity
  8
P-SANR-FIXT
100
AcDbLine
 10
771.4932889145442
 20
2025.899999999996
 30
0.0
 11
769.7551166478277
 21
2028.910602678257
 31
0.0
  0
LINE
  5
1E9
330
87
100
AcDbEntity
  8
P-SANR-FIXT
100
AcDbLine
 10
769.7413329620746
 20
2028.934476722296
 30
0.0
 11
769.7035030800565
 21
2028.999999999996
 31
0.0
  0
LWPOLYLINE
  5
1EA
330
87
100
AcDbEntity
  8
P-SANR-FIXT
100
AcDbPolyline
 90
       28
 70
   128
 43
0.0
 10
771.4932889145442
 20
2025.899999999996
 10
771.5098388305805
 20
2025.872614533902
 10
771.5274706350045
 20
2025.845912793385
 10
771.5461561206906
 20
2025.81993749553
 10
771.5658653948477
 20
2025.794730195275
 10
771.5865669268413
 20
2025.770331218923
 10
771.6082275986369
 20
2025.746779599629
 10
771.6308127577796
 20
2025.724113014963
 10
771.6542862728332
 20
2025.702367726623
 10
771.6786105911808
 20
2025.681578522433
 10
771.7037467991023
 20
2025.661778660684
 10
771.7296546840265
 20
2025.642999816931
 10
771.7562927988645
 20
2025.625272033318
 10
771.7836185283155
 20
2025.608623670518
 10
771.8115881570411
 20
2025.593081362359
 10
771.8401569396021
 20
2025.578669973219
 10
771.8692791720403
 20
2025.565412558247
 10
771.8989082649969
 20
2025.553330326478
 10
771.928996818243
 20
2025.542442606905
 10
771.9594966965126
 20
2025.532766817558
 10
771.9903591065063
 20
2025.524318437634
 10
772.021534674952
 20
2025.517110982741
 10
772.0529735275903
 20
2025.511155983268
 10
772.0846253689639
 20
2025.506462965944
 10
772.1164395628789
 20
2025.503039438595
 10
772.1483652134107
 20
2025.500890878136
 10
772.1803512463301
 20
2025.500020721803
 10
772.1861092375718
 20
2025.499999999996
  0
LWPOLYLINE
  5
1EB
330
87
100
AcDbEntity
  8
P-SANR-FIXT
100
AcDbPolyline
 90
       28
 70
   128
 43
0.0
 10
772.186109237572
 20
1974.499999999996
 10
772.1541177702227
 20
1974.499360085324
 10
772.1221774823966
 20
1974.497441365038
 10
772.090339471741
 20
1974.494246908678
 10
772.0586546722807
 20
1974.489781826696
 10
772.027173772936
 20
1974.484053262268
 10
771.9959471364302
 20
1974.477070379877
 10
771.9650247187206
 20
1974.468844350644
 10
771.9344559890791
 20
1974.459388334461
 10
771.904289850952
 20
1974.448717458938
 10
771.874574563725
 20
1974.436848795198
 10
771.8453576655191
 20
1974.423801330571
 10
771.8166858971386
 20
1974.409595938219
 10
771.788605127297
 20
1974.394255343737
 10
771.7611602792352
 20
1974.377804088806
 10
771.7343952588561
 20
1974.360268491923
 10
771.708352884482
 20
1974.341676606303
 10
771.6830748183572
 20
1974.322058174996
 10
771.6586014999948
 20
1974.301444583308
 10
771.6349720814835
 20
1974.279868808588
 10
771.6122243648523
 20
1974.257365367473
 10
771.5903947415952
 20
1974.233970260668
 10
771.5695181344528
 20
1974.209720915354
 10
771.5496279415427
 20
1974.18465612531
 10
771.5307559829311
 20
1974.158815988853
 10
771.5129324497256
 20
1974.13224184469
 10
771.4961858557773
 20
1974.104976205781
 10
771.4932889145445
 20
1974.099999999995
  0
LINE
  5
1EC
330
87
100
AcDbEntity
  8
P-SANR-FIXT
100
AcDbLine
 10
772.186109237572
 20
1974.499999999996
 30
0.0
 11
781.1664074431895
 21
1974.499999999996
 31
0.0
  0
LINE
  5
1ED
330
87
100
AcDbEntity
  8
P-SANR-FIXT
100
AcDbLine
 10
781.1664074431895
 20
2025.499999999996
 30
0.0
 11
772.1861092375718
 21
2025.499999999996
 31
0.0
  0
LINE
  5
1EE
330
87
100
AcDbEntity
  8
P-SANR-FIXT
100
AcDbLine
 10
796.6664074431893
 20
1892.199999999996
 30
0.0
 11
797.1664074431893
 21
1891.699999999996
 31
0.0
  0
LINE
  5
1EF
330
87
100
AcDbEntity
  8
P-SANR-FIXT
100
AcDbLine
 10
834.1664074431893
 20
1891.699999999996
 30
0.0
 11
834.6664074431894
 21
1892.199999999996
 31
0.0
  0
LINE
  5
1F0
330
87
100
AcDbEntity
  8
P-SANR-FIXT
100
AcDbLine
 10
787.1664074431897
 20
1933.499999999996
 30
0.0
 11
787.1664074431897
 21
1930.499999999996
 31
0.0
  0
LINE
  5
1F1
330
87
100
AcDbEntity
  8
P-SANR-FIXT
100
AcDbLine
 10
844.1664074431889
 20
1930.499999999996
 30
0.0
 11
844.1664074431889
 21
1933.499999999996
 31
0.0
  0
LINE
  5
1F2
330
87
100
AcDbEntity
  8
P-SANR-FIXT
100
AcDbLine
 10
805.3511296009983
 20
2052.970000000075
 30
0.0
 11
806.5664074431897
 21
2052.268359010746
 31
0.0
  0
LINE
  5
1F3
330
87
100
AcDbEntity
  8
P-SANR-FIXT
100
AcDbLine
 10
824.766407443189
 20
2052.268359010746
 30
0.0
 11
825.9816852853804
 21
2052.970000000075
 31
0.0
  0
LINE
  5
1F4
330
87
100
AcDbEntity
  8
P-SANR-FIXT
100
AcDbLine
 10
806.5664074431897
 20
2052.268359010746
 30
0.0
 11
806.5664074431897
 21
2051.470000000056
 31
0.0
  0
LINE
  5
1F5
330
87
100
AcDbEntity
  8
P-SANR-FIXT
100
AcDbLine
 10
824.766407443189
 20
2051.470000000056
 30
0.0
 11
824.766407443189
 21
2052.268359010746
 31
0.0
  0
LINE
  5
1F6
330
87
100
AcDbEntity
  8
P-SANR-FIXT
100
AcDbLine
 10
801.6664074431895
 20
2051.470000000056
 30
0.0
 11
801.6664074431895
 21
2050.470000000056
 31
0.0
  0
LINE
  5
1F7
330
87
100
AcDbEntity
  8
P-SANR-FIXT
100
AcDbLine
 10
829.6664074431891
 20
2050.470000000056
 30
0.0
 11
829.6664074431891
 21
2051.470000000056
 31
0.0
  0
LINE
  5
1F8
330
87
100
AcDbEntity
  8
P-SANR-FIXT
100
AcDbLine
 10
773.6664074431891
 20
2050.470000000056
 30
0.0
 11
773.6664074431891
 21
2030.070000000056
 31
0.0
  0
LINE
  5
1F9
330
87
100
AcDbEntity
  8
P-SANR-FIXT
100
AcDbLine
 10
857.6664074431896
 20
2030.070000000056
 30
0.0
 11
857.6664074431896
 21
2050.470000000056
 31
0.0
  0
LINE
  5
1FA
330
87
100
AcDbEntity
  8
P-SANR-FIXT
100
AcDbLine
 10
766.5516278924887
 20
1966.499999999996
 30
0.0
 11
767.2035030800257
 21
1967.151875187532
 31
0.0
  0
LINE
  5
1FB
330
87
100
AcDbEntity
  8
P-SANR-FIXT
100
AcDbLine
 10
767.2035030800257
 20
2032.84812481246
 30
0.0
 11
766.5516278924887
 21
2033.499999999996
 31
0.0
  0
LINE
  5
1FC
330
87
100
AcDbEntity
  8
P-SANR-FIXT
100
AcDbLine
 10
743.6035030801045
 20
1966.499999999996
 30
0.0
 11
766.5516278924887
 21
1966.499999999996
 31
0.0
  0
LINE
  5
1FD
330
87
100
AcDbEntity
  8
P-SANR-FIXT
100
AcDbLine
 10
766.5516278924887
 20
2033.499999999996
 30
0.0
 11
743.6035030801045
 21
2033.499999999996
 31
0.0
  0
LINE
  5
1FE
330
87
100
AcDbEntity
  8
P-SANR-FIXT
100
AcDbLine
 10
781.1664074431879
 20
2028.381594154227
 30
0.0
 11
850.1664074431877
 21
2028.381594154227
 31
0.0
  0
SPLINE
  5
1FF
330
87
100
AcDbEntity
  8
P-SANR-FIXT
100
AcDbSpline
210
0.0
220
0.0
230
1.0
 70
     8
 71
     3
 72
    10
 73
     6
 74
     0
 42
0.000000001
 43
0.0000000001
 40
0.0
 40
0.0
 40
0.0
 40
0.0
 40
0.3333333333333333
 40
0.6666666666666666
 40
1.0
 40
1.0
 40
1.0
 40
1.0
 10
781.1664074431879
 20
2025.499999999995
 30
0.0
 10
781.1664074431879
 20
2025.490495222524
 30
0.0
 10
781.4136450064824
 20
2025.172780254432
 30
0.0
 10
782.4620684191644
 20
2023.722909601153
 30
0.0
 10
783.4988676930374
 20
2022.261827621588
 30
0.0
 10
784.0794265218457
 20
2021.394797585512
 30
0.0
  0
SPLINE
  5
200
330
87
100
AcDbEntity
  8
P-SANR-FIXT
100
AcDbSpline
210
0.0
220
0.0
230
1.0
 70
     8
 71
     3
 72
    29
 73
    25
 74
     0
 42
0.000000001
 43
0.0000000001
 40
0.0
 40
0.0
 40
0.0
 40
0.0
 40
0.125
 40
0.1875
 40
0.25
 40
0.265625
 40
0.28125
 40
0.3125
 40
0.34375
 40
0.375
 40
0.40625
 40
0.4375
 40
0.5
 40
0.5625
 40
0.59375
 40
0.625
 40
0.65625
 40
0.6875
 40
0.71875
 40
0.75
 40
0.78125
 40
0.8125
 40
0.875
 40
1.0
 40
1.0
 40
1.0
 40
1.0
 10
784.0794265218457
 20
2021.394797585512
 30
0.0
 10
784.8639540778474
 20
2020.229415207239
 30
0.0
 10
786.1649911396964
 20
2018.240311927719
 30
0.0
 10
787.9963878828397
 20
2015.082271825574
 30
0.0
 10
788.9977818154934
 20
2013.129582122212
 30
0.0
 10
789.6194036479908
 20
2011.759894177951
 30
0.0
 10
790.0326238204768
 20
2010.824256943493
 30
0.0
 10
790.531056918544
 20
2009.618519170831
 30
0.0
 10
791.0769417854567
 20
2008.119136269519
 30
0.0
 10
791.5305562930326
 20
2006.585655823413
 30
0.0
 10
791.8970677562425
 20
2004.992650165391
 30
0.0
 10
792.2887983581745
 20
2002.779431271699
 30
0.0
 10
792.5217852275413
 20
1999.999082557551
 30
0.0
 10
792.2883826664221
 20
1997.217985703063
 30
0.0
 10
791.8963112511768
 20
1995.003992221703
 30
0.0
 10
791.5295657619956
 20
1993.410569678884
 30
0.0
 10
791.0755189795122
 20
1991.876769962486
 30
0.0
 10
790.5297506085892
 20
1990.37729220522
 30
0.0
 10
789.929660411767
 20
1988.929555604944
 30
0.0
 10
789.3085913305155
 20
1987.542915598805
 30
0.0
 10
788.6652730603217
 20
1986.216262601644
 30
0.0
 10
787.7625999693523
 20
1984.517413221817
 30
0.0
 10
786.1639503498772
 20
1981.7561083678
 30
0.0
 10
784.862942168667
 20
1979.768580715401
 30
0.0
 10
784.079426521846
 20
1978.605202414478
 30
0.0
  0
SPLINE
  5
201
330
87
100
AcDbEntity
  8
P-SANR-FIXT
100
AcDbSpline
210
0.0
220
0.0
230
1.0
 70
     8
 71
     3
 72
    10
 73
     6
 74
     0
 42
0.000000001
 43
0.0000000001
 40
0.0
 40
0.0
 40
0.0
 40
0.0
 40
0.3333333333333333
 40
0.6666666666666666
 40
1.0
 40
1.0
 40
1.0
 40
1.0
 10
784.0794265218457
 20
1978.605202414478
 30
0.0
 10
783.4988676930374
 20
1977.738172378402
 30
0.0
 10
782.4620684191644
 20
1976.277090398837
 30
0.0
 10
781.4136450064824
 20
1974.827219745558
 30
0.0
 10
781.1664074431879
 20
1974.509504777465
 30
0.0
 10
781.1664074431879
 20
1974.499999999995
 30
0.0
  0
LINE
  5
202
330
87
100
AcDbEntity
  8
P-SANR-FIXT
100
AcDbLine
 10
796.6664074431878
 20
1892.199999999995
 30
0.0
 11
834.6664074431878
 21
1892.199999999995
 31
0.0
  0
LINE
  5
203
330
87
100
AcDbEntity
  8
P-SANR-FIXT
100
AcDbLine
 10
834.1664074431879
 20
1891.699999999995
 30
0.0
 11
797.1664074431878
 21
1891.699999999995
 31
0.0
  0
LINE
  5
204
330
87
100
AcDbEntity
  8
P-SANR-FIXT
100
AcDbLine
 10
769.7035030800551
 20
1970.999999999994
 30
0.0
 11
769.703503080055
 21
2028.999999999995
 31
0.0
  0
LINE
  5
205
330
87
100
AcDbEntity
  8
P-SANR-FIXT
100
AcDbLine
 10
857.6664074431878
 20
2030.070000000055
 30
0.0
 11
773.6664074431877
 21
2030.070000000055
 31
0.0
  0
LINE
  5
206
330
87
100
AcDbEntity
  8
P-SANR-FIXT
100
AcDbLine
 10
806.5664074431881
 20
2052.268359010744
 30
0.0
 11
824.7664074431876
 21
2052.268359010744
 31
0.0
  0
LINE
  5
207
330
87
100
AcDbEntity
  8
P-SANR-FIXT
100
AcDbLine
 10
801.6664074431881
 20
2051.470000000055
 30
0.0
 11
829.6664074431875
 21
2051.470000000055
 31
0.0
  0
LINE
  5
208
330
87
100
AcDbEntity
  8
P-SANR-FIXT
100
AcDbLine
 10
773.6664074431877
 20
2050.470000000055
 30
0.0
 11
857.6664074431878
 21
2050.470000000055
 31
0.0
  0
LINE
  5
209
330
87
100
AcDbEntity
  8
P-SANR-FIXT
100
AcDbLine
 10
766.5516278924874
 20
2033.499999999995
 30
0.0
 11
766.5516278924874
 21
1966.499999999995
 31
0.0
  0
LINE
  5
20A
330
87
100
AcDbEntity
  8
P-SANR-FIXT
100
AcDbLine
 10
767.2035030800242
 20
1967.151875187531
 30
0.0
 11
767.2035030800242
 21
2032.848124812459
 31
0.0
  0
LINE
  5
20B
330
87
100
AcDbEntity
  8
P-SANR-FIXT
100
AcDbLine
 10
743.6035030801032
 20
1966.499999999995
 30
0.0
 11
743.6035030801032
 21
2033.499999999995
 31
0.0
  0
ENDBLK
  5
20D
330
87
100
AcDbEntity
  8
0
100
AcDbBlockEnd
  0
BLOCK
  5
2B0
330
20F
100
AcDbEntity
  8
0
100
AcDbBlockBegin
  2
Automatic flow rate regulator valve_Caleffi_121 DN15 - DN25-V1-Est - Idraulica
 70
     0
 10
0.0
 20
0.0
 30
0.0
  3
Automatic flow rate regulator valve_Caleffi_121 DN15 - DN25-V1-Est - Idraulica
  1

  0
LINE
  5
210
330
20F
100
AcDbEntity
  8
M-PIPE
100
AcDbLine
 10
743.6035030801045
 20
1679.745876124193
 30
0.0
 11
707.1563756783842
 21
1679.745876124192
 31
0.0
1001
REVIT
1002
{
1070
     3
1000
790271
1002
}
  0
LINE
  5
211
330
20F
100
AcDbEntity
  8
M-PIPE
100
AcDbLine
 10
707.1563730493044
 20
1627.745876124344
 30
0.0
 11
743.6035030801045
 21
1627.745876124344
 31
0.0
1001
REVIT
1002
{
1070
     3
1000
790271
1002
}
  0
LINE
  5
212
330
20F
100
AcDbEntity
  8
M-PIPE
100
AcDbLine
 10
680.1619255077493
 20
1653.745872488286
 30
0.0
 11
680.1619255077493
 21
1630.120873503349
 31
0.0
1001
REVIT
1002
{
1070
     3
1000
790271
1002
}
  0
LINE
  5
213
330
20F
100
AcDbEntity
  8
M-PIPE
100
AcDbLine
 10
680.1619255077492
 20
1677.37087248827
 30
0.0
 11
680.1619255077492
 21
1653.745872488286
 31
0.0
1001
REVIT
1002
{
1070
     3
1000
790271
1002
}
  0
LINE
  5
214
330
20F
100
AcDbEntity
  8
M-PIPE
100
AcDbLine
 10
742.6619255077492
 20
1679.745362094472
 30
0.0
 11
742.6619255077492
 21
1698.125728182893
 31
0.0
1001
REVIT
1002
{
1070
     3
1000
790271
1002
}
  0
LINE
  5
215
330
20F
100
AcDbEntity
  8
M-PIPE
100
AcDbLine
 10
675.6619255077493
 20
1698.125728182893
 30
0.0
 11
675.6619255077493
 21
1677.37087248827
 31
0.0
1001
REVIT
1002
{
1070
     3
1000
790271
1002
}
  0
LWPOLYLINE
  5
216
330
20F
100
AcDbEntity
  8
M-PIPE
100
AcDbPolyline
 90
       39
 70
   128
 43
0.0
 10
740.6536681417942
 20
1700.317356518695
 10
740.7411565260717
 20
1700.307935789517
 10
740.8281982002859
 20
1700.295023993681
 10
740.9146539163263
 20
1700.278641787306
 10
741.0003853634896
 20
1700.258815378428
 10
741.0852553897492
 20
1700.235576485072
 10
741.1691282211676
 20
1700.208962284509
 10
741.2518696791062
 20
1700.179015353782
 10
741.3333473948831
 20
1700.145783601594
 10
741.4134310215342
 20
1700.109320191658
 10
741.49199244234
 20
1700.069683457652
 10
741.5689059757864
 20
1700.026936809894
 10
741.6440485766274
 20
1699.981148633903
 10
741.7173000327307
 20
1699.932392180992
 10
741.7885431573933
 20
1699.880745451085
 10
741.8576639768128
 20
1699.826291067933
 10
741.9245519124237
 20
1699.769116146933
 10
741.9890999577975
 20
1699.70931215576
 10
742.0512048498308
 20
1699.646974768043
 10
742.1107672339453
 20
1699.582203710307
 10
742.1676918230316
 20
1699.515102602424
 10
742.2218875498911
 20
1699.445778791855
 10
742.2732677129218
 20
1699.374343181906
 10
742.3217501148232
 20
1699.300910054317
 10
742.3672571940945
 20
1699.225596886424
 10
742.409716149117
 20
1699.148524163233
 10
742.4490590546199
 20
1699.069815184658
 10
742.4852229703467
 20
1698.989595868274
 10
742.5181500417473
 20
1698.907994547877
 10
742.5477875925313
 20
1698.825141768169
 10
742.5740882089399
 20
1698.741170075926
 10
742.5970098155971
 20
1698.65621380794
 10
742.6165157428224
 20
1698.570408876119
 10
742.6325747852928
 20
1698.483892550049
 10
742.6451612519662
 20
1698.396803237396
 10
742.654255007181
 20
1698.309280262482
 10
742.6598415028689
 20
1698.221463643396
 10
742.6619118018281
 20
1698.133493867995
 10
742.6619255077492
 20
1698.125728182893
1001
REVIT
1002
{
1070
     3
1000
790271
1002
}
  0
LWPOLYLINE
  5
217
330
20F
100
AcDbEntity
  8
M-PIPE
100
AcDbPolyline
 90
       39
 70
   128
 43
0.0
 10
675.6619255077493
 20
1698.125728182893
 10
675.6636852730951
 20
1698.213704718104
 10
675.6689617538835
 20
1698.301540509625
 10
675.6777465088707
 20
1698.389095038929
 10
675.6900254843229
 20
1698.476228237444
 10
675.7057790364984
 20
1698.562800710642
 10
675.7249819630748
 20
1698.648673961033
 10
675.7476035434655
 20
1698.733710609734
 10
675.7736075879679
 20
1698.817774616248
 10
675.8029524956579
 20
1698.900731496098
 10
675.8355913209428
 20
1698.982448535972
 10
675.8714718486654
 20
1699.062795006038
 10
675.9105366776347
 20
1699.141642369084
 10
675.9527233124584
 20
1699.218864486149
 10
675.9979642635196
 20
1699.294337818319
 10
676.0461871549479
 20
1699.367941624362
 10
676.0973148404038
 20
1699.43955815389
 10
676.1512655264971
 20
1699.509072835734
 10
676.2079529036393
 20
1699.57637446123
 10
676.2672862841192
 20
1699.641355362136
 10
676.3291707471855
 20
1699.703911582872
 10
676.3935072908983
 20
1699.763943046829
 10
676.4601929905124
 20
1699.821353716471
 10
676.5291211631336
 20
1699.876051746973
 10
676.6001815383898
 20
1699.927949633155
 10
676.6732604348393
 20
1699.97696434947
 10
676.7482409418372
 20
1700.023017482828
 10
676.8250031065671
 20
1700.06603535804
 10
676.9034241259406
 20
1700.105949155681
 10
676.9833785430554
 20
1700.142695022191
 10
677.0647384479005
 20
1700.176214172021
 10
677.147373681984
 20
1700.206452981682
 10
677.231152046559
 20
1700.233363075529
 10
677.3159395141141
 20
1700.256901403153
 10
677.4016004427882
 20
1700.277030308251
 10
677.4879977933686
 20
1700.293717588868
 10
677.5749933485253
 20
1700.306936548915
 10
677.6624479339278
 20
1700.316666040876
 10
677.6701828737046
 20
1700.317356518695
1001
REVIT
1002
{
1070
     3
1000
790271
1002
}
  0
LINE
  5
218
330
20F
100
AcDbEntity
  8
M-PIPE
100
AcDbLine
 10
740.6536681417866
 20
1700.317356518696
 30
0.0
 11
728.6119255077446
 21
1701.370872488271
 31
0.0
1001
REVIT
1002
{
1070
     3
1000
790271
1002
}
  0
LINE
  5
219
330
20F
100
AcDbEntity
  8
M-PIPE
100
AcDbLine
 10
689.711925507754
 20
1701.370872488271
 30
0.0
 11
677.6701828737119
 21
1700.317356518696
 31
0.0
1001
REVIT
1002
{
1070
     3
1000
790271
1002
}
  0
LINE
  5
21A
330
20F
100
AcDbEntity
  8
M-PIPE
100
AcDbLine
 10
728.6119255077448
 20
1606.120872488304
 30
0.0
 11
740.6536681417867
 21
1607.174388457879
 31
0.0
1001
REVIT
1002
{
1070
     3
1000
790271
1002
}
  0
LINE
  5
21B
330
20F
100
AcDbEntity
  8
M-PIPE
100
AcDbLine
 10
677.6701828737119
 20
1607.174388457879
 30
0.0
 11
689.7119255077537
 21
1606.120872488304
 31
0.0
1001
REVIT
1002
{
1070
     3
1000
790271
1002
}
  0
LWPOLYLINE
  5
21C
330
20F
100
AcDbEntity
  8
M-PIPE
100
AcDbPolyline
 90
       39
 70
   128
 43
0.0
 10
742.6619255077493
 20
1609.366016793682
 10
742.6601657424036
 20
1609.278040258471
 10
742.6548892616152
 20
1609.19020446695
 10
742.646104506628
 20
1609.102649937646
 10
742.6338255311758
 20
1609.015516739131
 10
742.6180719790002
 20
1608.928944265933
 10
742.5988690524241
 20
1608.843071015542
 10
742.576247472033
 20
1608.758034366841
 10
742.5502434275307
 20
1608.673970360326
 10
742.5208985198409
 20
1608.591013480477
 10
742.4882596945559
 20
1608.509296440603
 10
742.4523791668333
 20
1608.428949970537
 10
742.4133143378639
 20
1608.35010260749
 10
742.3711277030404
 20
1608.272880490426
 10
742.3258867519789
 20
1608.197407158256
 10
742.2776638605507
 20
1608.123803352213
 10
742.2265361750949
 20
1608.052186822685
 10
742.1725854890016
 20
1607.982672140841
 10
742.1158981118594
 20
1607.915370515345
 10
742.0565647313796
 20
1607.850389614438
 10
741.9946802683132
 20
1607.787833393703
 10
741.9303437246004
 20
1607.727801929746
 10
741.8636580249864
 20
1607.670391260104
 10
741.7947298523651
 20
1607.615693229602
 10
741.7236694771088
 20
1607.56379534342
 10
741.6505905806594
 20
1607.514780627105
 10
741.5756100736615
 20
1607.468727493747
 10
741.4988479089316
 20
1607.425709618535
 10
741.4204268895582
 20
1607.385795820894
 10
741.3404724724434
 20
1607.349049954384
 10
741.2591125675982
 20
1607.315530804554
 10
741.1764773335148
 20
1607.285291994893
 10
741.0926989689397
 20
1607.258381901045
 10
741.0079115013846
 20
1607.234843573422
 10
740.9222505727106
 20
1607.214714668324
 10
740.8358532221301
 20
1607.198027387707
 10
740.7488576669733
 20
1607.18480842766
 10
740.661403081571
 20
1607.175078935699
 10
740.6536681417945
 20
1607.17438845788
1001
REVIT
1002
{
1070
     3
1000
790271
1002
}
  0
LWPOLYLINE
  5
21D
330
20F
100
AcDbEntity
  8
M-PIPE
100
AcDbPolyline
 90
       39
 70
   128
 43
0.0
 10
677.6701828737042
 20
1607.17438845788
 10
677.5826944894267
 20
1607.183809187058
 10
677.4956528152126
 20
1607.196720982894
 10
677.4091970991722
 20
1607.213103189269
 10
677.3234656520089
 20
1607.232929598147
 10
677.2385956257493
 20
1607.256168491504
 10
677.1547227943309
 20
1607.282782692066
 10
677.0719813363922
 20
1607.312729622792
 10
676.9905036206153
 20
1607.345961374981
 10
676.9104199939643
 20
1607.382424784917
 10
676.8318585731583
 20
1607.422061518923
 10
676.7549450397118
 20
1607.464808166681
 10
676.6798024388711
 20
1607.510596342672
 10
676.6065509827678
 20
1607.559352795583
 10
676.5353078581052
 20
1607.61099952549
 10
676.4661870386857
 20
1607.665453908642
 10
676.3992991030747
 20
1607.722628829643
 10
676.334751057701
 20
1607.782432820815
 10
676.2726461656674
 20
1607.844770208531
 10
676.2130837815532
 20
1607.909541266268
 10
676.1561591924666
 20
1607.976642374151
 10
676.1019634656072
 20
1608.045966184721
 10
676.0505833025767
 20
1608.117401794668
 10
676.0021009006752
 20
1608.190834922259
 10
675.9565938214039
 20
1608.26614809015
 10
675.9141348663814
 20
1608.343220813342
 10
675.8747919608786
 20
1608.421929791917
 10
675.8386280451517
 20
1608.5021491083
 10
675.8057009737511
 20
1608.583750428698
 10
675.7760634229672
 20
1608.666603208406
 10
675.7497628065586
 20
1608.750574900649
 10
675.7268411999011
 20
1608.835531168635
 10
675.7073352726761
 20
1608.921336100456
 10
675.6912762302057
 20
1609.007852426526
 10
675.6786897635322
 20
1609.094941739179
 10
675.6695960083174
 20
1609.182464714093
 10
675.6640095126297
 20
1609.270281333179
 10
675.6619392136704
 20
1609.358251108579
 10
675.6619255077493
 20
1609.366016793682
1001
REVIT
1002
{
1070
     3
1000
790271
1002
}
  0
LINE
  5
21E
330
20F
100
AcDbEntity
  8
M-PIPE
100
AcDbLine
 10
742.6619255077492
 20
1609.366016793682
 30
0.0
 11
742.6619255077492
 21
1627.746390162134
 31
0.0
1001
REVIT
1002
{
1070
     3
1000
790271
1002
}
  0
LINE
  5
21F
330
20F
100
AcDbEntity
  8
M-PIPE
100
AcDbLine
 10
675.6619255077495
 20
1630.120872488304
 30
0.0
 11
675.6619255077495
 21
1609.366016793682
 31
0.0
1001
REVIT
1002
{
1070
     3
1000
790271
1002
}
  0
LINE
  5
220
330
20F
100
AcDbEntity
  8
M-PIPE
100
AcDbLine
 10
697.6539074431535
 20
1671.881666260863
 30
0.0
 11
697.6539074431534
 21
1677.151431072448
 31
0.0
1001
REVIT
1002
{
1070
     3
1000
790271
1002
}
  0
LINE
  5
221
330
20F
100
AcDbEntity
  8
M-PIPE
100
AcDbLine
 10
697.6539074431541
 20
1630.340319803908
 30
0.0
 11
697.6539074431541
 21
1635.610085987672
 31
0.0
1001
REVIT
1002
{
1070
     3
1000
790271
1002
}
  0
LWPOLYLINE
  5
222
330
20F
100
AcDbEntity
  8
M-PIPE
100
AcDbPolyline
 90
        9
 70
   128
 43
0.0
 10
697.6539074431533
 20
1677.151431072448
 10
702.4451145438181
 20
1679.133049495481
 10
707.4907789985766
 20
1679.742776416363
 10
712.5182393304308
 20
1678.947662945148
 10
717.2558177907074
 20
1676.790676032054
 10
721.4475014891405
 20
1673.388376586524
 10
724.8667770143514
 20
1668.924620669604
 10
727.3288709389097
 20
1663.640624139418
 10
727.8800776042524
 20
1661.845679792286
1001
REVIT
1002
{
1070
     3
1000
790271
1002
}
  0
LWPOLYLINE
  5
223
330
20F
100
AcDbEntity
  8
M-PIPE
100
AcDbPolyline
 90
        9
 70
   128
 43
0.0
 10
727.8800782179481
 20
1645.646077697022
 10
727.3288709389101
 20
1643.851131023185
 10
724.8667770143518
 20
1638.567134137374
 10
721.4475014891411
 20
1634.103377726575
 10
717.255817790708
 20
1630.701077675599
 10
712.5182393304315
 20
1628.54409007821
 10
707.4907789985773
 20
1627.74897588083
 10
702.4451145438188
 20
1628.358702072916
 10
697.653907443154
 20
1630.340319803908
1001
REVIT
1002
{
1070
     3
1000
790271
1002
}
  0
ELLIPSE
  5
224
330
20F
100
AcDbEntity
  8
M-PIPE
100
AcDbEllipse
 10
709.1619255077477
 20
1677.37087248827
 30
0.0
 11
-33.49999999999989
 21
0.0000000000000021
 31
0.0
210
0.0
220
0.0
230
1.0
 40
0.000001
 41
5.049822725934348
 42
6.283185308190027
1001
REVIT
1002
{
1070
     3
1000
790271
1002
}
  0
ELLIPSE
  5
225
330
20F
100
AcDbEntity
  8
M-PIPE
100
AcDbEllipse
 10
709.1619255077477
 20
1701.37087248827
 30
0.0
 11
-19.45000000000005
 21
0.0000000000001351
 31
0.0
210
0.0
220
0.0
230
1.0
 40
0.000001
 41
3.141593346912026
 42
4.712388980384667
1001
REVIT
1002
{
1070
     3
1000
790271
1002
}
  0
ELLIPSE
  5
226
330
20F
100
AcDbEntity
  8
M-PIPE
100
AcDbEllipse
 10
709.1619255077477
 20
1701.37087248827
 30
0.0
 11
19.44999999999982
 21
0.0
 31
0.0
210
0.0
220
0.0
230
1.0
 40
0.000001
 41
1.570796326794885
 42
3.141592074865771
1001
REVIT
1002
{
1070
     3
1000
790271
1002
}
  0
ELLIPSE
  5
227
330
20F
100
AcDbEntity
  8
M-PIPE
100
AcDbEllipse
 10
709.1619255077477
 20
1630.120872488304
 30
0.0
 11
-33.49999999999966
 21
0.0000000000000021
 31
0.0
210
0.0
220
0.0
230
1.0
 40
0.000001
 41
5.049822574636755
 42
6.283185308190027
1001
REVIT
1002
{
1070
     3
1000
790271
1002
}
  0
ELLIPSE
  5
228
330
20F
100
AcDbEntity
  8
M-PIPE
100
AcDbEllipse
 10
709.1619255077477
 20
1606.120872488304
 30
0.0
 11
19.45000000000027
 21
0.0
 31
0.0
210
0.0
220
0.0
230
1.0
 40
0.000001
 41
0.0
 42
1.570796326794878
1001
REVIT
1002
{
1070
     3
1000
790271
1002
}
  0
ELLIPSE
  5
229
330
20F
100
AcDbEntity
  8
M-PIPE
100
AcDbEllipse
 10
709.1619255077477
 20
1606.120872488304
 30
0.0
 11
19.45000000000004
 21
0.0
 31
0.0
210
0.0
220
0.0
230
0.9999999999999998
 40
0.000001
 41
1.570796326794885
 42
3.141592653589793
1001
REVIT
1002
{
1070
     3
1000
790271
1002
}
  0
ARC
  5
22A
330
20F
100
AcDbEntity
  8
P-SANR-FIXT
100
AcDbCircle
 10
709.1619255078526
 20
1653.745878730054
 30
0.0
 40
20.35714285712508
100
AcDbArc
 50
351.0394697811849
 51
8.960530218812214
  0
LINE
  5
22B
330
20F
100
AcDbEntity
  8
P-SANR-FIXT
100
AcDbLine
 10
729.2706271560019
 20
1656.916585801215
 30
0.0
 11
721.9621892035121
 21
1669.575171658892
 31
0.0
  0
ARC
  5
22C
330
20F
100
AcDbEntity
  8
P-SANR-FIXT
100
AcDbCircle
 10
709.1619255078526
 20
1653.745878730054
 30
0.0
 40
20.35714285712497
100
AcDbArc
 50
51.03946978118514
 51
68.96053021881285
  0
LINE
  5
22D
330
20F
100
AcDbEntity
  8
P-SANR-FIXT
100
AcDbLine
 10
716.4703634603426
 20
1672.745878730054
 30
0.0
 11
701.8534875553631
 21
1672.745878730054
 31
0.0
  0
ARC
  5
22E
330
20F
100
AcDbEntity
  8
P-SANR-FIXT
100
AcDbCircle
 10
709.1619255078526
 20
1653.745878730054
 30
0.0
 40
20.35714285712484
100
AcDbArc
 50
111.0394697811854
 51
128.960530218813
  0
LINE
  5
22F
330
20F
100
AcDbEntity
  8
P-SANR-FIXT
100
AcDbLine
 10
696.3616618121934
 20
1669.575171658892
 30
0.0
 11
689.0532238597034
 21
1656.916585801215
 31
0.0
  0
ARC
  5
230
330
20F
100
AcDbEntity
  8
P-SANR-FIXT
100
AcDbCircle
 10
709.1619255078526
 20
1653.745878730054
 30
0.0
 40
20.35714285712488
100
AcDbArc
 50
171.0394697811854
 51
188.9605302188135
  0
LINE
  5
231
330
20F
100
AcDbEntity
  8
P-SANR-FIXT
100
AcDbLine
 10
689.0532238597034
 20
1650.575171658893
 30
0.0
 11
696.3616618121931
 21
1637.916585801216
 31
0.0
  0
ARC
  5
232
330
20F
100
AcDbEntity
  8
P-SANR-FIXT
100
AcDbCircle
 10
709.1619255078526
 20
1653.745878730054
 30
0.0
 40
20.35714285712502
100
AcDbArc
 50
231.0394697811855
 51
248.9605302188127
  0
LINE
  5
233
330
20F
100
AcDbEntity
  8
P-SANR-FIXT
100
AcDbLine
 10
701.8534875553626
 20
1634.745878730054
 30
0.0
 11
716.4703634603423
 21
1634.745878730054
 31
0.0
  0
ARC
  5
234
330
20F
100
AcDbEntity
  8
P-SANR-FIXT
100
AcDbCircle
 10
709.1619255078526
 20
1653.745878730054
 30
0.0
 40
20.35714285712503
100
AcDbArc
 50
291.0394697811853
 51
308.960530218813
  0
LINE
  5
235
330
20F
100
AcDbEntity
  8
P-SANR-FIXT
100
AcDbLine
 10
721.9621892035121
 20
1637.916585801215
 30
0.0
 11
729.2706271560019
 21
1650.575171658893
 31
0.0
  0
ARC
  5
236
330
20F
100
AcDbEntity
  8
P-SANR-FIXT
100
AcDbCircle
 10
709.1619255078526
 20
1653.745878730054
 30
0.0
 40
12.69999999999993
100
AcDbArc
 50
180.0
 51
0.0
  0
ARC
  5
237
330
20F
100
AcDbEntity
  8
P-SANR-FIXT
100
AcDbCircle
 10
709.1619255078526
 20
1653.745878730054
 30
0.0
 40
12.69999999999993
100
AcDbArc
 50
0.0000000000010258
 51
180.0
  0
LINE
  5
238
330
20F
100
AcDbEntity
  8
P-SANR-FIXT
100
AcDbLine
 10
727.0023868529204
 20
1661.845290644071
 30
0.0
 11
721.5217283125402
 21
1671.338069694947
 31
0.0
  0
ARC
  5
239
330
20F
100
AcDbEntity
  8
P-SANR-FIXT
100
AcDbCircle
 10
709.1619255078122
 20
1653.745876124267
 30
0.0
 40
21.49999999999996
100
AcDbArc
 50
54.90915273694938
 51
65.09084726304884
  0
LINE
  5
23A
330
20F
100
AcDbEntity
  8
P-SANR-FIXT
100
AcDbLine
 10
718.2173106459499
 20
1673.245876124267
 30
0.0
 11
700.106540369675
 21
1673.245876124267
 31
0.0
  0
ARC
  5
23B
330
20F
100
AcDbEntity
  8
P-SANR-FIXT
100
AcDbCircle
 10
709.1619255078122
 20
1653.745876124267
 30
0.0
 40
21.50000000000003
100
AcDbArc
 50
114.9091527369494
 51
125.0908472630491
  0
LINE
  5
23C
330
20F
100
AcDbEntity
  8
P-SANR-FIXT
100
AcDbLine
 10
696.8021227030845
 20
1671.338069694947
 30
0.0
 11
687.7467375649469
 21
1655.653682553588
 31
0.0
  0
ARC
  5
23D
330
20F
100
AcDbEntity
  8
P-SANR-FIXT
100
AcDbCircle
 10
709.1619255078122
 20
1653.745876124267
 30
0.0
 40
21.50000000000003
100
AcDbArc
 50
174.9091527369493
 51
185.0908472630485
  0
LINE
  5
23E
330
20F
100
AcDbEntity
  8
P-SANR-FIXT
100
AcDbLine
 10
687.7467375649469
 20
1651.838069694947
 30
0.0
 11
696.8021227030842
 21
1636.153682553588
 31
0.0
  0
ARC
  5
23F
330
20F
100
AcDbEntity
  8
P-SANR-FIXT
100
AcDbCircle
 10
709.1619255078122
 20
1653.745876124267
 30
0.0
 40
21.50000000000005
100
AcDbArc
 50
234.9091527369494
 51
245.0908472630488
  0
LINE
  5
240
330
20F
100
AcDbEntity
  8
P-SANR-FIXT
100
AcDbLine
 10
700.1065403696746
 20
1634.245876124268
 30
0.0
 11
718.2173106459495
 21
1634.245876124267
 31
0.0
  0
ARC
  5
241
330
20F
100
AcDbEntity
  8
P-SANR-FIXT
100
AcDbCircle
 10
709.1619255078122
 20
1653.745876124267
 30
0.0
 40
21.49999999999993
100
AcDbArc
 50
294.9091527369493
 51
305.0908472630493
  0
LINE
  5
242
330
20F
100
AcDbEntity
  8
P-SANR-FIXT
100
AcDbLine
 10
721.52172831254
 20
1636.153682553588
 30
0.0
 11
727.0023898615009
 21
1645.646466815478
 31
0.0
  0
ARC
  5
243
330
20F
100
AcDbEntity
  8
P-SANR-FIXT
100
AcDbCircle
 10
815.6664074431878
 20
1653.745878730054
 30
0.0
 40
11.43849996563767
100
AcDbArc
 50
180.0
 51
0.0
  0
ARC
  5
244
330
20F
100
AcDbEntity
  8
P-SANR-FIXT
100
AcDbCircle
 10
815.6664074431878
 20
1653.745878730054
 30
0.0
 40
11.43849996563779
100
AcDbArc
 50
0.0
 51
180.0
  0
ARC
  5
245
330
20F
100
AcDbEntity
  8
P-SANR-FIXT
100
AcDbCircle
 10
815.6664074431878
 20
1653.745878730054
 30
0.0
 40
12.00000000001194
100
AcDbArc
 50
180.0
 51
0.0
  0
ARC
  5
246
330
20F
100
AcDbEntity
  8
P-SANR-FIXT
100
AcDbCircle
 10
815.6664074431878
 20
1653.745878730054
 30
0.0
 40
12.00000000001199
100
AcDbArc
 50
185.0000000000009
 51
190.0000000000001
  0
ARC
  5
247
330
20F
100
AcDbEntity
  8
P-SANR-FIXT
100
AcDbCircle
 10
815.6664074431878
 20
1653.745878730054
 30
0.0
 40
12.00000000001194
100
AcDbArc
 50
200.0000000000006
 51
205.0000000000002
  0
ARC
  5
248
330
20F
100
AcDbEntity
  8
P-SANR-FIXT
100
AcDbCircle
 10
815.6664074431878
 20
1653.745878730054
 30
0.0
 40
12.00000000001197
100
AcDbArc
 50
215.0000000000001
 51
220.0000000000005
  0
ARC
  5
249
330
20F
100
AcDbEntity
  8
P-SANR-FIXT
100
AcDbCircle
 10
815.6664074431878
 20
1653.745878730054
 30
0.0
 40
12.00000000001188
100
AcDbArc
 50
230.0000000000003
 51
235.0000000000007
  0
ARC
  5
24A
330
20F
100
AcDbEntity
  8
P-SANR-FIXT
100
AcDbCircle
 10
815.6664074431878
 20
1653.745878730054
 30
0.0
 40
12.00000000001191
100
AcDbArc
 50
245.0000000000007
 51
250.0000000000002
  0
ARC
  5
24B
330
20F
100
AcDbEntity
  8
P-SANR-FIXT
100
AcDbCircle
 10
815.6664074431878
 20
1653.745878730054
 30
0.0
 40
12.00000000001191
100
AcDbArc
 50
260.0000000000012
 51
265.000000000001
  0
ARC
  5
24C
330
20F
100
AcDbEntity
  8
P-SANR-FIXT
100
AcDbCircle
 10
815.6664074431878
 20
1653.745878730054
 30
0.0
 40
12.00000000001202
100
AcDbArc
 50
275.000000000001
 51
280.0000000000011
  0
ARC
  5
24D
330
20F
100
AcDbEntity
  8
P-SANR-FIXT
100
AcDbCircle
 10
815.6664074431878
 20
1653.745878730054
 30
0.0
 40
12.00000000001191
100
AcDbArc
 50
290.0000000000009
 51
295.0000000000013
  0
ARC
  5
24E
330
20F
100
AcDbEntity
  8
P-SANR-FIXT
100
AcDbCircle
 10
815.6664074431878
 20
1653.745878730054
 30
0.0
 40
12.00000000001198
100
AcDbArc
 50
305.0000000000013
 51
310.0000000000011
  0
ARC
  5
24F
330
20F
100
AcDbEntity
  8
P-SANR-FIXT
100
AcDbCircle
 10
815.6664074431878
 20
1653.745878730054
 30
0.0
 40
12.00000000001196
100
AcDbArc
 50
319.9999999999999
 51
325.0
  0
ARC
  5
250
330
20F
100
AcDbEntity
  8
P-SANR-FIXT
100
AcDbCircle
 10
815.6664074431878
 20
1653.745878730054
 30
0.0
 40
12.00000000001196
100
AcDbArc
 50
335.0000000000002
 51
339.9999999999995
  0
ARC
  5
251
330
20F
100
AcDbEntity
  8
P-SANR-FIXT
100
AcDbCircle
 10
815.6664074431878
 20
1653.745878730054
 30
0.0
 40
12.00000000001197
100
AcDbArc
 50
349.9999999999991
 51
354.9999999999983
  0
ARC
  5
252
330
20F
100
AcDbEntity
  8
P-SANR-FIXT
100
AcDbCircle
 10
815.6664074431878
 20
1653.745878730054
 30
0.0
 40
12.00000000001182
100
AcDbArc
 50
0.0
 51
180.0
  0
ARC
  5
253
330
20F
100
AcDbEntity
  8
P-SANR-FIXT
100
AcDbCircle
 10
815.6664074431878
 20
1653.745878730054
 30
0.0
 40
12.000000000012
100
AcDbArc
 50
5.000000000000325
 51
10.00000000000084
  0
ARC
  5
254
330
20F
100
AcDbEntity
  8
P-SANR-FIXT
100
AcDbCircle
 10
815.6664074431878
 20
1653.745878730054
 30
0.0
 40
12.00000000001202
100
AcDbArc
 50
20.00000000000019
 51
25.00000000000177
  0
ARC
  5
255
330
20F
100
AcDbEntity
  8
P-SANR-FIXT
100
AcDbCircle
 10
815.6664074431878
 20
1653.745878730054
 30
0.0
 40
12.00000000001192
100
AcDbArc
 50
35.00000000000133
 51
40.00000000000095
  0
ARC
  5
256
330
20F
100
AcDbEntity
  8
P-SANR-FIXT
100
AcDbCircle
 10
815.6664074431878
 20
1653.745878730054
 30
0.0
 40
12.00000000001198
100
AcDbArc
 50
50.00000000000234
 51
55.000000000002
  0
ARC
  5
257
330
20F
100
AcDbEntity
  8
P-SANR-FIXT
100
AcDbCircle
 10
815.6664074431878
 20
1653.745878730054
 30
0.0
 40
12.00000000001192
100
AcDbArc
 50
65.00000000000231
 51
70.00000000000257
  0
ARC
  5
258
330
20F
100
AcDbEntity
  8
P-SANR-FIXT
100
AcDbCircle
 10
815.6664074431878
 20
1653.745878730054
 30
0.0
 40
12.00000000001201
100
AcDbArc
 50
80.00000000000225
 51
85.00000000000254
  0
ARC
  5
259
330
20F
100
AcDbEntity
  8
P-SANR-FIXT
100
AcDbCircle
 10
815.6664074431878
 20
1653.745878730054
 30
0.0
 40
12.00000000001204
100
AcDbArc
 50
95.00000000000239
 51
100.0000000000021
  0
ARC
  5
25A
330
20F
100
AcDbEntity
  8
P-SANR-FIXT
100
AcDbCircle
 10
815.6664074431878
 20
1653.745878730054
 30
0.0
 40
12.00000000001203
100
AcDbArc
 50
110.0000000000028
 51
115.0000000000017
  0
ARC
  5
25B
330
20F
100
AcDbEntity
  8
P-SANR-FIXT
100
AcDbCircle
 10
815.6664074431878
 20
1653.745878730054
 30
0.0
 40
12.00000000001195
100
AcDbArc
 50
125.0000000000028
 51
130.000000000002
  0
ARC
  5
25C
330
20F
100
AcDbEntity
  8
P-SANR-FIXT
100
AcDbCircle
 10
815.6664074431878
 20
1653.745878730054
 30
0.0
 40
12.00000000001189
100
AcDbArc
 50
140.0000000000027
 51
145.0000000000023
  0
ARC
  5
25D
330
20F
100
AcDbEntity
  8
P-SANR-FIXT
100
AcDbCircle
 10
815.6664074431878
 20
1653.745878730054
 30
0.0
 40
12.00000000001191
100
AcDbArc
 50
155.0000000000018
 51
160.0000000000013
  0
ARC
  5
25E
330
20F
100
AcDbEntity
  8
P-SANR-FIXT
100
AcDbCircle
 10
815.6664074431878
 20
1653.745878730054
 30
0.0
 40
12.00000000001206
100
AcDbArc
 50
170.0000000000007
 51
174.9999999999998
  0
ARC
  5
25F
330
20F
100
AcDbEntity
  8
P-SANR-FIXT
100
AcDbCircle
 10
815.6664074431867
 20
1653.745878730054
 30
0.0
 40
13.40000000000034
100
AcDbArc
 50
26.4243920788252
 51
33.57560792117735
  0
LINE
  5
260
330
20F
100
AcDbEntity
  8
P-SANR-FIXT
100
AcDbLine
 10
826.8307079766577
 20
1661.156573272292
 30
0.0
 11
821.6664074431871
 21
1664.138183575467
 31
0.0
  0
LINE
  5
261
330
20F
100
AcDbEntity
  8
P-SANR-FIXT
100
AcDbLine
 10
827.6664074431996
 20
1653.745878730054
 30
0.0
 11
827.6664074431865
 21
1659.709099336405
 31
0.0
  0
ARC
  5
262
330
20F
100
AcDbEntity
  8
P-SANR-FIXT
100
AcDbCircle
 10
815.6664074431867
 20
1653.745878730054
 30
0.0
 40
13.40000000000025
100
AcDbArc
 50
86.42439207882455
 51
93.57560792117739
  0
LINE
  5
263
330
20F
100
AcDbEntity
  8
P-SANR-FIXT
100
AcDbLine
 10
814.8307079766576
 20
1667.119793878643
 30
0.0
 11
809.6664074431874
 21
1664.138183575467
 31
0.0
  0
LINE
  5
264
330
20F
100
AcDbEntity
  8
P-SANR-FIXT
100
AcDbLine
 10
821.6664074431871
 20
1664.138183575467
 30
0.0
 11
816.5021069097152
 21
1667.119793878643
 31
0.0
  0
ARC
  5
265
330
20F
100
AcDbEntity
  8
P-SANR-FIXT
100
AcDbCircle
 10
815.6664074431867
 20
1653.745878730054
 30
0.0
 40
13.40000000000016
100
AcDbArc
 50
146.4243920788262
 51
153.575607921179
  0
LINE
  5
266
330
20F
100
AcDbEntity
  8
P-SANR-FIXT
100
AcDbLine
 10
803.6664074431868
 20
1659.709099336405
 30
0.0
 11
803.6664074431758
 21
1653.745878730054
 31
0.0
  0
LINE
  5
267
330
20F
100
AcDbEntity
  8
P-SANR-FIXT
100
AcDbLine
 10
809.6664074431874
 20
1664.138183575467
 30
0.0
 11
804.5021069097156
 21
1661.156573272291
 31
0.0
  0
ARC
  5
268
330
20F
100
AcDbEntity
  8
P-SANR-FIXT
100
AcDbCircle
 10
815.6664074431867
 20
1653.745878730054
 30
0.0
 40
13.40000000000034
100
AcDbArc
 50
206.4243920788259
 51
213.5756079211782
  0
LINE
  5
269
330
20F
100
AcDbEntity
  8
P-SANR-FIXT
100
AcDbLine
 10
804.5021069097161
 20
1646.335184187816
 30
0.0
 11
809.6664074431881
 21
1643.35357388464
 31
0.0
  0
LINE
  5
26A
330
20F
100
AcDbEntity
  8
P-SANR-FIXT
100
AcDbLine
 10
803.6664074431758
 20
1653.745878730054
 30
0.0
 11
803.6664074431872
 21
1647.782658123702
 31
0.0
  0
ARC
  5
26B
330
20F
100
AcDbEntity
  8
P-SANR-FIXT
100
AcDbCircle
 10
815.6664074431867
 20
1653.745878730054
 30
0.0
 40
13.40000000000034
100
AcDbArc
 50
266.4243920788257
 51
273.5756079211784
  0
LINE
  5
26C
330
20F
100
AcDbEntity
  8
P-SANR-FIXT
100
AcDbLine
 10
816.5021069097161
 20
1640.371963581465
 30
0.0
 11
821.6664074431879
 21
1643.353573884641
 31
0.0
  0
LINE
  5
26D
330
20F
100
AcDbEntity
  8
P-SANR-FIXT
100
AcDbLine
 10
809.6664074431881
 20
1643.35357388464
 30
0.0
 11
814.8307079766585
 21
1640.371963581465
 31
0.0
  0
ARC
  5
26E
330
20F
100
AcDbEntity
  8
P-SANR-FIXT
100
AcDbCircle
 10
815.6664074431867
 20
1653.745878730054
 30
0.0
 40
13.40000000000034
100
AcDbArc
 50
326.424392078825
 51
333.575607921178
  0
LINE
  5
26F
330
20F
100
AcDbEntity
  8
P-SANR-FIXT
100
AcDbLine
 10
827.6664074431868
 20
1647.782658123703
 30
0.0
 11
827.6664074431996
 21
1653.745878730054
 31
0.0
  0
LINE
  5
270
330
20F
100
AcDbEntity
  8
P-SANR-FIXT
100
AcDbLine
 10
821.6664074431879
 20
1643.353573884641
 30
0.0
 11
826.830707976658
 21
1646.335184187817
 31
0.0
  0
LINE
  5
271
330
20F
100
AcDbEntity
  8
P-SANR-FIXT
100
AcDbLine
 10
742.7759646035123
 20
1651.245878730055
 30
0.0
 11
742.7759646035123
 21
1656.245878730055
 31
0.0
  0
LINE
  5
272
330
20F
100
AcDbEntity
  8
P-SANR-FIXT
100
AcDbLine
 10
740.0786481341896
 20
1647.562668686503
 30
0.0
 11
741.082592204598
 21
1648.566612756911
 31
0.0
  0
LINE
  5
273
330
20F
100
AcDbEntity
  8
P-SANR-FIXT
100
AcDbLine
 10
741.082592204598
 20
1658.925144703198
 30
0.0
 11
740.0786481341896
 21
1659.929088773606
 31
0.0
  0
LINE
  5
274
330
20F
100
AcDbEntity
  8
P-SANR-FIXT
100
AcDbLine
 10
735.9359316841418
 20
1647.562668686503
 30
0.0
 11
740.0786481341896
 21
1647.562668686503
 31
0.0
  0
LINE
  5
275
330
20F
100
AcDbEntity
  8
P-SANR-FIXT
100
AcDbLine
 10
740.0786481341896
 20
1659.929088773606
 30
0.0
 11
735.9359316841418
 21
1659.929088773606
 31
0.0
  0
LINE
  5
276
330
20F
100
AcDbEntity
  8
P-SANR-FIXT
100
AcDbLine
 10
734.2149074656616
 20
1644.581767299039
 30
0.0
 11
734.2552968649523
 21
1644.651723790698
 31
0.0
  0
LINE
  5
277
330
20F
100
AcDbEntity
  8
P-SANR-FIXT
100
AcDbLine
 10
734.2695415558189
 20
1644.676396319017
 30
0.0
 11
735.9359316841418
 21
1647.562668686503
 31
0.0
  0
LINE
  5
278
330
20F
100
AcDbEntity
  8
P-SANR-FIXT
100
AcDbLine
 10
735.9359316841418
 20
1659.929088773606
 30
0.0
 11
734.2695415558189
 21
1662.815361141093
 31
0.0
  0
LINE
  5
279
330
20F
100
AcDbEntity
  8
P-SANR-FIXT
100
AcDbLine
 10
734.2548585964496
 20
1662.840792772726
 30
0.0
 11
734.2149074656616
 21
1662.909990161071
 31
0.0
  0
LINE
  5
27A
330
20F
100
AcDbEntity
  8
P-SANR-FIXT
100
AcDbLine
 10
732.6580360623586
 20
1644.581767299039
 30
0.0
 11
734.2149074656616
 21
1644.581767299039
 31
0.0
  0
LINE
  5
27B
330
20F
100
AcDbEntity
  8
P-SANR-FIXT
100
AcDbLine
 10
734.2149074656616
 20
1662.909990161071
 30
0.0
 11
732.6580360623586
 21
1662.909990161071
 31
0.0
  0
LINE
  5
27C
330
20F
100
AcDbEntity
  8
P-SANR-FIXT
100
AcDbLine
 10
730.6059478083029
 20
1643.745878730054
 30
0.0
 11
732.6580360623586
 21
1643.745878730054
 31
0.0
  0
LINE
  5
27D
330
20F
100
AcDbEntity
  8
P-SANR-FIXT
100
AcDbLine
 10
732.6580360623586
 20
1663.745878730055
 30
0.0
 11
730.6059478083029
 21
1663.745878730055
 31
0.0
  0
LWPOLYLINE
  5
27E
330
20F
100
AcDbEntity
  8
P-SANR-FIXT
100
AcDbPolyline
 90
       20
 70
   128
 43
0.0
 10
730.6059478083029
 20
1643.745878730054
 10
730.5853268200301
 20
1643.746291204818
 10
730.5647388209396
 20
1643.747527969237
 10
730.5442167474383
 20
1643.749587044752
 10
730.5237934304654
 20
1643.752465137282
 10
730.5035015429721
 20
1643.756157642493
 10
730.4833735476493
 20
1643.760658653163
 10
730.4634416449954
 20
1643.765960968637
 10
730.4437377218034
 20
1643.772056106339
 10
730.4242933001468
 20
1643.778934315352
 10
730.4051394869523
 20
1643.786584592006
 10
730.386306924235
 20
1643.794994697492
 10
730.3678257400783
 20
1643.804151177434
 10
730.3497255004337
 20
1643.814039383418
 10
730.3320351618241
 20
1643.824643496425
 10
730.3147830250172
 20
1643.835946552135
 10
730.2979966897519
 20
1643.847930468069
 10
730.2817030105834
 20
1643.86057607252
 10
730.2659280539227
 20
1643.873863135218
 10
730.2507013013642
 20
1643.887766523605
  0
LWPOLYLINE
  5
27F
330
20F
100
AcDbEntity
  8
P-SANR-FIXT
100
AcDbPolyline
 90
       22
 70
   128
 43
0.0
 10
730.2506970563354
 20
1643.887770399696
 10
730.2360343841684
 20
1643.902275617299
 10
730.2219634945694
 20
1643.917355582772
 10
730.2085068979599
 20
1643.932986171387
 10
730.1956861220244
 20
1643.949142377538
 10
730.1835216772689
 20
1643.96579835474
 10
730.1720330242103
 20
1643.982927456984
 10
730.1612385422429
 20
1644.00050228136
 10
730.1511555002347
 20
1644.018494711897
 10
730.1418000289023
 20
1644.036875964545
 10
730.133187095004
 20
1644.055616633222
 10
730.1253304773969
 20
1644.074686736854
 10
730.1182427449928
 20
1644.094055767345
 10
730.1119352366519
 20
1644.113692738377
 10
730.1064180430419
 20
1644.133566234985
 10
730.1016999904958
 20
1644.153644463815
 10
730.0977886268908
 20
1644.173895303984
 10
730.0946902095748
 20
1644.194286358466
 10
730.0924096953541
 20
1644.214785005925
 10
730.0909507325651
 20
1644.235358452898
 10
730.0903156552374
 20
1644.255973786259
 10
730.0902856025626
 20
1644.261540935795
  0
LWPOLYLINE
  5
280
330
20F
100
AcDbEntity
  8
P-SANR-FIXT
100
AcDbPolyline
 90
       41
 70
   128
 43
0.0
 10
730.0902856025626
 20
1653.745878730054
 10
730.0902856025626
 20
1653.366606376461
 10
730.0902856025626
 20
1652.987940777726
 10
730.0902856025626
 20
1652.61048771803
 10
730.0902856025626
 20
1652.23485104175
 10
730.0902856025626
 20
1651.861631687435
 10
730.0902856025626
 20
1651.491426726437
 10
730.0902856025626
 20
1651.124828407721
 10
730.0902856025626
 20
1650.762423210393
 10
730.0902856025626
 20
1650.40479090546
 10
730.0902856025626
 20
1650.052503628319
 10
730.0902856025626
 20
1649.706124963463
 10
730.0902856025626
 20
1649.366209042864
 10
730.0902856025626
 20
1649.033299659486
 10
730.0902856025626
 20
1648.707929397325
 10
730.0902856025626
 20
1648.39061877939
 10
730.0902856025626
 20
1648.081875434982
 10
730.0902856025626
 20
1647.782193287589
 10
730.0902856025626
 20
1647.49205176472
 10
730.0902856025626
 20
1647.211915030917
 10
730.0902856025626
 20
1646.942231245194
 10
730.0902856025626
 20
1646.683431844079
 10
730.0902856025626
 20
1646.435930851408
 10
730.0902856025626
 20
1646.200124215969
 10
730.0902856025626
 20
1645.976389178079
 10
730.0902856025626
 20
1645.765083666068
 10
730.0902856025626
 20
1645.566545723681
 10
730.0902856025626
 20
1645.381092969273
 10
730.0902856025626
 20
1645.20902208769
 10
730.0902856025626
 20
1645.050608355636
 10
730.0902856025626
 20
1644.906105201288
 10
730.0902856025626
 20
1644.775743798869
 10
730.0902856025626
 20
1644.659732698813
 10
730.0902856025626
 20
1644.558257494133
 10
730.0902856025626
 20
1644.471480523509
 10
730.0902856025626
 20
1644.399540611582
 10
730.0902856025626
 20
1644.342552846866
 10
730.0902856025626
 20
1644.300608397627
 10
730.0902856025626
 20
1644.273774366036
 10
730.0902856025626
 20
1644.26209368082
 10
730.0902856025626
 20
1644.261540935795
  0
LWPOLYLINE
  5
281
330
20F
100
AcDbEntity
  8
P-SANR-FIXT
100
AcDbPolyline
 90
       15
 70
   128
 43
0.0
 10
730.0902856025626
 20
1644.261540935795
 10
730.0902856025626
 20
1644.269127394421
 10
730.0902856025626
 20
1644.291874633586
 10
730.0902856025626
 20
1644.329746262559
 10
730.0902856025626
 20
1644.382681694811
 10
730.0902856025626
 20
1644.450596244944
 10
730.0902856025626
 20
1644.533381264166
 10
730.0902856025626
 20
1644.630904314105
 10
730.0902856025626
 20
1644.743009378685
 10
730.0902856025626
 20
1644.869517113718
 10
730.0902856025626
 20
1645.010225133814
 10
730.0902856025626
 20
1645.164908336158
 10
730.0902856025626
 20
1645.333319260623
 10
730.0902856025626
 20
1645.515188485654
 10
730.0902856025626
 20
1645.645893481166
  0
LWPOLYLINE
  5
282
330
20F
100
AcDbEntity
  8
P-SANR-FIXT
100
AcDbPolyline
 90
       41
 70
   128
 43
0.0
 10
730.0902856025626
 20
1663.230216524314
 10
730.0906980773261
 20
1663.250837512587
 10
730.0919348417451
 20
1663.271425511678
 10
730.0939939172604
 20
1663.291947585179
 10
730.0968720097903
 20
1663.312370902151
 10
730.1005645150008
 20
1663.332662789645
 10
730.1050655256712
 20
1663.352790784968
 10
730.1103678411449
 20
1663.372722687622
 10
730.1164629788477
 20
1663.392426610813
 10
730.1233411878598
 20
1663.41187103247
 10
730.130991464514
 20
1663.431024845665
 10
730.1394015699997
 20
1663.449857408382
 10
730.1485580499421
 20
1663.468338592539
 10
730.1584462559266
 20
1663.486438832183
 10
730.1690503689329
 20
1663.504129170793
 10
730.1803534246426
 20
1663.5213813076
 10
730.1923373405773
 20
1663.538167642865
 10
730.2049829450282
 20
1663.554461322034
 10
730.2182700077259
 20
1663.570236278694
 10
730.2321772722043
 20
1663.585467276282
 10
730.2466824898068
 20
1663.600129948449
 10
730.2617624552799
 20
1663.614200838048
 10
730.2773930438954
 20
1663.627657434657
 10
730.2935492500462
 20
1663.640478210593
 10
730.3102052272487
 20
1663.652642655348
 10
730.3273343294923
 20
1663.664131308407
 10
730.3449091538679
 20
1663.674925790374
 10
730.3629015844051
 20
1663.685008832382
 10
730.3812828370536
 20
1663.694364303715
 10
730.4000235057301
 20
1663.702977237613
 10
730.4190936093625
 20
1663.71083385522
 10
730.4384626398529
 20
1663.717921587624
 10
730.4580996108846
 20
1663.724229095965
 10
730.4779731074932
 20
1663.729746289575
 10
730.4980513363231
 20
1663.734464342121
 10
730.5183021764916
 20
1663.738375705726
 10
730.538693230974
 20
1663.741474123042
 10
730.5591918784336
 20
1663.743754637263
 10
730.5797653254067
 20
1663.745213600052
 10
730.6003806587673
 20
1663.74584867738
 10
730.6059478083029
 20
1663.745878730055
  0
LWPOLYLINE
  5
283
330
20F
100
AcDbEntity
  8
P-SANR-FIXT
100
AcDbPolyline
 90
       16
 70
   128
 43
0.0
 10
730.0902856025626
 20
1661.845863978943
 10
730.0902856025626
 20
1661.925211736428
 10
730.0902856025626
 20
1662.110664490836
 10
730.0902856025626
 20
1662.282735372419
 10
730.0902856025626
 20
1662.441149104473
 10
730.0902856025626
 20
1662.585652258821
 10
730.0902856025626
 20
1662.71601366124
 10
730.0902856025626
 20
1662.832024761296
 10
730.0902856025626
 20
1662.933499965976
 10
730.0902856025626
 20
1663.0202769366
 10
730.0902856025626
 20
1663.092216848527
 10
730.0902856025626
 20
1663.149204613243
 10
730.0902856025626
 20
1663.191149062482
 10
730.0902856025626
 20
1663.217983094073
 10
730.0902856025626
 20
1663.229663779289
 10
730.0902856025626
 20
1663.230216524314
  0
LWPOLYLINE
  5
284
330
20F
100
AcDbEntity
  8
P-SANR-FIXT
100
AcDbPolyline
 90
       41
 70
   128
 43
0.0
 10
730.0902856025626
 20
1663.230216524314
 10
730.0902856025626
 20
1663.222630065688
 10
730.0902856025626
 20
1663.199882826523
 10
730.0902856025626
 20
1663.162011197551
 10
730.0902856025626
 20
1663.109075765298
 10
730.0902856025626
 20
1663.041161215165
 10
730.0902856025626
 20
1662.958376195944
 10
730.0902856025626
 20
1662.860853146004
 10
730.0902856025626
 20
1662.748748081424
 10
730.0902856025626
 20
1662.622240346391
 10
730.0902856025626
 20
1662.481532326294
 10
730.0902856025626
 20
1662.326849123951
 10
730.0902856025626
 20
1662.158438199487
 10
730.0902856025626
 20
1661.976568974455
 10
730.0902856025626
 20
1661.781532400819
 10
730.0902856025626
 20
1661.573640495491
 10
730.0902856025626
 20
1661.353225841172
 10
730.0902856025626
 20
1661.120641054289
 10
730.0902856025626
 20
1660.876258220887
 10
730.0902856025626
 20
1660.620468301365
 10
730.0902856025626
 20
1660.35368050503
 10
730.0902856025626
 20
1660.076321635445
 10
730.0902856025626
 20
1659.788835407633
 10
730.0902856025626
 20
1659.491681738233
 10
730.0902856025626
 20
1659.185336009725
 10
730.0902856025626
 20
1658.870288309926
 10
730.0902856025626
 20
1658.547042647947
 10
730.0902856025626
 20
1658.216116147894
 10
730.0902856025626
 20
1657.878038221573
 10
730.0902856025626
 20
1657.533349721544
 10
730.0902856025626
 20
1657.182602075881
 10
730.0902856025626
 20
1656.826356405993
 10
730.0902856025626
 20
1656.465182628956
 10
730.0902856025626
 20
1656.099658545769
 10
730.0902856025626
 20
1655.730368916989
 10
730.0902856025626
 20
1655.357904527246
 10
730.0902856025626
 20
1654.982861240107
 10
730.0902856025626
 20
1654.605839044829
 10
730.0902856025626
 20
1654.227441096494
 10
730.0902856025626
 20
1653.848272751101
 10
730.0902856025626
 20
1653.745878730054
  0
LINE
  5
285
330
20F
100
AcDbEntity
  8
P-SANR-FIXT
100
AcDbLine
 10
732.6580360623572
 20
1656.245878730054
 30
0.0
 11
742.2307920715649
 21
1656.245878730054
 31
0.0
  0
LINE
  5
286
330
20F
100
AcDbEntity
  8
P-SANR-FIXT
100
AcDbLine
 10
742.2307920715649
 20
1656.245878730054
 30
0.0
 11
742.7746365906233
 21
1656.245878730054
 31
0.0
  0
LINE
  5
287
330
20F
100
AcDbEntity
  8
P-SANR-FIXT
100
AcDbLine
 10
742.7746365906233
 20
1651.245878730054
 30
0.0
 11
742.2307920715649
 21
1651.245878730054
 31
0.0
  0
LINE
  5
288
330
20F
100
AcDbEntity
  8
P-SANR-FIXT
100
AcDbLine
 10
742.2307920715649
 20
1651.245878730054
 30
0.0
 11
732.6580360623572
 21
1651.245878730054
 31
0.0
  0
LINE
  5
289
330
20F
100
AcDbEntity
  8
P-SANR-FIXT
100
AcDbLine
 10
732.6580360623572
 20
1656.245878730054
 30
0.0
 11
732.6580360623572
 21
1651.245878730054
 31
0.0
  0
LINE
  5
28A
330
20F
100
AcDbEntity
  8
P-SANR-FIXT
100
AcDbLine
 10
741.0825922045965
 20
1651.245878730054
 30
0.0
 11
741.0825922045965
 21
1648.566612756911
 31
0.0
  0
LINE
  5
28B
330
20F
100
AcDbEntity
  8
P-SANR-FIXT
100
AcDbLine
 10
741.0825922045965
 20
1658.925144703197
 30
0.0
 11
741.0825922045965
 21
1656.245878730054
 31
0.0
  0
LINE
  5
28C
330
20F
100
AcDbEntity
  8
P-SANR-FIXT
100
AcDbLine
 10
740.078648134188
 20
1651.245878730054
 30
0.0
 11
740.0786481341881
 21
1647.562668686503
 31
0.0
  0
LINE
  5
28D
330
20F
100
AcDbEntity
  8
P-SANR-FIXT
100
AcDbLine
 10
740.0786481341881
 20
1659.929088773605
 30
0.0
 11
740.078648134188
 21
1656.245878730054
 31
0.0
  0
LINE
  5
28E
330
20F
100
AcDbEntity
  8
P-SANR-FIXT
100
AcDbLine
 10
735.9359316841403
 20
1651.245878730054
 30
0.0
 11
735.9359316841403
 21
1647.562668686502
 31
0.0
  0
LINE
  5
28F
330
20F
100
AcDbEntity
  8
P-SANR-FIXT
100
AcDbLine
 10
735.9359316841403
 20
1659.929088773605
 30
0.0
 11
735.9359316841403
 21
1656.245878730054
 31
0.0
  0
LINE
  5
290
330
20F
100
AcDbEntity
  8
P-SANR-FIXT
100
AcDbLine
 10
734.21490746566
 20
1651.245878730054
 30
0.0
 11
734.21490746566
 21
1644.581767299038
 31
0.0
  0
LINE
  5
291
330
20F
100
AcDbEntity
  8
P-SANR-FIXT
100
AcDbLine
 10
734.21490746566
 20
1662.909990161069
 30
0.0
 11
734.21490746566
 21
1656.245878730054
 31
0.0
  0
LINE
  5
292
330
20F
100
AcDbEntity
  8
P-SANR-FIXT
100
AcDbLine
 10
732.6580360623572
 20
1651.245878730054
 30
0.0
 11
732.6580360623572
 21
1643.745878730054
 31
0.0
  0
LINE
  5
293
330
20F
100
AcDbEntity
  8
P-SANR-FIXT
100
AcDbLine
 10
732.6580360623572
 20
1663.745878730054
 30
0.0
 11
732.6580360623572
 21
1656.245878730054
 31
0.0
  0
LINE
  5
294
330
20F
100
AcDbEntity
  8
P-SANR-FIXT
100
AcDbLine
 10
726.4247070731824
 20
1645.645893481166
 30
0.0
 11
730.0902856025626
 21
1645.645893481166
 31
0.0
  0
LINE
  5
295
330
20F
100
AcDbEntity
  8
P-SANR-FIXT
100
AcDbLine
 10
730.0902856025626
 20
1661.845863978943
 30
0.0
 11
726.4247070731824
 21
1661.845863978943
 31
0.0
  0
LINE
  5
296
330
20F
100
AcDbEntity
  8
P-SANR-FIXT
100
AcDbLine
 10
767.2035030800257
 20
1624.745878730054
 30
0.0
 11
769.7035030800565
 21
1624.745878730054
 31
0.0
  0
LINE
  5
297
330
20F
100
AcDbEntity
  8
P-SANR-FIXT
100
AcDbLine
 10
769.7035030800565
 20
1682.745878730054
 30
0.0
 11
767.2035030800257
 21
1682.745878730054
 31
0.0
  0
LINE
  5
298
330
20F
100
AcDbEntity
  8
P-SANR-FIXT
100
AcDbLine
 10
769.7035030800565
 20
1624.745878730054
 30
0.0
 11
769.7413329620748
 21
1624.811402007754
 31
0.0
  0
LINE
  5
299
330
20F
100
AcDbEntity
  8
P-SANR-FIXT
100
AcDbLine
 10
769.7551166478277
 20
1624.835276051794
 30
0.0
 11
771.4932889145442
 21
1627.845878730054
 31
0.0
  0
LINE
  5
29A
330
20F
100
AcDbEntity
  8
P-SANR-FIXT
100
AcDbLine
 10
771.4932889145442
 20
1679.645878730054
 30
0.0
 11
769.7551166478277
 21
1682.656481408315
 31
0.0
  0
LINE
  5
29B
330
20F
100
AcDbEntity
  8
P-SANR-FIXT
100
AcDbLine
 10
769.7413329620746
 20
1682.680355452355
 30
0.0
 11
769.7035030800565
 21
1682.745878730055
 31
0.0
  0
LWPOLYLINE
  5
29C
330
20F
100
AcDbEntity
  8
P-SANR-FIXT
100
AcDbPolyline
 90
       28
 70
   128
 43
0.0
 10
772.1861092375718
 20
1628.245878730054
 10
772.1541177702227
 20
1628.245238815383
 10
772.1221774823966
 20
1628.243320095096
 10
772.0903394717407
 20
1628.240125638737
 10
772.0586546722804
 20
1628.235660556754
 10
772.0271737729357
 20
1628.229931992327
 10
771.9959471364302
 20
1628.222949109936
 10
771.9650247187206
 20
1628.214723080703
 10
771.934455989079
 20
1628.20526706452
 10
771.9042898509518
 20
1628.194596188996
 10
771.8745745637249
 20
1628.182727525256
 10
771.8453576655191
 20
1628.16968006063
 10
771.8166858971386
 20
1628.155474668278
 10
771.7886051272968
 20
1628.140134073796
 10
771.7611602792352
 20
1628.123682818865
 10
771.7343952588557
 20
1628.106147221982
 10
771.708352884482
 20
1628.087555336362
 10
771.6830748183572
 20
1628.067936905055
 10
771.6586014999948
 20
1628.047323313367
 10
771.6349720814835
 20
1628.025747538647
 10
771.6122243648522
 20
1628.003244097532
 10
771.5903947415952
 20
1627.979848990727
 10
771.5695181344527
 20
1627.955599645413
 10
771.5496279415427
 20
1627.930534855369
 10
771.5307559829311
 20
1627.904694718912
 10
771.5129324497255
 20
1627.878120574749
 10
771.4961858557773
 20
1627.85085493584
 10
771.4932889145442
 20
1627.845878730054
  0
LWPOLYLINE
  5
29D
330
20F
100
AcDbEntity
  8
P-SANR-FIXT
100
AcDbPolyline
 90
       28
 70
   128
 43
0.0
 10
771.4932889145442
 20
1679.645878730054
 10
771.5098388305805
 20
1679.618493263961
 10
771.5274706350045
 20
1679.591791523443
 10
771.5461561206906
 20
1679.565816225589
 10
771.5658653948477
 20
1679.540608925333
 10
771.5865669268416
 20
1679.516209948981
 10
771.6082275986369
 20
1679.492658329688
 10
771.6308127577796
 20
1679.469991745022
 10
771.6542862728333
 20
1679.448246456682
 10
771.678610591181
 20
1679.427457252491
 10
771.7037467991023
 20
1679.407657390742
 10
771.7296546840266
 20
1679.388878546989
 10
771.7562927988648
 20
1679.371150763377
 10
771.7836185283156
 20
1679.354502400577
 10
771.8115881570412
 20
1679.338960092418
 10
771.8401569396021
 20
1679.324548703278
 10
771.8692791720403
 20
1679.311291288306
 10
771.898908264997
 20
1679.299209056536
 10
771.928996818243
 20
1679.288321336963
 10
771.9594966965127
 20
1679.278645547616
 10
771.9903591065063
 20
1679.270197167693
 10
772.021534674952
 20
1679.2629897128
 10
772.0529735275905
 20
1679.257034713327
 10
772.0846253689641
 20
1679.252341696003
 10
772.1164395628789
 20
1679.248918168654
 10
772.148365213411
 20
1679.246769608194
 10
772.1803512463302
 20
1679.245899451862
 10
772.1861092375718
 20
1679.245878730055
  0
LINE
  5
29E
330
20F
100
AcDbEntity
  8
P-SANR-FIXT
100
AcDbLine
 10
772.1861092375718
 20
1628.245878730054
 30
0.0
 11
782.3437912467152
 21
1628.245878730054
 31
0.0
  0
LINE
  5
29F
330
20F
100
AcDbEntity
  8
P-SANR-FIXT
100
AcDbLine
 10
782.343791246715
 20
1679.245878730055
 30
0.0
 11
772.1861092375718
 21
1679.245878730055
 31
0.0
  0
LINE
  5
2A0
330
20F
100
AcDbEntity
  8
P-SANR-FIXT
100
AcDbLine
 10
766.5516278924887
 20
1620.245878730054
 30
0.0
 11
767.2035030800257
 21
1620.897753917591
 31
0.0
  0
LINE
  5
2A1
330
20F
100
AcDbEntity
  8
P-SANR-FIXT
100
AcDbLine
 10
767.2035030800257
 20
1686.594003542518
 30
0.0
 11
766.5516278924887
 21
1687.245878730055
 31
0.0
  0
LINE
  5
2A2
330
20F
100
AcDbEntity
  8
P-SANR-FIXT
100
AcDbLine
 10
743.6035030801045
 20
1620.245878730054
 30
0.0
 11
766.5516278924887
 21
1620.245878730054
 31
0.0
  0
LINE
  5
2A3
330
20F
100
AcDbEntity
  8
P-SANR-FIXT
100
AcDbLine
 10
766.5516278924887
 20
1687.245878730055
 30
0.0
 11
743.6035030801045
 21
1687.245878730055
 31
0.0
  0
LINE
  5
2A4
330
20F
100
AcDbEntity
  8
P-SANR-FIXT
100
AcDbLine
 10
769.703503080055
 20
1624.745878730054
 30
0.0
 11
769.703503080055
 21
1653.745878730054
 31
0.0
  0
LINE
  5
2A5
330
20F
100
AcDbEntity
  8
P-SANR-FIXT
100
AcDbLine
 10
769.703503080055
 20
1653.745878730054
 30
0.0
 11
769.703503080055
 21
1682.745878730054
 31
0.0
  0
ARC
  5
2A6
330
20F
100
AcDbEntity
  8
P-SANR-FIXT
100
AcDbCircle
 10
815.6664074431878
 20
1653.745878730054
 30
0.0
 40
13.99999999999966
100
AcDbArc
 50
180.0
 51
0.0
  0
ARC
  5
2A7
330
20F
100
AcDbEntity
  8
P-SANR-FIXT
100
AcDbCircle
 10
815.6664074431878
 20
1653.745878730054
 30
0.0
 40
13.99999999999966
100
AcDbArc
 50
0.0
 51
180.0
  0
ARC
  5
2A8
330
20F
100
AcDbEntity
  8
P-SANR-FIXT
100
AcDbCircle
 10
815.6664074431878
 20
1653.745878730054
 30
0.0
 40
41.99999999999998
100
AcDbArc
 50
179.9999999999998
 51
359.9999999999991
  0
ARC
  5
2A9
330
20F
100
AcDbEntity
  8
P-SANR-FIXT
100
AcDbCircle
 10
815.6664074431878
 20
1653.745878730054
 30
0.0
 40
42.00000000000001
100
AcDbArc
 50
359.9999999999996
 51
179.9999999999996
  0
LINE
  5
2AA
330
20F
100
AcDbEntity
  8
P-SANR-FIXT
100
AcDbLine
 10
766.5516278924874
 20
1653.745878730054
 30
0.0
 11
766.5516278924874
 21
1620.245878730054
 31
0.0
  0
LINE
  5
2AB
330
20F
100
AcDbEntity
  8
P-SANR-FIXT
100
AcDbLine
 10
766.5516278924874
 20
1687.245878730054
 30
0.0
 11
766.5516278924874
 21
1653.745878730054
 31
0.0
  0
LINE
  5
2AC
330
20F
100
AcDbEntity
  8
P-SANR-FIXT
100
AcDbLine
 10
767.2035030800242
 20
1620.89775391759
 30
0.0
 11
767.2035030800242
 21
1653.745878730054
 31
0.0
  0
LINE
  5
2AD
330
20F
100
AcDbEntity
  8
P-SANR-FIXT
100
AcDbLine
 10
767.2035030800242
 20
1653.745878730054
 30
0.0
 11
767.2035030800242
 21
1686.594003542517
 31
0.0
  0
LINE
  5
2AE
330
20F
100
AcDbEntity
  8
P-SANR-FIXT
100
AcDbLine
 10
743.6035030801032
 20
1620.245878730054
 30
0.0
 11
743.6035030801032
 21
1653.745878730054
 31
0.0
  0
LINE
  5
2AF
330
20F
100
AcDbEntity
  8
P-SANR-FIXT
100
AcDbLine
 10
743.6035030801032
 20
1653.745878730054
 30
0.0
 11
743.6035030801032
 21
1687.245878730054
 31
0.0
  0
ENDBLK
  5
2B1
330
20F
100
AcDbEntity
  8
0
100
AcDbBlockEnd
  0
BLOCK
  5
3D6
330
2B3
100
AcDbEntity
  8
0
100
AcDbBlockBegin
  2
Automatic flow rate regulator valve_Caleffi_121 DN15 - DN25-V2-Est - Idraulica
 70
     0
 10
0.0
 20
0.0
 30
0.0
  3
Automatic flow rate regulator valve_Caleffi_121 DN15 - DN25-V2-Est - Idraulica
  1

  0
LINE
  5
2B4
330
2B3
100
AcDbEntity
  8
M-PIPE
100
AcDbLine
 10
1125.264354518794
 20
2033.482553638353
 30
0.0
 11
1125.264354670293
 21
2030.982557828906
 31
0.0
1001
REVIT
1002
{
1070
     3
1000
790271
1002
}
  0
LINE
  5
2B5
330
2B3
100
AcDbEntity
  8
M-PIPE
100
AcDbLine
 10
1158.964354670292
 20
2030.982559871116
 30
0.0
 11
1158.964354518793
 21
2033.482553638353
 31
0.0
1001
REVIT
1002
{
1070
     3
1000
790271
1002
}
  0
LINE
  5
2B6
330
2B3
100
AcDbEntity
  8
M-PIPE
100
AcDbLine
 10
1123.614354670293
 20
2030.982557728917
 30
0.0
 11
1123.614354893942
 21
2027.29195744769
 31
0.0
1001
REVIT
1002
{
1070
     3
1000
790271
1002
}
  0
LINE
  5
2B7
330
2B3
100
AcDbEntity
  8
M-PIPE
100
AcDbLine
 10
1160.614354893942
 20
2027.291959689878
 30
0.0
 11
1160.614354670292
 21
2030.982559971105
 31
0.0
1001
REVIT
1002
{
1070
     3
1000
790271
1002
}
  0
LWPOLYLINE
  5
2B8
330
2B3
100
AcDbEntity
  8
M-PIPE
100
AcDbPolyline
 90
       28
 70
   128
 43
0.0
 10
1124.364354972664
 20
2025.992919387463
 10
1124.313007221858
 20
2026.023950476919
 10
1124.262941456383
 20
2026.05701010718
 10
1124.214237770783
 20
2026.09204538989
 10
1124.166974080566
 20
2026.129000276071
 10
1124.121225997552
 20
2026.167815645786
 10
1124.077066708917
 20
2026.208429402727
 10
1124.034566860101
 20
2026.250776573544
 10
1123.993794441797
 20
2026.294789411799
 10
1123.954814681176
 20
2026.340397506338
 10
1123.91768993754
 20
2026.387527893941
 10
1123.88247960256
 20
2026.43610517604
 10
1123.849240005259
 20
2026.486051639348
 10
1123.818024321904
 20
2026.537287380176
 10
1123.788882490928
 20
2026.589730432271
 10
1123.761861133045
 20
2026.643296897935
 10
1123.737003476662
 20
2026.697901082251
 10
1123.714349288729
 20
2026.753455630171
 10
1123.693934811111
 20
2026.809871666271
 10
1123.675792702619
 20
2026.867058936927
 10
1123.659951986756
 20
2026.924925954705
 10
1123.646438005289
 20
2026.983380144722
 10
1123.635272377704
 20
2027.042327992742
 10
1123.626472966626
 20
2027.101675194785
 10
1123.620053849232
 20
2027.161326807985
 10
1123.616025294743
 20
2027.221187402489
 10
1123.614393747986
 20
2027.281161214114
 10
1123.614354893942
 20
2027.29195744769
1001
REVIT
1002
{
1070
     3
1000
790271
1002
}
  0
LWPOLYLINE
  5
2B9
330
2B3
100
AcDbEntity
  8
M-PIPE
100
AcDbPolyline
 90
       28
 70
   128
 43
0.0
 10
1160.614354893942
 20
2027.291959689879
 10
1160.613155057569
 20
2027.231975688525
 10
1160.60955746066
 20
2027.172087648634
 10
1160.603567858605
 20
2027.112391378291
 10
1160.595195833487
 20
2027.052982378796
 10
1160.584454778763
 20
2026.993955691874
 10
1160.571361877827
 20
2026.935405747632
 10
1160.555938076529
 20
2026.877426213492
 10
1160.53820804966
 20
2026.82010984434
 10
1160.51820016148
 20
2026.763548334139
 10
1160.495946420344
 20
2026.70783216924
 10
1160.471482427489
 20
2026.653050483621
 10
1160.444847320087
 20
2026.599290916294
 10
1160.416083708625
 20
2026.546639471098
 10
1160.385237608747
 20
2026.495180379113
 10
1160.352358367632
 20
2026.444995963909
 10
1160.317498585053
 20
2026.396166509845
 10
1160.280714029225
 20
2026.348770133632
 10
1160.242063547591
 20
2026.30288265936
 10
1160.201608972676
 20
2026.2585774972
 10
1160.15941502317
 20
2026.21592552596
 10
1160.115549200392
 20
2026.174994979695
 10
1160.0700816803
 20
2026.135851338547
 10
1160.023085201227
 20
2026.098557223993
 10
1159.974634947515
 20
2026.06317229866
 10
1159.924808429233
 20
2026.02975317088
 10
1159.873685358183
 20
2025.998353304129
 10
1159.864354972663
 20
2025.992921538751
1001
REVIT
1002
{
1070
     3
1000
790271
1002
}
  0
LINE
  5
2BA
330
2B3
100
AcDbEntity
  8
M-PIPE
100
AcDbLine
 10
1124.364354972664
 20
2025.992919387463
 30
0.0
 11
1125.614355016335
 21
2025.271231626762
 31
0.0
1001
REVIT
1002
{
1070
     3
1000
790271
1002
}
  0
LINE
  5
2BB
330
2B3
100
AcDbEntity
  8
M-PIPE
100
AcDbLine
 10
1158.61435501646
 20
2025.271233626551
 30
0.0
 11
1159.864354972663
 21
2025.992921538751
 31
0.0
1001
REVIT
1002
{
1070
     3
1000
790271
1002
}
  0
LWPOLYLINE
  5
2BC
330
2B3
100
AcDbEntity
  8
M-PIPE
100
AcDbPolyline
 90
       28
 70
   128
 43
0.0
 10
1126.114355068815
 20
2024.405206253277
 10
1126.113555173053
 20
2024.445195587416
 10
1126.111156770275
 20
2024.485120947053
 10
1126.107163697415
 20
2024.52491846013
 10
1126.101582342537
 20
2024.564524459117
 10
1126.094421634618
 20
2024.603875582864
 10
1126.085693029263
 20
2024.642908877968
 10
1126.075410490379
 20
2024.681561899481
 10
1126.063590467835
 20
2024.719772810817
 10
1126.050251871146
 20
2024.757480482668
 10
1126.03541603922
 20
2024.794624590802
 10
1126.019106706223
 20
2024.831145712571
 10
1126.001349963611
 20
2024.86698542197
 10
1125.982174218382
 20
2024.902086383111
 10
1125.961610147639
 20
2024.936392441942
 10
1125.939690649508
 20
2024.969848716088
 10
1125.91645079051
 20
2025.002401682647
 10
1125.891927749462
 20
2025.033999263817
 10
1125.866160757998
 20
2025.064590910208
 10
1125.839191037808
 20
2025.094127681713
 10
1125.811061734691
 20
2025.122562325798
 10
1125.781817849532
 20
2025.149849353097
 10
1125.751506166308
 20
2025.175945110188
 10
1125.720175177246
 20
2025.200807849426
 10
1125.687875005245
 20
2025.224397795734
 10
1125.654657323691
 20
2025.246677210228
 10
1125.620575273787
 20
2025.267610450597
 10
1125.614355016335
 20
2025.271231626762
1001
REVIT
1002
{
1070
     3
1000
790271
1002
}
  0
LWPOLYLINE
  5
2BD
330
2B3
100
AcDbEntity
  8
M-PIPE
100
AcDbPolyline
 90
       28
 70
   128
 43
0.0
 10
1158.61435501646
 20
2025.271233626551
 10
1158.580123185098
 20
2025.250546229432
 10
1158.546746010785
 20
2025.228506471879
 10
1158.514276889883
 20
2025.205149612804
 10
1158.482767766057
 20
2025.180513018198
 10
1158.452269047184
 20
2025.154636101358
 10
1158.422829524709
 20
2025.127560259829
 10
1158.394496295586
 20
2025.099328809184
 10
1158.36731468694
 20
2025.06998691372
 10
1158.341328183545
 20
2025.03958151421
 10
1158.316578358262
 20
2025.008161252809
 10
1158.293104805533
 20
2024.975776395231
 10
1158.270945078036
 20
2024.94247875034
 10
1158.250134626605
 20
2024.908321587266
 10
1158.230706743526
 20
2024.873359550181
 10
1158.212692509265
 20
2024.837648570889
 10
1158.196120742755
 20
2024.801245779336
 10
1158.181017955288
 20
2024.764209412226
 10
1158.167408308101
 20
2024.726598719843
 10
1158.155313573727
 20
2024.688473871274
 10
1158.144753101161
 20
2024.649895858141
 10
1158.135743784906
 20
2024.610926397039
 10
1158.128300037946
 20
2024.571627830789
 10
1158.122433768689
 20
2024.532063028717
 10
1158.118154361913
 20
2024.492295286064
 10
1158.115468663757
 20
2024.452388222735
 10
1158.114380970765
 20
2024.412405681521
 10
1158.114355068941
 20
2024.405208192467
1001
REVIT
1002
{
1070
     3
1000
790271
1002
}
  0
LINE
  5
2BE
330
2B3
100
AcDbEntity
  8
M-PIPE
100
AcDbLine
 10
1126.114355068815
 20
2024.405206253277
 30
0.0
 11
1126.114356403181
 21
2002.385861084443
 31
0.0
1001
REVIT
1002
{
1070
     3
1000
790271
1002
}
  0
LINE
  5
2BF
330
2B3
100
AcDbEntity
  8
M-PIPE
100
AcDbLine
 10
1158.114356403307
 20
2002.385863023633
 30
0.0
 11
1158.114355068941
 21
2024.405208192467
 31
0.0
1001
REVIT
1002
{
1070
     3
1000
790271
1002
}
  0
LINE
  5
2C0
330
2B3
100
AcDbEntity
  8
M-PIPE
100
AcDbLine
 10
1126.114357791085
 20
1979.483020048883
 30
0.0
 11
1126.114358028825
 21
1975.559909507554
 31
0.0
1001
REVIT
1002
{
1070
     3
1000
790271
1002
}
  0
LINE
  5
2C1
330
2B3
100
AcDbEntity
  8
M-PIPE
100
AcDbLine
 10
1158.114358028951
 20
1975.559911446744
 30
0.0
 11
1158.114357791212
 21
1979.483021988073
 31
0.0
1001
REVIT
1002
{
1070
     3
1000
790271
1002
}
  0
LINE
  5
2C2
330
2B3
100
AcDbEntity
  8
M-PIPE
100
AcDbLine
 10
1126.114358028889
 20
1975.559909507554
 30
0.0
 11
1126.114358427474
 21
1968.982555274589
 31
0.0
1001
REVIT
1002
{
1070
     3
1000
790271
1002
}
  0
LINE
  5
2C3
330
2B3
100
AcDbEntity
  8
M-PIPE
100
AcDbLine
 10
1158.114358427473
 20
1968.982557213778
 30
0.0
 11
1158.114358028887
 21
1975.559911446744
 31
0.0
1001
REVIT
1002
{
1070
     3
1000
790271
1002
}
  0
LINE
  5
2C4
330
2B3
100
AcDbEntity
  8
M-PIPE
100
AcDbLine
 10
1124.034302917454
 20
1910.982555148537
 30
0.0
 11
1124.034303159853
 21
1906.982556244182
 31
0.0
1001
REVIT
1002
{
1070
     3
1000
790271
1002
}
  0
LINE
  5
2C5
330
2B3
100
AcDbEntity
  8
M-PIPE
100
AcDbLine
 10
1160.194421209455
 20
1906.982557339827
 30
0.0
 11
1160.194420967057
 21
1910.98255733983
 31
0.0
1001
REVIT
1002
{
1070
     3
1000
790271
1002
}
  0
LINE
  5
2C6
330
2B3
100
AcDbEntity
  8
M-PIPE
100
AcDbLine
 10
1160.194420967057
 20
1910.98255733983
 30
0.0
 11
1165.739361942238
 21
1910.982557675851
 31
0.0
1001
REVIT
1002
{
1070
     3
1000
790271
1002
}
  0
LINE
  5
2C7
330
2B3
100
AcDbEntity
  8
M-PIPE
100
AcDbLine
 10
1165.739358426738
 20
1968.982557675851
 30
0.0
 11
1158.114358427473
 21
1968.982557213778
 31
0.0
1001
REVIT
1002
{
1070
     3
1000
790271
1002
}
  0
LINE
  5
2C8
330
2B3
100
AcDbEntity
  8
M-PIPE
100
AcDbLine
 10
1126.114358427474
 20
1968.982555274589
 30
0.0
 11
1118.48935842749
 21
1968.982554812516
 31
0.0
1001
REVIT
1002
{
1070
     3
1000
790271
1002
}
  0
LINE
  5
2C9
330
2B3
100
AcDbEntity
  8
M-PIPE
100
AcDbLine
 10
1118.48936194299
 20
1910.982554812516
 30
0.0
 11
1124.034302917454
 21
1910.982555148537
 31
0.0
1001
REVIT
1002
{
1070
     3
1000
790271
1002
}
  0
LINE
  5
2CA
330
2B3
100
AcDbEntity
  8
M-PIPE
100
AcDbLine
 10
1118.489358154792
 20
1973.482554812516
 30
0.0
 11
1097.734502460169
 21
1973.482553554779
 31
0.0
1001
REVIT
1002
{
1070
     3
1000
790271
1002
}
  0
LINE
  5
2CB
330
2B3
100
AcDbEntity
  8
M-PIPE
100
AcDbLine
 10
1097.734506520348
 20
1906.482553554779
 30
0.0
 11
1118.48936221497
 21
1906.482554812516
 31
0.0
1001
REVIT
1002
{
1070
     3
1000
790271
1002
}
  0
LWPOLYLINE
  5
2CC
330
2B3
100
AcDbEntity
  8
M-PIPE
100
AcDbPolyline
 90
       39
 70
   128
 43
0.0
 10
1097.734506520348
 20
1906.482553554779
 10
1097.646529985031
 20
1906.484313314793
 10
1097.55869419319
 20
1906.489589790259
 10
1097.471139663354
 20
1906.49837453994
 10
1097.384006464094
 20
1906.510653510112
 10
1097.297433989941
 20
1906.526407057041
 10
1097.211560738387
 20
1906.545609978414
 10
1097.126524088315
 20
1906.568231553652
 10
1097.042460080225
 20
1906.594235593059
 10
1096.959503198597
 20
1906.623580495722
 10
1096.877786156745
 20
1906.656219316055
 10
1096.797439684504
 20
1906.692099838909
 10
1096.718592319091
 20
1906.7311646631
 10
1096.64137019947
 20
1906.773351293244
 10
1096.565896864558
 20
1906.818592239732
 10
1096.492293055593
 20
1906.866815126699
 10
1096.420676522966
 20
1906.917942807815
 10
1096.351161837854
 20
1906.971893489696
 10
1096.283860208922
 20
1907.02858086276
 10
1096.21887930442
 20
1907.087914239301
 10
1096.156323079934
 20
1907.149798698577
 10
1096.096291612079
 20
1907.214135238652
 10
1096.038880938395
 20
1907.280820934787
 10
1095.984182903716
 20
1907.349749104094
 10
1095.932285013228
 20
1907.420809476205
 10
1095.883270292484
 20
1907.493888369684
 10
1095.837217154582
 20
1907.568868873891
 10
1095.794199274719
 20
1907.645631036015
 10
1095.754285472325
 20
1907.724052052969
 10
1095.71753960097
 20
1907.804006467857
 10
1095.68402044621
 20
1907.885366370671
 10
1095.653781631541
 20
1907.968001602922
 10
1095.626871532617
 20
1908.051779965866
 10
1095.603333199855
 20
1908.136567431995
 10
1095.583204289567
 20
1908.222228359449
 10
1095.566517003714
 20
1908.308625709018
 10
1095.553298038395
 20
1908.395621263374
 10
1095.543568541134
 20
1908.483075848187
 10
1095.542878062846
 20
1908.490810787921
1001
REVIT
1002
{
1070
     3
1000
790271
1002
}
  0
LWPOLYLINE
  5
2CD
330
2B3
100
AcDbEntity
  8
M-PIPE
100
AcDbPolyline
 90
       39
 70
   128
 43
0.0
 10
1095.542874246067
 20
1971.474296056011
 10
1095.552294969944
 20
1971.56178444086
 10
1095.565206760505
 20
1971.648826115856
 10
1095.58158896164
 20
1971.735281832889
 10
1095.601415365322
 20
1971.821013281255
 10
1095.624654253536
 20
1971.905883308922
 10
1095.651268449016
 20
1971.989756141953
 10
1095.681215374729
 20
1972.072497601707
 10
1095.714447121979
 20
1972.153975319498
 10
1095.750910527062
 20
1972.234058948358
 10
1095.790547256307
 20
1972.312620371566
 10
1095.833293899405
 20
1972.389533907603
 10
1095.879082070842
 20
1972.464676511219
 10
1095.927838519314
 20
1972.537927970277
 10
1095.979485244903
 20
1972.609171098069
 10
1096.033939623867
 20
1972.678291920788
 10
1096.091114540814
 20
1972.745179859864
 10
1096.150918528075
 20
1972.809727908862
 10
1096.213255912028
 20
1972.871832804673
 10
1096.278026966155
 20
1972.931395192712
 10
1096.345128070588
 20
1972.988319785865
 10
1096.414451877874
 20
1973.042515516926
 10
1096.485887484708
 20
1973.093895684285
 10
1096.55932060936
 20
1973.142378090637
 10
1096.634633774494
 20
1973.187885174472
 10
1096.711706495113
 20
1973.230344134165
 10
1096.790415471303
 20
1973.269687044438
 10
1096.870634785495
 20
1973.305850965026
 10
1096.952236103898
 20
1973.338778041371
 10
1097.03508888181
 20
1973.368415597176
 10
1097.119060572459
 20
1973.394716218674
 10
1097.204016839055
 20
1973.417637830479
 10
1097.289821769694
 20
1973.437143762904
 10
1097.376338094791
 20
1973.453202810617
 10
1097.463427406682
 20
1973.465789282568
 10
1097.550950381045
 20
1973.474883043087
 10
1097.638766999793
 20
1973.480469544097
 10
1097.726736775067
 20
1973.482539848387
 10
1097.734502460169
 20
1973.482553554779
1001
REVIT
1002
{
1070
     3
1000
790271
1002
}
  0
LINE
  5
2CE
330
2B3
100
AcDbEntity
  8
M-PIPE
100
AcDbLine
 10
1095.542874246067
 20
1971.474296056011
 30
0.0
 11
1094.489359006217
 21
1959.432553358124
 31
0.0
1001
REVIT
1002
{
1070
     3
1000
790271
1002
}
  0
LINE
  5
2CF
330
2B3
100
AcDbEntity
  8
M-PIPE
100
AcDbLine
 10
1094.489361363545
 20
1920.532553358124
 30
0.0
 11
1095.542878062846
 21
1908.490810787921
 31
0.0
1001
REVIT
1002
{
1070
     3
1000
790271
1002
}
  0
LINE
  5
2D0
330
2B3
100
AcDbEntity
  8
M-PIPE
100
AcDbLine
 10
1189.739359006184
 20
1959.432559130244
 30
0.0
 11
1188.685842306882
 21
1971.474301700446
 31
0.0
1001
REVIT
1002
{
1070
     3
1000
790271
1002
}
  0
LINE
  5
2D1
330
2B3
100
AcDbEntity
  8
M-PIPE
100
AcDbLine
 10
1188.685846123661
 20
1908.490816432356
 30
0.0
 11
1189.739361363511
 21
1920.532559130244
 31
0.0
1001
REVIT
1002
{
1070
     3
1000
790271
1002
}
  0
LWPOLYLINE
  5
2D2
330
2B3
100
AcDbEntity
  8
M-PIPE
100
AcDbPolyline
 90
       39
 70
   128
 43
0.0
 10
1188.685846123661
 20
1908.490816432356
 10
1188.676425399785
 20
1908.403328047508
 10
1188.663513609224
 20
1908.316286372511
 10
1188.647131408088
 20
1908.229830655478
 10
1188.627305004405
 20
1908.144099207113
 10
1188.604066116192
 20
1908.059229179445
 10
1188.577451920711
 20
1907.975356346414
 10
1188.547504995
 20
1907.892614886661
 10
1188.514273247749
 20
1907.81113716887
 10
1188.477809842666
 20
1907.731053540009
 10
1188.43817311342
 20
1907.652492116801
 10
1188.395426470324
 20
1907.575578580765
 10
1188.349638298886
 20
1907.500435977149
 10
1188.300881850414
 20
1907.427184518091
 10
1188.249235124825
 20
1907.355941390298
 10
1188.194780745861
 20
1907.286820567579
 10
1188.137605828914
 20
1907.219932628503
 10
1188.077801841652
 20
1907.155384579505
 10
1188.0154644577
 20
1907.093279683694
 10
1187.950693403573
 20
1907.033717295655
 10
1187.88359229914
 20
1906.976792702502
 10
1187.814268491854
 20
1906.922596971442
 10
1187.74283288502
 20
1906.871216804082
 10
1187.669399760368
 20
1906.822734397731
 10
1187.594086595234
 20
1906.777227313895
 10
1187.517013874615
 20
1906.734768354203
 10
1187.438304898424
 20
1906.69542544393
 10
1187.358085584233
 20
1906.659261523342
 10
1187.27648426583
 20
1906.626334446996
 10
1187.193631487919
 20
1906.596696891191
 10
1187.109659797269
 20
1906.570396269694
 10
1187.024703530672
 20
1906.547474657888
 10
1186.938898600033
 20
1906.527968725464
 10
1186.852382274937
 20
1906.51190967775
 10
1186.765292963046
 20
1906.499323205799
 10
1186.677769988683
 20
1906.49022944528
 10
1186.589953369936
 20
1906.484642944271
 10
1186.501983594661
 20
1906.482572639981
 10
1186.494217909559
 20
1906.482558933589
1001
REVIT
1002
{
1070
     3
1000
790271
1002
}
  0
LWPOLYLINE
  5
2D3
330
2B3
100
AcDbEntity
  8
M-PIPE
100
AcDbPolyline
 90
       39
 70
   128
 43
0.0
 10
1186.49421384938
 20
1973.482558933589
 10
1186.582190384697
 20
1973.480799173574
 10
1186.670026176539
 20
1973.475522698109
 10
1186.757580706375
 20
1973.466737948428
 10
1186.844713905634
 20
1973.454458978256
 10
1186.931286379786
 20
1973.438705431327
 10
1187.017159631341
 20
1973.419502509954
 10
1187.102196281413
 20
1973.396880934717
 10
1187.186260289504
 20
1973.370876895308
 10
1187.269217171131
 20
1973.341531992646
 10
1187.350934212983
 20
1973.308893172313
 10
1187.431280685224
 20
1973.273012649459
 10
1187.510128050637
 20
1973.233947825268
 10
1187.587350170258
 20
1973.191761195124
 10
1187.66282350517
 20
1973.146520248636
 10
1187.736427314135
 20
1973.098297361668
 10
1187.808043846762
 20
1973.047169680553
 10
1187.877558531875
 20
1972.993218998671
 10
1187.944860160806
 20
1972.936531625608
 10
1188.009841065308
 20
1972.877198249066
 10
1188.072397289794
 20
1972.81531378979
 10
1188.13242875765
 20
1972.750977249716
 10
1188.189839431332
 20
1972.684291553581
 10
1188.244537466012
 20
1972.615363384274
 10
1188.2964353565
 20
1972.544303012163
 10
1188.345450077244
 20
1972.471224118683
 10
1188.391503215146
 20
1972.396243614477
 10
1188.434521095009
 20
1972.319481452353
 10
1188.474434897403
 20
1972.241060435399
 10
1188.511180768758
 20
1972.16110602051
 10
1188.544699923518
 20
1972.079746117697
 10
1188.574938738186
 20
1971.997110885446
 10
1188.601848837111
 20
1971.913332522502
 10
1188.625387169873
 20
1971.828545056373
 10
1188.645516080161
 20
1971.742884128919
 10
1188.662203366014
 20
1971.656486779349
 10
1188.675422331333
 20
1971.569491224994
 10
1188.685151828594
 20
1971.482036640181
 10
1188.685842306882
 20
1971.474301700446
1001
REVIT
1002
{
1070
     3
1000
790271
1002
}
  0
LINE
  5
2D4
330
2B3
100
AcDbEntity
  8
M-PIPE
100
AcDbLine
 10
1186.49421384938
 20
1973.482558933589
 30
0.0
 11
1165.739358154757
 21
1973.482557675851
 31
0.0
1001
REVIT
1002
{
1070
     3
1000
790271
1002
}
  0
LINE
  5
2D5
330
2B3
100
AcDbEntity
  8
M-PIPE
100
AcDbLine
 10
1165.739362214937
 20
1906.482557675852
 30
0.0
 11
1186.494217909559
 21
1906.482558933589
 31
0.0
1001
REVIT
1002
{
1070
     3
1000
790271
1002
}
  0
LINE
  5
2D6
330
2B3
100
AcDbEntity
  8
M-PIPE
100
AcDbLine
 10
1130.998354346028
 20
1988.660896440942
 30
0.0
 11
1129.105917992696
 21
1988.660896326261
 31
0.0
1001
REVIT
1002
{
1070
     3
1000
790271
1002
}
  0
LINE
  5
2D7
330
2B3
100
AcDbEntity
  8
M-PIPE
100
AcDbLine
 10
1130.998354453981
 20
1986.879489178981
 30
0.0
 11
1130.998354346028
 21
1988.660896440942
 31
0.0
1001
REVIT
1002
{
1070
     3
1000
790271
1002
}
  0
LINE
  5
2D8
330
2B3
100
AcDbEntity
  8
M-PIPE
100
AcDbLine
 10
1155.122796477245
 20
1988.660897902876
 30
0.0
 11
1153.230360123914
 21
1988.660897788195
 31
0.0
1001
REVIT
1002
{
1070
     3
1000
790271
1002
}
  0
LINE
  5
2D9
330
2B3
100
AcDbEntity
  8
M-PIPE
100
AcDbLine
 10
1153.230360123914
 20
1988.660897788195
 30
0.0
 11
1153.230360231867
 21
1986.879490526233
 31
0.0
1001
REVIT
1002
{
1070
     3
1000
790271
1002
}
  0
LINE
  5
2DA
330
2B3
100
AcDbEntity
  8
M-PIPE
100
AcDbLine
 10
1129.105917992696
 20
1988.660896326261
 30
0.0
 11
1118.708801600701
 21
1988.660895696199
 31
0.0
1001
REVIT
1002
{
1070
     3
1000
790271
1002
}
  0
LINE
  5
2DB
330
2B3
100
AcDbEntity
  8
M-PIPE
100
AcDbLine
 10
1130.998355084269
 20
1976.478630796822
 30
0.0
 11
1130.998354453981
 21
1986.879489178981
 31
0.0
1001
REVIT
1002
{
1070
     3
1000
790271
1002
}
  0
LINE
  5
2DC
330
2B3
100
AcDbEntity
  8
M-PIPE
100
AcDbLine
 10
1165.519912869241
 20
1988.660898532938
 30
0.0
 11
1155.122796477245
 21
1988.660897902876
 31
0.0
1001
REVIT
1002
{
1070
     3
1000
790271
1002
}
  0
LINE
  5
2DD
330
2B3
100
AcDbEntity
  8
M-PIPE
100
AcDbLine
 10
1153.230360231867
 20
1986.879490526233
 30
0.0
 11
1153.230360862155
 21
1976.478632144079
 31
0.0
1001
REVIT
1002
{
1070
     3
1000
790271
1002
}
  0
SPLINE
  5
2DE
330
2B3
100
AcDbEntity
  8
M-PIPE
100
AcDbSpline
210
0.0
220
0.0
230
1.0
 70
     8
 71
     3
 72
     8
 73
     4
 74
     0
 42
0.000000001
 43
0.0000000001
 40
0.5416666666666666
 40
0.5416666666666666
 40
0.5416666666666666
 40
0.5416666666666666
 40
0.5506421480630605
 40
0.5506421480630605
 40
0.5506421480630605
 40
0.5506421480630605
 10
1126.120358163624
 20
1979.483948308115
 30
0.0
 10
1126.119155846369
 20
1979.484889896693
 30
0.0
 10
1126.118650593731
 20
1979.485288491397
 30
0.0
 10
1126.118826430325
 20
1979.485155268868
 30
0.0
1001
REVIT
1002
{
1070
     3
1000
790271
1002
}
  0
SPLINE
  5
2DF
330
2B3
100
AcDbEntity
  8
M-PIPE
100
AcDbSpline
210
0.0
220
0.0
230
1.0
 70
     8
 71
     3
 72
    10
 73
     6
 74
     0
 42
0.000000001
 43
0.0000000001
 40
0.7083333333333332
 40
0.7083333333333332
 40
0.7083333333333332
 40
0.7083333333333332
 40
0.71875
 40
0.75
 40
0.7916666666666665
 40
0.7916666666666665
 40
0.7916666666666665
 40
0.7916666666666665
 10
1126.780350859734
 20
1978.985702891093
 30
0.0
 10
1126.809109192844
 20
1978.964698693628
 30
0.0
 10
1126.92730719739
 20
1978.878791692496
 30
0.0
 10
1127.18344291466
 20
1978.694816811827
 30
0.0
 10
1127.459219905855
 20
1978.50756203355
 30
0.0
 10
1127.626197349478
 20
1978.395299054198
 30
0.0
1001
REVIT
1002
{
1070
     3
1000
790271
1002
}
  0
SPLINE
  5
2E0
330
2B3
100
AcDbEntity
  8
M-PIPE
100
AcDbSpline
210
0.0
220
0.0
230
1.0
 70
     8
 71
     3
 72
     8
 73
     4
 74
     0
 42
0.000000001
 43
0.0000000001
 40
0.875
 40
0.875
 40
0.875
 40
0.875
 40
0.9166666666666662
 40
0.9166666666666662
 40
0.9166666666666662
 40
0.9166666666666662
 10
1128.771798951445
 20
1977.667176866829
 30
0.0
 10
1128.985712995422
 20
1977.53917552212
 30
0.0
 10
1129.226008474203
 20
1977.408220479238
 30
0.0
 10
1129.477464313614
 20
1977.275912326444
 30
0.0
1001
REVIT
1002
{
1070
     3
1000
790271
1002
}
  0
SPLINE
  5
2E1
330
2B3
100
AcDbEntity
  8
M-PIPE
100
AcDbSpline
210
0.0
220
0.0
230
1.0
 70
     8
 71
     3
 72
     8
 73
     4
 74
     0
 42
0.000000001
 43
0.0000000001
 40
0.9583333333333328
 40
0.9583333333333328
 40
0.9583333333333328
 40
0.9583333333333328
 40
1.0
 40
1.0
 40
1.0
 40
1.0
 10
1130.185120422909
 20
1976.880488780164
 30
0.0
 10
1130.443675909411
 20
1976.747074995807
 30
0.0
 10
1130.714413536537
 20
1976.612918776404
 30
0.0
 10
1130.99835508428
 20
1976.478630796822
 30
0.0
1001
REVIT
1002
{
1070
     3
1000
790271
1002
}
  0
ARC
  5
2E2
330
2B3
100
AcDbEntity
  8
M-PIPE
100
AcDbCircle
 10
1142.114356548882
 20
1999.982556244181
 30
0.0
 40
25.999999999924
100
AcDbArc
 50
205.8138349547884
 51
244.6885505716201
1001
REVIT
1002
{
1070
     3
1000
790271
1002
}
  0
LWPOLYLINE
  5
2E3
330
2B3
100
AcDbEntity
  8
M-PIPE
100
AcDbPolyline
 90
        7
 70
   128
 43
0.0
 10
1118.708801600701
 20
1988.660895696199
 10
1116.727183177667
 20
1994.370833851194
 10
1116.117456256787
 20
2000.384022555228
 10
1116.912569728002
 20
2006.375516515523
 10
1119.069556641095
 20
2012.021542796468
 10
1122.471856086625
 20
2017.016997109272
 10
1126.102458645323
 20
2020.467163282688
1001
REVIT
1002
{
1070
     3
1000
790271
1002
}
  0
LWPOLYLINE
  5
2E4
330
2B3
100
AcDbEntity
  8
M-PIPE
100
AcDbPolyline
 90
        7
 70
   128
 43
0.0
 10
1158.126251969719
 20
2020.46716522332
 10
1161.756854946575
 20
2017.016999489931
 10
1165.15915499755
 20
2012.021545589483
 10
1167.316142594939
 20
2006.375519569965
 10
1168.111256792319
 20
2000.384025706036
 10
1167.501530600233
 20
1994.370836928103
 10
1165.519912869241
 20
1988.660898532938
1001
REVIT
1002
{
1070
     3
1000
790271
1002
}
  0
ARC
  5
2E5
330
2B3
100
AcDbEntity
  8
M-PIPE
100
AcDbCircle
 10
1142.114356548882
 20
1999.982556244181
 30
0.0
 40
25.99999999992402
100
AcDbArc
 50
295.3114563726153
 51
334.1861719894234
1001
REVIT
1002
{
1070
     3
1000
790271
1002
}
  0
SPLINE
  5
2E6
330
2B3
100
AcDbEntity
  8
M-PIPE
100
AcDbSpline
210
0.0
220
0.0
230
1.0
 70
     8
 71
     3
 72
     8
 73
     4
 74
     0
 42
0.000000001
 43
0.0000000001
 40
0.0
 40
0.0
 40
0.0
 40
0.0
 40
0.0416666666666667
 40
0.0416666666666667
 40
0.0416666666666667
 40
0.0416666666666667
 10
1153.230360862155
 20
1976.478632144079
 30
0.0
 10
1153.514302393622
 20
1976.612920158075
 30
0.0
 10
1153.785040004488
 20
1976.747076410291
 30
0.0
 10
1154.04359547482
 20
1976.880490225985
 30
0.0
1001
REVIT
1002
{
1070
     3
1000
790271
1002
}
  0
SPLINE
  5
2E7
330
2B3
100
AcDbEntity
  8
M-PIPE
100
AcDbSpline
210
0.0
220
0.0
230
1.0
 70
     8
 71
     3
 72
     8
 73
     4
 74
     0
 42
0.000000001
 43
0.0000000001
 40
0.0833333333333333
 40
0.0833333333333333
 40
0.0833333333333333
 40
0.0833333333333333
 40
0.125
 40
0.125
 40
0.125
 40
0.125
 10
1154.783737244279
 20
1977.277893688757
 30
0.0
 10
1155.01895021361
 20
1977.409211956665
 30
0.0
 10
1155.24300282292
 20
1977.539177113512
 30
0.0
 10
1155.456916850936
 20
1977.667178483943
 30
0.0
1001
REVIT
1002
{
1070
     3
1000
790271
1002
}
  0
SPLINE
  5
2E8
330
2B3
100
AcDbEntity
  8
M-PIPE
100
AcDbSpline
210
0.0
220
0.0
230
1.0
 70
     8
 71
     3
 72
    10
 73
     6
 74
     0
 42
0.000000001
 43
0.0000000001
 40
0.2083333333333333
 40
0.2083333333333333
 40
0.2083333333333333
 40
0.2083333333333333
 40
0.25
 40
0.28125
 40
0.2916666666666666
 40
0.2916666666666666
 40
0.2916666666666666
 40
0.2916666666666666
 10
1156.606551609531
 20
1978.396060293412
 30
0.0
 10
1156.773851699137
 20
1978.508384051662
 30
0.0
 10
1157.043699807451
 20
1978.694522427477
 30
0.0
 10
1157.301529437315
 20
1978.878816309302
 30
0.0
 10
1157.419606464853
 20
1978.964700554401
 30
0.0
 10
1157.448364801475
 20
1978.985704758136
 30
0.0
1001
REVIT
1002
{
1070
     3
1000
790271
1002
}
  0
SPLINE
  5
2E9
330
2B3
100
AcDbEntity
  8
M-PIPE
100
AcDbSpline
210
0.0
220
0.0
230
1.0
 70
     8
 71
     3
 72
     8
 73
     4
 74
     0
 42
0.000000001
 43
0.0000000001
 40
0.4493578519364723
 40
0.4493578519364723
 40
0.4493578519364723
 40
0.4493578519364723
 40
0.4583333333333333
 40
0.4583333333333333
 40
0.4583333333333333
 40
0.4583333333333333
 10
1158.109887940246
 20
1979.485156635557
 30
0.0
 10
1158.110064278804
 20
1979.485290095105
 30
0.0
 10
1158.109559605245
 20
1979.484891788606
 30
0.0
 10
1158.108357096559
 20
1979.483950131319
 30
0.0
1001
REVIT
1002
{
1070
     3
1000
790271
1002
}
  0
LWPOLYLINE
  5
2EA
330
2B3
100
AcDbEntity
  8
M-PIPE
100
AcDbPolyline
 90
        4
 70
   128
 43
0.0
 10
1130.998354346028
 20
1988.660896440942
 10
1128.705525704302
 20
1991.972268525266
 10
1127.09243679595
 20
1995.811022215584
 10
1126.240860644216
 20
1999.982557888081
1001
REVIT
1002
{
1070
     3
1000
790271
1002
}
  0
LINE
  5
2EB
330
2B3
100
AcDbEntity
  8
M-PIPE
100
AcDbLine
 10
1126.240860644217
 20
1999.982557888081
 30
0.0
 11
1126.114913005322
 21
2002.385861084476
 31
0.0
1001
REVIT
1002
{
1070
     3
1000
790271
1002
}
  0
LINE
  5
2EC
330
2B3
100
AcDbEntity
  8
M-PIPE
100
AcDbLine
 10
1158.113799801163
 20
2002.385863023598
 30
0.0
 11
1157.987852453547
 21
1999.982559811939
 31
0.0
1001
REVIT
1002
{
1070
     3
1000
790271
1002
}
  0
LWPOLYLINE
  5
2ED
330
2B3
100
AcDbEntity
  8
M-PIPE
100
AcDbPolyline
 90
        4
 70
   128
 43
0.0
 10
1157.987852453547
 20
1999.982559811938
 10
1157.136276807401
 20
1995.811024036231
 10
1155.523188364303
 20
1991.972270150408
 10
1153.230360123914
 20
1988.660897788195
1001
REVIT
1002
{
1070
     3
1000
790271
1002
}
  0
ELLIPSE
  5
2EE
330
2B3
100
AcDbEntity
  8
M-PIPE
100
AcDbEllipse
 10
1142.114354670291
 20
2030.98255885001
 30
0.0
 11
18.49999999999977
 21
0.000001119915396
 31
0.0
210
0.0
220
0.0
230
0.9999999999999996
 40
0.000001
 41
1.57079632673117
 42
3.926990807688102
1001
REVIT
1002
{
1070
     3
1000
790271
1002
}
  0
ELLIPSE
  5
2EF
330
2B3
100
AcDbEntity
  8
M-PIPE
100
AcDbEllipse
 10
1142.114354670291
 20
2030.98255885001
 30
0.0
 11
18.49999999999977
 21
0.000001119915396
 31
0.0
210
0.0
220
0.0
230
0.9999999999999996
 40
0.000001
 41
0.7853981540983161
 42
1.57079632673117
1001
REVIT
1002
{
1070
     3
1000
790271
1002
}
  0
SPLINE
  5
2F0
330
2B3
100
AcDbEntity
  8
M-PIPE
100
AcDbSpline
210
0.0
220
0.0
230
1.0
 70
     8
 71
     3
 72
    30
 73
    26
 74
     0
 42
0.000000001
 43
0.0000000001
 40
0.0
 40
0.0
 40
0.0
 40
0.0
 40
0.1428571428571428
 40
0.2142857142857143
 40
0.25
 40
0.2857142857142857
 40
0.3214285714285714
 40
0.3571428571428571
 40
0.3928571428571428
 40
0.4285714285714286
 40
0.4642857142857144
 40
0.5
 40
0.5357142857142857
 40
0.5714285714285714
 40
0.5892857142857143
 40
0.6071428571428572
 40
0.6428571428571428
 40
0.6785714285714287
 40
0.7142857142857144
 40
0.75
 40
0.7857142857142857
 40
0.8214285714285713
 40
0.8571428571428571
 40
0.9285714285714286
 40
1.0
 40
1.0
 40
1.0
 40
1.0
 10
1126.114358427473
 20
1968.982555274588
 30
0.0
 10
1126.114358427952
 20
1968.974643952888
 30
0.0
 10
1126.32704593856
 20
1968.866029384926
 30
0.0
 10
1126.924563923701
 20
1968.542270450092
 30
0.0
 10
1127.360108380547
 20
1968.309637894883
 30
0.0
 10
1127.731879649447
 20
1968.12204462368
 30
0.0
 10
1128.146391881881
 20
1967.915258629918
 30
0.0
 10
1128.602023764228
 20
1967.685982334542
 30
0.0
 10
1129.097423559093
 20
1967.443762402485
 30
0.0
 10
1129.631979592158
 20
1967.199018794907
 30
0.0
 10
1130.202712115872
 20
1966.945834044121
 30
0.0
 10
1130.806997210894
 20
1966.679289558066
 30
0.0
 10
1131.444857488853
 20
1966.410895986633
 30
0.0
 10
1132.004654816989
 20
1966.194290445906
 30
0.0
 10
1132.468520755896
 20
1966.024572141554
 30
0.0
 10
1132.941635453901
 20
1965.85199818131
 30
0.0
 10
1133.550888451066
 20
1965.637273569069
 30
0.0
 10
1134.309978417037
 20
1965.388492347036
 30
0.0
 10
1135.097445154081
 20
1965.162614529805
 30
0.0
 10
1135.911573524838
 20
1964.953341490237
 30
0.0
 10
1136.748447667291
 20
1964.754248992591
 30
0.0
 10
1137.606141633652
 20
1964.577839817094
 30
0.0
 10
1138.774004206059
 20
1964.38705990784
 30
0.0
 10
1140.272891356798
 20
1964.229798981876
 30
0.0
 10
1141.498738867683
 20
1964.176605001079
 30
0.0
 10
1142.114358719152
 20
1964.169329489079
 30
0.0
1001
REVIT
1002
{
1070
     3
1000
790271
1002
}
  0
SPLINE
  5
2F1
330
2B3
100
AcDbEntity
  8
M-PIPE
100
AcDbSpline
210
0.0
220
0.0
230
1.0
 70
     8
 71
     3
 72
    14
 73
    10
 74
     0
 42
0.000000001
 43
0.0000000001
 40
0.0
 40
0.0
 40
0.0
 40
0.0
 40
0.25
 40
0.375
 40
0.5
 40
0.5625
 40
0.625
 40
0.75
 40
1.0
 40
1.0
 40
1.0
 40
1.0
 10
1142.114361650574
 20
1915.795782999287
 30
0.0
 10
1140.990054068825
 20
1915.785266937619
 30
0.0
 10
1139.31766852455
 20
1915.678938715148
 30
0.0
 10
1137.185949081069
 20
1915.313048050074
 30
0.0
 10
1135.907626618886
 20
1915.018026924906
 30
0.0
 10
1134.92657621479
 20
1914.757656942985
 30
0.0
 10
1133.975479278952
 20
1914.468031791125
 30
0.0
 10
1132.387989646837
 20
1913.933942799806
 30
0.0
 10
1131.173328065796
 20
1913.462153023865
 30
0.0
 10
1130.445206454889
 20
1913.127962135644
 30
0.0
1001
REVIT
1002
{
1070
     3
1000
790271
1002
}
  0
SPLINE
  5
2F2
330
2B3
100
AcDbEntity
  8
M-PIPE
100
AcDbSpline
210
0.0
220
0.0
230
1.0
 70
     8
 71
     3
 72
    15
 73
    11
 74
     0
 42
0.000000001
 43
0.0000000001
 40
0.0
 40
0.0
 40
0.0
 40
0.0
 40
0.25
 40
0.375
 40
0.4375
 40
0.5
 40
0.5625
 40
0.625
 40
0.75
 40
1.0
 40
1.0
 40
1.0
 40
1.0
 10
1153.783517169597
 20
1913.127963549938
 30
0.0
 10
1153.055395518187
 20
1913.462154349912
 30
0.0
 10
1151.840729999522
 20
1913.93387385591
 30
0.0
 10
1150.253249357042
 20
1914.468126274521
 30
0.0
 10
1149.302138157812
 20
1914.757494194446
 30
0.0
 10
1148.566393986055
 20
1914.953560472377
 30
0.0
 10
1147.80963842925
 20
1915.133698641054
 30
0.0
 10
1146.776383255808
 20
1915.360120619204
 30
0.0
 10
1144.91099935586
 20
1915.677937300878
 30
0.0
 10
1143.238669233598
 20
1915.785267073885
 30
0.0
 10
1142.114361650574
 20
1915.795782999287
 30
0.0
1001
REVIT
1002
{
1070
     3
1000
790271
1002
}
  0
SPLINE
  5
2F3
330
2B3
100
AcDbEntity
  8
M-PIPE
100
AcDbSpline
210
0.0
220
0.0
230
1.0
 70
     8
 71
     3
 72
    29
 73
    25
 74
     0
 42
0.000000001
 43
0.0000000001
 40
0.0
 40
0.0
 40
0.0
 40
0.0
 40
0.0714285714285714
 40
0.1428571428571428
 40
0.2142857142857143
 40
0.25
 40
0.2857142857142857
 40
0.3035714285714286
 40
0.3214285714285714
 40
0.3571428571428571
 40
0.3928571428571428
 40
0.4285714285714286
 40
0.4642857142857144
 40
0.5
 40
0.5357142857142857
 40
0.5714285714285714
 40
0.6071428571428572
 40
0.6428571428571428
 40
0.6785714285714287
 40
0.7142857142857144
 40
0.75
 40
0.7857142857142857
 40
0.8571428571428571
 40
1.0
 40
1.0
 40
1.0
 40
1.0
 10
1142.114358719153
 20
1964.169329489079
 30
0.0
 10
1142.72997856974
 20
1964.176605075691
 30
0.0
 10
1143.955826036972
 20
1964.230126436241
 30
0.0
 10
1145.754490762413
 20
1964.417367225083
 30
0.0
 10
1147.20129878908
 20
1964.687413035935
 30
0.0
 10
1148.31716321421
 20
1964.95327367892
 30
0.0
 10
1148.995526690315
 20
1965.128263178876
 30
0.0
 10
1149.525104988242
 20
1965.274620070207
 30
0.0
 10
1150.045192314712
 20
1965.430516968807
 30
0.0
 10
1150.677885394339
 20
1965.636904826942
 30
0.0
 10
1151.408791209353
 20
1965.895677246053
 30
0.0
 10
1152.111968616765
 20
1966.151640107813
 30
0.0
 10
1152.783895663016
 20
1966.410717872156
 30
0.0
 10
1153.421710280988
 20
1966.679339000636
 30
0.0
 10
1154.026007569546
 20
1966.945822606918
 30
0.0
 10
1154.596736786669
 20
1967.199023759187
 30
0.0
 10
1155.131293667848
 20
1967.443763055323
 30
0.0
 10
1155.626693198157
 20
1967.685984220027
 30
0.0
 10
1156.082325115736
 20
1967.915260256437
 30
0.0
 10
1156.496837306229
 20
1968.122046384587
 30
0.0
 10
1156.868608556887
 20
1968.309639678441
 30
0.0
 10
1157.304152984073
 20
1968.542272293742
 30
0.0
 10
1157.901670930907
 20
1968.866031296347
 30
0.0
 10
1158.114358427951
 20
1968.974645892078
 30
0.0
 10
1158.114358427472
 20
1968.982557213777
 30
0.0
1001
REVIT
1002
{
1070
     3
1000
790271
1002
}
  0
SPLINE
  5
2F4
330
2B3
100
AcDbEntity
  8
M-PIPE
100
AcDbSpline
210
0.0
220
0.0
230
1.0
 70
     8
 71
     3
 72
    10
 73
     6
 74
     0
 42
0.000000001
 43
0.0000000001
 40
-1.0
 40
-1.0
 40
-1.0
 40
-1.0
 40
-0.5
 40
-0.25
 40
0.0
 40
0.0
 40
0.0
 40
0.0
 10
1130.44520645489
 20
1913.127962135644
 30
0.0
 10
1130.054278668301
 20
1912.958861364297
 30
0.0
 10
1129.455358151848
 20
1912.72382137387
 30
0.0
 10
1128.638392078893
 20
1912.443692408174
 30
0.0
 10
1128.204884502753
 20
1912.320321932291
 30
0.0
 10
1127.983448697421
 20
1912.261936582678
 30
0.0
1001
REVIT
1002
{
1070
     3
1000
790271
1002
}
  0
SPLINE
  5
2F5
330
2B3
100
AcDbEntity
  8
M-PIPE
100
AcDbSpline
210
0.0
220
0.0
230
1.0
 70
     8
 71
     3
 72
    11
 73
     7
 74
     0
 42
0.000000001
 43
0.0000000001
 40
-1.0
 40
-1.0
 40
-1.0
 40
-1.0
 40
-0.75
 40
-0.5
 40
-0.25
 40
0.0
 40
0.0
 40
0.0
 40
0.0
 10
1156.245275032027
 20
1912.261938295335
 30
0.0
 10
1156.023839219619
 20
1912.320323618111
 30
0.0
 10
1155.590292031572
 20
1912.443683145265
 30
0.0
 10
1154.977745637689
 20
1912.653828828122
 30
0.0
 10
1154.373570397912
 20
1912.880374536246
 30
0.0
 10
1153.978981073138
 20
1913.043413187955
 30
0.0
 10
1153.783517169597
 20
1913.127963549938
 30
0.0
1001
REVIT
1002
{
1070
     3
1000
790271
1002
}
  0
SPLINE
  5
2F6
330
2B3
100
AcDbEntity
  8
M-PIPE
100
AcDbSpline
210
0.0
220
0.0
230
1.0
 70
     8
 71
     3
 72
     9
 73
     5
 74
     0
 42
0.000000001
 43
0.0000000001
 40
-1.0
 40
-1.0
 40
-1.0
 40
-1.0
 40
-0.5
 40
0.0
 40
0.0
 40
0.0
 40
0.0
 10
1127.983448697421
 20
1912.261936582678
 30
0.0
 10
1127.302480779224
 20
1912.094761488465
 30
0.0
 10
1126.062477703272
 20
1911.762169759969
 30
0.0
 10
1125.066340145823
 20
1911.472322415408
 30
0.0
 10
1124.629237746022
 20
1911.349688876109
 30
0.0
1001
REVIT
1002
{
1070
     3
1000
790271
1002
}
  0
SPLINE
  5
2F7
330
2B3
100
AcDbEntity
  8
M-PIPE
100
AcDbSpline
210
0.0
220
0.0
230
1.0
 70
     8
 71
     3
 72
     9
 73
     5
 74
     0
 42
0.000000001
 43
0.0000000001
 40
-1.0
 40
-1.0
 40
-1.0
 40
-1.0
 40
-0.5
 40
0.0
 40
0.0
 40
0.0
 40
0.0
 10
1159.59948609399
 20
1911.349690995295
 30
0.0
 10
1159.162383679326
 20
1911.472324481618
 30
0.0
 10
1158.166246086748
 20
1911.762171705447
 30
0.0
 10
1156.926242970485
 20
1912.094763283656
 30
0.0
 10
1156.245275032027
 20
1912.261938295335
 30
0.0
1001
REVIT
1002
{
1070
     3
1000
790271
1002
}
  0
ELLIPSE
  5
2F8
330
2B3
100
AcDbEntity
  8
M-PIPE
100
AcDbEllipse
 10
1142.114361920006
 20
1911.349689935702
 30
0.0
 11
18.08005902480119
 21
0.0000010944938628
 31
0.0
210
0.0
220
0.0
230
1.0
 40
0.000001
 41
3.926992013763356
 42
6.283185307179586
1001
REVIT
1002
{
1070
     3
1000
790271
1002
}
  0
SPLINE
  5
2F9
330
2B3
100
AcDbEntity
  8
M-PIPE
100
AcDbSpline
210
0.0
220
0.0
230
1.0
 70
     8
 71
     3
 72
     9
 73
     5
 74
     0
 42
0.000000001
 43
0.0000000001
 40
0.0
 40
0.0
 40
0.0
 40
0.0
 40
0.5
 40
1.0
 40
1.0
 40
1.0
 40
1.0
 10
1124.629237746022
 20
1911.349688876109
 30
0.0
 10
1124.433230883799
 20
1911.228418836854
 30
0.0
 10
1124.135372861698
 20
1911.045959842841
 30
0.0
 10
1124.034302917386
 20
1910.983663018333
 30
0.0
 10
1124.034302917453
 20
1910.982555148537
 30
0.0
1001
REVIT
1002
{
1070
     3
1000
790271
1002
}
  0
SPLINE
  5
2FA
330
2B3
100
AcDbEntity
  8
M-PIPE
100
AcDbSpline
210
0.0
220
0.0
230
1.0
 70
     8
 71
     3
 72
     9
 73
     5
 74
     0
 42
0.000000001
 43
0.0000000001
 40
0.0
 40
0.0
 40
0.0
 40
0.0
 40
0.5
 40
1.0
 40
1.0
 40
1.0
 40
1.0
 10
1160.194420967055
 20
1910.982557339829
 30
0.0
 10
1160.194420966988
 20
1910.983665209625
 30
0.0
 10
1160.093351015126
 20
1911.045962021884
 30
0.0
 10
1159.79549297091
 20
1911.228420979796
 30
0.0
 10
1159.59948609399
 20
1911.349690995295
 30
0.0
1001
REVIT
1002
{
1070
     3
1000
790271
1002
}
  0
ELLIPSE
  5
2FB
330
2B3
100
AcDbEntity
  8
M-PIPE
100
AcDbEllipse
 10
1142.114361920006
 20
1911.349689935702
 30
0.0
 11
18.08005902480113
 21
0.0000010944938628
 31
0.0
210
0.0
220
0.0
230
1.0
 40
0.000001
 41
4.713441632581017
 42
7.068602863343951
1001
REVIT
1002
{
1070
     3
1000
790271
1002
}
  0
ELLIPSE
  5
2FC
330
2B3
100
AcDbEntity
  8
M-PIPE
100
AcDbEllipse
 10
1118.489360184879
 20
1939.982554812515
 30
0.0
 11
-0.0000020279549062
 21
33.49999999999977
 31
0.0
210
0.0
220
0.0
230
0.9999999999999998
 40
0.000001
 41
3.926990816987236
 42
7.068583470573758
1001
REVIT
1002
{
1070
     3
1000
790271
1002
}
  0
ELLIPSE
  5
2FD
330
2B3
100
AcDbEntity
  8
M-PIPE
100
AcDbEllipse
 10
1094.489360184879
 20
1939.982553358123
 30
0.0
 11
-0.000001177424565
 21
19.44999999999982
 31
0.0
210
0.0
220
0.0
230
1.0
 40
0.000001
 41
0.7853981633974499
 42
3.926899082284256
1001
REVIT
1002
{
1070
     3
1000
790271
1002
}
  0
ELLIPSE
  5
2FE
330
2B3
100
AcDbEntity
  8
M-PIPE
100
AcDbEllipse
 10
1165.739360184845
 20
1939.982557675851
 30
0.0
 11
-0.0000020279549062
 21
33.49999999999955
 31
0.0
210
0.0
220
0.0
230
0.9999999999999998
 40
0.000001
 41
0.7853449010774119
 42
3.926990816987236
1001
REVIT
1002
{
1070
     3
1000
790271
1002
}
  0
ELLIPSE
  5
2FF
330
2B3
100
AcDbEntity
  8
M-PIPE
100
AcDbEllipse
 10
1189.739360184845
 20
1939.982559130243
 30
0.0
 11
-0.000001177424565
 21
19.45000000000004
 31
0.0
210
0.0
220
0.0
230
1.0
 40
0.000001
 41
0.7853981633974499
 42
3.927082551684659
1001
REVIT
1002
{
1070
     3
1000
790271
1002
}
  0
LINE
  5
300
330
2B3
100
AcDbEntity
  8
P-SANR-FIXT
100
AcDbLine
 10
1123.114353943096
 20
1848.176458343167
 30
0.0
 11
1126.285061014257
 21
1848.176458343167
 31
0.0
  0
LINE
  5
301
330
2B3
100
AcDbEntity
  8
P-SANR-FIXT
100
AcDbLine
 10
1126.285061014257
 20
1848.176458343167
 30
0.0
 11
1138.943646871934
 21
1848.176458343167
 31
0.0
  0
LINE
  5
302
330
2B3
100
AcDbEntity
  8
P-SANR-FIXT
100
AcDbLine
 10
1138.943646871934
 20
1848.176458343167
 30
0.0
 11
1145.285061014257
 21
1848.176458343167
 31
0.0
  0
LINE
  5
303
330
2B3
100
AcDbEntity
  8
P-SANR-FIXT
100
AcDbLine
 10
1145.285061014257
 20
1848.176458343167
 30
0.0
 11
1157.943646871934
 21
1848.176458343167
 31
0.0
  0
LINE
  5
304
330
2B3
100
AcDbEntity
  8
P-SANR-FIXT
100
AcDbLine
 10
1157.943646871934
 20
1848.176458343167
 30
0.0
 11
1161.114353943095
 21
1848.176458343167
 31
0.0
  0
LINE
  5
305
330
2B3
100
AcDbEntity
  8
P-SANR-FIXT
100
AcDbLine
 10
1161.114353943095
 20
1833.176458343167
 30
0.0
 11
1157.943646871934
 21
1833.176458343167
 31
0.0
  0
LINE
  5
306
330
2B3
100
AcDbEntity
  8
P-SANR-FIXT
100
AcDbLine
 10
1157.943646871934
 20
1833.176458343167
 30
0.0
 11
1145.285061014257
 21
1833.176458343167
 31
0.0
  0
LINE
  5
307
330
2B3
100
AcDbEntity
  8
P-SANR-FIXT
100
AcDbLine
 10
1145.285061014257
 20
1833.176458343167
 30
0.0
 11
1138.943646871934
 21
1833.176458343167
 31
0.0
  0
LINE
  5
308
330
2B3
100
AcDbEntity
  8
P-SANR-FIXT
100
AcDbLine
 10
1138.943646871934
 20
1833.176458343167
 30
0.0
 11
1126.285061014257
 21
1833.176458343167
 31
0.0
  0
LINE
  5
309
330
2B3
100
AcDbEntity
  8
P-SANR-FIXT
100
AcDbLine
 10
1126.285061014257
 20
1833.176458343167
 30
0.0
 11
1123.114353943096
 21
1833.176458343167
 31
0.0
  0
LINE
  5
30A
330
2B3
100
AcDbEntity
  8
P-SANR-FIXT
100
AcDbLine
 10
1123.114353943096
 20
1833.176458343167
 30
0.0
 11
1123.114353943096
 21
1848.176458343167
 31
0.0
  0
LINE
  5
30B
330
2B3
100
AcDbEntity
  8
P-SANR-FIXT
100
AcDbLine
 10
1126.285061014257
 20
1833.176458343167
 30
0.0
 11
1126.285061014257
 21
1848.176458343167
 31
0.0
  0
LINE
  5
30C
330
2B3
100
AcDbEntity
  8
P-SANR-FIXT
100
AcDbLine
 10
1138.943646871934
 20
1833.176458343167
 30
0.0
 11
1138.943646871934
 21
1848.176458343167
 31
0.0
  0
LINE
  5
30D
330
2B3
100
AcDbEntity
  8
P-SANR-FIXT
100
AcDbLine
 10
1145.285061014257
 20
1833.176458343167
 30
0.0
 11
1145.285061014257
 21
1848.176458343167
 31
0.0
  0
LINE
  5
30E
330
2B3
100
AcDbEntity
  8
P-SANR-FIXT
100
AcDbLine
 10
1157.943646871934
 20
1833.176458343167
 30
0.0
 11
1157.943646871934
 21
1848.176458343167
 31
0.0
  0
LINE
  5
30F
330
2B3
100
AcDbEntity
  8
P-SANR-FIXT
100
AcDbLine
 10
1161.114353943095
 20
1833.176458343167
 30
0.0
 11
1161.114353943095
 21
1848.176458343167
 31
0.0
  0
LINE
  5
310
330
2B3
100
AcDbEntity
  8
P-SANR-FIXT
100
AcDbLine
 10
1123.114353943096
 20
2110.478652812036
 30
0.0
 11
1126.285061014257
 21
2110.478652812036
 31
0.0
  0
LINE
  5
311
330
2B3
100
AcDbEntity
  8
P-SANR-FIXT
100
AcDbLine
 10
1126.285061014257
 20
2110.478652812036
 30
0.0
 11
1138.943646871934
 21
2110.478652812036
 31
0.0
  0
LINE
  5
312
330
2B3
100
AcDbEntity
  8
P-SANR-FIXT
100
AcDbLine
 10
1138.943646871934
 20
2110.478652812036
 30
0.0
 11
1145.285061014257
 21
2110.478652812036
 31
0.0
  0
LINE
  5
313
330
2B3
100
AcDbEntity
  8
P-SANR-FIXT
100
AcDbLine
 10
1145.285061014257
 20
2110.478652812036
 30
0.0
 11
1157.943646871934
 21
2110.478652812036
 31
0.0
  0
LINE
  5
314
330
2B3
100
AcDbEntity
  8
P-SANR-FIXT
100
AcDbLine
 10
1157.943646871934
 20
2110.478652812036
 30
0.0
 11
1161.114353943095
 21
2110.478652812036
 31
0.0
  0
LINE
  5
315
330
2B3
100
AcDbEntity
  8
P-SANR-FIXT
100
AcDbLine
 10
1161.114353943095
 20
2094.648652812042
 30
0.0
 11
1157.943646871934
 21
2094.648652812042
 31
0.0
  0
LINE
  5
316
330
2B3
100
AcDbEntity
  8
P-SANR-FIXT
100
AcDbLine
 10
1157.943646871934
 20
2094.648652812042
 30
0.0
 11
1145.285061014257
 21
2094.648652812042
 31
0.0
  0
LINE
  5
317
330
2B3
100
AcDbEntity
  8
P-SANR-FIXT
100
AcDbLine
 10
1145.285061014257
 20
2094.648652812042
 30
0.0
 11
1138.943646871934
 21
2094.648652812042
 31
0.0
  0
LINE
  5
318
330
2B3
100
AcDbEntity
  8
P-SANR-FIXT
100
AcDbLine
 10
1138.943646871934
 20
2094.648652812042
 30
0.0
 11
1126.285061014257
 21
2094.648652812042
 31
0.0
  0
LINE
  5
319
330
2B3
100
AcDbEntity
  8
P-SANR-FIXT
100
AcDbLine
 10
1126.285061014257
 20
2094.648652812042
 30
0.0
 11
1123.114353943096
 21
2094.648652812042
 31
0.0
  0
LINE
  5
31A
330
2B3
100
AcDbEntity
  8
P-SANR-FIXT
100
AcDbLine
 10
1123.114353943096
 20
2094.648652812042
 30
0.0
 11
1123.114353943096
 21
2110.478652812036
 31
0.0
  0
LINE
  5
31B
330
2B3
100
AcDbEntity
  8
P-SANR-FIXT
100
AcDbLine
 10
1126.285061014257
 20
2094.648652812042
 30
0.0
 11
1126.285061014257
 21
2110.478652812036
 31
0.0
  0
LINE
  5
31C
330
2B3
100
AcDbEntity
  8
P-SANR-FIXT
100
AcDbLine
 10
1138.943646871934
 20
2094.648652812042
 30
0.0
 11
1138.943646871934
 21
2110.478652812036
 31
0.0
  0
LINE
  5
31D
330
2B3
100
AcDbEntity
  8
P-SANR-FIXT
100
AcDbLine
 10
1145.285061014257
 20
2094.648652812042
 30
0.0
 11
1145.285061014257
 21
2110.478652812036
 31
0.0
  0
LINE
  5
31E
330
2B3
100
AcDbEntity
  8
P-SANR-FIXT
100
AcDbLine
 10
1157.943646871934
 20
2094.648652812042
 30
0.0
 11
1157.943646871934
 21
2110.478652812036
 31
0.0
  0
LINE
  5
31F
330
2B3
100
AcDbEntity
  8
P-SANR-FIXT
100
AcDbLine
 10
1161.114353943095
 20
2094.648652812042
 30
0.0
 11
1161.114353943095
 21
2110.478652812036
 31
0.0
  0
LINE
  5
320
330
2B3
100
AcDbEntity
  8
P-SANR-FIXT
100
AcDbLine
 10
1121.114357770778
 20
1906.982556244182
 30
0.0
 11
1121.114357770778
 21
1894.982556244181
 31
0.0
  0
LINE
  5
321
330
2B3
100
AcDbEntity
  8
P-SANR-FIXT
100
AcDbLine
 10
1163.114355326988
 20
1894.982556244181
 30
0.0
 11
1163.114355326988
 21
1906.982556244182
 31
0.0
  0
LWPOLYLINE
  5
322
330
2B3
100
AcDbEntity
  8
P-SANR-FIXT
100
AcDbPolyline
 90
       41
 70
   128
 43
0.0
 10
1160.17134034247
 20
1894.140091416015
 10
1160.170700427799
 20
1894.108099948666
 10
1160.168781707513
 20
1894.07615966084
 10
1160.165587251154
 20
1894.044321650184
 10
1160.161122169171
 20
1894.012636850724
 10
1160.155393604743
 20
1893.981155951379
 10
1160.148410722352
 20
1893.949929314874
 10
1160.140184693119
 20
1893.919006897164
 10
1160.130728676937
 20
1893.888438167522
 10
1160.120057801413
 20
1893.858272029395
 10
1160.108189137673
 20
1893.828556742168
 10
1160.095141673046
 20
1893.799339843963
 10
1160.080936280694
 20
1893.770668075582
 10
1160.065595686213
 20
1893.74258730574
 10
1160.049144431281
 20
1893.715142457678
 10
1160.031608834398
 20
1893.688377437299
 10
1160.013016948778
 20
1893.662335062925
 10
1159.993398517471
 20
1893.637056996801
 10
1159.972784925783
 20
1893.612583678438
 10
1159.951209151063
 20
1893.588954259927
 10
1159.928705709948
 20
1893.566206543296
 10
1159.905310603144
 20
1893.544376920038
 10
1159.881061257829
 20
1893.523500312896
 10
1159.855996467785
 20
1893.503610119986
 10
1159.830156331328
 20
1893.484738161374
 10
1159.803582187165
 20
1893.466914628169
 10
1159.776316548257
 20
1893.45016803422
 10
1159.748403033809
 20
1893.434525170507
 10
1159.719886299492
 20
1893.420011062274
 10
1159.690811965996
 20
1893.406648928998
 10
1159.661226546052
 20
1893.394460147241
 10
1159.631177370022
 20
1893.383464216455
 10
1159.600712510176
 20
1893.373678727784
 10
1159.569880703792
 20
1893.365119335921
 10
1159.538731275183
 20
1893.357799734067
 10
1159.507314056791
 20
1893.351731632025
 10
1159.475679309461
 20
1893.346924737462
 10
1159.443877642042
 20
1893.343386740385
 10
1159.411959930418
 20
1893.341123300835
 10
1159.379977236117
 20
1893.340138039831
 10
1159.37134034247
 20
1893.340091416015
  0
LWPOLYLINE
  5
323
330
2B3
100
AcDbEntity
  8
P-SANR-FIXT
100
AcDbPolyline
 90
       41
 70
   128
 43
0.0
 10
1142.114353943097
 20
1893.340091416015
 10
1142.804449339276
 20
1893.340091416015
 10
1143.493440730033
 20
1893.340091416015
 10
1144.180225876121
 20
1893.340091416015
 10
1144.863706067812
 20
1893.340091416015
 10
1145.5427878826
 20
1893.340091416015
 10
1146.216384934445
 20
1893.340091416015
 10
1146.883419611758
 20
1893.340091416015
 10
1147.542824801347
 20
1893.340091416015
 10
1148.193545595575
 20
1893.340091416015
 10
1148.834540979984
 20
1893.340091416015
 10
1149.464785498698
 20
1893.340091416015
 10
1150.083270894931
 20
1893.340091416015
 10
1150.689007723985
 20
1893.340091416015
 10
1151.281026936153
 20
1893.340091416015
 10
1151.858381426984
 20
1893.340091416015
 10
1152.420147552456
 20
1893.340091416015
 10
1152.965426606605
 20
1893.340091416015
 10
1153.493346259264
 20
1893.340091416015
 10
1154.003061951607
 20
1893.340091416015
 10
1154.493758247258
 20
1893.340091416015
 10
1154.964650136821
 20
1893.340091416015
 10
1155.414984293725
 20
1893.340091416015
 10
1155.844040279384
 20
1893.340091416015
 10
1156.251131695749
 20
1893.340091416015
 10
1156.635607283394
 20
1893.340091416015
 10
1156.996851963397
 20
1893.340091416015
 10
1157.334287821332
 20
1893.340091416015
 10
1157.647375031807
 20
1893.340091416015
 10
1157.935612722075
 20
1893.340091416015
 10
1158.198539773318
 20
1893.340091416015
 10
1158.435735558343
 20
1893.340091416015
 10
1158.646820614492
 20
1893.340091416015
 10
1158.831457250705
 20
1893.340091416015
 10
1158.989350087752
 20
1893.340091416015
 10
1159.120246530774
 20
1893.340091416015
 10
1159.223937173386
 20
1893.340091416015
 10
1159.30025613268
 20
1893.340091416015
 10
1159.3490813146
 20
1893.340091416015
 10
1159.370334609272
 20
1893.340091416015
 10
1159.37134034247
 20
1893.340091416015
  0
LWPOLYLINE
  5
324
330
2B3
100
AcDbEntity
  8
P-SANR-FIXT
100
AcDbPolyline
 90
       24
 70
   128
 43
0.0
 10
1159.37134034247
 20
1893.340091416015
 10
1159.357536593998
 20
1893.340091416015
 10
1159.316147431634
 20
1893.340091416015
 10
1159.247239069208
 20
1893.340091416015
 10
1159.150921745401
 20
1893.340091416015
 10
1159.027349547384
 20
1893.340091416015
 10
1158.876720164313
 20
1893.340091416015
 10
1158.69927457107
 20
1893.340091416015
 10
1158.495296642749
 20
1893.340091416015
 10
1158.265112700524
 20
1893.340091416015
 10
1158.009090989598
 20
1893.340091416015
 10
1157.727641090095
 20
1893.340091416015
 10
1157.421213261812
 20
1893.340091416015
 10
1157.09029772391
 20
1893.340091416015
 10
1156.735423870655
 20
1893.340091416015
 10
1156.357159424512
 20
1893.340091416015
 10
1155.956109527902
 20
1893.340091416015
 10
1155.532915775106
 20
1893.340091416015
 10
1155.088255185853
 20
1893.340091416015
 10
1154.622839122229
 20
1893.340091416015
 10
1154.137412150654
 20
1893.340091416015
 10
1153.632750850728
 20
1893.340091416015
 10
1153.109662572878
 20
1893.340091416015
 10
1152.614353943097
 20
1893.340091416015
  0
LWPOLYLINE
  5
325
330
2B3
100
AcDbEntity
  8
P-SANR-FIXT
100
AcDbPolyline
 90
       41
 70
   128
 43
0.0
 10
1124.857367543724
 20
1893.340091416015
 10
1124.825376076374
 20
1893.340731330686
 10
1124.793435788548
 20
1893.342650050973
 10
1124.761597777892
 20
1893.345844507332
 10
1124.729912978432
 20
1893.350309589315
 10
1124.698432079088
 20
1893.356038153742
 10
1124.667205442582
 20
1893.363021036133
 10
1124.636283024872
 20
1893.371247065367
 10
1124.605714295231
 20
1893.380703081549
 10
1124.575548157103
 20
1893.391373957073
 10
1124.545832869877
 20
1893.403242620813
 10
1124.516615971671
 20
1893.416290085439
 10
1124.48794420329
 20
1893.430495477792
 10
1124.459863433449
 20
1893.445836072273
 10
1124.432418585387
 20
1893.462287327204
 10
1124.405653565008
 20
1893.479822924087
 10
1124.379611190633
 20
1893.498414809708
 10
1124.354333124509
 20
1893.518033241014
 10
1124.329859806147
 20
1893.538646832703
 10
1124.306230387635
 20
1893.560222607422
 10
1124.283482671004
 20
1893.582726048537
 10
1124.261653047747
 20
1893.606121155342
 10
1124.240776440605
 20
1893.630370500656
 10
1124.220886247695
 20
1893.655435290701
 10
1124.202014289083
 20
1893.681275427157
 10
1124.184190755877
 20
1893.707849571321
 10
1124.167444161929
 20
1893.735115210229
 10
1124.151801298216
 20
1893.763028724676
 10
1124.137287189982
 20
1893.791545458993
 10
1124.123925056706
 20
1893.82061979249
 10
1124.11173627495
 20
1893.850205212434
 10
1124.100740344164
 20
1893.880254388464
 10
1124.090954855492
 20
1893.91071924831
 10
1124.082395463629
 20
1893.941551054694
 10
1124.075075861775
 20
1893.972700483302
 10
1124.069007759733
 20
1894.004117701695
 10
1124.06420086517
 20
1894.035752449025
 10
1124.060662868093
 20
1894.067554116444
 10
1124.058399428543
 20
1894.099471828068
 10
1124.057414167539
 20
1894.131454522369
 10
1124.057367543723
 20
1894.140091416015
  0
LWPOLYLINE
  5
326
330
2B3
100
AcDbEntity
  8
P-SANR-FIXT
100
AcDbPolyline
 90
       25
 70
   128
 43
0.0
 10
1131.614353943097
 20
1893.340091416015
 10
1131.26328127959
 20
1893.340091416015
 10
1130.73536162693
 20
1893.340091416015
 10
1130.225645934587
 20
1893.340091416015
 10
1129.734949638936
 20
1893.340091416015
 10
1129.264057749373
 20
1893.340091416015
 10
1128.813723592469
 20
1893.340091416015
 10
1128.38466760681
 20
1893.340091416015
 10
1127.977576190446
 20
1893.340091416015
 10
1127.5931006028
 20
1893.340091416015
 10
1127.231855922797
 20
1893.340091416015
 10
1126.894420064862
 20
1893.340091416015
 10
1126.581332854387
 20
1893.340091416015
 10
1126.293095164119
 20
1893.340091416015
 10
1126.030168112876
 20
1893.340091416015
 10
1125.792972327851
 20
1893.340091416015
 10
1125.581887271702
 20
1893.340091416015
 10
1125.397250635488
 20
1893.340091416015
 10
1125.239357798442
 20
1893.340091416015
 10
1125.10846135542
 20
1893.340091416015
 10
1125.004770712808
 20
1893.340091416015
 10
1124.928451753515
 20
1893.340091416015
 10
1124.879626571594
 20
1893.340091416015
 10
1124.858373276923
 20
1893.340091416015
 10
1124.857367543724
 20
1893.340091416015
  0
LWPOLYLINE
  5
327
330
2B3
100
AcDbEntity
  8
P-SANR-FIXT
100
AcDbPolyline
 90
       41
 70
   128
 43
0.0
 10
1124.857367543724
 20
1893.340091416015
 10
1124.871171292196
 20
1893.340091416015
 10
1124.912560454561
 20
1893.340091416015
 10
1124.981468816986
 20
1893.340091416015
 10
1125.077786140794
 20
1893.340091416015
 10
1125.20135833881
 20
1893.340091416015
 10
1125.351987721881
 20
1893.340091416015
 10
1125.529433315124
 20
1893.340091416015
 10
1125.733411243445
 20
1893.340091416015
 10
1125.96359518567
 20
1893.340091416015
 10
1126.219616896596
 20
1893.340091416015
 10
1126.5010667961
 20
1893.340091416015
 10
1126.807494624382
 20
1893.340091416015
 10
1127.138410162284
 20
1893.340091416015
 10
1127.493284015539
 20
1893.340091416015
 10
1127.871548461682
 20
1893.340091416015
 10
1128.272598358293
 20
1893.340091416015
 10
1128.695792111088
 20
1893.340091416015
 10
1129.140452700341
 20
1893.340091416015
 10
1129.605868763965
 20
1893.340091416015
 10
1130.091295735541
 20
1893.340091416015
 10
1130.595957035466
 20
1893.340091416015
 10
1131.119045313317
 20
1893.340091416015
 10
1131.659723739435
 20
1893.340091416015
 10
1132.217127343676
 20
1893.340091416015
 10
1132.790364399181
 20
1893.340091416015
 10
1133.378517848944
 20
1893.340091416015
 10
1133.980646772912
 20
1893.340091416015
 10
1134.595787893254
 20
1893.340091416015
 10
1135.222957115401
 20
1893.340091416015
 10
1135.861151102386
 20
1893.340091416015
 10
1136.509348879971
 20
1893.340091416015
 10
1137.166513469985
 20
1893.340091416015
 10
1137.831593549274
 20
1893.340091416015
 10
1138.503525131586
 20
1893.340091416015
 10
1139.181233269728
 20
1893.340091416015
 10
1139.863633775247
 20
1893.340091416015
 10
1140.549634952908
 20
1893.340091416015
 10
1141.238139347164
 20
1893.340091416015
 10
1141.928045497857
 20
1893.340091416015
 10
1142.114353943097
 20
1893.340091416015
  0
LINE
  5
328
330
2B3
100
AcDbEntity
  8
P-SANR-FIXT
100
AcDbLine
 10
1160.17134034247
 20
1894.140091416015
 30
0.0
 11
1160.17134034247
 21
1894.982556244181
 31
0.0
  0
LINE
  5
329
330
2B3
100
AcDbEntity
  8
P-SANR-FIXT
100
AcDbLine
 10
1124.057367543723
 20
1894.982556244181
 30
0.0
 11
1124.057367543723
 21
1894.140091416015
 31
0.0
  0
LINE
  5
32A
330
2B3
100
AcDbEntity
  8
P-SANR-FIXT
100
AcDbLine
 10
1163.114355326986
 20
1894.98255624418
 30
0.0
 11
1162.636425496883
 21
1894.98255624418
 31
0.0
  0
LINE
  5
32B
330
2B3
100
AcDbEntity
  8
P-SANR-FIXT
100
AcDbLine
 10
1162.636425496883
 20
1894.98255624418
 30
0.0
 11
1156.233302014026
 21
1894.98255624418
 31
0.0
  0
LINE
  5
32C
330
2B3
100
AcDbEntity
  8
P-SANR-FIXT
100
AcDbLine
 10
1156.233302014026
 20
1894.98255624418
 30
0.0
 11
1148.517480178861
 21
1894.98255624418
 31
0.0
  0
LINE
  5
32D
330
2B3
100
AcDbEntity
  8
P-SANR-FIXT
100
AcDbLine
 10
1148.517480178861
 20
1894.98255624418
 30
0.0
 11
1135.711233108185
 21
1894.98255624418
 31
0.0
  0
LINE
  5
32E
330
2B3
100
AcDbEntity
  8
P-SANR-FIXT
100
AcDbLine
 10
1135.711233108185
 20
1894.98255624418
 30
0.0
 11
1127.99541123086
 21
1894.98255624418
 31
0.0
  0
LINE
  5
32F
330
2B3
100
AcDbEntity
  8
P-SANR-FIXT
100
AcDbLine
 10
1127.99541123086
 20
1894.98255624418
 30
0.0
 11
1121.592287643041
 21
1894.98255624418
 31
0.0
  0
LINE
  5
330
330
2B3
100
AcDbEntity
  8
P-SANR-FIXT
100
AcDbLine
 10
1121.592287643041
 20
1894.98255624418
 30
0.0
 11
1121.114357770777
 21
1894.98255624418
 31
0.0
  0
LINE
  5
331
330
2B3
100
AcDbEntity
  8
P-SANR-FIXT
100
AcDbLine
 10
1121.114357770777
 20
1906.982556244181
 30
0.0
 11
1121.592287643041
 21
1906.982556244181
 31
0.0
  0
LINE
  5
332
330
2B3
100
AcDbEntity
  8
P-SANR-FIXT
100
AcDbLine
 10
1121.592287643041
 20
1906.982556244181
 30
0.0
 11
1127.99541123086
 21
1906.982556244181
 31
0.0
  0
LINE
  5
333
330
2B3
100
AcDbEntity
  8
P-SANR-FIXT
100
AcDbLine
 10
1127.995411230859
 20
1906.982556244181
 30
0.0
 11
1135.711233108184
 21
1906.982556244181
 31
0.0
  0
LINE
  5
334
330
2B3
100
AcDbEntity
  8
P-SANR-FIXT
100
AcDbLine
 10
1135.711233108185
 20
1906.982556244181
 30
0.0
 11
1148.517480178861
 21
1906.982556244181
 31
0.0
  0
LINE
  5
335
330
2B3
100
AcDbEntity
  8
P-SANR-FIXT
100
AcDbLine
 10
1148.517480178861
 20
1906.982556244181
 30
0.0
 11
1156.233302014026
 21
1906.982556244181
 31
0.0
  0
LINE
  5
336
330
2B3
100
AcDbEntity
  8
P-SANR-FIXT
100
AcDbLine
 10
1156.233302014026
 20
1906.982556244181
 30
0.0
 11
1162.636425496883
 21
1906.982556244181
 31
0.0
  0
LINE
  5
337
330
2B3
100
AcDbEntity
  8
P-SANR-FIXT
100
AcDbLine
 10
1162.636425496883
 20
1906.982556244181
 30
0.0
 11
1163.114355326986
 21
1906.982556244181
 31
0.0
  0
LINE
  5
338
330
2B3
100
AcDbEntity
  8
P-SANR-FIXT
100
AcDbLine
 10
1121.592287643041
 20
1894.98255624418
 30
0.0
 11
1121.592287643041
 21
1906.982556244181
 31
0.0
  0
LINE
  5
339
330
2B3
100
AcDbEntity
  8
P-SANR-FIXT
100
AcDbLine
 10
1127.995411230859
 20
1894.98255624418
 30
0.0
 11
1127.995411230859
 21
1906.982556244181
 31
0.0
  0
LINE
  5
33A
330
2B3
100
AcDbEntity
  8
P-SANR-FIXT
100
AcDbLine
 10
1135.711233108185
 20
1894.98255624418
 30
0.0
 11
1135.711233108185
 21
1906.982556244181
 31
0.0
  0
LINE
  5
33B
330
2B3
100
AcDbEntity
  8
P-SANR-FIXT
100
AcDbLine
 10
1148.517480178861
 20
1894.98255624418
 30
0.0
 11
1148.517480178861
 21
1906.982556244181
 31
0.0
  0
LINE
  5
33C
330
2B3
100
AcDbEntity
  8
P-SANR-FIXT
100
AcDbLine
 10
1156.233302014026
 20
1894.98255624418
 30
0.0
 11
1156.233302014026
 21
1906.982556244181
 31
0.0
  0
LINE
  5
33D
330
2B3
100
AcDbEntity
  8
P-SANR-FIXT
100
AcDbLine
 10
1162.636425496883
 20
1894.98255624418
 30
0.0
 11
1162.636425496883
 21
1906.982556244181
 31
0.0
  0
LWPOLYLINE
  5
33E
330
2B3
100
AcDbEntity
  8
P-SANR-FIXT
100
AcDbPolyline
 90
       41
 70
   128
 43
0.0
 10
1159.37134034247
 20
2049.48255363835
 10
1159.40333180982
 20
2049.481913723679
 10
1159.435272097646
 20
2049.479995003392
 10
1159.467110108302
 20
2049.476800547033
 10
1159.498794907762
 20
2049.472335465051
 10
1159.530275807106
 20
2049.466606900624
 10
1159.561502443612
 20
2049.459624018232
 10
1159.592424861322
 20
2049.451397988999
 10
1159.622993590963
 20
2049.441941972816
 10
1159.653159729091
 20
2049.431271097293
 10
1159.682875016317
 20
2049.419402433553
 10
1159.712091914523
 20
2049.406354968926
 10
1159.740763682903
 20
2049.392149576574
 10
1159.768844452746
 20
2049.376808982092
 10
1159.796289300807
 20
2049.360357727161
 10
1159.823054321186
 20
2049.342822130278
 10
1159.84909669556
 20
2049.324230244658
 10
1159.874374761685
 20
2049.304611813351
 10
1159.898848080048
 20
2049.283998221663
 10
1159.922477498559
 20
2049.262422446943
 10
1159.94522521519
 20
2049.239919005827
 10
1159.967054838447
 20
2049.216523899023
 10
1159.98793144559
 20
2049.192274553709
 10
1160.007821638499
 20
2049.167209763665
 10
1160.026693597111
 20
2049.141369627208
 10
1160.044517130317
 20
2049.114795483045
 10
1160.061263724265
 20
2049.087529844137
 10
1160.076906587979
 20
2049.059616329689
 10
1160.091420696212
 20
2049.031099595371
 10
1160.104782829488
 20
2049.002025261875
 10
1160.116971611244
 20
2048.972439841932
 10
1160.12796754203
 20
2048.942390665901
 10
1160.137753030702
 20
2048.911925806056
 10
1160.146312422565
 20
2048.881093999673
 10
1160.153632024419
 20
2048.849944571063
 10
1160.159700126461
 20
2048.818527352671
 10
1160.164507021024
 20
2048.78689260534
 10
1160.168045018101
 20
2048.755090937922
 10
1160.170308457651
 20
2048.723173226298
 10
1160.171293718654
 20
2048.691190531997
 10
1160.17134034247
 20
2048.68255363835
  0
LWPOLYLINE
  5
33F
330
2B3
100
AcDbEntity
  8
P-SANR-FIXT
100
AcDbPolyline
 90
       25
 70
   128
 43
0.0
 10
1152.614353943097
 20
2049.48255363835
 10
1152.965426606605
 20
2049.48255363835
 10
1153.493346259264
 20
2049.48255363835
 10
1154.003061951607
 20
2049.48255363835
 10
1154.493758247258
 20
2049.48255363835
 10
1154.964650136822
 20
2049.48255363835
 10
1155.414984293725
 20
2049.48255363835
 10
1155.844040279384
 20
2049.48255363835
 10
1156.251131695749
 20
2049.48255363835
 10
1156.635607283394
 20
2049.48255363835
 10
1156.996851963397
 20
2049.48255363835
 10
1157.334287821332
 20
2049.48255363835
 10
1157.647375031807
 20
2049.48255363835
 10
1157.935612722075
 20
2049.48255363835
 10
1158.198539773318
 20
2049.48255363835
 10
1158.435735558343
 20
2049.48255363835
 10
1158.646820614492
 20
2049.48255363835
 10
1158.831457250705
 20
2049.48255363835
 10
1158.989350087752
 20
2049.48255363835
 10
1159.120246530774
 20
2049.48255363835
 10
1159.223937173386
 20
2049.48255363835
 10
1159.30025613268
 20
2049.48255363835
 10
1159.3490813146
 20
2049.48255363835
 10
1159.370334609272
 20
2049.48255363835
 10
1159.37134034247
 20
2049.48255363835
  0
LWPOLYLINE
  5
340
330
2B3
100
AcDbEntity
  8
P-SANR-FIXT
100
AcDbPolyline
 90
       41
 70
   128
 43
0.0
 10
1159.37134034247
 20
2049.48255363835
 10
1159.357536593998
 20
2049.48255363835
 10
1159.316147431634
 20
2049.48255363835
 10
1159.247239069208
 20
2049.48255363835
 10
1159.150921745401
 20
2049.48255363835
 10
1159.027349547384
 20
2049.48255363835
 10
1158.876720164313
 20
2049.48255363835
 10
1158.69927457107
 20
2049.48255363835
 10
1158.495296642749
 20
2049.48255363835
 10
1158.265112700524
 20
2049.48255363835
 10
1158.009090989598
 20
2049.48255363835
 10
1157.727641090095
 20
2049.48255363835
 10
1157.421213261812
 20
2049.48255363835
 10
1157.09029772391
 20
2049.48255363835
 10
1156.735423870655
 20
2049.48255363835
 10
1156.357159424512
 20
2049.48255363835
 10
1155.956109527902
 20
2049.48255363835
 10
1155.532915775106
 20
2049.48255363835
 10
1155.088255185853
 20
2049.48255363835
 10
1154.622839122229
 20
2049.48255363835
 10
1154.137412150654
 20
2049.48255363835
 10
1153.632750850728
 20
2049.48255363835
 10
1153.109662572878
 20
2049.48255363835
 10
1152.56898414676
 20
2049.48255363835
 10
1152.011580542518
 20
2049.48255363835
 10
1151.438343487014
 20
2049.48255363835
 10
1150.850190037251
 20
2049.48255363835
 10
1150.248061113283
 20
2049.48255363835
 10
1149.63291999294
 20
2049.48255363835
 10
1149.005750770794
 20
2049.48255363835
 10
1148.367556783809
 20
2049.48255363835
 10
1147.719359006224
 20
2049.48255363835
 10
1147.06219441621
 20
2049.48255363835
 10
1146.397114336921
 20
2049.48255363835
 10
1145.725182754609
 20
2049.48255363835
 10
1145.047474616467
 20
2049.48255363835
 10
1144.365074110947
 20
2049.48255363835
 10
1143.679072933287
 20
2049.48255363835
 10
1142.990568539031
 20
2049.48255363835
 10
1142.300662388338
 20
2049.48255363835
 10
1142.114353943097
 20
2049.48255363835
  0
LWPOLYLINE
  5
341
330
2B3
100
AcDbEntity
  8
P-SANR-FIXT
100
AcDbPolyline
 90
       41
 70
   128
 43
0.0
 10
1124.057367543723
 20
2048.68255363835
 10
1124.058007458395
 20
2048.7145451057
 10
1124.059926178682
 20
2048.746485393526
 10
1124.06312063504
 20
2048.778323404182
 10
1124.067585717023
 20
2048.810008203642
 10
1124.07331428145
 20
2048.841489102986
 10
1124.080297163842
 20
2048.872715739492
 10
1124.088523193075
 20
2048.903638157201
 10
1124.097979209258
 20
2048.934206886843
 10
1124.108650084781
 20
2048.96437302497
 10
1124.120518748521
 20
2048.994088312197
 10
1124.133566213147
 20
2049.023305210403
 10
1124.1477716055
 20
2049.051976978784
 10
1124.163112199981
 20
2049.080057748625
 10
1124.179563454913
 20
2049.107502596687
 10
1124.197099051796
 20
2049.134267617066
 10
1124.215690937416
 20
2049.16030999144
 10
1124.235309368723
 20
2049.185588057565
 10
1124.255922960411
 20
2049.210061375928
 10
1124.277498735131
 20
2049.233690794439
 10
1124.300002176246
 20
2049.25643851107
 10
1124.323397283051
 20
2049.278268134327
 10
1124.347646628365
 20
2049.299144741469
 10
1124.372711418409
 20
2049.319034934379
 10
1124.398551554866
 20
2049.337906892991
 10
1124.425125699029
 20
2049.355730426197
 10
1124.452391337937
 20
2049.372477020145
 10
1124.480304852385
 20
2049.388119883858
 10
1124.508821586702
 20
2049.402633992091
 10
1124.537895920199
 20
2049.415996125368
 10
1124.567481340142
 20
2049.428184907124
 10
1124.597530516173
 20
2049.43918083791
 10
1124.627995376018
 20
2049.448966326582
 10
1124.658827182402
 20
2049.457525718445
 10
1124.68997661101
 20
2049.464845320299
 10
1124.721393829403
 20
2049.470913422341
 10
1124.753028576733
 20
2049.475720316904
 10
1124.784830244152
 20
2049.479258313981
 10
1124.816747955777
 20
2049.481521753531
 10
1124.848730650077
 20
2049.482507014534
 10
1124.857367543724
 20
2049.48255363835
  0
LWPOLYLINE
  5
342
330
2B3
100
AcDbEntity
  8
P-SANR-FIXT
100
AcDbPolyline
 90
       41
 70
   128
 43
0.0
 10
1142.114353943097
 20
2049.48255363835
 10
1141.424258546918
 20
2049.48255363835
 10
1140.735267156161
 20
2049.48255363835
 10
1140.048482010074
 20
2049.48255363835
 10
1139.365001818383
 20
2049.48255363835
 10
1138.685920003594
 20
2049.48255363835
 10
1138.012322951749
 20
2049.48255363835
 10
1137.345288274436
 20
2049.48255363835
 10
1136.685883084847
 20
2049.48255363835
 10
1136.035162290619
 20
2049.48255363835
 10
1135.39416690621
 20
2049.48255363835
 10
1134.763922387497
 20
2049.48255363835
 10
1134.145436991264
 20
2049.48255363835
 10
1133.539700162209
 20
2049.48255363835
 10
1132.947680950042
 20
2049.48255363835
 10
1132.370326459211
 20
2049.48255363835
 10
1131.808560333739
 20
2049.48255363835
 10
1131.26328127959
 20
2049.48255363835
 10
1130.73536162693
 20
2049.48255363835
 10
1130.225645934588
 20
2049.48255363835
 10
1129.734949638937
 20
2049.48255363835
 10
1129.264057749373
 20
2049.48255363835
 10
1128.813723592469
 20
2049.48255363835
 10
1128.38466760681
 20
2049.48255363835
 10
1127.977576190445
 20
2049.48255363835
 10
1127.5931006028
 20
2049.48255363835
 10
1127.231855922796
 20
2049.48255363835
 10
1126.894420064862
 20
2049.48255363835
 10
1126.581332854387
 20
2049.48255363835
 10
1126.293095164119
 20
2049.48255363835
 10
1126.030168112876
 20
2049.48255363835
 10
1125.792972327851
 20
2049.48255363835
 10
1125.581887271702
 20
2049.48255363835
 10
1125.397250635489
 20
2049.48255363835
 10
1125.239357798442
 20
2049.48255363835
 10
1125.10846135542
 20
2049.48255363835
 10
1125.004770712808
 20
2049.48255363835
 10
1124.928451753515
 20
2049.48255363835
 10
1124.879626571594
 20
2049.48255363835
 10
1124.858373276923
 20
2049.48255363835
 10
1124.857367543724
 20
2049.48255363835
  0
LWPOLYLINE
  5
343
330
2B3
100
AcDbEntity
  8
P-SANR-FIXT
100
AcDbPolyline
 90
       24
 70
   128
 43
0.0
 10
1124.857367543724
 20
2049.48255363835
 10
1124.871171292196
 20
2049.48255363835
 10
1124.912560454561
 20
2049.48255363835
 10
1124.981468816986
 20
2049.48255363835
 10
1125.077786140794
 20
2049.48255363835
 10
1125.20135833881
 20
2049.48255363835
 10
1125.351987721881
 20
2049.48255363835
 10
1125.529433315124
 20
2049.48255363835
 10
1125.733411243445
 20
2049.48255363835
 10
1125.96359518567
 20
2049.48255363835
 10
1126.219616896596
 20
2049.48255363835
 10
1126.5010667961
 20
2049.48255363835
 10
1126.807494624382
 20
2049.48255363835
 10
1127.138410162284
 20
2049.48255363835
 10
1127.493284015539
 20
2049.48255363835
 10
1127.871548461682
 20
2049.48255363835
 10
1128.272598358293
 20
2049.48255363835
 10
1128.695792111089
 20
2049.48255363835
 10
1129.140452700341
 20
2049.48255363835
 10
1129.605868763965
 20
2049.48255363835
 10
1130.091295735541
 20
2049.48255363835
 10
1130.595957035466
 20
2049.48255363835
 10
1131.119045313317
 20
2049.48255363835
 10
1131.614353943097
 20
2049.48255363835
  0
LINE
  5
344
330
2B3
100
AcDbEntity
  8
P-SANR-FIXT
100
AcDbLine
 10
1160.17134034247
 20
2047.840088810184
 30
0.0
 11
1160.17134034247
 21
2048.68255363835
 31
0.0
  0
LINE
  5
345
330
2B3
100
AcDbEntity
  8
P-SANR-FIXT
100
AcDbLine
 10
1124.057367543723
 20
2048.68255363835
 30
0.0
 11
1124.057367543723
 21
2047.840088810184
 31
0.0
  0
LINE
  5
346
330
2B3
100
AcDbEntity
  8
P-SANR-FIXT
100
AcDbLine
 10
1122.614356548882
 20
2047.840088810184
 30
0.0
 11
1124.522162978202
 21
2047.840088810184
 31
0.0
  0
LINE
  5
347
330
2B3
100
AcDbEntity
  8
P-SANR-FIXT
100
AcDbLine
 10
1124.522162978203
 20
2047.840088810184
 30
0.0
 11
1140.206550119561
 21
2047.840088810184
 31
0.0
  0
LINE
  5
348
330
2B3
100
AcDbEntity
  8
P-SANR-FIXT
100
AcDbLine
 10
1140.206550119561
 20
2047.840088810184
 30
0.0
 11
1144.022162978203
 21
2047.840088810184
 31
0.0
  0
LINE
  5
349
330
2B3
100
AcDbEntity
  8
P-SANR-FIXT
100
AcDbLine
 10
1144.022162978203
 20
2047.840088810184
 30
0.0
 11
1159.706550119561
 21
2047.840088810184
 31
0.0
  0
LINE
  5
34A
330
2B3
100
AcDbEntity
  8
P-SANR-FIXT
100
AcDbLine
 10
1159.706550119561
 20
2047.840088810184
 30
0.0
 11
1161.614356548882
 21
2047.840088810184
 31
0.0
  0
LINE
  5
34B
330
2B3
100
AcDbEntity
  8
P-SANR-FIXT
100
AcDbLine
 10
1161.614356548882
 20
2033.482553638352
 30
0.0
 11
1159.706550119561
 21
2033.482553638352
 31
0.0
  0
LINE
  5
34C
330
2B3
100
AcDbEntity
  8
P-SANR-FIXT
100
AcDbLine
 10
1159.706550119561
 20
2033.482553638352
 30
0.0
 11
1144.022162978203
 21
2033.482553638352
 31
0.0
  0
LINE
  5
34D
330
2B3
100
AcDbEntity
  8
P-SANR-FIXT
100
AcDbLine
 10
1144.022162978203
 20
2033.482553638352
 30
0.0
 11
1140.206550119561
 21
2033.482553638352
 31
0.0
  0
LINE
  5
34E
330
2B3
100
AcDbEntity
  8
P-SANR-FIXT
100
AcDbLine
 10
1140.206550119561
 20
2033.482553638352
 30
0.0
 11
1124.522162978203
 21
2033.482553638352
 31
0.0
  0
LINE
  5
34F
330
2B3
100
AcDbEntity
  8
P-SANR-FIXT
100
AcDbLine
 10
1124.522162978203
 20
2033.482553638352
 30
0.0
 11
1122.614356548882
 21
2033.482553638352
 31
0.0
  0
LINE
  5
350
330
2B3
100
AcDbEntity
  8
P-SANR-FIXT
100
AcDbLine
 10
1122.614356548882
 20
2033.482553638352
 30
0.0
 11
1122.614356548882
 21
2047.840088810184
 31
0.0
  0
LINE
  5
351
330
2B3
100
AcDbEntity
  8
P-SANR-FIXT
100
AcDbLine
 10
1124.522162978203
 20
2033.482553638352
 30
0.0
 11
1124.522162978203
 21
2047.840088810184
 31
0.0
  0
LINE
  5
352
330
2B3
100
AcDbEntity
  8
P-SANR-FIXT
100
AcDbLine
 10
1140.206550119561
 20
2033.482553638352
 30
0.0
 11
1140.206550119561
 21
2047.840088810184
 31
0.0
  0
LINE
  5
353
330
2B3
100
AcDbEntity
  8
P-SANR-FIXT
100
AcDbLine
 10
1144.022162978203
 20
2033.482553638352
 30
0.0
 11
1144.022162978203
 21
2047.840088810184
 31
0.0
  0
LINE
  5
354
330
2B3
100
AcDbEntity
  8
P-SANR-FIXT
100
AcDbLine
 10
1159.706550119561
 20
2033.482553638352
 30
0.0
 11
1159.706550119561
 21
2047.840088810184
 31
0.0
  0
LINE
  5
355
330
2B3
100
AcDbEntity
  8
P-SANR-FIXT
100
AcDbLine
 10
1161.614356548882
 20
2033.482553638352
 30
0.0
 11
1161.614356548882
 21
2047.840088810184
 31
0.0
  0
LINE
  5
356
330
2B3
100
AcDbEntity
  8
P-SANR-FIXT
100
AcDbLine
 10
1154.114353943109
 20
2063.479599227056
 30
0.0
 11
1154.114353943109
 21
2063.785950652825
 31
0.0
  0
LINE
  5
357
330
2B3
100
AcDbEntity
  8
P-SANR-FIXT
100
AcDbLine
 10
1130.114353943086
 20
2063.785950652824
 30
0.0
 11
1130.114353943086
 21
2063.479599227056
 31
0.0
  0
LINE
  5
358
330
2B3
100
AcDbEntity
  8
P-SANR-FIXT
100
AcDbLine
 10
1128.714353943097
 20
2063.479599227056
 30
0.0
 11
1128.714353943097
 21
2052.95255885009
 31
0.0
  0
LINE
  5
359
330
2B3
100
AcDbEntity
  8
P-SANR-FIXT
100
AcDbLine
 10
1155.514353943098
 20
2052.95255885009
 30
0.0
 11
1155.514353943098
 21
2063.479599227056
 31
0.0
  0
LINE
  5
35A
330
2B3
100
AcDbEntity
  8
P-SANR-FIXT
100
AcDbLine
 10
1128.714353943096
 20
2063.479599227055
 30
0.0
 11
1128.740438794507
 21
2063.479599227055
 31
0.0
  0
LINE
  5
35B
330
2B3
100
AcDbEntity
  8
P-SANR-FIXT
100
AcDbLine
 10
1128.740438794507
 20
2063.479599227055
 30
0.0
 11
1130.420705368852
 21
2063.479599227055
 31
0.0
  0
LINE
  5
35C
330
2B3
100
AcDbEntity
  8
P-SANR-FIXT
100
AcDbLine
 10
1155.488269091685
 20
2063.479599227055
 30
0.0
 11
1155.514353943096
 21
2063.479599227055
 31
0.0
  0
LINE
  5
35D
330
2B3
100
AcDbEntity
  8
P-SANR-FIXT
100
AcDbLine
 10
1153.808002517339
 20
2063.479599227055
 30
0.0
 11
1155.488269091685
 21
2063.479599227055
 31
0.0
  0
LINE
  5
35E
330
2B3
100
AcDbEntity
  8
P-SANR-FIXT
100
AcDbLine
 10
1155.514353943096
 20
2052.95255885009
 30
0.0
 11
1155.488269091685
 21
2052.95255885009
 31
0.0
  0
LINE
  5
35F
330
2B3
100
AcDbEntity
  8
P-SANR-FIXT
100
AcDbLine
 10
1155.488269091685
 20
2052.95255885009
 30
0.0
 11
1152.614353943095
 21
2052.95255885009
 31
0.0
  0
LINE
  5
360
330
2B3
100
AcDbEntity
  8
P-SANR-FIXT
100
AcDbLine
 10
1131.614353943096
 20
2052.95255885009
 30
0.0
 11
1128.740438794507
 21
2052.95255885009
 31
0.0
  0
LINE
  5
361
330
2B3
100
AcDbEntity
  8
P-SANR-FIXT
100
AcDbLine
 10
1128.740438794507
 20
2052.95255885009
 30
0.0
 11
1128.714353943096
 21
2052.95255885009
 31
0.0
  0
LINE
  5
362
330
2B3
100
AcDbEntity
  8
P-SANR-FIXT
100
AcDbLine
 10
1128.740438794507
 20
2052.95255885009
 30
0.0
 11
1128.740438794507
 21
2063.479599227055
 31
0.0
  0
LINE
  5
363
330
2B3
100
AcDbEntity
  8
P-SANR-FIXT
100
AcDbLine
 10
1155.488269091685
 20
2052.95255885009
 30
0.0
 11
1155.488269091685
 21
2063.479599227055
 31
0.0
  0
LINE
  5
364
330
2B3
100
AcDbEntity
  8
P-SANR-FIXT
100
AcDbLine
 10
1153.609317835691
 20
1889.780960911988
 30
0.0
 11
1153.609317835691
 21
1891.682558850011
 31
0.0
  0
LINE
  5
365
330
2B3
100
AcDbEntity
  8
P-SANR-FIXT
100
AcDbLine
 10
1130.619390050504
 20
1891.682558850011
 30
0.0
 11
1130.619390050504
 21
1889.780960911988
 31
0.0
  0
LINE
  5
366
330
2B3
100
AcDbEntity
  8
P-SANR-FIXT
100
AcDbLine
 10
1156.7537753609
 20
1876.261539494185
 30
0.0
 11
1156.7537753609
 21
1889.780960911988
 31
0.0
  0
LINE
  5
367
330
2B3
100
AcDbEntity
  8
P-SANR-FIXT
100
AcDbLine
 10
1127.474932525294
 20
1889.780960911988
 30
0.0
 11
1127.474932525294
 21
1876.261539494185
 31
0.0
  0
LINE
  5
368
330
2B3
100
AcDbEntity
  8
P-SANR-FIXT
100
AcDbLine
 10
1157.534353943098
 20
1865.980960911972
 30
0.0
 11
1157.534353943098
 21
1876.261539494185
 31
0.0
  0
LINE
  5
369
330
2B3
100
AcDbEntity
  8
P-SANR-FIXT
100
AcDbLine
 10
1126.694353943097
 20
1876.261539494185
 30
0.0
 11
1126.694353943097
 21
1865.980960911972
 31
0.0
  0
LINE
  5
36A
330
2B3
100
AcDbEntity
  8
P-SANR-FIXT
100
AcDbLine
 10
1149.614353943098
 20
1827.480960912
 30
0.0
 11
1149.614353943098
 21
1833.176458343167
 31
0.0
  0
LINE
  5
36B
330
2B3
100
AcDbEntity
  8
P-SANR-FIXT
100
AcDbLine
 10
1134.614353943097
 20
1833.176458343167
 30
0.0
 11
1134.614353943097
 21
1827.480960912
 31
0.0
  0
LINE
  5
36C
330
2B3
100
AcDbEntity
  8
P-SANR-FIXT
100
AcDbLine
 10
1149.614353943096
 20
1827.480960912
 30
0.0
 11
1142.114353943096
 21
1827.480960912
 31
0.0
  0
LINE
  5
36D
330
2B3
100
AcDbEntity
  8
P-SANR-FIXT
100
AcDbLine
 10
1142.114353943096
 20
1827.480960912
 30
0.0
 11
1134.614353943095
 21
1827.480960912
 31
0.0
  0
LINE
  5
36E
330
2B3
100
AcDbEntity
  8
P-SANR-FIXT
100
AcDbLine
 10
1152.621084554226
 20
1889.780960911988
 30
0.0
 11
1156.753775360899
 21
1889.780960911988
 31
0.0
  0
LINE
  5
36F
330
2B3
100
AcDbEntity
  8
P-SANR-FIXT
100
AcDbLine
 10
1127.474932525293
 20
1889.780960911988
 30
0.0
 11
1131.607623331965
 21
1889.780960911988
 31
0.0
  0
LINE
  5
370
330
2B3
100
AcDbEntity
  8
P-SANR-FIXT
100
AcDbLine
 10
1154.514245332622
 20
1876.261539494185
 30
0.0
 11
1157.534353943096
 21
1876.261539494185
 31
0.0
  0
LINE
  5
371
330
2B3
100
AcDbEntity
  8
P-SANR-FIXT
100
AcDbLine
 10
1126.694353943096
 20
1876.261539494185
 30
0.0
 11
1129.714462553569
 21
1876.261539494185
 31
0.0
  0
LINE
  5
372
330
2B3
100
AcDbEntity
  8
P-SANR-FIXT
100
AcDbLine
 10
1156.981554842559
 20
1865.980960911972
 30
0.0
 11
1157.534353943096
 21
1865.980960911972
 31
0.0
  0
LINE
  5
373
330
2B3
100
AcDbEntity
  8
P-SANR-FIXT
100
AcDbLine
 10
1126.694353943096
 20
1865.980960911972
 30
0.0
 11
1127.247153043632
 21
1865.980960911972
 31
0.0
  0
LINE
  5
374
330
2B3
100
AcDbEntity
  8
P-SANR-FIXT
100
AcDbLine
 10
1158.356192511398
 20
1849.739627657916
 30
0.0
 11
1158.356192511398
 21
1856.961557959203
 31
0.0
  0
LINE
  5
375
330
2B3
100
AcDbEntity
  8
P-SANR-FIXT
100
AcDbLine
 10
1125.872515374797
 20
1856.961557959203
 30
0.0
 11
1125.872515374797
 21
1849.739627657916
 31
0.0
  0
LINE
  5
376
330
2B3
100
AcDbEntity
  8
P-SANR-FIXT
100
AcDbLine
 10
1158.356192511398
 20
1856.961557959203
 30
0.0
 11
1156.982466882586
 21
1859.340920543965
 31
0.0
  0
LINE
  5
377
330
2B3
100
AcDbEntity
  8
P-SANR-FIXT
100
AcDbLine
 10
1127.246241003609
 20
1859.340920543965
 30
0.0
 11
1125.872515374797
 21
1856.961557959203
 31
0.0
  0
LINE
  5
378
330
2B3
100
AcDbEntity
  8
P-SANR-FIXT
100
AcDbLine
 10
1156.982466882586
 20
1859.340920543965
 30
0.0
 11
1156.982466882586
 21
1869.340920543966
 31
0.0
  0
LINE
  5
379
330
2B3
100
AcDbEntity
  8
P-SANR-FIXT
100
AcDbLine
 10
1127.246241003609
 20
1869.340920543965
 30
0.0
 11
1127.246241003609
 21
1859.340920543965
 31
0.0
  0
LINE
  5
37A
330
2B3
100
AcDbEntity
  8
P-SANR-FIXT
100
AcDbLine
 10
1156.982466882586
 20
1869.340920543965
 30
0.0
 11
1154.482466882585
 21
1873.671047562888
 31
0.0
  0
LINE
  5
37B
330
2B3
100
AcDbEntity
  8
P-SANR-FIXT
100
AcDbLine
 10
1129.746241003609
 20
1873.671047562888
 30
0.0
 11
1127.246241003609
 21
1869.340920543965
 31
0.0
  0
LINE
  5
37C
330
2B3
100
AcDbEntity
  8
P-SANR-FIXT
100
AcDbLine
 10
1154.482466882585
 20
1873.671047562888
 30
0.0
 11
1154.482466882585
 21
1878.671047562888
 31
0.0
  0
LINE
  5
37D
330
2B3
100
AcDbEntity
  8
P-SANR-FIXT
100
AcDbLine
 10
1129.746241003609
 20
1878.671047562888
 30
0.0
 11
1129.746241003609
 21
1873.671047562888
 31
0.0
  0
LINE
  5
37E
330
2B3
100
AcDbEntity
  8
P-SANR-FIXT
100
AcDbLine
 10
1154.482466882585
 20
1878.671047562888
 30
0.0
 11
1152.614353943097
 21
1880.539160502376
 31
0.0
  0
LINE
  5
37F
330
2B3
100
AcDbEntity
  8
P-SANR-FIXT
100
AcDbLine
 10
1131.614353943097
 20
1880.539160502376
 30
0.0
 11
1129.746241003608
 21
1878.671047562888
 31
0.0
  0
LINE
  5
380
330
2B3
100
AcDbEntity
  8
P-SANR-FIXT
100
AcDbLine
 10
1152.614353943097
 20
1880.539160502376
 30
0.0
 11
1152.614353943097
 21
1893.340091416015
 31
0.0
  0
LINE
  5
381
330
2B3
100
AcDbEntity
  8
P-SANR-FIXT
100
AcDbLine
 10
1131.614353943097
 20
1893.340091416015
 30
0.0
 11
1131.614353943097
 21
1880.539160502376
 31
0.0
  0
LINE
  5
382
330
2B3
100
AcDbEntity
  8
P-SANR-FIXT
100
AcDbLine
 10
1156.945704580629
 20
1848.176458343167
 30
0.0
 11
1157.508873895378
 21
1848.739627657916
 31
0.0
  0
LINE
  5
383
330
2B3
100
AcDbEntity
  8
P-SANR-FIXT
100
AcDbLine
 10
1126.719833990816
 20
1848.739627657916
 30
0.0
 11
1127.283003305565
 21
1848.176458343167
 31
0.0
  0
LINE
  5
384
330
2B3
100
AcDbEntity
  8
P-SANR-FIXT
100
AcDbLine
 10
1157.508873895378
 20
1848.739627657916
 30
0.0
 11
1157.508873895378
 21
1849.739627657916
 31
0.0
  0
LINE
  5
385
330
2B3
100
AcDbEntity
  8
P-SANR-FIXT
100
AcDbLine
 10
1126.719833990816
 20
1849.739627657916
 30
0.0
 11
1126.719833990816
 21
1848.739627657916
 31
0.0
  0
LINE
  5
386
330
2B3
100
AcDbEntity
  8
P-SANR-FIXT
100
AcDbLine
 10
1158.356183063841
 20
1856.961557959203
 30
0.0
 11
1142.114353943096
 21
1856.961557959203
 31
0.0
  0
LINE
  5
387
330
2B3
100
AcDbEntity
  8
P-SANR-FIXT
100
AcDbLine
 10
1142.114353943096
 20
1856.961557959203
 30
0.0
 11
1125.87252482235
 21
1856.961557959203
 31
0.0
  0
LINE
  5
388
330
2B3
100
AcDbEntity
  8
P-SANR-FIXT
100
AcDbLine
 10
1156.982466882584
 20
1859.340920543965
 30
0.0
 11
1142.114353943096
 21
1859.340920543965
 31
0.0
  0
LINE
  5
389
330
2B3
100
AcDbEntity
  8
P-SANR-FIXT
100
AcDbLine
 10
1142.114353943096
 20
1859.340920543965
 30
0.0
 11
1127.246241003607
 21
1859.340920543965
 31
0.0
  0
LINE
  5
38A
330
2B3
100
AcDbEntity
  8
P-SANR-FIXT
100
AcDbLine
 10
1156.974382930606
 20
1869.340920543965
 30
0.0
 11
1142.114353943096
 21
1869.340920543965
 31
0.0
  0
LINE
  5
38B
330
2B3
100
AcDbEntity
  8
P-SANR-FIXT
100
AcDbLine
 10
1142.114353943096
 20
1869.340920543965
 30
0.0
 11
1127.254324955585
 21
1869.340920543965
 31
0.0
  0
LINE
  5
38C
330
2B3
100
AcDbEntity
  8
P-SANR-FIXT
100
AcDbLine
 10
1154.482466882584
 20
1873.671047562887
 30
0.0
 11
1142.114353943096
 21
1873.671047562887
 31
0.0
  0
LINE
  5
38D
330
2B3
100
AcDbEntity
  8
P-SANR-FIXT
100
AcDbLine
 10
1142.114353943096
 20
1873.671047562887
 30
0.0
 11
1129.746241003607
 21
1873.671047562887
 31
0.0
  0
LINE
  5
38E
330
2B3
100
AcDbEntity
  8
P-SANR-FIXT
100
AcDbLine
 10
1154.482466882584
 20
1878.671047562887
 30
0.0
 11
1142.114353943096
 21
1878.671047562887
 31
0.0
  0
LINE
  5
38F
330
2B3
100
AcDbEntity
  8
P-SANR-FIXT
100
AcDbLine
 10
1142.114353943096
 20
1878.671047562887
 30
0.0
 11
1129.746241003607
 21
1878.671047562887
 31
0.0
  0
LINE
  5
390
330
2B3
100
AcDbEntity
  8
P-SANR-FIXT
100
AcDbLine
 10
1152.614353943095
 20
1880.539160502376
 30
0.0
 11
1142.114353943096
 21
1880.539160502376
 31
0.0
  0
LINE
  5
391
330
2B3
100
AcDbEntity
  8
P-SANR-FIXT
100
AcDbLine
 10
1142.114353943096
 20
1880.539160502376
 30
0.0
 11
1131.614353943096
 21
1880.539160502376
 31
0.0
  0
LINE
  5
392
330
2B3
100
AcDbEntity
  8
P-SANR-FIXT
100
AcDbLine
 10
1157.508873895377
 20
1848.739627657916
 30
0.0
 11
1142.114353943096
 21
1848.739627657916
 31
0.0
  0
LINE
  5
393
330
2B3
100
AcDbEntity
  8
P-SANR-FIXT
100
AcDbLine
 10
1142.114353943096
 20
1848.739627657916
 30
0.0
 11
1126.719833990814
 21
1848.739627657916
 31
0.0
  0
LINE
  5
394
330
2B3
100
AcDbEntity
  8
P-SANR-FIXT
100
AcDbLine
 10
1142.114353943096
 20
1849.739627657915
 30
0.0
 11
1158.356192511396
 21
1849.739627657915
 31
0.0
  0
LINE
  5
395
330
2B3
100
AcDbEntity
  8
P-SANR-FIXT
100
AcDbLine
 10
1125.872515374795
 20
1849.739627657915
 30
0.0
 11
1142.114353943096
 21
1849.739627657915
 31
0.0
  0
LINE
  5
396
330
2B3
100
AcDbEntity
  8
P-SANR-FIXT
100
AcDbLine
 10
1158.356192511398
 20
2085.863553195985
 30
0.0
 11
1158.356192511398
 21
2093.085483497272
 31
0.0
  0
LINE
  5
397
330
2B3
100
AcDbEntity
  8
P-SANR-FIXT
100
AcDbLine
 10
1125.872515374797
 20
2093.085483497272
 30
0.0
 11
1125.872515374797
 21
2085.863553195985
 31
0.0
  0
LINE
  5
398
330
2B3
100
AcDbEntity
  8
P-SANR-FIXT
100
AcDbLine
 10
1156.982466882586
 20
2083.484190611224
 30
0.0
 11
1158.356192511398
 21
2085.863553195985
 31
0.0
  0
LINE
  5
399
330
2B3
100
AcDbEntity
  8
P-SANR-FIXT
100
AcDbLine
 10
1125.872515374797
 20
2085.863553195985
 30
0.0
 11
1127.246241003609
 21
2083.484190611224
 31
0.0
  0
LINE
  5
39A
330
2B3
100
AcDbEntity
  8
P-SANR-FIXT
100
AcDbLine
 10
1156.982466882586
 20
2073.484190611223
 30
0.0
 11
1156.982466882586
 21
2083.484190611223
 31
0.0
  0
LINE
  5
39B
330
2B3
100
AcDbEntity
  8
P-SANR-FIXT
100
AcDbLine
 10
1127.246241003609
 20
2083.484190611224
 30
0.0
 11
1127.246241003609
 21
2073.484190611223
 31
0.0
  0
LINE
  5
39C
330
2B3
100
AcDbEntity
  8
P-SANR-FIXT
100
AcDbLine
 10
1154.482466882585
 20
2069.154063592301
 30
0.0
 11
1156.982466882586
 21
2073.484190611223
 31
0.0
  0
LINE
  5
39D
330
2B3
100
AcDbEntity
  8
P-SANR-FIXT
100
AcDbLine
 10
1127.246241003609
 20
2073.484190611223
 30
0.0
 11
1129.746241003608
 21
2069.154063592301
 31
0.0
  0
LINE
  5
39E
330
2B3
100
AcDbEntity
  8
P-SANR-FIXT
100
AcDbLine
 10
1154.482466882585
 20
2064.154063592301
 30
0.0
 11
1154.482466882585
 21
2069.154063592301
 31
0.0
  0
LINE
  5
39F
330
2B3
100
AcDbEntity
  8
P-SANR-FIXT
100
AcDbLine
 10
1129.746241003609
 20
2069.154063592301
 30
0.0
 11
1129.746241003609
 21
2064.154063592301
 31
0.0
  0
LINE
  5
3A0
330
2B3
100
AcDbEntity
  8
P-SANR-FIXT
100
AcDbLine
 10
1152.614353943097
 20
2062.285950652813
 30
0.0
 11
1154.482466882586
 21
2064.154063592301
 31
0.0
  0
LINE
  5
3A1
330
2B3
100
AcDbEntity
  8
P-SANR-FIXT
100
AcDbLine
 10
1129.746241003608
 20
2064.154063592301
 30
0.0
 11
1131.614353943097
 21
2062.285950652813
 31
0.0
  0
LINE
  5
3A2
330
2B3
100
AcDbEntity
  8
P-SANR-FIXT
100
AcDbLine
 10
1152.614353943097
 20
2049.482554911008
 30
0.0
 11
1152.614353943097
 21
2062.285950652813
 31
0.0
  0
LINE
  5
3A3
330
2B3
100
AcDbEntity
  8
P-SANR-FIXT
100
AcDbLine
 10
1131.614353943097
 20
2062.285950652813
 30
0.0
 11
1131.614353943097
 21
2049.482554911008
 31
0.0
  0
LINE
  5
3A4
330
2B3
100
AcDbEntity
  8
P-SANR-FIXT
100
AcDbLine
 10
1157.508873895378
 20
2094.085483497273
 30
0.0
 11
1156.945704580629
 21
2094.648652812022
 31
0.0
  0
LINE
  5
3A5
330
2B3
100
AcDbEntity
  8
P-SANR-FIXT
100
AcDbLine
 10
1127.283003305564
 20
2094.648652812022
 30
0.0
 11
1126.719833990816
 21
2094.085483497273
 31
0.0
  0
LINE
  5
3A6
330
2B3
100
AcDbEntity
  8
P-SANR-FIXT
100
AcDbLine
 10
1157.508873895378
 20
2093.085483497272
 30
0.0
 11
1157.508873895378
 21
2094.085483497273
 31
0.0
  0
LINE
  5
3A7
330
2B3
100
AcDbEntity
  8
P-SANR-FIXT
100
AcDbLine
 10
1126.719833990816
 20
2094.085483497273
 30
0.0
 11
1126.719833990816
 21
2093.085483497272
 31
0.0
  0
LINE
  5
3A8
330
2B3
100
AcDbEntity
  8
P-SANR-FIXT
100
AcDbLine
 10
1158.356192511396
 20
2093.085483497272
 30
0.0
 11
1142.114353943096
 21
2093.085483497272
 31
0.0
  0
LINE
  5
3A9
330
2B3
100
AcDbEntity
  8
P-SANR-FIXT
100
AcDbLine
 10
1142.114353943096
 20
2093.085483497272
 30
0.0
 11
1125.872515374795
 21
2093.085483497272
 31
0.0
  0
LINE
  5
3AA
330
2B3
100
AcDbEntity
  8
P-SANR-FIXT
100
AcDbLine
 10
1142.114353943096
 20
2085.863553195984
 30
0.0
 11
1158.356183063841
 21
2085.863553195984
 31
0.0
  0
LINE
  5
3AB
330
2B3
100
AcDbEntity
  8
P-SANR-FIXT
100
AcDbLine
 10
1125.87252482235
 20
2085.863553195984
 30
0.0
 11
1142.114353943096
 21
2085.863553195984
 31
0.0
  0
LINE
  5
3AC
330
2B3
100
AcDbEntity
  8
P-SANR-FIXT
100
AcDbLine
 10
1142.114353943096
 20
2083.484190611222
 30
0.0
 11
1156.982466882584
 21
2083.484190611222
 31
0.0
  0
LINE
  5
3AD
330
2B3
100
AcDbEntity
  8
P-SANR-FIXT
100
AcDbLine
 10
1127.246241003607
 20
2083.484190611222
 30
0.0
 11
1142.114353943096
 21
2083.484190611222
 31
0.0
  0
LINE
  5
3AE
330
2B3
100
AcDbEntity
  8
P-SANR-FIXT
100
AcDbLine
 10
1142.114353943096
 20
2073.484190611222
 30
0.0
 11
1156.974382930606
 21
2073.484190611222
 31
0.0
  0
LINE
  5
3AF
330
2B3
100
AcDbEntity
  8
P-SANR-FIXT
100
AcDbLine
 10
1127.254324955585
 20
2073.484190611222
 30
0.0
 11
1142.114353943096
 21
2073.484190611222
 31
0.0
  0
LINE
  5
3B0
330
2B3
100
AcDbEntity
  8
P-SANR-FIXT
100
AcDbLine
 10
1142.114353943096
 20
2069.1540635923
 30
0.0
 11
1154.482466882584
 21
2069.1540635923
 31
0.0
  0
LINE
  5
3B1
330
2B3
100
AcDbEntity
  8
P-SANR-FIXT
100
AcDbLine
 10
1129.746241003607
 20
2069.1540635923
 30
0.0
 11
1142.114353943096
 21
2069.1540635923
 31
0.0
  0
LINE
  5
3B2
330
2B3
100
AcDbEntity
  8
P-SANR-FIXT
100
AcDbLine
 10
1142.114353943096
 20
2064.1540635923
 30
0.0
 11
1154.482466882584
 21
2064.1540635923
 31
0.0
  0
LINE
  5
3B3
330
2B3
100
AcDbEntity
  8
P-SANR-FIXT
100
AcDbLine
 10
1129.746241003607
 20
2064.1540635923
 30
0.0
 11
1142.114353943096
 21
2064.1540635923
 31
0.0
  0
LINE
  5
3B4
330
2B3
100
AcDbEntity
  8
P-SANR-FIXT
100
AcDbLine
 10
1142.114353943096
 20
2062.285950652811
 30
0.0
 11
1152.614353943095
 21
2062.285950652811
 31
0.0
  0
LINE
  5
3B5
330
2B3
100
AcDbEntity
  8
P-SANR-FIXT
100
AcDbLine
 10
1131.614353943096
 20
2062.285950652811
 30
0.0
 11
1142.114353943096
 21
2062.285950652811
 31
0.0
  0
LINE
  5
3B6
330
2B3
100
AcDbEntity
  8
P-SANR-FIXT
100
AcDbLine
 10
1142.114353943096
 20
2094.085483497272
 30
0.0
 11
1157.508873895377
 21
2094.085483497272
 31
0.0
  0
LINE
  5
3B7
330
2B3
100
AcDbEntity
  8
P-SANR-FIXT
100
AcDbLine
 10
1126.719833990814
 20
2094.085483497272
 30
0.0
 11
1142.114353943096
 21
2094.085483497272
 31
0.0
  0
LINE
  5
3B8
330
2B3
100
AcDbEntity
  8
P-SANR-FIXT
100
AcDbLine
 10
1176.614353943097
 20
2028.364153004243
 30
0.0
 11
1179.538758651868
 21
2030.052558850071
 31
0.0
  0
LINE
  5
3B9
330
2B3
100
AcDbEntity
  8
P-SANR-FIXT
100
AcDbLine
 10
1104.689949234327
 20
2030.052558850071
 30
0.0
 11
1107.614353943098
 21
2028.364153004243
 31
0.0
  0
LINE
  5
3BA
330
2B3
100
AcDbEntity
  8
P-SANR-FIXT
100
AcDbLine
 10
1176.614353943097
 20
1973.482558334873
 30
0.0
 11
1176.614353943097
 21
2028.364153004243
 31
0.0
  0
LINE
  5
3BB
330
2B3
100
AcDbEntity
  8
P-SANR-FIXT
100
AcDbLine
 10
1107.614353943098
 20
2028.364153004243
 30
0.0
 11
1107.614353943098
 21
1973.482554153494
 31
0.0
  0
LINE
  5
3BC
330
2B3
100
AcDbEntity
  8
P-SANR-FIXT
100
AcDbLine
 10
1164.315414978117
 20
1907.667296437151
 30
0.0
 11
1165.739361993268
 21
1910.140467568729
 31
0.0
  0
LINE
  5
3BD
330
2B3
100
AcDbEntity
  8
P-SANR-FIXT
100
AcDbLine
 10
1118.489361993304
 20
1910.140439604916
 30
0.0
 11
1119.913292908078
 21
1907.667296437151
 31
0.0
  0
LWPOLYLINE
  5
3BE
330
2B3
100
AcDbEntity
  8
P-SANR-FIXT
100
AcDbPolyline
 90
        4
 70
   128
 43
0.0
 10
1164.315414978118
 20
1907.667296437151
 10
1163.853173768461
 20
1906.825981876093
 10
1163.424945911608
 20
1905.96685555874
 10
1163.114355326989
 20
1905.275822547953
  0
LWPOLYLINE
  5
3BF
330
2B3
100
AcDbEntity
  8
P-SANR-FIXT
100
AcDbPolyline
 90
        5
 70
   128
 43
0.0
 10
1121.114357770779
 20
1905.27434427871
 10
1120.828393860377
 20
1905.914696921929
 10
1120.402232089801
 20
1906.77484997334
 10
1119.942014255361
 20
1907.617273068594
 10
1119.913292908077
 20
1907.667296437151
  0
LINE
  5
3C0
330
2B3
100
AcDbEntity
  8
P-SANR-FIXT
100
AcDbLine
 10
1161.114353943098
 20
1892.182558850011
 30
0.0
 11
1161.114353943098
 21
1894.982556244181
 31
0.0
  0
LINE
  5
3C1
330
2B3
100
AcDbEntity
  8
P-SANR-FIXT
100
AcDbLine
 10
1123.114353943098
 20
1894.982556244181
 30
0.0
 11
1123.114353943098
 21
1892.182558850011
 31
0.0
  0
LINE
  5
3C2
330
2B3
100
AcDbEntity
  8
P-SANR-FIXT
100
AcDbLine
 10
1160.614353943097
 20
1891.682558850011
 30
0.0
 11
1161.114353943098
 21
1892.182558850011
 31
0.0
  0
LINE
  5
3C3
330
2B3
100
AcDbEntity
  8
P-SANR-FIXT
100
AcDbLine
 10
1123.114353943098
 20
1892.182558850011
 30
0.0
 11
1123.614353943098
 21
1891.682558850011
 31
0.0
  0
LINE
  5
3C4
330
2B3
100
AcDbEntity
  8
P-SANR-FIXT
100
AcDbLine
 10
1156.114353943097
 20
2050.452558850071
 30
0.0
 11
1156.114353943097
 21
2051.452558850071
 31
0.0
  0
LINE
  5
3C5
330
2B3
100
AcDbEntity
  8
P-SANR-FIXT
100
AcDbLine
 10
1128.114353943098
 20
2051.452558850071
 30
0.0
 11
1128.114353943098
 21
2050.452558850071
 31
0.0
  0
LINE
  5
3C6
330
2B3
100
AcDbEntity
  8
P-SANR-FIXT
100
AcDbLine
 10
1184.114353943098
 20
2030.052558850071
 30
0.0
 11
1184.114353943098
 21
2050.452558850071
 31
0.0
  0
LINE
  5
3C7
330
2B3
100
AcDbEntity
  8
P-SANR-FIXT
100
AcDbLine
 10
1100.114353943097
 20
2050.452558850071
 30
0.0
 11
1100.114353943097
 21
2030.052558850071
 31
0.0
  0
LINE
  5
3C8
330
2B3
100
AcDbEntity
  8
P-SANR-FIXT
100
AcDbLine
 10
1160.631987664804
 20
2028.364153004242
 30
0.0
 11
1176.614353943096
 21
2028.364153004242
 31
0.0
  0
LINE
  5
3C9
330
2B3
100
AcDbEntity
  8
P-SANR-FIXT
100
AcDbLine
 10
1107.614353943096
 20
2028.364153004242
 30
0.0
 11
1123.596721994435
 21
2028.364153004242
 31
0.0
  0
LINE
  5
3CA
330
2B3
100
AcDbEntity
  8
P-SANR-FIXT
100
AcDbLine
 10
1152.622345823888
 20
1892.182558850011
 30
0.0
 11
1161.114353943096
 21
1892.182558850011
 31
0.0
  0
LINE
  5
3CB
330
2B3
100
AcDbEntity
  8
P-SANR-FIXT
100
AcDbLine
 10
1123.114353943096
 20
1892.182558850011
 30
0.0
 11
1131.606362062303
 21
1892.182558850011
 31
0.0
  0
LINE
  5
3CC
330
2B3
100
AcDbEntity
  8
P-SANR-FIXT
100
AcDbLine
 10
1160.614353943096
 20
1891.682558850011
 30
0.0
 11
1152.617246004668
 21
1891.682558850011
 31
0.0
  0
LINE
  5
3CD
330
2B3
100
AcDbEntity
  8
P-SANR-FIXT
100
AcDbLine
 10
1131.611461881523
 20
1891.682558850011
 30
0.0
 11
1123.614353943096
 21
1891.682558850011
 31
0.0
  0
LINE
  5
3CE
330
2B3
100
AcDbEntity
  8
P-SANR-FIXT
100
AcDbLine
 10
1184.114353943096
 20
2030.052558850071
 30
0.0
 11
1160.627263715777
 21
2030.052558850071
 31
0.0
  0
LINE
  5
3CF
330
2B3
100
AcDbEntity
  8
P-SANR-FIXT
100
AcDbLine
 10
1123.601445756756
 20
2030.052558850071
 30
0.0
 11
1100.114353943096
 21
2030.052558850071
 31
0.0
  0
LINE
  5
3D0
330
2B3
100
AcDbEntity
  8
P-SANR-FIXT
100
AcDbLine
 10
1152.62576236999
 20
2051.452558850071
 30
0.0
 11
1156.114353943095
 21
2051.452558850071
 31
0.0
  0
LINE
  5
3D1
330
2B3
100
AcDbEntity
  8
P-SANR-FIXT
100
AcDbLine
 10
1128.114353943096
 20
2051.452558850071
 30
0.0
 11
1131.602945516201
 21
2051.452558850071
 31
0.0
  0
LINE
  5
3D2
330
2B3
100
AcDbEntity
  8
P-SANR-FIXT
100
AcDbLine
 10
1152.617733216374
 20
2050.452558850071
 30
0.0
 11
1184.114353943096
 21
2050.452558850071
 31
0.0
  0
LINE
  5
3D3
330
2B3
100
AcDbEntity
  8
P-SANR-FIXT
100
AcDbLine
 10
1100.114353943096
 20
2050.452558850071
 30
0.0
 11
1131.610974669817
 21
2050.452558850071
 31
0.0
  0
ARC
  5
3D4
330
2B3
100
AcDbEntity
  8
P-SANR-FIXT
100
AcDbCircle
 10
1142.114353943096
 20
1999.982558850011
 30
0.0
 40
33.50000000000046
100
AcDbArc
 50
298.5513974743187
 51
56.45002966429125
  0
ARC
  5
3D5
330
2B3
100
AcDbEntity
  8
P-SANR-FIXT
100
AcDbCircle
 10
1142.114353943096
 20
1999.982558850011
 30
0.0
 40
33.50000000000026
100
AcDbArc
 50
123.5499666224899
 51
241.4486194479084
  0
ENDBLK
  5
3D7
330
2B3
100
AcDbEntity
  8
0
100
AcDbBlockEnd
  0
ENDSEC
  0
SECTION
  2
ENTITIES
  0
INSERT
  5
20E
330
71
100
AcDbEntity
  8
P-SANR-FIXT
100
AcDbBlockReference
  2
Automatic flow rate regulator valve_Caleffi_121 DN15 - DN25-941550-Est - Idraulica
 10
0.0
 20
0.0
 30
0.0
1001
REVIT
1002
{
1070
     1
1000
863131
1002
}
1002
{
1070
     5
1000
941550
1002
}
1002
{
1070
     2
1000
-2001160
1002
}
  0
INSERT
  5
2B2
330
71
100
AcDbEntity
  8
P-SANR-FIXT
100
AcDbBlockReference
  2
Automatic flow rate regulator valve_Caleffi_121 DN15 - DN25-V1-Est - Idraulica
 10
0.0
 20
0.0
 30
0.0
1001
REVIT
1002
{
1070
     1
1000
863152
1002
}
1002
{
1070
     5
1000
941550
1002
}
1002
{
1070
     2
1000
-2001160
1002
}
  0
INSERT
  5
3D8
330
71
100
AcDbEntity
  8
P-SANR-FIXT
100
AcDbBlockReference
  2
Automatic flow rate regulator valve_Caleffi_121 DN15 - DN25-V2-Est - Idraulica
 10
0.0
 20
0.0
 30
0.0
1001
REVIT
1002
{
1070
     1
1000
863172
1002
}
1002
{
1070
     5
1000
941550
1002
}
1002
{
1070
     2
1000
-2001160
1002
}
  0
ENDSEC
  0
SECTION
  2
OBJECTS
  0
DICTIONARY
  5
C
330
0
100
AcDbDictionary
281
     1
  3
ACAD_CIP_PREVIOUS_PRODUCT_INFO
350
7A
  3
ACAD_COLOR
350
63
  3
ACAD_DETAILVIEWSTYLE
350
6B
  3
ACAD_GROUP
350
D
  3
ACAD_IMAGE_VARS
350
7B
  3
ACAD_LAYOUT
350
62
  3
ACAD_MATERIAL
350
10
  3
ACAD_MLEADERSTYLE
350
66
  3
ACAD_MLINESTYLE
350
5F
  3
ACAD_PLOTSETTINGS
350
61
  3
ACAD_PLOTSTYLENAME
350
E
  3
ACAD_SCALELIST
350
42
  3
ACAD_SECTIONVIEWSTYLE
350
68
  3
ACAD_TABLESTYLE
350
64
  3
ACAD_VISUALSTYLE
350
29
  3
ACDB_RECOMPOSE_DATA
350
3E3
  3
AcDbVariableDictionary
350
7C
  3
REVIT_DICTIONARY
350
3DA
  0
DICTIONARY
  5
3DF
330
71
100
AcDbDictionary
280
     1
281
     1
  3
ACAD_SORTENTS
360
3E0
  0
XRECORD
  5
7A
102
{ACAD_REACTORS
330
C
102
}
330
C
100
AcDbXrecord
280
     1
300
RVT
300
2013
300
RVT2013
  0
DICTIONARY
  5
63
102
{ACAD_REACTORS
330
C
102
}
330
C
100
AcDbDictionary
281
     1
  0
DICTIONARY
  5
6B
102
{ACAD_REACTORS
330
C
102
}
330
C
100
AcDbDictionary
281
     1
  3
Imperial24
350
6C
  0
DICTIONARY
  5
D
102
{ACAD_REACTORS
330
C
102
}
330
C
100
AcDbDictionary
281
     1
  0
RASTERVARIABLES
  5
7B
102
{ACAD_REACTORS
330
C
102
}
330
C
100
AcDbRasterVariables
 90
        0
 70
     0
 71
     1
 72
     1
  0
DICTIONARY
  5
62
102
{ACAD_REACTORS
330
C
102
}
330
C
100
AcDbDictionary
281
     1
  3
Layout1
350
70
  3
Layout2
350
78
  3
Model
350
74
  0
DICTIONARY
  5
10
102
{ACAD_REACTORS
330
C
102
}
330
C
100
AcDbDictionary
281
     1
  3
ByBlock
350
19
  3
ByLayer
350
11
  3
Global
350
21
  0
DICTIONARY
  5
66
102
{ACAD_REACTORS
330
C
102
}
330
C
100
AcDbDictionary
281
     1
  3
Standard
350
67
  0
DICTIONARY
  5
5F
102
{ACAD_REACTORS
330
C
102
}
330
C
100
AcDbDictionary
281
     1
  3
Standard
350
60
  0
DICTIONARY
  5
61
102
{ACAD_REACTORS
330
C
102
}
330
C
100
AcDbDictionary
281
     1
  0
ACDBDICTIONARYWDFLT
  5
E
102
{ACAD_REACTORS
330
C
102
}
330
C
100
AcDbDictionary
281
     1
  3
Normal
350
F
100
AcDbDictionaryWithDefault
340
F
  0
DICTIONARY
  5
42
102
{ACAD_REACTORS
330
C
102
}
330
C
100
AcDbDictionary
281
     1
  3
A0
350
43
  3
A1
350
44
  3
A2
350
45
  3
A3
350
46
  3
A4
350
47
  3
A5
350
48
  3
A6
350
49
  3
A7
350
4A
  3
A8
350
4B
  3
A9
350
4C
  3
B0
350
4D
  3
B1
350
4E
  3
B2
350
4F
  3
B3
350
50
  3
B4
350
51
  3
B5
350
52
  3
B6
350
53
  0
DICTIONARY
  5
68
102
{ACAD_REACTORS
330
C
102
}
330
C
100
AcDbDictionary
281
     1
  3
Imperial24
350
6A
  0
DICTIONARY
  5
64
102
{ACAD_REACTORS
330
C
102
}
330
C
100
AcDbDictionary
281
     1
  3
Standard
350
65
  0
DICTIONARY
  5
29
102
{ACAD_REACTORS
330
C
102
}
330
C
100
AcDbDictionary
281
     1
  3
2dWireframe
350
2F
  3
Basic
350
2E
  3
Brighten
350
35
  3
ColorChange
350
39
  3
Conceptual
350
32
  3
Dim
350
34
  3
EdgeColorOff
350
41
  3
Facepattern
350
38
  3
Flat
350
2A
  3
FlatWithEdges
350
2B
  3
Gouraud
350
2C
  3
GouraudWithEdges
350
2D
  3
Hidden
350
31
  3
JitterOff
350
3F
  3
Linepattern
350
37
  3
OverhangOff
350
40
  3
Realistic
350
33
  3
Shaded
350
3E
  3
Shaded with edges
350
3D
  3
Shades of Gray
350
3A
  3
Sketchy
350
3B
  3
Thicken
350
36
  3
Wireframe
350
30
  3
X-Ray
350
3C
  0
XRECORD
  5
3E3
102
{ACAD_REACTORS
330
C
102
}
330
C
100
AcDbXrecord
280
     1
 90
        1
330
65
  0
DICTIONARY
  5
7C
102
{ACAD_REACTORS
330
C
102
}
330
C
100
AcDbDictionary
281
     1
  3
CANNOSCALE
350
81
  3
CMLEADERSTYLE
350
7E
  3
CTABLESTYLE
350
7D
  3
CVIEWDETAILSTYLE
350
7F
  3
CVIEWSECTIONSTYLE
350
80
  0
DICTIONARY
  5
3DA
102
{ACAD_REACTORS
330
C
102
}
330
C
100
AcDbDictionary
281
     1
  3
DRAWING_TOOL
350
3DE
  3
REVIT_CATEGORY_MAPPING
350
3DC
  3
REVIT_SUB_CATEGORY_MAPPING
350
3DD
  3
REVIT_TYPE_MAPPING
350
3DB
  0
SORTENTSTABLE
  5
3E0
102
{ACAD_REACTORS
330
3DF
102
}
330
3DF
100
AcDbSortentsTable
330
71
  0
ACDBDETAILVIEWSTYLE
  5
6C
102
{ACAD_REACTORS
330
6B
102
}
330
6B
100
AcDbModelDocViewStyle
 70
     0
  3
Imperial24
290
     1
100
AcDbDetailViewStyle
 70
     0
 71
     0
 90
        3
 71
     1
340
55
 62
   256
 40
0.24
340
0
 62
   256
 40
0.24
300

 40
0.36
280
     3
 71
     2
340
5D
 90
       25
 62
   256
 71
     3
340
55
 62
   256
 40
0.24
 90
        1
 40
0.75
 90
        1
300
%<\AcVar ViewType \f "%tc1">% %<\AcVar ViewDetailId>%\PSCALA %<\AcVar ViewScale \f "%sn">%
 71
     4
340
5D
 90
       25
 62
   256
340
5D
 90
       25
 62
   256
280
     0
  0
LAYOUT
  5
70
102
{ACAD_REACTORS
330
62
102
}
330
62
100
AcDbPlotSettings
  1

  2

  4

  6

 40
0.0
 41
0.0
 42
0.0
 43
0.0
 44
0.0
 45
0.0
 46
0.0
 47
0.0
 48
0.0
 49
0.0
140
0.0
141
0.0
142
1.0
143
1.0
 70
   688
 72
     0
 73
     0
 74
     5
  7

 75
    16
147
1.0
 76
     0
 77
     2
 78
   300
148
0.0
149
0.0
100
AcDbLayout
  1
Layout1
 70
     1
 71
     1
 10
0.0
 20
0.0
 11
12.0
 21
9.0
 12
0.0
 22
0.0
 32
0.0
 14
0.0
 24
0.0
 34
0.0
 15
0.0
 25
0.0
 35
0.0
146
0.0
 13
0.0
 23
0.0
 33
0.0
 16
1.0
 26
0.0
 36
0.0
 17
0.0
 27
1.0
 37
0.0
 76
     0
330
6D
  0
LAYOUT
  5
78
102
{ACAD_REACTORS
330
62
102
}
330
62
100
AcDbPlotSettings
  1

  2

  4

  6

 40
0.0
 41
0.0
 42
0.0
 43
0.0
 44
0.0
 45
0.0
 46
0.0
 47
0.0
 48
0.0
 49
0.0
140
0.0
141
0.0
142
1.0
143
1.0
 70
   688
 72
     0
 73
     0
 74
     5
  7

 75
    16
147
1.0
 76
     0
 77
     2
 78
   300
148
0.0
149
0.0
100
AcDbLayout
  1
Layout2
 70
     1
 71
     2
 10
0.0
 20
0.0
 11
12.0
 21
9.0
 12
0.0
 22
0.0
 32
0.0
 14
0.0
 24
0.0
 34
0.0
 15
0.0
 25
0.0
 35
0.0
146
0.0
 13
0.0
 23
0.0
 33
0.0
 16
1.0
 26
0.0
 36
0.0
 17
0.0
 27
1.0
 37
0.0
 76
     0
330
75
  0
LAYOUT
  5
74
102
{ACAD_REACTORS
330
62
102
}
330
62
100
AcDbPlotSettings
  1

  2

  4

  6

 40
0.0
 41
0.0
 42
0.0
 43
0.0
 44
0.0
 45
0.0
 46
0.0
 47
0.0
 48
0.0
 49
0.0
140
0.0
141
0.0
142
1.0
143
1.0
 70
  1712
 72
     0
 73
     0
 74
     0
  7

 75
     0
147
1.0
 76
     0
 77
     2
 78
   300
148
0.0
149
0.0
100
AcDbLayout
  1
Model
 70
     1
 71
     0
 10
0.0
 20
0.0
 11
12.0
 21
9.0
 12
0.0
 22
0.0
 32
0.0
 14
0.0
 24
0.0
 34
0.0
 15
0.0
 25
0.0
 35
0.0
146
0.0
 13
0.0
 23
0.0
 33
0.0
 16
1.0
 26
0.0
 36
0.0
 17
0.0
 27
1.0
 37
0.0
 76
     0
330
71
  0
MATERIAL
  5
19
102
{ACAD_XDICTIONARY
360
1A
102
}
102
{ACAD_REACTORS
330
10
102
}
330
10
100
AcDbMaterial
  1
ByBlock
 72
     0
 43
0.0208333333333333
 43
0.0
 43
0.0
 43
0.0
 43
0.0
 43
0.0208333333333333
 43
0.0
 43
0.0
 43
0.0
 43
0.0
 43
1.0
 43
0.0
 43
0.0
 43
0.0
 43
0.0
 43
1.0
 77
     0
 47
0.0208333333333333
 47
0.0
 47
0.0
 47
0.0
 47
0.0
 47
0.0208333333333333
 47
0.0
 47
0.0
 47
0.0
 47
0.0
 47
1.0
 47
0.0
 47
0.0
 47
0.0
 47
0.0
 47
1.0
171
     0
 49
0.0208333333333333
 49
0.0
 49
0.0
 49
0.0
 49
0.0
 49
0.0208333333333333
 49
0.0
 49
0.0
 49
0.0
 49
0.0
 49
1.0
 49
0.0
 49
0.0
 49
0.0
 49
0.0
 49
1.0
175
     0
142
0.0208333333333333
142
0.0
142
0.0
142
0.0
142
0.0
142
0.0208333333333333
142
0.0
142
0.0
142
0.0
142
0.0
142
1.0
142
0.0
142
0.0
142
0.0
142
0.0
142
1.0
179
     0
144
0.0208333333333333
144
0.0
144
0.0
144
0.0
144
0.0
144
0.0208333333333333
144
0.0
144
0.0
144
0.0
144
0.0
144
1.0
144
0.0
144
0.0
144
0.0
144
0.0
144
1.0
147
0.0208333333333333
147
0.0
147
0.0
147
0.0
147
0.0
147
0.0208333333333333
147
0.0
147
0.0
147
0.0
147
0.0
147
1.0
147
0.0
147
0.0
147
0.0
147
0.0
147
1.0
  0
MATERIAL
  5
11
102
{ACAD_XDICTIONARY
360
12
102
}
102
{ACAD_REACTORS
330
10
102
}
330
10
100
AcDbMaterial
  1
ByLayer
 72
     0
 43
0.0208333333333333
 43
0.0
 43
0.0
 43
0.0
 43
0.0
 43
0.0208333333333333
 43
0.0
 43
0.0
 43
0.0
 43
0.0
 43
1.0
 43
0.0
 43
0.0
 43
0.0
 43
0.0
 43
1.0
 77
     0
 47
0.0208333333333333
 47
0.0
 47
0.0
 47
0.0
 47
0.0
 47
0.0208333333333333
 47
0.0
 47
0.0
 47
0.0
 47
0.0
 47
1.0
 47
0.0
 47
0.0
 47
0.0
 47
0.0
 47
1.0
171
     0
 49
0.0208333333333333
 49
0.0
 49
0.0
 49
0.0
 49
0.0
 49
0.0208333333333333
 49
0.0
 49
0.0
 49
0.0
 49
0.0
 49
1.0
 49
0.0
 49
0.0
 49
0.0
 49
0.0
 49
1.0
175
     0
142
0.0208333333333333
142
0.0
142
0.0
142
0.0
142
0.0
142
0.0208333333333333
142
0.0
142
0.0
142
0.0
142
0.0
142
1.0
142
0.0
142
0.0
142
0.0
142
0.0
142
1.0
179
     0
144
0.0208333333333333
144
0.0
144
0.0
144
0.0
144
0.0
144
0.0208333333333333
144
0.0
144
0.0
144
0.0
144
0.0
144
1.0
144
0.0
144
0.0
144
0.0
144
0.0
144
1.0
147
0.0208333333333333
147
0.0
147
0.0
147
0.0
147
0.0
147
0.0208333333333333
147
0.0
147
0.0
147
0.0
147
0.0
147
1.0
147
0.0
147
0.0
147
0.0
147
0.0
147
1.0
  0
MATERIAL
  5
21
102
{ACAD_XDICTIONARY
360
22
102
}
102
{ACAD_REACTORS
330
10
102
}
330
10
100
AcDbMaterial
  1
Global
 72
     0
 43
0.0208333333333333
 43
0.0
 43
0.0
 43
0.0
 43
0.0
 43
0.0208333333333333
 43
0.0
 43
0.0
 43
0.0
 43
0.0
 43
1.0
 43
0.0
 43
0.0
 43
0.0
 43
0.0
 43
1.0
 77
     0
 47
0.0208333333333333
 47
0.0
 47
0.0
 47
0.0
 47
0.0
 47
0.0208333333333333
 47
0.0
 47
0.0
 47
0.0
 47
0.0
 47
1.0
 47
0.0
 47
0.0
 47
0.0
 47
0.0
 47
1.0
171
     0
 49
0.0208333333333333
 49
0.0
 49
0.0
 49
0.0
 49
0.0
 49
0.0208333333333333
 49
0.0
 49
0.0
 49
0.0
 49
0.0
 49
1.0
 49
0.0
 49
0.0
 49
0.0
 49
0.0
 49
1.0
175
     0
142
0.0208333333333333
142
0.0
142
0.0
142
0.0
142
0.0
142
0.0208333333333333
142
0.0
142
0.0
142
0.0
142
0.0
142
1.0
142
0.0
142
0.0
142
0.0
142
0.0
142
1.0
179
     0
144
0.0208333333333333
144
0.0
144
0.0
144
0.0
144
0.0
144
0.0208333333333333
144
0.0
144
0.0
144
0.0
144
0.0
144
1.0
144
0.0
144
0.0
144
0.0
144
0.0
144
1.0
147
0.0208333333333333
147
0.0
147
0.0
147
0.0
147
0.0
147
0.0208333333333333
147
0.0
147
0.0
147
0.0
147
0.0
147
1.0
147
0.0
147
0.0
147
0.0
147
0.0
147
1.0
  0
MLEADERSTYLE
  5
67
102
{ACAD_REACTORS
330
66
102
}
330
66
100
AcDbMLeaderStyle
179
     2
170
     2
171
     1
172
     0
 90
        2
 40
0.0
 41
0.0
173
     1
 91
-1056964608
340
5B
 92
       -2
290
     1
 42
0.09
291
     1
 43
0.36
  3
Standard
 44
0.18
300

342
55
174
     1
178
     6
175
     1
176
     0
 93
-1056964608
 45
0.18
292
     0
297
     0
 46
0.18
 94
-1056964608
 47
1.0
 49
1.0
140
1.0
293
     1
141
0.0
294
     1
177
     0
142
1.0
295
     1
296
     0
143
0.125
271
     0
272
     9
273
     9
298
     1
  0
MLINESTYLE
  5
60
102
{ACAD_REACTORS
330
5F
102
}
330
5F
100
AcDbMlineStyle
  2
STANDARD
 70
     0
  3

 62
   256
 51
90.0
 52
90.0
 71
     2
 49
0.5
 62
   256
  6
BYLAYER
 49
-0.5
 62
   256
  6
BYLAYER
  0
ACDBPLACEHOLDER
  5
F
102
{ACAD_REACTORS
330
E
102
}
330
E
  0
SCALE
  5
43
102
{ACAD_REACTORS
330
42
102
}
330
42
100
AcDbScale
 70
     0
300
1:1
140
1.0
141
1.0
290
     1
  0
SCALE
  5
44
102
{ACAD_REACTORS
330
42
102
}
330
42
100
AcDbScale
 70
     0
300
1/128" = 1'-0"
140
0.0078125
141
12.0
290
     0
  0
SCALE
  5
45
102
{ACAD_REACTORS
330
42
102
}
330
42
100
AcDbScale
 70
     0
300
1/64" = 1'-0"
140
0.015625
141
12.0
290
     0
  0
SCALE
  5
46
102
{ACAD_REACTORS
330
42
102
}
330
42
100
AcDbScale
 70
     0
300
1/32" = 1'-0"
140
0.03125
141
12.0
290
     0
  0
SCALE
  5
47
102
{ACAD_REACTORS
330
42
102
}
330
42
100
AcDbScale
 70
     0
300
1/16" = 1'-0"
140
0.0625
141
12.0
290
     0
  0
SCALE
  5
48
102
{ACAD_REACTORS
330
42
102
}
330
42
100
AcDbScale
 70
     0
300
3/32" = 1'-0"
140
0.09375
141
12.0
290
     0
  0
SCALE
  5
49
102
{ACAD_REACTORS
330
42
102
}
330
42
100
AcDbScale
 70
     0
300
1/8" = 1'-0"
140
0.125
141
12.0
290
     0
  0
SCALE
  5
4A
102
{ACAD_REACTORS
330
42
102
}
330
42
100
AcDbScale
 70
     0
300
3/16" = 1'-0"
140
0.1875
141
12.0
290
     0
  0
SCALE
  5
4B
102
{ACAD_REACTORS
330
42
102
}
330
42
100
AcDbScale
 70
     0
300
1/4" = 1'-0"
140
0.25
141
12.0
290
     0
  0
SCALE
  5
4C
102
{ACAD_REACTORS
330
42
102
}
330
42
100
AcDbScale
 70
     0
300
3/8" = 1'-0"
140
0.375
141
12.0
290
     0
  0
SCALE
  5
4D
102
{ACAD_REACTORS
330
42
102
}
330
42
100
AcDbScale
 70
     0
300
1/2" = 1'-0"
140
0.5
141
12.0
290
     0
  0
SCALE
  5
4E
102
{ACAD_REACTORS
330
42
102
}
330
42
100
AcDbScale
 70
     0
300
3/4" = 1'-0"
140
0.75
141
12.0
290
     0
  0
SCALE
  5
4F
102
{ACAD_REACTORS
330
42
102
}
330
42
100
AcDbScale
 70
     0
300
1" = 1'-0"
140
1.0
141
12.0
290
     0
  0
SCALE
  5
50
102
{ACAD_REACTORS
330
42
102
}
330
42
100
AcDbScale
 70
     0
300
1-1/2" = 1'-0"
140
1.5
141
12.0
290
     0
  0
SCALE
  5
51
102
{ACAD_REACTORS
330
42
102
}
330
42
100
AcDbScale
 70
     0
300
3" = 1'-0"
140
3.0
141
12.0
290
     0
  0
SCALE
  5
52
102
{ACAD_REACTORS
330
42
102
}
330
42
100
AcDbScale
 70
     0
300
6" = 1'-0"
140
6.0
141
12.0
290
     0
  0
SCALE
  5
53
102
{ACAD_REACTORS
330
42
102
}
330
42
100
AcDbScale
 70
     0
300
1'-0" = 1'-0"
140
12.0
141
12.0
290
     0
  0
ACDBSECTIONVIEWSTYLE
  5
6A
102
{ACAD_REACTORS
330
68
102
}
330
68
100
AcDbModelDocViewStyle
 70
     0
  3
Imperial24
290
     1
100
AcDbSectionViewStyle
 70
     0
 71
     0
 90
       78
 71
     1
340
55
 62
   256
 40
0.24
340
0
340
0
 62
   256
 40
0.24
300
I, O, Q, S, X, Z
 40
0.48
 90
        3
 40
0.18
 90
        1
 71
     2
340
69
 90
       25
 62
   256
340
5D
 90
       50
 62
   256
 40
0.24
 40
0.0
 40
0.24
 71
     3
340
55
 62
   256
 40
0.24
 90
        1
 40
0.75
 90
        1
300
%<\AcVar ViewType \f "%tc1">% %<\AcVar ViewSectionStartId>%-%<\AcVar ViewSectionEndId>%\PSCALA %<\AcVar ViewScale \f "%sn">%
 71
     4
 62
   256
 62
   257
300
ANSI31
 40
1.0
 90
        0
290
     0
290
     0
 90
        6
 40
0.0
 40
1.570796326794896
 40
0.2617993877991494
 40
1.308996938995747
 40
-0.2617993877991494
 40
1.832595714594046
  0
TABLESTYLE
  5
65
102
{ACAD_XDICTIONARY
360
3E1
102
}
102
{ACAD_REACTORS
330
64
102
}
330
64
100
AcDbTableStyle
280
     0
  3
Standard
 70
     0
 71
     0
 40
0.06
 41
0.06
280
     0
281
     0
  7
Standard
140
0.18
170
     2
 62
     0
 63
     7
283
     0
 90
      512
 91
        0
  1

274
    -2
284
     1
 64
     0
275
    -2
285
     1
 65
     0
276
    -2
286
     1
 66
     0
277
    -2
287
     1
 67
     0
278
    -2
288
     1
 68
     0
279
    -2
289
     1
 69
     0
  7
Standard
140
0.25
170
     5
 62
     0
 63
     7
283
     0
 90
      512
 91
        0
  1

274
    -2
284
     1
 64
     0
275
    -2
285
     1
 65
     0
276
    -2
286
     1
 66
     0
277
    -2
287
     1
 67
     0
278
    -2
288
     1
 68
     0
279
    -2
289
     1
 69
     0
  7
Standard
140
0.18
170
     5
 62
     0
 63
     7
283
     0
 90
      512
 91
        0
  1

274
    -2
284
     1
 64
     0
275
    -2
285
     1
 65
     0
276
    -2
286
     1
 66
     0
277
    -2
287
     1
 67
     0
278
    -2
288
     1
 68
     0
279
    -2
289
     1
 69
     0
  0
VISUALSTYLE
  5
2F
102
{ACAD_REACTORS
330
29
102
}
330
29
100
AcDbVisualStyle
  2
2dWireframe
 70
     4
177
     3
291
     0
 70
    58
 90
        0
176
     1
 90
        2
176
     1
 90
        0
176
     1
 90
        0
176
     1
 40
0.6
176
     1
 40
30.0
176
     1
 62
     7
420
 16777215
176
     1
 90
        1
176
     1
 90
        4
176
     1
 62
     7
176
     1
 62
   257
176
     1
 90
        1
176
     1
 90
        1
176
     1
 40
1.0
176
     1
 90
        0
176
     1
 62
   257
176
     1
 40
1.0
176
     1
 90
        1
176
     1
 90
        6
176
     1
 90
        2
176
     1
 62
     7
176
     1
 90
        5
176
     1
 90
        0
176
     1
 90
        0
176
     1
290
     0
176
     1
 90
        1
176
     1
 40
0.0
176
     1
 90
        0
176
     1
290
     1
176
     1
290
     1
176
     1
290
     0
176
     1
290
     0
176
     1
290
     0
176
     1
290
     0
176
     1
290
     0
176
     1
290
     0
176
     1
290
     0
176
     1
 90
       50
176
     1
 40
0.0
176
     1
 40
1.0
176
     1
 90
        0
176
     1
 62
    18
420
        0
176
     1
 90
       50
176
     1
 90
        3
176
     1
 62
     5
420
      255
176
     1
290
     0
176
     1
 90
       50
176
     1
 90
       50
176
     1
 90
       50
176
     1
290
     0
176
     1
 90
       50
176
     1
 62
   256
176
     0
 40
1.0
176
     0
 90
        2
176
     1
  1
strokes_ogs.tif
176
     1
290
     0
176
     1
 40
1.0
176
     1
 40
1.0
176
     1
  0
VISUALSTYLE
  5
2E
102
{ACAD_REACTORS
330
29
102
}
330
29
100
AcDbVisualStyle
  2
Basic
 70
     7
177
     3
291
     1
 70
    58
 90
        1
176
     1
 90
        0
176
     1
 90
        1
176
     1
 90
        0
176
     1
 40
0.6
176
     1
 40
30.0
176
     1
 62
     7
420
 16777215
176
     1
 90
        0
176
     1
 90
        4
176
     1
 62
     7
176
     1
 62
   257
176
     1
 90
        1
176
     1
 90
        1
176
     1
 40
1.0
176
     1
 90
        8
176
     1
 62
     7
176
     1
 40
1.0
176
     1
 90
        1
176
     1
 90
        6
176
     1
 90
        2
176
     1
 62
     7
176
     1
 90
        5
176
     1
 90
        0
176
     1
 90
        0
176
     1
290
     0
176
     1
 90
        1
176
     1
 40
0.0
176
     1
 90
        0
176
     1
290
     0
176
     1
290
     1
176
     1
290
     1
176
     1
290
     0
176
     1
290
     0
176
     1
290
     0
176
     1
290
     0
176
     1
290
     0
176
     1
290
     0
176
     1
 90
       50
176
     1
 40
0.0
176
     1
 40
1.0
176
     1
 90
        0
176
     1
 62
    18
420
        0
176
     1
 90
       50
176
     1
 90
        3
176
     1
 62
     5
420
      255
176
     1
290
     0
176
     1
 90
       50
176
     1
 90
       50
176
     1
 90
       50
176
     1
290
     0
176
     1
 90
       50
176
     1
 62
   256
176
     0
 40
1.0
176
     0
 90
        2
176
     1
  1
strokes_ogs.tif
176
     1
290
     0
176
     1
 40
1.0
176
     1
 40
1.0
176
     1
  0
VISUALSTYLE
  5
35
102
{ACAD_REACTORS
330
29
102
}
330
29
100
AcDbVisualStyle
  2
Brighten
 70
    12
177
     3
291
     1
 70
    58
 90
        2
176
     1
 90
        2
176
     1
 90
        0
176
     1
 90
        0
176
     1
 40
0.6
176
     1
 40
30.0
176
     1
 62
     7
420
 16777215
176
     1
 90
        1
176
     1
 90
        4
176
     1
 62
     7
176
     1
 62
   257
176
     1
 90
        1
176
     1
 90
        1
176
     1
 40
1.0
176
     1
 90
        8
176
     1
 62
     7
176
     1
 40
1.0
176
     1
 90
        1
176
     1
 90
        6
176
     1
 90
        2
176
     1
 62
     7
176
     1
 90
        5
176
     1
 90
        0
176
     1
 90
        0
176
     1
290
     0
176
     1
 90
        1
176
     1
 40
50.0
176
     1
 90
        0
176
     1
290
     0
176
     1
290
     1
176
     1
290
     1
176
     1
290
     0
176
     1
290
     0
176
     1
290
     0
176
     1
290
     0
176
     1
290
     0
176
     1
290
     0
176
     1
 90
       50
176
     1
 40
0.0
176
     1
 40
1.0
176
     1
 90
        0
176
     1
 62
    18
420
        0
176
     1
 90
       50
176
     1
 90
        3
176
     1
 62
     5
420
      255
176
     1
290
     0
176
     1
 90
       50
176
     1
 90
       50
176
     1
 90
       50
176
     1
290
     0
176
     1
 90
       50
176
     1
 62
   256
176
     0
 40
1.0
176
     0
 90
        2
176
     1
  1
strokes_ogs.tif
176
     1
290
     0
176
     1
 40
1.0
176
     1
 40
1.0
176
     1
  0
VISUALSTYLE
  5
39
102
{ACAD_REACTORS
330
29
102
}
330
29
100
AcDbVisualStyle
  2
ColorChange
 70
    16
177
     3
291
     1
 70
    58
 90
        2
176
     1
 90
        2
176
     1
 90
        3
176
     1
 90
        0
176
     1
 40
0.6
176
     1
 40
30.0
176
     1
 62
     8
420
  8421504
176
     1
 90
        1
176
     1
 90
        4
176
     1
 62
     7
176
     1
 62
   257
176
     1
 90
        1
176
     1
 90
        1
176
     1
 40
1.0
176
     1
 90
        8
176
     1
 62
     8
420
  8421504
176
     1
 40
1.0
176
     1
 90
        1
176
     1
 90
        6
176
     1
 90
        2
176
     1
 62
     7
176
     1
 90
        5
176
     1
 90
        0
176
     1
 90
        0
176
     1
290
     0
176
     1
 90
        1
176
     1
 40
0.0
176
     1
 90
        0
176
     1
290
     0
176
     1
290
     1
176
     1
290
     1
176
     1
290
     0
176
     1
290
     0
176
     1
290
     0
176
     1
290
     0
176
     1
290
     0
176
     1
290
     0
176
     1
 90
       50
176
     1
 40
0.0
176
     1
 40
1.0
176
     1
 90
        0
176
     1
 62
    18
420
        0
176
     1
 90
       50
176
     1
 90
        3
176
     1
 62
     5
420
      255
176
     1
290
     0
176
     1
 90
       50
176
     1
 90
       50
176
     1
 90
       50
176
     1
290
     0
176
     1
 90
       50
176
     1
 62
   256
176
     0
 40
1.0
176
     0
 90
        2
176
     1
  1
strokes_ogs.tif
176
     1
290
     0
176
     1
 40
1.0
176
     1
 40
1.0
176
     1
  0
VISUALSTYLE
  5
32
102
{ACAD_REACTORS
330
29
102
}
330
29
100
AcDbVisualStyle
  2
Conceptual
 70
     9
177
     3
291
     0
 70
    58
 90
        3
176
     1
 90
        2
176
     1
 90
        0
176
     1
 90
        0
176
     1
 40
0.6
176
     1
 40
30.0
176
     1
 62
     7
420
 16777215
176
     1
 90
        2
176
     1
 90
        2
176
     1
 62
     7
176
     1
 62
   257
176
     1
 90
        1
176
     1
 90
        1
176
     1
 40
179.0
176
     1
 90
        8
176
     1
 62
     7
176
     1
 40
1.0
176
     1
 90
        1
176
     1
 90
        6
176
     1
 90
        2
176
     1
 62
     7
176
     1
 90
        3
176
     1
 90
        0
176
     1
 90
        0
176
     1
290
     0
176
     1
 90
        1
176
     1
 40
0.0
176
     1
 90
        0
176
     1
290
     0
176
     1
290
     1
176
     1
290
     1
176
     1
290
     0
176
     1
290
     0
176
     1
290
     0
176
     1
290
     0
176
     1
290
     0
176
     1
290
     0
176
     1
 90
       50
176
     1
 40
0.0
176
     1
 40
1.0
176
     1
 90
        0
176
     1
 62
    18
420
        0
176
     1
 90
       50
176
     1
 90
        3
176
     1
 62
     5
420
      255
176
     1
290
     0
176
     1
 90
       50
176
     1
 90
       50
176
     1
 90
       50
176
     1
290
     0
176
     1
 90
       50
176
     1
 62
   256
176
     0
 40
1.0
176
     0
 90
        2
176
     1
  1
strokes_ogs.tif
176
     1
290
     0
176
     1
 40
1.0
176
     1
 40
1.0
176
     1
  0
VISUALSTYLE
  5
34
102
{ACAD_REACTORS
330
29
102
}
330
29
100
AcDbVisualStyle
  2
Dim
 70
    11
177
     3
291
     1
 70
    58
 90
        2
176
     1
 90
        2
176
     1
 90
        0
176
     1
 90
        0
176
     1
 40
0.6
176
     1
 40
30.0
176
     1
 62
     7
420
 16777215
176
     1
 90
        1
176
     1
 90
        4
176
     1
 62
     7
176
     1
 62
   257
176
     1
 90
        1
176
     1
 90
        1
176
     1
 40
1.0
176
     1
 90
        8
176
     1
 62
     7
176
     1
 40
1.0
176
     1
 90
        1
176
     1
 90
        6
176
     1
 90
        2
176
     1
 62
     7
176
     1
 90
        5
176
     1
 90
        0
176
     1
 90
        0
176
     1
290
     0
176
     1
 90
        1
176
     1
 40
-50.0
176
     1
 90
        0
176
     1
290
     0
176
     1
290
     1
176
     1
290
     1
176
     1
290
     0
176
     1
290
     0
176
     1
290
     0
176
     1
290
     0
176
     1
290
     0
176
     1
290
     0
176
     1
 90
       50
176
     1
 40
0.0
176
     1
 40
1.0
176
     1
 90
        0
176
     1
 62
    18
420
        0
176
     1
 90
       50
176
     1
 90
        3
176
     1
 62
     5
420
      255
176
     1
290
     0
176
     1
 90
       50
176
     1
 90
       50
176
     1
 90
       50
176
     1
290
     0
176
     1
 90
       50
176
     1
 62
   256
176
     0
 40
1.0
176
     0
 90
        2
176
     1
  1
strokes_ogs.tif
176
     1
290
     0
176
     1
 40
1.0
176
     1
 40
1.0
176
     1
  0
VISUALSTYLE
  5
41
102
{ACAD_REACTORS
330
29
102
}
330
29
100
AcDbVisualStyle
  2
EdgeColorOff
 70
    22
177
     3
291
     1
 70
    58
 90
        2
176
     0
 90
        2
176
     0
 90
        0
176
     0
 90
        0
176
     0
 40
0.6
176
     0
 40
30.0
176
     0
 62
     7
420
 16777215
176
     0
 90
        1
176
     0
 90
        4
176
     0
 62
     7
176
     0
 62
   257
176
     0
 90
        1
176
     0
 90
        1
176
     0
 40
1.0
176
     0
 90
        8
176
     2
 62
     7
176
     0
 40
1.0
176
     0
 90
        1
176
     0
 90
        6
176
     0
 90
        2
176
     0
 62
     7
176
     0
 90
        5
176
     0
 90
        0
176
     0
 90
        0
176
     0
290
     0
176
     0
 90
        1
176
     0
 40
0.0
176
     0
 90
        0
176
     0
290
     0
176
     0
290
     1
176
     0
290
     1
176
     0
290
     0
176
     0
290
     0
176
     0
290
     0
176
     0
290
     0
176
     0
290
     0
176
     0
290
     0
176
     0
 90
       50
176
     0
 40
0.0
176
     0
 40
1.0
176
     0
 90
        0
176
     0
 62
    18
420
        0
176
     0
 90
       50
176
     0
 90
        3
176
     0
 62
     5
420
      255
176
     0
290
     0
176
     0
 90
       50
176
     0
 90
       50
176
     0
 90
       50
176
     0
290
     0
176
     0
 90
       50
176
     0
 62
   256
176
     0
 40
1.0
176
     0
 90
        2
176
     0
  1
strokes_ogs.tif
176
     0
290
     0
176
     0
 40
1.0
176
     0
 40
1.0
176
     0
  0
VISUALSTYLE
  5
38
102
{ACAD_REACTORS
330
29
102
}
330
29
100
AcDbVisualStyle
  2
Facepattern
 70
    15
177
     3
291
     1
 70
    58
 90
        2
176
     1
 90
        2
176
     1
 90
        0
176
     1
 90
        0
176
     1
 40
0.6
176
     1
 40
30.0
176
     1
 62
     7
420
 16777215
176
     1
 90
        1
176
     1
 90
        4
176
     1
 62
     7
176
     1
 62
   257
176
     1
 90
        1
176
     1
 90
        1
176
     1
 40
1.0
176
     1
 90
        8
176
     1
 62
     7
176
     1
 40
1.0
176
     1
 90
        1
176
     1
 90
        6
176
     1
 90
        2
176
     1
 62
     7
176
     1
 90
        5
176
     1
 90
        0
176
     1
 90
        0
176
     1
290
     0
176
     1
 90
        1
176
     1
 40
0.0
176
     1
 90
        0
176
     1
290
     0
176
     1
290
     1
176
     1
290
     1
176
     1
290
     0
176
     1
290
     0
176
     1
290
     0
176
     1
290
     0
176
     1
290
     0
176
     1
290
     0
176
     1
 90
       50
176
     1
 40
0.0
176
     1
 40
1.0
176
     1
 90
        0
176
     1
 62
    18
420
        0
176
     1
 90
       50
176
     1
 90
        3
176
     1
 62
     5
420
      255
176
     1
290
     0
176
     1
 90
       50
176
     1
 90
       50
176
     1
 90
       50
176
     1
290
     0
176
     1
 90
       50
176
     1
 62
   256
176
     0
 40
1.0
176
     0
 90
        2
176
     1
  1
strokes_ogs.tif
176
     1
290
     0
176
     1
 40
1.0
176
     1
 40
1.0
176
     1
  0
VISUALSTYLE
  5
2A
102
{ACAD_REACTORS
330
29
102
}
330
29
100
AcDbVisualStyle
  2
Flat
 70
     0
177
     3
291
     1
 70
    58
 90
        2
176
     1
 90
        1
176
     1
 90
        1
176
     1
 90
        2
176
     1
 40
0.6
176
     1
 40
30.0
176
     1
 62
     7
420
 16777215
176
     1
 90
        0
176
     1
 90
        0
176
     1
 62
     7
176
     1
 62
   257
176
     1
 90
        1
176
     1
 90
        1
176
     1
 40
1.0
176
     1
 90
        8
176
     1
 62
     7
176
     1
 40
1.0
176
     1
 90
        1
176
     1
 90
        6
176
     1
 90
        2
176
     1
 62
     7
176
     1
 90
        5
176
     1
 90
        0
176
     1
 90
        0
176
     1
290
     0
176
     1
 90
       13
176
     1
 40
0.0
176
     1
 90
        0
176
     1
290
     0
176
     1
290
     1
176
     1
290
     1
176
     1
290
     0
176
     1
290
     0
176
     1
290
     0
176
     1
290
     0
176
     1
290
     0
176
     1
290
     0
176
     1
 90
       50
176
     1
 40
0.0
176
     1
 40
1.0
176
     1
 90
        0
176
     1
 62
    18
420
        0
176
     1
 90
       50
176
     1
 90
        3
176
     1
 62
     5
420
      255
176
     1
290
     0
176
     1
 90
       50
176
     1
 90
       50
176
     1
 90
       50
176
     1
290
     0
176
     1
 90
       50
176
     1
 62
   256
176
     0
 40
1.0
176
     0
 90
        2
176
     1
  1
strokes_ogs.tif
176
     1
290
     0
176
     1
 40
1.0
176
     1
 40
1.0
176
     1
  0
VISUALSTYLE
  5
2B
102
{ACAD_REACTORS
330
29
102
}
330
29
100
AcDbVisualStyle
  2
FlatWithEdges
 70
     1
177
     3
291
     1
 70
    58
 90
        2
176
     1
 90
        1
176
     1
 90
        1
176
     1
 90
        2
176
     1
 40
0.6
176
     1
 40
30.0
176
     1
 62
     7
420
 16777215
176
     1
 90
        1
176
     1
 90
        0
176
     1
 62
     7
176
     1
 62
   257
176
     1
 90
        1
176
     1
 90
        1
176
     1
 40
1.0
176
     1
 90
        0
176
     1
 62
   257
176
     1
 40
1.0
176
     1
 90
        1
176
     1
 90
        6
176
     1
 90
        2
176
     1
 62
     7
176
     1
 90
        5
176
     1
 90
        0
176
     1
 90
        0
176
     1
290
     0
176
     1
 90
       13
176
     1
 40
0.0
176
     1
 90
        0
176
     1
290
     0
176
     1
290
     1
176
     1
290
     1
176
     1
290
     0
176
     1
290
     0
176
     1
290
     0
176
     1
290
     0
176
     1
290
     0
176
     1
290
     0
176
     1
 90
       50
176
     1
 40
0.0
176
     1
 40
1.0
176
     1
 90
        0
176
     1
 62
    18
420
        0
176
     1
 90
       50
176
     1
 90
        3
176
     1
 62
     5
420
      255
176
     1
290
     0
176
     1
 90
       50
176
     1
 90
       50
176
     1
 90
       50
176
     1
290
     0
176
     1
 90
       50
176
     1
 62
   256
176
     0
 40
1.0
176
     0
 90
        2
176
     1
  1
strokes_ogs.tif
176
     1
290
     0
176
     1
 40
1.0
176
     1
 40
1.0
176
     1
  0
VISUALSTYLE
  5
2C
102
{ACAD_REACTORS
330
29
102
}
330
29
100
AcDbVisualStyle
  2
Gouraud
 70
     2
177
     3
291
     1
 70
    58
 90
        2
176
     1
 90
        2
176
     1
 90
        1
176
     1
 90
        2
176
     1
 40
0.6
176
     1
 40
30.0
176
     1
 62
     7
420
 16777215
176
     1
 90
        0
176
     1
 90
        0
176
     1
 62
     7
176
     1
 62
   257
176
     1
 90
        1
176
     1
 90
        1
176
     1
 40
1.0
176
     1
 90
        0
176
     1
 62
     7
176
     1
 40
1.0
176
     1
 90
        1
176
     1
 90
        6
176
     1
 90
        2
176
     1
 62
     7
176
     1
 90
        5
176
     1
 90
        0
176
     1
 90
        0
176
     1
290
     0
176
     1
 90
       13
176
     1
 40
0.0
176
     1
 90
        0
176
     1
290
     0
176
     1
290
     1
176
     1
290
     1
176
     1
290
     0
176
     1
290
     0
176
     1
290
     0
176
     1
290
     0
176
     1
290
     0
176
     1
290
     0
176
     1
 90
       50
176
     1
 40
0.0
176
     1
 40
1.0
176
     1
 90
        0
176
     1
 62
    18
420
        0
176
     1
 90
       50
176
     1
 90
        3
176
     1
 62
     5
420
      255
176
     1
290
     0
176
     1
 90
       50
176
     1
 90
       50
176
     1
 90
       50
176
     1
290
     0
176
     1
 90
       50
176
     1
 62
   256
176
     0
 40
1.0
176
     0
 90
        2
176
     1
  1
strokes_ogs.tif
176
     1
290
     0
176
     1
 40
1.0
176
     1
 40
1.0
176
     1
  0
VISUALSTYLE
  5
2D
102
{ACAD_REACTORS
330
29
102
}
330
29
100
AcDbVisualStyle
  2
GouraudWithEdges
 70
     3
177
     3
291
     1
 70
    58
 90
        2
176
     1
 90
        2
176
     1
 90
        1
176
     1
 90
        2
176
     1
 40
0.6
176
     1
 40
30.0
176
     1
 62
     7
420
 16777215
176
     1
 90
        1
176
     1
 90
        0
176
     1
 62
     7
176
     1
 62
   257
176
     1
 90
        1
176
     1
 90
        1
176
     1
 40
1.0
176
     1
 90
        0
176
     1
 62
   257
176
     1
 40
1.0
176
     1
 90
        1
176
     1
 90
        6
176
     1
 90
        2
176
     1
 62
     7
176
     1
 90
        5
176
     1
 90
        0
176
     1
 90
        0
176
     1
290
     0
176
     1
 90
       13
176
     1
 40
0.0
176
     1
 90
        0
176
     1
290
     0
176
     1
290
     1
176
     1
290
     1
176
     1
290
     0
176
     1
290
     0
176
     1
290
     0
176
     1
290
     0
176
     1
290
     0
176
     1
290
     0
176
     1
 90
       50
176
     1
 40
0.0
176
     1
 40
1.0
176
     1
 90
        0
176
     1
 62
    18
420
        0
176
     1
 90
       50
176
     1
 90
        3
176
     1
 62
     5
420
      255
176
     1
290
     0
176
     1
 90
       50
176
     1
 90
       50
176
     1
 90
       50
176
     1
290
     0
176
     1
 90
       50
176
     1
 62
   256
176
     0
 40
1.0
176
     0
 90
        2
176
     1
  1
strokes_ogs.tif
176
     1
290
     0
176
     1
 40
1.0
176
     1
 40
1.0
176
     1
  0
VISUALSTYLE
  5
31
102
{ACAD_REACTORS
330
29
102
}
330
29
100
AcDbVisualStyle
  2
Hidden
 70
     6
177
     3
291
     0
 70
    58
 90
        1
176
     1
 90
        2
176
     1
 90
        2
176
     1
 90
        0
176
     1
 40
0.6
176
     1
 40
30.0
176
     1
 62
     7
420
 16777215
176
     1
 90
        2
176
     1
 90
        2
176
     1
 62
     7
176
     1
 62
   257
176
     1
 90
        2
176
     1
 90
        1
176
     1
 40
40.0
176
     1
 90
        0
176
     1
 62
   257
176
     1
 40
1.0
176
     1
 90
        1
176
     1
 90
        6
176
     1
 90
        2
176
     1
 62
     7
176
     1
 90
        3
176
     1
 90
        0
176
     1
 90
        0
176
     1
290
     0
176
     1
 90
        1
176
     1
 40
0.0
176
     1
 90
        0
176
     1
290
     0
176
     1
290
     1
176
     1
290
     1
176
     1
290
     0
176
     1
290
     0
176
     1
290
     0
176
     1
290
     0
176
     1
290
     0
176
     1
290
     0
176
     1
 90
       50
176
     1
 40
0.0
176
     1
 40
1.0
176
     1
 90
        0
176
     1
 62
    18
420
        0
176
     1
 90
       50
176
     1
 90
        3
176
     1
 62
     5
420
      255
176
     1
290
     0
176
     1
 90
       50
176
     1
 90
       50
176
     1
 90
       50
176
     1
290
     0
176
     1
 90
       50
176
     1
 62
   256
176
     0
 40
1.0
176
     0
 90
        2
176
     1
  1
strokes_ogs.tif
176
     1
290
     0
176
     1
 40
1.0
176
     1
 40
1.0
176
     1
  0
VISUALSTYLE
  5
3F
102
{ACAD_REACTORS
330
29
102
}
330
29
100
AcDbVisualStyle
  2
JitterOff
 70
    20
177
     3
291
     1
 70
    58
 90
        2
176
     0
 90
        2
176
     0
 90
        0
176
     0
 90
        0
176
     0
 40
0.6
176
     0
 40
30.0
176
     0
 62
     7
420
 16777215
176
     0
 90
        1
176
     0
 90
        4
176
     0
 62
     7
176
     0
 62
   257
176
     0
 90
        1
176
     0
 90
        1
176
     0
 40
1.0
176
     0
 90
       10
176
     2
 62
     7
176
     0
 40
1.0
176
     0
 90
        1
176
     0
 90
        6
176
     0
 90
        2
176
     0
 62
     7
176
     0
 90
        5
176
     0
 90
        0
176
     0
 90
        0
176
     0
290
     0
176
     0
 90
        1
176
     0
 40
0.0
176
     0
 90
        0
176
     0
290
     0
176
     0
290
     1
176
     0
290
     1
176
     0
290
     0
176
     0
290
     0
176
     0
290
     0
176
     0
290
     0
176
     0
290
     0
176
     0
290
     0
176
     0
 90
       50
176
     0
 40
0.0
176
     0
 40
1.0
176
     0
 90
        0
176
     0
 62
    18
420
        0
176
     0
 90
       50
176
     0
 90
        3
176
     0
 62
     5
420
      255
176
     0
290
     0
176
     0
 90
       50
176
     0
 90
       50
176
     0
 90
       50
176
     0
290
     0
176
     0
 90
       50
176
     0
 62
   256
176
     0
 40
1.0
176
     0
 90
        2
176
     0
  1
strokes_ogs.tif
176
     0
290
     0
176
     0
 40
1.0
176
     0
 40
1.0
176
     0
  0
VISUALSTYLE
  5
37
102
{ACAD_REACTORS
330
29
102
}
330
29
100
AcDbVisualStyle
  2
Linepattern
 70
    14
177
     3
291
     1
 70
    58
 90
        2
176
     1
 90
        2
176
     1
 90
        0
176
     1
 90
        0
176
     1
 40
0.6
176
     1
 40
30.0
176
     1
 62
     7
420
 16777215
176
     1
 90
        1
176
     1
 90
        4
176
     1
 62
     7
176
     1
 62
   257
176
     1
 90
        7
176
     1
 90
        7
176
     1
 40
1.0
176
     1
 90
        8
176
     1
 62
     7
176
     1
 40
1.0
176
     1
 90
        1
176
     1
 90
        6
176
     1
 90
        2
176
     1
 62
     7
176
     1
 90
        5
176
     1
 90
        0
176
     1
 90
        0
176
     1
290
     0
176
     1
 90
        1
176
     1
 40
0.0
176
     1
 90
        0
176
     1
290
     0
176
     1
290
     1
176
     1
290
     1
176
     1
290
     0
176
     1
290
     0
176
     1
290
     0
176
     1
290
     0
176
     1
290
     0
176
     1
290
     0
176
     1
 90
       50
176
     1
 40
0.0
176
     1
 40
1.0
176
     1
 90
        0
176
     1
 62
    18
420
        0
176
     1
 90
       50
176
     1
 90
        3
176
     1
 62
     5
420
      255
176
     1
290
     0
176
     1
 90
       50
176
     1
 90
       50
176
     1
 90
       50
176
     1
290
     0
176
     1
 90
       50
176
     1
 62
   256
176
     0
 40
1.0
176
     0
 90
        2
176
     1
  1
strokes_ogs.tif
176
     1
290
     0
176
     1
 40
1.0
176
     1
 40
1.0
176
     1
  0
VISUALSTYLE
  5
40
102
{ACAD_REACTORS
330
29
102
}
330
29
100
AcDbVisualStyle
  2
OverhangOff
 70
    21
177
     3
291
     1
 70
    58
 90
        2
176
     0
 90
        2
176
     0
 90
        0
176
     0
 90
        0
176
     0
 40
0.6
176
     0
 40
30.0
176
     0
 62
     7
420
 16777215
176
     0
 90
        1
176
     0
 90
        4
176
     0
 62
     7
176
     0
 62
   257
176
     0
 90
        1
176
     0
 90
        1
176
     0
 40
1.0
176
     0
 90
        9
176
     2
 62
     7
176
     0
 40
1.0
176
     0
 90
        1
176
     0
 90
        6
176
     0
 90
        2
176
     0
 62
     7
176
     0
 90
        5
176
     0
 90
        0
176
     0
 90
        0
176
     0
290
     0
176
     0
 90
        1
176
     0
 40
0.0
176
     0
 90
        0
176
     0
290
     0
176
     0
290
     1
176
     0
290
     1
176
     0
290
     0
176
     0
290
     0
176
     0
290
     0
176
     0
290
     0
176
     0
290
     0
176
     0
290
     0
176
     0
 90
       50
176
     0
 40
0.0
176
     0
 40
1.0
176
     0
 90
        0
176
     0
 62
    18
420
        0
176
     0
 90
       50
176
     0
 90
        3
176
     0
 62
     5
420
      255
176
     0
290
     0
176
     0
 90
       50
176
     0
 90
       50
176
     0
 90
       50
176
     0
290
     0
176
     0
 90
       50
176
     0
 62
   256
176
     0
 40
1.0
176
     0
 90
        2
176
     0
  1
strokes_ogs.tif
176
     0
290
     0
176
     0
 40
1.0
176
     0
 40
1.0
176
     0
  0
VISUALSTYLE
  5
33
102
{ACAD_REACTORS
330
29
102
}
330
29
100
AcDbVisualStyle
  2
Realistic
 70
     8
177
     3
291
     0
 70
    58
 90
        2
176
     1
 90
        3
176
     1
 90
        0
176
     1
 90
        2
176
     1
 40
0.6
176
     1
 40
30.0
176
     1
 62
     7
420
 16777215
176
     1
 90
        0
176
     1
 90
        0
176
     1
 62
     7
176
     1
 62
   257
176
     1
 90
        1
176
     1
 90
        1
176
     1
 40
1.0
176
     1
 90
        8
176
     1
 62
   257
176
     1
 40
1.0
176
     1
 90
        1
176
     1
 90
        6
176
     1
 90
        2
176
     1
 62
     7
176
     1
 90
        3
176
     1
 90
        0
176
     1
 90
        0
176
     1
290
     0
176
     1
 90
       13
176
     1
 40
0.0
176
     1
 90
        0
176
     1
290
     0
176
     1
290
     1
176
     1
290
     1
176
     1
290
     0
176
     1
290
     0
176
     1
290
     0
176
     1
290
     0
176
     1
290
     0
176
     1
290
     0
176
     1
 90
       50
176
     1
 40
0.0
176
     1
 40
1.0
176
     1
 90
        0
176
     1
 62
    18
420
        0
176
     1
 90
       50
176
     1
 90
        3
176
     1
 62
     5
420
      255
176
     1
290
     0
176
     1
 90
       50
176
     1
 90
       50
176
     1
 90
       50
176
     1
290
     0
176
     1
 90
       50
176
     1
 62
   256
176
     0
 40
1.0
176
     0
 90
        2
176
     1
  1
strokes_ogs.tif
176
     1
290
     0
176
     1
 40
1.0
176
     1
 40
1.0
176
     1
  0
VISUALSTYLE
  5
3E
102
{ACAD_REACTORS
330
29
102
}
330
29
100
AcDbVisualStyle
  2
Shaded
 70
    27
177
     3
291
     0
 70
    58
 90
        2
176
     1
 90
        2
176
     1
 90
        1
176
     1
 90
        2
176
     1
 40
0.6
176
     1
 40
30.0
176
     1
 62
     7
420
 16777215
176
     1
 90
        0
176
     1
 90
        4
176
     1
 62
     7
176
     1
 62
   257
176
     1
 90
        1
176
     1
 90
        1
176
     1
 40
1.0
176
     1
 90
        8
176
     1
 62
   257
176
     1
 40
1.0
176
     1
 90
        1
176
     1
 90
        6
176
     1
 90
        2
176
     1
 62
     8
420
  7895160
176
     1
 90
        3
176
     1
 90
        0
176
     1
 90
        0
176
     1
290
     0
176
     1
 90
        5
176
     1
 40
0.0
176
     1
 90
        0
176
     1
290
     0
176
     1
290
     1
176
     1
290
     1
176
     1
290
     0
176
     1
290
     0
176
     1
290
     0
176
     1
290
     0
176
     1
290
     0
176
     1
290
     0
176
     1
 90
       50
176
     1
 40
0.0
176
     1
 40
1.0
176
     1
 90
        0
176
     1
 62
    18
420
        0
176
     1
 90
       50
176
     1
 90
        3
176
     1
 62
     5
420
      255
176
     1
290
     0
176
     1
 90
       50
176
     1
 90
       50
176
     1
 90
       50
176
     1
290
     0
176
     1
 90
       50
176
     1
 62
   256
176
     0
 40
1.0
176
     0
 90
        2
176
     1
  1
strokes_ogs.tif
176
     1
290
     0
176
     1
 40
1.0
176
     1
 40
1.0
176
     1
  0
VISUALSTYLE
  5
3D
102
{ACAD_REACTORS
330
29
102
}
330
29
100
AcDbVisualStyle
  2
Shaded with edges
 70
    26
177
     3
291
     0
 70
    58
 90
        2
176
     1
 90
        2
176
     1
 90
        1
176
     1
 90
        2
176
     1
 40
0.6
176
     1
 40
30.0
176
     1
 62
     7
420
 16777215
176
     1
 90
        1
176
     1
 90
       10
176
     1
 62
     7
176
     1
 62
   257
176
     1
 90
        2
176
     1
 90
        1
176
     1
 40
1.0
176
     1
 90
        8
176
     1
 62
   257
176
     1
 40
1.0
176
     1
 90
        1
176
     1
 90
        6
176
     1
 90
        2
176
     1
 62
     7
176
     1
 90
        3
176
     1
 90
        0
176
     1
 90
        0
176
     1
290
     0
176
     1
 90
        5
176
     1
 40
0.0
176
     1
 90
        0
176
     1
290
     0
176
     1
290
     1
176
     1
290
     1
176
     1
290
     0
176
     1
290
     0
176
     1
290
     0
176
     1
290
     0
176
     1
290
     0
176
     1
290
     0
176
     1
 90
       50
176
     1
 40
0.0
176
     1
 40
1.0
176
     1
 90
        0
176
     1
 62
    18
420
        0
176
     1
 90
       50
176
     1
 90
        3
176
     1
 62
     5
420
      255
176
     1
290
     0
176
     1
 90
       50
176
     1
 90
       50
176
     1
 90
       50
176
     1
290
     0
176
     1
 90
       50
176
     1
 62
   256
176
     0
 40
1.0
176
     0
 90
        2
176
     1
  1
strokes_ogs.tif
176
     1
290
     0
176
     1
 40
1.0
176
     1
 40
1.0
176
     1
  0
VISUALSTYLE
  5
3A
102
{ACAD_REACTORS
330
29
102
}
330
29
100
AcDbVisualStyle
  2
Shades of Gray
 70
    23
177
     3
291
     0
 70
    58
 90
        2
176
     1
 90
        2
176
     1
 90
        3
176
     1
 90
        0
176
     1
 40
0.6
176
     1
 40
30.0
176
     1
 62
     7
420
 16777215
176
     1
 90
        2
176
     1
 90
        2
176
     1
 62
     7
176
     1
 62
     7
176
     1
 90
        1
176
     1
 90
        1
176
     1
 40
40.0
176
     1
 90
        8
176
     1
 62
     7
176
     1
 40
1.0
176
     1
 90
        1
176
     1
 90
        6
176
     1
 90
        2
176
     1
 62
     7
176
     1
 90
        3
176
     1
 90
        0
176
     1
 90
        0
176
     1
290
     0
176
     1
 90
        1
176
     1
 40
0.0
176
     1
 90
        0
176
     1
290
     0
176
     1
290
     1
176
     1
290
     1
176
     1
290
     0
176
     1
290
     0
176
     1
290
     0
176
     1
290
     0
176
     1
290
     0
176
     1
290
     0
176
     1
 90
       50
176
     1
 40
0.0
176
     1
 40
1.0
176
     1
 90
        0
176
     1
 62
    18
420
        0
176
     1
 90
       50
176
     1
 90
        3
176
     1
 62
     5
420
      255
176
     1
290
     0
176
     1
 90
       50
176
     1
 90
       50
176
     1
 90
       50
176
     1
290
     0
176
     1
 90
       50
176
     1
 62
   256
176
     0
 40
1.0
176
     0
 90
        2
176
     1
  1
strokes_ogs.tif
176
     1
290
     0
176
     1
 40
1.0
176
     1
 40
1.0
176
     1
  0
VISUALSTYLE
  5
3B
102
{ACAD_REACTORS
330
29
102
}
330
29
100
AcDbVisualStyle
  2
Sketchy
 70
    24
177
     3
291
     0
 70
    58
 90
        1
176
     1
 90
        2
176
     1
 90
        2
176
     1
 90
        0
176
     1
 40
0.6
176
     1
 40
30.0
176
     1
 62
     7
420
 16777215
176
     1
 90
        2
176
     1
 90
        2
176
     1
 62
     7
176
     1
 62
     7
176
     1
 90
        1
176
     1
 90
        1
176
     1
 40
40.0
176
     1
 90
       11
176
     1
 62
     7
176
     1
 40
1.0
176
     1
 90
        1
176
     1
 90
        6
176
     1
 90
        2
176
     1
 62
     7
176
     1
 90
        6
176
     1
 90
        0
176
     1
 90
        0
176
     1
290
     0
176
     1
 90
        1
176
     1
 40
0.0
176
     1
 90
        0
176
     1
290
     0
176
     1
290
     1
176
     1
290
     1
176
     1
290
     0
176
     1
290
     0
176
     1
290
     0
176
     1
290
     0
176
     1
290
     0
176
     1
290
     0
176
     1
 90
       50
176
     1
 40
0.0
176
     1
 40
1.0
176
     1
 90
        0
176
     1
 62
    18
420
        0
176
     1
 90
       50
176
     1
 90
        3
176
     1
 62
     5
420
      255
176
     1
290
     0
176
     1
 90
       50
176
     1
 90
       50
176
     1
 90
       50
176
     1
290
     0
176
     1
 90
       50
176
     1
 62
   256
176
     0
 40
1.0
176
     0
 90
        2
176
     1
  1
strokes_ogs.tif
176
     1
290
     0
176
     1
 40
1.0
176
     1
 40
1.0
176
     1
  0
VISUALSTYLE
  5
36
102
{ACAD_REACTORS
330
29
102
}
330
29
100
AcDbVisualStyle
  2
Thicken
 70
    13
177
     3
291
     1
 70
    58
 90
        2
176
     1
 90
        2
176
     1
 90
        0
176
     1
 90
        0
176
     1
 40
0.6
176
     1
 40
30.0
176
     1
 62
     7
420
 16777215
176
     1
 90
        1
176
     1
 90
        4
176
     1
 62
     7
176
     1
 62
   257
176
     1
 90
        1
176
     1
 90
        1
176
     1
 40
1.0
176
     1
 90
       12
176
     1
 62
     7
176
     1
 40
1.0
176
     1
 90
        1
176
     1
 90
        6
176
     1
 90
        2
176
     1
 62
     7
176
     1
 90
        5
176
     1
 90
        0
176
     1
 90
        0
176
     1
290
     0
176
     1
 90
        1
176
     1
 40
0.0
176
     1
 90
        0
176
     1
290
     0
176
     1
290
     1
176
     1
290
     1
176
     1
290
     0
176
     1
290
     0
176
     1
290
     0
176
     1
290
     0
176
     1
290
     0
176
     1
290
     0
176
     1
 90
       50
176
     1
 40
0.0
176
     1
 40
1.0
176
     1
 90
        0
176
     1
 62
    18
420
        0
176
     1
 90
       50
176
     1
 90
        3
176
     1
 62
     5
420
      255
176
     1
290
     0
176
     1
 90
       50
176
     1
 90
       50
176
     1
 90
       50
176
     1
290
     0
176
     1
 90
       50
176
     1
 62
   256
176
     0
 40
1.0
176
     0
 90
        2
176
     1
  1
strokes_ogs.tif
176
     1
290
     0
176
     1
 40
1.0
176
     1
 40
1.0
176
     1
  0
VISUALSTYLE
  5
30
102
{ACAD_REACTORS
330
29
102
}
330
29
100
AcDbVisualStyle
  2
Wireframe
 70
     5
177
     3
291
     0
 70
    58
 90
        0
176
     1
 90
        2
176
     1
 90
        0
176
     1
 90
        0
176
     1
 40
0.6
176
     1
 40
30.0
176
     1
 62
     7
420
 16777215
176
     1
 90
        1
176
     1
 90
        4
176
     1
 62
     7
176
     1
 62
   257
176
     1
 90
        1
176
     1
 90
        1
176
     1
 40
1.0
176
     1
 90
        0
176
     1
 62
   257
176
     1
 40
1.0
176
     1
 90
        1
176
     1
 90
        6
176
     1
 90
        2
176
     1
 62
     7
176
     1
 90
        3
176
     1
 90
        0
176
     1
 90
        0
176
     1
290
     0
176
     1
 90
        1
176
     1
 40
0.0
176
     1
 90
        0
176
     1
290
     0
176
     1
290
     1
176
     1
290
     1
176
     1
290
     0
176
     1
290
     0
176
     1
290
     0
176
     1
290
     0
176
     1
290
     0
176
     1
290
     0
176
     1
 90
       50
176
     1
 40
0.0
176
     1
 40
1.0
176
     1
 90
        0
176
     1
 62
    18
420
        0
176
     1
 90
       50
176
     1
 90
        3
176
     1
 62
     5
420
      255
176
     1
290
     0
176
     1
 90
       50
176
     1
 90
       50
176
     1
 90
       50
176
     1
290
     0
176
     1
 90
       50
176
     1
 62
   256
176
     0
 40
1.0
176
     0
 90
        2
176
     1
  1
strokes_ogs.tif
176
     1
290
     0
176
     1
 40
1.0
176
     1
 40
1.0
176
     1
  0
VISUALSTYLE
  5
3C
102
{ACAD_REACTORS
330
29
102
}
330
29
100
AcDbVisualStyle
  2
X-Ray
 70
    25
177
     3
291
     0
 70
    58
 90
        2
176
     1
 90
        2
176
     1
 90
        1
176
     1
 90
        1
176
     1
 40
0.5
176
     1
 40
30.0
176
     1
 62
     7
420
 16777215
176
     1
 90
        1
176
     1
 90
        0
176
     1
 62
     7
176
     1
 62
   257
176
     1
 90
        1
176
     1
 90
        1
176
     1
 40
1.0
176
     1
 90
        8
176
     1
 62
     7
176
     1
 40
1.0
176
     1
 90
        1
176
     1
 90
        6
176
     1
 90
        2
176
     1
 62
     7
176
     1
 90
        3
176
     1
 90
        0
176
     1
 90
        0
176
     1
290
     0
176
     1
 90
       13
176
     1
 40
0.0
176
     1
 90
        0
176
     1
290
     0
176
     1
290
     1
176
     1
290
     1
176
     1
290
     0
176
     1
290
     0
176
     1
290
     0
176
     1
290
     0
176
     1
290
     0
176
     1
290
     0
176
     1
 90
       50
176
     1
 40
0.0
176
     1
 40
1.0
176
     1
 90
        0
176
     1
 62
    18
420
        0
176
     1
 90
       50
176
     1
 90
        3
176
     1
 62
     5
420
      255
176
     1
290
     0
176
     1
 90
       50
176
     1
 90
       50
176
     1
 90
       50
176
     1
290
     0
176
     1
 90
       50
176
     1
 62
   256
176
     0
 40
1.0
176
     0
 90
        2
176
     1
  1
strokes_ogs.tif
176
     1
290
     0
176
     1
 40
1.0
176
     1
 40
1.0
176
     1
  0
DICTIONARYVAR
  5
81
102
{ACAD_REACTORS
330
7C
102
}
330
7C
100
DictionaryVariables
280
     0
  1
1:1
  0
DICTIONARYVAR
  5
7E
102
{ACAD_REACTORS
330
7C
102
}
330
7C
100
DictionaryVariables
280
     0
  1
STANDARD
  0
DICTIONARYVAR
  5
7D
102
{ACAD_REACTORS
330
7C
102
}
330
7C
100
DictionaryVariables
280
     0
  1
STANDARD
  0
DICTIONARYVAR
  5
7F
102
{ACAD_REACTORS
330
7C
102
}
330
7C
100
DictionaryVariables
280
     0
  1
Imperial24
  0
DICTIONARYVAR
  5
80
102
{ACAD_REACTORS
330
7C
102
}
330
7C
100
DictionaryVariables
280
     0
  1
Imperial24
  0
XRECORD
  5
3DE
102
{ACAD_REACTORS
330
3DA
102
}
330
3DA
100
AcDbXrecord
280
     1
  1
BUILDING_ID
  1
Progetto per messa in tavola DXF, DWG
  1
FLOOR_ID
  1
694395
  0
XRECORD
  5
3DC
102
{ACAD_REACTORS
330
3DA
102
}
330
3DA
100
AcDbXrecord
280
     1
  1
-2001160
  1
Apparecchi idraulici
  0
XRECORD
  5
3DD
102
{ACAD_REACTORS
330
3DA
102
}
330
3DA
100
AcDbXrecord
280
     1
  1
790271
  1
Body
  0
XRECORD
  5
3DB
102
{ACAD_REACTORS
330
3DA
102
}
330
3DA
100
AcDbXrecord
280
     1
  1
941550
  1
Automatic flow rate regulator valve_Caleffi_121 DN15 : DN25
  0
DICTIONARY
  5
1A
330
19
100
AcDbDictionary
280
     1
281
     1
  3
BUMPTILE
360
1C
  3
DIFFUSETILE
360
1B
  3
OPACITYTILE
360
1F
  3
REFLECTIONTILE
360
1E
  3
REFRACTIONTILE
360
20
  3
SPECULARTILE
360
1D
  0
DICTIONARY
  5
12
330
11
100
AcDbDictionary
280
     1
281
     1
  3
BUMPTILE
360
14
  3
DIFFUSETILE
360
13
  3
OPACITYTILE
360
17
  3
REFLECTIONTILE
360
16
  3
REFRACTIONTILE
360
18
  3
SPECULARTILE
360
15
  0
DICTIONARY
  5
22
330
21
100
AcDbDictionary
280
     1
281
     1
  3
BUMPTILE
360
24
  3
DIFFUSETILE
360
23
  3
OPACITYTILE
360
27
  3
REFLECTIONTILE
360
26
  3
REFRACTIONTILE
360
28
  3
SPECULARTILE
360
25
  0
DICTIONARY
  5
3E1
330
65
100
AcDbDictionary
280
     1
281
     1
  3
ACAD_ROUNDTRIP_2008_TABLESTYLE_CELLSTYLEMAP
360
3E2
  0
XRECORD
  5
1C
102
{ACAD_REACTORS
330
1A
102
}
330
1A
100
AcDbXrecord
280
     1
270
     1
271
     1
  0
XRECORD
  5
1B
102
{ACAD_REACTORS
330
1A
102
}
330
1A
100
AcDbXrecord
280
     1
270
     1
271
     1
  0
XRECORD
  5
1F
102
{ACAD_REACTORS
330
1A
102
}
330
1A
100
AcDbXrecord
280
     1
270
     1
271
     1
  0
XRECORD
  5
1E
102
{ACAD_REACTORS
330
1A
102
}
330
1A
100
AcDbXrecord
280
     1
270
     1
271
     1
  0
XRECORD
  5
20
102
{ACAD_REACTORS
330
1A
102
}
330
1A
100
AcDbXrecord
280
     1
270
     1
271
     1
  0
XRECORD
  5
1D
102
{ACAD_REACTORS
330
1A
102
}
330
1A
100
AcDbXrecord
280
     1
270
     1
271
     1
  0
XRECORD
  5
14
102
{ACAD_REACTORS
330
12
102
}
330
12
100
AcDbXrecord
280
     1
270
     1
271
     1
  0
XRECORD
  5
13
102
{ACAD_REACTORS
330
12
102
}
330
12
100
AcDbXrecord
280
     1
270
     1
271
     1
  0
XRECORD
  5
17
102
{ACAD_REACTORS
330
12
102
}
330
12
100
AcDbXrecord
280
     1
270
     1
271
     1
  0
XRECORD
  5
16
102
{ACAD_REACTORS
330
12
102
}
330
12
100
AcDbXrecord
280
     1
270
     1
271
     1
  0
XRECORD
  5
18
102
{ACAD_REACTORS
330
12
102
}
330
12
100
AcDbXrecord
280
     1
270
     1
271
     1
  0
XRECORD
  5
15
102
{ACAD_REACTORS
330
12
102
}
330
12
100
AcDbXrecord
280
     1
270
     1
271
     1
  0
XRECORD
  5
24
102
{ACAD_REACTORS
330
22
102
}
330
22
100
AcDbXrecord
280
     1
270
     1
271
     1
  0
XRECORD
  5
23
102
{ACAD_REACTORS
330
22
102
}
330
22
100
AcDbXrecord
280
     1
270
     1
271
     1
  0
XRECORD
  5
27
102
{ACAD_REACTORS
330
22
102
}
330
22
100
AcDbXrecord
280
     1
270
     1
271
     1
  0
XRECORD
  5
26
102
{ACAD_REACTORS
330
22
102
}
330
22
100
AcDbXrecord
280
     1
270
     1
271
     1
  0
XRECORD
  5
28
102
{ACAD_REACTORS
330
22
102
}
330
22
100
AcDbXrecord
280
     1
270
     1
271
     1
  0
XRECORD
  5
25
102
{ACAD_REACTORS
330
22
102
}
330
22
100
AcDbXrecord
280
     1
270
     1
271
     1
  0
CELLSTYLEMAP
  5
3E2
102
{ACAD_REACTORS
330
3E1
102
}
330
3E1
100
AcDbCellStyleMap
 90
        3
300
CELLSTYLE
  1
TABLEFORMAT_BEGIN
 90
        5
170
     1
 91
        0
 92
    32768
 62
   257
 93
        1
300
CONTENTFORMAT
  1
CONTENTFORMAT_BEGIN
 90
        0
 91
        0
 92
      512
 93
        0
300

 40
0.0
140
1.0
 94
        5
 62
     0
340
55
144
0.25
309
CONTENTFORMAT_END
171
     0
 94
        0
309
TABLEFORMAT_END
  1
CELLSTYLE_BEGIN
 90
        1
 91
        1
300
_TITLE
309
CELLSTYLE_END
300
CELLSTYLE
  1
TABLEFORMAT_BEGIN
 90
        5
170
     1
 91
        0
 92
        0
 62
   257
 93
        1
300
CONTENTFORMAT
  1
CONTENTFORMAT_BEGIN
 90
        0
 91
        0
 92
      512
 93
        0
300

 40
0.0
140
1.0
 94
        5
 62
     0
340
55
144
0.18
309
CONTENTFORMAT_END
171
     0
 94
        0
309
TABLEFORMAT_END
  1
CELLSTYLE_BEGIN
 90
        2
 91
        1
300
_HEADER
309
CELLSTYLE_END
300
CELLSTYLE
  1
TABLEFORMAT_BEGIN
 90
        5
170
     1
 91
        0
 92
        0
 62
   257
 93
        1
300
CONTENTFORMAT
  1
CONTENTFORMAT_BEGIN
 90
        0
 91
        0
 92
      512
 93
        0
300

 40
0.0
140
1.0
 94
        2
 62
     0
340
55
144
0.18
309
CONTENTFORMAT_END
171
     0
 94
        0
309
TABLEFORMAT_END
  1
CELLSTYLE_BEGIN
 90
        3
 91
        2
300
_DATA
309
CELLSTYLE_END
  0
ENDSEC
  0
EOF
