  0
SECTION
  2
HEADER
  9
$ACADVER
  1
AC1027
  9
$ACADMAINTVER
 70
    20
  9
$DWGCODEPAGE
  3
ANSI_1252
  9
$REQUIREDVERSIONS
160
                 0
  9
$INSBASE
 10
0.0
 20
0.0
 30
0.0
  9
$EXTMIN
 10
683.6773265781143
 20
1611.745878720054
 30
-0.00000001
  9
$EXTMAX
 10
1184.114353943098
 20
2122.196145764881
 30
0.00000001
  9
$LIMMIN
 10
0.0
 20
0.0
  9
$LIMMAX
 10
12.0
 20
9.0
  9
$ORTHOMODE
 70
     0
  9
$REGENMODE
 70
     1
  9
$FILLMODE
 70
     1
  9
$QTEXTMODE
 70
     0
  9
$MIRRTEXT
 70
     0
  9
$LTSCALE
 40
1.0
  9
$ATTMODE
 70
     1
  9
$TEXTSIZE
 40
0.2
  9
$TRACEWID
 40
0.05
  9
$TEXTSTYLE
  7
Standard
  9
$CLAYER
  8
0
  9
$CELTYPE
  6
ByLayer
  9
$CECOLOR
 62
   256
  9
$CELTSCALE
 40
1.0
  9
$DISPSILH
 70
     0
  9
$DIMSCALE
 40
1.0
  9
$DIMASZ
 40
0.18
  9
$DIMEXO
 40
0.0625
  9
$DIMDLI
 40
0.38
  9
$DIMRND
 40
0.0
  9
$DIMDLE
 40
0.0
  9
$DIMEXE
 40
0.18
  9
$DIMTP
 40
0.0
  9
$DIMTM
 40
0.0
  9
$DIMTXT
 40
0.18
  9
$DIMCEN
 40
0.09
  9
$DIMTSZ
 40
0.0
  9
$DIMTOL
 70
     0
  9
$DIMLIM
 70
     0
  9
$DIMTIH
 70
     1
  9
$DIMTOH
 70
     1
  9
$DIMSE1
 70
     0
  9
$DIMSE2
 70
     0
  9
$DIMTAD
 70
     0
  9
$DIMZIN
 70
     0
  9
$DIMBLK
  1

  9
$DIMASO
 70
     1
  9
$DIMSHO
 70
     1
  9
$DIMPOST
  1

  9
$DIMAPOST
  1

  9
$DIMALT
 70
     0
  9
$DIMALTD
 70
     2
  9
$DIMALTF
 40
25.4
  9
$DIMLFAC
 40
1.0
  9
$DIMTOFL
 70
     0
  9
$DIMTVP
 40
0.0
  9
$DIMTIX
 70
     0
  9
$DIMSOXD
 70
     0
  9
$DIMSAH
 70
     0
  9
$DIMBLK1
  1

  9
$DIMBLK2
  1

  9
$DIMSTYLE
  2
Standard
  9
$DIMCLRD
 70
     0
  9
$DIMCLRE
 70
     0
  9
$DIMCLRT
 70
     0
  9
$DIMTFAC
 40
1.0
  9
$DIMGAP
 40
0.09
  9
$DIMJUST
 70
     0
  9
$DIMSD1
 70
     0
  9
$DIMSD2
 70
     0
  9
$DIMTOLJ
 70
     1
  9
$DIMTZIN
 70
     0
  9
$DIMALTZ
 70
     0
  9
$DIMALTTZ
 70
     0
  9
$DIMUPT
 70
     0
  9
$DIMDEC
 70
     4
  9
$DIMTDEC
 70
     4
  9
$DIMALTU
 70
     2
  9
$DIMALTTD
 70
     2
  9
$DIMTXSTY
  7
Standard
  9
$DIMAUNIT
 70
     0
  9
$DIMADEC
 70
     0
  9
$DIMALTRND
 40
0.0
  9
$DIMAZIN
 70
     0
  9
$DIMDSEP
 70
    46
  9
$DIMATFIT
 70
     3
  9
$DIMFRAC
 70
     0
  9
$DIMLDRBLK
  1

  9
$DIMLUNIT
 70
     2
  9
$DIMLWD
 70
    -2
  9
$DIMLWE
 70
    -2
  9
$DIMTMOVE
 70
     0
  9
$DIMFXL
 40
1.0
  9
$DIMFXLON
 70
     0
  9
$DIMJOGANG
 40
0.7853981633974483
  9
$DIMTFILL
 70
     0
  9
$DIMTFILLCLR
 70
     0
  9
$DIMARCSYM
 70
     0
  9
$DIMLTYPE
  6

  9
$DIMLTEX1
  6

  9
$DIMLTEX2
  6

  9
$DIMTXTDIRECTION
 70
     0
  9
$LUNITS
 70
     2
  9
$LUPREC
 70
     4
  9
$SKETCHINC
 40
0.1
  9
$FILLETRAD
 40
0.0
  9
$AUNITS
 70
     0
  9
$AUPREC
 70
     0
  9
$MENU
  1
.
  9
$ELEVATION
 40
0.0
  9
$PELEVATION
 40
0.0
  9
$THICKNESS
 40
0.0
  9
$LIMCHECK
 70
     0
  9
$CHAMFERA
 40
0.0
  9
$CHAMFERB
 40
0.0
  9
$CHAMFERC
 40
0.0
  9
$CHAMFERD
 40
0.0
  9
$SKPOLY
 70
     0
  9
$TDCREATE
 40
2457589.399852037
  9
$TDUCREATE
 40
2457589.316518704
  9
$TDUPDATE
 40
2457589.399852037
  9
$TDUUPDATE
 40
2457589.316518704
  9
$TDINDWG
 40
0.0000136574
  9
$TDUSRTIMER
 40
0.0000136574
  9
$USRTIMER
 70
     1
  9
$ANGBASE
 50
0.0
  9
$ANGDIR
 70
     0
  9
$PDMODE
 70
     0
  9
$PDSIZE
 40
0.0
  9
$PLINEWID
 40
0.0
  9
$SPLFRAME
 70
     0
  9
$SPLINETYPE
 70
     6
  9
$SPLINESEGS
 70
     8
  9
$HANDSEED
  5
3A1
  9
$SURFTAB1
 70
     6
  9
$SURFTAB2
 70
     6
  9
$SURFTYPE
 70
     6
  9
$SURFU
 70
     6
  9
$SURFV
 70
     6
  9
$UCSBASE
  2

  9
$UCSNAME
  2

  9
$UCSORG
 10
0.0
 20
0.0
 30
0.0
  9
$UCSXDIR
 10
1.0
 20
0.0
 30
0.0
  9
$UCSYDIR
 10
0.0
 20
1.0
 30
0.0
  9
$UCSORTHOREF
  2

  9
$UCSORTHOVIEW
 70
     0
  9
$UCSORGTOP
 10
0.0
 20
0.0
 30
0.0
  9
$UCSORGBOTTOM
 10
0.0
 20
0.0
 30
0.0
  9
$UCSORGLEFT
 10
0.0
 20
0.0
 30
0.0
  9
$UCSORGRIGHT
 10
0.0
 20
0.0
 30
0.0
  9
$UCSORGFRONT
 10
0.0
 20
0.0
 30
0.0
  9
$UCSORGBACK
 10
0.0
 20
0.0
 30
0.0
  9
$PUCSBASE
  2

  9
$PUCSNAME
  2

  9
$PUCSORG
 10
0.0
 20
0.0
 30
0.0
  9
$PUCSXDIR
 10
1.0
 20
0.0
 30
0.0
  9
$PUCSYDIR
 10
0.0
 20
1.0
 30
0.0
  9
$PUCSORTHOREF
  2

  9
$PUCSORTHOVIEW
 70
     0
  9
$PUCSORGTOP
 10
0.0
 20
0.0
 30
0.0
  9
$PUCSORGBOTTOM
 10
0.0
 20
0.0
 30
0.0
  9
$PUCSORGLEFT
 10
0.0
 20
0.0
 30
0.0
  9
$PUCSORGRIGHT
 10
0.0
 20
0.0
 30
0.0
  9
$PUCSORGFRONT
 10
0.0
 20
0.0
 30
0.0
  9
$PUCSORGBACK
 10
0.0
 20
0.0
 30
0.0
  9
$USERI1
 70
     0
  9
$USERI2
 70
     0
  9
$USERI3
 70
     0
  9
$USERI4
 70
     0
  9
$USERI5
 70
     0
  9
$USERR1
 40
0.0
  9
$USERR2
 40
0.0
  9
$USERR3
 40
0.0
  9
$USERR4
 40
0.0
  9
$USERR5
 40
0.0
  9
$WORLDVIEW
 70
     1
  9
$SHADEDGE
 70
     3
  9
$SHADEDIF
 70
    70
  9
$TILEMODE
 70
     1
  9
$MAXACTVP
 70
    64
  9
$PINSBASE
 10
0.0
 20
0.0
 30
0.0
  9
$PLIMCHECK
 70
     0
  9
$PEXTMIN
 10
1.000000000000000E+20
 20
1.000000000000000E+20
 30
1.000000000000000E+20
  9
$PEXTMAX
 10
-1.000000000000000E+20
 20
-1.000000000000000E+20
 30
-1.000000000000000E+20
  9
$PLIMMIN
 10
0.0
 20
0.0
  9
$PLIMMAX
 10
12.0
 20
9.0
  9
$UNITMODE
 70
     0
  9
$VISRETAIN
 70
     1
  9
$PLINEGEN
 70
     0
  9
$PSLTSCALE
 70
     1
  9
$TREEDEPTH
 70
  3020
  9
$CMLSTYLE
  2
Standard
  9
$CMLJUST
 70
     0
  9
$CMLSCALE
 40
1.0
  9
$PROXYGRAPHICS
 70
     1
  9
$MEASUREMENT
 70
     1
  9
$CELWEIGHT
370
    -1
  9
$ENDCAPS
280
     0
  9
$JOINSTYLE
280
     0
  9
$LWDISPLAY
290
     0
  9
$INSUNITS
 70
     4
  9
$HYPERLINKBASE
  1

  9
$STYLESHEET
  1

  9
$XEDIT
290
     1
  9
$CEPSNTYPE
380
     0
  9
$PSTYLEMODE
290
     1
  9
$FINGERPRINTGUID
  2
{A8748AA8-B5B0-49D9-9A0C-1ABED03CA892}
  9
$VERSIONGUID
  2
{52A0496A-06BC-484F-82C3-772BAB9E22A8}
  9
$EXTNAMES
290
     1
  9
$PSVPSCALE
 40
0.0
  9
$OLESTARTUP
290
     0
  9
$SORTENTS
280
   127
  9
$INDEXCTL
280
     0
  9
$HIDETEXT
280
     1
  9
$XCLIPFRAME
280
     2
  9
$HALOGAP
280
     0
  9
$OBSCOLOR
 70
   257
  9
$OBSLTYPE
280
     0
  9
$INTERSECTIONDISPLAY
280
     0
  9
$INTERSECTIONCOLOR
 70
   257
  9
$DIMASSOC
280
     2
  9
$PROJECTNAME
  1

  9
$CAMERADISPLAY
290
     0
  9
$LENSLENGTH
 40
50.0
  9
$CAMERAHEIGHT
 40
0.0
  9
$STEPSPERSEC
 40
2.0
  9
$STEPSIZE
 40
6.0
  9
$3DDWFPREC
 40
2.0
  9
$PSOLWIDTH
 40
0.25
  9
$PSOLHEIGHT
 40
4.0
  9
$LOFTANG1
 40
1.570796326794896
  9
$LOFTANG2
 40
1.570796326794896
  9
$LOFTMAG1
 40
0.0
  9
$LOFTMAG2
 40
0.0
  9
$LOFTPARAM
 70
     7
  9
$LOFTNORMALS
280
     1
  9
$LATITUDE
 40
37.795
  9
$LONGITUDE
 40
-122.394
  9
$NORTHDIRECTION
 40
0.0
  9
$TIMEZONE
 70
 -8000
  9
$LIGHTGLYPHDISPLAY
280
     1
  9
$TILEMODELIGHTSYNCH
280
     1
  9
$CMATERIAL
347
11
  9
$SOLIDHIST
280
     0
  9
$SHOWHIST
280
     1
  9
$DWFFRAME
280
     2
  9
$DGNFRAME
280
     0
  9
$REALWORLDSCALE
290
     1
  9
$INTERFERECOLOR
 62
     1
  9
$INTERFEREOBJVS
345
33
  9
$INTERFEREVPVS
346
30
  9
$CSHADOW
280
     0
  9
$SHADOWPLANELOCATION
 40
0.0
  0
ENDSEC
  0
SECTION
  2
CLASSES
  0
CLASS
  1
ACDBDICTIONARYWDFLT
  2
AcDbDictionaryWithDefault
  3
ObjectDBX Classes
 90
        0
 91
        1
280
     0
281
     0
  0
CLASS
  1
MATERIAL
  2
AcDbMaterial
  3
ObjectDBX Classes
 90
     1153
 91
        3
280
     0
281
     0
  0
CLASS
  1
VISUALSTYLE
  2
AcDbVisualStyle
  3
ObjectDBX Classes
 90
     4095
 91
       24
280
     0
281
     0
  0
CLASS
  1
SCALE
  2
AcDbScale
  3
ObjectDBX Classes
 90
     1153
 91
       17
280
     0
281
     0
  0
CLASS
  1
TABLESTYLE
  2
AcDbTableStyle
  3
ObjectDBX Classes
 90
     4095
 91
        1
280
     0
281
     0
  0
CLASS
  1
MLEADERSTYLE
  2
AcDbMLeaderStyle
  3
ACDB_MLEADERSTYLE_CLASS
 90
     4095
 91
        1
280
     0
281
     0
  0
CLASS
  1
ACDBSECTIONVIEWSTYLE
  2
AcDbSectionViewStyle
  3
ObjectDBX Classes
 90
     1025
 91
        1
280
     0
281
     0
  0
CLASS
  1
ACDBDETAILVIEWSTYLE
  2
AcDbDetailViewStyle
  3
ObjectDBX Classes
 90
     1025
 91
        1
280
     0
281
     0
  0
CLASS
  1
RASTERVARIABLES
  2
AcDbRasterVariables
  3
ISM
 90
        0
 91
        1
280
     0
281
     0
  0
CLASS
  1
DICTIONARYVAR
  2
AcDbDictionaryVar
  3
ObjectDBX Classes
 90
        0
 91
        5
280
     0
281
     0
  0
CLASS
  1
CELLSTYLEMAP
  2
AcDbCellStyleMap
  3
ObjectDBX Classes
 90
     1152
 91
        2
280
     0
281
     0
  0
CLASS
  1
SORTENTSTABLE
  2
AcDbSortentsTable
  3
ObjectDBX Classes
 90
        0
 91
        1
280
     0
281
     0
  0
ENDSEC
  0
SECTION
  2
TABLES
  0
TABLE
  2
VPORT
  5
8
330
0
100
AcDbSymbolTable
 70
     1
  0
VPORT
  5
57
330
8
100
AcDbSymbolTableRecord
100
AcDbViewportTableRecord
  2
*Active
 70
     0
 10
0.0
 20
0.0
 11
1.0
 21
1.0
 12
933.8958402606063
 22
1866.971012242467
 13
0.0
 23
0.0
 14
1.0
 24
1.0
 15
0.0
 25
0.0
 16
0.0
 26
0.0
 36
1.0
 17
0.0
 27
0.0
 37
0.0
 40
510.4502670448271
 41
0.9803835156403906
 42
50.0
 43
0.0
 44
0.0
 50
0.0
 51
0.0
 71
     0
 72
  1000
 73
     1
 74
     1
 75
     0
 76
     0
 77
     0
 78
     0
281
     0
 65
     1
110
0.0
120
0.0
130
0.0
111
1.0
121
0.0
131
0.0
112
0.0
122
1.0
132
0.0
 79
     0
146
0.0
 60
     3
 61
     5
292
     1
282
     1
141
0.0
142
0.0
 63
   250
421
  3355443
  0
ENDTAB
  0
TABLE
  2
LTYPE
  5
5
330
0
100
AcDbSymbolTable
 70
     3
  0
LTYPE
  5
5B
330
5
100
AcDbSymbolTableRecord
100
AcDbLinetypeTableRecord
  2
ByBlock
 70
     0
  3

 72
    65
 73
     0
 40
0.0
  0
LTYPE
  5
5C
330
5
100
AcDbSymbolTableRecord
100
AcDbLinetypeTableRecord
  2
ByLayer
 70
     0
  3

 72
    65
 73
     0
 40
0.0
  0
LTYPE
  5
5D
330
5
100
AcDbSymbolTableRecord
100
AcDbLinetypeTableRecord
  2
Continuous
 70
     0
  3
Solid line
 72
    65
 73
     0
 40
0.0
  0
LTYPE
  5
69
330
5
100
AcDbSymbolTableRecord
100
AcDbLinetypeTableRecord
  2
PHANTOM2
 70
     0
  3
___ _ _ ___ _ _ ___ _ _ ___ _ _
 72
    65
 73
     6
 40
1.25
 49
0.625
 74
     0
 49
-0.125
 74
     0
 49
0.125
 74
     0
 49
-0.125
 74
     0
 49
0.125
 74
     0
 49
-0.125
 74
     0
  0
LTYPE
  5
86
330
5
100
AcDbSymbolTableRecord
100
AcDbLinetypeTableRecord
  2
Nascosto 1_5 mm
 70
     0
  3

 72
    65
 73
     2
 40
2.2
 49
1.5
 74
     0
 49
-0.7000000000000001
 74
     0
  0
ENDTAB
  0
TABLE
  2
LAYER
  5
2
330
0
100
AcDbSymbolTable
 70
     3
  0
LAYER
  5
54
330
2
100
AcDbSymbolTableRecord
100
AcDbLayerTableRecord
  2
0
 70
     0
 62
     7
  6
Continuous
370
    -3
390
F
347
21
348
0
  0
LAYER
  5
85
330
2
100
AcDbSymbolTableRecord
100
AcDbLayerTableRecord
  2
P-SANR-FIXT
 70
     0
 62
     6
  6
Continuous
370
    18
390
F
347
21
348
0
  0
ENDTAB
  0
TABLE
  2
STYLE
  5
3
330
0
100
AcDbSymbolTable
 70
     2
  0
STYLE
  5
55
330
3
100
AcDbSymbolTableRecord
100
AcDbTextStyleTableRecord
  2
Standard
 70
     0
 40
0.0
 41
1.0
 50
0.0
 71
     0
 42
0.2
  3
txt
  4

  0
STYLE
  5
5A
330
3
100
AcDbSymbolTableRecord
100
AcDbTextStyleTableRecord
  2
Annotative
 70
     0
 40
0.0
 41
1.0
 50
0.0
 71
     0
 42
0.2
  3
txt
  4

1001
AcadAnnotative
1000
AnnotativeData
1002
{
1070
     1
1070
     1
1002
}
  0
ENDTAB
  0
TABLE
  2
VIEW
  5
6
330
0
100
AcDbSymbolTable
 70
     0
  0
ENDTAB
  0
TABLE
  2
UCS
  5
7
330
0
100
AcDbSymbolTable
 70
     0
  0
ENDTAB
  0
TABLE
  2
APPID
  5
9
330
0
100
AcDbSymbolTable
 70
     3
  0
APPID
  5
56
330
9
100
AcDbSymbolTableRecord
100
AcDbRegAppTableRecord
  2
ACAD
 70
     0
  0
APPID
  5
5E
330
9
100
AcDbSymbolTableRecord
100
AcDbRegAppTableRecord
  2
AcadAnnotative
 70
     0
  0
APPID
  5
79
330
9
100
AcDbSymbolTableRecord
100
AcDbRegAppTableRecord
  2
REVIT
 70
     0
  0
ENDTAB
  0
TABLE
  2
DIMSTYLE
  5
A
330
0
100
AcDbSymbolTable
 70
     2
100
AcDbDimStyleTable
 71
     0
  0
DIMSTYLE
105
58
330
A
100
AcDbSymbolTableRecord
100
AcDbDimStyleTableRecord
  2
Standard
 70
     0
340
55
  0
DIMSTYLE
105
59
330
A
100
AcDbSymbolTableRecord
100
AcDbDimStyleTableRecord
  2
Annotative
 70
     0
340
55
1001
AcadAnnotative
1000
AnnotativeData
1002
{
1070
     1
1070
     1
1002
}
  0
ENDTAB
  0
TABLE
  2
BLOCK_RECORD
  5
1
330
0
100
AcDbSymbolTable
 70
     4
  0
BLOCK_RECORD
  5
71
102
{ACAD_XDICTIONARY
360
39C
102
}
330
1
100
AcDbSymbolTableRecord
100
AcDbBlockTableRecord
  2
*Model_Space
340
74
 70
     0
280
     1
281
     0
  0
BLOCK_RECORD
  5
6D
330
1
100
AcDbSymbolTableRecord
100
AcDbBlockTableRecord
  2
*Paper_Space
340
70
 70
     0
280
     1
281
     0
  0
BLOCK_RECORD
  5
75
330
1
100
AcDbSymbolTableRecord
100
AcDbBlockTableRecord
  2
*Paper_Space0
340
78
 70
     0
280
     1
281
     0
  0
BLOCK_RECORD
  5
87
330
1
100
AcDbSymbolTableRecord
100
AcDbBlockTableRecord
  2
Automatic flow rate regulator valve_Caleffi_121 DN15 - 1__-928300-Est - Idraulica
340
0
102
{BLKREFS
331
1D2
102
}
 70
     0
280
     1
281
     0
  0
BLOCK_RECORD
  5
1D3
330
1
100
AcDbSymbolTableRecord
100
AcDbBlockTableRecord
  2
Automatic flow rate regulator valve_Caleffi_121 DN15 - 1__-V1-Est - Idraulica
340
0
102
{BLKREFS
331
25C
102
}
 70
     0
280
     1
281
     0
  0
BLOCK_RECORD
  5
25D
330
1
100
AcDbSymbolTableRecord
100
AcDbBlockTableRecord
  2
Automatic flow rate regulator valve_Caleffi_121 DN15 - 1__-V2-Est - Idraulica
340
0
102
{BLKREFS
331
396
102
}
 70
     0
280
     1
281
     0
  0
ENDTAB
  0
ENDSEC
  0
SECTION
  2
BLOCKS
  0
BLOCK
  5
72
330
71
100
AcDbEntity
  8
0
100
AcDbBlockBegin
  2
*Model_Space
 70
     0
 10
0.0
 20
0.0
 30
0.0
  3
*Model_Space
  1

  0
ENDBLK
  5
73
330
71
100
AcDbEntity
  8
0
100
AcDbBlockEnd
  0
BLOCK
  5
6E
330
6D
100
AcDbEntity
 67
     1
  8
0
100
AcDbBlockBegin
  2
*Paper_Space
 70
     0
 10
0.0
 20
0.0
 30
0.0
  3
*Paper_Space
  1

  0
ENDBLK
  5
6F
330
6D
100
AcDbEntity
 67
     1
  8
0
100
AcDbBlockEnd
  0
BLOCK
  5
76
330
75
100
AcDbEntity
 67
     1
  8
0
100
AcDbBlockBegin
  2
*Paper_Space0
 70
     0
 10
0.0
 20
0.0
 30
0.0
  3
*Paper_Space0
  1

  0
ENDBLK
  5
77
330
75
100
AcDbEntity
 67
     1
  8
0
100
AcDbBlockEnd
  0
BLOCK
  5
1D0
330
87
100
AcDbEntity
  8
0
100
AcDbBlockBegin
  2
Automatic flow rate regulator valve_Caleffi_121 DN15 - 1__-928300-Est - Idraulica
 70
     0
 10
0.0
 20
0.0
 30
0.0
  3
Automatic flow rate regulator valve_Caleffi_121 DN15 - 1__-928300-Est - Idraulica
  1

  0
LINE
  5
88
330
87
100
AcDbEntity
  8
P-SANR-FIXT
100
AcDbLine
 10
727.0983792792232
 20
1898.303854235109
 30
0.0
 11
732.3784128332987
 21
1898.303854235109
 31
0.0
  0
LINE
  5
89
330
87
100
AcDbEntity
  8
P-SANR-FIXT
100
AcDbLine
 10
686.2351396645237
 20
1898.303854235109
 30
0.0
 11
691.5151732185986
 21
1898.303854235109
 31
0.0
  0
LINE
  5
8A
330
87
100
AcDbEntity
  8
P-SANR-FIXT
100
AcDbLine
 10
691.5151732185986
 20
1898.303854235109
 30
0.0
 11
693.5471506387663
 21
1898.303854235109
 31
0.0
  0
LINE
  5
8B
330
87
100
AcDbEntity
  8
P-SANR-FIXT
100
AcDbLine
 10
701.8422085389762
 20
1898.303854235109
 30
0.0
 11
704.0267426948357
 21
1898.303854235109
 31
0.0
  0
LINE
  5
8C
330
87
100
AcDbEntity
  8
P-SANR-FIXT
100
AcDbLine
 10
704.0267426948357
 20
1898.303854235109
 30
0.0
 11
714.586809802986
 21
1898.303854235109
 31
0.0
  0
LINE
  5
8D
330
87
100
AcDbEntity
  8
P-SANR-FIXT
100
AcDbLine
 10
714.586809802986
 20
1898.303854235109
 30
0.0
 11
717.2877562522776
 21
1898.303854235109
 31
0.0
  0
LINE
  5
8E
330
87
100
AcDbEntity
  8
P-SANR-FIXT
100
AcDbLine
 10
724.2896930039282
 20
1898.303854235109
 30
0.0
 11
727.0983792792232
 21
1898.303854235109
 31
0.0
  0
LINE
  5
8F
330
87
100
AcDbEntity
  8
P-SANR-FIXT
100
AcDbLine
 10
727.0983792792232
 20
1878.503854235109
 30
0.0
 11
714.586809802986
 21
1878.503854235109
 31
0.0
  0
LINE
  5
90
330
87
100
AcDbEntity
  8
P-SANR-FIXT
100
AcDbLine
 10
714.5868098029861
 20
1878.503854235109
 30
0.0
 11
704.026742694836
 21
1878.503854235109
 31
0.0
  0
LINE
  5
91
330
87
100
AcDbEntity
  8
P-SANR-FIXT
100
AcDbLine
 10
704.0267426948357
 20
1878.503854235109
 30
0.0
 11
691.5151732185986
 21
1878.503854235109
 31
0.0
  0
LINE
  5
92
330
87
100
AcDbEntity
  8
P-SANR-FIXT
100
AcDbLine
 10
691.5151732185988
 20
1878.503854235109
 30
0.0
 11
686.2351396645238
 21
1878.503854235109
 31
0.0
  0
LINE
  5
93
330
87
100
AcDbEntity
  8
P-SANR-FIXT
100
AcDbLine
 10
732.3784128332987
 20
1878.503854235109
 30
0.0
 11
727.0983792792232
 21
1878.503854235109
 31
0.0
  0
LINE
  5
94
330
87
100
AcDbEntity
  8
P-SANR-FIXT
100
AcDbLine
 10
727.0983792792232
 20
1898.303854235109
 30
0.0
 11
727.0983792792232
 21
1878.503854235109
 31
0.0
  0
LINE
  5
95
330
87
100
AcDbEntity
  8
P-SANR-FIXT
100
AcDbLine
 10
732.3784128332987
 20
1878.503854235109
 30
0.0
 11
732.3784128332987
 21
1898.303854235109
 31
0.0
  0
LINE
  5
96
330
87
100
AcDbEntity
  8
P-SANR-FIXT
100
AcDbLine
 10
686.2351396645237
 20
1878.503854235109
 30
0.0
 11
686.2351396645237
 21
1898.303854235109
 31
0.0
  0
LINE
  5
97
330
87
100
AcDbEntity
  8
P-SANR-FIXT
100
AcDbLine
 10
691.5151732185986
 20
1878.503854235109
 30
0.0
 11
691.5151732185986
 21
1898.303854235109
 31
0.0
  0
LINE
  5
98
330
87
100
AcDbEntity
  8
P-SANR-FIXT
100
AcDbLine
 10
704.0267426948357
 20
1878.503854235109
 30
0.0
 11
704.0267426948357
 21
1898.303854235109
 31
0.0
  0
LINE
  5
99
330
87
100
AcDbEntity
  8
P-SANR-FIXT
100
AcDbLine
 10
714.586809802986
 20
1878.503854235109
 30
0.0
 11
714.586809802986
 21
1898.303854235109
 31
0.0
  0
LINE
  5
9A
330
87
100
AcDbEntity
  8
P-SANR-FIXT
100
AcDbLine
 10
727.0983792792232
 20
2121.496145764881
 30
0.0
 11
732.3784128332987
 21
2121.496145764881
 31
0.0
  0
LINE
  5
9B
330
87
100
AcDbEntity
  8
P-SANR-FIXT
100
AcDbLine
 10
686.2351396645237
 20
2121.496145764881
 30
0.0
 11
691.5151732185988
 21
2121.496145764881
 31
0.0
  0
LINE
  5
9C
330
87
100
AcDbEntity
  8
P-SANR-FIXT
100
AcDbLine
 10
691.5151732185988
 20
2121.496145764881
 30
0.0
 11
704.0267426948357
 21
2121.496145764881
 31
0.0
  0
LINE
  5
9D
330
87
100
AcDbEntity
  8
P-SANR-FIXT
100
AcDbLine
 10
704.0267426948357
 20
2121.496145764881
 30
0.0
 11
714.586809802986
 21
2121.496145764881
 31
0.0
  0
LINE
  5
9E
330
87
100
AcDbEntity
  8
P-SANR-FIXT
100
AcDbLine
 10
714.586809802986
 20
2121.496145764881
 30
0.0
 11
727.0983792792232
 21
2121.496145764881
 31
0.0
  0
LINE
  5
9F
330
87
100
AcDbEntity
  8
P-SANR-FIXT
100
AcDbLine
 10
727.0983792792232
 20
2101.696145764881
 30
0.0
 11
724.2896658437999
 21
2101.696145764881
 31
0.0
  0
LINE
  5
A0
330
87
100
AcDbEntity
  8
P-SANR-FIXT
100
AcDbLine
 10
717.2878185209533
 20
2101.696145764881
 30
0.0
 11
714.586809802986
 21
2101.696145764881
 31
0.0
  0
LINE
  5
A1
330
87
100
AcDbEntity
  8
P-SANR-FIXT
100
AcDbLine
 10
714.5868098029861
 20
2101.696145764881
 30
0.0
 11
704.026742694836
 21
2101.696145764881
 31
0.0
  0
LINE
  5
A2
330
87
100
AcDbEntity
  8
P-SANR-FIXT
100
AcDbLine
 10
704.0267426948357
 20
2101.696145764881
 30
0.0
 11
701.8421107416696
 21
2101.696145764881
 31
0.0
  0
LINE
  5
A3
330
87
100
AcDbEntity
  8
P-SANR-FIXT
100
AcDbLine
 10
693.5472749554668
 20
2101.696145764881
 30
0.0
 11
691.5151732185988
 21
2101.696145764881
 31
0.0
  0
LINE
  5
A4
330
87
100
AcDbEntity
  8
P-SANR-FIXT
100
AcDbLine
 10
691.5151732185988
 20
2101.696145764881
 30
0.0
 11
686.2351396645238
 21
2101.696145764881
 31
0.0
  0
LINE
  5
A5
330
87
100
AcDbEntity
  8
P-SANR-FIXT
100
AcDbLine
 10
732.3784128332989
 20
2101.696145764881
 30
0.0
 11
727.0983792792232
 21
2101.696145764881
 31
0.0
  0
LINE
  5
A6
330
87
100
AcDbEntity
  8
P-SANR-FIXT
100
AcDbLine
 10
727.0983792792232
 20
2121.496145764881
 30
0.0
 11
727.0983792792232
 21
2101.696145764881
 31
0.0
  0
LINE
  5
A7
330
87
100
AcDbEntity
  8
P-SANR-FIXT
100
AcDbLine
 10
732.3784128332987
 20
2101.696145764881
 30
0.0
 11
732.3784128332987
 21
2121.496145764881
 31
0.0
  0
LINE
  5
A8
330
87
100
AcDbEntity
  8
P-SANR-FIXT
100
AcDbLine
 10
686.2351396645237
 20
2101.696145764881
 30
0.0
 11
686.2351396645237
 21
2121.496145764881
 31
0.0
  0
LINE
  5
A9
330
87
100
AcDbEntity
  8
P-SANR-FIXT
100
AcDbLine
 10
691.5151732185988
 20
2101.696145764881
 30
0.0
 11
691.5151732185988
 21
2121.496145764881
 31
0.0
  0
LINE
  5
AA
330
87
100
AcDbEntity
  8
P-SANR-FIXT
100
AcDbLine
 10
704.0267426948357
 20
2101.696145764881
 30
0.0
 11
704.0267426948357
 21
2121.496145764881
 31
0.0
  0
LINE
  5
AB
330
87
100
AcDbEntity
  8
P-SANR-FIXT
100
AcDbLine
 10
714.586809802986
 20
2101.696145764881
 30
0.0
 11
714.586809802986
 21
2121.496145764881
 31
0.0
  0
LINE
  5
AC
330
87
100
AcDbEntity
  8
P-SANR-FIXT
100
AcDbLine
 10
734.9362259097091
 20
1954.00063956453
 30
0.0
 11
734.9362259097091
 21
1963.963021962885
 31
0.0
  0
LINE
  5
AD
330
87
100
AcDbEntity
  8
P-SANR-FIXT
100
AcDbLine
 10
683.6773265881157
 20
1964.128437767556
 30
0.0
 11
683.6773265881157
 21
1953.714130986465
 31
0.0
  0
LINE
  5
AE
330
87
100
AcDbEntity
  8
P-SANR-FIXT
100
AcDbLine
 10
683.6773265881157
 20
1953.714130986465
 30
0.0
 11
683.7159491996377
 21
1953.675508374943
 31
0.0
  0
LINE
  5
AF
330
87
100
AcDbEntity
  8
P-SANR-FIXT
100
AcDbLine
 10
683.7182815053002
 20
1953.67317606928
 30
0.0
 11
686.1851385114367
 21
1951.206319063144
 31
0.0
  0
LINE
  5
B0
330
87
100
AcDbEntity
  8
P-SANR-FIXT
100
AcDbLine
 10
732.1419054083234
 20
1951.206319063144
 30
0.0
 11
734.9362259097091
 21
1954.00063956453
 31
0.0
  0
LINE
  5
B1
330
87
100
AcDbEntity
  8
P-SANR-FIXT
100
AcDbLine
 10
686.1635408396077
 20
1965.563854234918
 30
0.0
 11
683.6773265881157
 21
1964.128437767556
 31
0.0
  0
LINE
  5
B2
330
87
100
AcDbEntity
  8
P-SANR-FIXT
100
AcDbLine
 10
734.9362259097091
 20
1963.963021962885
 30
0.0
 11
732.1635030801522
 21
1965.563854234918
 31
0.0
  0
LINE
  5
B3
330
87
100
AcDbEntity
  8
P-SANR-FIXT
100
AcDbLine
 10
686.1635408396064
 20
1965.563854234918
 30
0.0
 11
732.163503080151
 21
1965.563854234918
 31
0.0
  0
LINE
  5
B4
330
87
100
AcDbEntity
  8
P-SANR-FIXT
100
AcDbLine
 10
732.141905408322
 20
1951.206319063143
 30
0.0
 11
686.1851385114355
 21
1951.206319063143
 31
0.0
  0
LINE
  5
B5
330
87
100
AcDbEntity
  8
P-SANR-FIXT
100
AcDbLine
 10
734.772537145951
 20
1963.96354727033
 30
0.0
 11
734.772537145951
 21
1953.999729705345
 31
0.0
  0
SPLINE
  5
B6
330
87
100
AcDbEntity
  8
P-SANR-FIXT
100
AcDbSpline
210
0.0
220
0.0
230
1.0
 70
     8
 71
     3
 72
     9
 73
     5
 74
     0
 42
0.000000001
 43
0.0000000001
 40
0.0
 40
0.0
 40
0.0
 40
0.0
 40
0.5
 40
1.0
 40
1.0
 40
1.0
 40
1.0
 10
734.772537145951
 20
1953.999729705345
 30
0.0
 10
734.8270419074683
 20
1954.000032871807
 30
0.0
 10
734.9089080762507
 20
1954.000487681466
 30
0.0
 10
734.9362259097078
 20
1954.000639444596
 30
0.0
 10
734.9362259097078
 20
1954.000639564529
 30
0.0
  0
ELLIPSE
  5
B7
330
87
100
AcDbEntity
  8
P-SANR-FIXT
100
AcDbEllipse
 10
709.3070385205778
 20
1964.045205848277
 30
0.0
 11
-25.62918738912993
 21
0.0821838853921718
 31
0.0
210
0.0
220
0.0
230
1.0
 40
0.000001
 41
3.1415926543302
 42
3.254673278330082
  0
ELLIPSE
  5
B8
330
87
100
AcDbEntity
  8
P-SANR-FIXT
100
AcDbEllipse
 10
709.3059717621688
 20
1953.85806581504
 30
0.0
 11
25.62864517405444
 21
0.1439348285757085
 31
0.0
210
0.0
220
0.0
230
0.9999999999999998
 40
0.000001
 41
3.085051693658408
 42
3.141592662233421
  0
ELLIPSE
  5
B9
330
87
100
AcDbEntity
  8
P-SANR-FIXT
100
AcDbEllipse
 10
709.3059717621688
 20
1953.85806581504
 30
0.0
 11
25.6286451740544
 21
0.1439348285757083
 31
0.0
210
0.0
220
0.0
230
1.0
 40
0.000001
 41
3.028510788967559
 42
3.085051703690838
  0
ELLIPSE
  5
BA
330
87
100
AcDbEntity
  8
P-SANR-FIXT
100
AcDbEllipse
 10
709.3065075068998
 20
1964.04515829588
 30
0.0
 11
-25.62918091878544
 21
0.0832794716756252
 31
0.0
210
0.0
220
0.0
230
0.9999999999999998
 40
0.000001
 41
6.170104608316585
 42
6.226644946618503
  0
ELLIPSE
  5
BB
330
87
100
AcDbEntity
  8
P-SANR-FIXT
100
AcDbEllipse
 10
709.3065075068998
 20
1964.04515829588
 30
0.0
 11
-25.62918091878549
 21
0.08327947167554
 31
0.0
210
0.0
220
0.0
230
1.0
 40
0.000001
 41
6.226644958354513
 42
6.283185314257362
  0
LINE
  5
BC
330
87
100
AcDbEntity
  8
P-SANR-FIXT
100
AcDbLine
 10
683.8410153518709
 20
1953.715051041179
 30
0.0
 11
683.8410153518709
 21
1964.127906573718
 31
0.0
  0
SPLINE
  5
BD
330
87
100
AcDbEntity
  8
P-SANR-FIXT
100
AcDbSpline
210
0.0
220
0.0
230
1.0
 70
     8
 71
     3
 72
    10
 73
     6
 74
     0
 42
0.000000001
 43
0.0000000001
 40
0.0
 40
0.0
 40
0.0
 40
0.0
 40
0.3333333333333333
 40
0.6666666666666666
 40
1.0
 40
1.0
 40
1.0
 40
1.0
 10
683.8410153518709
 20
1953.715051041179
 30
0.0
 10
684.9684638056361
 20
1952.773131478646
 30
0.0
 10
687.2303702256827
 20
1951.521779003045
 30
0.0
 10
690.7242785126475
 20
1951.565421197109
 30
0.0
 10
692.9608762365281
 20
1952.82854134666
 30
0.0
 10
694.0693431681686
 20
1953.772476252991
 30
0.0
  0
SPLINE
  5
BE
330
87
100
AcDbEntity
  8
P-SANR-FIXT
100
AcDbSpline
210
0.0
220
0.0
230
1.0
 70
     8
 71
     3
 72
     9
 73
     5
 74
     0
 42
0.000000001
 43
0.0000000001
 40
0.0
 40
0.0
 40
0.0
 40
0.0
 40
0.5
 40
1.0
 40
1.0
 40
1.0
 40
1.0
 10
694.0693431681686
 20
1964.09475211222
 30
0.0
 10
692.3881732808362
 20
1964.923755193137
 30
0.0
 10
689.0022820907874
 20
1965.758284017636
 30
0.0
 10
685.5692880699709
 20
1964.945858167468
 30
0.0
 10
683.8410153518709
 20
1964.127906573718
 30
0.0
  0
LINE
  5
BF
330
87
100
AcDbEntity
  8
P-SANR-FIXT
100
AcDbLine
 10
694.0693431681686
 20
1953.772476252991
 30
0.0
 11
694.0693431681686
 21
1964.09475211222
 31
0.0
  0
SPLINE
  5
C0
330
87
100
AcDbEntity
  8
P-SANR-FIXT
100
AcDbSpline
210
0.0
220
0.0
230
1.0
 70
     8
 71
     3
 72
     8
 73
     4
 74
     0
 42
0.000000001
 43
0.0000000001
 40
0.0
 40
0.0
 40
0.0
 40
0.0
 40
0.4999999739573635
 40
0.4999999739573635
 40
0.4999999739573635
 40
0.4999999739573635
 10
694.0693431681686
 20
1953.772476252991
 30
0.0
 10
694.8461287133282
 20
1953.776852331649
 30
0.0
 10
695.6554212271919
 20
1953.781380015223
 30
0.0
 10
696.4920528320192
 20
1953.786059303715
 30
0.0
  0
SPLINE
  5
C1
330
87
100
AcDbEntity
  8
P-SANR-FIXT
100
AcDbSpline
210
0.0
220
0.0
230
1.0
 70
     8
 71
     3
 72
     8
 73
     4
 74
     0
 42
0.000000001
 43
0.0000000001
 40
0.5
 40
0.5
 40
0.5
 40
0.5
 40
1.0
 40
1.0
 40
1.0
 40
1.0
 10
696.4920529627477
 20
1953.786059304446
 30
0.0
 10
697.3286846139991
 20
1953.790738593197
 30
0.0
 10
698.1926553587926
 20
1953.795569486881
 30
0.0
 10
699.0784484326134
 20
1953.800551985498
 30
0.0
  0
SPLINE
  5
C2
330
87
100
AcDbEntity
  8
P-SANR-FIXT
100
AcDbSpline
210
0.0
220
0.0
230
1.0
 70
     8
 71
     3
 72
     8
 73
     4
 74
     0
 42
0.000000001
 43
0.0000000001
 40
0.0
 40
0.0
 40
0.0
 40
0.0
 40
0.5
 40
0.5
 40
0.5
 40
0.5
 10
699.0784484326134
 20
1964.0785425805
 30
0.0
 10
698.192654459138
 20
1964.081419230167
 30
0.0
 10
697.3286833117342
 20
1964.084208349311
 30
0.0
 10
696.4920516881615
 20
1964.086909937931
 30
0.0
  0
SPLINE
  5
C3
330
87
100
AcDbEntity
  8
P-SANR-FIXT
100
AcDbSpline
210
0.0
220
0.0
230
1.0
 70
     8
 71
     3
 72
     8
 73
     4
 74
     0
 42
0.000000001
 43
0.0000000001
 40
0.5000000260424404
 40
0.5000000260424404
 40
0.5000000260424404
 40
0.5000000260424404
 40
1.0
 40
1.0
 40
1.0
 40
1.0
 10
696.4920515574341
 20
1964.086909938353
 30
0.0
 10
695.6554199802853
 20
1964.089611526824
 30
0.0
 10
694.8461279243891
 20
1964.092225584779
 30
0.0
 10
694.0693431681686
 20
1964.09475211222
 30
0.0
  0
LINE
  5
C4
330
87
100
AcDbEntity
  8
P-SANR-FIXT
100
AcDbLine
 10
699.0784484326134
 20
1953.800551985498
 30
0.0
 11
699.0784484326134
 21
1964.0785425805
 31
0.0
  0
SPLINE
  5
C5
330
87
100
AcDbEntity
  8
P-SANR-FIXT
100
AcDbSpline
210
0.0
220
0.0
230
1.0
 70
     8
 71
     3
 72
    10
 73
     6
 74
     0
 42
0.000000001
 43
0.0000000001
 40
0.0
 40
0.0
 40
0.0
 40
0.0
 40
0.3333333333333333
 40
0.6666666666666666
 40
1.0
 40
1.0
 40
1.0
 40
1.0
 10
699.0784484326134
 20
1953.800551985498
 30
0.0
 10
701.3359789992128
 20
1952.868347903405
 30
0.0
 10
705.8632648103801
 20
1951.634227306357
 30
0.0
 10
712.8477832772771
 20
1951.70214304569
 30
0.0
 10
717.3193573228241
 20
1952.970350094864
 30
0.0
 10
719.5351040652084
 20
1953.914891747439
 30
0.0
  0
SPLINE
  5
C6
330
87
100
AcDbEntity
  8
P-SANR-FIXT
100
AcDbSpline
210
0.0
220
0.0
230
1.0
 70
     8
 71
     3
 72
     9
 73
     5
 74
     0
 42
0.000000001
 43
0.0000000001
 40
0.0
 40
0.0
 40
0.0
 40
0.0
 40
0.5
 40
1.0
 40
1.0
 40
1.0
 40
1.0
 10
719.5351040652084
 20
1964.012528488164
 30
0.0
 10
716.1732361324975
 20
1964.842908751839
 30
0.0
 10
709.4019255943543
 20
1965.684291364236
 30
0.0
 10
702.5354657107677
 20
1964.886918146729
 30
0.0
 10
699.0784484326134
 20
1964.0785425805
 30
0.0
  0
LINE
  5
C7
330
87
100
AcDbEntity
  8
P-SANR-FIXT
100
AcDbLine
 10
719.5351040652084
 20
1953.914891747439
 30
0.0
 11
719.5351040652084
 21
1964.012528488164
 31
0.0
  0
SPLINE
  5
C8
330
87
100
AcDbEntity
  8
P-SANR-FIXT
100
AcDbSpline
210
0.0
220
0.0
230
1.0
 70
     8
 71
     3
 72
     9
 73
     5
 74
     0
 42
0.000000001
 43
0.0000000001
 40
0.0
 40
0.0
 40
0.0
 40
0.0
 40
0.5
 40
1.0
 40
1.0
 40
1.0
 40
1.0
 10
719.5351040652084
 20
1953.914891747439
 30
0.0
 10
720.4208966153547
 20
1953.919851721398
 30
0.0
 10
722.1488376362363
 20
1953.929465069101
 30
0.0
 10
723.7674232848062
 20
1953.938465216373
 30
0.0
 10
724.5442093296539
 20
1953.942811989903
 30
0.0
  0
SPLINE
  5
C9
330
87
100
AcDbEntity
  8
P-SANR-FIXT
100
AcDbSpline
210
0.0
220
0.0
230
1.0
 70
     8
 71
     3
 72
     9
 73
     5
 74
     0
 42
0.000000001
 43
0.0000000001
 40
0.0
 40
0.0
 40
0.0
 40
0.0
 40
0.5
 40
1.0
 40
1.0
 40
1.0
 40
1.0
 10
724.5442093296539
 20
1963.996408728662
 30
0.0
 10
723.767424078149
 20
1963.99891833678
 30
0.0
 10
722.1488393506273
 20
1964.004114571482
 30
0.0
 10
720.4208975200309
 20
1964.009664843115
 30
0.0
 10
719.5351040652084
 20
1964.012528488164
 30
0.0
  0
SPLINE
  5
CA
330
87
100
AcDbEntity
  8
P-SANR-FIXT
100
AcDbSpline
210
0.0
220
0.0
230
1.0
 70
     8
 71
     3
 72
     9
 73
     5
 74
     0
 42
0.000000001
 43
0.0000000001
 40
0.0
 40
0.0
 40
0.0
 40
0.0
 40
0.5
 40
1.0
 40
1.0
 40
1.0
 40
1.0
 10
734.772537145951
 20
1963.96354727033
 30
0.0
 10
733.0449130647588
 20
1964.784732814732
 30
0.0
 10
729.6125676808502
 20
1965.611395268855
 30
0.0
 10
726.2260278538938
 20
1964.806640453619
 30
0.0
 10
724.5442093296539
 20
1963.996408728662
 30
0.0
  0
LINE
  5
CB
330
87
100
AcDbEntity
  8
P-SANR-FIXT
100
AcDbLine
 10
724.5442093296539
 20
1953.942811989903
 30
0.0
 11
724.5442093296539
 21
1963.996408728662
 31
0.0
  0
SPLINE
  5
CC
330
87
100
AcDbEntity
  8
P-SANR-FIXT
100
AcDbSpline
210
0.0
220
0.0
230
1.0
 70
     8
 71
     3
 72
    10
 73
     6
 74
     0
 42
0.000000001
 43
0.0000000001
 40
0.0
 40
0.0
 40
0.0
 40
0.0
 40
0.3333333333333333
 40
0.6666666666666666
 40
1.0
 40
1.0
 40
1.0
 40
1.0
 10
724.5442093296539
 20
1953.942811989903
 30
0.0
 10
725.6564627297172
 20
1953.017509796731
 30
0.0
 10
727.8980416218542
 20
1951.787849108147
 30
0.0
 10
731.3861823945893
 20
1951.794803963107
 30
0.0
 10
733.6463455491045
 20
1953.056508202519
 30
0.0
 10
734.772537145951
 20
1953.999729705345
 30
0.0
  0
LINE
  5
CD
330
87
100
AcDbEntity
  8
P-SANR-FIXT
100
AcDbLine
 10
734.9362259097091
 20
2036.036978037106
 30
0.0
 11
734.9362259097091
 21
2045.999360435462
 31
0.0
  0
LINE
  5
CE
330
87
100
AcDbEntity
  8
P-SANR-FIXT
100
AcDbLine
 10
683.6773265881157
 20
2046.285869013527
 30
0.0
 11
683.6773265881157
 21
2035.871562232435
 31
0.0
  0
LINE
  5
CF
330
87
100
AcDbEntity
  8
P-SANR-FIXT
100
AcDbLine
 10
686.1851385114373
 20
2048.793680936848
 30
0.0
 11
683.7182815053002
 21
2046.326823930711
 31
0.0
  0
LINE
  5
D0
330
87
100
AcDbEntity
  8
P-SANR-FIXT
100
AcDbLine
 10
683.7159491996377
 20
2046.324491625048
 30
0.0
 11
683.6773265881157
 21
2046.285869013527
 31
0.0
  0
LINE
  5
D1
330
87
100
AcDbEntity
  8
P-SANR-FIXT
100
AcDbLine
 10
734.9362259097091
 20
2045.999360435462
 30
0.0
 11
732.141905408323
 21
2048.793680936848
 31
0.0
  0
LINE
  5
D2
330
87
100
AcDbEntity
  8
P-SANR-FIXT
100
AcDbLine
 10
683.6773265881157
 20
2035.871562232435
 30
0.0
 11
686.1635408396074
 21
2034.436145765074
 31
0.0
  0
LINE
  5
D3
330
87
100
AcDbEntity
  8
P-SANR-FIXT
100
AcDbLine
 10
732.1635030801528
 20
2034.436145765074
 30
0.0
 11
734.9362259097091
 21
2036.036978037106
 31
0.0
  0
LINE
  5
D4
330
87
100
AcDbEntity
  8
P-SANR-FIXT
100
AcDbLine
 10
686.1851385114359
 20
2048.793680936847
 30
0.0
 11
732.1419054083215
 21
2048.793680936847
 31
0.0
  0
LINE
  5
D5
330
87
100
AcDbEntity
  8
P-SANR-FIXT
100
AcDbLine
 10
732.1635030801513
 20
2034.436145765073
 30
0.0
 11
686.1635408396059
 21
2034.436145765073
 31
0.0
  0
LINE
  5
D6
330
87
100
AcDbEntity
  8
P-SANR-FIXT
100
AcDbLine
 10
734.772537145951
 20
2046.000270294645
 30
0.0
 11
734.772537145951
 21
2036.036452729661
 31
0.0
  0
ELLIPSE
  5
D7
330
87
100
AcDbEntity
  8
P-SANR-FIXT
100
AcDbEllipse
 10
709.3070390820458
 20
2035.954619196385
 30
0.0
 11
25.62918682766189
 21
0.0823588407197345
 31
0.0
210
0.0
220
0.0
230
0.9999999999999998
 40
0.000001
 41
0.0000000000601547
 42
0.1130807206976222
  0
ELLIPSE
  5
D8
330
87
100
AcDbEntity
  8
P-SANR-FIXT
100
AcDbEllipse
 10
709.3075630476652
 20
2046.141704177939
 30
0.0
 11
-25.62866286204258
 21
0.1423437424780616
 31
0.0
210
0.0
220
0.0
230
1.0
 40
0.000001
 41
3.14159265805621
 42
3.254674472382802
  0
ELLIPSE
  5
D9
330
87
100
AcDbEntity
  8
P-SANR-FIXT
100
AcDbEllipse
 10
709.3065080810045
 20
2035.954664789043
 30
0.0
 11
25.6291814928901
 21
0.0831025566088118
 31
0.0
210
0.0
220
0.0
230
1.0
 40
0.000001
 41
3.085052382124352
 42
3.141592641309321
  0
ELLIPSE
  5
DA
330
87
100
AcDbEntity
  8
P-SANR-FIXT
100
AcDbEllipse
 10
709.3065080810045
 20
2035.954664789043
 30
0.0
 11
25.6291814928901
 21
0.0831025566088118
 31
0.0
210
0.0
220
0.0
230
1.0
 40
0.000001
 41
3.028511982942754
 42
3.085052359621953
  0
SPLINE
  5
DB
330
87
100
AcDbEntity
  8
P-SANR-FIXT
100
AcDbSpline
210
0.0
220
0.0
230
1.0
 70
     8
 71
     3
 72
     8
 73
     4
 74
     0
 42
0.000000001
 43
0.0000000001
 40
0.0
 40
0.0
 40
0.0
 40
0.0
 40
0.5
 40
0.5
 40
0.5
 40
0.5
 10
683.8410153518709
 20
2046.284948958811
 30
0.0
 10
683.7865105902153
 20
2046.285255518317
 30
0.0
 10
683.7455775058241
 20
2046.285485469296
 30
0.0
 10
683.7182815052988
 20
2046.285638811749
 30
0.0
  0
SPLINE
  5
DC
330
87
100
AcDbEntity
  8
P-SANR-FIXT
100
AcDbSpline
210
0.0
220
0.0
230
1.0
 70
     8
 71
     3
 72
     8
 73
     4
 74
     0
 42
0.000000001
 43
0.0000000001
 40
0.5000000126812829
 40
0.5000000126812829
 40
0.5000000126812829
 40
0.5000000126812829
 40
1.0
 40
1.0
 40
1.0
 40
1.0
 10
683.7182815032221
 20
2046.285638811761
 30
0.0
 10
683.6909855040808
 20
2046.285792154205
 30
0.0
 10
683.6773265881143
 20
2046.285868888127
 30
0.0
 10
683.6773265881143
 20
2046.285869013526
 30
0.0
  0
LINE
  5
DD
330
87
100
AcDbEntity
  8
P-SANR-FIXT
100
AcDbLine
 10
683.8410153518709
 20
2035.872093426272
 30
0.0
 11
683.8410153518709
 21
2046.284948958811
 31
0.0
  0
SPLINE
  5
DE
330
87
100
AcDbEntity
  8
P-SANR-FIXT
100
AcDbSpline
210
0.0
220
0.0
230
1.0
 70
     8
 71
     3
 72
     9
 73
     5
 74
     0
 42
0.000000001
 43
0.0000000001
 40
0.0
 40
0.0
 40
0.0
 40
0.0
 40
0.5
 40
1.0
 40
1.0
 40
1.0
 40
1.0
 10
683.8410153518709
 20
2035.872093426272
 30
0.0
 10
685.569288069971
 20
2035.054141832521
 30
0.0
 10
689.0022820907874
 20
2034.241715982354
 30
0.0
 10
692.3881732808362
 20
2035.076244806854
 30
0.0
 10
694.0693431681686
 20
2035.90524788777
 30
0.0
  0
SPLINE
  5
DF
330
87
100
AcDbEntity
  8
P-SANR-FIXT
100
AcDbSpline
210
0.0
220
0.0
230
1.0
 70
     8
 71
     3
 72
    10
 73
     6
 74
     0
 42
0.000000001
 43
0.0000000001
 40
0.0
 40
0.0
 40
0.0
 40
0.0
 40
0.3333333333333333
 40
0.6666666666666666
 40
1.0
 40
1.0
 40
1.0
 40
1.0
 10
694.0693431681686
 20
2046.227523746999
 30
0.0
 10
692.9608762365281
 20
2047.17145865333
 30
0.0
 10
690.7242785126475
 20
2048.434578802881
 30
0.0
 10
687.2303702256827
 20
2048.478220996944
 30
0.0
 10
684.9684638056361
 20
2047.226868521343
 30
0.0
 10
683.8410153518709
 20
2046.284948958811
 30
0.0
  0
LINE
  5
E0
330
87
100
AcDbEntity
  8
P-SANR-FIXT
100
AcDbLine
 10
694.0693431681686
 20
2035.90524788777
 30
0.0
 11
694.0693431681686
 21
2046.227523746999
 31
0.0
  0
SPLINE
  5
E1
330
87
100
AcDbEntity
  8
P-SANR-FIXT
100
AcDbSpline
210
0.0
220
0.0
230
1.0
 70
     8
 71
     3
 72
     8
 73
     4
 74
     0
 42
0.000000001
 43
0.0000000001
 40
0.0
 40
0.0
 40
0.0
 40
0.0
 40
0.4999999739575597
 40
0.4999999739575597
 40
0.4999999739575597
 40
0.4999999739575597
 10
694.0693431681686
 20
2035.90524788777
 30
0.0
 10
694.8461279243891
 20
2035.90777441521
 30
0.0
 10
695.6554199802853
 20
2035.910388473166
 30
0.0
 10
696.4920515574341
 20
2035.913090061637
 30
0.0
  0
SPLINE
  5
E2
330
87
100
AcDbEntity
  8
P-SANR-FIXT
100
AcDbSpline
210
0.0
220
0.0
230
1.0
 70
     8
 71
     3
 72
     8
 73
     4
 74
     0
 42
0.000000001
 43
0.0000000001
 40
0.5
 40
0.5
 40
0.5
 40
0.5
 40
1.0
 40
1.0
 40
1.0
 40
1.0
 10
696.4920516881615
 20
2035.913090062059
 30
0.0
 10
697.3286833117342
 20
2035.915791650678
 30
0.0
 10
698.192654459138
 20
2035.918580769822
 30
0.0
 10
699.0784484326134
 20
2035.92145741949
 30
0.0
  0
SPLINE
  5
E3
330
87
100
AcDbEntity
  8
P-SANR-FIXT
100
AcDbSpline
210
0.0
220
0.0
230
1.0
 70
     8
 71
     3
 72
     8
 73
     4
 74
     0
 42
0.000000001
 43
0.0000000001
 40
0.0
 40
0.0
 40
0.0
 40
0.0
 40
0.5
 40
0.5
 40
0.5
 40
0.5
 10
699.0784484326134
 20
2046.199448014492
 30
0.0
 10
698.1926553587926
 20
2046.204430513109
 30
0.0
 10
697.3286846139991
 20
2046.209261406793
 30
0.0
 10
696.4920529627477
 20
2046.213940695544
 30
0.0
  0
SPLINE
  5
E4
330
87
100
AcDbEntity
  8
P-SANR-FIXT
100
AcDbSpline
210
0.0
220
0.0
230
1.0
 70
     8
 71
     3
 72
     8
 73
     4
 74
     0
 42
0.000000001
 43
0.0000000001
 40
0.5000000260426365
 40
0.5000000260426365
 40
0.5000000260426365
 40
0.5000000260426365
 40
1.0
 40
1.0
 40
1.0
 40
1.0
 10
696.4920528320192
 20
2046.213940696276
 30
0.0
 10
695.6554212271919
 20
2046.218619984767
 30
0.0
 10
694.8461287133282
 20
2046.223147668341
 30
0.0
 10
694.0693431681686
 20
2046.227523746999
 30
0.0
  0
LINE
  5
E5
330
87
100
AcDbEntity
  8
P-SANR-FIXT
100
AcDbLine
 10
699.0784484326134
 20
2035.92145741949
 30
0.0
 11
699.0784484326134
 21
2046.199448014492
 31
0.0
  0
SPLINE
  5
E6
330
87
100
AcDbEntity
  8
P-SANR-FIXT
100
AcDbSpline
210
0.0
220
0.0
230
1.0
 70
     8
 71
     3
 72
     9
 73
     5
 74
     0
 42
0.000000001
 43
0.0000000001
 40
0.0
 40
0.0
 40
0.0
 40
0.0
 40
0.5
 40
1.0
 40
1.0
 40
1.0
 40
1.0
 10
699.0784484326134
 20
2035.92145741949
 30
0.0
 10
702.5354657107677
 20
2035.113081853261
 30
0.0
 10
709.4019255943543
 20
2034.315708635754
 30
0.0
 10
716.1732361324975
 20
2035.157091248152
 30
0.0
 10
719.5351040652084
 20
2035.987471511826
 30
0.0
  0
SPLINE
  5
E7
330
87
100
AcDbEntity
  8
P-SANR-FIXT
100
AcDbSpline
210
0.0
220
0.0
230
1.0
 70
     8
 71
     3
 72
    10
 73
     6
 74
     0
 42
0.000000001
 43
0.0000000001
 40
0.0
 40
0.0
 40
0.0
 40
0.0
 40
0.3333333333333333
 40
0.6666666666666666
 40
1.0
 40
1.0
 40
1.0
 40
1.0
 10
719.5351040652084
 20
2046.085108252551
 30
0.0
 10
717.3193573228241
 20
2047.029649905125
 30
0.0
 10
712.847783277277
 20
2048.297856954301
 30
0.0
 10
705.86326481038
 20
2048.365772693633
 30
0.0
 10
701.3359789992129
 20
2047.131652096584
 30
0.0
 10
699.0784484326135
 20
2046.199448014492
 30
0.0
  0
LINE
  5
E8
330
87
100
AcDbEntity
  8
P-SANR-FIXT
100
AcDbLine
 10
719.5351040652084
 20
2035.987471511826
 30
0.0
 11
719.5351040652084
 21
2046.085108252551
 31
0.0
  0
SPLINE
  5
E9
330
87
100
AcDbEntity
  8
P-SANR-FIXT
100
AcDbSpline
210
0.0
220
0.0
230
1.0
 70
     8
 71
     3
 72
     9
 73
     5
 74
     0
 42
0.000000001
 43
0.0000000001
 40
0.0
 40
0.0
 40
0.0
 40
0.0
 40
0.5
 40
1.0
 40
1.0
 40
1.0
 40
1.0
 10
719.5351040652084
 20
2035.987471511826
 30
0.0
 10
720.4208975200309
 20
2035.990335156875
 30
0.0
 10
722.1488393506273
 20
2035.995885428508
 30
0.0
 10
723.767424078149
 20
2036.00108166321
 30
0.0
 10
724.5442093296539
 20
2036.003591271328
 30
0.0
  0
SPLINE
  5
EA
330
87
100
AcDbEntity
  8
P-SANR-FIXT
100
AcDbSpline
210
0.0
220
0.0
230
1.0
 70
     8
 71
     3
 72
     9
 73
     5
 74
     0
 42
0.000000001
 43
0.0000000001
 40
0.0
 40
0.0
 40
0.0
 40
0.0
 40
0.5
 40
1.0
 40
1.0
 40
1.0
 40
1.0
 10
724.5442093296539
 20
2046.057188010087
 30
0.0
 10
723.7674232848062
 20
2046.061534783616
 30
0.0
 10
722.1488376362363
 20
2046.070534930889
 30
0.0
 10
720.4208966153547
 20
2046.080148278592
 30
0.0
 10
719.5351040652084
 20
2046.085108252551
 30
0.0
  0
SPLINE
  5
EB
330
87
100
AcDbEntity
  8
P-SANR-FIXT
100
AcDbSpline
210
0.0
220
0.0
230
1.0
 70
     8
 71
     3
 72
    10
 73
     6
 74
     0
 42
0.000000001
 43
0.0000000001
 40
0.0
 40
0.0
 40
0.0
 40
0.0
 40
0.3333333333333333
 40
0.6666666666666666
 40
1.0
 40
1.0
 40
1.0
 40
1.0
 10
734.772537145951
 20
2046.000270294645
 30
0.0
 10
733.6463455491045
 20
2046.943491797471
 30
0.0
 10
731.3861823945893
 20
2048.205196036883
 30
0.0
 10
727.8980416218542
 20
2048.212150891842
 30
0.0
 10
725.6564627297172
 20
2046.982490203259
 30
0.0
 10
724.5442093296539
 20
2046.057188010087
 30
0.0
  0
LINE
  5
EC
330
87
100
AcDbEntity
  8
P-SANR-FIXT
100
AcDbLine
 10
724.5442093296539
 20
2036.003591271328
 30
0.0
 11
724.5442093296539
 21
2046.057188010087
 31
0.0
  0
SPLINE
  5
ED
330
87
100
AcDbEntity
  8
P-SANR-FIXT
100
AcDbSpline
210
0.0
220
0.0
230
1.0
 70
     8
 71
     3
 72
     9
 73
     5
 74
     0
 42
0.000000001
 43
0.0000000001
 40
0.0
 40
0.0
 40
0.0
 40
0.0
 40
0.5
 40
1.0
 40
1.0
 40
1.0
 40
1.0
 10
724.5442093296539
 20
2036.003591271328
 30
0.0
 10
726.2260278538938
 20
2035.19335954637
 30
0.0
 10
729.6125676808502
 20
2034.388604731135
 30
0.0
 10
733.0449130647588
 20
2035.215267185258
 30
0.0
 10
734.772537145951
 20
2036.036452729661
 30
0.0
  0
LINE
  5
EE
330
87
100
AcDbEntity
  8
P-SANR-FIXT
100
AcDbLine
 10
688.2635030800389
 20
2034.436145765073
 30
0.0
 11
688.2635030800389
 21
2033.499999999996
 31
0.0
  0
LINE
  5
EF
330
87
100
AcDbEntity
  8
P-SANR-FIXT
100
AcDbLine
 10
730.0635030800373
 20
2033.499999999996
 30
0.0
 11
730.0635030800373
 21
2034.436145765074
 31
0.0
  0
LINE
  5
F0
330
87
100
AcDbEntity
  8
P-SANR-FIXT
100
AcDbLine
 10
685.0109371872751
 20
2033.499999999996
 30
0.0
 11
685.0109371872751
 21
2031.000000000059
 31
0.0
  0
LINE
  5
F1
330
87
100
AcDbEntity
  8
P-SANR-FIXT
100
AcDbLine
 10
733.3160689728012
 20
2031.000000000059
 30
0.0
 11
733.3160689728012
 21
2033.499999999996
 31
0.0
  0
LINE
  5
F2
330
87
100
AcDbEntity
  8
P-SANR-FIXT
100
AcDbLine
 10
685.0109371872751
 20
2031.000000000059
 30
0.0
 11
685.5692368023694
 21
2030.441700384964
 31
0.0
  0
LINE
  5
F3
330
87
100
AcDbEntity
  8
P-SANR-FIXT
100
AcDbLine
 10
732.7577693577069
 20
2030.441700384964
 30
0.0
 11
733.3160689728011
 21
2031.000000000059
 31
0.0
  0
LINE
  5
F4
330
87
100
AcDbEntity
  8
P-SANR-FIXT
100
AcDbLine
 10
690.6635030799746
 20
2030.441700384964
 30
0.0
 11
690.6635030799746
 21
2025.956058729361
 31
0.0
  0
LINE
  5
F5
330
87
100
AcDbEntity
  8
P-SANR-FIXT
100
AcDbLine
 10
727.6635030801018
 20
2025.956058729361
 30
0.0
 11
727.6635030801018
 21
2030.441700384964
 31
0.0
  0
LINE
  5
F6
330
87
100
AcDbEntity
  8
P-SANR-FIXT
100
AcDbLine
 10
690.6635030799748
 20
2025.956058729361
 30
0.0
 11
690.6635030799748
 21
1999.999999999997
 31
0.0
  0
LINE
  5
F7
330
87
100
AcDbEntity
  8
P-SANR-FIXT
100
AcDbLine
 10
690.6635030799746
 20
1999.999999999995
 30
0.0
 11
690.6635030799746
 21
1974.043941270631
 31
0.0
  0
LINE
  5
F8
330
87
100
AcDbEntity
  8
P-SANR-FIXT
100
AcDbLine
 10
690.6635030799748
 20
1974.043941270631
 30
0.0
 11
690.6635030799748
 21
1969.558299615027
 31
0.0
  0
LINE
  5
F9
330
87
100
AcDbEntity
  8
P-SANR-FIXT
100
AcDbLine
 10
727.6635030801019
 20
1969.558299615027
 30
0.0
 11
727.6635030801019
 21
1974.043941270631
 31
0.0
  0
LINE
  5
FA
330
87
100
AcDbEntity
  8
P-SANR-FIXT
100
AcDbLine
 10
685.5692368023698
 20
1969.558299615027
 30
0.0
 11
685.0109371872754
 21
1968.999999999933
 31
0.0
  0
LINE
  5
FB
330
87
100
AcDbEntity
  8
P-SANR-FIXT
100
AcDbLine
 10
733.3160689728011
 20
1968.999999999933
 30
0.0
 11
732.7577693577069
 21
1969.558299615027
 31
0.0
  0
LINE
  5
FC
330
87
100
AcDbEntity
  8
P-SANR-FIXT
100
AcDbLine
 10
685.0109371872751
 20
1968.999999999933
 30
0.0
 11
685.0109371872751
 21
1966.499999999995
 31
0.0
  0
LINE
  5
FD
330
87
100
AcDbEntity
  8
P-SANR-FIXT
100
AcDbLine
 10
733.3160689728012
 20
1966.499999999995
 30
0.0
 11
733.3160689728012
 21
1968.999999999933
 31
0.0
  0
LINE
  5
FE
330
87
100
AcDbEntity
  8
P-SANR-FIXT
100
AcDbLine
 10
688.2635030800392
 20
1966.499999999995
 30
0.0
 11
688.2635030800392
 21
1965.563854234918
 31
0.0
  0
LINE
  5
FF
330
87
100
AcDbEntity
  8
P-SANR-FIXT
100
AcDbLine
 10
730.0635030800374
 20
1965.563854234918
 30
0.0
 11
730.0635030800374
 21
1966.499999999995
 31
0.0
  0
LINE
  5
100
330
87
100
AcDbEntity
  8
P-SANR-FIXT
100
AcDbLine
 10
685.0109371872738
 20
2033.499999999996
 30
0.0
 11
733.3160689727998
 21
2033.499999999996
 31
0.0
  0
LINE
  5
101
330
87
100
AcDbEntity
  8
P-SANR-FIXT
100
AcDbLine
 10
685.0109371872739
 20
2031.000000000057
 30
0.0
 11
733.3160689727998
 21
2031.000000000057
 31
0.0
  0
LINE
  5
102
330
87
100
AcDbEntity
  8
P-SANR-FIXT
100
AcDbLine
 10
685.5692368023682
 20
2030.441700384963
 30
0.0
 11
732.7577693577055
 21
2030.441700384963
 31
0.0
  0
LINE
  5
103
330
87
100
AcDbEntity
  8
P-SANR-FIXT
100
AcDbLine
 10
685.5692368023682
 20
1969.558299615027
 30
0.0
 11
732.7577693577055
 21
1969.558299615027
 31
0.0
  0
LINE
  5
104
330
87
100
AcDbEntity
  8
P-SANR-FIXT
100
AcDbLine
 10
685.0109371872739
 20
1968.999999999932
 30
0.0
 11
733.3160689727999
 21
1968.999999999932
 31
0.0
  0
LINE
  5
105
330
87
100
AcDbEntity
  8
P-SANR-FIXT
100
AcDbLine
 10
685.0109371872739
 20
1966.499999999994
 30
0.0
 11
733.3160689727999
 21
1966.499999999994
 31
0.0
  0
LINE
  5
106
330
87
100
AcDbEntity
  8
P-SANR-FIXT
100
AcDbLine
 10
801.8100009826367
 20
2065.49704037704
 30
0.0
 11
808.7382042129123
 21
2065.49704037704
 31
0.0
  0
LINE
  5
107
330
87
100
AcDbEntity
  8
P-SANR-FIXT
100
AcDbLine
 10
808.7382042129123
 20
2065.49704037704
 30
0.0
 11
822.5946106734632
 21
2065.49704037704
 31
0.0
  0
LINE
  5
108
330
87
100
AcDbEntity
  8
P-SANR-FIXT
100
AcDbLine
 10
822.5946106734632
 20
2065.49704037704
 30
0.0
 11
829.5228139037389
 21
2065.49704037704
 31
0.0
  0
LINE
  5
109
330
87
100
AcDbEntity
  8
P-SANR-FIXT
100
AcDbLine
 10
829.5228139037389
 20
2052.970000000069
 30
0.0
 11
822.5946106734632
 21
2052.970000000069
 31
0.0
  0
LINE
  5
10A
330
87
100
AcDbEntity
  8
P-SANR-FIXT
100
AcDbLine
 10
822.5946106734632
 20
2052.970000000069
 30
0.0
 11
808.7382042129123
 21
2052.970000000068
 31
0.0
  0
LINE
  5
10B
330
87
100
AcDbEntity
  8
P-SANR-FIXT
100
AcDbLine
 10
808.7382042129123
 20
2052.970000000068
 30
0.0
 11
801.8100009826367
 21
2052.970000000068
 31
0.0
  0
LINE
  5
10C
330
87
100
AcDbEntity
  8
P-SANR-FIXT
100
AcDbLine
 10
829.5228139037387
 20
2065.49704037704
 30
0.0
 11
829.5228139037387
 21
2052.970000000074
 31
0.0
  0
LINE
  5
10D
330
87
100
AcDbEntity
  8
P-SANR-FIXT
100
AcDbLine
 10
822.5946106734632
 20
2065.49704037704
 30
0.0
 11
822.5946106734632
 21
2052.970000000074
 31
0.0
  0
LINE
  5
10E
330
87
100
AcDbEntity
  8
P-SANR-FIXT
100
AcDbLine
 10
808.7382042129123
 20
2065.49704037704
 30
0.0
 11
808.7382042129123
 21
2052.970000000074
 31
0.0
  0
LINE
  5
10F
330
87
100
AcDbEntity
  8
P-SANR-FIXT
100
AcDbLine
 10
801.8100009826367
 20
2065.49704037704
 30
0.0
 11
801.8100009826367
 21
2052.970000000074
 31
0.0
  0
LINE
  5
110
330
87
100
AcDbEntity
  8
P-SANR-FIXT
100
AcDbLine
 10
803.724347913665
 20
1891.699999999996
 30
0.0
 11
803.724347913665
 21
1889.799999999981
 31
0.0
  0
LINE
  5
111
330
87
100
AcDbEntity
  8
P-SANR-FIXT
100
AcDbLine
 10
827.6084669727138
 20
1889.799999999981
 30
0.0
 11
827.6084669727138
 21
1891.699999999996
 31
0.0
  0
LINE
  5
112
330
87
100
AcDbEntity
  8
P-SANR-FIXT
100
AcDbLine
 10
800.5798903884558
 20
1889.799999999981
 30
0.0
 11
800.5798903884558
 21
1882.949999999981
 31
0.0
  0
LINE
  5
113
330
87
100
AcDbEntity
  8
P-SANR-FIXT
100
AcDbLine
 10
830.7529244979228
 20
1876.280578582178
 30
0.0
 11
830.7529244979228
 21
1889.799999999981
 31
0.0
  0
LINE
  5
114
330
87
100
AcDbEntity
  8
P-SANR-FIXT
100
AcDbLine
 10
799.7993118062582
 20
1869.611157164375
 30
0.0
 11
799.7993118062582
 21
1865.999999999981
 31
0.0
  0
LINE
  5
115
330
87
100
AcDbEntity
  8
P-SANR-FIXT
100
AcDbLine
 10
831.5335030801204
 20
1865.999999999981
 30
0.0
 11
831.5335030801204
 21
1876.280578582178
 31
0.0
  0
LINE
  5
116
330
87
100
AcDbEntity
  8
P-SANR-FIXT
100
AcDbLine
 10
800.7193118062595
 20
1865.999999999981
 30
0.0
 11
800.7193118062595
 21
1864.499999999965
 31
0.0
  0
LINE
  5
117
330
87
100
AcDbEntity
  8
P-SANR-FIXT
100
AcDbLine
 10
830.6135030801192
 20
1864.499999999965
 30
0.0
 11
830.6135030801192
 21
1865.999999999981
 31
0.0
  0
LINE
  5
118
330
87
100
AcDbEntity
  8
P-SANR-FIXT
100
AcDbLine
 10
803.469311806258
 20
1864.499999999965
 30
0.0
 11
803.469311806258
 21
1861.499999999965
 31
0.0
  0
LINE
  5
119
330
87
100
AcDbEntity
  8
P-SANR-FIXT
100
AcDbLine
 10
827.8635030801208
 20
1861.499999999965
 30
0.0
 11
827.8635030801208
 21
1864.499999999965
 31
0.0
  0
LINE
  5
11A
330
87
100
AcDbEntity
  8
P-SANR-FIXT
100
AcDbLine
 10
801.7693118062581
 20
1861.499999999965
 30
0.0
 11
801.7693118062581
 21
1859.499999999993
 31
0.0
  0
LINE
  5
11B
330
87
100
AcDbEntity
  8
P-SANR-FIXT
100
AcDbLine
 10
829.5635030801205
 20
1859.499999999993
 30
0.0
 11
829.5635030801205
 21
1861.499999999965
 31
0.0
  0
LINE
  5
11C
330
87
100
AcDbEntity
  8
P-SANR-FIXT
100
AcDbLine
 10
800.4193118062714
 20
1859.499999999993
 30
0.0
 11
800.4193118062714
 21
1850.499999999993
 31
0.0
  0
LINE
  5
11D
330
87
100
AcDbEntity
  8
P-SANR-FIXT
100
AcDbLine
 10
830.9135030801073
 20
1850.499999999993
 30
0.0
 11
830.9135030801073
 21
1859.499999999993
 31
0.0
  0
LINE
  5
11E
330
87
100
AcDbEntity
  8
P-SANR-FIXT
100
AcDbLine
 10
807.7193118062583
 20
1850.499999999993
 30
0.0
 11
807.7193118062584
 21
1827.499999999993
 31
0.0
  0
LINE
  5
11F
330
87
100
AcDbEntity
  8
P-SANR-FIXT
100
AcDbLine
 10
823.6135030801206
 20
1827.499999999993
 30
0.0
 11
823.6135030801206
 21
1850.499999999993
 31
0.0
  0
LINE
  5
120
330
87
100
AcDbEntity
  8
P-SANR-FIXT
100
AcDbLine
 10
789.6135030801201
 20
1872.311157164439
 30
0.0
 11
794.1135030801204
 21
1872.311157164439
 31
0.0
  0
LINE
  5
121
330
87
100
AcDbEntity
  8
P-SANR-FIXT
100
AcDbLine
 10
794.1135030801204
 20
1880.249999999917
 30
0.0
 11
789.6135030801201
 21
1880.249999999917
 31
0.0
  0
LINE
  5
122
330
87
100
AcDbEntity
  8
P-SANR-FIXT
100
AcDbLine
 10
794.1135030801204
 20
1869.611157164375
 30
0.0
 11
799.7993118062582
 21
1869.611157164375
 31
0.0
  0
LINE
  5
123
330
87
100
AcDbEntity
  8
P-SANR-FIXT
100
AcDbLine
 10
800.5798903884558
 20
1882.949999999981
 30
0.0
 11
794.1135030801204
 21
1882.949999999981
 31
0.0
  0
LINE
  5
124
330
87
100
AcDbEntity
  8
P-SANR-FIXT
100
AcDbLine
 10
800.5798903884544
 20
1889.79999999998
 30
0.0
 11
830.7529244979212
 21
1889.79999999998
 31
0.0
  0
SPLINE
  5
125
330
87
100
AcDbEntity
  8
P-SANR-FIXT
100
AcDbSpline
210
0.0
220
0.0
230
1.0
 70
     8
 71
     3
 72
    16
 73
    12
 74
     0
 42
0.000000001
 43
0.0000000001
 40
0.0
 40
0.0
 40
0.0
 40
0.0
 40
0.1428571428571428
 40
0.2857142857142857
 40
0.5714285714285714
 40
0.6785714285714287
 40
0.7321428571428572
 40
0.7857142857142857
 40
0.8392857142857142
 40
0.8928571428571427
 40
1.0
 40
1.0
 40
1.0
 40
1.0
 10
800.5798903884544
 20
1882.949999999979
 30
0.0
 10
800.5798903884544
 20
1882.947567998746
 30
0.0
 10
800.6317822814201
 20
1882.835097798734
 30
0.0
 10
800.9204370306019
 20
1882.157882134128
 30
0.0
 10
801.3718687454341
 20
1880.979162046637
 30
0.0
 10
801.7181342873593
 20
1879.689417677843
 30
0.0
 10
801.8608107430097
 20
1879.027967939418
 30
0.0
 10
801.9555840262412
 20
1878.504728352474
 30
0.0
 10
802.0338225429902
 20
1877.963540864933
 30
0.0
 10
802.1085067529353
 20
1877.234004229602
 30
0.0
 10
802.1328932914316
 20
1876.666834313537
 30
0.0
 10
802.1341565293703
 20
1876.280578582177
 30
0.0
  0
LINE
  5
126
330
87
100
AcDbEntity
  8
P-SANR-FIXT
100
AcDbLine
 10
801.2690624829783
 20
1876.280578582177
 30
0.0
 11
831.5335030801188
 21
1876.280578582177
 31
0.0
  0
SPLINE
  5
127
330
87
100
AcDbEntity
  8
P-SANR-FIXT
100
AcDbSpline
210
0.0
220
0.0
230
1.0
 70
     8
 71
     3
 72
    12
 73
     8
 74
     0
 42
0.000000001
 43
0.0000000001
 40
0.0
 40
0.0
 40
0.0
 40
0.0
 40
0.1428571428571428
 40
0.2857142857142857
 40
0.5714285714285714
 40
0.7857142857142857
 40
1.0
 40
1.0
 40
1.0
 40
1.0
 10
801.2690624829783
 20
1876.280578582177
 30
0.0
 10
801.2675388528585
 20
1875.765586202568
 30
0.0
 10
801.2152494084075
 20
1874.76910274787
 30
0.0
 10
800.9174583284934
 20
1872.865156394575
 30
0.0
 10
800.3897919004725
 20
1871.101173786808
 30
0.0
 10
799.9119452513631
 20
1869.872203435972
 30
0.0
 10
799.7993118062569
 20
1869.614498025744
 30
0.0
 10
799.7993118062569
 20
1869.611157164374
 30
0.0
  0
LINE
  5
128
330
87
100
AcDbEntity
  8
P-SANR-FIXT
100
AcDbLine
 10
799.7993118062569
 20
1865.99999999998
 30
0.0
 11
831.5335030801188
 21
1865.99999999998
 31
0.0
  0
LINE
  5
129
330
87
100
AcDbEntity
  8
P-SANR-FIXT
100
AcDbLine
 10
800.7193118062581
 20
1864.499999999964
 30
0.0
 11
830.6135030801176
 21
1864.499999999964
 31
0.0
  0
LINE
  5
12A
330
87
100
AcDbEntity
  8
P-SANR-FIXT
100
AcDbLine
 10
801.7693118062567
 20
1861.499999999964
 30
0.0
 11
829.5635030801189
 21
1861.499999999964
 31
0.0
  0
LINE
  5
12B
330
87
100
AcDbEntity
  8
P-SANR-FIXT
100
AcDbLine
 10
800.4193118062698
 20
1859.499999999992
 30
0.0
 11
830.9135030801058
 21
1859.499999999992
 31
0.0
  0
LINE
  5
12C
330
87
100
AcDbEntity
  8
P-SANR-FIXT
100
AcDbLine
 10
800.4193118062698
 20
1850.499999999992
 30
0.0
 11
830.9135030801058
 21
1850.499999999992
 31
0.0
  0
LINE
  5
12D
330
87
100
AcDbEntity
  8
P-SANR-FIXT
100
AcDbLine
 10
807.719311806257
 20
1827.499999999992
 30
0.0
 11
823.613503080119
 21
1827.499999999992
 31
0.0
  0
LINE
  5
12E
330
87
100
AcDbEntity
  8
P-SANR-FIXT
100
AcDbLine
 10
789.6135030801188
 20
1872.311157164437
 30
0.0
 11
789.6135030801188
 21
1880.249999999917
 31
0.0
  0
LINE
  5
12F
330
87
100
AcDbEntity
  8
P-SANR-FIXT
100
AcDbLine
 10
794.1135030801189
 20
1869.611157164374
 30
0.0
 11
794.1135030801188
 21
1882.949999999979
 31
0.0
  0
LINE
  5
130
330
87
100
AcDbEntity
  8
P-SANR-FIXT
100
AcDbLine
 10
745.1135030801205
 20
1919.503854235109
 30
0.0
 11
739.0135030801205
 21
1919.503854235109
 31
0.0
  0
LINE
  5
131
330
87
100
AcDbEntity
  8
P-SANR-FIXT
100
AcDbLine
 10
739.0135030801205
 20
1895.50385423511
 30
0.0
 11
745.1135030801205
 21
1895.50385423511
 31
0.0
  0
LINE
  5
132
330
87
100
AcDbEntity
  8
P-SANR-FIXT
100
AcDbLine
 10
761.1135030801191
 20
1877.803854235108
 30
0.0
 11
761.1135030801191
 21
1883.803854235109
 31
0.0
  0
LINE
  5
133
330
87
100
AcDbEntity
  8
P-SANR-FIXT
100
AcDbLine
 10
761.1135030801191
 20
1883.803854235109
 30
0.0
 11
756.155301761731
 21
1902.308113469487
 31
0.0
  0
LINE
  5
134
330
87
100
AcDbEntity
  8
P-SANR-FIXT
100
AcDbLine
 10
756.1135030801191
 20
1899.76499126953
 30
0.0
 11
752.6135030801191
 21
1899.76499126953
 31
0.0
  0
ARC
  5
135
330
87
100
AcDbEntity
  8
P-SANR-FIXT
100
AcDbCircle
 10
530.5660248927448
 20
2068.347521609959
 30
0.0
 40
278.7923099824558
100
AcDbArc
 50
321.7855858056716
 51
322.7935632328914
  0
LINE
  5
136
330
87
100
AcDbEntity
  8
P-SANR-FIXT
100
AcDbLine
 10
749.6135030801191
 20
1895.884904196486
 30
0.0
 11
745.1135030801189
 21
1895.884904196486
 31
0.0
  0
LINE
  5
137
330
87
100
AcDbEntity
  8
P-SANR-FIXT
100
AcDbLine
 10
745.1135030801189
 20
1895.884904196486
 30
0.0
 11
745.1135030801189
 21
1877.803854235108
 31
0.0
  0
LINE
  5
138
330
87
100
AcDbEntity
  8
P-SANR-FIXT
100
AcDbLine
 10
745.1135030801189
 20
1877.803854235108
 30
0.0
 11
761.1135030801191
 21
1877.803854235108
 31
0.0
  0
LINE
  5
139
330
87
100
AcDbEntity
  8
P-SANR-FIXT
100
AcDbLine
 10
761.1135030801191
 20
1929.803854235109
 30
0.0
 11
761.1135030801191
 21
1935.803854235109
 31
0.0
  0
LINE
  5
13A
330
87
100
AcDbEntity
  8
P-SANR-FIXT
100
AcDbLine
 10
761.1135030801191
 20
1935.803854235109
 30
0.0
 11
745.1135030801189
 21
1935.803854235109
 31
0.0
  0
LINE
  5
13B
330
87
100
AcDbEntity
  8
P-SANR-FIXT
100
AcDbLine
 10
745.1135030801189
 20
1935.803854235109
 30
0.0
 11
745.1135030801189
 21
1919.122804273731
 31
0.0
  0
LINE
  5
13C
330
87
100
AcDbEntity
  8
P-SANR-FIXT
100
AcDbLine
 10
745.1135030801189
 20
1919.122804273731
 30
0.0
 11
749.6135030801191
 21
1919.122804273731
 31
0.0
  0
ARC
  5
13D
330
87
100
AcDbEntity
  8
P-SANR-FIXT
100
AcDbCircle
 10
530.5660248896945
 20
1746.660186857903
 30
0.0
 40
278.7923099863102
100
AcDbArc
 50
37.20643676711489
 51
38.21441419432079
  0
LINE
  5
13E
330
87
100
AcDbEntity
  8
P-SANR-FIXT
100
AcDbLine
 10
752.6135030801191
 20
1915.242717200687
 30
0.0
 11
756.1135030801191
 21
1915.242717200687
 31
0.0
  0
LINE
  5
13F
330
87
100
AcDbEntity
  8
P-SANR-FIXT
100
AcDbLine
 10
756.1135030801191
 20
1911.143600197264
 30
0.0
 11
761.1135030801191
 21
1929.803854235109
 31
0.0
  0
LINE
  5
140
330
87
100
AcDbEntity
  8
P-SANR-FIXT
100
AcDbLine
 10
749.6135030801191
 20
1895.884904196486
 30
0.0
 11
749.6135030801191
 21
1919.122804273731
 31
0.0
  0
LINE
  5
141
330
87
100
AcDbEntity
  8
P-SANR-FIXT
100
AcDbLine
 10
752.6135030801191
 20
1899.76499126953
 30
0.0
 11
752.6135030801191
 21
1915.242717200687
 31
0.0
  0
LINE
  5
142
330
87
100
AcDbEntity
  8
P-SANR-FIXT
100
AcDbLine
 10
756.1135030801191
 20
1899.76499126953
 30
0.0
 11
756.1135030801191
 21
1915.242717200687
 31
0.0
  0
LINE
  5
143
330
87
100
AcDbEntity
  8
P-SANR-FIXT
100
AcDbLine
 10
739.013503080119
 20
1919.503854235109
 30
0.0
 11
739.013503080119
 21
1895.503854235109
 31
0.0
  0
LINE
  5
144
330
87
100
AcDbEntity
  8
P-SANR-FIXT
100
AcDbLine
 10
739.0135030801205
 20
2080.496145764882
 30
0.0
 11
745.1135030801205
 21
2080.496145764882
 31
0.0
  0
LINE
  5
145
330
87
100
AcDbEntity
  8
P-SANR-FIXT
100
AcDbLine
 10
745.1135030801205
 20
2104.496145764882
 30
0.0
 11
739.0135030801205
 21
2104.496145764882
 31
0.0
  0
LINE
  5
146
330
87
100
AcDbEntity
  8
P-SANR-FIXT
100
AcDbLine
 10
739.013503080119
 20
2104.496145764881
 30
0.0
 11
739.013503080119
 21
2080.496145764881
 31
0.0
  0
LINE
  5
147
330
87
100
AcDbEntity
  8
P-SANR-FIXT
100
AcDbLine
 10
745.1135030801189
 20
2080.877195726259
 30
0.0
 11
749.6135030801191
 21
2080.877195726259
 31
0.0
  0
LINE
  5
148
330
87
100
AcDbEntity
  8
P-SANR-FIXT
100
AcDbLine
 10
749.6135030801191
 20
2104.115095803503
 30
0.0
 11
745.1135030801189
 21
2104.115095803503
 31
0.0
  0
LINE
  5
149
330
87
100
AcDbEntity
  8
P-SANR-FIXT
100
AcDbLine
 10
749.6135030801191
 20
2080.877195726259
 30
0.0
 11
749.6135030801191
 21
2104.115095803503
 31
0.0
  0
ARC
  5
14A
330
87
100
AcDbEntity
  8
P-SANR-FIXT
100
AcDbCircle
 10
530.5660248941613
 20
2253.339813138634
 30
0.0
 40
278.7923099806645
100
AcDbArc
 50
321.7855858056681
 51
322.7935632328944
  0
ARC
  5
14B
330
87
100
AcDbEntity
  8
P-SANR-FIXT
100
AcDbCircle
 10
530.5660248927343
 20
1931.652478390023
 30
0.0
 40
278.7923099824689
100
AcDbArc
 50
37.2064367671079
 51
38.21441419432762
  0
LINE
  5
14C
330
87
100
AcDbEntity
  8
P-SANR-FIXT
100
AcDbLine
 10
752.6135030801191
 20
2084.757282799303
 30
0.0
 11
752.6135030801191
 21
2100.235008730459
 31
0.0
  0
LINE
  5
14D
330
87
100
AcDbEntity
  8
P-SANR-FIXT
100
AcDbLine
 10
752.6135030801191
 20
2084.757282799303
 30
0.0
 11
756.1135030801191
 21
2084.757282799303
 31
0.0
  0
LINE
  5
14E
330
87
100
AcDbEntity
  8
P-SANR-FIXT
100
AcDbLine
 10
756.1135030801191
 20
2100.235008730459
 30
0.0
 11
752.6135030801191
 21
2100.235008730459
 31
0.0
  0
LINE
  5
14F
330
87
100
AcDbEntity
  8
P-SANR-FIXT
100
AcDbLine
 10
756.1135030801191
 20
2084.757282799303
 30
0.0
 11
756.1135030801191
 21
2100.235008730459
 31
0.0
  0
LINE
  5
150
330
87
100
AcDbEntity
  8
P-SANR-FIXT
100
AcDbLine
 10
761.1135030801191
 20
2122.196145764881
 30
0.0
 11
745.1135030801189
 21
2122.196145764881
 31
0.0
  0
LINE
  5
151
330
87
100
AcDbEntity
  8
P-SANR-FIXT
100
AcDbLine
 10
745.1135030801189
 20
2122.196145764881
 30
0.0
 11
745.1135030801189
 21
2104.115095803503
 31
0.0
  0
LINE
  5
152
330
87
100
AcDbEntity
  8
P-SANR-FIXT
100
AcDbLine
 10
756.1503947432783
 20
2097.673573288323
 30
0.0
 11
761.1135030801191
 21
2116.196145764881
 31
0.0
  0
LINE
  5
153
330
87
100
AcDbEntity
  8
P-SANR-FIXT
100
AcDbLine
 10
761.1135030801191
 20
2116.196145764881
 30
0.0
 11
761.1135030801191
 21
2122.196145764881
 31
0.0
  0
LINE
  5
154
330
87
100
AcDbEntity
  8
P-SANR-FIXT
100
AcDbLine
 10
745.1135030801189
 20
2064.196145764881
 30
0.0
 11
761.1135030801191
 21
2064.196145764881
 31
0.0
  0
LINE
  5
155
330
87
100
AcDbEntity
  8
P-SANR-FIXT
100
AcDbLine
 10
761.1135030801191
 20
2064.196145764881
 30
0.0
 11
761.1135030801191
 21
2070.196145764882
 31
0.0
  0
LINE
  5
156
330
87
100
AcDbEntity
  8
P-SANR-FIXT
100
AcDbLine
 10
761.1135030801191
 20
2070.196145764882
 30
0.0
 11
756.1135030801191
 21
2088.856399802725
 31
0.0
  0
LINE
  5
157
330
87
100
AcDbEntity
  8
P-SANR-FIXT
100
AcDbLine
 10
745.1135030801189
 20
2080.877195726259
 30
0.0
 11
745.1135030801189
 21
2064.196145764881
 31
0.0
  0
LINE
  5
158
330
87
100
AcDbEntity
  8
P-SANR-FIXT
100
AcDbLine
 10
732.6635030801208
 20
1899.003854235109
 30
0.0
 11
739.0135030801205
 21
1899.003854235109
 31
0.0
  0
LINE
  5
159
330
87
100
AcDbEntity
  8
P-SANR-FIXT
100
AcDbLine
 10
739.0135030801205
 20
1916.003854235109
 30
0.0
 11
731.4135030801205
 21
1916.003854235109
 31
0.0
  0
LINE
  5
15A
330
87
100
AcDbEntity
  8
P-SANR-FIXT
100
AcDbLine
 10
685.6635030801202
 20
1905.553854235109
 30
0.0
 11
685.6635030801202
 21
1898.303854235109
 31
0.0
  0
LINE
  5
15B
330
87
100
AcDbEntity
  8
P-SANR-FIXT
100
AcDbLine
 10
732.6635030801208
 20
1898.303854235109
 30
0.0
 11
732.6635030801208
 21
1899.003854235109
 31
0.0
  0
LINE
  5
15C
330
87
100
AcDbEntity
  8
P-SANR-FIXT
100
AcDbLine
 10
686.9135030801203
 20
1906.80385423511
 30
0.0
 11
685.6635030801202
 21
1905.553854235109
 31
0.0
  0
LINE
  5
15D
330
87
100
AcDbEntity
  8
P-SANR-FIXT
100
AcDbLine
 10
686.9135030801203
 20
1922.80385423511
 30
0.0
 11
686.9135030801203
 21
1906.80385423511
 31
0.0
  0
LINE
  5
15E
330
87
100
AcDbEntity
  8
P-SANR-FIXT
100
AcDbLine
 10
731.4135030801205
 20
1915.941051229965
 30
0.0
 11
731.4135030801205
 21
1922.803854235109
 31
0.0
  0
LINE
  5
15F
330
87
100
AcDbEntity
  8
P-SANR-FIXT
100
AcDbLine
 10
690.6635030801204
 20
1926.803854235109
 30
0.0
 11
686.9135030801203
 21
1922.80385423511
 31
0.0
  0
LINE
  5
160
330
87
100
AcDbEntity
  8
P-SANR-FIXT
100
AcDbLine
 10
731.4135030801205
 20
1922.803854235109
 30
0.0
 11
727.6635030801205
 21
1926.803854235109
 31
0.0
  0
LINE
  5
161
330
87
100
AcDbEntity
  8
P-SANR-FIXT
100
AcDbLine
 10
690.6635030801204
 20
1930.303854235105
 30
0.0
 11
690.6635030801204
 21
1926.803854235109
 31
0.0
  0
LINE
  5
162
330
87
100
AcDbEntity
  8
P-SANR-FIXT
100
AcDbLine
 10
727.6635030801205
 20
1926.803854235109
 30
0.0
 11
727.6635030801205
 21
1930.303854235105
 31
0.0
  0
LINE
  5
163
330
87
100
AcDbEntity
  8
P-SANR-FIXT
100
AcDbLine
 10
694.163503080125
 20
1933.80385423511
 30
0.0
 11
690.6635030801204
 21
1930.303854235105
 31
0.0
  0
LINE
  5
164
330
87
100
AcDbEntity
  8
P-SANR-FIXT
100
AcDbLine
 10
727.6635030801205
 20
1930.303854235105
 30
0.0
 11
724.1635030801161
 21
1933.803854235109
 31
0.0
  0
LINE
  5
165
330
87
100
AcDbEntity
  8
P-SANR-FIXT
100
AcDbLine
 10
694.1635030801166
 20
1948.106319063128
 30
0.0
 11
694.1635030801164
 21
1933.80385423511
 31
0.0
  0
LINE
  5
166
330
87
100
AcDbEntity
  8
P-SANR-FIXT
100
AcDbLine
 10
724.1635030801245
 20
1933.80385423511
 30
0.0
 11
724.1635030801245
 21
1948.106319063128
 31
0.0
  0
LINE
  5
167
330
87
100
AcDbEntity
  8
P-SANR-FIXT
100
AcDbLine
 10
688.1035030801378
 20
1951.206319063144
 30
0.0
 11
688.1035030801378
 21
1948.106319063128
 31
0.0
  0
LINE
  5
168
330
87
100
AcDbEntity
  8
P-SANR-FIXT
100
AcDbLine
 10
730.2235030801035
 20
1948.106319063128
 30
0.0
 11
730.2235030801035
 21
1951.206319063144
 31
0.0
  0
LINE
  5
169
330
87
100
AcDbEntity
  8
P-SANR-FIXT
100
AcDbLine
 10
731.4135030801191
 20
1903.622810561045
 30
0.0
 11
731.4135030801192
 21
1916.003854235109
 31
0.0
  0
SPLINE
  5
16A
330
87
100
AcDbEntity
  8
P-SANR-FIXT
100
AcDbSpline
210
0.0
220
0.0
230
1.0
 70
     8
 71
     3
 72
    14
 73
    10
 74
     0
 42
0.000000001
 43
0.0000000001
 40
0.0
 40
0.0
 40
0.0
 40
0.0
 40
0.2
 40
0.3
 40
0.4
 40
0.5
 40
0.6
 40
0.8
 40
1.0
 40
1.0
 40
1.0
 40
1.0
 10
731.4135030801192
 20
1903.622810561045
 30
0.0
 10
731.5169266578484
 20
1903.071377225214
 30
0.0
 10
731.6743080438035
 20
1902.291533844645
 30
0.0
 10
731.9081697138395
 20
1901.384785657591
 30
0.0
 10
732.0798256671695
 20
1900.776866283333
 30
0.0
 10
732.2408260927809
 20
1900.24747654672
 30
0.0
 10
732.4333405522996
 20
1899.655636396909
 30
0.0
 10
732.6134949799828
 20
1899.143466842494
 30
0.0
 10
732.6611382554375
 20
1899.003854235109
 30
0.0
 10
732.6635030801193
 20
1899.003854235109
 30
0.0
  0
LINE
  5
16B
330
87
100
AcDbEntity
  8
P-SANR-FIXT
100
AcDbLine
 10
730.223503080102
 20
1948.106319063127
 30
0.0
 11
688.1035030801363
 21
1948.106319063127
 31
0.0
  0
LINE
  5
16C
330
87
100
AcDbEntity
  8
P-SANR-FIXT
100
AcDbLine
 10
731.4135030801191
 20
1905.553854235108
 30
0.0
 11
685.6635030801189
 21
1905.553854235108
 31
0.0
  0
LINE
  5
16D
330
87
100
AcDbEntity
  8
P-SANR-FIXT
100
AcDbLine
 10
731.4135030801192
 20
1906.803854235108
 30
0.0
 11
686.9135030801191
 21
1906.803854235108
 31
0.0
  0
LINE
  5
16E
330
87
100
AcDbEntity
  8
P-SANR-FIXT
100
AcDbLine
 10
731.4135030801192
 20
1922.803854235109
 30
0.0
 11
686.9135030801191
 21
1922.803854235109
 31
0.0
  0
LINE
  5
16F
330
87
100
AcDbEntity
  8
P-SANR-FIXT
100
AcDbLine
 10
727.6635030801192
 20
1926.803854235109
 30
0.0
 11
690.663503080119
 21
1926.803854235109
 31
0.0
  0
LINE
  5
170
330
87
100
AcDbEntity
  8
P-SANR-FIXT
100
AcDbLine
 10
727.6635030801192
 20
1930.303854235104
 30
0.0
 11
690.663503080119
 21
1930.303854235104
 31
0.0
  0
LINE
  5
171
330
87
100
AcDbEntity
  8
P-SANR-FIXT
100
AcDbLine
 10
724.1635030801147
 20
1933.803854235109
 30
0.0
 11
694.1635030801236
 21
1933.803854235109
 31
0.0
  0
LINE
  5
172
330
87
100
AcDbEntity
  8
P-SANR-FIXT
100
AcDbLine
 10
685.6635030801189
 20
1898.303854235109
 30
0.0
 11
686.2231309689964
 21
1898.303854235109
 31
0.0
  0
LINE
  5
173
330
87
100
AcDbEntity
  8
P-SANR-FIXT
100
AcDbLine
 10
693.537715098715
 20
1898.303854235109
 30
0.0
 11
701.9016037123077
 21
1898.303854235109
 31
0.0
  0
LINE
  5
174
330
87
100
AcDbEntity
  8
P-SANR-FIXT
100
AcDbLine
 10
717.3003666582167
 20
1898.303854235109
 30
0.0
 11
724.4255322158784
 21
1898.303854235109
 31
0.0
  0
LINE
  5
175
330
87
100
AcDbEntity
  8
P-SANR-FIXT
100
AcDbLine
 10
732.3797880893145
 20
1898.303854235109
 30
0.0
 11
732.6635030801193
 21
1898.303854235109
 31
0.0
  0
LINE
  5
176
330
87
100
AcDbEntity
  8
P-SANR-FIXT
100
AcDbLine
 10
685.6635408396398
 20
2101.696145764882
 30
0.0
 11
685.6635408396398
 21
2094.446145764882
 31
0.0
  0
LINE
  5
177
330
87
100
AcDbEntity
  8
P-SANR-FIXT
100
AcDbLine
 10
732.6635030801202
 20
2100.996145764882
 30
0.0
 11
732.6635030801202
 21
2101.696145764882
 31
0.0
  0
LINE
  5
178
330
87
100
AcDbEntity
  8
P-SANR-FIXT
100
AcDbLine
 10
685.6635408396397
 20
2094.446145764882
 30
0.0
 11
686.9135408396394
 21
2093.196145764882
 31
0.0
  0
LINE
  5
179
330
87
100
AcDbEntity
  8
P-SANR-FIXT
100
AcDbLine
 10
686.9135408396394
 20
2093.196145764882
 30
0.0
 11
686.9135408396395
 21
2077.196145764882
 31
0.0
  0
LINE
  5
17A
330
87
100
AcDbEntity
  8
P-SANR-FIXT
100
AcDbLine
 10
731.4135030801205
 20
2077.196145764882
 30
0.0
 11
731.4135030801205
 21
2084.058948708413
 31
0.0
  0
LINE
  5
17B
330
87
100
AcDbEntity
  8
P-SANR-FIXT
100
AcDbLine
 10
686.9135408396394
 20
2077.196145764882
 30
0.0
 11
690.6635408396396
 21
2073.196145764882
 31
0.0
  0
LINE
  5
17C
330
87
100
AcDbEntity
  8
P-SANR-FIXT
100
AcDbLine
 10
727.6635030801208
 20
2073.196145764882
 30
0.0
 11
731.4135030801205
 21
2077.196145764882
 31
0.0
  0
LINE
  5
17D
330
87
100
AcDbEntity
  8
P-SANR-FIXT
100
AcDbLine
 10
690.6635408396393
 20
2073.196145764882
 30
0.0
 11
690.6635408396393
 21
2069.696145764887
 31
0.0
  0
LINE
  5
17E
330
87
100
AcDbEntity
  8
P-SANR-FIXT
100
AcDbLine
 10
727.6635030801208
 20
2069.696145764887
 30
0.0
 11
727.6635030801208
 21
2073.196145764882
 31
0.0
  0
LINE
  5
17F
330
87
100
AcDbEntity
  8
P-SANR-FIXT
100
AcDbLine
 10
690.6635408396396
 20
2069.696145764887
 30
0.0
 11
694.1635408396441
 21
2066.196145764882
 31
0.0
  0
LINE
  5
180
330
87
100
AcDbEntity
  8
P-SANR-FIXT
100
AcDbLine
 10
724.1635030801161
 20
2066.196145764882
 30
0.0
 11
727.6635030801205
 21
2069.696145764887
 31
0.0
  0
LINE
  5
181
330
87
100
AcDbEntity
  8
P-SANR-FIXT
100
AcDbLine
 10
694.163540839671
 20
2066.196145764882
 30
0.0
 11
694.163540839671
 21
2051.893680936847
 31
0.0
  0
LINE
  5
182
330
87
100
AcDbEntity
  8
P-SANR-FIXT
100
AcDbLine
 10
724.1635030800892
 20
2051.893680936847
 30
0.0
 11
724.1635030800892
 21
2066.196145764882
 31
0.0
  0
LINE
  5
183
330
87
100
AcDbEntity
  8
P-SANR-FIXT
100
AcDbLine
 10
739.0135030801205
 20
2100.996145764882
 30
0.0
 11
732.6635030801202
 21
2100.996145764882
 31
0.0
  0
LINE
  5
184
330
87
100
AcDbEntity
  8
P-SANR-FIXT
100
AcDbLine
 10
731.4135030801204
 20
2083.996145764882
 30
0.0
 11
739.0135030801205
 21
2083.996145764882
 31
0.0
  0
LINE
  5
185
330
87
100
AcDbEntity
  8
P-SANR-FIXT
100
AcDbLine
 10
688.1035408396567
 20
2051.893680936847
 30
0.0
 11
688.1035408396567
 21
2048.793680936848
 31
0.0
  0
LINE
  5
186
330
87
100
AcDbEntity
  8
P-SANR-FIXT
100
AcDbLine
 10
730.2235030801033
 20
2048.793680936848
 30
0.0
 11
730.2235030801033
 21
2051.893680936847
 31
0.0
  0
LINE
  5
187
330
87
100
AcDbEntity
  8
P-SANR-FIXT
100
AcDbLine
 10
685.6635408396384
 20
2101.696145764881
 30
0.0
 11
686.2231267921478
 21
2101.696145764881
 31
0.0
  0
LINE
  5
188
330
87
100
AcDbEntity
  8
P-SANR-FIXT
100
AcDbLine
 10
693.5378410395871
 20
2101.696145764881
 30
0.0
 11
701.9016284262337
 21
2101.696145764881
 31
0.0
  0
LINE
  5
189
330
87
100
AcDbEntity
  8
P-SANR-FIXT
100
AcDbLine
 10
717.3004297201904
 20
2101.696145764881
 30
0.0
 11
724.4255388342146
 21
2101.696145764881
 31
0.0
  0
LINE
  5
18A
330
87
100
AcDbEntity
  8
P-SANR-FIXT
100
AcDbLine
 10
732.3797880152864
 20
2101.696145764881
 30
0.0
 11
732.6635030801187
 21
2101.696145764881
 31
0.0
  0
SPLINE
  5
18B
330
87
100
AcDbEntity
  8
P-SANR-FIXT
100
AcDbSpline
210
0.0
220
0.0
230
1.0
 70
     8
 71
     3
 72
    10
 73
     6
 74
     0
 42
0.000000001
 43
0.0000000001
 40
0.0
 40
0.0
 40
0.0
 40
0.0
 40
0.4
 40
0.7
 40
1.0
 40
1.0
 40
1.0
 40
1.0
 10
731.4135030801191
 20
2096.377195519703
 30
0.0
 10
731.6102437755512
 20
2097.493090478736
 30
0.0
 10
732.0411129632667
 20
2099.171225449142
 30
0.0
 10
732.5461043642795
 20
2100.679873000196
 30
0.0
 10
732.6635030801189
 20
2100.992438728248
 30
0.0
 10
732.6635030801187
 20
2100.996145764881
 30
0.0
  0
LINE
  5
18C
330
87
100
AcDbEntity
  8
P-SANR-FIXT
100
AcDbLine
 10
685.6635408396384
 20
2094.446145764881
 30
0.0
 11
731.4135030801191
 21
2094.446145764881
 31
0.0
  0
LINE
  5
18D
330
87
100
AcDbEntity
  8
P-SANR-FIXT
100
AcDbLine
 10
686.9135408396383
 20
2093.196145764881
 30
0.0
 11
731.4135030801191
 21
2093.196145764881
 31
0.0
  0
LINE
  5
18E
330
87
100
AcDbEntity
  8
P-SANR-FIXT
100
AcDbLine
 10
686.9135408396383
 20
2077.196145764881
 30
0.0
 11
731.4135030801192
 21
2077.196145764881
 31
0.0
  0
LINE
  5
18F
330
87
100
AcDbEntity
  8
P-SANR-FIXT
100
AcDbLine
 10
690.6635408396381
 20
2073.196145764882
 30
0.0
 11
727.6635030801194
 21
2073.196145764882
 31
0.0
  0
LINE
  5
190
330
87
100
AcDbEntity
  8
P-SANR-FIXT
100
AcDbLine
 10
690.6635408396381
 20
2069.696145764886
 30
0.0
 11
727.6635030801192
 21
2069.696145764886
 31
0.0
  0
LINE
  5
191
330
87
100
AcDbEntity
  8
P-SANR-FIXT
100
AcDbLine
 10
694.1635408396694
 20
2066.196145764882
 30
0.0
 11
724.1635030800879
 21
2066.196145764882
 31
0.0
  0
LINE
  5
192
330
87
100
AcDbEntity
  8
P-SANR-FIXT
100
AcDbLine
 10
731.4135030801191
 20
2083.996145764881
 30
0.0
 11
731.4135030801191
 21
2096.377195519703
 31
0.0
  0
LINE
  5
193
330
87
100
AcDbEntity
  8
P-SANR-FIXT
100
AcDbLine
 10
688.1035408396556
 20
2051.893680936847
 30
0.0
 11
730.2235030801019
 21
2051.893680936847
 31
0.0
  0
LINE
  5
194
330
87
100
AcDbEntity
  8
P-SANR-FIXT
100
AcDbLine
 10
779.1701472780759
 20
2029.534135497928
 30
0.0
 11
781.1664074431894
 21
2028.381594154228
 31
0.0
  0
LINE
  5
195
330
87
100
AcDbEntity
  8
P-SANR-FIXT
100
AcDbLine
 10
850.1664074431891
 20
2028.381594154228
 30
0.0
 11
852.1626676083027
 21
2029.534135497928
 31
0.0
  0
LINE
  5
196
330
87
100
AcDbEntity
  8
P-SANR-FIXT
100
AcDbLine
 10
781.1664074431894
 20
2028.381594154228
 30
0.0
 11
781.1664074431894
 21
2025.499999999996
 31
0.0
  0
LINE
  5
197
330
87
100
AcDbEntity
  8
P-SANR-FIXT
100
AcDbLine
 10
781.1664074431894
 20
1974.499999999996
 30
0.0
 11
781.1664074431894
 21
1964.999999999996
 31
0.0
  0
LINE
  5
198
330
87
100
AcDbEntity
  8
P-SANR-FIXT
100
AcDbLine
 10
850.1664074431891
 20
1964.999999999996
 30
0.0
 11
850.1664074431891
 21
2028.381594154228
 31
0.0
  0
LWPOLYLINE
  5
199
330
87
100
AcDbEntity
  8
P-SANR-FIXT
100
AcDbPolyline
 90
       80
 70
   128
 43
0.0
 10
785.1664074431892
 20
1960.999999999996
 10
785.1908041900295
 20
1960.999999999996
 10
785.2639554009593
 20
1960.999999999996
 10
785.3857440496462
 20
1960.999999999996
 10
785.5559753002327
 20
1960.999999999996
 10
785.7743768190314
 20
1960.999999999996
 10
786.0405992102023
 20
1960.999999999996
 10
786.3542165747106
 20
1960.999999999996
 10
786.7147271916747
 20
1960.999999999996
 10
787.1215543210123
 20
1960.999999999996
 10
787.5740471261012
 20
1960.999999999996
 10
788.0714817149803
 20
1960.999999999996
 10
788.6130622984212
 20
1960.999999999996
 10
789.1979224630209
 20
1960.999999999996
 10
789.8251265572802
 20
1960.999999999996
 10
790.4936711884442
 20
1960.999999999996
 10
791.2024868277184
 20
1960.999999999996
 10
791.950439521286
 20
1960.999999999996
 10
792.736332704392
 20
1960.999999999996
 10
793.5589091155918
 20
1960.999999999996
 10
794.4168528081007
 20
1960.999999999996
 10
795.3087912550294
 20
1960.999999999996
 10
796.2332975451325
 20
1960.999999999996
 10
797.1888926655639
 20
1960.999999999996
 10
798.1740478679795
 20
1960.999999999996
 10
799.1871871142111
 20
1960.999999999996
 10
800.2266895975896
 20
1960.999999999996
 10
801.2908923358903
 20
1960.999999999996
 10
802.3780928317497
 20
1960.999999999996
 10
803.4865517962979
 20
1960.999999999996
 10
804.6144959316508
 20
1960.999999999996
 10
805.7601207678068
 20
1960.999999999996
 10
806.9215935494147
 20
1960.999999999996
 10
808.0970561677919
 20
1960.999999999996
 10
809.284628133501
 20
1960.999999999996
 10
810.482409584732
 20
1960.999999999996
 10
811.688484326676
 20
1960.999999999996
 10
812.900922897028
 20
1960.999999999996
 10
814.1177856527152
 20
1960.999999999996
 10
815.3371258729123
 20
1960.999999999996
 10
816.5569928733788
 20
1960.999999999996
 10
817.7754351271383
 20
1960.999999999996
 10
818.9905033865056
 20
1960.999999999996
 10
820.200253801466
 20
1960.999999999996
 10
821.4027510294224
 20
1960.999999999996
 10
822.5960713313286
 20
1960.999999999996
 10
823.7783056492634
 20
1960.999999999996
 10
824.9475626605144
 20
1960.999999999996
 10
826.1019718032921
 20
1960.999999999996
 10
827.2396862692282
 20
1960.999999999996
 10
828.3588859578772
 20
1960.999999999996
 10
829.4577803884871
 20
1960.999999999996
 10
830.5346115643875
 20
1960.999999999996
 10
831.5876567854081
 20
1960.999999999996
 10
832.6152314038331
 20
1960.999999999996
 10
833.6156915194775
 20
1960.999999999996
 10
834.5874366095761
 20
1960.999999999996
 10
835.5289120892795
 20
1960.999999999996
 10
836.4386117986576
 20
1960.999999999996
 10
837.3150804122341
 20
1960.999999999996
 10
838.1569157671973
 20
1960.999999999996
 10
838.9627711065616
 20
1960.999999999996
 10
839.7313572336901
 20
1960.999999999996
 10
840.4614445747361
 20
1960.999999999996
 10
841.1518651456972
 20
1960.999999999996
 10
841.8015144209423
 20
1960.999999999996
 10
842.4093531002151
 20
1960.999999999996
 10
842.974408771294
 20
1960.999999999996
 10
843.4957774656442
 20
1960.999999999996
 10
843.972625104574
 20
1960.999999999996
 10
844.4041888335835
 20
1960.999999999996
 10
844.7897782427681
 20
1960.999999999996
 10
845.1287764713276
 20
1960.999999999996
 10
845.4206411944124
 20
1960.999999999996
 10
845.6649054907266
 20
1960.999999999996
 10
845.861178589503
 20
1960.999999999996
 10
846.009146495653
 20
1960.999999999996
 10
846.1085724920913
 20
1960.999999999996
 10
846.1592975184338
 20
1960.999999999996
 10
846.1664074431894
 20
1960.999999999996
  0
LWPOLYLINE
  5
19A
330
87
100
AcDbEntity
  8
P-SANR-FIXT
100
AcDbPolyline
 90
       41
 70
   128
 43
0.0
 10
850.1664074431895
 20
1964.999999999996
 10
850.1632078698332
 20
1964.840042663249
 10
850.1536142683999
 20
1964.680341224119
 10
850.1376419866048
 20
1964.52115117084
 10
850.1153165766918
 20
1964.362727173539
 10
850.0866737545543
 20
1964.205322676816
 10
850.0517593425975
 20
1964.049189494287
 10
850.0106291964325
 20
1963.894577405739
 10
849.9633491155192
 20
1963.741733757531
 10
849.9099947379011
 20
1963.590903066895
 10
849.8506514192008
 20
1963.442326630761
 10
849.7854140960692
 20
1963.296242139732
 10
849.7143871343066
 20
1963.15288329783
 10
849.6376841618999
 20
1963.012479448621
 10
849.5554278872431
 20
1962.875255208312
 10
849.4677499028281
 20
1962.741430106415
 10
849.3747904747266
 20
1962.611218234546
 10
849.2766983181931
 20
1962.484827903922
 10
849.1736303597528
 20
1962.36246131211
 10
849.0657514861529
 20
1962.244314219553
 10
848.9532342805782
 20
1962.130575636398
 10
848.8362587465546
 20
1962.021427520112
 10
848.7150120199837
 20
1961.9170444844
 10
848.5896880697632
 20
1961.81759351985
 10
848.4604873874792
 20
1961.723233726791
 10
848.327616666662
 20
1961.634116060764
 10
848.1912884721205
 20
1961.550383091022
 10
848.0517208998843
 20
1961.472168772456
 10
847.9091372282962
 20
1961.39959823129
 10
847.7637655608145
 20
1961.332787564909
 10
847.6158384610959
 20
1961.271843656127
 10
847.4655925809445
 20
1961.216864002198
 10
847.3132682817169
 20
1961.167936558839
 10
847.1591092497989
 20
1961.125139599523
 10
847.0033621067551
 20
1961.088541590255
 10
846.8462760147902
 20
1961.058201080042
 10
846.6881022781418
 20
1961.034166607229
 10
846.5290939410463
 20
1961.016476621845
 10
846.3695053829237
 20
1961.005159424093
 10
846.2095919114226
 20
1961.000233119076
 10
846.1664074431894
 20
1960.999999999996
  0
LWPOLYLINE
  5
19B
330
87
100
AcDbEntity
  8
P-SANR-FIXT
100
AcDbPolyline
 90
       41
 70
   128
 43
0.0
 10
785.1664074431892
 20
1960.999999999996
 10
785.0064501064426
 20
1961.003199573352
 10
784.8467486673126
 20
1961.012793174785
 10
784.6875586140335
 20
1961.02876545658
 10
784.5291346167322
 20
1961.051090866493
 10
784.371730120009
 20
1961.079733688631
 10
784.2155969374807
 20
1961.114648100587
 10
784.0609848489326
 20
1961.155778246753
 10
783.9081412007248
 20
1961.203058327666
 10
783.7573105100887
 20
1961.256412705284
 10
783.6087340739546
 20
1961.315756023984
 10
783.4626495829252
 20
1961.380993347116
 10
783.3192907410233
 20
1961.452020308879
 10
783.1788868918143
 20
1961.528723281285
 10
783.0416626515058
 20
1961.610979555942
 10
782.9078375496091
 20
1961.698657540357
 10
782.7776256777397
 20
1961.791616968459
 10
782.6512353471155
 20
1961.889709124992
 10
782.5288687553034
 20
1961.992777083432
 10
782.410721662747
 20
1962.100655957032
 10
782.2969830795912
 20
1962.213173162607
 10
782.1878349633058
 20
1962.330148696631
 10
782.0834519275933
 20
1962.451395423202
 10
781.9840009630437
 20
1962.576719373422
 10
781.8896411699853
 20
1962.705920055706
 10
781.8005235039576
 20
1962.838790776523
 10
781.7167905342158
 20
1962.975118971065
 10
781.6385762156494
 20
1963.114686543301
 10
781.5660056744832
 20
1963.257270214889
 10
781.4991950081022
 20
1963.402641882371
 10
781.4382510993204
 20
1963.550568982089
 10
781.383271445391
 20
1963.700814862241
 10
781.3343440020323
 20
1963.853139161468
 10
781.2915470427161
 20
1964.007298193386
 10
781.254949033448
 20
1964.16304533643
 10
781.2246085232353
 20
1964.320131428395
 10
781.2005740504226
 20
1964.478305165043
 10
781.1828840650388
 20
1964.637313502138
 10
781.1715668672869
 20
1964.796902060261
 10
781.1666405622696
 20
1964.956815531763
 10
781.1664074431893
 20
1964.999999999996
  0
LWPOLYLINE
  5
19C
330
87
100
AcDbEntity
  8
P-SANR-FIXT
100
AcDbPolyline
 90
        4
 70
   128
 43
0.0
 10
846.1664074431894
 20
1960.999999999996
 10
846.1420106963492
 20
1960.999999999996
 10
846.0688594854193
 20
1960.999999999996
 10
846.0441929441785
 20
1960.999999999996
  0
LWPOLYLINE
  5
19D
330
87
100
AcDbEntity
  8
P-SANR-FIXT
100
AcDbPolyline
 90
        4
 70
   128
 43
0.0
 10
785.2934142951554
 20
1960.999999999996
 10
785.2242423942873
 20
1960.999999999996
 10
785.1735173679449
 20
1960.999999999996
 10
785.1664074431892
 20
1960.999999999996
  0
LINE
  5
19E
330
87
100
AcDbEntity
  8
P-SANR-FIXT
100
AcDbLine
 10
787.1664074431897
 20
1960.999999999996
 30
0.0
 11
787.1664074431897
 21
1931.607318570101
 31
0.0
  0
LINE
  5
19F
330
87
100
AcDbEntity
  8
P-SANR-FIXT
100
AcDbLine
 10
844.1664074431889
 20
1931.607318570101
 30
0.0
 11
844.1664074431889
 21
1960.999999999996
 31
0.0
  0
LINE
  5
1A0
330
87
100
AcDbEntity
  8
P-SANR-FIXT
100
AcDbLine
 10
787.1664074431897
 20
1931.607318570101
 30
0.0
 11
787.1664074431897
 21
1922.500976325003
 31
0.0
  0
LINE
  5
1A1
330
87
100
AcDbEntity
  8
P-SANR-FIXT
100
AcDbLine
 10
844.1664074431889
 20
1922.500976325003
 30
0.0
 11
844.1664074431889
 21
1931.607318570101
 31
0.0
  0
LWPOLYLINE
  5
1A2
330
87
100
AcDbEntity
  8
P-SANR-FIXT
100
AcDbPolyline
 90
       15
 70
   128
 43
0.0
 10
844.1664074431892
 20
1922.500976325003
 10
844.1548089897732
 20
1921.921130979297
 10
844.1200321845771
 20
1921.34221326245
 10
844.0621326630704
 20
1920.765149319313
 10
843.9812030521357
 20
1920.190862329096
 10
843.8773728218873
 20
1919.620271028474
 10
843.7508080785438
 20
1919.05428824181
 10
843.6017112986952
 20
1918.493819420823
 10
843.4303210053846
 20
1917.939761196069
 10
843.2369113865192
 20
1917.392999942514
 10
843.0217918562311
 20
1916.854410361527
 10
842.7853065598787
 20
1916.324854081545
 10
842.5278338234887
 20
1915.805178279651
 10
842.2497855485151
 20
1915.296214326269
 10
842.2324330678648
 20
1915.265991874432
  0
LWPOLYLINE
  5
1A3
330
87
100
AcDbEntity
  8
P-SANR-FIXT
100
AcDbPolyline
 90
       15
 70
   128
 43
0.0
 10
789.1003818185139
 20
1915.265991874432
 10
788.82111108768
 20
1915.774286088405
 10
788.5623900908313
 20
1916.293341571806
 10
788.3246327263716
 20
1916.822327946587
 10
788.1082193553655
 20
1917.360398947393
 10
787.9134961930406
 20
1917.906693775405
 10
787.7407747549183
 20
1918.460338475435
 10
787.5903313584538
 20
1919.020447334068
 10
787.4624066809887
 20
1919.586124296614
 10
787.3572053747181
 20
1920.156464400602
 10
787.2748957392899
 20
1920.730555223534
 10
787.2156094525627
 20
1921.307478342558
 10
787.179441359948
 20
1921.886310803756
 10
787.1664493226782
 20
1922.466126598665
 10
787.1664074431895
 20
1922.500976325003
  0
LINE
  5
1A4
330
87
100
AcDbEntity
  8
P-SANR-FIXT
100
AcDbLine
 10
789.1003818185139
 20
1915.265991874432
 30
0.0
 11
793.4653464081693
 21
1907.684737587135
 31
0.0
  0
LINE
  5
1A5
330
87
100
AcDbEntity
  8
P-SANR-FIXT
100
AcDbLine
 10
837.8674684782092
 20
1907.684737587135
 30
0.0
 11
842.2324330678648
 21
1915.265991874432
 31
0.0
  0
LWPOLYLINE
  5
1A6
330
87
100
AcDbEntity
  8
P-SANR-FIXT
100
AcDbPolyline
 90
       15
 70
   128
 43
0.0
 10
837.8674684782092
 20
1907.684737587135
 10
837.4052272685533
 20
1906.843423026077
 10
836.9769994117001
 20
1905.984296708724
 10
836.5834699808704
 20
1905.108733053914
 10
836.2252685392052
 20
1904.218132776718
 10
835.9029681325987
 20
1903.313920647594
 10
835.6170843729474
 20
1902.397543213061
 10
835.3680746132821
 20
1901.470466481531
 10
835.1563372160986
 20
1900.534173578008
 10
834.9822109160646
 20
1899.590162371406
 10
834.8459742781145
 20
1898.639943078277
 10
834.7478452518073
 20
1897.685035846789
 10
834.6879808226518
 20
1896.726968324808
 10
834.6664767609643
 20
1895.767273215992
 10
834.6664074431894
 20
1895.709590910329
  0
LWPOLYLINE
  5
1A7
330
87
100
AcDbEntity
  8
P-SANR-FIXT
100
AcDbPolyline
 90
       15
 70
   128
 43
0.0
 10
796.6664074431893
 20
1895.709590910329
 10
796.6472100030528
 20
1896.669334930809
 10
796.5896483944523
 20
1897.627543565589
 10
796.493814703682
 20
1898.582683885263
 10
796.3598622442043
 20
1899.533227869071
 10
796.188005311379
 20
1900.47765484941
 10
795.978518839638
 20
1901.41445394458
 10
795.7317379626478
 20
1902.342126475868
 10
795.4480574771679
 20
1903.259188365116
 10
795.1279312114596
 20
1904.164172508931
 10
794.7718712992585
 20
1905.055631125737
 10
794.3804473604683
 20
1905.932138071913
 10
793.954285589892
 20
1906.792291123325
 10
793.4940677554529
 20
1907.634714218579
 10
793.4653464081693
 20
1907.684737587135
  0
LINE
  5
1A8
330
87
100
AcDbEntity
  8
P-SANR-FIXT
100
AcDbLine
 10
796.6664074431893
 20
1895.709590910328
 30
0.0
 11
796.6664074431893
 21
1891.699999999996
 31
0.0
  0
LINE
  5
1A9
330
87
100
AcDbEntity
  8
P-SANR-FIXT
100
AcDbLine
 10
834.6664074431894
 20
1891.699999999996
 30
0.0
 11
834.6664074431894
 21
1895.709590910328
 31
0.0
  0
LINE
  5
1AA
330
87
100
AcDbEntity
  8
P-SANR-FIXT
100
AcDbLine
 10
767.2035030800259
 20
1970.999999999996
 30
0.0
 11
769.7035030800565
 21
1970.999999999996
 31
0.0
  0
LINE
  5
1AB
330
87
100
AcDbEntity
  8
P-SANR-FIXT
100
AcDbLine
 10
769.7035030800564
 20
2028.999999999996
 30
0.0
 11
767.2035030800258
 21
2028.999999999996
 31
0.0
  0
LINE
  5
1AC
330
87
100
AcDbEntity
  8
P-SANR-FIXT
100
AcDbLine
 10
769.7035030800565
 20
1970.999999999995
 30
0.0
 11
769.7413329620745
 21
1971.065523277695
 31
0.0
  0
LINE
  5
1AD
330
87
100
AcDbEntity
  8
P-SANR-FIXT
100
AcDbLine
 10
769.7551166478277
 20
1971.089397321735
 30
0.0
 11
771.4932889145445
 21
1974.099999999995
 31
0.0
  0
LINE
  5
1AE
330
87
100
AcDbEntity
  8
P-SANR-FIXT
100
AcDbLine
 10
771.4932889145442
 20
2025.899999999996
 30
0.0
 11
769.7551166478275
 21
2028.910602678257
 31
0.0
  0
LINE
  5
1AF
330
87
100
AcDbEntity
  8
P-SANR-FIXT
100
AcDbLine
 10
769.7413329620744
 20
2028.934476722296
 30
0.0
 11
769.7035030800564
 21
2028.999999999996
 31
0.0
  0
LWPOLYLINE
  5
1B0
330
87
100
AcDbEntity
  8
P-SANR-FIXT
100
AcDbPolyline
 90
       28
 70
   128
 43
0.0
 10
771.4932889145442
 20
2025.899999999996
 10
771.5098388305804
 20
2025.872614533902
 10
771.5274706350044
 20
2025.845912793385
 10
771.5461561206905
 20
2025.81993749553
 10
771.5658653948476
 20
2025.794730195275
 10
771.5865669268414
 20
2025.770331218923
 10
771.6082275986366
 20
2025.746779599629
 10
771.6308127577797
 20
2025.724113014963
 10
771.6542862728332
 20
2025.702367726623
 10
771.6786105911808
 20
2025.681578522433
 10
771.703746799102
 20
2025.661778660683
 10
771.7296546840265
 20
2025.64299981693
 10
771.7562927988645
 20
2025.625272033318
 10
771.7836185283155
 20
2025.608623670518
 10
771.811588157041
 20
2025.593081362359
 10
771.8401569396021
 20
2025.578669973219
 10
771.8692791720403
 20
2025.565412558247
 10
771.8989082649969
 20
2025.553330326478
 10
771.928996818243
 20
2025.542442606905
 10
771.9594966965126
 20
2025.532766817558
 10
771.9903591065063
 20
2025.524318437634
 10
772.021534674952
 20
2025.517110982741
 10
772.0529735275903
 20
2025.511155983268
 10
772.0846253689639
 20
2025.506462965944
 10
772.1164395628788
 20
2025.503039438595
 10
772.1483652134107
 20
2025.500890878136
 10
772.1803512463301
 20
2025.500020721803
 10
772.1861092375717
 20
2025.499999999996
  0
LWPOLYLINE
  5
1B1
330
87
100
AcDbEntity
  8
P-SANR-FIXT
100
AcDbPolyline
 90
       28
 70
   128
 43
0.0
 10
772.1861092375718
 20
1974.499999999996
 10
772.1541177702227
 20
1974.499360085324
 10
772.1221774823966
 20
1974.497441365038
 10
772.090339471741
 20
1974.494246908678
 10
772.0586546722804
 20
1974.489781826696
 10
772.0271737729359
 20
1974.484053262268
 10
771.9959471364302
 20
1974.477070379877
 10
771.9650247187208
 20
1974.468844350644
 10
771.9344559890791
 20
1974.459388334461
 10
771.904289850952
 20
1974.448717458938
 10
771.874574563725
 20
1974.436848795198
 10
771.8453576655194
 20
1974.423801330571
 10
771.8166858971389
 20
1974.409595938219
 10
771.7886051272969
 20
1974.394255343737
 10
771.7611602792352
 20
1974.377804088806
 10
771.7343952588558
 20
1974.360268491923
 10
771.708352884482
 20
1974.341676606303
 10
771.6830748183572
 20
1974.322058174996
 10
771.6586014999948
 20
1974.301444583308
 10
771.6349720814835
 20
1974.279868808588
 10
771.6122243648523
 20
1974.257365367473
 10
771.5903947415954
 20
1974.233970260668
 10
771.5695181344528
 20
1974.209720915354
 10
771.5496279415429
 20
1974.18465612531
 10
771.5307559829311
 20
1974.158815988853
 10
771.5129324497256
 20
1974.13224184469
 10
771.4961858557773
 20
1974.104976205781
 10
771.4932889145445
 20
1974.099999999995
  0
LINE
  5
1B2
330
87
100
AcDbEntity
  8
P-SANR-FIXT
100
AcDbLine
 10
772.1861092375718
 20
1974.499999999996
 30
0.0
 11
781.1664074431894
 21
1974.499999999996
 31
0.0
  0
LINE
  5
1B3
330
87
100
AcDbEntity
  8
P-SANR-FIXT
100
AcDbLine
 10
781.1664074431894
 20
2025.499999999996
 30
0.0
 11
772.1861092375717
 21
2025.499999999996
 31
0.0
  0
LINE
  5
1B4
330
87
100
AcDbEntity
  8
P-SANR-FIXT
100
AcDbLine
 10
779.1701472780759
 20
2030.070000000056
 30
0.0
 11
779.1701472780759
 21
2029.534135497928
 31
0.0
  0
LINE
  5
1B5
330
87
100
AcDbEntity
  8
P-SANR-FIXT
100
AcDbLine
 10
852.1626676083027
 20
2029.534135497928
 30
0.0
 11
852.1626676083027
 21
2030.070000000056
 31
0.0
  0
LINE
  5
1B6
330
87
100
AcDbEntity
  8
P-SANR-FIXT
100
AcDbLine
 10
805.3473361345799
 20
2052.970000000073
 30
0.0
 11
806.5664074431886
 21
2052.268359010746
 31
0.0
  0
LINE
  5
1B7
330
87
100
AcDbEntity
  8
P-SANR-FIXT
100
AcDbLine
 10
824.7664074431892
 20
2052.268359010746
 30
0.0
 11
825.9854787517975
 21
2052.970000000073
 31
0.0
  0
LINE
  5
1B8
330
87
100
AcDbEntity
  8
P-SANR-FIXT
100
AcDbLine
 10
806.5664074431886
 20
2052.268359010746
 30
0.0
 11
806.5664074431886
 21
2051.470000000056
 31
0.0
  0
LINE
  5
1B9
330
87
100
AcDbEntity
  8
P-SANR-FIXT
100
AcDbLine
 10
824.7664074431892
 20
2051.470000000056
 30
0.0
 11
824.7664074431892
 21
2052.268359010746
 31
0.0
  0
LINE
  5
1BA
330
87
100
AcDbEntity
  8
P-SANR-FIXT
100
AcDbLine
 10
801.6664074431885
 20
2051.470000000056
 30
0.0
 11
801.6664074431885
 21
2050.470000000056
 31
0.0
  0
LINE
  5
1BB
330
87
100
AcDbEntity
  8
P-SANR-FIXT
100
AcDbLine
 10
829.6664074431891
 20
2050.470000000056
 30
0.0
 11
829.6664074431891
 21
2051.470000000056
 31
0.0
  0
LINE
  5
1BC
330
87
100
AcDbEntity
  8
P-SANR-FIXT
100
AcDbLine
 10
773.6664074431888
 20
2050.470000000056
 30
0.0
 11
773.6664074431888
 21
2030.070000000056
 31
0.0
  0
LINE
  5
1BD
330
87
100
AcDbEntity
  8
P-SANR-FIXT
100
AcDbLine
 10
857.6664074431889
 20
2030.070000000056
 30
0.0
 11
857.6664074431889
 21
2050.470000000056
 31
0.0
  0
LINE
  5
1BE
330
87
100
AcDbEntity
  8
P-SANR-FIXT
100
AcDbLine
 10
727.60647333806
 20
1974.003778562401
 30
0.0
 11
743.6035030801048
 21
1974.003778562401
 31
0.0
  0
LINE
  5
1BF
330
87
100
AcDbEntity
  8
P-SANR-FIXT
100
AcDbLine
 10
743.6035030801047
 20
2025.996221437591
 30
0.0
 11
727.6064733380596
 21
2025.996221437591
 31
0.0
  0
LINE
  5
1C0
330
87
100
AcDbEntity
  8
P-SANR-FIXT
100
AcDbLine
 10
743.6035030801048
 20
1966.499999999995
 30
0.0
 11
767.2035030800259
 21
1966.499999999995
 31
0.0
  0
LINE
  5
1C1
330
87
100
AcDbEntity
  8
P-SANR-FIXT
100
AcDbLine
 10
767.2035030800258
 20
2033.499999999996
 30
0.0
 11
743.6035030801047
 21
2033.499999999996
 31
0.0
  0
LINE
  5
1C2
330
87
100
AcDbEntity
  8
P-SANR-FIXT
100
AcDbLine
 10
852.1626676083011
 20
2029.534135497927
 30
0.0
 11
779.1701472780744
 21
2029.534135497927
 31
0.0
  0
LINE
  5
1C3
330
87
100
AcDbEntity
  8
P-SANR-FIXT
100
AcDbLine
 10
781.1664074431879
 20
2028.381594154227
 30
0.0
 11
850.1664074431877
 21
2028.381594154227
 31
0.0
  0
SPLINE
  5
1C4
330
87
100
AcDbEntity
  8
P-SANR-FIXT
100
AcDbSpline
210
0.0
220
0.0
230
1.0
 70
     8
 71
     3
 72
    10
 73
     6
 74
     0
 42
0.000000001
 43
0.0000000001
 40
0.0
 40
0.0
 40
0.0
 40
0.0
 40
0.3333333333333333
 40
0.6666666666666666
 40
1.0
 40
1.0
 40
1.0
 40
1.0
 10
781.1664074431879
 20
2025.499999999995
 30
0.0
 10
781.1664074431879
 20
2025.490495222524
 30
0.0
 10
781.4136450064824
 20
2025.172780254432
 30
0.0
 10
782.4620684191644
 20
2023.722909601153
 30
0.0
 10
783.4988676930374
 20
2022.261827621588
 30
0.0
 10
784.0794265218457
 20
2021.394797585512
 30
0.0
  0
SPLINE
  5
1C5
330
87
100
AcDbEntity
  8
P-SANR-FIXT
100
AcDbSpline
210
0.0
220
0.0
230
1.0
 70
     8
 71
     3
 72
    29
 73
    25
 74
     0
 42
0.000000001
 43
0.0000000001
 40
0.0
 40
0.0
 40
0.0
 40
0.0
 40
0.125
 40
0.1875
 40
0.25
 40
0.265625
 40
0.28125
 40
0.3125
 40
0.34375
 40
0.375
 40
0.40625
 40
0.4375
 40
0.5
 40
0.5625
 40
0.59375
 40
0.625
 40
0.65625
 40
0.6875
 40
0.71875
 40
0.75
 40
0.78125
 40
0.8125
 40
0.875
 40
1.0
 40
1.0
 40
1.0
 40
1.0
 10
784.0794265218457
 20
2021.394797585512
 30
0.0
 10
784.8639540778474
 20
2020.229415207239
 30
0.0
 10
786.1649911396964
 20
2018.240311927719
 30
0.0
 10
787.9963878828397
 20
2015.082271825574
 30
0.0
 10
788.9977818154934
 20
2013.129582122212
 30
0.0
 10
789.6194036479908
 20
2011.759894177951
 30
0.0
 10
790.0326238204768
 20
2010.824256943493
 30
0.0
 10
790.531056918544
 20
2009.618519170831
 30
0.0
 10
791.0769417854567
 20
2008.119136269519
 30
0.0
 10
791.5305562930326
 20
2006.585655823413
 30
0.0
 10
791.8970677562425
 20
2004.992650165391
 30
0.0
 10
792.2887983581745
 20
2002.779431271699
 30
0.0
 10
792.5217852275413
 20
1999.999082557551
 30
0.0
 10
792.2883826664221
 20
1997.217985703063
 30
0.0
 10
791.8963112511768
 20
1995.003992221703
 30
0.0
 10
791.5295657619956
 20
1993.410569678884
 30
0.0
 10
791.0755189795122
 20
1991.876769962486
 30
0.0
 10
790.5297506085892
 20
1990.37729220522
 30
0.0
 10
789.929660411767
 20
1988.929555604944
 30
0.0
 10
789.3085913305155
 20
1987.542915598805
 30
0.0
 10
788.6652730603217
 20
1986.216262601644
 30
0.0
 10
787.7625999693523
 20
1984.517413221817
 30
0.0
 10
786.1639503498772
 20
1981.7561083678
 30
0.0
 10
784.862942168667
 20
1979.768580715401
 30
0.0
 10
784.079426521846
 20
1978.605202414478
 30
0.0
  0
SPLINE
  5
1C6
330
87
100
AcDbEntity
  8
P-SANR-FIXT
100
AcDbSpline
210
0.0
220
0.0
230
1.0
 70
     8
 71
     3
 72
    10
 73
     6
 74
     0
 42
0.000000001
 43
0.0000000001
 40
0.0
 40
0.0
 40
0.0
 40
0.0
 40
0.3333333333333333
 40
0.6666666666666666
 40
1.0
 40
1.0
 40
1.0
 40
1.0
 10
784.0794265218457
 20
1978.605202414478
 30
0.0
 10
783.4988676930374
 20
1977.738172378402
 30
0.0
 10
782.4620684191644
 20
1976.277090398837
 30
0.0
 10
781.4136450064824
 20
1974.827219745558
 30
0.0
 10
781.1664074431879
 20
1974.509504777465
 30
0.0
 10
781.1664074431879
 20
1974.499999999995
 30
0.0
  0
LINE
  5
1C7
330
87
100
AcDbEntity
  8
P-SANR-FIXT
100
AcDbLine
 10
796.6664074431878
 20
1891.699999999995
 30
0.0
 11
834.6664074431878
 21
1891.699999999995
 31
0.0
  0
LINE
  5
1C8
330
87
100
AcDbEntity
  8
P-SANR-FIXT
100
AcDbLine
 10
769.7035030800551
 20
1970.999999999994
 30
0.0
 11
769.703503080055
 21
2028.999999999995
 31
0.0
  0
LINE
  5
1C9
330
87
100
AcDbEntity
  8
P-SANR-FIXT
100
AcDbLine
 10
857.6664074431873
 20
2030.070000000055
 30
0.0
 11
773.6664074431874
 21
2030.070000000055
 31
0.0
  0
LINE
  5
1CA
330
87
100
AcDbEntity
  8
P-SANR-FIXT
100
AcDbLine
 10
806.5664074431872
 20
2052.268359010744
 30
0.0
 11
824.7664074431876
 21
2052.268359010744
 31
0.0
  0
LINE
  5
1CB
330
87
100
AcDbEntity
  8
P-SANR-FIXT
100
AcDbLine
 10
801.666407443187
 20
2051.470000000055
 30
0.0
 11
829.6664074431875
 21
2051.470000000055
 31
0.0
  0
LINE
  5
1CC
330
87
100
AcDbEntity
  8
P-SANR-FIXT
100
AcDbLine
 10
773.6664074431874
 20
2050.470000000055
 30
0.0
 11
857.6664074431873
 21
2050.470000000055
 31
0.0
  0
LINE
  5
1CD
330
87
100
AcDbEntity
  8
P-SANR-FIXT
100
AcDbLine
 10
767.2035030800243
 20
2033.499999999995
 30
0.0
 11
767.2035030800246
 21
1966.499999999994
 31
0.0
  0
LINE
  5
1CE
330
87
100
AcDbEntity
  8
P-SANR-FIXT
100
AcDbLine
 10
709.3067762489114
 20
1981.733767099822
 30
0.0
 11
709.3067762489112
 21
2018.266232900167
 31
0.0
  0
LINE
  5
1CF
330
87
100
AcDbEntity
  8
P-SANR-FIXT
100
AcDbLine
 10
743.6035030801035
 20
1966.499999999994
 30
0.0
 11
743.6035030801032
 21
2033.499999999995
 31
0.0
  0
ENDBLK
  5
1D1
330
87
100
AcDbEntity
  8
0
100
AcDbBlockEnd
  0
BLOCK
  5
25A
330
1D3
100
AcDbEntity
  8
0
100
AcDbBlockBegin
  2
Automatic flow rate regulator valve_Caleffi_121 DN15 - 1__-V1-Est - Idraulica
 70
     0
 10
0.0
 20
0.0
 30
0.0
  3
Automatic flow rate regulator valve_Caleffi_121 DN15 - 1__-V1-Est - Idraulica
  1

  0
ARC
  5
1D4
330
1D3
100
AcDbEntity
  8
P-SANR-FIXT
100
AcDbCircle
 10
709.3067762489111
 20
1653.745878730054
 30
0.0
 40
24.17602541641082
100
AcDbArc
 50
317.3849505856987
 51
342.6150494143034
  0
LINE
  5
1D5
330
1D3
100
AcDbEntity
  8
P-SANR-FIXT
100
AcDbLine
 10
732.3784128332987
 20
1646.522320724965
 30
0.0
 11
732.3784128332986
 21
1660.969436735143
 31
0.0
  0
ARC
  5
1D6
330
1D3
100
AcDbEntity
  8
P-SANR-FIXT
100
AcDbCircle
 10
709.3067762489111
 20
1653.745878730054
 30
0.0
 40
24.17602541641081
100
AcDbArc
 50
17.3849505856969
 51
42.61504941429905
  0
LINE
  5
1D7
330
1D3
100
AcDbEntity
  8
P-SANR-FIXT
100
AcDbLine
 10
727.0983792792236
 20
1670.114723116471
 30
0.0
 11
714.5868098029865
 21
1677.338281121561
 31
0.0
  0
ARC
  5
1D8
330
1D3
100
AcDbEntity
  8
P-SANR-FIXT
100
AcDbCircle
 10
709.3067762489111
 20
1653.745878730054
 30
0.0
 40
24.17602541641076
100
AcDbArc
 50
77.38495058569795
 51
102.6150494142993
  0
LINE
  5
1D9
330
1D3
100
AcDbEntity
  8
P-SANR-FIXT
100
AcDbLine
 10
704.0267426948364
 20
1677.338281121561
 30
0.0
 11
691.515173218599
 21
1670.114723116471
 31
0.0
  0
ARC
  5
1DA
330
1D3
100
AcDbEntity
  8
P-SANR-FIXT
100
AcDbCircle
 10
709.3067762489111
 20
1653.745878730054
 30
0.0
 40
24.17602541641081
100
AcDbArc
 50
137.3849505856983
 51
162.6150494142992
  0
LINE
  5
1DB
330
1D3
100
AcDbEntity
  8
P-SANR-FIXT
100
AcDbLine
 10
686.2351396645238
 20
1660.969436735145
 30
0.0
 11
686.2351396645237
 21
1646.522320724964
 31
0.0
  0
ARC
  5
1DC
330
1D3
100
AcDbEntity
  8
P-SANR-FIXT
100
AcDbCircle
 10
709.3067762489111
 20
1653.745878730054
 30
0.0
 40
24.17602541641076
100
AcDbArc
 50
197.3849505856986
 51
222.6150494142996
  0
LINE
  5
1DD
330
1D3
100
AcDbEntity
  8
P-SANR-FIXT
100
AcDbLine
 10
691.5151732185988
 20
1637.377034343638
 30
0.0
 11
704.0267426948357
 21
1630.153476338547
 31
0.0
  0
ARC
  5
1DE
330
1D3
100
AcDbEntity
  8
P-SANR-FIXT
100
AcDbCircle
 10
709.3067762489111
 20
1653.745878730054
 30
0.0
 40
24.17602541641091
100
AcDbArc
 50
257.3849505856985
 51
282.6150494143
  0
LINE
  5
1DF
330
1D3
100
AcDbEntity
  8
P-SANR-FIXT
100
AcDbLine
 10
714.586809802986
 20
1630.153476338547
 30
0.0
 11
727.0983792792232
 21
1637.377034343637
 31
0.0
  0
ARC
  5
1E0
330
1D3
100
AcDbEntity
  8
P-SANR-FIXT
100
AcDbCircle
 10
709.3067762489112
 20
1653.745878730054
 30
0.0
 40
15.89999999999981
100
AcDbArc
 50
180.0000000000004
 51
0.000000000000458
  0
ARC
  5
1E1
330
1D3
100
AcDbEntity
  8
P-SANR-FIXT
100
AcDbCircle
 10
709.3067762489112
 20
1653.745878730054
 30
0.0
 40
15.89999999999986
100
AcDbArc
 50
0.0000000000008193
 51
180.0
  0
SPLINE
  5
1E2
330
1D3
100
AcDbEntity
  8
P-SANR-FIXT
100
AcDbSpline
210
0.0
220
0.0
230
1.0
 70
    24
 71
     3
 72
     8
 73
     4
 74
     0
 42
0.000000001
 43
0.0000000001
 40
0.0
 40
0.0
 40
0.0
 40
0.0
 40
0.2350520032547575
 40
0.2350520032547575
 40
0.2350520032547575
 40
0.2350520032547575
 10
724.5442093296539
 20
1674.353870457177
 30
0.0
 10
725.3285214990893
 20
1672.995401930721
 30
0.0
 10
726.1170781747044
 20
1671.629581703908
 30
0.0
 10
726.914236359984
 20
1670.248863225334
 30
0.0
  0
SPLINE
  5
1E3
330
1D3
100
AcDbEntity
  8
P-SANR-FIXT
100
AcDbSpline
210
0.0
220
0.0
230
1.0
 70
     8
 71
     3
 72
     9
 73
     5
 74
     0
 42
0.000000001
 43
0.0000000001
 40
0.0
 40
0.0
 40
0.0
 40
0.0
 40
0.5
 40
1.0
 40
1.0
 40
1.0
 40
1.0
 10
719.5351040652091
 20
1677.245878730004
 30
0.0
 10
720.4208966153554
 20
1676.860339301062
 30
0.0
 10
722.1488376362367
 20
1675.988988588819
 30
0.0
 10
723.7674232848067
 20
1674.928221686213
 30
0.0
 10
724.544209329654
 20
1674.353870457177
 30
0.0
  0
SPLINE
  5
1E4
330
1D3
100
AcDbEntity
  8
P-SANR-FIXT
100
AcDbSpline
210
0.0
220
0.0
230
1.0
 70
    24
 71
     3
 72
     8
 73
     4
 74
     0
 42
0.000000001
 43
0.0000000001
 40
0.0
 40
0.0
 40
0.0
 40
0.0
 40
0.2349056154710438
 40
0.2349056154710438
 40
0.2349056154710438
 40
0.2349056154710438
 10
699.0784484326138
 20
1677.245878730004
 30
0.0
 10
700.6469994558044
 20
1677.245878730004
 30
0.0
 10
702.2238254702853
 20
1677.245878730004
 30
0.0
 10
703.8177918723093
 20
1677.245878730004
 30
0.0
  0
SPLINE
  5
1E5
330
1D3
100
AcDbEntity
  8
P-SANR-FIXT
100
AcDbSpline
210
0.0
220
0.0
230
1.0
 70
    24
 71
     3
 72
     8
 73
     4
 74
     0
 42
0.000000001
 43
0.0000000001
 40
0.767002864828261
 40
0.767002864828261
 40
0.767002864828261
 40
0.767002864828261
 40
1.0
 40
1.0
 40
1.0
 40
1.0
 10
714.7960365052838
 20
1677.245878730004
 30
0.0
 10
716.3857284928236
 20
1677.245878730004
 30
0.0
 10
717.96253399031
 20
1677.245878730004
 30
0.0
 10
719.5351040652091
 20
1677.245878730004
 30
0.0
  0
SPLINE
  5
1E6
330
1D3
100
AcDbEntity
  8
P-SANR-FIXT
100
AcDbSpline
210
0.0
220
0.0
230
1.0
 70
     8
 71
     3
 72
     9
 73
     5
 74
     0
 42
0.000000001
 43
0.0000000001
 40
0.0
 40
0.0
 40
0.0
 40
0.0
 40
0.5
 40
1.0
 40
1.0
 40
1.0
 40
1.0
 10
694.0693431681693
 20
1674.353870457179
 30
0.0
 10
694.8461287537877
 20
1674.928221346662
 30
0.0
 10
696.4647138692059
 20
1675.988988015868
 30
0.0
 10
698.1926553587931
 20
1676.860339073133
 30
0.0
 10
699.0784484326138
 20
1677.245878730004
 30
0.0
  0
SPLINE
  5
1E7
330
1D3
100
AcDbEntity
  8
P-SANR-FIXT
100
AcDbSpline
210
0.0
220
0.0
230
1.0
 70
    24
 71
     3
 72
     8
 73
     4
 74
     0
 42
0.000000001
 43
0.0000000001
 40
0.0
 40
0.0
 40
0.0
 40
0.0
 40
0.2351717042395437
 40
0.2351717042395437
 40
0.2351717042395437
 40
0.2351717042395437
 10
683.8410153518711
 20
1656.637887002881
 30
0.0
 10
684.6248425693087
 20
1657.995515567838
 30
0.0
 10
685.4131395422804
 20
1659.360885976477
 30
0.0
 10
686.2105165690823
 20
1660.741983499687
 30
0.0
  0
SPLINE
  5
1E8
330
1D3
100
AcDbEntity
  8
P-SANR-FIXT
100
AcDbSpline
210
0.0
220
0.0
230
1.0
 70
    24
 71
     3
 72
     8
 73
     4
 74
     0
 42
0.000000001
 43
0.0000000001
 40
0.7671572625741331
 40
0.7671572625741331
 40
0.7671572625741331
 40
0.7671572625741331
 40
1.0
 40
1.0
 40
1.0
 40
1.0
 10
691.7002275048217
 20
1670.250441759253
 30
0.0
 10
692.4949400495905
 20
1671.626924264205
 30
0.0
 10
693.2831537109353
 20
1672.992150372874
 30
0.0
 10
694.0693431681692
 20
1674.353870457178
 30
0.0
  0
SPLINE
  5
1E9
330
1D3
100
AcDbEntity
  8
P-SANR-FIXT
100
AcDbSpline
210
0.0
220
0.0
230
1.0
 70
     8
 71
     3
 72
     9
 73
     5
 74
     0
 42
0.000000001
 43
0.0000000001
 40
0.0
 40
0.0
 40
0.0
 40
0.0
 40
0.5
 40
1.0
 40
1.0
 40
1.0
 40
1.0
 10
683.8410153518709
 20
1650.853870457228
 30
0.0
 10
683.7865105902153
 20
1651.333815567037
 30
0.0
 10
683.7046444214329
 20
1652.296788275101
 30
0.0
 10
683.6773265881143
 20
1653.26284853508
 30
0.0
 10
683.6773265881143
 20
1653.745878730054
 30
0.0
  0
ELLIPSE
  5
1EA
330
1D3
100
AcDbEntity
  8
P-SANR-FIXT
100
AcDbEllipse
 10
709.3059717621668
 20
1653.745878619671
 30
0.0
 11
-0.0011846998448717
 21
25.62904932471827
 31
0.0
210
0.0
220
0.0
230
1.0
 40
0.9999842296902045
 41
1.4576682184837
 42
1.570750098332486
  0
SPLINE
  5
1EB
330
1D3
100
AcDbEntity
  8
P-SANR-FIXT
100
AcDbSpline
210
0.0
220
0.0
230
1.0
 70
    24
 71
     3
 72
     8
 73
     4
 74
     0
 42
0.000000001
 43
0.0000000001
 40
0.0
 40
0.0
 40
0.0
 40
0.0
 40
0.2355861388916145
 40
0.2355861388916145
 40
0.2355861388916145
 40
0.2355861388916145
 10
694.0693431681686
 20
1633.13788700293
 30
0.0
 10
693.2859248346259
 20
1634.494807360207
 30
0.0
 10
692.4975953785567
 20
1635.860234031222
 30
0.0
 10
691.6996465348192
 20
1637.242321970416
 30
0.0
  0
SPLINE
  5
1EC
330
1D3
100
AcDbEntity
  8
P-SANR-FIXT
100
AcDbSpline
210
0.0
220
0.0
230
1.0
 70
    24
 71
     3
 72
     8
 73
     4
 74
     0
 42
0.000000001
 43
0.0000000001
 40
0.767499316597702
 40
0.767499316597702
 40
0.767499316597702
 40
0.767499316597702
 40
1.0
 40
1.0
 40
1.0
 40
1.0
 10
686.2098491493362
 20
1646.750929965332
 30
0.0
 10
685.4155156637266
 20
1648.126755920561
 30
0.0
 10
684.6274129598747
 20
1649.491789845215
 30
0.0
 10
683.8410153518709
 20
1650.853870457228
 30
0.0
  0
SPLINE
  5
1ED
330
1D3
100
AcDbEntity
  8
P-SANR-FIXT
100
AcDbSpline
210
0.0
220
0.0
230
1.0
 70
     8
 71
     3
 72
     9
 73
     5
 74
     0
 42
0.000000001
 43
0.0000000001
 40
0.0
 40
0.0
 40
0.0
 40
0.0
 40
0.5
 40
1.0
 40
1.0
 40
1.0
 40
1.0
 10
699.0784484326134
 20
1630.245878730104
 30
0.0
 10
698.1926553587926
 20
1630.631418386974
 30
0.0
 10
696.4647138692055
 20
1631.50276944424
 30
0.0
 10
694.8461287537871
 20
1632.563536113446
 30
0.0
 10
694.0693431681686
 20
1633.13788700293
 30
0.0
  0
SPLINE
  5
1EE
330
1D3
100
AcDbEntity
  8
P-SANR-FIXT
100
AcDbSpline
210
0.0
220
0.0
230
1.0
 70
    24
 71
     3
 72
     8
 73
     4
 74
     0
 42
0.000000001
 43
0.0000000001
 40
0.0
 40
0.0
 40
0.0
 40
0.0
 40
0.235726625133128
 40
0.235726625133128
 40
0.235726625133128
 40
0.235726625133128
 10
719.5351040652084
 20
1630.245878730103
 30
0.0
 10
717.9681725600125
 20
1630.245878730104
 30
0.0
 10
716.3912188429344
 20
1630.245878730104
 30
0.0
 10
714.794993699018
 20
1630.245878730104
 30
0.0
  0
SPLINE
  5
1EF
330
1D3
100
AcDbEntity
  8
P-SANR-FIXT
100
AcDbSpline
210
0.0
220
0.0
230
1.0
 70
    24
 71
     3
 72
     8
 73
     4
 74
     0
 42
0.000000001
 43
0.0000000001
 40
0.7676812690680085
 40
0.7676812690680085
 40
0.7676812690680085
 40
0.7676812690680085
 40
1.0
 40
1.0
 40
1.0
 40
1.0
 10
703.8164091665213
 20
1630.245878730104
 30
0.0
 10
702.2282173062864
 20
1630.245878730104
 30
0.0
 10
700.6518483414311
 20
1630.245878730104
 30
0.0
 10
699.0784484326134
 20
1630.245878730104
 30
0.0
  0
SPLINE
  5
1F0
330
1D3
100
AcDbEntity
  8
P-SANR-FIXT
100
AcDbSpline
210
0.0
220
0.0
230
1.0
 70
     8
 71
     3
 72
     9
 73
     5
 74
     0
 42
0.000000001
 43
0.0000000001
 40
0.0
 40
0.0
 40
0.0
 40
0.0
 40
0.5
 40
1.0
 40
1.0
 40
1.0
 40
1.0
 10
724.5442093296539
 20
1633.13788700293
 30
0.0
 10
723.7674232848062
 20
1632.563535773895
 30
0.0
 10
722.1488376362363
 20
1631.502768871289
 30
0.0
 10
720.4208966153547
 20
1630.631418159046
 30
0.0
 10
719.5351040652084
 20
1630.245878730103
 30
0.0
  0
SPLINE
  5
1F1
330
1D3
100
AcDbEntity
  8
P-SANR-FIXT
100
AcDbSpline
210
0.0
220
0.0
230
1.0
 70
    24
 71
     3
 72
     8
 73
     4
 74
     0
 42
0.000000001
 43
0.0000000001
 40
0.7649479967452329
 40
0.7649479967452329
 40
0.7649479967452329
 40
0.7649479967452329
 40
1.0
 40
1.0
 40
1.0
 40
1.0
 10
726.9142363599838
 20
1637.242894234773
 30
0.0
 10
726.1170781747043
 20
1635.8621757562
 30
0.0
 10
725.3285214990892
 20
1634.496355529387
 30
0.0
 10
724.5442093296539
 20
1633.13788700293
 30
0.0
  0
ARC
  5
1F2
330
1D3
100
AcDbEntity
  8
P-SANR-FIXT
100
AcDbCircle
 10
709.1635030800367
 20
1653.745878730054
 30
0.0
 40
24.1525658927629
100
AcDbArc
 50
195.6011257146604
 51
224.5018279129229
  0
ARC
  5
1F3
330
1D3
100
AcDbEntity
  8
P-SANR-FIXT
100
AcDbCircle
 10
709.1635030800367
 20
1653.745878730054
 30
0.0
 40
24.15256589276308
100
AcDbArc
 50
256.8355981037985
 51
257.7134062096639
  0
ARC
  5
1F4
330
1D3
100
AcDbEntity
  8
P-SANR-FIXT
100
AcDbCircle
 10
709.1635030800367
 20
1653.745878730054
 30
0.0
 40
24.15256589276302
100
AcDbArc
 50
260.9999999999995
 51
261.9215307644505
  0
ARC
  5
1F5
330
1D3
100
AcDbEntity
  8
P-SANR-FIXT
100
AcDbCircle
 10
709.1635030800367
 20
1653.745878730054
 30
0.0
 40
24.15256589276292
100
AcDbArc
 50
265.4999999999997
 51
266.1305787839885
  0
ARC
  5
1F6
330
1D3
100
AcDbEntity
  8
P-SANR-FIXT
100
AcDbCircle
 10
709.1635030800367
 20
1653.745878730054
 30
0.0
 40
24.15256589276311
100
AcDbArc
 50
269.9999999999995
 51
270.3402285907929
  0
LINE
  5
1F7
330
1D3
100
AcDbEntity
  8
P-SANR-FIXT
100
AcDbLine
 10
711.0584915594901
 20
1629.667767137427
 30
0.0
 11
711.0795818768937
 21
1629.669436275893
 31
0.0
  0
ARC
  5
1F8
330
1D3
100
AcDbEntity
  8
P-SANR-FIXT
100
AcDbCircle
 10
709.1635030800367
 20
1653.745878730054
 30
0.0
 40
24.15256589276293
100
AcDbArc
 50
278.763147687469
 51
278.9999999999996
  0
ARC
  5
1F9
330
1D3
100
AcDbEntity
  8
P-SANR-FIXT
100
AcDbCircle
 10
709.1635030800367
 20
1653.745878730054
 30
0.0
 40
24.15256589276296
100
AcDbArc
 50
76.4999999999999
 51
76.60839419274262
  0
ARC
  5
1FA
330
1D3
100
AcDbEntity
  8
P-SANR-FIXT
100
AcDbCircle
 10
709.1635030800367
 20
1653.745878730054
 30
0.0
 40
24.15256589276291
100
AcDbArc
 50
80.9999999999999
 51
81.23685231252814
  0
LINE
  5
1FB
330
1D3
100
AcDbEntity
  8
P-SANR-FIXT
100
AcDbLine
 10
711.0795818768947
 20
1677.822321184214
 30
0.0
 11
711.0584915594902
 21
1677.823990322681
 31
0.0
  0
ARC
  5
1FC
330
1D3
100
AcDbEntity
  8
P-SANR-FIXT
100
AcDbCircle
 10
709.1635030800367
 20
1653.745878730054
 30
0.0
 40
24.15256589276296
100
AcDbArc
 50
89.65977140920502
 51
90.0
  0
ARC
  5
1FD
330
1D3
100
AcDbEntity
  8
P-SANR-FIXT
100
AcDbCircle
 10
709.1635030800367
 20
1653.745878730054
 30
0.0
 40
24.15256589276291
100
AcDbArc
 50
93.86942121600894
 51
94.4999999999996
  0
ARC
  5
1FE
330
1D3
100
AcDbEntity
  8
P-SANR-FIXT
100
AcDbCircle
 10
709.1635030800367
 20
1653.745878730054
 30
0.0
 40
24.15256589276288
100
AcDbArc
 50
98.07846923554677
 51
98.99999999999989
  0
ARC
  5
1FF
330
1D3
100
AcDbEntity
  8
P-SANR-FIXT
100
AcDbCircle
 10
709.1635030800367
 20
1653.745878730054
 30
0.0
 40
24.15256589276281
100
AcDbArc
 50
102.2865937903332
 51
103.2862240752149
  0
ARC
  5
200
330
1D3
100
AcDbEntity
  8
P-SANR-FIXT
100
AcDbCircle
 10
709.1635030800367
 20
1653.745878730054
 30
0.0
 40
24.15256589276288
100
AcDbArc
 50
135.4981720870756
 51
164.3988742853373
  0
LINE
  5
201
330
1D3
100
AcDbEntity
  8
P-SANR-FIXT
100
AcDbLine
 10
801.8100009826367
 20
1653.745878730054
 30
0.0
 11
808.7382042129123
 21
1641.745878730054
 31
0.0
  0
LINE
  5
202
330
1D3
100
AcDbEntity
  8
P-SANR-FIXT
100
AcDbLine
 10
808.7382042129123
 20
1641.745878730054
 30
0.0
 11
822.5946106734632
 21
1641.745878730054
 31
0.0
  0
LINE
  5
203
330
1D3
100
AcDbEntity
  8
P-SANR-FIXT
100
AcDbLine
 10
822.5946106734632
 20
1641.745878730054
 30
0.0
 11
829.5228139037389
 21
1653.745878730054
 31
0.0
  0
LINE
  5
204
330
1D3
100
AcDbEntity
  8
P-SANR-FIXT
100
AcDbLine
 10
829.5228139037387
 20
1653.745878730054
 30
0.0
 11
822.5946106734634
 21
1665.745878730054
 31
0.0
  0
LINE
  5
205
330
1D3
100
AcDbEntity
  8
P-SANR-FIXT
100
AcDbLine
 10
822.5946106734634
 20
1665.745878730054
 30
0.0
 11
808.7382042129123
 21
1665.745878730054
 31
0.0
  0
LINE
  5
206
330
1D3
100
AcDbEntity
  8
P-SANR-FIXT
100
AcDbLine
 10
808.7382042129123
 20
1665.745878730054
 30
0.0
 11
801.8100009826367
 21
1653.745878730054
 31
0.0
  0
LINE
  5
207
330
1D3
100
AcDbEntity
  8
P-SANR-FIXT
100
AcDbLine
 10
739.0135030801205
 20
1641.745878730054
 30
0.0
 11
749.6135030801204
 21
1641.745878730054
 31
0.0
  0
LINE
  5
208
330
1D3
100
AcDbEntity
  8
P-SANR-FIXT
100
AcDbLine
 10
749.6135030801204
 20
1665.745878730055
 30
0.0
 11
739.0135030801205
 21
1665.745878730055
 31
0.0
  0
LINE
  5
209
330
1D3
100
AcDbEntity
  8
P-SANR-FIXT
100
AcDbLine
 10
749.6135030801204
 20
1641.745878730054
 30
0.0
 11
749.65488202477
 21
1641.796912761789
 31
0.0
  0
LINE
  5
20A
330
1D3
100
AcDbEntity
  8
P-SANR-FIXT
100
AcDbLine
 10
749.6721410453016
 20
1641.818198887111
 30
0.0
 11
752.6135030801206
 21
1645.445878730055
 31
0.0
  0
LINE
  5
20B
330
1D3
100
AcDbEntity
  8
P-SANR-FIXT
100
AcDbLine
 10
752.6135030801206
 20
1662.045878730055
 30
0.0
 11
749.6721410453014
 21
1665.673558572998
 31
0.0
  0
LINE
  5
20C
330
1D3
100
AcDbEntity
  8
P-SANR-FIXT
100
AcDbLine
 10
749.65488202477
 20
1665.69484469832
 30
0.0
 11
749.6135030801204
 21
1665.745878730055
 31
0.0
  0
LINE
  5
20D
330
1D3
100
AcDbEntity
  8
P-SANR-FIXT
100
AcDbLine
 10
752.6135030801206
 20
1645.445878730055
 30
0.0
 11
756.1135030801205
 21
1645.445878730055
 31
0.0
  0
LINE
  5
20E
330
1D3
100
AcDbEntity
  8
P-SANR-FIXT
100
AcDbLine
 10
756.1135030801205
 20
1662.045878730055
 30
0.0
 11
752.6135030801205
 21
1662.045878730055
 31
0.0
  0
LINE
  5
20F
330
1D3
100
AcDbEntity
  8
P-SANR-FIXT
100
AcDbLine
 10
739.013503080119
 20
1653.745878730054
 30
0.0
 11
739.013503080119
 21
1641.745878730054
 31
0.0
  0
LINE
  5
210
330
1D3
100
AcDbEntity
  8
P-SANR-FIXT
100
AcDbLine
 10
739.013503080119
 20
1665.745878730054
 30
0.0
 11
739.013503080119
 21
1653.745878730054
 31
0.0
  0
LINE
  5
211
330
1D3
100
AcDbEntity
  8
P-SANR-FIXT
100
AcDbLine
 10
749.6135030801191
 20
1641.745878730054
 30
0.0
 11
749.6135030801191
 21
1650.745878730054
 31
0.0
  0
LINE
  5
212
330
1D3
100
AcDbEntity
  8
P-SANR-FIXT
100
AcDbLine
 10
749.6135030801191
 20
1656.745878730054
 30
0.0
 11
749.6135030801191
 21
1665.745878730054
 31
0.0
  0
LINE
  5
213
330
1D3
100
AcDbEntity
  8
P-SANR-FIXT
100
AcDbLine
 10
752.6135030801191
 20
1645.445878730054
 30
0.0
 11
752.6135030801191
 21
1650.745878730054
 31
0.0
  0
LINE
  5
214
330
1D3
100
AcDbEntity
  8
P-SANR-FIXT
100
AcDbLine
 10
752.6135030801191
 20
1656.745878730054
 30
0.0
 11
752.6135030801191
 21
1662.045878730054
 31
0.0
  0
LINE
  5
215
330
1D3
100
AcDbEntity
  8
P-SANR-FIXT
100
AcDbLine
 10
756.1135030801191
 20
1645.445878730054
 30
0.0
 11
756.1135030801191
 21
1650.745878730054
 31
0.0
  0
LINE
  5
216
330
1D3
100
AcDbEntity
  8
P-SANR-FIXT
100
AcDbLine
 10
756.1135030801191
 20
1656.745878730054
 30
0.0
 11
756.1135030801191
 21
1662.045878730054
 31
0.0
  0
LINE
  5
217
330
1D3
100
AcDbEntity
  8
P-SANR-FIXT
100
AcDbLine
 10
745.1135030801189
 20
1656.745878730054
 30
0.0
 11
761.1135030801191
 21
1656.745878730054
 31
0.0
  0
LINE
  5
218
330
1D3
100
AcDbEntity
  8
P-SANR-FIXT
100
AcDbLine
 10
761.1135030801191
 20
1650.745878730054
 30
0.0
 11
745.1135030801189
 21
1650.745878730054
 31
0.0
  0
LINE
  5
219
330
1D3
100
AcDbEntity
  8
P-SANR-FIXT
100
AcDbLine
 10
761.1135030801191
 20
1656.745878730054
 30
0.0
 11
761.1135030801191
 21
1650.745878730054
 31
0.0
  0
LINE
  5
21A
330
1D3
100
AcDbEntity
  8
P-SANR-FIXT
100
AcDbLine
 10
745.1135030801189
 20
1650.745878730054
 30
0.0
 11
745.1135030801189
 21
1656.745878730054
 31
0.0
  0
LINE
  5
21B
330
1D3
100
AcDbEntity
  8
P-SANR-FIXT
100
AcDbLine
 10
731.9267154215798
 20
1645.245878730055
 30
0.0
 11
739.0135030801205
 21
1645.245878730055
 31
0.0
  0
LINE
  5
21C
330
1D3
100
AcDbEntity
  8
P-SANR-FIXT
100
AcDbLine
 10
739.0135030801205
 20
1662.245878730055
 30
0.0
 11
731.92671542158
 21
1662.245878730055
 31
0.0
  0
ARC
  5
21D
330
1D3
100
AcDbEntity
  8
P-SANR-FIXT
100
AcDbCircle
 10
709.1635219598787
 20
1653.745878730054
 30
0.0
 40
23.49998112024028
100
AcDbArc
 50
179.9999999999998
 51
192.5286089586206
  0
ARC
  5
21E
330
1D3
100
AcDbEntity
  8
P-SANR-FIXT
100
AcDbCircle
 10
709.1635219598787
 20
1653.745878730054
 30
0.0
 40
23.49998112024004
100
AcDbArc
 50
228.3235718573951
 51
251.8047370876792
  0
ARC
  5
21F
330
1D3
100
AcDbEntity
  8
P-SANR-FIXT
100
AcDbCircle
 10
709.1635219598787
 20
1653.745878730054
 30
0.0
 40
23.49998112024016
100
AcDbArc
 50
290.2582212274944
 51
309.87469751175
  0
ARC
  5
220
330
1D3
100
AcDbEntity
  8
P-SANR-FIXT
100
AcDbCircle
 10
709.1635219598787
 20
1653.745878730054
 30
0.0
 40
23.49998112024023
100
AcDbArc
 50
351.0878399257594
 51
359.9999999999991
  0
SPLINE
  5
221
330
1D3
100
AcDbEntity
  8
P-SANR-FIXT
100
AcDbSpline
210
0.0
220
0.0
230
1.0
 70
     8
 71
     3
 72
     8
 73
     4
 74
     0
 42
0.000000001
 43
0.0000000001
 40
0.5984348227951193
 40
0.5984348227951193
 40
0.5984348227951193
 40
0.5984348227951193
 40
0.6
 40
0.6
 40
0.6
 40
0.6
 10
732.3782566617182
 20
1650.099340434955
 30
0.0
 10
732.3789496493359
 20
1650.103737055648
 30
0.0
 10
732.3796430173469
 20
1650.108134330607
 30
0.0
 10
732.3803366989182
 20
1650.112532305949
 30
0.0
  0
SPLINE
  5
222
330
1D3
100
AcDbEntity
  8
P-SANR-FIXT
100
AcDbSpline
210
0.0
220
0.0
230
1.0
 70
     8
 71
     3
 72
     8
 73
     4
 74
     0
 42
0.000000001
 43
0.0000000001
 40
0.8
 40
0.8
 40
0.8
 40
0.8
 40
0.8026435521957619
 40
0.8026435521957619
 40
0.8026435521957619
 40
0.8026435521957619
 10
732.5888818108118
 20
1651.873261151573
 30
0.0
 10
732.5895233039879
 20
1651.881295627215
 30
0.0
 10
732.590152500646
 20
1651.889338588035
 30
0.0
 10
732.5907697244795
 20
1651.897389810846
 30
0.0
  0
ARC
  5
223
330
1D3
100
AcDbEntity
  8
P-SANR-FIXT
100
AcDbCircle
 10
709.1635219598787
 20
1653.745878730054
 30
0.0
 40
23.49998112024002
100
AcDbArc
 50
0.0
 51
8.912160074240214
  0
ARC
  5
224
330
1D3
100
AcDbEntity
  8
P-SANR-FIXT
100
AcDbCircle
 10
709.1635219598787
 20
1653.745878730054
 30
0.0
 40
23.49998112024021
100
AcDbArc
 50
50.12530248825194
 51
69.74177877250068
  0
ARC
  5
225
330
1D3
100
AcDbEntity
  8
P-SANR-FIXT
100
AcDbCircle
 10
709.1635219598787
 20
1653.745878730054
 30
0.0
 40
23.49998112024024
100
AcDbArc
 50
108.195262912319
 51
131.6764281426011
  0
ARC
  5
226
330
1D3
100
AcDbEntity
  8
P-SANR-FIXT
100
AcDbCircle
 10
709.1635219598787
 20
1653.745878730054
 30
0.0
 40
23.49998112024033
100
AcDbArc
 50
167.4713910413752
 51
180.0
  0
SPLINE
  5
227
330
1D3
100
AcDbEntity
  8
P-SANR-FIXT
100
AcDbSpline
210
0.0
220
0.0
230
1.0
 70
     8
 71
     3
 72
     8
 73
     4
 74
     0
 42
0.000000001
 43
0.0000000001
 40
0.197356447804247
 40
0.197356447804247
 40
0.197356447804247
 40
0.197356447804247
 40
0.2
 40
0.2
 40
0.2
 40
0.2
 10
732.5910473893078
 20
1655.589907674612
 30
0.0
 10
732.59041215306
 20
1655.597953276884
 30
0.0
 10
732.5897731251449
 20
1655.605998049374
 30
0.0
 10
732.5891296338984
 20
1655.614037651172
 30
0.0
  0
SPLINE
  5
228
330
1D3
100
AcDbEntity
  8
P-SANR-FIXT
100
AcDbSpline
210
0.0
220
0.0
230
1.0
 70
     8
 71
     3
 72
     8
 73
     4
 74
     0
 42
0.000000001
 43
0.0000000001
 40
0.4
 40
0.4
 40
0.4
 40
0.4
 40
0.4015651772050255
 40
0.4015651772050255
 40
0.4015651772050255
 40
0.4015651772050255
 10
732.3806500232111
 20
1657.380995941708
 30
0.0
 10
732.3799598886481
 20
1657.385403868798
 30
0.0
 10
732.3792688412303
 20
1657.389812619362
 30
0.0
 10
732.3785768843377
 20
1657.394222144283
 30
0.0
  0
ARC
  5
229
330
1D3
100
AcDbEntity
  8
P-SANR-FIXT
100
AcDbCircle
 10
709.1635219598787
 20
1653.745878730054
 30
0.0
 40
23.49998112024025
100
AcDbArc
 50
184.5019737068181
 51
185.374277540069
  0
ARC
  5
22A
330
1D3
100
AcDbEntity
  8
P-SANR-FIXT
100
AcDbCircle
 10
709.1635219598787
 20
1653.745878730054
 30
0.0
 40
23.49998112024021
100
AcDbArc
 50
189.0081393373421
 51
190.748555080138
  0
ARC
  5
22B
330
1D3
100
AcDbEntity
  8
P-SANR-FIXT
100
AcDbCircle
 10
709.1635219598787
 20
1653.745878730054
 30
0.0
 40
23.49998112024024
100
AcDbArc
 50
228.3684978606235
 51
229.4657587714122
  0
ARC
  5
22C
330
1D3
100
AcDbEntity
  8
P-SANR-FIXT
100
AcDbCircle
 10
709.1635219598787
 20
1653.745878730054
 30
0.0
 40
23.49998112024018
100
AcDbArc
 50
233.7427754006927
 51
233.992214508647
  0
ARC
  5
22D
330
1D3
100
AcDbEntity
  8
P-SANR-FIXT
100
AcDbCircle
 10
709.1635219598787
 20
1653.745878730054
 30
0.0
 40
23.49998112024015
100
AcDbArc
 50
238.483306867294
 51
239.1170529407622
  0
ARC
  5
22E
330
1D3
100
AcDbEntity
  8
P-SANR-FIXT
100
AcDbCircle
 10
709.1635219598787
 20
1653.745878730054
 30
0.0
 40
23.49998112024016
100
AcDbArc
 50
242.9732563855433
 51
244.4913304808316
  0
ARC
  5
22F
330
1D3
100
AcDbEntity
  8
P-SANR-FIXT
100
AcDbCircle
 10
709.1635219598787
 20
1653.745878730054
 30
0.0
 40
23.49998112024012
100
AcDbArc
 50
247.4739751940119
 51
251.5765692987157
  0
ARC
  5
230
330
1D3
100
AcDbEntity
  8
P-SANR-FIXT
100
AcDbCircle
 10
709.1635219598787
 20
1653.745878730054
 30
0.0
 40
23.4999811202402
100
AcDbArc
 50
292.5059983199192
 51
292.8598283414556
  0
ARC
  5
231
330
1D3
100
AcDbEntity
  8
P-SANR-FIXT
100
AcDbCircle
 10
709.1635219598787
 20
1653.745878730054
 30
0.0
 40
23.49998112024013
100
AcDbArc
 50
297.0216920453226
 51
298.2341058815251
  0
ARC
  5
232
330
1D3
100
AcDbEntity
  8
P-SANR-FIXT
100
AcDbCircle
 10
709.1635219598787
 20
1653.745878730054
 30
0.0
 40
23.4999811202402
100
AcDbArc
 50
301.5362018000056
 51
306.0456212732066
  0
ARC
  5
233
330
1D3
100
AcDbEntity
  8
P-SANR-FIXT
100
AcDbCircle
 10
709.1635219598787
 20
1653.745878730054
 30
0.0
 40
23.49998112024013
100
AcDbArc
 50
308.9826609616634
 51
309.808704941532
  0
ARC
  5
234
330
1D3
100
AcDbEntity
  8
P-SANR-FIXT
100
AcDbCircle
 10
709.1635219598787
 20
1653.745878730054
 30
0.0
 40
23.4999811202404
100
AcDbArc
 50
50.19129505846956
 51
51.01733903833558
  0
ARC
  5
235
330
1D3
100
AcDbEntity
  8
P-SANR-FIXT
100
AcDbCircle
 10
709.1635219598787
 20
1653.745878730054
 30
0.0
 40
23.49998112024042
100
AcDbArc
 50
53.95437872679286
 51
58.46379819999402
  0
ARC
  5
236
330
1D3
100
AcDbEntity
  8
P-SANR-FIXT
100
AcDbCircle
 10
709.1635219598787
 20
1653.745878730054
 30
0.0
 40
23.49998112024037
100
AcDbArc
 50
61.7658941184742
 51
62.97830795467697
  0
ARC
  5
237
330
1D3
100
AcDbEntity
  8
P-SANR-FIXT
100
AcDbCircle
 10
709.1635219598787
 20
1653.745878730054
 30
0.0
 40
23.49998112024052
100
AcDbArc
 50
67.14017165854326
 51
67.49400168007999
  0
ARC
  5
238
330
1D3
100
AcDbEntity
  8
P-SANR-FIXT
100
AcDbCircle
 10
709.1635219598787
 20
1653.745878730054
 30
0.0
 40
23.49998112024049
100
AcDbArc
 50
108.4234307012838
 51
111.4496724863478
  0
ARC
  5
239
330
1D3
100
AcDbEntity
  8
P-SANR-FIXT
100
AcDbCircle
 10
709.1635219598787
 20
1653.745878730054
 30
0.0
 40
23.4999811202405
100
AcDbArc
 50
111.4532187032477
 51
112.5260248059872
  0
ARC
  5
23A
330
1D3
100
AcDbEntity
  8
P-SANR-FIXT
100
AcDbCircle
 10
709.1635219598787
 20
1653.745878730054
 30
0.0
 40
23.49998112024056
100
AcDbArc
 50
115.5086695191676
 51
117.0267436144558
  0
ARC
  5
23B
330
1D3
100
AcDbEntity
  8
P-SANR-FIXT
100
AcDbCircle
 10
709.1635219598787
 20
1653.745878730054
 30
0.0
 40
23.49998112024048
100
AcDbArc
 50
120.882947059237
 51
121.5166931327053
  0
ARC
  5
23C
330
1D3
100
AcDbEntity
  8
P-SANR-FIXT
100
AcDbCircle
 10
709.1635219598787
 20
1653.745878730054
 30
0.0
 40
23.4999811202405
100
AcDbArc
 50
126.0077854913521
 51
126.2572245993064
  0
ARC
  5
23D
330
1D3
100
AcDbEntity
  8
P-SANR-FIXT
100
AcDbCircle
 10
709.1635219598787
 20
1653.745878730054
 30
0.0
 40
23.4999811202405
100
AcDbArc
 50
130.5342412285875
 51
131.6315021393754
  0
ARC
  5
23E
330
1D3
100
AcDbEntity
  8
P-SANR-FIXT
100
AcDbCircle
 10
709.1635219598787
 20
1653.745878730054
 30
0.0
 40
23.49998112024045
100
AcDbArc
 50
169.2514449198609
 51
170.9918606626569
  0
ARC
  5
23F
330
1D3
100
AcDbEntity
  8
P-SANR-FIXT
100
AcDbCircle
 10
709.1635219598787
 20
1653.745878730054
 30
0.0
 40
23.49998112024048
100
AcDbArc
 50
174.6257224599306
 51
175.4980262931821
  0
LINE
  5
240
330
1D3
100
AcDbEntity
  8
P-SANR-FIXT
100
AcDbLine
 10
767.2035030800258
 20
1624.745878730054
 30
0.0
 11
769.7035030800565
 21
1624.745878730054
 31
0.0
  0
LINE
  5
241
330
1D3
100
AcDbEntity
  8
P-SANR-FIXT
100
AcDbLine
 10
769.7035030800565
 20
1682.745878730054
 30
0.0
 11
767.2035030800258
 21
1682.745878730054
 31
0.0
  0
LINE
  5
242
330
1D3
100
AcDbEntity
  8
P-SANR-FIXT
100
AcDbLine
 10
769.7035030800565
 20
1624.745878730054
 30
0.0
 11
769.7413329620745
 21
1624.811402007754
 31
0.0
  0
LINE
  5
243
330
1D3
100
AcDbEntity
  8
P-SANR-FIXT
100
AcDbLine
 10
769.7551166478277
 20
1624.835276051794
 30
0.0
 11
771.4932889145442
 21
1627.845878730054
 31
0.0
  0
LINE
  5
244
330
1D3
100
AcDbEntity
  8
P-SANR-FIXT
100
AcDbLine
 10
771.4932889145442
 20
1679.645878730054
 30
0.0
 11
769.7551166478277
 21
1682.656481408315
 31
0.0
  0
LINE
  5
245
330
1D3
100
AcDbEntity
  8
P-SANR-FIXT
100
AcDbLine
 10
769.7413329620745
 20
1682.680355452355
 30
0.0
 11
769.7035030800565
 21
1682.745878730055
 31
0.0
  0
LWPOLYLINE
  5
246
330
1D3
100
AcDbEntity
  8
P-SANR-FIXT
100
AcDbPolyline
 90
       28
 70
   128
 43
0.0
 10
772.1861092375718
 20
1628.245878730054
 10
772.1541177702225
 20
1628.245238815383
 10
772.1221774823966
 20
1628.243320095096
 10
772.0903394717407
 20
1628.240125638737
 10
772.0586546722804
 20
1628.235660556754
 10
772.0271737729359
 20
1628.229931992327
 10
771.9959471364301
 20
1628.222949109936
 10
771.9650247187205
 20
1628.214723080703
 10
771.934455989079
 20
1628.20526706452
 10
771.904289850952
 20
1628.194596188996
 10
771.8745745637249
 20
1628.182727525256
 10
771.845357665519
 20
1628.16968006063
 10
771.8166858971386
 20
1628.155474668278
 10
771.7886051272969
 20
1628.140134073796
 10
771.7611602792351
 20
1628.123682818865
 10
771.7343952588558
 20
1628.106147221982
 10
771.708352884482
 20
1628.087555336362
 10
771.6830748183572
 20
1628.067936905055
 10
771.6586014999947
 20
1628.047323313367
 10
771.6349720814833
 20
1628.025747538647
 10
771.6122243648522
 20
1628.003244097532
 10
771.5903947415952
 20
1627.979848990727
 10
771.5695181344528
 20
1627.955599645413
 10
771.5496279415427
 20
1627.930534855369
 10
771.5307559829311
 20
1627.904694718912
 10
771.5129324497256
 20
1627.878120574749
 10
771.4961858557771
 20
1627.85085493584
 10
771.4932889145442
 20
1627.845878730054
  0
LWPOLYLINE
  5
247
330
1D3
100
AcDbEntity
  8
P-SANR-FIXT
100
AcDbPolyline
 90
       28
 70
   128
 43
0.0
 10
771.4932889145442
 20
1679.645878730054
 10
771.5098388305804
 20
1679.618493263961
 10
771.5274706350045
 20
1679.591791523443
 10
771.5461561206908
 20
1679.565816225589
 10
771.5658653948477
 20
1679.540608925333
 10
771.5865669268414
 20
1679.516209948981
 10
771.6082275986369
 20
1679.492658329688
 10
771.6308127577797
 20
1679.469991745022
 10
771.6542862728332
 20
1679.448246456682
 10
771.6786105911808
 20
1679.427457252491
 10
771.7037467991023
 20
1679.407657390742
 10
771.7296546840266
 20
1679.388878546989
 10
771.7562927988648
 20
1679.371150763377
 10
771.7836185283155
 20
1679.354502400577
 10
771.8115881570412
 20
1679.338960092418
 10
771.8401569396021
 20
1679.324548703278
 10
771.8692791720403
 20
1679.311291288306
 10
771.8989082649969
 20
1679.299209056536
 10
771.9289968182432
 20
1679.288321336963
 10
771.9594966965126
 20
1679.278645547616
 10
771.9903591065063
 20
1679.270197167693
 10
772.021534674952
 20
1679.2629897128
 10
772.0529735275905
 20
1679.257034713327
 10
772.0846253689641
 20
1679.252341696003
 10
772.1164395628788
 20
1679.248918168654
 10
772.148365213411
 20
1679.246769608194
 10
772.1803512463301
 20
1679.245899451862
 10
772.1861092375718
 20
1679.245878730055
  0
LINE
  5
248
330
1D3
100
AcDbEntity
  8
P-SANR-FIXT
100
AcDbLine
 10
772.1861092375718
 20
1628.245878730054
 30
0.0
 11
782.3437912467148
 21
1628.245878730054
 31
0.0
  0
LINE
  5
249
330
1D3
100
AcDbEntity
  8
P-SANR-FIXT
100
AcDbLine
 10
782.3437912467145
 20
1679.245878730055
 30
0.0
 11
772.1861092375718
 21
1679.245878730055
 31
0.0
  0
LINE
  5
24A
330
1D3
100
AcDbEntity
  8
P-SANR-FIXT
100
AcDbLine
 10
709.3067762489128
 20
1627.74965729246
 30
0.0
 11
743.6035030801047
 21
1627.74965729246
 31
0.0
  0
LINE
  5
24B
330
1D3
100
AcDbEntity
  8
P-SANR-FIXT
100
AcDbLine
 10
743.6035030801047
 20
1679.74210016765
 30
0.0
 11
709.3067762489128
 21
1679.74210016765
 31
0.0
  0
LINE
  5
24C
330
1D3
100
AcDbEntity
  8
P-SANR-FIXT
100
AcDbLine
 10
743.6035030801048
 20
1620.245878730054
 30
0.0
 11
767.2035030800258
 21
1620.245878730054
 31
0.0
  0
LINE
  5
24D
330
1D3
100
AcDbEntity
  8
P-SANR-FIXT
100
AcDbLine
 10
767.2035030800258
 20
1687.245878730055
 30
0.0
 11
743.6035030801048
 21
1687.245878730055
 31
0.0
  0
LINE
  5
24E
330
1D3
100
AcDbEntity
  8
P-SANR-FIXT
100
AcDbLine
 10
769.703503080055
 20
1624.745878730054
 30
0.0
 11
769.703503080055
 21
1653.745878730054
 31
0.0
  0
LINE
  5
24F
330
1D3
100
AcDbEntity
  8
P-SANR-FIXT
100
AcDbLine
 10
769.703503080055
 20
1653.745878730054
 30
0.0
 11
769.703503080055
 21
1682.745878730054
 31
0.0
  0
ARC
  5
250
330
1D3
100
AcDbEntity
  8
P-SANR-FIXT
100
AcDbCircle
 10
815.6664074431873
 20
1653.745878730054
 30
0.0
 40
14.00000000000048
100
AcDbArc
 50
179.9999999999998
 51
359.9999999999994
  0
ARC
  5
251
330
1D3
100
AcDbEntity
  8
P-SANR-FIXT
100
AcDbCircle
 10
815.6664074431873
 20
1653.745878730054
 30
0.0
 40
14.00000000000023
100
AcDbArc
 50
0.0
 51
180.0
  0
ARC
  5
252
330
1D3
100
AcDbEntity
  8
P-SANR-FIXT
100
AcDbCircle
 10
815.6664074431873
 20
1653.745878730054
 30
0.0
 40
42.0
100
AcDbArc
 50
179.9999999999997
 51
359.999999999999
  0
ARC
  5
253
330
1D3
100
AcDbEntity
  8
P-SANR-FIXT
100
AcDbCircle
 10
815.6664074431873
 20
1653.745878730054
 30
0.0
 40
42.0
100
AcDbArc
 50
0.0
 51
179.9999999999997
  0
LINE
  5
254
330
1D3
100
AcDbEntity
  8
P-SANR-FIXT
100
AcDbLine
 10
767.2035030800243
 20
1653.745878730054
 30
0.0
 11
767.2035030800245
 21
1620.245878730053
 31
0.0
  0
LINE
  5
255
330
1D3
100
AcDbEntity
  8
P-SANR-FIXT
100
AcDbLine
 10
767.2035030800245
 20
1687.245878730054
 30
0.0
 11
767.2035030800243
 21
1653.745878730054
 31
0.0
  0
LINE
  5
256
330
1D3
100
AcDbEntity
  8
P-SANR-FIXT
100
AcDbLine
 10
709.3067762489114
 20
1627.749657292459
 30
0.0
 11
709.3067762489112
 21
1629.556791704734
 31
0.0
  0
LINE
  5
257
330
1D3
100
AcDbEntity
  8
P-SANR-FIXT
100
AcDbLine
 10
709.3067762489112
 20
1677.934965755374
 30
0.0
 11
709.3067762489114
 21
1679.742100167649
 31
0.0
  0
LINE
  5
258
330
1D3
100
AcDbEntity
  8
P-SANR-FIXT
100
AcDbLine
 10
743.6035030801033
 20
1620.245878730053
 30
0.0
 11
743.6035030801032
 21
1641.738209568062
 31
0.0
  0
LINE
  5
259
330
1D3
100
AcDbEntity
  8
P-SANR-FIXT
100
AcDbLine
 10
743.6035030801032
 20
1665.753547892046
 30
0.0
 11
743.6035030801033
 21
1687.245878730054
 31
0.0
  0
ENDBLK
  5
25B
330
1D3
100
AcDbEntity
  8
0
100
AcDbBlockEnd
  0
BLOCK
  5
394
330
25D
100
AcDbEntity
  8
0
100
AcDbBlockBegin
  2
Automatic flow rate regulator valve_Caleffi_121 DN15 - 1__-V2-Est - Idraulica
 70
     0
 10
0.0
 20
0.0
 30
0.0
  3
Automatic flow rate regulator valve_Caleffi_121 DN15 - 1__-V2-Est - Idraulica
  1

  0
LINE
  5
25E
330
25D
100
AcDbEntity
  8
P-SANR-FIXT
100
AcDbLine
 10
1117.938328526687
 20
1898.286413085125
 30
0.0
 11
1117.938328526687
 21
1878.486413085125
 31
0.0
  0
LINE
  5
25F
330
25D
100
AcDbEntity
  8
P-SANR-FIXT
100
AcDbLine
 10
1166.290379359508
 20
1878.486413085125
 30
0.0
 11
1166.290379359508
 21
1898.286413085125
 31
0.0
  0
LINE
  5
260
330
25D
100
AcDbEntity
  8
P-SANR-FIXT
100
AcDbLine
 10
1117.938328526685
 20
1898.286413085125
 30
0.0
 11
1118.521951551588
 21
1898.286413085125
 31
0.0
  0
LINE
  5
261
330
25D
100
AcDbEntity
  8
P-SANR-FIXT
100
AcDbLine
 10
1118.521951551588
 20
1898.286413085125
 30
0.0
 11
1119.783192934528
 21
1898.286413085125
 31
0.0
  0
LINE
  5
262
330
25D
100
AcDbEntity
  8
P-SANR-FIXT
100
AcDbLine
 10
1124.647763162411
 20
1898.286413085125
 30
0.0
 11
1125.745509556678
 21
1898.286413085125
 31
0.0
  0
LINE
  5
263
330
25D
100
AcDbEntity
  8
P-SANR-FIXT
100
AcDbLine
 10
1125.745509556678
 20
1898.286413085125
 30
0.0
 11
1134.890795938005
 21
1898.286413085125
 31
0.0
  0
LINE
  5
264
330
25D
100
AcDbEntity
  8
P-SANR-FIXT
100
AcDbLine
 10
1134.890795938005
 20
1898.286413085125
 30
0.0
 11
1136.953515026511
 21
1898.286413085125
 31
0.0
  0
LINE
  5
265
330
25D
100
AcDbEntity
  8
P-SANR-FIXT
100
AcDbLine
 10
1147.219864521971
 20
1898.286413085125
 30
0.0
 11
1149.337911948185
 21
1898.286413085125
 31
0.0
  0
LINE
  5
266
330
25D
100
AcDbEntity
  8
P-SANR-FIXT
100
AcDbLine
 10
1149.337911948185
 20
1898.286413085125
 30
0.0
 11
1158.483198329512
 21
1898.286413085125
 31
0.0
  0
LINE
  5
267
330
25D
100
AcDbEntity
  8
P-SANR-FIXT
100
AcDbLine
 10
1158.483198329512
 20
1898.286413085125
 30
0.0
 11
1159.713402324053
 21
1898.286413085125
 31
0.0
  0
LINE
  5
268
330
25D
100
AcDbEntity
  8
P-SANR-FIXT
100
AcDbLine
 10
1164.445514951662
 20
1898.286413085125
 30
0.0
 11
1165.706756334602
 21
1898.286413085125
 31
0.0
  0
LINE
  5
269
330
25D
100
AcDbEntity
  8
P-SANR-FIXT
100
AcDbLine
 10
1165.706756334602
 20
1898.286413085125
 30
0.0
 11
1166.290379359506
 21
1898.286413085125
 31
0.0
  0
LINE
  5
26A
330
25D
100
AcDbEntity
  8
P-SANR-FIXT
100
AcDbLine
 10
1166.290379359506
 20
1878.486413085125
 30
0.0
 11
1165.706756334602
 21
1878.486413085125
 31
0.0
  0
LINE
  5
26B
330
25D
100
AcDbEntity
  8
P-SANR-FIXT
100
AcDbLine
 10
1165.706756334602
 20
1878.486413085125
 30
0.0
 11
1158.483198329512
 21
1878.486413085125
 31
0.0
  0
LINE
  5
26C
330
25D
100
AcDbEntity
  8
P-SANR-FIXT
100
AcDbLine
 10
1158.483198329512
 20
1878.486413085125
 30
0.0
 11
1149.337911948185
 21
1878.486413085125
 31
0.0
  0
LINE
  5
26D
330
25D
100
AcDbEntity
  8
P-SANR-FIXT
100
AcDbLine
 10
1149.337911948185
 20
1878.486413085125
 30
0.0
 11
1134.890795938005
 21
1878.486413085125
 31
0.0
  0
LINE
  5
26E
330
25D
100
AcDbEntity
  8
P-SANR-FIXT
100
AcDbLine
 10
1134.890795938005
 20
1878.486413085125
 30
0.0
 11
1125.745509556678
 21
1878.486413085125
 31
0.0
  0
LINE
  5
26F
330
25D
100
AcDbEntity
  8
P-SANR-FIXT
100
AcDbLine
 10
1125.745509556678
 20
1878.486413085125
 30
0.0
 11
1118.521951551588
 21
1878.486413085125
 31
0.0
  0
LINE
  5
270
330
25D
100
AcDbEntity
  8
P-SANR-FIXT
100
AcDbLine
 10
1118.521951551588
 20
1878.486413085125
 30
0.0
 11
1117.938328526685
 21
1878.486413085125
 31
0.0
  0
LINE
  5
271
330
25D
100
AcDbEntity
  8
P-SANR-FIXT
100
AcDbLine
 10
1118.521951551588
 20
1878.486413085125
 30
0.0
 11
1118.521951551588
 21
1898.286413085125
 31
0.0
  0
LINE
  5
272
330
25D
100
AcDbEntity
  8
P-SANR-FIXT
100
AcDbLine
 10
1125.745509556678
 20
1878.486413085125
 30
0.0
 11
1125.745509556678
 21
1898.286413085125
 31
0.0
  0
LINE
  5
273
330
25D
100
AcDbEntity
  8
P-SANR-FIXT
100
AcDbLine
 10
1134.890795938005
 20
1878.486413085125
 30
0.0
 11
1134.890795938005
 21
1898.286413085125
 31
0.0
  0
LINE
  5
274
330
25D
100
AcDbEntity
  8
P-SANR-FIXT
100
AcDbLine
 10
1149.337911948185
 20
1878.486413085125
 30
0.0
 11
1149.337911948185
 21
1898.286413085125
 31
0.0
  0
LINE
  5
275
330
25D
100
AcDbEntity
  8
P-SANR-FIXT
100
AcDbLine
 10
1158.483198329512
 20
1878.486413085125
 30
0.0
 11
1158.483198329512
 21
1898.286413085125
 31
0.0
  0
LINE
  5
276
330
25D
100
AcDbEntity
  8
P-SANR-FIXT
100
AcDbLine
 10
1165.706756334602
 20
1878.486413085125
 30
0.0
 11
1165.706756334602
 21
1898.286413085125
 31
0.0
  0
LINE
  5
277
330
25D
100
AcDbEntity
  8
P-SANR-FIXT
100
AcDbLine
 10
1117.938328526687
 20
2121.478704614898
 30
0.0
 11
1117.938328526687
 21
2101.678704614898
 31
0.0
  0
LINE
  5
278
330
25D
100
AcDbEntity
  8
P-SANR-FIXT
100
AcDbLine
 10
1166.290379359508
 20
2101.678704614898
 30
0.0
 11
1166.290379359508
 21
2121.478704614898
 31
0.0
  0
LINE
  5
279
330
25D
100
AcDbEntity
  8
P-SANR-FIXT
100
AcDbLine
 10
1117.938328526685
 20
2121.478704614897
 30
0.0
 11
1118.521951551588
 21
2121.478704614897
 31
0.0
  0
LINE
  5
27A
330
25D
100
AcDbEntity
  8
P-SANR-FIXT
100
AcDbLine
 10
1118.521951551588
 20
2121.478704614897
 30
0.0
 11
1125.745509556678
 21
2121.478704614897
 31
0.0
  0
LINE
  5
27B
330
25D
100
AcDbEntity
  8
P-SANR-FIXT
100
AcDbLine
 10
1125.745509556678
 20
2121.478704614897
 30
0.0
 11
1134.890795938005
 21
2121.478704614897
 31
0.0
  0
LINE
  5
27C
330
25D
100
AcDbEntity
  8
P-SANR-FIXT
100
AcDbLine
 10
1134.890795938005
 20
2121.478704614897
 30
0.0
 11
1149.337911948185
 21
2121.478704614897
 31
0.0
  0
LINE
  5
27D
330
25D
100
AcDbEntity
  8
P-SANR-FIXT
100
AcDbLine
 10
1149.337911948185
 20
2121.478704614897
 30
0.0
 11
1158.483198329512
 21
2121.478704614897
 31
0.0
  0
LINE
  5
27E
330
25D
100
AcDbEntity
  8
P-SANR-FIXT
100
AcDbLine
 10
1158.483198329512
 20
2121.478704614897
 30
0.0
 11
1165.706756334602
 21
2121.478704614897
 31
0.0
  0
LINE
  5
27F
330
25D
100
AcDbEntity
  8
P-SANR-FIXT
100
AcDbLine
 10
1165.706756334602
 20
2121.478704614897
 30
0.0
 11
1166.290379359506
 21
2121.478704614897
 31
0.0
  0
LINE
  5
280
330
25D
100
AcDbEntity
  8
P-SANR-FIXT
100
AcDbLine
 10
1166.290379359506
 20
2101.678704614897
 30
0.0
 11
1165.706756334602
 21
2101.678704614897
 31
0.0
  0
LINE
  5
281
330
25D
100
AcDbEntity
  8
P-SANR-FIXT
100
AcDbLine
 10
1165.706756334602
 20
2101.678704614897
 30
0.0
 11
1164.445458488361
 21
2101.678704614897
 31
0.0
  0
LINE
  5
282
330
25D
100
AcDbEntity
  8
P-SANR-FIXT
100
AcDbLine
 10
1159.58100946525
 20
2101.678704614897
 30
0.0
 11
1158.483198329512
 21
2101.678704614897
 31
0.0
  0
LINE
  5
283
330
25D
100
AcDbEntity
  8
P-SANR-FIXT
100
AcDbLine
 10
1158.483198329512
 20
2101.678704614897
 30
0.0
 11
1149.337911948185
 21
2101.678704614897
 31
0.0
  0
LINE
  5
284
330
25D
100
AcDbEntity
  8
P-SANR-FIXT
100
AcDbLine
 10
1149.337911948185
 20
2101.678704614897
 30
0.0
 11
1147.275032558962
 21
2101.678704614897
 31
0.0
  0
LINE
  5
285
330
25D
100
AcDbEntity
  8
P-SANR-FIXT
100
AcDbLine
 10
1136.953675327229
 20
2101.678704614897
 30
0.0
 11
1134.890795938005
 21
2101.678704614897
 31
0.0
  0
LINE
  5
286
330
25D
100
AcDbEntity
  8
P-SANR-FIXT
100
AcDbLine
 10
1134.890795938005
 20
2101.678704614897
 30
0.0
 11
1125.745509556678
 21
2101.678704614897
 31
0.0
  0
LINE
  5
287
330
25D
100
AcDbEntity
  8
P-SANR-FIXT
100
AcDbLine
 10
1125.745509556678
 20
2101.678704614897
 30
0.0
 11
1124.64769842094
 21
2101.678704614897
 31
0.0
  0
LINE
  5
288
330
25D
100
AcDbEntity
  8
P-SANR-FIXT
100
AcDbLine
 10
1119.783249397829
 20
2101.678704614897
 30
0.0
 11
1118.521951551588
 21
2101.678704614897
 31
0.0
  0
LINE
  5
289
330
25D
100
AcDbEntity
  8
P-SANR-FIXT
100
AcDbLine
 10
1118.521951551588
 20
2101.678704614897
 30
0.0
 11
1117.938328526685
 21
2101.678704614897
 31
0.0
  0
LINE
  5
28A
330
25D
100
AcDbEntity
  8
P-SANR-FIXT
100
AcDbLine
 10
1118.521951551588
 20
2101.678704614897
 30
0.0
 11
1118.521951551588
 21
2121.478704614897
 31
0.0
  0
LINE
  5
28B
330
25D
100
AcDbEntity
  8
P-SANR-FIXT
100
AcDbLine
 10
1125.745509556678
 20
2101.678704614897
 30
0.0
 11
1125.745509556678
 21
2121.478704614897
 31
0.0
  0
LINE
  5
28C
330
25D
100
AcDbEntity
  8
P-SANR-FIXT
100
AcDbLine
 10
1134.890795938005
 20
2101.678704614897
 30
0.0
 11
1134.890795938005
 21
2121.478704614897
 31
0.0
  0
LINE
  5
28D
330
25D
100
AcDbEntity
  8
P-SANR-FIXT
100
AcDbLine
 10
1149.337911948185
 20
2101.678704614897
 30
0.0
 11
1149.337911948185
 21
2121.478704614897
 31
0.0
  0
LINE
  5
28E
330
25D
100
AcDbEntity
  8
P-SANR-FIXT
100
AcDbLine
 10
1158.483198329512
 20
2101.678704614897
 30
0.0
 11
1158.483198329512
 21
2121.478704614897
 31
0.0
  0
LINE
  5
28F
330
25D
100
AcDbEntity
  8
P-SANR-FIXT
100
AcDbLine
 10
1165.706756334602
 20
2101.678704614897
 30
0.0
 11
1165.706756334602
 21
2121.478704614897
 31
0.0
  0
LINE
  5
290
330
25D
100
AcDbEntity
  8
P-SANR-FIXT
100
AcDbLine
 10
1165.092737391541
 20
1951.18887791316
 30
0.0
 11
1165.631875344365
 21
1951.728015865984
 31
0.0
  0
LINE
  5
291
330
25D
100
AcDbEntity
  8
P-SANR-FIXT
100
AcDbLine
 10
1118.596889741146
 20
1951.727958666668
 30
0.0
 11
1119.135970494654
 21
1951.18887791316
 31
0.0
  0
LINE
  5
292
330
25D
100
AcDbEntity
  8
P-SANR-FIXT
100
AcDbLine
 10
1165.615115475994
 20
1965.257287378901
 30
0.0
 11
1165.11433506337
 21
1965.546413084934
 31
0.0
  0
LINE
  5
293
330
25D
100
AcDbEntity
  8
P-SANR-FIXT
100
AcDbLine
 10
1119.114372822825
 20
1965.546413084934
 30
0.0
 11
1118.614549845923
 21
1965.257840154672
 31
0.0
  0
LINE
  5
294
330
25D
100
AcDbEntity
  8
P-SANR-FIXT
100
AcDbLine
 10
1142.114353943095
 20
1965.546413084933
 30
0.0
 11
1165.114335063368
 21
1965.546413084933
 31
0.0
  0
LINE
  5
295
330
25D
100
AcDbEntity
  8
P-SANR-FIXT
100
AcDbLine
 10
1119.114372822823
 20
1965.546413084933
 30
0.0
 11
1142.114353943095
 21
1965.546413084933
 31
0.0
  0
LINE
  5
296
330
25D
100
AcDbEntity
  8
P-SANR-FIXT
100
AcDbLine
 10
1165.092737391539
 20
1951.188877913159
 30
0.0
 11
1142.114353943096
 21
1951.188877913159
 31
0.0
  0
LINE
  5
297
330
25D
100
AcDbEntity
  8
P-SANR-FIXT
100
AcDbLine
 10
1142.114353943096
 20
1951.188877913159
 30
0.0
 11
1119.135970494652
 21
1951.188877913159
 31
0.0
  0
SPLINE
  5
298
330
25D
100
AcDbEntity
  8
P-SANR-FIXT
100
AcDbSpline
210
0.0
220
0.0
230
1.0
 70
    24
 71
     3
 72
     9
 73
     5
 74
     0
 42
0.000000001
 43
0.0000000001
 40
0.5055278730682451
 40
0.5055278730682451
 40
0.5055278730682451
 40
0.5055278730682451
 40
0.6666666666666666
 40
1.0
 40
1.0
 40
1.0
 40
1.0
 10
1118.614353943145
 20
1951.727950098673
 30
0.0
 10
1118.614353943145
 20
1951.727505605198
 30
0.0
 10
1118.614353943145
 20
1951.950482620032
 30
0.0
 10
1118.614353943145
 20
1952.858573428978
 30
0.0
 10
1118.614353943145
 20
1953.783110835514
 30
0.0
  0
SPLINE
  5
299
330
25D
100
AcDbEntity
  8
P-SANR-FIXT
100
AcDbSpline
210
0.0
220
0.0
230
1.0
 70
    24
 71
     3
 72
     8
 73
     4
 74
     0
 42
0.000000001
 43
0.0000000001
 40
0.0
 40
0.0
 40
0.0
 40
0.0
 40
0.5
 40
0.5
 40
0.5
 40
0.5
 10
1118.614353943145
 20
1964.061101430515
 30
0.0
 10
1118.614353943145
 20
1964.869807837028
 30
0.0
 10
1118.614353943145
 20
1965.268659865923
 30
0.0
 10
1118.614353943145
 20
1965.2576575172
 30
0.0
  0
LINE
  5
29A
330
25D
100
AcDbEntity
  8
P-SANR-FIXT
100
AcDbLine
 10
1118.614353943145
 20
1953.783110835514
 30
0.0
 11
1118.614353943145
 21
1964.061101430515
 31
0.0
  0
SPLINE
  5
29B
330
25D
100
AcDbEntity
  8
P-SANR-FIXT
100
AcDbSpline
210
0.0
220
0.0
230
1.0
 70
     8
 71
     3
 72
     8
 73
     4
 74
     0
 42
0.000000001
 43
0.0000000001
 40
0.0
 40
0.0
 40
0.0
 40
0.0
 40
0.5
 40
0.5
 40
0.5
 40
0.5
 10
1118.614353943145
 20
1953.783110835514
 30
0.0
 10
1118.999893600016
 20
1953.778128336897
 30
0.0
 10
1119.435569128648
 20
1953.773297443213
 30
0.0
 10
1119.918598560266
 20
1953.768618154461
 30
0.0
  0
SPLINE
  5
29C
330
25D
100
AcDbEntity
  8
P-SANR-FIXT
100
AcDbSpline
210
0.0
220
0.0
230
1.0
 70
     8
 71
     3
 72
     8
 73
     4
 74
     0
 42
0.000000001
 43
0.0000000001
 40
0.5000000015410774
 40
0.5000000015410774
 40
0.5000000015410774
 40
0.5000000015410774
 40
1.0
 40
1.0
 40
1.0
 40
1.0
 10
1119.918598564733
 20
1953.768618154418
 30
0.0
 10
1120.401627995154
 20
1953.763938865682
 30
0.0
 10
1120.932011328257
 20
1953.759411181879
 30
0.0
 10
1121.506362215971
 20
1953.755035103007
 30
0.0
  0
SPLINE
  5
29D
330
25D
100
AcDbEntity
  8
P-SANR-FIXT
100
AcDbSpline
210
0.0
220
0.0
230
1.0
 70
     8
 71
     3
 72
     8
 73
     4
 74
     0
 42
0.000000001
 43
0.0000000001
 40
0.0
 40
0.0
 40
0.0
 40
0.0
 40
0.4999999984589219
 40
0.4999999984589219
 40
0.4999999984589219
 40
0.4999999984589219
 10
1121.506362215971
 20
1964.077310962236
 30
0.0
 10
1120.932011911595
 20
1964.074784434671
 30
0.0
 10
1120.401628778977
 20
1964.072170376583
 30
0.0
 10
1119.918599300615
 20
1964.069468787972
 30
0.0
  0
SPLINE
  5
29E
330
25D
100
AcDbEntity
  8
P-SANR-FIXT
100
AcDbSpline
210
0.0
220
0.0
230
1.0
 70
     8
 71
     3
 72
     8
 73
     4
 74
     0
 42
0.000000001
 43
0.0000000001
 40
0.5
 40
0.5
 40
0.5
 40
0.5
 40
1.0
 40
1.0
 40
1.0
 40
1.0
 10
1119.918599296149
 20
1964.069468787947
 30
0.0
 10
1119.43556981659
 20
1964.066767199327
 30
0.0
 10
1118.999893991589
 20
1964.063978080183
 30
0.0
 10
1118.614353943145
 20
1964.061101430515
 30
0.0
  0
LINE
  5
29F
330
25D
100
AcDbEntity
  8
P-SANR-FIXT
100
AcDbLine
 10
1121.506362215971
 20
1953.755035103007
 30
0.0
 11
1121.506362215971
 21
1964.077310962236
 31
0.0
  0
SPLINE
  5
2A0
330
25D
100
AcDbEntity
  8
P-SANR-FIXT
100
AcDbSpline
210
0.0
220
0.0
230
1.0
 70
     8
 71
     3
 72
    10
 73
     6
 74
     0
 42
0.000000001
 43
0.0000000001
 40
0.0
 40
0.0
 40
0.0
 40
0.0
 40
0.3333333333333333
 40
0.6666666666666666
 40
1.0
 40
1.0
 40
1.0
 40
1.0
 10
1121.506362215971
 20
1953.755035103007
 30
0.0
 10
1123.455775368324
 20
1952.802787900099
 30
0.0
 10
1127.36897234325
 20
1951.529019676298
 30
0.0
 10
1133.418313605311
 20
1951.522568943641
 30
0.0
 10
1137.298037401767
 20
1952.763690076562
 30
0.0
 10
1139.222345670269
 20
1953.697609891195
 30
0.0
  0
SPLINE
  5
2A1
330
25D
100
AcDbEntity
  8
P-SANR-FIXT
100
AcDbSpline
210
0.0
220
0.0
230
1.0
 70
     8
 71
     3
 72
     9
 73
     5
 74
     0
 42
0.000000001
 43
0.0000000001
 40
0.0
 40
0.0
 40
0.0
 40
0.0
 40
0.5
 40
1.0
 40
1.0
 40
1.0
 40
1.0
 10
1139.222345670269
 20
1964.110465423733
 30
0.0
 10
1136.30950313011
 20
1964.928583623261
 30
0.0
 10
1130.443996680903
 20
1965.741176079204
 30
0.0
 10
1124.498847493912
 20
1964.906480648929
 30
0.0
 10
1121.506362215971
 20
1964.077310962236
 30
0.0
  0
LINE
  5
2A2
330
25D
100
AcDbEntity
  8
P-SANR-FIXT
100
AcDbLine
 10
1139.222345670269
 20
1953.697609891195
 30
0.0
 11
1139.222345670269
 21
1964.110465423733
 31
0.0
  0
SPLINE
  5
2A3
330
25D
100
AcDbEntity
  8
P-SANR-FIXT
100
AcDbSpline
210
0.0
220
0.0
230
1.0
 70
     8
 71
     3
 72
     9
 73
     5
 74
     0
 42
0.000000001
 43
0.0000000001
 40
0.0
 40
0.0
 40
0.0
 40
0.0
 40
0.5
 40
1.0
 40
1.0
 40
1.0
 40
1.0
 10
1139.222345670269
 20
1953.697609891195
 30
0.0
 10
1139.702290780078
 20
1953.697303331688
 30
0.0
 10
1140.665263488142
 20
1953.69684342973
 30
0.0
 10
1141.631323748121
 20
1953.696689961878
 30
0.0
 10
1142.114353943095
 20
1953.69668983648
 30
0.0
  0
ELLIPSE
  5
2A4
330
25D
100
AcDbEntity
  8
P-SANR-FIXT
100
AcDbEllipse
 10
1142.114353832713
 20
1953.840624665055
 30
0.0
 11
25.62904935210077
 21
0.0000066534592834
 31
0.0
210
0.0
220
0.0
230
1.0
 40
0.0056160814471853
 41
4.71238898323364
 42
4.825470863086151
  0
ELLIPSE
  5
2A5
330
25D
100
AcDbEntity
  8
P-SANR-FIXT
100
AcDbEllipse
 10
1142.114353906301
 20
1964.027717145896
 30
0.0
 11
25.62931622260337
 21
0.0000061701780591
 31
0.0
210
0.0
220
0.0
230
1.0
 40
0.0032493832824907
 41
1.457715627633321
 42
1.570796324576966
  0
ELLIPSE
  5
2A6
330
25D
100
AcDbEntity
  8
P-SANR-FIXT
100
AcDbEllipse
 10
1142.11435397989
 20
1964.027894060958
 30
0.0
 11
25.62931622245014
 21
0.000003842934884
 31
0.0
210
0.0
220
0.0
230
1.0
 40
0.0032424804427699
 41
1.570796327744342
 42
1.683877024765399
  0
LINE
  5
2A7
330
25D
100
AcDbEntity
  8
P-SANR-FIXT
100
AcDbLine
 10
1145.006362215921
 20
1953.697609891195
 30
0.0
 11
1145.006362215921
 21
1964.110465423733
 31
0.0
  0
SPLINE
  5
2A8
330
25D
100
AcDbEntity
  8
P-SANR-FIXT
100
AcDbSpline
210
0.0
220
0.0
230
1.0
 70
     8
 71
     3
 72
    10
 73
     6
 74
     0
 42
0.000000001
 43
0.0000000001
 40
0.0
 40
0.0
 40
0.0
 40
0.0
 40
0.3333333333333333
 40
0.6666666666666666
 40
1.0
 40
1.0
 40
1.0
 40
1.0
 10
1145.006362215921
 20
1953.697609891195
 30
0.0
 10
1146.959160220758
 20
1952.755690328662
 30
0.0
 10
1150.876897062245
 20
1951.504337853061
 30
0.0
 10
1156.928523732254
 20
1951.547980047125
 30
0.0
 10
1160.802424626107
 20
1952.811100196676
 30
0.0
 10
1162.722345670219
 20
1953.755035103007
 30
0.0
  0
SPLINE
  5
2A9
330
25D
100
AcDbEntity
  8
P-SANR-FIXT
100
AcDbSpline
210
0.0
220
0.0
230
1.0
 70
     8
 71
     3
 72
     9
 73
     5
 74
     0
 42
0.000000001
 43
0.0000000001
 40
0.0
 40
0.0
 40
0.0
 40
0.0
 40
0.5
 40
1.0
 40
1.0
 40
1.0
 40
1.0
 10
1162.722345670219
 20
1964.077310962236
 30
0.0
 10
1159.810474009205
 20
1964.906314043152
 30
0.0
 10
1153.94593843914
 20
1965.740842867652
 30
0.0
 10
1147.999818373006
 20
1964.928417017484
 30
0.0
 10
1145.006362215921
 20
1964.110465423733
 30
0.0
  0
LINE
  5
2AA
330
25D
100
AcDbEntity
  8
P-SANR-FIXT
100
AcDbLine
 10
1162.722345670219
 20
1953.755035103007
 30
0.0
 11
1162.722345670219
 21
1964.077310962236
 31
0.0
  0
SPLINE
  5
2AB
330
25D
100
AcDbEntity
  8
P-SANR-FIXT
100
AcDbSpline
210
0.0
220
0.0
230
1.0
 70
     8
 71
     3
 72
     8
 73
     4
 74
     0
 42
0.000000001
 43
0.0000000001
 40
0.0
 40
0.0
 40
0.0
 40
0.0
 40
0.4999999984589226
 40
0.4999999984589226
 40
0.4999999984589226
 40
0.4999999984589226
 10
1162.722345670219
 20
1953.755035103007
 30
0.0
 10
1163.296696557933
 20
1953.759411181879
 30
0.0
 10
1163.827079891037
 20
1953.763938865682
 30
0.0
 10
1164.310109321458
 20
1953.768618154418
 30
0.0
  0
SPLINE
  5
2AC
330
25D
100
AcDbEntity
  8
P-SANR-FIXT
100
AcDbSpline
210
0.0
220
0.0
230
1.0
 70
     8
 71
     3
 72
     8
 73
     4
 74
     0
 42
0.000000001
 43
0.0000000001
 40
0.5
 40
0.5
 40
0.5
 40
0.5
 40
1.0
 40
1.0
 40
1.0
 40
1.0
 10
1164.310109325924
 20
1953.768618154461
 30
0.0
 10
1164.793138757542
 20
1953.773297443213
 30
0.0
 10
1165.228814286175
 20
1953.778128336897
 30
0.0
 10
1165.614353943046
 20
1953.783110835514
 30
0.0
  0
SPLINE
  5
2AD
330
25D
100
AcDbEntity
  8
P-SANR-FIXT
100
AcDbSpline
210
0.0
220
0.0
230
1.0
 70
     8
 71
     3
 72
     8
 73
     4
 74
     0
 42
0.000000001
 43
0.0000000001
 40
0.0
 40
0.0
 40
0.0
 40
0.0
 40
0.5
 40
0.5
 40
0.5
 40
0.5
 10
1165.614353943046
 20
1964.061101430516
 30
0.0
 10
1165.228813894602
 20
1964.063978080183
 30
0.0
 10
1164.793138069601
 20
1964.066767199327
 30
0.0
 10
1164.310108590042
 20
1964.069468787947
 30
0.0
  0
SPLINE
  5
2AE
330
25D
100
AcDbEntity
  8
P-SANR-FIXT
100
AcDbSpline
210
0.0
220
0.0
230
1.0
 70
     8
 71
     3
 72
     8
 73
     4
 74
     0
 42
0.000000001
 43
0.0000000001
 40
0.5000000015410781
 40
0.5000000015410781
 40
0.5000000015410781
 40
0.5000000015410781
 40
1.0
 40
1.0
 40
1.0
 40
1.0
 10
1164.310108585575
 20
1964.069468787972
 30
0.0
 10
1163.827079107213
 20
1964.072170376583
 30
0.0
 10
1163.296695974596
 20
1964.074784434671
 30
0.0
 10
1162.722345670219
 20
1964.077310962236
 30
0.0
  0
LINE
  5
2AF
330
25D
100
AcDbEntity
  8
P-SANR-FIXT
100
AcDbLine
 10
1165.614353943046
 20
1953.783110835514
 30
0.0
 11
1165.614353943046
 21
1964.061101430516
 31
0.0
  0
SPLINE
  5
2B0
330
25D
100
AcDbEntity
  8
P-SANR-FIXT
100
AcDbSpline
210
0.0
220
0.0
230
1.0
 70
    24
 71
     3
 72
     9
 73
     5
 74
     0
 42
0.000000001
 43
0.0000000001
 40
0.0
 40
0.0
 40
0.0
 40
0.0
 40
0.3333333333333333
 40
0.4910348517914204
 40
0.4910348517914204
 40
0.4910348517914204
 40
0.4910348517914204
 10
1165.614353943046
 20
1953.783110835514
 30
0.0
 10
1165.614353943046
 20
1952.850906753421
 30
0.0
 10
1165.614353943046
 20
1951.941912416725
 30
0.0
 10
1165.614353943046
 20
1951.72700320735
 30
0.0
 10
1165.614353943046
 20
1951.728078963233
 30
0.0
  0
SPLINE
  5
2B1
330
25D
100
AcDbEntity
  8
P-SANR-FIXT
100
AcDbSpline
210
0.0
220
0.0
230
1.0
 70
    24
 71
     3
 72
     8
 73
     4
 74
     0
 42
0.000000001
 43
0.0000000001
 40
0.5
 40
0.5
 40
0.5
 40
0.5
 40
1.0
 40
1.0
 40
1.0
 40
1.0
 10
1165.614353943046
 20
1965.257161256775
 30
0.0
 10
1165.614353943046
 20
1965.268163605498
 30
0.0
 10
1165.614353943046
 20
1964.869476996745
 30
0.0
 10
1165.614353943046
 20
1964.061101430516
 30
0.0
  0
LINE
  5
2B2
330
25D
100
AcDbEntity
  8
P-SANR-FIXT
100
AcDbLine
 10
1165.631875344365
 20
2048.23710183404
 30
0.0
 11
1165.09273739154
 21
2048.776239786864
 31
0.0
  0
LINE
  5
2B3
330
25D
100
AcDbEntity
  8
P-SANR-FIXT
100
AcDbLine
 10
1119.135970494655
 20
2048.776239786864
 30
0.0
 11
1118.596889741146
 21
2048.237159033355
 31
0.0
  0
LINE
  5
2B4
330
25D
100
AcDbEntity
  8
P-SANR-FIXT
100
AcDbLine
 10
1165.11433506337
 20
2034.418704615089
 30
0.0
 11
1165.615115475994
 21
2034.707830321123
 31
0.0
  0
LINE
  5
2B5
330
25D
100
AcDbEntity
  8
P-SANR-FIXT
100
AcDbLine
 10
1118.614549845923
 20
2034.707277545351
 30
0.0
 11
1119.114372822825
 21
2034.418704615089
 31
0.0
  0
LINE
  5
2B6
330
25D
100
AcDbEntity
  8
P-SANR-FIXT
100
AcDbLine
 10
1142.114353943095
 20
2048.776239786863
 30
0.0
 11
1165.092737391538
 21
2048.776239786863
 31
0.0
  0
LINE
  5
2B7
330
25D
100
AcDbEntity
  8
P-SANR-FIXT
100
AcDbLine
 10
1119.135970494653
 20
2048.776239786863
 30
0.0
 11
1142.114353943095
 21
2048.776239786863
 31
0.0
  0
LINE
  5
2B8
330
25D
100
AcDbEntity
  8
P-SANR-FIXT
100
AcDbLine
 10
1165.114335063368
 20
2034.418704615088
 30
0.0
 11
1142.114353943096
 21
2034.418704615088
 31
0.0
  0
LINE
  5
2B9
330
25D
100
AcDbEntity
  8
P-SANR-FIXT
100
AcDbLine
 10
1142.114353943096
 20
2034.418704615088
 30
0.0
 11
1119.114372822823
 21
2034.418704615088
 31
0.0
  0
SPLINE
  5
2BA
330
25D
100
AcDbEntity
  8
P-SANR-FIXT
100
AcDbSpline
210
0.0
220
0.0
230
1.0
 70
    24
 71
     3
 72
     8
 73
     4
 74
     0
 42
0.000000001
 43
0.0000000001
 40
0.5
 40
0.5
 40
0.5
 40
0.5
 40
1.0
 40
1.0
 40
1.0
 40
1.0
 10
1118.614353943145
 20
2034.707460182821
 30
0.0
 10
1118.614353943145
 20
2034.696457834098
 30
0.0
 10
1118.614353943145
 20
2035.095309862994
 30
0.0
 10
1118.614353943145
 20
2035.904016269506
 30
0.0
  0
SPLINE
  5
2BB
330
25D
100
AcDbEntity
  8
P-SANR-FIXT
100
AcDbSpline
210
0.0
220
0.0
230
1.0
 70
    24
 71
     3
 72
     9
 73
     5
 74
     0
 42
0.000000001
 43
0.0000000001
 40
0.0
 40
0.0
 40
0.0
 40
0.0
 40
0.3333333333333333
 40
0.494472126927235
 40
0.494472126927235
 40
0.494472126927235
 40
0.494472126927235
 10
1118.614353943145
 20
2046.182006864508
 30
0.0
 10
1118.614353943145
 20
2047.106544271043
 30
0.0
 10
1118.614353943145
 20
2048.014635079981
 30
0.0
 10
1118.614353943145
 20
2048.237612094819
 30
0.0
 10
1118.614353943145
 20
2048.237167601348
 30
0.0
  0
LINE
  5
2BC
330
25D
100
AcDbEntity
  8
P-SANR-FIXT
100
AcDbLine
 10
1118.614353943145
 20
2035.904016269506
 30
0.0
 11
1118.614353943145
 21
2046.182006864508
 31
0.0
  0
SPLINE
  5
2BD
330
25D
100
AcDbEntity
  8
P-SANR-FIXT
100
AcDbSpline
210
0.0
220
0.0
230
1.0
 70
     8
 71
     3
 72
     8
 73
     4
 74
     0
 42
0.000000001
 43
0.0000000001
 40
0.0
 40
0.0
 40
0.0
 40
0.0
 40
0.5
 40
0.5
 40
0.5
 40
0.5
 10
1118.614353943145
 20
2035.904016269506
 30
0.0
 10
1118.999893991589
 20
2035.901139619838
 30
0.0
 10
1119.43556981659
 20
2035.898350500694
 30
0.0
 10
1119.918599296149
 20
2035.895648912074
 30
0.0
  0
SPLINE
  5
2BE
330
25D
100
AcDbEntity
  8
P-SANR-FIXT
100
AcDbSpline
210
0.0
220
0.0
230
1.0
 70
     8
 71
     3
 72
     8
 73
     4
 74
     0
 42
0.000000001
 43
0.0000000001
 40
0.5000000015410781
 40
0.5000000015410781
 40
0.5000000015410781
 40
0.5000000015410781
 40
1.0
 40
1.0
 40
1.0
 40
1.0
 10
1119.918599300615
 20
2035.895648912049
 30
0.0
 10
1120.401628778977
 20
2035.892947323438
 30
0.0
 10
1120.932011911595
 20
2035.89033326535
 30
0.0
 10
1121.506362215971
 20
2035.887806737786
 30
0.0
  0
SPLINE
  5
2BF
330
25D
100
AcDbEntity
  8
P-SANR-FIXT
100
AcDbSpline
210
0.0
220
0.0
230
1.0
 70
     8
 71
     3
 72
     8
 73
     4
 74
     0
 42
0.000000001
 43
0.0000000001
 40
0.0
 40
0.0
 40
0.0
 40
0.0
 40
0.4999999984588693
 40
0.4999999984588693
 40
0.4999999984588693
 40
0.4999999984588693
 10
1121.506362215971
 20
2046.210082597014
 30
0.0
 10
1120.932011328257
 20
2046.205706518142
 30
0.0
 10
1120.401627995154
 20
2046.201178834339
 30
0.0
 10
1119.918598564733
 20
2046.196499545603
 30
0.0
  0
SPLINE
  5
2C0
330
25D
100
AcDbEntity
  8
P-SANR-FIXT
100
AcDbSpline
210
0.0
220
0.0
230
1.0
 70
     8
 71
     3
 72
     8
 73
     4
 74
     0
 42
0.000000001
 43
0.0000000001
 40
0.5
 40
0.5
 40
0.5
 40
0.5
 40
1.0
 40
1.0
 40
1.0
 40
1.0
 10
1119.918598560266
 20
2046.19649954556
 30
0.0
 10
1119.435569128648
 20
2046.191820256808
 30
0.0
 10
1118.999893600016
 20
2046.186989363125
 30
0.0
 10
1118.614353943145
 20
2046.182006864508
 30
0.0
  0
LINE
  5
2C1
330
25D
100
AcDbEntity
  8
P-SANR-FIXT
100
AcDbLine
 10
1121.506362215971
 20
2035.887806737786
 30
0.0
 11
1121.506362215971
 21
2046.210082597014
 31
0.0
  0
SPLINE
  5
2C2
330
25D
100
AcDbEntity
  8
P-SANR-FIXT
100
AcDbSpline
210
0.0
220
0.0
230
1.0
 70
     8
 71
     3
 72
     9
 73
     5
 74
     0
 42
0.000000001
 43
0.0000000001
 40
0.0
 40
0.0
 40
0.0
 40
0.0
 40
0.5
 40
1.0
 40
1.0
 40
1.0
 40
1.0
 10
1121.506362215971
 20
2035.887806737786
 30
0.0
 10
1124.498847493912
 20
2035.058637051093
 30
0.0
 10
1130.443996680903
 20
2034.223941620817
 30
0.0
 10
1136.30950313011
 20
2035.036534076761
 30
0.0
 10
1139.222345670269
 20
2035.854652276288
 30
0.0
  0
SPLINE
  5
2C3
330
25D
100
AcDbEntity
  8
P-SANR-FIXT
100
AcDbSpline
210
0.0
220
0.0
230
1.0
 70
     8
 71
     3
 72
    10
 73
     6
 74
     0
 42
0.000000001
 43
0.0000000001
 40
0.0
 40
0.0
 40
0.0
 40
0.0
 40
0.3333333333333333
 40
0.6666666666666666
 40
1.0
 40
1.0
 40
1.0
 40
1.0
 10
1139.222345670269
 20
2046.267507808826
 30
0.0
 10
1137.298037401767
 20
2047.20142762346
 30
0.0
 10
1133.418313605311
 20
2048.44254875638
 30
0.0
 10
1127.36897234325
 20
2048.436098023723
 30
0.0
 10
1123.455775368324
 20
2047.162329799922
 30
0.0
 10
1121.506362215971
 20
2046.210082597014
 30
0.0
  0
LINE
  5
2C4
330
25D
100
AcDbEntity
  8
P-SANR-FIXT
100
AcDbLine
 10
1139.222345670269
 20
2035.854652276288
 30
0.0
 11
1139.222345670269
 21
2046.267507808826
 31
0.0
  0
ELLIPSE
  5
2C5
330
25D
100
AcDbEntity
  8
P-SANR-FIXT
100
AcDbEllipse
 10
1142.11435397989
 20
2035.937400554113
 30
0.0
 11
25.62931622260232
 21
0.0000061701780591
 31
0.0
210
0.0
220
0.0
230
1.0
 40
0.003249383282004
 41
4.59930828122293
 42
4.712388978166744
  0
ELLIPSE
  5
2C6
330
25D
100
AcDbEntity
  8
P-SANR-FIXT
100
AcDbEllipse
 10
1142.114353906301
 20
2035.937223639059
 30
0.0
 11
25.62931622245129
 21
0.000003842934884
 31
0.0
210
0.0
220
0.0
230
1.0
 40
0.003242480442619
 41
4.712388981334129
 42
4.825469678355197
  0
SPLINE
  5
2C7
330
25D
100
AcDbEntity
  8
P-SANR-FIXT
100
AcDbSpline
210
0.0
220
0.0
230
1.0
 70
     8
 71
     3
 72
     9
 73
     5
 74
     0
 42
0.000000001
 43
0.0000000001
 40
0.0
 40
0.0
 40
0.0
 40
0.0
 40
0.5
 40
1.0
 40
1.0
 40
1.0
 40
1.0
 10
1145.006362215921
 20
2046.267507808826
 30
0.0
 10
1144.526417106112
 20
2046.267814368333
 30
0.0
 10
1143.563444398048
 20
2046.268274270292
 30
0.0
 10
1142.59738413807
 20
2046.268427738143
 30
0.0
 10
1142.114353943095
 20
2046.268427863541
 30
0.0
  0
ELLIPSE
  5
2C8
330
25D
100
AcDbEntity
  8
P-SANR-FIXT
100
AcDbEllipse
 10
1142.114354053478
 20
2046.124493034957
 30
0.0
 11
25.62904935209872
 21
0.0000066534592834
 31
0.0
210
0.0
220
0.0
230
1.0
 40
0.0056160814475229
 41
1.570796329643853
 42
1.683878209496347
  0
LINE
  5
2C9
330
25D
100
AcDbEntity
  8
P-SANR-FIXT
100
AcDbLine
 10
1145.006362215921
 20
2035.854652276288
 30
0.0
 11
1145.006362215921
 21
2046.267507808826
 31
0.0
  0
SPLINE
  5
2CA
330
25D
100
AcDbEntity
  8
P-SANR-FIXT
100
AcDbSpline
210
0.0
220
0.0
230
1.0
 70
     8
 71
     3
 72
     9
 73
     5
 74
     0
 42
0.000000001
 43
0.0000000001
 40
0.0
 40
0.0
 40
0.0
 40
0.0
 40
0.5
 40
1.0
 40
1.0
 40
1.0
 40
1.0
 10
1145.006362215921
 20
2035.854652276288
 30
0.0
 10
1147.999818373006
 20
2035.036700682537
 30
0.0
 10
1153.94593843914
 20
2034.224274832369
 30
0.0
 10
1159.810474009205
 20
2035.058803656869
 30
0.0
 10
1162.722345670219
 20
2035.887806737786
 30
0.0
  0
SPLINE
  5
2CB
330
25D
100
AcDbEntity
  8
P-SANR-FIXT
100
AcDbSpline
210
0.0
220
0.0
230
1.0
 70
     8
 71
     3
 72
    10
 73
     6
 74
     0
 42
0.000000001
 43
0.0000000001
 40
0.0
 40
0.0
 40
0.0
 40
0.0
 40
0.3333333333333333
 40
0.6666666666666666
 40
1.0
 40
1.0
 40
1.0
 40
1.0
 10
1162.722345670219
 20
2046.210082597014
 30
0.0
 10
1160.802424626108
 20
2047.154017503345
 30
0.0
 10
1156.928523732254
 20
2048.417137652897
 30
0.0
 10
1150.876897062245
 20
2048.46077984696
 30
0.0
 10
1146.959160220758
 20
2047.20942737136
 30
0.0
 10
1145.006362215921
 20
2046.267507808826
 30
0.0
  0
LINE
  5
2CC
330
25D
100
AcDbEntity
  8
P-SANR-FIXT
100
AcDbLine
 10
1162.722345670219
 20
2035.887806737786
 30
0.0
 11
1162.722345670219
 21
2046.210082597014
 31
0.0
  0
SPLINE
  5
2CD
330
25D
100
AcDbEntity
  8
P-SANR-FIXT
100
AcDbSpline
210
0.0
220
0.0
230
1.0
 70
     8
 71
     3
 72
     8
 73
     4
 74
     0
 42
0.000000001
 43
0.0000000001
 40
0.0
 40
0.0
 40
0.0
 40
0.0
 40
0.4999999984589219
 40
0.4999999984589219
 40
0.4999999984589219
 40
0.4999999984589219
 10
1162.722345670219
 20
2035.887806737786
 30
0.0
 10
1163.296695974596
 20
2035.89033326535
 30
0.0
 10
1163.827079107213
 20
2035.892947323438
 30
0.0
 10
1164.310108585575
 20
2035.895648912049
 30
0.0
  0
SPLINE
  5
2CE
330
25D
100
AcDbEntity
  8
P-SANR-FIXT
100
AcDbSpline
210
0.0
220
0.0
230
1.0
 70
     8
 71
     3
 72
     8
 73
     4
 74
     0
 42
0.000000001
 43
0.0000000001
 40
0.5
 40
0.5
 40
0.5
 40
0.5
 40
1.0
 40
1.0
 40
1.0
 40
1.0
 10
1164.310108590042
 20
2035.895648912074
 30
0.0
 10
1164.793138069601
 20
2035.898350500694
 30
0.0
 10
1165.228813894602
 20
2035.901139619838
 30
0.0
 10
1165.614353943046
 20
2035.904016269506
 30
0.0
  0
SPLINE
  5
2CF
330
25D
100
AcDbEntity
  8
P-SANR-FIXT
100
AcDbSpline
210
0.0
220
0.0
230
1.0
 70
     8
 71
     3
 72
     8
 73
     4
 74
     0
 42
0.000000001
 43
0.0000000001
 40
0.0
 40
0.0
 40
0.0
 40
0.0
 40
0.5
 40
0.5
 40
0.5
 40
0.5
 10
1165.614353943046
 20
2046.182006864508
 30
0.0
 10
1165.228814286175
 20
2046.186989363125
 30
0.0
 10
1164.793138757542
 20
2046.191820256809
 30
0.0
 10
1164.310109325924
 20
2046.19649954556
 30
0.0
  0
SPLINE
  5
2D0
330
25D
100
AcDbEntity
  8
P-SANR-FIXT
100
AcDbSpline
210
0.0
220
0.0
230
1.0
 70
     8
 71
     3
 72
     8
 73
     4
 74
     0
 42
0.000000001
 43
0.0000000001
 40
0.5000000015410774
 40
0.5000000015410774
 40
0.5000000015410774
 40
0.5000000015410774
 40
1.0
 40
1.0
 40
1.0
 40
1.0
 10
1164.310109321458
 20
2046.196499545603
 30
0.0
 10
1163.827079891037
 20
2046.201178834339
 30
0.0
 10
1163.296696557933
 20
2046.205706518143
 30
0.0
 10
1162.722345670219
 20
2046.210082597014
 30
0.0
  0
LINE
  5
2D1
330
25D
100
AcDbEntity
  8
P-SANR-FIXT
100
AcDbLine
 10
1165.614353943046
 20
2035.904016269506
 30
0.0
 11
1165.614353943046
 21
2046.182006864508
 31
0.0
  0
SPLINE
  5
2D2
330
25D
100
AcDbEntity
  8
P-SANR-FIXT
100
AcDbSpline
210
0.0
220
0.0
230
1.0
 70
    24
 71
     3
 72
     8
 73
     4
 74
     0
 42
0.000000001
 43
0.0000000001
 40
0.0
 40
0.0
 40
0.0
 40
0.0
 40
0.5
 40
0.5
 40
0.5
 40
0.5
 10
1165.614353943046
 20
2035.904016269506
 30
0.0
 10
1165.614353943046
 20
2035.095640703277
 30
0.0
 10
1165.614353943046
 20
2034.696954094524
 30
0.0
 10
1165.614353943046
 20
2034.707956443246
 30
0.0
  0
SPLINE
  5
2D3
330
25D
100
AcDbEntity
  8
P-SANR-FIXT
100
AcDbSpline
210
0.0
220
0.0
230
1.0
 70
    24
 71
     3
 72
     9
 73
     5
 74
     0
 42
0.000000001
 43
0.0000000001
 40
0.5089651482196861
 40
0.5089651482196861
 40
0.5089651482196861
 40
0.5089651482196861
 40
0.6666666666666666
 40
1.0
 40
1.0
 40
1.0
 40
1.0
 10
1165.614353943046
 20
2048.237038736788
 30
0.0
 10
1165.614353943046
 20
2048.238114492661
 30
0.0
 10
1165.614353943046
 20
2048.023205283276
 30
0.0
 10
1165.614353943046
 20
2047.1142109466
 30
0.0
 10
1165.614353943046
 20
2046.182006864508
 30
0.0
  0
LINE
  5
2D4
330
25D
100
AcDbEntity
  8
P-SANR-FIXT
100
AcDbLine
 10
1163.014353943097
 20
2033.482558850012
 30
0.0
 11
1163.014353943097
 21
2034.418704615089
 31
0.0
  0
LINE
  5
2D5
330
25D
100
AcDbEntity
  8
P-SANR-FIXT
100
AcDbLine
 10
1121.214353943098
 20
2034.418704615089
 30
0.0
 11
1121.214353943098
 21
2033.482558850012
 31
0.0
  0
LINE
  5
2D6
330
25D
100
AcDbEntity
  8
P-SANR-FIXT
100
AcDbLine
 10
1166.266919835861
 20
2030.982558850074
 30
0.0
 11
1166.266919835861
 21
2033.482558850012
 31
0.0
  0
LINE
  5
2D7
330
25D
100
AcDbEntity
  8
P-SANR-FIXT
100
AcDbLine
 10
1117.961788050335
 20
2033.482558850012
 30
0.0
 11
1117.961788050335
 21
2030.982558850074
 31
0.0
  0
LINE
  5
2D8
330
25D
100
AcDbEntity
  8
P-SANR-FIXT
100
AcDbLine
 10
1165.708620220766
 20
2030.42425923498
 30
0.0
 11
1166.266919835861
 21
2030.982558850074
 31
0.0
  0
LINE
  5
2D9
330
25D
100
AcDbEntity
  8
P-SANR-FIXT
100
AcDbLine
 10
1117.961788050335
 20
2030.982558850074
 30
0.0
 11
1118.520087665429
 21
2030.42425923498
 31
0.0
  0
LINE
  5
2DA
330
25D
100
AcDbEntity
  8
P-SANR-FIXT
100
AcDbLine
 10
1160.614353943161
 20
2025.938617579376
 30
0.0
 11
1160.614353943161
 21
2030.42425923498
 31
0.0
  0
LINE
  5
2DB
330
25D
100
AcDbEntity
  8
P-SANR-FIXT
100
AcDbLine
 10
1123.614353943034
 20
2030.42425923498
 30
0.0
 11
1123.614353943034
 21
2025.938617579376
 31
0.0
  0
LINE
  5
2DC
330
25D
100
AcDbEntity
  8
P-SANR-FIXT
100
AcDbLine
 10
1160.614353943161
 20
1999.982558850012
 30
0.0
 11
1160.614353943161
 21
2025.938617579376
 31
0.0
  0
LINE
  5
2DD
330
25D
100
AcDbEntity
  8
P-SANR-FIXT
100
AcDbLine
 10
1123.614353943034
 20
2025.938617579376
 30
0.0
 11
1123.614353943034
 21
1999.982558850012
 31
0.0
  0
LINE
  5
2DE
330
25D
100
AcDbEntity
  8
P-SANR-FIXT
100
AcDbLine
 10
1160.614353943161
 20
1974.026500120646
 30
0.0
 11
1160.614353943161
 21
1999.982558850011
 31
0.0
  0
LINE
  5
2DF
330
25D
100
AcDbEntity
  8
P-SANR-FIXT
100
AcDbLine
 10
1123.614353943034
 20
1999.982558850011
 30
0.0
 11
1123.614353943034
 21
1974.026500120646
 31
0.0
  0
LINE
  5
2E0
330
25D
100
AcDbEntity
  8
P-SANR-FIXT
100
AcDbLine
 10
1160.614353943161
 20
1969.540858465043
 30
0.0
 11
1160.614353943161
 21
1974.026500120646
 31
0.0
  0
LINE
  5
2E1
330
25D
100
AcDbEntity
  8
P-SANR-FIXT
100
AcDbLine
 10
1123.614353943034
 20
1974.026500120646
 30
0.0
 11
1123.614353943034
 21
1969.540858465043
 31
0.0
  0
LINE
  5
2E2
330
25D
100
AcDbEntity
  8
P-SANR-FIXT
100
AcDbLine
 10
1166.26691983586
 20
1968.982558849949
 30
0.0
 11
1165.708620220766
 21
1969.540858465043
 31
0.0
  0
LINE
  5
2E3
330
25D
100
AcDbEntity
  8
P-SANR-FIXT
100
AcDbLine
 10
1118.520087665429
 20
1969.540858465043
 30
0.0
 11
1117.961788050335
 21
1968.982558849949
 31
0.0
  0
LINE
  5
2E4
330
25D
100
AcDbEntity
  8
P-SANR-FIXT
100
AcDbLine
 10
1166.266919835861
 20
1966.482558850011
 30
0.0
 11
1166.266919835861
 21
1968.982558849949
 31
0.0
  0
LINE
  5
2E5
330
25D
100
AcDbEntity
  8
P-SANR-FIXT
100
AcDbLine
 10
1117.961788050335
 20
1968.982558849949
 30
0.0
 11
1117.961788050335
 21
1966.482558850011
 31
0.0
  0
LINE
  5
2E6
330
25D
100
AcDbEntity
  8
P-SANR-FIXT
100
AcDbLine
 10
1163.014353943097
 20
1965.546413084934
 30
0.0
 11
1163.014353943097
 21
1966.482558850011
 31
0.0
  0
LINE
  5
2E7
330
25D
100
AcDbEntity
  8
P-SANR-FIXT
100
AcDbLine
 10
1121.214353943098
 20
1966.482558850011
 30
0.0
 11
1121.214353943098
 21
1965.546413084934
 31
0.0
  0
LINE
  5
2E8
330
25D
100
AcDbEntity
  8
P-SANR-FIXT
100
AcDbLine
 10
1142.114353943096
 20
2033.482558850011
 30
0.0
 11
1166.266919835858
 21
2033.482558850011
 31
0.0
  0
LINE
  5
2E9
330
25D
100
AcDbEntity
  8
P-SANR-FIXT
100
AcDbLine
 10
1117.961788050332
 20
2033.482558850011
 30
0.0
 11
1142.114353943095
 21
2033.482558850011
 31
0.0
  0
LINE
  5
2EA
330
25D
100
AcDbEntity
  8
P-SANR-FIXT
100
AcDbLine
 10
1142.114353943096
 20
2030.982558850073
 30
0.0
 11
1166.266919835858
 21
2030.982558850073
 31
0.0
  0
LINE
  5
2EB
330
25D
100
AcDbEntity
  8
P-SANR-FIXT
100
AcDbLine
 10
1117.961788050333
 20
2030.982558850073
 30
0.0
 11
1142.114353943095
 21
2030.982558850073
 31
0.0
  0
LINE
  5
2EC
330
25D
100
AcDbEntity
  8
P-SANR-FIXT
100
AcDbLine
 10
1142.114353943096
 20
2030.424259234979
 30
0.0
 11
1165.708620220764
 21
2030.424259234979
 31
0.0
  0
LINE
  5
2ED
330
25D
100
AcDbEntity
  8
P-SANR-FIXT
100
AcDbLine
 10
1118.520087665427
 20
2030.424259234979
 30
0.0
 11
1142.114353943095
 21
2030.424259234979
 31
0.0
  0
LINE
  5
2EE
330
25D
100
AcDbEntity
  8
P-SANR-FIXT
100
AcDbLine
 10
1142.114353943096
 20
1969.540858465042
 30
0.0
 11
1165.708620220764
 21
1969.540858465042
 31
0.0
  0
LINE
  5
2EF
330
25D
100
AcDbEntity
  8
P-SANR-FIXT
100
AcDbLine
 10
1118.520087665427
 20
1969.540858465042
 30
0.0
 11
1142.114353943095
 21
1969.540858465042
 31
0.0
  0
LINE
  5
2F0
330
25D
100
AcDbEntity
  8
P-SANR-FIXT
100
AcDbLine
 10
1142.114353943096
 20
1968.982558849948
 30
0.0
 11
1166.266919835858
 21
1968.982558849948
 31
0.0
  0
LINE
  5
2F1
330
25D
100
AcDbEntity
  8
P-SANR-FIXT
100
AcDbLine
 10
1117.961788050332
 20
1968.982558849948
 30
0.0
 11
1142.114353943095
 21
1968.982558849948
 31
0.0
  0
LINE
  5
2F2
330
25D
100
AcDbEntity
  8
P-SANR-FIXT
100
AcDbLine
 10
1142.114353943096
 20
1966.48255885001
 30
0.0
 11
1166.266919835858
 21
1966.48255885001
 31
0.0
  0
LINE
  5
2F3
330
25D
100
AcDbEntity
  8
P-SANR-FIXT
100
AcDbLine
 10
1117.961788050332
 20
1966.48255885001
 30
0.0
 11
1142.114353943095
 21
1966.48255885001
 31
0.0
  0
LINE
  5
2F4
330
25D
100
AcDbEntity
  8
P-SANR-FIXT
100
AcDbLine
 10
1157.200870997832
 20
1876.263137432194
 30
0.0
 11
1157.200870997832
 21
1878.486413085125
 31
0.0
  0
LINE
  5
2F5
330
25D
100
AcDbEntity
  8
P-SANR-FIXT
100
AcDbLine
 10
1127.027836888364
 20
1878.486413085125
 30
0.0
 11
1127.027836888364
 21
1876.263137432194
 31
0.0
  0
LINE
  5
2F6
330
25D
100
AcDbEntity
  8
P-SANR-FIXT
100
AcDbLine
 10
1157.981449580029
 20
1865.982558849997
 30
0.0
 11
1157.981449580029
 21
1876.263137432194
 31
0.0
  0
LINE
  5
2F7
330
25D
100
AcDbEntity
  8
P-SANR-FIXT
100
AcDbLine
 10
1126.247258306167
 20
1876.263137432194
 30
0.0
 11
1126.247258306167
 21
1865.982558849997
 31
0.0
  0
LINE
  5
2F8
330
25D
100
AcDbEntity
  8
P-SANR-FIXT
100
AcDbLine
 10
1157.061449580028
 20
1864.48255884998
 30
0.0
 11
1157.061449580028
 21
1865.982558849997
 31
0.0
  0
LINE
  5
2F9
330
25D
100
AcDbEntity
  8
P-SANR-FIXT
100
AcDbLine
 10
1127.167258306168
 20
1865.982558849997
 30
0.0
 11
1127.167258306168
 21
1864.48255884998
 31
0.0
  0
LINE
  5
2FA
330
25D
100
AcDbEntity
  8
P-SANR-FIXT
100
AcDbLine
 10
1154.311449580029
 20
1861.482558849981
 30
0.0
 11
1154.311449580029
 21
1864.48255884998
 31
0.0
  0
LINE
  5
2FB
330
25D
100
AcDbEntity
  8
P-SANR-FIXT
100
AcDbLine
 10
1129.917258306167
 20
1864.48255884998
 30
0.0
 11
1129.917258306167
 21
1861.482558849981
 31
0.0
  0
LINE
  5
2FC
330
25D
100
AcDbEntity
  8
P-SANR-FIXT
100
AcDbLine
 10
1156.011449580029
 20
1859.482558850009
 30
0.0
 11
1156.011449580029
 21
1861.482558849981
 31
0.0
  0
LINE
  5
2FD
330
25D
100
AcDbEntity
  8
P-SANR-FIXT
100
AcDbLine
 10
1128.217258306167
 20
1861.482558849981
 30
0.0
 11
1128.217258306167
 21
1859.482558850009
 31
0.0
  0
LINE
  5
2FE
330
25D
100
AcDbEntity
  8
P-SANR-FIXT
100
AcDbLine
 10
1157.361449580016
 20
1850.482558850009
 30
0.0
 11
1157.361449580016
 21
1859.482558850009
 31
0.0
  0
LINE
  5
2FF
330
25D
100
AcDbEntity
  8
P-SANR-FIXT
100
AcDbLine
 10
1126.86725830618
 20
1859.482558850009
 30
0.0
 11
1126.86725830618
 21
1850.482558850009
 31
0.0
  0
LINE
  5
300
330
25D
100
AcDbEntity
  8
P-SANR-FIXT
100
AcDbLine
 10
1150.061449580029
 20
1827.482558850009
 30
0.0
 11
1150.061449580029
 21
1850.482558850009
 31
0.0
  0
LINE
  5
301
330
25D
100
AcDbEntity
  8
P-SANR-FIXT
100
AcDbLine
 10
1134.167258306167
 20
1850.482558850009
 30
0.0
 11
1134.167258306167
 21
1827.482558850009
 31
0.0
  0
SPLINE
  5
302
330
25D
100
AcDbEntity
  8
P-SANR-FIXT
100
AcDbSpline
210
0.0
220
0.0
230
1.0
 70
     8
 71
     3
 72
     8
 73
     4
 74
     0
 42
0.000000001
 43
0.0000000001
 40
0.8571428571428569
 40
0.8571428571428569
 40
0.8571428571428569
 40
0.8571428571428569
 40
0.8897204320759799
 40
0.8897204320759799
 40
0.8897204320759799
 40
0.8897204320759799
 10
1148.612887607633
 20
1877.763338612465
 30
0.0
 10
1148.638275448133
 20
1877.652546531989
 30
0.0
 10
1148.662800814387
 20
1877.541843683998
 30
0.0
 10
1148.680811426445
 20
1877.429288301602
 30
0.0
  0
SPLINE
  5
303
330
25D
100
AcDbEntity
  8
P-SANR-FIXT
100
AcDbSpline
210
0.0
220
0.0
230
1.0
 70
     8
 71
     3
 72
     8
 73
     4
 74
     0
 42
0.000000001
 43
0.0000000001
 40
0.1102795679240137
 40
0.1102795679240137
 40
0.1102795679240137
 40
0.1102795679240137
 40
0.1428571428571428
 40
0.1428571428571428
 40
0.1428571428571428
 40
0.1428571428571428
 10
1135.547950379403
 20
1877.428377297831
 30
0.0
 10
1135.567674668464
 20
1877.540672879508
 30
0.0
 10
1135.590409942403
 20
1877.652180958582
 30
0.0
 10
1135.615860671986
 20
1877.76339316159
 30
0.0
  0
LINE
  5
304
330
25D
100
AcDbEntity
  8
P-SANR-FIXT
100
AcDbLine
 10
1148.783775360898
 20
1876.263137432193
 30
0.0
 11
1157.981449580027
 21
1876.263137432193
 31
0.0
  0
SPLINE
  5
305
330
25D
100
AcDbEntity
  8
P-SANR-FIXT
100
AcDbSpline
210
0.0
220
0.0
230
1.0
 70
     8
 71
     3
 72
     8
 73
     4
 74
     0
 42
0.000000001
 43
0.0000000001
 40
0.1102727663274595
 40
0.1102727663274595
 40
0.1102727663274595
 40
0.1102727663274595
 40
0.1428571428571428
 40
0.1428571428571428
 40
0.1428571428571428
 40
0.1428571428571428
 10
1148.68078191832
 20
1875.097911174135
 30
0.0
 10
1148.661042152431
 20
1874.985580438811
 30
0.0
 10
1148.63829079825
 20
1874.87403684155
 30
0.0
 10
1148.612825850596
 20
1874.762789167399
 30
0.0
  0
SPLINE
  5
306
330
25D
100
AcDbEntity
  8
P-SANR-FIXT
100
AcDbSpline
210
0.0
220
0.0
230
1.0
 70
     8
 71
     3
 72
     9
 73
     5
 74
     0
 42
0.000000001
 43
0.0000000001
 40
0.221897147243409
 40
0.221897147243409
 40
0.221897147243409
 40
0.221897147243409
 40
0.2857142857142857
 40
0.3339801553769617
 40
0.3339801553769617
 40
0.3339801553769617
 40
0.3339801553769617
 10
1148.376050691005
 20
1873.967333767914
 30
0.0
 10
1148.29908503102
 20
1873.757537613199
 30
0.0
 10
1148.147155411459
 20
1873.393842873799
 30
0.0
 10
1147.96027865562
 20
1873.05580500815
 30
0.0
 10
1147.874099272757
 20
1872.91438050956
 30
0.0
  0
SPLINE
  5
307
330
25D
100
AcDbEntity
  8
P-SANR-FIXT
100
AcDbSpline
210
0.0
220
0.0
230
1.0
 70
     8
 71
     3
 72
     8
 73
     4
 74
     0
 42
0.000000001
 43
0.0000000001
 40
0.4285714285714286
 40
0.4285714285714286
 40
0.4285714285714286
 40
0.4285714285714286
 40
0.4453714954422071
 40
0.4453714954422071
 40
0.4453714954422071
 40
0.4453714954422071
 10
1147.324467481197
 20
1872.09860739262
 30
0.0
 10
1147.288276621817
 20
1872.053318448675
 30
0.0
 10
1147.251358424733
 20
1872.008784604819
 30
0.0
 10
1147.213772715959
 20
1871.964920870636
 30
0.0
  0
SPLINE
  5
308
330
25D
100
AcDbEntity
  8
P-SANR-FIXT
100
AcDbSpline
210
0.0
220
0.0
230
1.0
 70
     8
 71
     3
 72
     8
 73
     4
 74
     0
 42
0.000000001
 43
0.0000000001
 40
0.5578497231136489
 40
0.5578497231136489
 40
0.5578497231136489
 40
0.5578497231136489
 40
0.5714285714285714
 40
0.5714285714285714
 40
0.5714285714285714
 40
0.5714285714285714
 10
1146.389441068278
 20
1871.143905852168
 30
0.0
 10
1146.353373787663
 20
1871.113837987765
 30
0.0
 10
1146.316882928942
 20
1871.084360059532
 30
0.0
 10
1146.280243897196
 20
1871.054822643456
 30
0.0
  0
SPLINE
  5
309
330
25D
100
AcDbEntity
  8
P-SANR-FIXT
100
AcDbSpline
210
0.0
220
0.0
230
1.0
 70
     8
 71
     3
 72
     8
 73
     4
 74
     0
 42
0.000000001
 43
0.0000000001
 40
0.6660821458634359
 40
0.6660821458634359
 40
0.6660821458634359
 40
0.6660821458634359
 40
0.7780327163001021
 40
0.7780327163001021
 40
0.7780327163001021
 40
0.7780327163001021
 10
1145.467649519875
 20
1870.498954096645
 30
0.0
 10
1145.131057009499
 20
1870.303256290611
 30
0.0
 10
1144.78277433547
 20
1870.114093548209
 30
0.0
 10
1144.411654334932
 20
1869.997611131253
 30
0.0
  0
SPLINE
  5
30A
330
25D
100
AcDbEntity
  8
P-SANR-FIXT
100
AcDbSpline
210
0.0
220
0.0
230
1.0
 70
     8
 71
     3
 72
     8
 73
     4
 74
     0
 42
0.000000001
 43
0.0000000001
 40
0.8571428571428569
 40
0.8571428571428569
 40
0.8571428571428569
 40
0.8571428571428569
 40
0.8896145572872427
 40
0.8896145572872427
 40
0.8896145572872427
 40
0.8896145572872427
 10
1143.617104000078
 20
1869.766089782514
 30
0.0
 10
1143.506396773927
 20
1869.740601000937
 30
0.0
 10
1143.393898074196
 20
1869.722311561224
 30
0.0
 10
1143.280340948026
 20
1869.708238587404
 30
0.0
  0
SPLINE
  5
30B
330
25D
100
AcDbEntity
  8
P-SANR-FIXT
100
AcDbSpline
210
0.0
220
0.0
230
1.0
 70
     8
 71
     3
 72
     8
 73
     4
 74
     0
 42
0.000000001
 43
0.0000000001
 40
0.1102540988164409
 40
0.1102540988164409
 40
0.1102540988164409
 40
0.1102540988164409
 40
0.1428571428571428
 40
0.1428571428571428
 40
0.1428571428571428
 40
0.1428571428571428
 10
1140.949594807143
 20
1869.696458930999
 30
0.0
 10
1140.837035488487
 20
1869.716297740591
 30
0.0
 10
1140.725096869873
 20
1869.73904002803
 30
0.0
 10
1140.613751649036
 20
1869.764724179459
 30
0.0
  0
SPLINE
  5
30C
330
25D
100
AcDbEntity
  8
P-SANR-FIXT
100
AcDbSpline
210
0.0
220
0.0
230
1.0
 70
     8
 71
     3
 72
     9
 73
     5
 74
     0
 42
0.000000001
 43
0.0000000001
 40
0.2217683417753717
 40
0.2217683417753717
 40
0.2217683417753717
 40
0.2217683417753717
 40
0.2857142857142857
 40
0.333682762147189
 40
0.333682762147189
 40
0.333682762147189
 40
0.333682762147189
 10
1139.818413511415
 20
1870.001512806798
 30
0.0
 10
1139.607908112389
 20
1870.078713930212
 30
0.0
 10
1139.246782555456
 20
1870.232141850765
 30
0.0
 10
1138.902783012532
 20
1870.415334141923
 30
0.0
 10
1138.758761101572
 20
1870.499084085277
 30
0.0
  0
SPLINE
  5
30D
330
25D
100
AcDbEntity
  8
P-SANR-FIXT
100
AcDbSpline
210
0.0
220
0.0
230
1.0
 70
     8
 71
     3
 72
     8
 73
     4
 74
     0
 42
0.000000001
 43
0.0000000001
 40
0.4285714285714286
 40
0.4285714285714286
 40
0.4285714285714286
 40
0.4285714285714286
 40
0.4419297716992542
 40
0.4419297716992542
 40
0.4419297716992542
 40
0.4419297716992542
 10
1137.947003513465
 20
1871.056041614553
 30
0.0
 10
1137.910983472081
 20
1871.084878312532
 30
0.0
 10
1137.875264950006
 20
1871.11408074508
 30
0.0
 10
1137.839854728681
 20
1871.143644173755
 30
0.0
  0
SPLINE
  5
30E
330
25D
100
AcDbEntity
  8
P-SANR-FIXT
100
AcDbSpline
210
0.0
220
0.0
230
1.0
 70
     8
 71
     3
 72
     8
 73
     4
 74
     0
 42
0.000000001
 43
0.0000000001
 40
0.5543632720902368
 40
0.5543632720902368
 40
0.5543632720902368
 40
0.5543632720902368
 40
0.5714285714285714
 40
0.5714285714285714
 40
0.5714285714285714
 40
0.5714285714285714
 10
1137.01544581354
 20
1871.964095048443
 30
0.0
 10
1136.977418693066
 20
1872.009178652813
 30
0.0
 10
1136.939964872772
 20
1872.054775388568
 30
0.0
 10
1136.90312932188
 20
1872.100888040881
 30
0.0
  0
SPLINE
  5
30F
330
25D
100
AcDbEntity
  8
P-SANR-FIXT
100
AcDbSpline
210
0.0
220
0.0
230
1.0
 70
     8
 71
     3
 72
     9
 73
     5
 74
     0
 42
0.000000001
 43
0.0000000001
 40
0.6657778825358238
 40
0.6657778825358238
 40
0.6657778825358238
 40
0.6657778825358238
 40
0.6785714285714287
 40
0.7778967921018645
 40
0.7778967921018645
 40
0.7778967921018645
 40
0.7778967921018645
 10
1136.349433403134
 20
1872.908964298002
 30
0.0
 10
1136.327129877802
 20
1872.947305323048
 30
0.0
 10
1136.135173649065
 20
1873.285336913791
 30
0.0
 10
1135.971339954155
 20
1873.639663455292
 30
0.0
 10
1135.852972386578
 20
1873.966502922551
 30
0.0
  0
SPLINE
  5
310
330
25D
100
AcDbEntity
  8
P-SANR-FIXT
100
AcDbSpline
210
0.0
220
0.0
230
1.0
 70
     8
 71
     3
 72
     8
 73
     4
 74
     0
 42
0.000000001
 43
0.0000000001
 40
0.8571428571428569
 40
0.8571428571428569
 40
0.8571428571428569
 40
0.8571428571428569
 40
0.8895916917024468
 40
0.8895916917024468
 40
0.8895916917024468
 40
0.8895916917024468
 10
1135.615392967973
 20
1874.764730146653
 30
0.0
 10
1135.590123487056
 20
1874.875025505596
 30
0.0
 10
1135.565713767268
 20
1874.985193298849
 30
0.0
 10
1135.547754575324
 20
1875.097167632356
 30
0.0
  0
LINE
  5
311
330
25D
100
AcDbEntity
  8
P-SANR-FIXT
100
AcDbLine
 10
1126.247258306165
 20
1876.263137432193
 30
0.0
 11
1135.444932525293
 21
1876.263137432193
 31
0.0
  0
LINE
  5
312
330
25D
100
AcDbEntity
  8
P-SANR-FIXT
100
AcDbLine
 10
1142.114353943096
 20
1865.982558849995
 30
0.0
 11
1157.981449580027
 21
1865.982558849996
 31
0.0
  0
LINE
  5
313
330
25D
100
AcDbEntity
  8
P-SANR-FIXT
100
AcDbLine
 10
1126.247258306165
 20
1865.982558849996
 30
0.0
 11
1142.114353943096
 21
1865.982558849995
 31
0.0
  0
LINE
  5
314
330
25D
100
AcDbEntity
  8
P-SANR-FIXT
100
AcDbLine
 10
1142.114353943096
 20
1864.48255884998
 30
0.0
 11
1157.061449580026
 21
1864.48255884998
 31
0.0
  0
LINE
  5
315
330
25D
100
AcDbEntity
  8
P-SANR-FIXT
100
AcDbLine
 10
1127.167258306166
 20
1864.48255884998
 30
0.0
 11
1142.114353943096
 21
1864.48255884998
 31
0.0
  0
LINE
  5
316
330
25D
100
AcDbEntity
  8
P-SANR-FIXT
100
AcDbLine
 10
1142.114353943096
 20
1861.48255884998
 30
0.0
 11
1156.011449580027
 21
1861.48255884998
 31
0.0
  0
LINE
  5
317
330
25D
100
AcDbEntity
  8
P-SANR-FIXT
100
AcDbLine
 10
1128.217258306165
 20
1861.48255884998
 30
0.0
 11
1142.114353943096
 21
1861.48255884998
 31
0.0
  0
LINE
  5
318
330
25D
100
AcDbEntity
  8
P-SANR-FIXT
100
AcDbLine
 10
1142.114353943096
 20
1859.482558850008
 30
0.0
 11
1157.361449580014
 21
1859.482558850008
 31
0.0
  0
LINE
  5
319
330
25D
100
AcDbEntity
  8
P-SANR-FIXT
100
AcDbLine
 10
1126.867258306178
 20
1859.482558850008
 30
0.0
 11
1142.114353943096
 21
1859.482558850008
 31
0.0
  0
LINE
  5
31A
330
25D
100
AcDbEntity
  8
P-SANR-FIXT
100
AcDbLine
 10
1142.114353943096
 20
1850.482558850008
 30
0.0
 11
1157.361449580014
 21
1850.482558850008
 31
0.0
  0
LINE
  5
31B
330
25D
100
AcDbEntity
  8
P-SANR-FIXT
100
AcDbLine
 10
1126.867258306178
 20
1850.482558850008
 30
0.0
 11
1142.114353943096
 21
1850.482558850008
 31
0.0
  0
LINE
  5
31C
330
25D
100
AcDbEntity
  8
P-SANR-FIXT
100
AcDbLine
 10
1142.114353943096
 20
1827.482558850008
 30
0.0
 11
1150.061449580027
 21
1827.482558850008
 31
0.0
  0
LINE
  5
31D
330
25D
100
AcDbEntity
  8
P-SANR-FIXT
100
AcDbLine
 10
1134.167258306165
 20
1827.482558850008
 30
0.0
 11
1142.114353943096
 21
1827.482558850008
 31
0.0
  0
ARC
  5
31E
330
25D
100
AcDbEntity
  8
P-SANR-FIXT
100
AcDbCircle
 10
1142.114353943096
 20
1876.263137432193
 30
0.0
 40
3.96942141773934
100
AcDbArc
 50
269.9999999999997
 51
34.08633852140766
  0
ARC
  5
31F
330
25D
100
AcDbEntity
  8
P-SANR-FIXT
100
AcDbCircle
 10
1142.114353943096
 20
1876.263137432193
 30
0.0
 40
3.969421417739538
100
AcDbArc
 50
145.9136614785918
 51
269.9999999999997
  0
ARC
  5
320
330
25D
100
AcDbEntity
  8
P-SANR-FIXT
100
AcDbCircle
 10
1142.114353943096
 20
1876.263137432193
 30
0.0
 40
6.669421417802595
100
AcDbArc
 50
269.9999999999997
 51
19.48527409036636
  0
ARC
  5
321
330
25D
100
AcDbEntity
  8
P-SANR-FIXT
100
AcDbCircle
 10
1142.114353943096
 20
1876.263137432193
 30
0.0
 40
6.669421417802642
100
AcDbArc
 50
160.5147259096334
 51
269.9999999999997
  0
LINE
  5
322
330
25D
100
AcDbEntity
  8
P-SANR-FIXT
100
AcDbLine
 10
1139.114353943095
 20
1877.786413085124
 30
0.0
 11
1139.114353943095
 21
1878.486413085125
 31
0.0
  0
LINE
  5
323
330
25D
100
AcDbEntity
  8
P-SANR-FIXT
100
AcDbLine
 10
1145.114353943096
 20
1878.486413085125
 30
0.0
 11
1145.114353943096
 21
1877.786413085124
 31
0.0
  0
LINE
  5
324
330
25D
100
AcDbEntity
  8
P-SANR-FIXT
100
AcDbLine
 10
1139.114353943095
 20
1877.786413085124
 30
0.0
 11
1145.114353943096
 21
1877.786413085124
 31
0.0
  0
LINE
  5
325
330
25D
100
AcDbEntity
  8
P-SANR-FIXT
100
AcDbLine
 10
1139.114353943095
 20
2121.478704614897
 30
0.0
 11
1139.114353943095
 21
2122.178704614896
 31
0.0
  0
LINE
  5
326
330
25D
100
AcDbEntity
  8
P-SANR-FIXT
100
AcDbLine
 10
1145.114353943096
 20
2122.178704614896
 30
0.0
 11
1145.114353943096
 21
2121.478704614897
 31
0.0
  0
LINE
  5
327
330
25D
100
AcDbEntity
  8
P-SANR-FIXT
100
AcDbLine
 10
1145.114353943096
 20
2122.178704614896
 30
0.0
 11
1139.114353943095
 21
2122.178704614896
 31
0.0
  0
LINE
  5
328
330
25D
100
AcDbEntity
  8
P-SANR-FIXT
100
AcDbLine
 10
1165.614353943098
 20
1898.286413085125
 30
0.0
 11
1165.614353943098
 21
1905.536413085125
 31
0.0
  0
LINE
  5
329
330
25D
100
AcDbEntity
  8
P-SANR-FIXT
100
AcDbLine
 10
1118.614353943097
 20
1905.536413085125
 30
0.0
 11
1118.614353943097
 21
1898.286413085125
 31
0.0
  0
LINE
  5
32A
330
25D
100
AcDbEntity
  8
P-SANR-FIXT
100
AcDbLine
 10
1165.614353943098
 20
1905.536413085125
 30
0.0
 11
1164.364353943098
 21
1906.786413085125
 31
0.0
  0
LINE
  5
32B
330
25D
100
AcDbEntity
  8
P-SANR-FIXT
100
AcDbLine
 10
1119.864353943097
 20
1906.786413085125
 30
0.0
 11
1118.614353943097
 21
1905.536413085125
 31
0.0
  0
LINE
  5
32C
330
25D
100
AcDbEntity
  8
P-SANR-FIXT
100
AcDbLine
 10
1164.364353943098
 20
1906.786413085125
 30
0.0
 11
1164.364353943098
 21
1922.786413085125
 31
0.0
  0
LINE
  5
32D
330
25D
100
AcDbEntity
  8
P-SANR-FIXT
100
AcDbLine
 10
1119.864353943097
 20
1922.786413085125
 30
0.0
 11
1119.864353943097
 21
1906.786413085125
 31
0.0
  0
LINE
  5
32E
330
25D
100
AcDbEntity
  8
P-SANR-FIXT
100
AcDbLine
 10
1164.364353943098
 20
1922.786413085125
 30
0.0
 11
1160.614353943098
 21
1926.786413085125
 31
0.0
  0
LINE
  5
32F
330
25D
100
AcDbEntity
  8
P-SANR-FIXT
100
AcDbLine
 10
1123.614353943098
 20
1926.786413085125
 30
0.0
 11
1119.864353943097
 21
1922.786413085125
 31
0.0
  0
LINE
  5
330
330
25D
100
AcDbEntity
  8
P-SANR-FIXT
100
AcDbLine
 10
1160.614353943098
 20
1926.786413085125
 30
0.0
 11
1160.614353943098
 21
1930.286413085121
 31
0.0
  0
LINE
  5
331
330
25D
100
AcDbEntity
  8
P-SANR-FIXT
100
AcDbLine
 10
1123.614353943098
 20
1930.286413085121
 30
0.0
 11
1123.614353943098
 21
1926.786413085125
 31
0.0
  0
LINE
  5
332
330
25D
100
AcDbEntity
  8
P-SANR-FIXT
100
AcDbLine
 10
1160.614353943098
 20
1930.286413085121
 30
0.0
 11
1157.114353943093
 21
1933.786413085125
 31
0.0
  0
LINE
  5
333
330
25D
100
AcDbEntity
  8
P-SANR-FIXT
100
AcDbLine
 10
1127.114353943102
 20
1933.786413085125
 30
0.0
 11
1123.614353943098
 21
1930.286413085121
 31
0.0
  0
LINE
  5
334
330
25D
100
AcDbEntity
  8
P-SANR-FIXT
100
AcDbLine
 10
1157.114353943101
 20
1933.786413085125
 30
0.0
 11
1157.114353943101
 21
1948.088877913143
 31
0.0
  0
LINE
  5
335
330
25D
100
AcDbEntity
  8
P-SANR-FIXT
100
AcDbLine
 10
1127.114353943093
 20
1948.088877913143
 30
0.0
 11
1127.114353943093
 21
1933.786413085125
 31
0.0
  0
LINE
  5
336
330
25D
100
AcDbEntity
  8
P-SANR-FIXT
100
AcDbLine
 10
1163.17435394308
 20
1948.088877913143
 30
0.0
 11
1163.17435394308
 21
1951.18887791316
 31
0.0
  0
LINE
  5
337
330
25D
100
AcDbEntity
  8
P-SANR-FIXT
100
AcDbLine
 10
1121.054353943114
 20
1951.18887791316
 30
0.0
 11
1121.054353943114
 21
1948.088877913143
 31
0.0
  0
LINE
  5
338
330
25D
100
AcDbEntity
  8
P-SANR-FIXT
100
AcDbLine
 10
1163.174353943078
 20
1948.088877913142
 30
0.0
 11
1142.114353943096
 21
1948.088877913142
 31
0.0
  0
LINE
  5
339
330
25D
100
AcDbEntity
  8
P-SANR-FIXT
100
AcDbLine
 10
1142.114353943096
 20
1948.088877913142
 30
0.0
 11
1121.054353943113
 21
1948.088877913142
 31
0.0
  0
LINE
  5
33A
330
25D
100
AcDbEntity
  8
P-SANR-FIXT
100
AcDbLine
 10
1165.607707535399
 20
1905.536413085124
 30
0.0
 11
1142.114353943096
 21
1905.536413085124
 31
0.0
  0
LINE
  5
33B
330
25D
100
AcDbEntity
  8
P-SANR-FIXT
100
AcDbLine
 10
1142.114353943096
 20
1905.536413085124
 30
0.0
 11
1118.621000350792
 21
1905.536413085124
 31
0.0
  0
LINE
  5
33C
330
25D
100
AcDbEntity
  8
P-SANR-FIXT
100
AcDbLine
 10
1164.364353943095
 20
1906.786413085124
 30
0.0
 11
1142.114353943096
 21
1906.786413085124
 31
0.0
  0
LINE
  5
33D
330
25D
100
AcDbEntity
  8
P-SANR-FIXT
100
AcDbLine
 10
1142.114353943096
 20
1906.786413085124
 30
0.0
 11
1119.864353943095
 21
1906.786413085124
 31
0.0
  0
LINE
  5
33E
330
25D
100
AcDbEntity
  8
P-SANR-FIXT
100
AcDbLine
 10
1164.364353943096
 20
1922.786413085125
 30
0.0
 11
1142.114353943096
 21
1922.786413085125
 31
0.0
  0
LINE
  5
33F
330
25D
100
AcDbEntity
  8
P-SANR-FIXT
100
AcDbLine
 10
1142.114353943096
 20
1922.786413085125
 30
0.0
 11
1119.864353943095
 21
1922.786413085125
 31
0.0
  0
LINE
  5
340
330
25D
100
AcDbEntity
  8
P-SANR-FIXT
100
AcDbLine
 10
1160.614353943095
 20
1926.786413085124
 30
0.0
 11
1142.114353943096
 21
1926.786413085124
 31
0.0
  0
LINE
  5
341
330
25D
100
AcDbEntity
  8
P-SANR-FIXT
100
AcDbLine
 10
1142.114353943096
 20
1926.786413085124
 30
0.0
 11
1123.614353943095
 21
1926.786413085124
 31
0.0
  0
LINE
  5
342
330
25D
100
AcDbEntity
  8
P-SANR-FIXT
100
AcDbLine
 10
1160.614353943095
 20
1930.28641308512
 30
0.0
 11
1142.114353943096
 21
1930.28641308512
 31
0.0
  0
LINE
  5
343
330
25D
100
AcDbEntity
  8
P-SANR-FIXT
100
AcDbLine
 10
1142.114353943096
 20
1930.28641308512
 30
0.0
 11
1123.614353943096
 21
1930.28641308512
 31
0.0
  0
LINE
  5
344
330
25D
100
AcDbEntity
  8
P-SANR-FIXT
100
AcDbLine
 10
1157.114353943091
 20
1933.786413085124
 30
0.0
 11
1142.114353943096
 21
1933.786413085124
 31
0.0
  0
LINE
  5
345
330
25D
100
AcDbEntity
  8
P-SANR-FIXT
100
AcDbLine
 10
1142.114353943096
 20
1933.786413085124
 30
0.0
 11
1127.1143539431
 21
1933.786413085124
 31
0.0
  0
LINE
  5
346
330
25D
100
AcDbEntity
  8
P-SANR-FIXT
100
AcDbLine
 10
1142.114353943096
 20
1898.286413085125
 30
0.0
 11
1147.222301337611
 21
1898.286413085125
 31
0.0
  0
LINE
  5
347
330
25D
100
AcDbEntity
  8
P-SANR-FIXT
100
AcDbLine
 10
1159.722474510924
 20
1898.286413085124
 30
0.0
 11
1164.464182076032
 21
1898.286413085124
 31
0.0
  0
LINE
  5
348
330
25D
100
AcDbEntity
  8
P-SANR-FIXT
100
AcDbLine
 10
1119.764525810159
 20
1898.286413085124
 30
0.0
 11
1124.562010795805
 21
1898.286413085124
 31
0.0
  0
LINE
  5
349
330
25D
100
AcDbEntity
  8
P-SANR-FIXT
100
AcDbLine
 10
1137.016381071135
 20
1898.286413085125
 30
0.0
 11
1142.114353943095
 21
1898.286413085125
 31
0.0
  0
LINE
  5
34A
330
25D
100
AcDbEntity
  8
P-SANR-FIXT
100
AcDbLine
 10
1165.614335063338
 20
2094.428704614898
 30
0.0
 11
1165.614335063338
 21
2101.678704614898
 31
0.0
  0
LINE
  5
34B
330
25D
100
AcDbEntity
  8
P-SANR-FIXT
100
AcDbLine
 10
1118.614372822857
 20
2101.678704614898
 30
0.0
 11
1118.614372822857
 21
2094.428704614898
 31
0.0
  0
LINE
  5
34C
330
25D
100
AcDbEntity
  8
P-SANR-FIXT
100
AcDbLine
 10
1164.364335063338
 20
2093.178704614898
 30
0.0
 11
1165.556759091299
 21
2094.371128642859
 31
0.0
  0
LINE
  5
34D
330
25D
100
AcDbEntity
  8
P-SANR-FIXT
100
AcDbLine
 10
1165.56987416007
 20
2094.38424371163
 30
0.0
 11
1165.614335063338
 21
2094.428704614898
 31
0.0
  0
LINE
  5
34E
330
25D
100
AcDbEntity
  8
P-SANR-FIXT
100
AcDbLine
 10
1118.614372822857
 20
2094.428704614898
 30
0.0
 11
1118.658833726126
 21
2094.384243711629
 31
0.0
  0
LINE
  5
34F
330
25D
100
AcDbEntity
  8
P-SANR-FIXT
100
AcDbLine
 10
1118.671948794896
 20
2094.371128642859
 30
0.0
 11
1119.864372822857
 21
2093.178704614898
 31
0.0
  0
LINE
  5
350
330
25D
100
AcDbEntity
  8
P-SANR-FIXT
100
AcDbLine
 10
1164.364335063338
 20
2077.178704614898
 30
0.0
 11
1164.364335063338
 21
2093.178704614898
 31
0.0
  0
LINE
  5
351
330
25D
100
AcDbEntity
  8
P-SANR-FIXT
100
AcDbLine
 10
1119.864372822857
 20
2093.178704614898
 30
0.0
 11
1119.864372822857
 21
2077.178704614898
 31
0.0
  0
LINE
  5
352
330
25D
100
AcDbEntity
  8
P-SANR-FIXT
100
AcDbLine
 10
1160.614335063338
 20
2073.178704614898
 30
0.0
 11
1164.364335063338
 21
2077.178704614898
 31
0.0
  0
LINE
  5
353
330
25D
100
AcDbEntity
  8
P-SANR-FIXT
100
AcDbLine
 10
1119.864372822857
 20
2077.178704614898
 30
0.0
 11
1123.614372822857
 21
2073.178704614898
 31
0.0
  0
LINE
  5
354
330
25D
100
AcDbEntity
  8
P-SANR-FIXT
100
AcDbLine
 10
1160.614335063338
 20
2069.678704614902
 30
0.0
 11
1160.614335063338
 21
2073.178704614898
 31
0.0
  0
LINE
  5
355
330
25D
100
AcDbEntity
  8
P-SANR-FIXT
100
AcDbLine
 10
1123.614372822857
 20
2073.178704614898
 30
0.0
 11
1123.614372822857
 21
2069.678704614902
 31
0.0
  0
LINE
  5
356
330
25D
100
AcDbEntity
  8
P-SANR-FIXT
100
AcDbLine
 10
1157.114335063334
 20
2066.178704614898
 30
0.0
 11
1160.614335063338
 21
2069.678704614902
 31
0.0
  0
LINE
  5
357
330
25D
100
AcDbEntity
  8
P-SANR-FIXT
100
AcDbLine
 10
1123.614372822857
 20
2069.678704614902
 30
0.0
 11
1127.114372822862
 21
2066.178704614898
 31
0.0
  0
LINE
  5
358
330
25D
100
AcDbEntity
  8
P-SANR-FIXT
100
AcDbLine
 10
1157.114335063306
 20
2051.876239786863
 30
0.0
 11
1157.114335063306
 21
2066.178704614898
 31
0.0
  0
LINE
  5
359
330
25D
100
AcDbEntity
  8
P-SANR-FIXT
100
AcDbLine
 10
1127.114372822888
 20
2066.178704614898
 30
0.0
 11
1127.114372822888
 21
2051.876239786863
 31
0.0
  0
LINE
  5
35A
330
25D
100
AcDbEntity
  8
P-SANR-FIXT
100
AcDbLine
 10
1163.174335063321
 20
2048.776239786864
 30
0.0
 11
1163.174335063321
 21
2051.876239786863
 31
0.0
  0
LINE
  5
35B
330
25D
100
AcDbEntity
  8
P-SANR-FIXT
100
AcDbLine
 10
1121.054372822874
 20
2051.876239786863
 30
0.0
 11
1121.054372822874
 21
2048.776239786864
 31
0.0
  0
LINE
  5
35C
330
25D
100
AcDbEntity
  8
P-SANR-FIXT
100
AcDbLine
 10
1142.114353943096
 20
2101.678704614897
 30
0.0
 11
1147.212136029454
 21
2101.678704614897
 31
0.0
  0
LINE
  5
35D
330
25D
100
AcDbEntity
  8
P-SANR-FIXT
100
AcDbLine
 10
1159.666767122738
 20
2101.678704614897
 30
0.0
 11
1164.464164120313
 21
2101.678704614897
 31
0.0
  0
LINE
  5
35E
330
25D
100
AcDbEntity
  8
P-SANR-FIXT
100
AcDbLine
 10
1119.764543765878
 20
2101.678704614897
 30
0.0
 11
1124.561940763452
 21
2101.678704614897
 31
0.0
  0
LINE
  5
35F
330
25D
100
AcDbEntity
  8
P-SANR-FIXT
100
AcDbLine
 10
1137.016571856735
 20
2101.678704614897
 30
0.0
 11
1142.114353943095
 21
2101.678704614897
 31
0.0
  0
LINE
  5
360
330
25D
100
AcDbEntity
  8
P-SANR-FIXT
100
AcDbLine
 10
1142.114353943096
 20
2094.428704614896
 30
0.0
 11
1165.607688703034
 21
2094.428704614896
 31
0.0
  0
LINE
  5
361
330
25D
100
AcDbEntity
  8
P-SANR-FIXT
100
AcDbLine
 10
1118.621019183156
 20
2094.428704614896
 30
0.0
 11
1142.114353943095
 21
2094.428704614896
 31
0.0
  0
LINE
  5
362
330
25D
100
AcDbEntity
  8
P-SANR-FIXT
100
AcDbLine
 10
1142.114353943096
 20
2093.178704614897
 30
0.0
 11
1164.364335063336
 21
2093.178704614897
 31
0.0
  0
LINE
  5
363
330
25D
100
AcDbEntity
  8
P-SANR-FIXT
100
AcDbLine
 10
1119.864372822855
 20
2093.178704614897
 30
0.0
 11
1142.114353943095
 21
2093.178704614897
 31
0.0
  0
LINE
  5
364
330
25D
100
AcDbEntity
  8
P-SANR-FIXT
100
AcDbLine
 10
1142.114353943096
 20
2077.178704614897
 30
0.0
 11
1164.364335063336
 21
2077.178704614897
 31
0.0
  0
LINE
  5
365
330
25D
100
AcDbEntity
  8
P-SANR-FIXT
100
AcDbLine
 10
1119.864372822855
 20
2077.178704614897
 30
0.0
 11
1142.114353943095
 21
2077.178704614897
 31
0.0
  0
LINE
  5
366
330
25D
100
AcDbEntity
  8
P-SANR-FIXT
100
AcDbLine
 10
1142.114353943096
 20
2073.178704614897
 30
0.0
 11
1160.614335063336
 21
2073.178704614897
 31
0.0
  0
LINE
  5
367
330
25D
100
AcDbEntity
  8
P-SANR-FIXT
100
AcDbLine
 10
1123.614372822855
 20
2073.178704614897
 30
0.0
 11
1142.114353943096
 21
2073.178704614897
 31
0.0
  0
LINE
  5
368
330
25D
100
AcDbEntity
  8
P-SANR-FIXT
100
AcDbLine
 10
1142.114353943096
 20
2069.678704614902
 30
0.0
 11
1160.614335063336
 21
2069.678704614902
 31
0.0
  0
LINE
  5
369
330
25D
100
AcDbEntity
  8
P-SANR-FIXT
100
AcDbLine
 10
1123.614372822855
 20
2069.678704614902
 30
0.0
 11
1142.114353943096
 21
2069.678704614902
 31
0.0
  0
LINE
  5
36A
330
25D
100
AcDbEntity
  8
P-SANR-FIXT
100
AcDbLine
 10
1142.114353943096
 20
2066.178704614896
 30
0.0
 11
1157.114335063305
 21
2066.178704614896
 31
0.0
  0
LINE
  5
36B
330
25D
100
AcDbEntity
  8
P-SANR-FIXT
100
AcDbLine
 10
1127.114372822886
 20
2066.178704614896
 30
0.0
 11
1142.114353943096
 21
2066.178704614896
 31
0.0
  0
LINE
  5
36C
330
25D
100
AcDbEntity
  8
P-SANR-FIXT
100
AcDbLine
 10
1142.114353943096
 20
2051.876239786862
 30
0.0
 11
1163.174335063319
 21
2051.876239786862
 31
0.0
  0
LINE
  5
36D
330
25D
100
AcDbEntity
  8
P-SANR-FIXT
100
AcDbLine
 10
1121.054372822872
 20
2051.876239786862
 30
0.0
 11
1142.114353943095
 21
2051.876239786862
 31
0.0
  0
LINE
  5
36E
330
25D
100
AcDbEntity
  8
P-SANR-FIXT
100
AcDbLine
 10
1176.614353943098
 20
2028.364153004243
 30
0.0
 11
1178.610614108211
 21
2029.516694347944
 31
0.0
  0
LINE
  5
36F
330
25D
100
AcDbEntity
  8
P-SANR-FIXT
100
AcDbLine
 10
1105.618093777985
 20
2029.516694347944
 30
0.0
 11
1107.614353943098
 21
2028.364153004243
 31
0.0
  0
LINE
  5
370
330
25D
100
AcDbEntity
  8
P-SANR-FIXT
100
AcDbLine
 10
1176.614353943098
 20
1964.982558850012
 30
0.0
 11
1176.614353943098
 21
2028.364153004243
 31
0.0
  0
LINE
  5
371
330
25D
100
AcDbEntity
  8
P-SANR-FIXT
100
AcDbLine
 10
1107.614353943098
 20
2028.364153004243
 30
0.0
 11
1107.614353943098
 21
1964.982558850012
 31
0.0
  0
LWPOLYLINE
  5
372
330
25D
100
AcDbEntity
  8
P-SANR-FIXT
100
AcDbPolyline
 90
       41
 70
   128
 43
0.0
 10
1176.614353943098
 20
1964.982558850012
 10
1176.611154369742
 20
1964.822601513265
 10
1176.601560768308
 20
1964.662900074135
 10
1176.585588486513
 20
1964.503710020856
 10
1176.5632630766
 20
1964.345286023554
 10
1176.534620254463
 20
1964.187881526831
 10
1176.499705842506
 20
1964.031748344303
 10
1176.458575696341
 20
1963.877136255755
 10
1176.411295615428
 20
1963.724292607547
 10
1176.35794123781
 20
1963.573461916911
 10
1176.29859791911
 20
1963.424885480777
 10
1176.233360595978
 20
1963.278800989748
 10
1176.162333634215
 20
1963.135442147845
 10
1176.085630661809
 20
1962.995038298637
 10
1176.003374387152
 20
1962.857814058328
 10
1175.915696402737
 20
1962.723988956432
 10
1175.822736974635
 20
1962.593777084562
 10
1175.724644818102
 20
1962.467386753938
 10
1175.621576859662
 20
1962.345020162126
 10
1175.513697986062
 20
1962.226873069569
 10
1175.401180780487
 20
1962.113134486413
 10
1175.284205246463
 20
1962.003986370128
 10
1175.162958519892
 20
1961.899603334416
 10
1175.037634569672
 20
1961.800152369866
 10
1174.908433887388
 20
1961.705792576808
 10
1174.775563166571
 20
1961.61667491078
 10
1174.639234972029
 20
1961.532941941038
 10
1174.499667399793
 20
1961.454727622471
 10
1174.357083728205
 20
1961.382157081305
 10
1174.211712060723
 20
1961.315346414924
 10
1174.063784961004
 20
1961.254402506143
 10
1173.913539080853
 20
1961.199422852213
 10
1173.761214781626
 20
1961.150495408855
 10
1173.607055749708
 20
1961.107698449538
 10
1173.451308606664
 20
1961.07110044027
 10
1173.294222514699
 20
1961.040759930057
 10
1173.136048778051
 20
1961.016725457245
 10
1172.977040440955
 20
1960.999035471861
 10
1172.817451882832
 20
1960.987718274109
 10
1172.657538411331
 20
1960.982791969092
 10
1172.614353943098
 20
1960.982558850011
  0
LWPOLYLINE
  5
373
330
25D
100
AcDbEntity
  8
P-SANR-FIXT
100
AcDbPolyline
 90
       19
 70
   128
 43
0.0
 10
1165.621889749517
 20
1960.982558850011
 10
1166.380203354207
 20
1960.982558850011
 10
1167.099696776279
 20
1960.982558850011
 10
1167.779218979739
 20
1960.982558850011
 10
1168.41768287402
 20
1960.982558850011
 10
1169.014067053089
 20
1960.982558850011
 10
1169.567417429481
 20
1960.982558850011
 10
1170.076848760637
 20
1960.982558850011
 10
1170.541546065098
 20
1960.982558850011
 10
1170.960765926309
 20
1960.982558850011
 10
1171.333837681919
 20
1960.982558850011
 10
1171.660164496705
 20
1960.982558850011
 10
1171.939224317375
 20
1960.982558850011
 10
1172.170570707746
 20
1960.982558850011
 10
1172.353833562944
 20
1960.982558850011
 10
1172.488719701496
 20
1960.982558850011
 10
1172.575013334353
 20
1960.982558850011
 10
1172.612576410112
 20
1960.982558850011
 10
1172.614353943098
 20
1960.982558850011
  0
LWPOLYLINE
  5
374
330
25D
100
AcDbEntity
  8
P-SANR-FIXT
100
AcDbPolyline
 90
       11
 70
   128
 43
0.0
 10
1172.614353943098
 20
1960.982558850011
 10
1172.589957196258
 20
1960.982558850011
 10
1172.516805985328
 20
1960.982558850011
 10
1172.395017336641
 20
1960.982558850011
 10
1172.224786086055
 20
1960.982558850011
 10
1172.006384567256
 20
1960.982558850011
 10
1171.740162176085
 20
1960.982558850011
 10
1171.426544811576
 20
1960.982558850011
 10
1171.066034194613
 20
1960.982558850011
 10
1170.659207065275
 20
1960.982558850011
 10
1170.614353943098
 20
1960.982558850011
  0
LWPOLYLINE
  5
375
330
25D
100
AcDbEntity
  8
P-SANR-FIXT
100
AcDbPolyline
 90
       41
 70
   128
 43
0.0
 10
1111.614353943098
 20
1960.982558850011
 10
1111.454396606352
 20
1960.985758423367
 10
1111.294695167221
 20
1960.995352024801
 10
1111.135505113942
 20
1961.011324306596
 10
1110.977081116641
 20
1961.033649716509
 10
1110.819676619918
 20
1961.062292538647
 10
1110.663543437389
 20
1961.097206950603
 10
1110.508931348842
 20
1961.138337096769
 10
1110.356087700633
 20
1961.185617177681
 10
1110.205257009997
 20
1961.2389715553
 10
1110.056680573864
 20
1961.298314874
 10
1109.910596082834
 20
1961.363552197132
 10
1109.767237240932
 20
1961.434579158894
 10
1109.626833391723
 20
1961.511282131301
 10
1109.489609151414
 20
1961.593538405958
 10
1109.355784049518
 20
1961.681216390373
 10
1109.225572177648
 20
1961.774175818474
 10
1109.099181847024
 20
1961.872267975008
 10
1108.976815255212
 20
1961.975335933448
 10
1108.858668162656
 20
1962.083214807048
 10
1108.7449295795
 20
1962.195732012623
 10
1108.635781463215
 20
1962.312707546647
 10
1108.531398427502
 20
1962.433954273217
 10
1108.431947462953
 20
1962.559278223437
 10
1108.337587669894
 20
1962.688478905722
 10
1108.248470003866
 20
1962.821349626539
 10
1108.164737034125
 20
1962.95767782108
 10
1108.086522715558
 20
1963.097245393317
 10
1108.013952174392
 20
1963.239829064905
 10
1107.947141508011
 20
1963.385200732387
 10
1107.886197599229
 20
1963.533127832105
 10
1107.8312179453
 20
1963.683373712256
 10
1107.782290501941
 20
1963.835698011484
 10
1107.739493542625
 20
1963.989857043402
 10
1107.702895533357
 20
1964.145604186446
 10
1107.672555023144
 20
1964.302690278411
 10
1107.648520550331
 20
1964.460864015059
 10
1107.630830564947
 20
1964.619872352155
 10
1107.619513367196
 20
1964.779460910277
 10
1107.614587062178
 20
1964.939374381778
 10
1107.614353943098
 20
1964.982558850012
  0
LWPOLYLINE
  5
376
330
25D
100
AcDbEntity
  8
P-SANR-FIXT
100
AcDbPolyline
 90
       11
 70
   128
 43
0.0
 10
1113.614353943098
 20
1960.982558850011
 10
1113.267941959887
 20
1960.982558850011
 10
1112.894870204277
 20
1960.982558850011
 10
1112.568543389491
 20
1960.982558850011
 10
1112.289483568821
 20
1960.982558850011
 10
1112.05813717845
 20
1960.982558850011
 10
1111.874874323252
 20
1960.982558850011
 10
1111.7399881847
 20
1960.982558850011
 10
1111.653694551843
 20
1960.982558850011
 10
1111.616131476084
 20
1960.982558850011
 10
1111.614353943098
 20
1960.982558850011
  0
LWPOLYLINE
  5
377
330
25D
100
AcDbEntity
  8
P-SANR-FIXT
100
AcDbPolyline
 90
       19
 70
   128
 43
0.0
 10
1111.614353943098
 20
1960.982558850011
 10
1111.638750689938
 20
1960.982558850011
 10
1111.711901900868
 20
1960.982558850011
 10
1111.833690549555
 20
1960.982558850011
 10
1112.003921800141
 20
1960.982558850011
 10
1112.22232331894
 20
1960.982558850011
 10
1112.488545710111
 20
1960.982558850011
 10
1112.80216307462
 20
1960.982558850011
 10
1113.162673691584
 20
1960.982558850011
 10
1113.569500820921
 20
1960.982558850011
 10
1114.02199362601
 20
1960.982558850011
 10
1114.519428214889
 20
1960.982558850011
 10
1115.06100879833
 20
1960.982558850011
 10
1115.64586896293
 20
1960.982558850011
 10
1116.273073057189
 20
1960.982558850011
 10
1116.941617688353
 20
1960.982558850011
 10
1117.650433327627
 20
1960.982558850011
 10
1118.398386021195
 20
1960.982558850011
 10
1118.614353943147
 20
1960.982558850011
  0
LINE
  5
378
330
25D
100
AcDbEntity
  8
P-SANR-FIXT
100
AcDbLine
 10
1170.614353943098
 20
1931.589877420117
 30
0.0
 11
1170.614353943098
 21
1960.982558850011
 31
0.0
  0
LINE
  5
379
330
25D
100
AcDbEntity
  8
P-SANR-FIXT
100
AcDbLine
 10
1113.614353943098
 20
1960.982558850011
 30
0.0
 11
1113.614353943098
 21
1931.589877420117
 31
0.0
  0
LINE
  5
37A
330
25D
100
AcDbEntity
  8
P-SANR-FIXT
100
AcDbLine
 10
1170.614353943098
 20
1922.483535175018
 30
0.0
 11
1170.614353943098
 21
1931.589877420117
 31
0.0
  0
LINE
  5
37B
330
25D
100
AcDbEntity
  8
P-SANR-FIXT
100
AcDbLine
 10
1113.614353943098
 20
1931.589877420117
 30
0.0
 11
1113.614353943098
 21
1922.483535175018
 31
0.0
  0
LWPOLYLINE
  5
37C
330
25D
100
AcDbEntity
  8
P-SANR-FIXT
100
AcDbPolyline
 90
       15
 70
   128
 43
0.0
 10
1170.614353943098
 20
1922.483535175018
 10
1170.602755489682
 20
1921.903689829312
 10
1170.567978684486
 20
1921.324772112465
 10
1170.510079162979
 20
1920.747708169329
 10
1170.429149552044
 20
1920.173421179112
 10
1170.325319321796
 20
1919.60282987849
 10
1170.198754578453
 20
1919.036847091825
 10
1170.049657798604
 20
1918.476378270839
 10
1169.878267505294
 20
1917.922320046085
 10
1169.684857886428
 20
1917.37555879253
 10
1169.46973835614
 20
1916.836969211543
 10
1169.233253059787
 20
1916.307412931562
 10
1168.975780323397
 20
1915.787737129667
 10
1168.697732048424
 20
1915.278773176284
 10
1168.680379567773
 20
1915.248550724448
  0
LWPOLYLINE
  5
37D
330
25D
100
AcDbEntity
  8
P-SANR-FIXT
100
AcDbPolyline
 90
       15
 70
   128
 43
0.0
 10
1115.548328318423
 20
1915.248550724448
 10
1115.269057587589
 20
1915.756844938421
 10
1115.01033659074
 20
1916.275900421821
 10
1114.77257922628
 20
1916.804886796603
 10
1114.556165855274
 20
1917.342957797409
 10
1114.36144269295
 20
1917.889252625421
 10
1114.188721254827
 20
1918.442897325451
 10
1114.038277858363
 20
1919.003006184084
 10
1113.910353180897
 20
1919.568683146629
 10
1113.805151874627
 20
1920.139023250618
 10
1113.722842239199
 20
1920.71311407355
 10
1113.663555952472
 20
1921.290037192574
 10
1113.627387859857
 20
1921.868869653771
 10
1113.614395822587
 20
1922.44868544868
 10
1113.614353943098
 20
1922.483535175018
  0
LINE
  5
37E
330
25D
100
AcDbEntity
  8
P-SANR-FIXT
100
AcDbLine
 10
1164.364353943097
 20
1907.752295692116
 30
0.0
 11
1168.680379567773
 21
1915.248550724448
 31
0.0
  0
LINE
  5
37F
330
25D
100
AcDbEntity
  8
P-SANR-FIXT
100
AcDbLine
 10
1115.548328318423
 20
1915.248550724448
 30
0.0
 11
1119.864353943097
 21
1907.752295692117
 31
0.0
  0
LINE
  5
380
330
25D
100
AcDbEntity
  8
P-SANR-FIXT
100
AcDbLine
 10
1178.610614108211
 20
2029.516694347944
 30
0.0
 11
1178.610614108211
 21
2030.052558850071
 31
0.0
  0
LINE
  5
381
330
25D
100
AcDbEntity
  8
P-SANR-FIXT
100
AcDbLine
 10
1105.618093777985
 20
2030.052558850071
 30
0.0
 11
1105.618093777985
 21
2029.516694347944
 31
0.0
  0
LINE
  5
382
330
25D
100
AcDbEntity
  8
P-SANR-FIXT
100
AcDbLine
 10
1184.114353943098
 20
2030.052558850071
 30
0.0
 11
1184.114353943098
 21
2050.452558850072
 31
0.0
  0
LINE
  5
383
330
25D
100
AcDbEntity
  8
P-SANR-FIXT
100
AcDbLine
 10
1100.114353943098
 20
2050.452558850072
 30
0.0
 11
1100.114353943098
 21
2030.052558850071
 31
0.0
  0
LINE
  5
384
330
25D
100
AcDbEntity
  8
P-SANR-FIXT
100
AcDbLine
 10
1178.610614108209
 20
2029.516694347943
 30
0.0
 11
1160.620581223199
 21
2029.516694347943
 31
0.0
  0
LINE
  5
385
330
25D
100
AcDbEntity
  8
P-SANR-FIXT
100
AcDbLine
 10
1123.608126662992
 20
2029.516694347943
 30
0.0
 11
1105.618093777982
 21
2029.516694347943
 31
0.0
  0
LINE
  5
386
330
25D
100
AcDbEntity
  8
P-SANR-FIXT
100
AcDbLine
 10
1160.631986778343
 20
2028.364153004242
 30
0.0
 11
1176.614353943096
 21
2028.364153004242
 31
0.0
  0
LINE
  5
387
330
25D
100
AcDbEntity
  8
P-SANR-FIXT
100
AcDbLine
 10
1107.614353943096
 20
2028.364153004242
 30
0.0
 11
1123.596721107847
 21
2028.364153004242
 31
0.0
  0
LINE
  5
388
330
25D
100
AcDbEntity
  8
P-SANR-FIXT
100
AcDbLine
 10
1184.114353943096
 20
2030.052558850071
 30
0.0
 11
1160.62726292267
 21
2030.052558850071
 31
0.0
  0
LINE
  5
389
330
25D
100
AcDbEntity
  8
P-SANR-FIXT
100
AcDbLine
 10
1123.60144496352
 20
2030.052558850071
 30
0.0
 11
1100.114353943096
 21
2030.052558850071
 31
0.0
  0
LINE
  5
38A
330
25D
100
AcDbEntity
  8
P-SANR-FIXT
100
AcDbLine
 10
1163.175934159372
 20
2050.452558850071
 30
0.0
 11
1184.114353943096
 21
2050.452558850071
 31
0.0
  0
LINE
  5
38B
330
25D
100
AcDbEntity
  8
P-SANR-FIXT
100
AcDbLine
 10
1100.114353943096
 20
2050.452558850071
 30
0.0
 11
1121.052773726818
 21
2050.452558850071
 31
0.0
  0
ARC
  5
38C
330
25D
100
AcDbEntity
  8
P-SANR-FIXT
100
AcDbCircle
 10
1142.114353943096
 20
1999.98255885001
 30
0.0
 40
25.99622143759471
100
AcDbArc
 50
315.3828944620736
 51
44.61710553792674
  0
ARC
  5
38D
330
25D
100
AcDbEntity
  8
P-SANR-FIXT
100
AcDbCircle
 10
1142.114353943096
 20
1999.98255885001
 30
0.0
 40
25.99622143759503
100
AcDbArc
 50
135.3828944620732
 51
224.6171055379246
  0
ARC
  5
38E
330
25D
100
AcDbEntity
  8
P-SANR-FIXT
100
AcDbCircle
 10
1142.114353943096
 20
1999.982558850011
 30
0.0
 40
33.50000000000053
100
AcDbArc
 50
294.4641739813457
 51
294.6406022028554
  0
ARC
  5
38F
330
25D
100
AcDbEntity
  8
P-SANR-FIXT
100
AcDbCircle
 10
1142.114353943096
 20
1999.982558850011
 30
0.0
 40
33.50000000000046
100
AcDbArc
 50
303.5499684792278
 51
56.45003152077054
  0
ARC
  5
390
330
25D
100
AcDbEntity
  8
P-SANR-FIXT
100
AcDbCircle
 10
1142.114353943096
 20
1999.982558850011
 30
0.0
 40
33.50000000000025
100
AcDbArc
 50
65.35939779714363
 51
65.53582601865281
  0
ARC
  5
391
330
25D
100
AcDbEntity
  8
P-SANR-FIXT
100
AcDbCircle
 10
1142.114353943096
 20
1999.982558850011
 30
0.0
 40
33.50000000000031
100
AcDbArc
 50
114.4641739813471
 51
114.6406022028551
  0
ARC
  5
392
330
25D
100
AcDbEntity
  8
P-SANR-FIXT
100
AcDbCircle
 10
1142.114353943096
 20
1999.982558850011
 30
0.0
 40
33.50000000000027
100
AcDbArc
 50
123.5499684792286
 51
236.4500315207701
  0
ARC
  5
393
330
25D
100
AcDbEntity
  8
P-SANR-FIXT
100
AcDbCircle
 10
1142.114353943096
 20
1999.982558850011
 30
0.0
 40
33.50000000000034
100
AcDbArc
 50
245.3593977971429
 51
245.5358260186522
  0
ENDBLK
  5
395
330
25D
100
AcDbEntity
  8
0
100
AcDbBlockEnd
  0
ENDSEC
  0
SECTION
  2
ENTITIES
  0
INSERT
  5
1D2
330
71
100
AcDbEntity
  8
P-SANR-FIXT
100
AcDbBlockReference
  2
Automatic flow rate regulator valve_Caleffi_121 DN15 - 1__-928300-Est - Idraulica
 10
0.0
 20
0.0
 30
0.0
1001
REVIT
1002
{
1070
     1
1000
863131
1002
}
1002
{
1070
     5
1000
928300
1002
}
1002
{
1070
     2
1000
-2001160
1002
}
  0
INSERT
  5
25C
330
71
100
AcDbEntity
  8
P-SANR-FIXT
100
AcDbBlockReference
  2
Automatic flow rate regulator valve_Caleffi_121 DN15 - 1__-V1-Est - Idraulica
 10
0.0
 20
0.0
 30
0.0
1001
REVIT
1002
{
1070
     1
1000
863152
1002
}
1002
{
1070
     5
1000
928300
1002
}
1002
{
1070
     2
1000
-2001160
1002
}
  0
INSERT
  5
396
330
71
100
AcDbEntity
  8
P-SANR-FIXT
100
AcDbBlockReference
  2
Automatic flow rate regulator valve_Caleffi_121 DN15 - 1__-V2-Est - Idraulica
 10
0.0
 20
0.0
 30
0.0
1001
REVIT
1002
{
1070
     1
1000
863172
1002
}
1002
{
1070
     5
1000
928300
1002
}
1002
{
1070
     2
1000
-2001160
1002
}
  0
ENDSEC
  0
SECTION
  2
OBJECTS
  0
DICTIONARY
  5
C
330
0
100
AcDbDictionary
281
     1
  3
ACAD_CIP_PREVIOUS_PRODUCT_INFO
350
7A
  3
ACAD_COLOR
350
63
  3
ACAD_DETAILVIEWSTYLE
350
6B
  3
ACAD_GROUP
350
D
  3
ACAD_IMAGE_VARS
350
7B
  3
ACAD_LAYOUT
350
62
  3
ACAD_MATERIAL
350
10
  3
ACAD_MLEADERSTYLE
350
66
  3
ACAD_MLINESTYLE
350
5F
  3
ACAD_PLOTSETTINGS
350
61
  3
ACAD_PLOTSTYLENAME
350
E
  3
ACAD_SCALELIST
350
42
  3
ACAD_SECTIONVIEWSTYLE
350
68
  3
ACAD_TABLESTYLE
350
64
  3
ACAD_VISUALSTYLE
350
29
  3
ACDB_RECOMPOSE_DATA
350
3A0
  3
AcDbVariableDictionary
350
7C
  3
REVIT_DICTIONARY
350
398
  0
DICTIONARY
  5
39C
330
71
100
AcDbDictionary
280
     1
281
     1
  3
ACAD_SORTENTS
360
39D
  0
XRECORD
  5
7A
102
{ACAD_REACTORS
330
C
102
}
330
C
100
AcDbXrecord
280
     1
300
RVT
300
2013
300
RVT2013
  0
DICTIONARY
  5
63
102
{ACAD_REACTORS
330
C
102
}
330
C
100
AcDbDictionary
281
     1
  0
DICTIONARY
  5
6B
102
{ACAD_REACTORS
330
C
102
}
330
C
100
AcDbDictionary
281
     1
  3
Imperial24
350
6C
  0
DICTIONARY
  5
D
102
{ACAD_REACTORS
330
C
102
}
330
C
100
AcDbDictionary
281
     1
  0
RASTERVARIABLES
  5
7B
102
{ACAD_REACTORS
330
C
102
}
330
C
100
AcDbRasterVariables
 90
        0
 70
     0
 71
     1
 72
     1
  0
DICTIONARY
  5
62
102
{ACAD_REACTORS
330
C
102
}
330
C
100
AcDbDictionary
281
     1
  3
Layout1
350
70
  3
Layout2
350
78
  3
Model
350
74
  0
DICTIONARY
  5
10
102
{ACAD_REACTORS
330
C
102
}
330
C
100
AcDbDictionary
281
     1
  3
ByBlock
350
19
  3
ByLayer
350
11
  3
Global
350
21
  0
DICTIONARY
  5
66
102
{ACAD_REACTORS
330
C
102
}
330
C
100
AcDbDictionary
281
     1
  3
Standard
350
67
  0
DICTIONARY
  5
5F
102
{ACAD_REACTORS
330
C
102
}
330
C
100
AcDbDictionary
281
     1
  3
Standard
350
60
  0
DICTIONARY
  5
61
102
{ACAD_REACTORS
330
C
102
}
330
C
100
AcDbDictionary
281
     1
  0
ACDBDICTIONARYWDFLT
  5
E
102
{ACAD_REACTORS
330
C
102
}
330
C
100
AcDbDictionary
281
     1
  3
Normal
350
F
100
AcDbDictionaryWithDefault
340
F
  0
DICTIONARY
  5
42
102
{ACAD_REACTORS
330
C
102
}
330
C
100
AcDbDictionary
281
     1
  3
A0
350
43
  3
A1
350
44
  3
A2
350
45
  3
A3
350
46
  3
A4
350
47
  3
A5
350
48
  3
A6
350
49
  3
A7
350
4A
  3
A8
350
4B
  3
A9
350
4C
  3
B0
350
4D
  3
B1
350
4E
  3
B2
350
4F
  3
B3
350
50
  3
B4
350
51
  3
B5
350
52
  3
B6
350
53
  0
DICTIONARY
  5
68
102
{ACAD_REACTORS
330
C
102
}
330
C
100
AcDbDictionary
281
     1
  3
Imperial24
350
6A
  0
DICTIONARY
  5
64
102
{ACAD_REACTORS
330
C
102
}
330
C
100
AcDbDictionary
281
     1
  3
Standard
350
65
  0
DICTIONARY
  5
29
102
{ACAD_REACTORS
330
C
102
}
330
C
100
AcDbDictionary
281
     1
  3
2dWireframe
350
2F
  3
Basic
350
2E
  3
Brighten
350
35
  3
ColorChange
350
39
  3
Conceptual
350
32
  3
Dim
350
34
  3
EdgeColorOff
350
41
  3
Facepattern
350
38
  3
Flat
350
2A
  3
FlatWithEdges
350
2B
  3
Gouraud
350
2C
  3
GouraudWithEdges
350
2D
  3
Hidden
350
31
  3
JitterOff
350
3F
  3
Linepattern
350
37
  3
OverhangOff
350
40
  3
Realistic
350
33
  3
Shaded
350
3E
  3
Shaded with edges
350
3D
  3
Shades of Gray
350
3A
  3
Sketchy
350
3B
  3
Thicken
350
36
  3
Wireframe
350
30
  3
X-Ray
350
3C
  0
XRECORD
  5
3A0
102
{ACAD_REACTORS
330
C
102
}
330
C
100
AcDbXrecord
280
     1
 90
        1
330
65
  0
DICTIONARY
  5
7C
102
{ACAD_REACTORS
330
C
102
}
330
C
100
AcDbDictionary
281
     1
  3
CANNOSCALE
350
81
  3
CMLEADERSTYLE
350
7E
  3
CTABLESTYLE
350
7D
  3
CVIEWDETAILSTYLE
350
7F
  3
CVIEWSECTIONSTYLE
350
80
  0
DICTIONARY
  5
398
102
{ACAD_REACTORS
330
C
102
}
330
C
100
AcDbDictionary
281
     1
  3
DRAWING_TOOL
350
39B
  3
REVIT_CATEGORY_MAPPING
350
39A
  3
REVIT_TYPE_MAPPING
350
399
  0
SORTENTSTABLE
  5
39D
102
{ACAD_REACTORS
330
39C
102
}
330
39C
100
AcDbSortentsTable
330
71
  0
ACDBDETAILVIEWSTYLE
  5
6C
102
{ACAD_REACTORS
330
6B
102
}
330
6B
100
AcDbModelDocViewStyle
 70
     0
  3
Imperial24
290
     1
100
AcDbDetailViewStyle
 70
     0
 71
     0
 90
        3
 71
     1
340
55
 62
   256
 40
0.24
340
0
 62
   256
 40
0.24
300

 40
0.36
280
     3
 71
     2
340
5D
 90
       25
 62
   256
 71
     3
340
55
 62
   256
 40
0.24
 90
        1
 40
0.75
 90
        1
300
%<\AcVar ViewType \f "%tc1">% %<\AcVar ViewDetailId>%\PSCALA %<\AcVar ViewScale \f "%sn">%
 71
     4
340
5D
 90
       25
 62
   256
340
5D
 90
       25
 62
   256
280
     0
  0
LAYOUT
  5
70
102
{ACAD_REACTORS
330
62
102
}
330
62
100
AcDbPlotSettings
  1

  2

  4

  6

 40
0.0
 41
0.0
 42
0.0
 43
0.0
 44
0.0
 45
0.0
 46
0.0
 47
0.0
 48
0.0
 49
0.0
140
0.0
141
0.0
142
1.0
143
1.0
 70
   688
 72
     0
 73
     0
 74
     5
  7

 75
    16
147
1.0
 76
     0
 77
     2
 78
   300
148
0.0
149
0.0
100
AcDbLayout
  1
Layout1
 70
     1
 71
     1
 10
0.0
 20
0.0
 11
12.0
 21
9.0
 12
0.0
 22
0.0
 32
0.0
 14
0.0
 24
0.0
 34
0.0
 15
0.0
 25
0.0
 35
0.0
146
0.0
 13
0.0
 23
0.0
 33
0.0
 16
1.0
 26
0.0
 36
0.0
 17
0.0
 27
1.0
 37
0.0
 76
     0
330
6D
  0
LAYOUT
  5
78
102
{ACAD_REACTORS
330
62
102
}
330
62
100
AcDbPlotSettings
  1

  2

  4

  6

 40
0.0
 41
0.0
 42
0.0
 43
0.0
 44
0.0
 45
0.0
 46
0.0
 47
0.0
 48
0.0
 49
0.0
140
0.0
141
0.0
142
1.0
143
1.0
 70
   688
 72
     0
 73
     0
 74
     5
  7

 75
    16
147
1.0
 76
     0
 77
     2
 78
   300
148
0.0
149
0.0
100
AcDbLayout
  1
Layout2
 70
     1
 71
     2
 10
0.0
 20
0.0
 11
12.0
 21
9.0
 12
0.0
 22
0.0
 32
0.0
 14
0.0
 24
0.0
 34
0.0
 15
0.0
 25
0.0
 35
0.0
146
0.0
 13
0.0
 23
0.0
 33
0.0
 16
1.0
 26
0.0
 36
0.0
 17
0.0
 27
1.0
 37
0.0
 76
     0
330
75
  0
LAYOUT
  5
74
102
{ACAD_REACTORS
330
62
102
}
330
62
100
AcDbPlotSettings
  1

  2

  4

  6

 40
0.0
 41
0.0
 42
0.0
 43
0.0
 44
0.0
 45
0.0
 46
0.0
 47
0.0
 48
0.0
 49
0.0
140
0.0
141
0.0
142
1.0
143
1.0
 70
  1712
 72
     0
 73
     0
 74
     0
  7

 75
     0
147
1.0
 76
     0
 77
     2
 78
   300
148
0.0
149
0.0
100
AcDbLayout
  1
Model
 70
     1
 71
     0
 10
0.0
 20
0.0
 11
12.0
 21
9.0
 12
0.0
 22
0.0
 32
0.0
 14
0.0
 24
0.0
 34
0.0
 15
0.0
 25
0.0
 35
0.0
146
0.0
 13
0.0
 23
0.0
 33
0.0
 16
1.0
 26
0.0
 36
0.0
 17
0.0
 27
1.0
 37
0.0
 76
     0
330
71
  0
MATERIAL
  5
19
102
{ACAD_XDICTIONARY
360
1A
102
}
102
{ACAD_REACTORS
330
10
102
}
330
10
100
AcDbMaterial
  1
ByBlock
 72
     0
 43
0.0208333333333333
 43
0.0
 43
0.0
 43
0.0
 43
0.0
 43
0.0208333333333333
 43
0.0
 43
0.0
 43
0.0
 43
0.0
 43
1.0
 43
0.0
 43
0.0
 43
0.0
 43
0.0
 43
1.0
 77
     0
 47
0.0208333333333333
 47
0.0
 47
0.0
 47
0.0
 47
0.0
 47
0.0208333333333333
 47
0.0
 47
0.0
 47
0.0
 47
0.0
 47
1.0
 47
0.0
 47
0.0
 47
0.0
 47
0.0
 47
1.0
171
     0
 49
0.0208333333333333
 49
0.0
 49
0.0
 49
0.0
 49
0.0
 49
0.0208333333333333
 49
0.0
 49
0.0
 49
0.0
 49
0.0
 49
1.0
 49
0.0
 49
0.0
 49
0.0
 49
0.0
 49
1.0
175
     0
142
0.0208333333333333
142
0.0
142
0.0
142
0.0
142
0.0
142
0.0208333333333333
142
0.0
142
0.0
142
0.0
142
0.0
142
1.0
142
0.0
142
0.0
142
0.0
142
0.0
142
1.0
179
     0
144
0.0208333333333333
144
0.0
144
0.0
144
0.0
144
0.0
144
0.0208333333333333
144
0.0
144
0.0
144
0.0
144
0.0
144
1.0
144
0.0
144
0.0
144
0.0
144
0.0
144
1.0
147
0.0208333333333333
147
0.0
147
0.0
147
0.0
147
0.0
147
0.0208333333333333
147
0.0
147
0.0
147
0.0
147
0.0
147
1.0
147
0.0
147
0.0
147
0.0
147
0.0
147
1.0
  0
MATERIAL
  5
11
102
{ACAD_XDICTIONARY
360
12
102
}
102
{ACAD_REACTORS
330
10
102
}
330
10
100
AcDbMaterial
  1
ByLayer
 72
     0
 43
0.0208333333333333
 43
0.0
 43
0.0
 43
0.0
 43
0.0
 43
0.0208333333333333
 43
0.0
 43
0.0
 43
0.0
 43
0.0
 43
1.0
 43
0.0
 43
0.0
 43
0.0
 43
0.0
 43
1.0
 77
     0
 47
0.0208333333333333
 47
0.0
 47
0.0
 47
0.0
 47
0.0
 47
0.0208333333333333
 47
0.0
 47
0.0
 47
0.0
 47
0.0
 47
1.0
 47
0.0
 47
0.0
 47
0.0
 47
0.0
 47
1.0
171
     0
 49
0.0208333333333333
 49
0.0
 49
0.0
 49
0.0
 49
0.0
 49
0.0208333333333333
 49
0.0
 49
0.0
 49
0.0
 49
0.0
 49
1.0
 49
0.0
 49
0.0
 49
0.0
 49
0.0
 49
1.0
175
     0
142
0.0208333333333333
142
0.0
142
0.0
142
0.0
142
0.0
142
0.0208333333333333
142
0.0
142
0.0
142
0.0
142
0.0
142
1.0
142
0.0
142
0.0
142
0.0
142
0.0
142
1.0
179
     0
144
0.0208333333333333
144
0.0
144
0.0
144
0.0
144
0.0
144
0.0208333333333333
144
0.0
144
0.0
144
0.0
144
0.0
144
1.0
144
0.0
144
0.0
144
0.0
144
0.0
144
1.0
147
0.0208333333333333
147
0.0
147
0.0
147
0.0
147
0.0
147
0.0208333333333333
147
0.0
147
0.0
147
0.0
147
0.0
147
1.0
147
0.0
147
0.0
147
0.0
147
0.0
147
1.0
  0
MATERIAL
  5
21
102
{ACAD_XDICTIONARY
360
22
102
}
102
{ACAD_REACTORS
330
10
102
}
330
10
100
AcDbMaterial
  1
Global
 72
     0
 43
0.0208333333333333
 43
0.0
 43
0.0
 43
0.0
 43
0.0
 43
0.0208333333333333
 43
0.0
 43
0.0
 43
0.0
 43
0.0
 43
1.0
 43
0.0
 43
0.0
 43
0.0
 43
0.0
 43
1.0
 77
     0
 47
0.0208333333333333
 47
0.0
 47
0.0
 47
0.0
 47
0.0
 47
0.0208333333333333
 47
0.0
 47
0.0
 47
0.0
 47
0.0
 47
1.0
 47
0.0
 47
0.0
 47
0.0
 47
0.0
 47
1.0
171
     0
 49
0.0208333333333333
 49
0.0
 49
0.0
 49
0.0
 49
0.0
 49
0.0208333333333333
 49
0.0
 49
0.0
 49
0.0
 49
0.0
 49
1.0
 49
0.0
 49
0.0
 49
0.0
 49
0.0
 49
1.0
175
     0
142
0.0208333333333333
142
0.0
142
0.0
142
0.0
142
0.0
142
0.0208333333333333
142
0.0
142
0.0
142
0.0
142
0.0
142
1.0
142
0.0
142
0.0
142
0.0
142
0.0
142
1.0
179
     0
144
0.0208333333333333
144
0.0
144
0.0
144
0.0
144
0.0
144
0.0208333333333333
144
0.0
144
0.0
144
0.0
144
0.0
144
1.0
144
0.0
144
0.0
144
0.0
144
0.0
144
1.0
147
0.0208333333333333
147
0.0
147
0.0
147
0.0
147
0.0
147
0.0208333333333333
147
0.0
147
0.0
147
0.0
147
0.0
147
1.0
147
0.0
147
0.0
147
0.0
147
0.0
147
1.0
  0
MLEADERSTYLE
  5
67
102
{ACAD_REACTORS
330
66
102
}
330
66
100
AcDbMLeaderStyle
179
     2
170
     2
171
     1
172
     0
 90
        2
 40
0.0
 41
0.0
173
     1
 91
-1056964608
340
5B
 92
       -2
290
     1
 42
0.09
291
     1
 43
0.36
  3
Standard
 44
0.18
300

342
55
174
     1
178
     6
175
     1
176
     0
 93
-1056964608
 45
0.18
292
     0
297
     0
 46
0.18
 94
-1056964608
 47
1.0
 49
1.0
140
1.0
293
     1
141
0.0
294
     1
177
     0
142
1.0
295
     1
296
     0
143
0.125
271
     0
272
     9
273
     9
298
     1
  0
MLINESTYLE
  5
60
102
{ACAD_REACTORS
330
5F
102
}
330
5F
100
AcDbMlineStyle
  2
STANDARD
 70
     0
  3

 62
   256
 51
90.0
 52
90.0
 71
     2
 49
0.5
 62
   256
  6
BYLAYER
 49
-0.5
 62
   256
  6
BYLAYER
  0
ACDBPLACEHOLDER
  5
F
102
{ACAD_REACTORS
330
E
102
}
330
E
  0
SCALE
  5
43
102
{ACAD_REACTORS
330
42
102
}
330
42
100
AcDbScale
 70
     0
300
1:1
140
1.0
141
1.0
290
     1
  0
SCALE
  5
44
102
{ACAD_REACTORS
330
42
102
}
330
42
100
AcDbScale
 70
     0
300
1/128" = 1'-0"
140
0.0078125
141
12.0
290
     0
  0
SCALE
  5
45
102
{ACAD_REACTORS
330
42
102
}
330
42
100
AcDbScale
 70
     0
300
1/64" = 1'-0"
140
0.015625
141
12.0
290
     0
  0
SCALE
  5
46
102
{ACAD_REACTORS
330
42
102
}
330
42
100
AcDbScale
 70
     0
300
1/32" = 1'-0"
140
0.03125
141
12.0
290
     0
  0
SCALE
  5
47
102
{ACAD_REACTORS
330
42
102
}
330
42
100
AcDbScale
 70
     0
300
1/16" = 1'-0"
140
0.0625
141
12.0
290
     0
  0
SCALE
  5
48
102
{ACAD_REACTORS
330
42
102
}
330
42
100
AcDbScale
 70
     0
300
3/32" = 1'-0"
140
0.09375
141
12.0
290
     0
  0
SCALE
  5
49
102
{ACAD_REACTORS
330
42
102
}
330
42
100
AcDbScale
 70
     0
300
1/8" = 1'-0"
140
0.125
141
12.0
290
     0
  0
SCALE
  5
4A
102
{ACAD_REACTORS
330
42
102
}
330
42
100
AcDbScale
 70
     0
300
3/16" = 1'-0"
140
0.1875
141
12.0
290
     0
  0
SCALE
  5
4B
102
{ACAD_REACTORS
330
42
102
}
330
42
100
AcDbScale
 70
     0
300
1/4" = 1'-0"
140
0.25
141
12.0
290
     0
  0
SCALE
  5
4C
102
{ACAD_REACTORS
330
42
102
}
330
42
100
AcDbScale
 70
     0
300
3/8" = 1'-0"
140
0.375
141
12.0
290
     0
  0
SCALE
  5
4D
102
{ACAD_REACTORS
330
42
102
}
330
42
100
AcDbScale
 70
     0
300
1/2" = 1'-0"
140
0.5
141
12.0
290
     0
  0
SCALE
  5
4E
102
{ACAD_REACTORS
330
42
102
}
330
42
100
AcDbScale
 70
     0
300
3/4" = 1'-0"
140
0.75
141
12.0
290
     0
  0
SCALE
  5
4F
102
{ACAD_REACTORS
330
42
102
}
330
42
100
AcDbScale
 70
     0
300
1" = 1'-0"
140
1.0
141
12.0
290
     0
  0
SCALE
  5
50
102
{ACAD_REACTORS
330
42
102
}
330
42
100
AcDbScale
 70
     0
300
1-1/2" = 1'-0"
140
1.5
141
12.0
290
     0
  0
SCALE
  5
51
102
{ACAD_REACTORS
330
42
102
}
330
42
100
AcDbScale
 70
     0
300
3" = 1'-0"
140
3.0
141
12.0
290
     0
  0
SCALE
  5
52
102
{ACAD_REACTORS
330
42
102
}
330
42
100
AcDbScale
 70
     0
300
6" = 1'-0"
140
6.0
141
12.0
290
     0
  0
SCALE
  5
53
102
{ACAD_REACTORS
330
42
102
}
330
42
100
AcDbScale
 70
     0
300
1'-0" = 1'-0"
140
12.0
141
12.0
290
     0
  0
ACDBSECTIONVIEWSTYLE
  5
6A
102
{ACAD_REACTORS
330
68
102
}
330
68
100
AcDbModelDocViewStyle
 70
     0
  3
Imperial24
290
     1
100
AcDbSectionViewStyle
 70
     0
 71
     0
 90
       78
 71
     1
340
55
 62
   256
 40
0.24
340
0
340
0
 62
   256
 40
0.24
300
I, O, Q, S, X, Z
 40
0.48
 90
        3
 40
0.18
 90
        1
 71
     2
340
69
 90
       25
 62
   256
340
5D
 90
       50
 62
   256
 40
0.24
 40
0.0
 40
0.24
 71
     3
340
55
 62
   256
 40
0.24
 90
        1
 40
0.75
 90
        1
300
%<\AcVar ViewType \f "%tc1">% %<\AcVar ViewSectionStartId>%-%<\AcVar ViewSectionEndId>%\PSCALA %<\AcVar ViewScale \f "%sn">%
 71
     4
 62
   256
 62
   257
300
ANSI31
 40
1.0
 90
        0
290
     0
290
     0
 90
        6
 40
0.0
 40
1.570796326794896
 40
0.2617993877991494
 40
1.308996938995747
 40
-0.2617993877991494
 40
1.832595714594046
  0
TABLESTYLE
  5
65
102
{ACAD_XDICTIONARY
360
39E
102
}
102
{ACAD_REACTORS
330
64
102
}
330
64
100
AcDbTableStyle
280
     0
  3
Standard
 70
     0
 71
     0
 40
0.06
 41
0.06
280
     0
281
     0
  7
Standard
140
0.18
170
     2
 62
     0
 63
     7
283
     0
 90
      512
 91
        0
  1

274
    -2
284
     1
 64
     0
275
    -2
285
     1
 65
     0
276
    -2
286
     1
 66
     0
277
    -2
287
     1
 67
     0
278
    -2
288
     1
 68
     0
279
    -2
289
     1
 69
     0
  7
Standard
140
0.25
170
     5
 62
     0
 63
     7
283
     0
 90
      512
 91
        0
  1

274
    -2
284
     1
 64
     0
275
    -2
285
     1
 65
     0
276
    -2
286
     1
 66
     0
277
    -2
287
     1
 67
     0
278
    -2
288
     1
 68
     0
279
    -2
289
     1
 69
     0
  7
Standard
140
0.18
170
     5
 62
     0
 63
     7
283
     0
 90
      512
 91
        0
  1

274
    -2
284
     1
 64
     0
275
    -2
285
     1
 65
     0
276
    -2
286
     1
 66
     0
277
    -2
287
     1
 67
     0
278
    -2
288
     1
 68
     0
279
    -2
289
     1
 69
     0
  0
VISUALSTYLE
  5
2F
102
{ACAD_REACTORS
330
29
102
}
330
29
100
AcDbVisualStyle
  2
2dWireframe
 70
     4
177
     3
291
     0
 70
    58
 90
        0
176
     1
 90
        2
176
     1
 90
        0
176
     1
 90
        0
176
     1
 40
0.6
176
     1
 40
30.0
176
     1
 62
     7
420
 16777215
176
     1
 90
        1
176
     1
 90
        4
176
     1
 62
     7
176
     1
 62
   257
176
     1
 90
        1
176
     1
 90
        1
176
     1
 40
1.0
176
     1
 90
        0
176
     1
 62
   257
176
     1
 40
1.0
176
     1
 90
        1
176
     1
 90
        6
176
     1
 90
        2
176
     1
 62
     7
176
     1
 90
        5
176
     1
 90
        0
176
     1
 90
        0
176
     1
290
     0
176
     1
 90
        1
176
     1
 40
0.0
176
     1
 90
        0
176
     1
290
     1
176
     1
290
     1
176
     1
290
     0
176
     1
290
     0
176
     1
290
     0
176
     1
290
     0
176
     1
290
     0
176
     1
290
     0
176
     1
290
     0
176
     1
 90
       50
176
     1
 40
0.0
176
     1
 40
1.0
176
     1
 90
        0
176
     1
 62
    18
420
        0
176
     1
 90
       50
176
     1
 90
        3
176
     1
 62
     5
420
      255
176
     1
290
     0
176
     1
 90
       50
176
     1
 90
       50
176
     1
 90
       50
176
     1
290
     0
176
     1
 90
       50
176
     1
 62
   256
176
     0
 40
1.0
176
     0
 90
        2
176
     1
  1
strokes_ogs.tif
176
     1
290
     0
176
     1
 40
1.0
176
     1
 40
1.0
176
     1
  0
VISUALSTYLE
  5
2E
102
{ACAD_REACTORS
330
29
102
}
330
29
100
AcDbVisualStyle
  2
Basic
 70
     7
177
     3
291
     1
 70
    58
 90
        1
176
     1
 90
        0
176
     1
 90
        1
176
     1
 90
        0
176
     1
 40
0.6
176
     1
 40
30.0
176
     1
 62
     7
420
 16777215
176
     1
 90
        0
176
     1
 90
        4
176
     1
 62
     7
176
     1
 62
   257
176
     1
 90
        1
176
     1
 90
        1
176
     1
 40
1.0
176
     1
 90
        8
176
     1
 62
     7
176
     1
 40
1.0
176
     1
 90
        1
176
     1
 90
        6
176
     1
 90
        2
176
     1
 62
     7
176
     1
 90
        5
176
     1
 90
        0
176
     1
 90
        0
176
     1
290
     0
176
     1
 90
        1
176
     1
 40
0.0
176
     1
 90
        0
176
     1
290
     0
176
     1
290
     1
176
     1
290
     1
176
     1
290
     0
176
     1
290
     0
176
     1
290
     0
176
     1
290
     0
176
     1
290
     0
176
     1
290
     0
176
     1
 90
       50
176
     1
 40
0.0
176
     1
 40
1.0
176
     1
 90
        0
176
     1
 62
    18
420
        0
176
     1
 90
       50
176
     1
 90
        3
176
     1
 62
     5
420
      255
176
     1
290
     0
176
     1
 90
       50
176
     1
 90
       50
176
     1
 90
       50
176
     1
290
     0
176
     1
 90
       50
176
     1
 62
   256
176
     0
 40
1.0
176
     0
 90
        2
176
     1
  1
strokes_ogs.tif
176
     1
290
     0
176
     1
 40
1.0
176
     1
 40
1.0
176
     1
  0
VISUALSTYLE
  5
35
102
{ACAD_REACTORS
330
29
102
}
330
29
100
AcDbVisualStyle
  2
Brighten
 70
    12
177
     3
291
     1
 70
    58
 90
        2
176
     1
 90
        2
176
     1
 90
        0
176
     1
 90
        0
176
     1
 40
0.6
176
     1
 40
30.0
176
     1
 62
     7
420
 16777215
176
     1
 90
        1
176
     1
 90
        4
176
     1
 62
     7
176
     1
 62
   257
176
     1
 90
        1
176
     1
 90
        1
176
     1
 40
1.0
176
     1
 90
        8
176
     1
 62
     7
176
     1
 40
1.0
176
     1
 90
        1
176
     1
 90
        6
176
     1
 90
        2
176
     1
 62
     7
176
     1
 90
        5
176
     1
 90
        0
176
     1
 90
        0
176
     1
290
     0
176
     1
 90
        1
176
     1
 40
50.0
176
     1
 90
        0
176
     1
290
     0
176
     1
290
     1
176
     1
290
     1
176
     1
290
     0
176
     1
290
     0
176
     1
290
     0
176
     1
290
     0
176
     1
290
     0
176
     1
290
     0
176
     1
 90
       50
176
     1
 40
0.0
176
     1
 40
1.0
176
     1
 90
        0
176
     1
 62
    18
420
        0
176
     1
 90
       50
176
     1
 90
        3
176
     1
 62
     5
420
      255
176
     1
290
     0
176
     1
 90
       50
176
     1
 90
       50
176
     1
 90
       50
176
     1
290
     0
176
     1
 90
       50
176
     1
 62
   256
176
     0
 40
1.0
176
     0
 90
        2
176
     1
  1
strokes_ogs.tif
176
     1
290
     0
176
     1
 40
1.0
176
     1
 40
1.0
176
     1
  0
VISUALSTYLE
  5
39
102
{ACAD_REACTORS
330
29
102
}
330
29
100
AcDbVisualStyle
  2
ColorChange
 70
    16
177
     3
291
     1
 70
    58
 90
        2
176
     1
 90
        2
176
     1
 90
        3
176
     1
 90
        0
176
     1
 40
0.6
176
     1
 40
30.0
176
     1
 62
     8
420
  8421504
176
     1
 90
        1
176
     1
 90
        4
176
     1
 62
     7
176
     1
 62
   257
176
     1
 90
        1
176
     1
 90
        1
176
     1
 40
1.0
176
     1
 90
        8
176
     1
 62
     8
420
  8421504
176
     1
 40
1.0
176
     1
 90
        1
176
     1
 90
        6
176
     1
 90
        2
176
     1
 62
     7
176
     1
 90
        5
176
     1
 90
        0
176
     1
 90
        0
176
     1
290
     0
176
     1
 90
        1
176
     1
 40
0.0
176
     1
 90
        0
176
     1
290
     0
176
     1
290
     1
176
     1
290
     1
176
     1
290
     0
176
     1
290
     0
176
     1
290
     0
176
     1
290
     0
176
     1
290
     0
176
     1
290
     0
176
     1
 90
       50
176
     1
 40
0.0
176
     1
 40
1.0
176
     1
 90
        0
176
     1
 62
    18
420
        0
176
     1
 90
       50
176
     1
 90
        3
176
     1
 62
     5
420
      255
176
     1
290
     0
176
     1
 90
       50
176
     1
 90
       50
176
     1
 90
       50
176
     1
290
     0
176
     1
 90
       50
176
     1
 62
   256
176
     0
 40
1.0
176
     0
 90
        2
176
     1
  1
strokes_ogs.tif
176
     1
290
     0
176
     1
 40
1.0
176
     1
 40
1.0
176
     1
  0
VISUALSTYLE
  5
32
102
{ACAD_REACTORS
330
29
102
}
330
29
100
AcDbVisualStyle
  2
Conceptual
 70
     9
177
     3
291
     0
 70
    58
 90
        3
176
     1
 90
        2
176
     1
 90
        0
176
     1
 90
        0
176
     1
 40
0.6
176
     1
 40
30.0
176
     1
 62
     7
420
 16777215
176
     1
 90
        2
176
     1
 90
        2
176
     1
 62
     7
176
     1
 62
   257
176
     1
 90
        1
176
     1
 90
        1
176
     1
 40
179.0
176
     1
 90
        8
176
     1
 62
     7
176
     1
 40
1.0
176
     1
 90
        1
176
     1
 90
        6
176
     1
 90
        2
176
     1
 62
     7
176
     1
 90
        3
176
     1
 90
        0
176
     1
 90
        0
176
     1
290
     0
176
     1
 90
        1
176
     1
 40
0.0
176
     1
 90
        0
176
     1
290
     0
176
     1
290
     1
176
     1
290
     1
176
     1
290
     0
176
     1
290
     0
176
     1
290
     0
176
     1
290
     0
176
     1
290
     0
176
     1
290
     0
176
     1
 90
       50
176
     1
 40
0.0
176
     1
 40
1.0
176
     1
 90
        0
176
     1
 62
    18
420
        0
176
     1
 90
       50
176
     1
 90
        3
176
     1
 62
     5
420
      255
176
     1
290
     0
176
     1
 90
       50
176
     1
 90
       50
176
     1
 90
       50
176
     1
290
     0
176
     1
 90
       50
176
     1
 62
   256
176
     0
 40
1.0
176
     0
 90
        2
176
     1
  1
strokes_ogs.tif
176
     1
290
     0
176
     1
 40
1.0
176
     1
 40
1.0
176
     1
  0
VISUALSTYLE
  5
34
102
{ACAD_REACTORS
330
29
102
}
330
29
100
AcDbVisualStyle
  2
Dim
 70
    11
177
     3
291
     1
 70
    58
 90
        2
176
     1
 90
        2
176
     1
 90
        0
176
     1
 90
        0
176
     1
 40
0.6
176
     1
 40
30.0
176
     1
 62
     7
420
 16777215
176
     1
 90
        1
176
     1
 90
        4
176
     1
 62
     7
176
     1
 62
   257
176
     1
 90
        1
176
     1
 90
        1
176
     1
 40
1.0
176
     1
 90
        8
176
     1
 62
     7
176
     1
 40
1.0
176
     1
 90
        1
176
     1
 90
        6
176
     1
 90
        2
176
     1
 62
     7
176
     1
 90
        5
176
     1
 90
        0
176
     1
 90
        0
176
     1
290
     0
176
     1
 90
        1
176
     1
 40
-50.0
176
     1
 90
        0
176
     1
290
     0
176
     1
290
     1
176
     1
290
     1
176
     1
290
     0
176
     1
290
     0
176
     1
290
     0
176
     1
290
     0
176
     1
290
     0
176
     1
290
     0
176
     1
 90
       50
176
     1
 40
0.0
176
     1
 40
1.0
176
     1
 90
        0
176
     1
 62
    18
420
        0
176
     1
 90
       50
176
     1
 90
        3
176
     1
 62
     5
420
      255
176
     1
290
     0
176
     1
 90
       50
176
     1
 90
       50
176
     1
 90
       50
176
     1
290
     0
176
     1
 90
       50
176
     1
 62
   256
176
     0
 40
1.0
176
     0
 90
        2
176
     1
  1
strokes_ogs.tif
176
     1
290
     0
176
     1
 40
1.0
176
     1
 40
1.0
176
     1
  0
VISUALSTYLE
  5
41
102
{ACAD_REACTORS
330
29
102
}
330
29
100
AcDbVisualStyle
  2
EdgeColorOff
 70
    22
177
     3
291
     1
 70
    58
 90
        2
176
     0
 90
        2
176
     0
 90
        0
176
     0
 90
        0
176
     0
 40
0.6
176
     0
 40
30.0
176
     0
 62
     7
420
 16777215
176
     0
 90
        1
176
     0
 90
        4
176
     0
 62
     7
176
     0
 62
   257
176
     0
 90
        1
176
     0
 90
        1
176
     0
 40
1.0
176
     0
 90
        8
176
     2
 62
     7
176
     0
 40
1.0
176
     0
 90
        1
176
     0
 90
        6
176
     0
 90
        2
176
     0
 62
     7
176
     0
 90
        5
176
     0
 90
        0
176
     0
 90
        0
176
     0
290
     0
176
     0
 90
        1
176
     0
 40
0.0
176
     0
 90
        0
176
     0
290
     0
176
     0
290
     1
176
     0
290
     1
176
     0
290
     0
176
     0
290
     0
176
     0
290
     0
176
     0
290
     0
176
     0
290
     0
176
     0
290
     0
176
     0
 90
       50
176
     0
 40
0.0
176
     0
 40
1.0
176
     0
 90
        0
176
     0
 62
    18
420
        0
176
     0
 90
       50
176
     0
 90
        3
176
     0
 62
     5
420
      255
176
     0
290
     0
176
     0
 90
       50
176
     0
 90
       50
176
     0
 90
       50
176
     0
290
     0
176
     0
 90
       50
176
     0
 62
   256
176
     0
 40
1.0
176
     0
 90
        2
176
     0
  1
strokes_ogs.tif
176
     0
290
     0
176
     0
 40
1.0
176
     0
 40
1.0
176
     0
  0
VISUALSTYLE
  5
38
102
{ACAD_REACTORS
330
29
102
}
330
29
100
AcDbVisualStyle
  2
Facepattern
 70
    15
177
     3
291
     1
 70
    58
 90
        2
176
     1
 90
        2
176
     1
 90
        0
176
     1
 90
        0
176
     1
 40
0.6
176
     1
 40
30.0
176
     1
 62
     7
420
 16777215
176
     1
 90
        1
176
     1
 90
        4
176
     1
 62
     7
176
     1
 62
   257
176
     1
 90
        1
176
     1
 90
        1
176
     1
 40
1.0
176
     1
 90
        8
176
     1
 62
     7
176
     1
 40
1.0
176
     1
 90
        1
176
     1
 90
        6
176
     1
 90
        2
176
     1
 62
     7
176
     1
 90
        5
176
     1
 90
        0
176
     1
 90
        0
176
     1
290
     0
176
     1
 90
        1
176
     1
 40
0.0
176
     1
 90
        0
176
     1
290
     0
176
     1
290
     1
176
     1
290
     1
176
     1
290
     0
176
     1
290
     0
176
     1
290
     0
176
     1
290
     0
176
     1
290
     0
176
     1
290
     0
176
     1
 90
       50
176
     1
 40
0.0
176
     1
 40
1.0
176
     1
 90
        0
176
     1
 62
    18
420
        0
176
     1
 90
       50
176
     1
 90
        3
176
     1
 62
     5
420
      255
176
     1
290
     0
176
     1
 90
       50
176
     1
 90
       50
176
     1
 90
       50
176
     1
290
     0
176
     1
 90
       50
176
     1
 62
   256
176
     0
 40
1.0
176
     0
 90
        2
176
     1
  1
strokes_ogs.tif
176
     1
290
     0
176
     1
 40
1.0
176
     1
 40
1.0
176
     1
  0
VISUALSTYLE
  5
2A
102
{ACAD_REACTORS
330
29
102
}
330
29
100
AcDbVisualStyle
  2
Flat
 70
     0
177
     3
291
     1
 70
    58
 90
        2
176
     1
 90
        1
176
     1
 90
        1
176
     1
 90
        2
176
     1
 40
0.6
176
     1
 40
30.0
176
     1
 62
     7
420
 16777215
176
     1
 90
        0
176
     1
 90
        0
176
     1
 62
     7
176
     1
 62
   257
176
     1
 90
        1
176
     1
 90
        1
176
     1
 40
1.0
176
     1
 90
        8
176
     1
 62
     7
176
     1
 40
1.0
176
     1
 90
        1
176
     1
 90
        6
176
     1
 90
        2
176
     1
 62
     7
176
     1
 90
        5
176
     1
 90
        0
176
     1
 90
        0
176
     1
290
     0
176
     1
 90
       13
176
     1
 40
0.0
176
     1
 90
        0
176
     1
290
     0
176
     1
290
     1
176
     1
290
     1
176
     1
290
     0
176
     1
290
     0
176
     1
290
     0
176
     1
290
     0
176
     1
290
     0
176
     1
290
     0
176
     1
 90
       50
176
     1
 40
0.0
176
     1
 40
1.0
176
     1
 90
        0
176
     1
 62
    18
420
        0
176
     1
 90
       50
176
     1
 90
        3
176
     1
 62
     5
420
      255
176
     1
290
     0
176
     1
 90
       50
176
     1
 90
       50
176
     1
 90
       50
176
     1
290
     0
176
     1
 90
       50
176
     1
 62
   256
176
     0
 40
1.0
176
     0
 90
        2
176
     1
  1
strokes_ogs.tif
176
     1
290
     0
176
     1
 40
1.0
176
     1
 40
1.0
176
     1
  0
VISUALSTYLE
  5
2B
102
{ACAD_REACTORS
330
29
102
}
330
29
100
AcDbVisualStyle
  2
FlatWithEdges
 70
     1
177
     3
291
     1
 70
    58
 90
        2
176
     1
 90
        1
176
     1
 90
        1
176
     1
 90
        2
176
     1
 40
0.6
176
     1
 40
30.0
176
     1
 62
     7
420
 16777215
176
     1
 90
        1
176
     1
 90
        0
176
     1
 62
     7
176
     1
 62
   257
176
     1
 90
        1
176
     1
 90
        1
176
     1
 40
1.0
176
     1
 90
        0
176
     1
 62
   257
176
     1
 40
1.0
176
     1
 90
        1
176
     1
 90
        6
176
     1
 90
        2
176
     1
 62
     7
176
     1
 90
        5
176
     1
 90
        0
176
     1
 90
        0
176
     1
290
     0
176
     1
 90
       13
176
     1
 40
0.0
176
     1
 90
        0
176
     1
290
     0
176
     1
290
     1
176
     1
290
     1
176
     1
290
     0
176
     1
290
     0
176
     1
290
     0
176
     1
290
     0
176
     1
290
     0
176
     1
290
     0
176
     1
 90
       50
176
     1
 40
0.0
176
     1
 40
1.0
176
     1
 90
        0
176
     1
 62
    18
420
        0
176
     1
 90
       50
176
     1
 90
        3
176
     1
 62
     5
420
      255
176
     1
290
     0
176
     1
 90
       50
176
     1
 90
       50
176
     1
 90
       50
176
     1
290
     0
176
     1
 90
       50
176
     1
 62
   256
176
     0
 40
1.0
176
     0
 90
        2
176
     1
  1
strokes_ogs.tif
176
     1
290
     0
176
     1
 40
1.0
176
     1
 40
1.0
176
     1
  0
VISUALSTYLE
  5
2C
102
{ACAD_REACTORS
330
29
102
}
330
29
100
AcDbVisualStyle
  2
Gouraud
 70
     2
177
     3
291
     1
 70
    58
 90
        2
176
     1
 90
        2
176
     1
 90
        1
176
     1
 90
        2
176
     1
 40
0.6
176
     1
 40
30.0
176
     1
 62
     7
420
 16777215
176
     1
 90
        0
176
     1
 90
        0
176
     1
 62
     7
176
     1
 62
   257
176
     1
 90
        1
176
     1
 90
        1
176
     1
 40
1.0
176
     1
 90
        0
176
     1
 62
     7
176
     1
 40
1.0
176
     1
 90
        1
176
     1
 90
        6
176
     1
 90
        2
176
     1
 62
     7
176
     1
 90
        5
176
     1
 90
        0
176
     1
 90
        0
176
     1
290
     0
176
     1
 90
       13
176
     1
 40
0.0
176
     1
 90
        0
176
     1
290
     0
176
     1
290
     1
176
     1
290
     1
176
     1
290
     0
176
     1
290
     0
176
     1
290
     0
176
     1
290
     0
176
     1
290
     0
176
     1
290
     0
176
     1
 90
       50
176
     1
 40
0.0
176
     1
 40
1.0
176
     1
 90
        0
176
     1
 62
    18
420
        0
176
     1
 90
       50
176
     1
 90
        3
176
     1
 62
     5
420
      255
176
     1
290
     0
176
     1
 90
       50
176
     1
 90
       50
176
     1
 90
       50
176
     1
290
     0
176
     1
 90
       50
176
     1
 62
   256
176
     0
 40
1.0
176
     0
 90
        2
176
     1
  1
strokes_ogs.tif
176
     1
290
     0
176
     1
 40
1.0
176
     1
 40
1.0
176
     1
  0
VISUALSTYLE
  5
2D
102
{ACAD_REACTORS
330
29
102
}
330
29
100
AcDbVisualStyle
  2
GouraudWithEdges
 70
     3
177
     3
291
     1
 70
    58
 90
        2
176
     1
 90
        2
176
     1
 90
        1
176
     1
 90
        2
176
     1
 40
0.6
176
     1
 40
30.0
176
     1
 62
     7
420
 16777215
176
     1
 90
        1
176
     1
 90
        0
176
     1
 62
     7
176
     1
 62
   257
176
     1
 90
        1
176
     1
 90
        1
176
     1
 40
1.0
176
     1
 90
        0
176
     1
 62
   257
176
     1
 40
1.0
176
     1
 90
        1
176
     1
 90
        6
176
     1
 90
        2
176
     1
 62
     7
176
     1
 90
        5
176
     1
 90
        0
176
     1
 90
        0
176
     1
290
     0
176
     1
 90
       13
176
     1
 40
0.0
176
     1
 90
        0
176
     1
290
     0
176
     1
290
     1
176
     1
290
     1
176
     1
290
     0
176
     1
290
     0
176
     1
290
     0
176
     1
290
     0
176
     1
290
     0
176
     1
290
     0
176
     1
 90
       50
176
     1
 40
0.0
176
     1
 40
1.0
176
     1
 90
        0
176
     1
 62
    18
420
        0
176
     1
 90
       50
176
     1
 90
        3
176
     1
 62
     5
420
      255
176
     1
290
     0
176
     1
 90
       50
176
     1
 90
       50
176
     1
 90
       50
176
     1
290
     0
176
     1
 90
       50
176
     1
 62
   256
176
     0
 40
1.0
176
     0
 90
        2
176
     1
  1
strokes_ogs.tif
176
     1
290
     0
176
     1
 40
1.0
176
     1
 40
1.0
176
     1
  0
VISUALSTYLE
  5
31
102
{ACAD_REACTORS
330
29
102
}
330
29
100
AcDbVisualStyle
  2
Hidden
 70
     6
177
     3
291
     0
 70
    58
 90
        1
176
     1
 90
        2
176
     1
 90
        2
176
     1
 90
        0
176
     1
 40
0.6
176
     1
 40
30.0
176
     1
 62
     7
420
 16777215
176
     1
 90
        2
176
     1
 90
        2
176
     1
 62
     7
176
     1
 62
   257
176
     1
 90
        2
176
     1
 90
        1
176
     1
 40
40.0
176
     1
 90
        0
176
     1
 62
   257
176
     1
 40
1.0
176
     1
 90
        1
176
     1
 90
        6
176
     1
 90
        2
176
     1
 62
     7
176
     1
 90
        3
176
     1
 90
        0
176
     1
 90
        0
176
     1
290
     0
176
     1
 90
        1
176
     1
 40
0.0
176
     1
 90
        0
176
     1
290
     0
176
     1
290
     1
176
     1
290
     1
176
     1
290
     0
176
     1
290
     0
176
     1
290
     0
176
     1
290
     0
176
     1
290
     0
176
     1
290
     0
176
     1
 90
       50
176
     1
 40
0.0
176
     1
 40
1.0
176
     1
 90
        0
176
     1
 62
    18
420
        0
176
     1
 90
       50
176
     1
 90
        3
176
     1
 62
     5
420
      255
176
     1
290
     0
176
     1
 90
       50
176
     1
 90
       50
176
     1
 90
       50
176
     1
290
     0
176
     1
 90
       50
176
     1
 62
   256
176
     0
 40
1.0
176
     0
 90
        2
176
     1
  1
strokes_ogs.tif
176
     1
290
     0
176
     1
 40
1.0
176
     1
 40
1.0
176
     1
  0
VISUALSTYLE
  5
3F
102
{ACAD_REACTORS
330
29
102
}
330
29
100
AcDbVisualStyle
  2
JitterOff
 70
    20
177
     3
291
     1
 70
    58
 90
        2
176
     0
 90
        2
176
     0
 90
        0
176
     0
 90
        0
176
     0
 40
0.6
176
     0
 40
30.0
176
     0
 62
     7
420
 16777215
176
     0
 90
        1
176
     0
 90
        4
176
     0
 62
     7
176
     0
 62
   257
176
     0
 90
        1
176
     0
 90
        1
176
     0
 40
1.0
176
     0
 90
       10
176
     2
 62
     7
176
     0
 40
1.0
176
     0
 90
        1
176
     0
 90
        6
176
     0
 90
        2
176
     0
 62
     7
176
     0
 90
        5
176
     0
 90
        0
176
     0
 90
        0
176
     0
290
     0
176
     0
 90
        1
176
     0
 40
0.0
176
     0
 90
        0
176
     0
290
     0
176
     0
290
     1
176
     0
290
     1
176
     0
290
     0
176
     0
290
     0
176
     0
290
     0
176
     0
290
     0
176
     0
290
     0
176
     0
290
     0
176
     0
 90
       50
176
     0
 40
0.0
176
     0
 40
1.0
176
     0
 90
        0
176
     0
 62
    18
420
        0
176
     0
 90
       50
176
     0
 90
        3
176
     0
 62
     5
420
      255
176
     0
290
     0
176
     0
 90
       50
176
     0
 90
       50
176
     0
 90
       50
176
     0
290
     0
176
     0
 90
       50
176
     0
 62
   256
176
     0
 40
1.0
176
     0
 90
        2
176
     0
  1
strokes_ogs.tif
176
     0
290
     0
176
     0
 40
1.0
176
     0
 40
1.0
176
     0
  0
VISUALSTYLE
  5
37
102
{ACAD_REACTORS
330
29
102
}
330
29
100
AcDbVisualStyle
  2
Linepattern
 70
    14
177
     3
291
     1
 70
    58
 90
        2
176
     1
 90
        2
176
     1
 90
        0
176
     1
 90
        0
176
     1
 40
0.6
176
     1
 40
30.0
176
     1
 62
     7
420
 16777215
176
     1
 90
        1
176
     1
 90
        4
176
     1
 62
     7
176
     1
 62
   257
176
     1
 90
        7
176
     1
 90
        7
176
     1
 40
1.0
176
     1
 90
        8
176
     1
 62
     7
176
     1
 40
1.0
176
     1
 90
        1
176
     1
 90
        6
176
     1
 90
        2
176
     1
 62
     7
176
     1
 90
        5
176
     1
 90
        0
176
     1
 90
        0
176
     1
290
     0
176
     1
 90
        1
176
     1
 40
0.0
176
     1
 90
        0
176
     1
290
     0
176
     1
290
     1
176
     1
290
     1
176
     1
290
     0
176
     1
290
     0
176
     1
290
     0
176
     1
290
     0
176
     1
290
     0
176
     1
290
     0
176
     1
 90
       50
176
     1
 40
0.0
176
     1
 40
1.0
176
     1
 90
        0
176
     1
 62
    18
420
        0
176
     1
 90
       50
176
     1
 90
        3
176
     1
 62
     5
420
      255
176
     1
290
     0
176
     1
 90
       50
176
     1
 90
       50
176
     1
 90
       50
176
     1
290
     0
176
     1
 90
       50
176
     1
 62
   256
176
     0
 40
1.0
176
     0
 90
        2
176
     1
  1
strokes_ogs.tif
176
     1
290
     0
176
     1
 40
1.0
176
     1
 40
1.0
176
     1
  0
VISUALSTYLE
  5
40
102
{ACAD_REACTORS
330
29
102
}
330
29
100
AcDbVisualStyle
  2
OverhangOff
 70
    21
177
     3
291
     1
 70
    58
 90
        2
176
     0
 90
        2
176
     0
 90
        0
176
     0
 90
        0
176
     0
 40
0.6
176
     0
 40
30.0
176
     0
 62
     7
420
 16777215
176
     0
 90
        1
176
     0
 90
        4
176
     0
 62
     7
176
     0
 62
   257
176
     0
 90
        1
176
     0
 90
        1
176
     0
 40
1.0
176
     0
 90
        9
176
     2
 62
     7
176
     0
 40
1.0
176
     0
 90
        1
176
     0
 90
        6
176
     0
 90
        2
176
     0
 62
     7
176
     0
 90
        5
176
     0
 90
        0
176
     0
 90
        0
176
     0
290
     0
176
     0
 90
        1
176
     0
 40
0.0
176
     0
 90
        0
176
     0
290
     0
176
     0
290
     1
176
     0
290
     1
176
     0
290
     0
176
     0
290
     0
176
     0
290
     0
176
     0
290
     0
176
     0
290
     0
176
     0
290
     0
176
     0
 90
       50
176
     0
 40
0.0
176
     0
 40
1.0
176
     0
 90
        0
176
     0
 62
    18
420
        0
176
     0
 90
       50
176
     0
 90
        3
176
     0
 62
     5
420
      255
176
     0
290
     0
176
     0
 90
       50
176
     0
 90
       50
176
     0
 90
       50
176
     0
290
     0
176
     0
 90
       50
176
     0
 62
   256
176
     0
 40
1.0
176
     0
 90
        2
176
     0
  1
strokes_ogs.tif
176
     0
290
     0
176
     0
 40
1.0
176
     0
 40
1.0
176
     0
  0
VISUALSTYLE
  5
33
102
{ACAD_REACTORS
330
29
102
}
330
29
100
AcDbVisualStyle
  2
Realistic
 70
     8
177
     3
291
     0
 70
    58
 90
        2
176
     1
 90
        3
176
     1
 90
        0
176
     1
 90
        2
176
     1
 40
0.6
176
     1
 40
30.0
176
     1
 62
     7
420
 16777215
176
     1
 90
        0
176
     1
 90
        0
176
     1
 62
     7
176
     1
 62
   257
176
     1
 90
        1
176
     1
 90
        1
176
     1
 40
1.0
176
     1
 90
        8
176
     1
 62
   257
176
     1
 40
1.0
176
     1
 90
        1
176
     1
 90
        6
176
     1
 90
        2
176
     1
 62
     7
176
     1
 90
        3
176
     1
 90
        0
176
     1
 90
        0
176
     1
290
     0
176
     1
 90
       13
176
     1
 40
0.0
176
     1
 90
        0
176
     1
290
     0
176
     1
290
     1
176
     1
290
     1
176
     1
290
     0
176
     1
290
     0
176
     1
290
     0
176
     1
290
     0
176
     1
290
     0
176
     1
290
     0
176
     1
 90
       50
176
     1
 40
0.0
176
     1
 40
1.0
176
     1
 90
        0
176
     1
 62
    18
420
        0
176
     1
 90
       50
176
     1
 90
        3
176
     1
 62
     5
420
      255
176
     1
290
     0
176
     1
 90
       50
176
     1
 90
       50
176
     1
 90
       50
176
     1
290
     0
176
     1
 90
       50
176
     1
 62
   256
176
     0
 40
1.0
176
     0
 90
        2
176
     1
  1
strokes_ogs.tif
176
     1
290
     0
176
     1
 40
1.0
176
     1
 40
1.0
176
     1
  0
VISUALSTYLE
  5
3E
102
{ACAD_REACTORS
330
29
102
}
330
29
100
AcDbVisualStyle
  2
Shaded
 70
    27
177
     3
291
     0
 70
    58
 90
        2
176
     1
 90
        2
176
     1
 90
        1
176
     1
 90
        2
176
     1
 40
0.6
176
     1
 40
30.0
176
     1
 62
     7
420
 16777215
176
     1
 90
        0
176
     1
 90
        4
176
     1
 62
     7
176
     1
 62
   257
176
     1
 90
        1
176
     1
 90
        1
176
     1
 40
1.0
176
     1
 90
        8
176
     1
 62
   257
176
     1
 40
1.0
176
     1
 90
        1
176
     1
 90
        6
176
     1
 90
        2
176
     1
 62
     8
420
  7895160
176
     1
 90
        3
176
     1
 90
        0
176
     1
 90
        0
176
     1
290
     0
176
     1
 90
        5
176
     1
 40
0.0
176
     1
 90
        0
176
     1
290
     0
176
     1
290
     1
176
     1
290
     1
176
     1
290
     0
176
     1
290
     0
176
     1
290
     0
176
     1
290
     0
176
     1
290
     0
176
     1
290
     0
176
     1
 90
       50
176
     1
 40
0.0
176
     1
 40
1.0
176
     1
 90
        0
176
     1
 62
    18
420
        0
176
     1
 90
       50
176
     1
 90
        3
176
     1
 62
     5
420
      255
176
     1
290
     0
176
     1
 90
       50
176
     1
 90
       50
176
     1
 90
       50
176
     1
290
     0
176
     1
 90
       50
176
     1
 62
   256
176
     0
 40
1.0
176
     0
 90
        2
176
     1
  1
strokes_ogs.tif
176
     1
290
     0
176
     1
 40
1.0
176
     1
 40
1.0
176
     1
  0
VISUALSTYLE
  5
3D
102
{ACAD_REACTORS
330
29
102
}
330
29
100
AcDbVisualStyle
  2
Shaded with edges
 70
    26
177
     3
291
     0
 70
    58
 90
        2
176
     1
 90
        2
176
     1
 90
        1
176
     1
 90
        2
176
     1
 40
0.6
176
     1
 40
30.0
176
     1
 62
     7
420
 16777215
176
     1
 90
        1
176
     1
 90
       10
176
     1
 62
     7
176
     1
 62
   257
176
     1
 90
        2
176
     1
 90
        1
176
     1
 40
1.0
176
     1
 90
        8
176
     1
 62
   257
176
     1
 40
1.0
176
     1
 90
        1
176
     1
 90
        6
176
     1
 90
        2
176
     1
 62
     7
176
     1
 90
        3
176
     1
 90
        0
176
     1
 90
        0
176
     1
290
     0
176
     1
 90
        5
176
     1
 40
0.0
176
     1
 90
        0
176
     1
290
     0
176
     1
290
     1
176
     1
290
     1
176
     1
290
     0
176
     1
290
     0
176
     1
290
     0
176
     1
290
     0
176
     1
290
     0
176
     1
290
     0
176
     1
 90
       50
176
     1
 40
0.0
176
     1
 40
1.0
176
     1
 90
        0
176
     1
 62
    18
420
        0
176
     1
 90
       50
176
     1
 90
        3
176
     1
 62
     5
420
      255
176
     1
290
     0
176
     1
 90
       50
176
     1
 90
       50
176
     1
 90
       50
176
     1
290
     0
176
     1
 90
       50
176
     1
 62
   256
176
     0
 40
1.0
176
     0
 90
        2
176
     1
  1
strokes_ogs.tif
176
     1
290
     0
176
     1
 40
1.0
176
     1
 40
1.0
176
     1
  0
VISUALSTYLE
  5
3A
102
{ACAD_REACTORS
330
29
102
}
330
29
100
AcDbVisualStyle
  2
Shades of Gray
 70
    23
177
     3
291
     0
 70
    58
 90
        2
176
     1
 90
        2
176
     1
 90
        3
176
     1
 90
        0
176
     1
 40
0.6
176
     1
 40
30.0
176
     1
 62
     7
420
 16777215
176
     1
 90
        2
176
     1
 90
        2
176
     1
 62
     7
176
     1
 62
     7
176
     1
 90
        1
176
     1
 90
        1
176
     1
 40
40.0
176
     1
 90
        8
176
     1
 62
     7
176
     1
 40
1.0
176
     1
 90
        1
176
     1
 90
        6
176
     1
 90
        2
176
     1
 62
     7
176
     1
 90
        3
176
     1
 90
        0
176
     1
 90
        0
176
     1
290
     0
176
     1
 90
        1
176
     1
 40
0.0
176
     1
 90
        0
176
     1
290
     0
176
     1
290
     1
176
     1
290
     1
176
     1
290
     0
176
     1
290
     0
176
     1
290
     0
176
     1
290
     0
176
     1
290
     0
176
     1
290
     0
176
     1
 90
       50
176
     1
 40
0.0
176
     1
 40
1.0
176
     1
 90
        0
176
     1
 62
    18
420
        0
176
     1
 90
       50
176
     1
 90
        3
176
     1
 62
     5
420
      255
176
     1
290
     0
176
     1
 90
       50
176
     1
 90
       50
176
     1
 90
       50
176
     1
290
     0
176
     1
 90
       50
176
     1
 62
   256
176
     0
 40
1.0
176
     0
 90
        2
176
     1
  1
strokes_ogs.tif
176
     1
290
     0
176
     1
 40
1.0
176
     1
 40
1.0
176
     1
  0
VISUALSTYLE
  5
3B
102
{ACAD_REACTORS
330
29
102
}
330
29
100
AcDbVisualStyle
  2
Sketchy
 70
    24
177
     3
291
     0
 70
    58
 90
        1
176
     1
 90
        2
176
     1
 90
        2
176
     1
 90
        0
176
     1
 40
0.6
176
     1
 40
30.0
176
     1
 62
     7
420
 16777215
176
     1
 90
        2
176
     1
 90
        2
176
     1
 62
     7
176
     1
 62
     7
176
     1
 90
        1
176
     1
 90
        1
176
     1
 40
40.0
176
     1
 90
       11
176
     1
 62
     7
176
     1
 40
1.0
176
     1
 90
        1
176
     1
 90
        6
176
     1
 90
        2
176
     1
 62
     7
176
     1
 90
        6
176
     1
 90
        0
176
     1
 90
        0
176
     1
290
     0
176
     1
 90
        1
176
     1
 40
0.0
176
     1
 90
        0
176
     1
290
     0
176
     1
290
     1
176
     1
290
     1
176
     1
290
     0
176
     1
290
     0
176
     1
290
     0
176
     1
290
     0
176
     1
290
     0
176
     1
290
     0
176
     1
 90
       50
176
     1
 40
0.0
176
     1
 40
1.0
176
     1
 90
        0
176
     1
 62
    18
420
        0
176
     1
 90
       50
176
     1
 90
        3
176
     1
 62
     5
420
      255
176
     1
290
     0
176
     1
 90
       50
176
     1
 90
       50
176
     1
 90
       50
176
     1
290
     0
176
     1
 90
       50
176
     1
 62
   256
176
     0
 40
1.0
176
     0
 90
        2
176
     1
  1
strokes_ogs.tif
176
     1
290
     0
176
     1
 40
1.0
176
     1
 40
1.0
176
     1
  0
VISUALSTYLE
  5
36
102
{ACAD_REACTORS
330
29
102
}
330
29
100
AcDbVisualStyle
  2
Thicken
 70
    13
177
     3
291
     1
 70
    58
 90
        2
176
     1
 90
        2
176
     1
 90
        0
176
     1
 90
        0
176
     1
 40
0.6
176
     1
 40
30.0
176
     1
 62
     7
420
 16777215
176
     1
 90
        1
176
     1
 90
        4
176
     1
 62
     7
176
     1
 62
   257
176
     1
 90
        1
176
     1
 90
        1
176
     1
 40
1.0
176
     1
 90
       12
176
     1
 62
     7
176
     1
 40
1.0
176
     1
 90
        1
176
     1
 90
        6
176
     1
 90
        2
176
     1
 62
     7
176
     1
 90
        5
176
     1
 90
        0
176
     1
 90
        0
176
     1
290
     0
176
     1
 90
        1
176
     1
 40
0.0
176
     1
 90
        0
176
     1
290
     0
176
     1
290
     1
176
     1
290
     1
176
     1
290
     0
176
     1
290
     0
176
     1
290
     0
176
     1
290
     0
176
     1
290
     0
176
     1
290
     0
176
     1
 90
       50
176
     1
 40
0.0
176
     1
 40
1.0
176
     1
 90
        0
176
     1
 62
    18
420
        0
176
     1
 90
       50
176
     1
 90
        3
176
     1
 62
     5
420
      255
176
     1
290
     0
176
     1
 90
       50
176
     1
 90
       50
176
     1
 90
       50
176
     1
290
     0
176
     1
 90
       50
176
     1
 62
   256
176
     0
 40
1.0
176
     0
 90
        2
176
     1
  1
strokes_ogs.tif
176
     1
290
     0
176
     1
 40
1.0
176
     1
 40
1.0
176
     1
  0
VISUALSTYLE
  5
30
102
{ACAD_REACTORS
330
29
102
}
330
29
100
AcDbVisualStyle
  2
Wireframe
 70
     5
177
     3
291
     0
 70
    58
 90
        0
176
     1
 90
        2
176
     1
 90
        0
176
     1
 90
        0
176
     1
 40
0.6
176
     1
 40
30.0
176
     1
 62
     7
420
 16777215
176
     1
 90
        1
176
     1
 90
        4
176
     1
 62
     7
176
     1
 62
   257
176
     1
 90
        1
176
     1
 90
        1
176
     1
 40
1.0
176
     1
 90
        0
176
     1
 62
   257
176
     1
 40
1.0
176
     1
 90
        1
176
     1
 90
        6
176
     1
 90
        2
176
     1
 62
     7
176
     1
 90
        3
176
     1
 90
        0
176
     1
 90
        0
176
     1
290
     0
176
     1
 90
        1
176
     1
 40
0.0
176
     1
 90
        0
176
     1
290
     0
176
     1
290
     1
176
     1
290
     1
176
     1
290
     0
176
     1
290
     0
176
     1
290
     0
176
     1
290
     0
176
     1
290
     0
176
     1
290
     0
176
     1
 90
       50
176
     1
 40
0.0
176
     1
 40
1.0
176
     1
 90
        0
176
     1
 62
    18
420
        0
176
     1
 90
       50
176
     1
 90
        3
176
     1
 62
     5
420
      255
176
     1
290
     0
176
     1
 90
       50
176
     1
 90
       50
176
     1
 90
       50
176
     1
290
     0
176
     1
 90
       50
176
     1
 62
   256
176
     0
 40
1.0
176
     0
 90
        2
176
     1
  1
strokes_ogs.tif
176
     1
290
     0
176
     1
 40
1.0
176
     1
 40
1.0
176
     1
  0
VISUALSTYLE
  5
3C
102
{ACAD_REACTORS
330
29
102
}
330
29
100
AcDbVisualStyle
  2
X-Ray
 70
    25
177
     3
291
     0
 70
    58
 90
        2
176
     1
 90
        2
176
     1
 90
        1
176
     1
 90
        1
176
     1
 40
0.5
176
     1
 40
30.0
176
     1
 62
     7
420
 16777215
176
     1
 90
        1
176
     1
 90
        0
176
     1
 62
     7
176
     1
 62
   257
176
     1
 90
        1
176
     1
 90
        1
176
     1
 40
1.0
176
     1
 90
        8
176
     1
 62
     7
176
     1
 40
1.0
176
     1
 90
        1
176
     1
 90
        6
176
     1
 90
        2
176
     1
 62
     7
176
     1
 90
        3
176
     1
 90
        0
176
     1
 90
        0
176
     1
290
     0
176
     1
 90
       13
176
     1
 40
0.0
176
     1
 90
        0
176
     1
290
     0
176
     1
290
     1
176
     1
290
     1
176
     1
290
     0
176
     1
290
     0
176
     1
290
     0
176
     1
290
     0
176
     1
290
     0
176
     1
290
     0
176
     1
 90
       50
176
     1
 40
0.0
176
     1
 40
1.0
176
     1
 90
        0
176
     1
 62
    18
420
        0
176
     1
 90
       50
176
     1
 90
        3
176
     1
 62
     5
420
      255
176
     1
290
     0
176
     1
 90
       50
176
     1
 90
       50
176
     1
 90
       50
176
     1
290
     0
176
     1
 90
       50
176
     1
 62
   256
176
     0
 40
1.0
176
     0
 90
        2
176
     1
  1
strokes_ogs.tif
176
     1
290
     0
176
     1
 40
1.0
176
     1
 40
1.0
176
     1
  0
DICTIONARYVAR
  5
81
102
{ACAD_REACTORS
330
7C
102
}
330
7C
100
DictionaryVariables
280
     0
  1
1:1
  0
DICTIONARYVAR
  5
7E
102
{ACAD_REACTORS
330
7C
102
}
330
7C
100
DictionaryVariables
280
     0
  1
STANDARD
  0
DICTIONARYVAR
  5
7D
102
{ACAD_REACTORS
330
7C
102
}
330
7C
100
DictionaryVariables
280
     0
  1
STANDARD
  0
DICTIONARYVAR
  5
7F
102
{ACAD_REACTORS
330
7C
102
}
330
7C
100
DictionaryVariables
280
     0
  1
Imperial24
  0
DICTIONARYVAR
  5
80
102
{ACAD_REACTORS
330
7C
102
}
330
7C
100
DictionaryVariables
280
     0
  1
Imperial24
  0
XRECORD
  5
39B
102
{ACAD_REACTORS
330
398
102
}
330
398
100
AcDbXrecord
280
     1
  1
BUILDING_ID
  1
Progetto per messa in tavola DXF, DWG
  1
FLOOR_ID
  1
694395
  0
XRECORD
  5
39A
102
{ACAD_REACTORS
330
398
102
}
330
398
100
AcDbXrecord
280
     1
  1
-2001160
  1
Apparecchi idraulici
  0
XRECORD
  5
399
102
{ACAD_REACTORS
330
398
102
}
330
398
100
AcDbXrecord
280
     1
  1
928300
  1
Automatic flow rate regulator valve_Caleffi_121 DN15 : 1''
  0
DICTIONARY
  5
1A
330
19
100
AcDbDictionary
280
     1
281
     1
  3
BUMPTILE
360
1C
  3
DIFFUSETILE
360
1B
  3
OPACITYTILE
360
1F
  3
REFLECTIONTILE
360
1E
  3
REFRACTIONTILE
360
20
  3
SPECULARTILE
360
1D
  0
DICTIONARY
  5
12
330
11
100
AcDbDictionary
280
     1
281
     1
  3
BUMPTILE
360
14
  3
DIFFUSETILE
360
13
  3
OPACITYTILE
360
17
  3
REFLECTIONTILE
360
16
  3
REFRACTIONTILE
360
18
  3
SPECULARTILE
360
15
  0
DICTIONARY
  5
22
330
21
100
AcDbDictionary
280
     1
281
     1
  3
BUMPTILE
360
24
  3
DIFFUSETILE
360
23
  3
OPACITYTILE
360
27
  3
REFLECTIONTILE
360
26
  3
REFRACTIONTILE
360
28
  3
SPECULARTILE
360
25
  0
DICTIONARY
  5
39E
330
65
100
AcDbDictionary
280
     1
281
     1
  3
ACAD_ROUNDTRIP_2008_TABLESTYLE_CELLSTYLEMAP
360
39F
  0
XRECORD
  5
1C
102
{ACAD_REACTORS
330
1A
102
}
330
1A
100
AcDbXrecord
280
     1
270
     1
271
     1
  0
XRECORD
  5
1B
102
{ACAD_REACTORS
330
1A
102
}
330
1A
100
AcDbXrecord
280
     1
270
     1
271
     1
  0
XRECORD
  5
1F
102
{ACAD_REACTORS
330
1A
102
}
330
1A
100
AcDbXrecord
280
     1
270
     1
271
     1
  0
XRECORD
  5
1E
102
{ACAD_REACTORS
330
1A
102
}
330
1A
100
AcDbXrecord
280
     1
270
     1
271
     1
  0
XRECORD
  5
20
102
{ACAD_REACTORS
330
1A
102
}
330
1A
100
AcDbXrecord
280
     1
270
     1
271
     1
  0
XRECORD
  5
1D
102
{ACAD_REACTORS
330
1A
102
}
330
1A
100
AcDbXrecord
280
     1
270
     1
271
     1
  0
XRECORD
  5
14
102
{ACAD_REACTORS
330
12
102
}
330
12
100
AcDbXrecord
280
     1
270
     1
271
     1
  0
XRECORD
  5
13
102
{ACAD_REACTORS
330
12
102
}
330
12
100
AcDbXrecord
280
     1
270
     1
271
     1
  0
XRECORD
  5
17
102
{ACAD_REACTORS
330
12
102
}
330
12
100
AcDbXrecord
280
     1
270
     1
271
     1
  0
XRECORD
  5
16
102
{ACAD_REACTORS
330
12
102
}
330
12
100
AcDbXrecord
280
     1
270
     1
271
     1
  0
XRECORD
  5
18
102
{ACAD_REACTORS
330
12
102
}
330
12
100
AcDbXrecord
280
     1
270
     1
271
     1
  0
XRECORD
  5
15
102
{ACAD_REACTORS
330
12
102
}
330
12
100
AcDbXrecord
280
     1
270
     1
271
     1
  0
XRECORD
  5
24
102
{ACAD_REACTORS
330
22
102
}
330
22
100
AcDbXrecord
280
     1
270
     1
271
     1
  0
XRECORD
  5
23
102
{ACAD_REACTORS
330
22
102
}
330
22
100
AcDbXrecord
280
     1
270
     1
271
     1
  0
XRECORD
  5
27
102
{ACAD_REACTORS
330
22
102
}
330
22
100
AcDbXrecord
280
     1
270
     1
271
     1
  0
XRECORD
  5
26
102
{ACAD_REACTORS
330
22
102
}
330
22
100
AcDbXrecord
280
     1
270
     1
271
     1
  0
XRECORD
  5
28
102
{ACAD_REACTORS
330
22
102
}
330
22
100
AcDbXrecord
280
     1
270
     1
271
     1
  0
XRECORD
  5
25
102
{ACAD_REACTORS
330
22
102
}
330
22
100
AcDbXrecord
280
     1
270
     1
271
     1
  0
CELLSTYLEMAP
  5
39F
102
{ACAD_REACTORS
330
39E
102
}
330
39E
100
AcDbCellStyleMap
 90
        3
300
CELLSTYLE
  1
TABLEFORMAT_BEGIN
 90
        5
170
     1
 91
        0
 92
    32768
 62
   257
 93
        1
300
CONTENTFORMAT
  1
CONTENTFORMAT_BEGIN
 90
        0
 91
        0
 92
      512
 93
        0
300

 40
0.0
140
1.0
 94
        5
 62
     0
340
55
144
0.25
309
CONTENTFORMAT_END
171
     0
 94
        0
309
TABLEFORMAT_END
  1
CELLSTYLE_BEGIN
 90
        1
 91
        1
300
_TITLE
309
CELLSTYLE_END
300
CELLSTYLE
  1
TABLEFORMAT_BEGIN
 90
        5
170
     1
 91
        0
 92
        0
 62
   257
 93
        1
300
CONTENTFORMAT
  1
CONTENTFORMAT_BEGIN
 90
        0
 91
        0
 92
      512
 93
        0
300

 40
0.0
140
1.0
 94
        5
 62
     0
340
55
144
0.18
309
CONTENTFORMAT_END
171
     0
 94
        0
309
TABLEFORMAT_END
  1
CELLSTYLE_BEGIN
 90
        2
 91
        1
300
_HEADER
309
CELLSTYLE_END
300
CELLSTYLE
  1
TABLEFORMAT_BEGIN
 90
        5
170
     1
 91
        0
 92
        0
 62
   257
 93
        1
300
CONTENTFORMAT
  1
CONTENTFORMAT_BEGIN
 90
        0
 91
        0
 92
      512
 93
        0
300

 40
0.0
140
1.0
 94
        2
 62
     0
340
55
144
0.18
309
CONTENTFORMAT_END
171
     0
 94
        0
309
TABLEFORMAT_END
  1
CELLSTYLE_BEGIN
 90
        3
 91
        2
300
_DATA
309
CELLSTYLE_END
  0
ENDSEC
  0
EOF
