  0
SECTION
  2
HEADER
  9
$ACADVER
  1
AC1027
  9
$ACADMAINTVER
 70
    20
  9
$DWGCODEPAGE
  3
ANSI_1252
  9
$REQUIREDVERSIONS
160
                 0
  9
$INSBASE
 10
0.0
 20
0.0
 30
0.0
  9
$EXTMIN
 10
711.1639074331893
 20
1631.745878720054
 30
-0.00000001
  9
$EXTMAX
 10
1184.114353943098
 20
2065.397040377
 30
0.00000001
  9
$LIMMIN
 10
0.0
 20
0.0
  9
$LIMMAX
 10
12.0
 20
9.0
  9
$ORTHOMODE
 70
     0
  9
$REGENMODE
 70
     1
  9
$FILLMODE
 70
     1
  9
$QTEXTMODE
 70
     0
  9
$MIRRTEXT
 70
     0
  9
$LTSCALE
 40
1.0
  9
$ATTMODE
 70
     1
  9
$TEXTSIZE
 40
0.2
  9
$TRACEWID
 40
0.05
  9
$TEXTSTYLE
  7
Standard
  9
$CLAYER
  8
0
  9
$CELTYPE
  6
ByLayer
  9
$CECOLOR
 62
   256
  9
$CELTSCALE
 40
1.0
  9
$DISPSILH
 70
     0
  9
$DIMSCALE
 40
1.0
  9
$DIMASZ
 40
0.18
  9
$DIMEXO
 40
0.0625
  9
$DIMDLI
 40
0.38
  9
$DIMRND
 40
0.0
  9
$DIMDLE
 40
0.0
  9
$DIMEXE
 40
0.18
  9
$DIMTP
 40
0.0
  9
$DIMTM
 40
0.0
  9
$DIMTXT
 40
0.18
  9
$DIMCEN
 40
0.09
  9
$DIMTSZ
 40
0.0
  9
$DIMTOL
 70
     0
  9
$DIMLIM
 70
     0
  9
$DIMTIH
 70
     1
  9
$DIMTOH
 70
     1
  9
$DIMSE1
 70
     0
  9
$DIMSE2
 70
     0
  9
$DIMTAD
 70
     0
  9
$DIMZIN
 70
     0
  9
$DIMBLK
  1

  9
$DIMASO
 70
     1
  9
$DIMSHO
 70
     1
  9
$DIMPOST
  1

  9
$DIMAPOST
  1

  9
$DIMALT
 70
     0
  9
$DIMALTD
 70
     2
  9
$DIMALTF
 40
25.4
  9
$DIMLFAC
 40
1.0
  9
$DIMTOFL
 70
     0
  9
$DIMTVP
 40
0.0
  9
$DIMTIX
 70
     0
  9
$DIMSOXD
 70
     0
  9
$DIMSAH
 70
     0
  9
$DIMBLK1
  1

  9
$DIMBLK2
  1

  9
$DIMSTYLE
  2
Standard
  9
$DIMCLRD
 70
     0
  9
$DIMCLRE
 70
     0
  9
$DIMCLRT
 70
     0
  9
$DIMTFAC
 40
1.0
  9
$DIMGAP
 40
0.09
  9
$DIMJUST
 70
     0
  9
$DIMSD1
 70
     0
  9
$DIMSD2
 70
     0
  9
$DIMTOLJ
 70
     1
  9
$DIMTZIN
 70
     0
  9
$DIMALTZ
 70
     0
  9
$DIMALTTZ
 70
     0
  9
$DIMUPT
 70
     0
  9
$DIMDEC
 70
     4
  9
$DIMTDEC
 70
     4
  9
$DIMALTU
 70
     2
  9
$DIMALTTD
 70
     2
  9
$DIMTXSTY
  7
Standard
  9
$DIMAUNIT
 70
     0
  9
$DIMADEC
 70
     0
  9
$DIMALTRND
 40
0.0
  9
$DIMAZIN
 70
     0
  9
$DIMDSEP
 70
    46
  9
$DIMATFIT
 70
     3
  9
$DIMFRAC
 70
     0
  9
$DIMLDRBLK
  1

  9
$DIMLUNIT
 70
     2
  9
$DIMLWD
 70
    -2
  9
$DIMLWE
 70
    -2
  9
$DIMTMOVE
 70
     0
  9
$DIMFXL
 40
1.0
  9
$DIMFXLON
 70
     0
  9
$DIMJOGANG
 40
0.7853981633974483
  9
$DIMTFILL
 70
     0
  9
$DIMTFILLCLR
 70
     0
  9
$DIMARCSYM
 70
     0
  9
$DIMLTYPE
  6

  9
$DIMLTEX1
  6

  9
$DIMLTEX2
  6

  9
$DIMTXTDIRECTION
 70
     0
  9
$LUNITS
 70
     2
  9
$LUPREC
 70
     4
  9
$SKETCHINC
 40
0.1
  9
$FILLETRAD
 40
0.0
  9
$AUNITS
 70
     0
  9
$AUPREC
 70
     0
  9
$MENU
  1
.
  9
$ELEVATION
 40
0.0
  9
$PELEVATION
 40
0.0
  9
$THICKNESS
 40
0.0
  9
$LIMCHECK
 70
     0
  9
$CHAMFERA
 40
0.0
  9
$CHAMFERB
 40
0.0
  9
$CHAMFERC
 40
0.0
  9
$CHAMFERD
 40
0.0
  9
$SKPOLY
 70
     0
  9
$TDCREATE
 40
2457589.347150741
  9
$TDUCREATE
 40
2457589.263817407
  9
$TDUPDATE
 40
2457589.347150741
  9
$TDUUPDATE
 40
2457589.263817407
  9
$TDINDWG
 40
0.0000146181
  9
$TDUSRTIMER
 40
0.0000146181
  9
$USRTIMER
 70
     1
  9
$ANGBASE
 50
0.0
  9
$ANGDIR
 70
     0
  9
$PDMODE
 70
     0
  9
$PDSIZE
 40
0.0
  9
$PLINEWID
 40
0.0
  9
$SPLFRAME
 70
     0
  9
$SPLINETYPE
 70
     6
  9
$SPLINESEGS
 70
     8
  9
$HANDSEED
  5
2C8
  9
$SURFTAB1
 70
     6
  9
$SURFTAB2
 70
     6
  9
$SURFTYPE
 70
     6
  9
$SURFU
 70
     6
  9
$SURFV
 70
     6
  9
$UCSBASE
  2

  9
$UCSNAME
  2

  9
$UCSORG
 10
0.0
 20
0.0
 30
0.0
  9
$UCSXDIR
 10
1.0
 20
0.0
 30
0.0
  9
$UCSYDIR
 10
0.0
 20
1.0
 30
0.0
  9
$UCSORTHOREF
  2

  9
$UCSORTHOVIEW
 70
     0
  9
$UCSORGTOP
 10
0.0
 20
0.0
 30
0.0
  9
$UCSORGBOTTOM
 10
0.0
 20
0.0
 30
0.0
  9
$UCSORGLEFT
 10
0.0
 20
0.0
 30
0.0
  9
$UCSORGRIGHT
 10
0.0
 20
0.0
 30
0.0
  9
$UCSORGFRONT
 10
0.0
 20
0.0
 30
0.0
  9
$UCSORGBACK
 10
0.0
 20
0.0
 30
0.0
  9
$PUCSBASE
  2

  9
$PUCSNAME
  2

  9
$PUCSORG
 10
0.0
 20
0.0
 30
0.0
  9
$PUCSXDIR
 10
1.0
 20
0.0
 30
0.0
  9
$PUCSYDIR
 10
0.0
 20
1.0
 30
0.0
  9
$PUCSORTHOREF
  2

  9
$PUCSORTHOVIEW
 70
     0
  9
$PUCSORGTOP
 10
0.0
 20
0.0
 30
0.0
  9
$PUCSORGBOTTOM
 10
0.0
 20
0.0
 30
0.0
  9
$PUCSORGLEFT
 10
0.0
 20
0.0
 30
0.0
  9
$PUCSORGRIGHT
 10
0.0
 20
0.0
 30
0.0
  9
$PUCSORGFRONT
 10
0.0
 20
0.0
 30
0.0
  9
$PUCSORGBACK
 10
0.0
 20
0.0
 30
0.0
  9
$USERI1
 70
     0
  9
$USERI2
 70
     0
  9
$USERI3
 70
     0
  9
$USERI4
 70
     0
  9
$USERI5
 70
     0
  9
$USERR1
 40
0.0
  9
$USERR2
 40
0.0
  9
$USERR3
 40
0.0
  9
$USERR4
 40
0.0
  9
$USERR5
 40
0.0
  9
$WORLDVIEW
 70
     1
  9
$SHADEDGE
 70
     3
  9
$SHADEDIF
 70
    70
  9
$TILEMODE
 70
     1
  9
$MAXACTVP
 70
    64
  9
$PINSBASE
 10
0.0
 20
0.0
 30
0.0
  9
$PLIMCHECK
 70
     0
  9
$PEXTMIN
 10
1.000000000000000E+20
 20
1.000000000000000E+20
 30
1.000000000000000E+20
  9
$PEXTMAX
 10
-1.000000000000000E+20
 20
-1.000000000000000E+20
 30
-1.000000000000000E+20
  9
$PLIMMIN
 10
0.0
 20
0.0
  9
$PLIMMAX
 10
12.0
 20
9.0
  9
$UNITMODE
 70
     0
  9
$VISRETAIN
 70
     1
  9
$PLINEGEN
 70
     0
  9
$PSLTSCALE
 70
     1
  9
$TREEDEPTH
 70
  3020
  9
$CMLSTYLE
  2
Standard
  9
$CMLJUST
 70
     0
  9
$CMLSCALE
 40
1.0
  9
$PROXYGRAPHICS
 70
     1
  9
$MEASUREMENT
 70
     1
  9
$CELWEIGHT
370
    -1
  9
$ENDCAPS
280
     0
  9
$JOINSTYLE
280
     0
  9
$LWDISPLAY
290
     0
  9
$INSUNITS
 70
     4
  9
$HYPERLINKBASE
  1

  9
$STYLESHEET
  1

  9
$XEDIT
290
     1
  9
$CEPSNTYPE
380
     0
  9
$PSTYLEMODE
290
     1
  9
$FINGERPRINTGUID
  2
{7E265700-1DFE-4729-8289-FE6CA888AEF1}
  9
$VERSIONGUID
  2
{5BA1A1A4-4DB1-4A77-B90A-A549A442E7D6}
  9
$EXTNAMES
290
     1
  9
$PSVPSCALE
 40
0.0
  9
$OLESTARTUP
290
     0
  9
$SORTENTS
280
   127
  9
$INDEXCTL
280
     0
  9
$HIDETEXT
280
     1
  9
$XCLIPFRAME
280
     2
  9
$HALOGAP
280
     0
  9
$OBSCOLOR
 70
   257
  9
$OBSLTYPE
280
     0
  9
$INTERSECTIONDISPLAY
280
     0
  9
$INTERSECTIONCOLOR
 70
   257
  9
$DIMASSOC
280
     2
  9
$PROJECTNAME
  1

  9
$CAMERADISPLAY
290
     0
  9
$LENSLENGTH
 40
50.0
  9
$CAMERAHEIGHT
 40
0.0
  9
$STEPSPERSEC
 40
2.0
  9
$STEPSIZE
 40
6.0
  9
$3DDWFPREC
 40
2.0
  9
$PSOLWIDTH
 40
0.25
  9
$PSOLHEIGHT
 40
4.0
  9
$LOFTANG1
 40
1.570796326794896
  9
$LOFTANG2
 40
1.570796326794896
  9
$LOFTMAG1
 40
0.0
  9
$LOFTMAG2
 40
0.0
  9
$LOFTPARAM
 70
     7
  9
$LOFTNORMALS
280
     1
  9
$LATITUDE
 40
37.795
  9
$LONGITUDE
 40
-122.394
  9
$NORTHDIRECTION
 40
0.0
  9
$TIMEZONE
 70
 -8000
  9
$LIGHTGLYPHDISPLAY
280
     1
  9
$TILEMODELIGHTSYNCH
280
     1
  9
$CMATERIAL
347
11
  9
$SOLIDHIST
280
     0
  9
$SHOWHIST
280
     1
  9
$DWFFRAME
280
     2
  9
$DGNFRAME
280
     0
  9
$REALWORLDSCALE
290
     1
  9
$INTERFERECOLOR
 62
     1
  9
$INTERFEREOBJVS
345
33
  9
$INTERFEREVPVS
346
30
  9
$CSHADOW
280
     0
  9
$SHADOWPLANELOCATION
 40
0.0
  0
ENDSEC
  0
SECTION
  2
CLASSES
  0
CLASS
  1
ACDBDICTIONARYWDFLT
  2
AcDbDictionaryWithDefault
  3
ObjectDBX Classes
 90
        0
 91
        1
280
     0
281
     0
  0
CLASS
  1
MATERIAL
  2
AcDbMaterial
  3
ObjectDBX Classes
 90
     1153
 91
        3
280
     0
281
     0
  0
CLASS
  1
VISUALSTYLE
  2
AcDbVisualStyle
  3
ObjectDBX Classes
 90
     4095
 91
       24
280
     0
281
     0
  0
CLASS
  1
SCALE
  2
AcDbScale
  3
ObjectDBX Classes
 90
     1153
 91
       17
280
     0
281
     0
  0
CLASS
  1
TABLESTYLE
  2
AcDbTableStyle
  3
ObjectDBX Classes
 90
     4095
 91
        1
280
     0
281
     0
  0
CLASS
  1
MLEADERSTYLE
  2
AcDbMLeaderStyle
  3
ACDB_MLEADERSTYLE_CLASS
 90
     4095
 91
        1
280
     0
281
     0
  0
CLASS
  1
ACDBSECTIONVIEWSTYLE
  2
AcDbSectionViewStyle
  3
ObjectDBX Classes
 90
     1025
 91
        1
280
     0
281
     0
  0
CLASS
  1
ACDBDETAILVIEWSTYLE
  2
AcDbDetailViewStyle
  3
ObjectDBX Classes
 90
     1025
 91
        1
280
     0
281
     0
  0
CLASS
  1
RASTERVARIABLES
  2
AcDbRasterVariables
  3
ISM
 90
        0
 91
        1
280
     0
281
     0
  0
CLASS
  1
DICTIONARYVAR
  2
AcDbDictionaryVar
  3
ObjectDBX Classes
 90
        0
 91
        5
280
     0
281
     0
  0
CLASS
  1
CELLSTYLEMAP
  2
AcDbCellStyleMap
  3
ObjectDBX Classes
 90
     1152
 91
        2
280
     0
281
     0
  0
CLASS
  1
SORTENTSTABLE
  2
AcDbSortentsTable
  3
ObjectDBX Classes
 90
        0
 91
        1
280
     0
281
     0
  0
ENDSEC
  0
SECTION
  2
TABLES
  0
TABLE
  2
VPORT
  5
8
330
0
100
AcDbSymbolTable
 70
     1
  0
VPORT
  5
57
330
8
100
AcDbSymbolTableRecord
100
AcDbViewportTableRecord
  2
*Active
 70
     0
 10
0.0
 20
0.0
 11
1.0
 21
1.0
 12
947.6391306881435
 22
1848.571459548526
 13
0.0
 23
0.0
 14
1.0
 24
1.0
 15
0.0
 25
0.0
 16
0.0
 26
0.0
 36
1.0
 17
0.0
 27
0.0
 37
0.0
 40
433.6511616569455
 41
1.09062418904357
 42
50.0
 43
0.0
 44
0.0
 50
0.0
 51
0.0
 71
     0
 72
  1000
 73
     1
 74
     1
 75
     0
 76
     0
 77
     0
 78
     0
281
     0
 65
     1
110
0.0
120
0.0
130
0.0
111
1.0
121
0.0
131
0.0
112
0.0
122
1.0
132
0.0
 79
     0
146
0.0
 60
     3
 61
     5
292
     1
282
     1
141
0.0
142
0.0
 63
   250
421
  3355443
  0
ENDTAB
  0
TABLE
  2
LTYPE
  5
5
330
0
100
AcDbSymbolTable
 70
     3
  0
LTYPE
  5
5B
330
5
100
AcDbSymbolTableRecord
100
AcDbLinetypeTableRecord
  2
ByBlock
 70
     0
  3

 72
    65
 73
     0
 40
0.0
  0
LTYPE
  5
5C
330
5
100
AcDbSymbolTableRecord
100
AcDbLinetypeTableRecord
  2
ByLayer
 70
     0
  3

 72
    65
 73
     0
 40
0.0
  0
LTYPE
  5
5D
330
5
100
AcDbSymbolTableRecord
100
AcDbLinetypeTableRecord
  2
Continuous
 70
     0
  3
Solid line
 72
    65
 73
     0
 40
0.0
  0
LTYPE
  5
69
330
5
100
AcDbSymbolTableRecord
100
AcDbLinetypeTableRecord
  2
PHANTOM2
 70
     0
  3
___ _ _ ___ _ _ ___ _ _ ___ _ _
 72
    65
 73
     6
 40
1.25
 49
0.625
 74
     0
 49
-0.125
 74
     0
 49
0.125
 74
     0
 49
-0.125
 74
     0
 49
0.125
 74
     0
 49
-0.125
 74
     0
  0
LTYPE
  5
86
330
5
100
AcDbSymbolTableRecord
100
AcDbLinetypeTableRecord
  2
Nascosto 1_5 mm
 70
     0
  3

 72
    65
 73
     2
 40
2.2
 49
1.5
 74
     0
 49
-0.7000000000000001
 74
     0
  0
ENDTAB
  0
TABLE
  2
LAYER
  5
2
330
0
100
AcDbSymbolTable
 70
     3
  0
LAYER
  5
54
330
2
100
AcDbSymbolTableRecord
100
AcDbLayerTableRecord
  2
0
 70
     0
 62
     7
  6
Continuous
370
    -3
390
F
347
21
348
0
  0
LAYER
  5
85
330
2
100
AcDbSymbolTableRecord
100
AcDbLayerTableRecord
  2
P-SANR-FIXT
 70
     0
 62
     6
  6
Continuous
370
    18
390
F
347
21
348
0
  0
ENDTAB
  0
TABLE
  2
STYLE
  5
3
330
0
100
AcDbSymbolTable
 70
     2
  0
STYLE
  5
55
330
3
100
AcDbSymbolTableRecord
100
AcDbTextStyleTableRecord
  2
Standard
 70
     0
 40
0.0
 41
1.0
 50
0.0
 71
     0
 42
0.2
  3
txt
  4

  0
STYLE
  5
5A
330
3
100
AcDbSymbolTableRecord
100
AcDbTextStyleTableRecord
  2
Annotative
 70
     0
 40
0.0
 41
1.0
 50
0.0
 71
     0
 42
0.2
  3
txt
  4

1001
AcadAnnotative
1000
AnnotativeData
1002
{
1070
     1
1070
     1
1002
}
  0
ENDTAB
  0
TABLE
  2
VIEW
  5
6
330
0
100
AcDbSymbolTable
 70
     0
  0
ENDTAB
  0
TABLE
  2
UCS
  5
7
330
0
100
AcDbSymbolTable
 70
     0
  0
ENDTAB
  0
TABLE
  2
APPID
  5
9
330
0
100
AcDbSymbolTable
 70
     3
  0
APPID
  5
56
330
9
100
AcDbSymbolTableRecord
100
AcDbRegAppTableRecord
  2
ACAD
 70
     0
  0
APPID
  5
5E
330
9
100
AcDbSymbolTableRecord
100
AcDbRegAppTableRecord
  2
AcadAnnotative
 70
     0
  0
APPID
  5
79
330
9
100
AcDbSymbolTableRecord
100
AcDbRegAppTableRecord
  2
REVIT
 70
     0
  0
ENDTAB
  0
TABLE
  2
DIMSTYLE
  5
A
330
0
100
AcDbSymbolTable
 70
     2
100
AcDbDimStyleTable
 71
     0
  0
DIMSTYLE
105
58
330
A
100
AcDbSymbolTableRecord
100
AcDbDimStyleTableRecord
  2
Standard
 70
     0
340
55
  0
DIMSTYLE
105
59
330
A
100
AcDbSymbolTableRecord
100
AcDbDimStyleTableRecord
  2
Annotative
 70
     0
340
55
1001
AcadAnnotative
1000
AnnotativeData
1002
{
1070
     1
1070
     1
1002
}
  0
ENDTAB
  0
TABLE
  2
BLOCK_RECORD
  5
1
330
0
100
AcDbSymbolTable
 70
     4
  0
BLOCK_RECORD
  5
71
102
{ACAD_XDICTIONARY
360
2C3
102
}
330
1
100
AcDbSymbolTableRecord
100
AcDbBlockTableRecord
  2
*Model_Space
340
74
 70
     0
280
     1
281
     0
  0
BLOCK_RECORD
  5
6D
330
1
100
AcDbSymbolTableRecord
100
AcDbBlockTableRecord
  2
*Paper_Space
340
70
 70
     0
280
     1
281
     0
  0
BLOCK_RECORD
  5
75
330
1
100
AcDbSymbolTableRecord
100
AcDbBlockTableRecord
  2
*Paper_Space0
340
78
 70
     0
280
     1
281
     0
  0
BLOCK_RECORD
  5
87
330
1
100
AcDbSymbolTableRecord
100
AcDbBlockTableRecord
  2
Automatic flow rate regulator valve_Caleffi_121 DN15 - 1_2__-859151-Est - Idraulica
340
0
102
{BLKREFS
331
163
102
}
 70
     0
280
     1
281
     0
  0
BLOCK_RECORD
  5
164
330
1
100
AcDbSymbolTableRecord
100
AcDbBlockTableRecord
  2
Automatic flow rate regulator valve_Caleffi_121 DN15 - 1_2__-V1-Est - Idraulica
340
0
102
{BLKREFS
331
1BD
102
}
 70
     0
280
     1
281
     0
  0
BLOCK_RECORD
  5
1BE
330
1
100
AcDbSymbolTableRecord
100
AcDbBlockTableRecord
  2
Automatic flow rate regulator valve_Caleffi_121 DN15 - 1_2__-V2-Est - Idraulica
340
0
102
{BLKREFS
331
2BD
102
}
 70
     0
280
     1
281
     0
  0
ENDTAB
  0
ENDSEC
  0
SECTION
  2
BLOCKS
  0
BLOCK
  5
72
330
71
100
AcDbEntity
  8
0
100
AcDbBlockBegin
  2
*Model_Space
 70
     0
 10
0.0
 20
0.0
 30
0.0
  3
*Model_Space
  1

  0
ENDBLK
  5
73
330
71
100
AcDbEntity
  8
0
100
AcDbBlockEnd
  0
BLOCK
  5
6E
330
6D
100
AcDbEntity
 67
     1
  8
0
100
AcDbBlockBegin
  2
*Paper_Space
 70
     0
 10
0.0
 20
0.0
 30
0.0
  3
*Paper_Space
  1

  0
ENDBLK
  5
6F
330
6D
100
AcDbEntity
 67
     1
  8
0
100
AcDbBlockEnd
  0
BLOCK
  5
76
330
75
100
AcDbEntity
 67
     1
  8
0
100
AcDbBlockBegin
  2
*Paper_Space0
 70
     0
 10
0.0
 20
0.0
 30
0.0
  3
*Paper_Space0
  1

  0
ENDBLK
  5
77
330
75
100
AcDbEntity
 67
     1
  8
0
100
AcDbBlockEnd
  0
BLOCK
  5
161
330
87
100
AcDbEntity
  8
0
100
AcDbBlockBegin
  2
Automatic flow rate regulator valve_Caleffi_121 DN15 - 1_2__-859151-Est - Idraulica
 70
     0
 10
0.0
 20
0.0
 30
0.0
  3
Automatic flow rate regulator valve_Caleffi_121 DN15 - 1_2__-859151-Est - Idraulica
  1

  0
LINE
  5
88
330
87
100
AcDbEntity
  8
P-SANR-FIXT
100
AcDbLine
 10
745.4558509551382
 20
1973.896058624678
 30
0.0
 11
747.4035030800309
 21
1973.896058624678
 31
0.0
  0
LINE
  5
89
330
87
100
AcDbEntity
  8
P-SANR-FIXT
100
AcDbLine
 10
747.4035030800309
 20
2026.103941375312
 30
0.0
 11
745.4558509551392
 21
2026.103941375312
 31
0.0
  0
LWPOLYLINE
  5
8A
330
87
100
AcDbEntity
  8
P-SANR-FIXT
100
AcDbPolyline
 90
       20
 70
   128
 43
0.0
 10
719.7996412595982
 20
1997.468702639519
 10
719.8293096082307
 20
1997.625917066141
 10
719.8526673251038
 20
1997.784192155499
 10
719.8696770428531
 20
1997.943274701213
 10
719.8803115495584
 20
1998.102910205146
 10
719.8845538322781
 20
1998.262843284545
 10
719.8823971042642
 20
1998.4228180806
 10
719.873844815822
 20
1998.582578667764
 10
719.8589106487884
 20
1998.741869463179
 10
719.8376184946449
 20
1998.90043563555
 10
719.8100024162958
 20
1999.05802351283
 10
719.7761065935758
 20
1999.214380988029
 10
719.73598525257
 20
1999.369257922544
 10
719.6897025788656
 20
1999.522406546316
 10
719.6373326148675
 20
1999.673581854219
 10
719.5789591413462
 20
1999.822541998009
 10
719.5146755434069
 20
1999.969048673231
 10
719.4445846610935
 20
2000.11286750046
 10
719.3687986248658
 20
2000.253768400249
 10
719.3487404455636
 20
2000.288919671515
  0
LINE
  5
8B
330
87
100
AcDbEntity
  8
P-SANR-FIXT
100
AcDbLine
 10
712.8026915109598
 20
2011.62700901508
 30
0.0
 11
719.3487404455636
 21
2000.288919671515
 31
0.0
  0
LWPOLYLINE
  5
8C
330
87
100
AcDbEntity
  8
P-SANR-FIXT
100
AcDbPolyline
 90
       15
 70
   128
 43
0.0
 10
712.8026915109598
 20
2011.62700901508
 10
712.6386250282579
 20
2011.924778685703
 10
712.4865973921117
 20
2012.228871081755
 10
712.3468518143085
 20
2012.538799720271
 10
712.2196118579617
 20
2012.854068781547
 10
712.1050810798585
 20
2013.174173902337
 10
712.0034427048118
 20
2013.498602982733
 10
711.9148593325403
 20
2013.826837005414
 10
711.8394726775427
 20
2014.158350865965
 10
711.7774033423851
 20
2014.492614212926
 10
711.7287506247635
 20
2014.829092296249
 10
711.693592358647
 20
2015.167246822779
 10
711.6719847897615
 20
2015.506536817408
 10
711.6639624856079
 20
2015.846419488523
 10
711.6639074431276
 20
2015.87700901508
  0
LINE
  5
8D
330
87
100
AcDbEntity
  8
P-SANR-FIXT
100
AcDbLine
 10
744.663907443254
 20
2025.94046675602
 30
0.0
 11
744.663907443254
 21
2038.500000000032
 31
0.0
  0
LINE
  5
8E
330
87
100
AcDbEntity
  8
P-SANR-FIXT
100
AcDbLine
 10
711.6639074431276
 20
2038.500000000032
 30
0.0
 11
711.6639074431276
 21
2015.87700901508
 31
0.0
  0
LINE
  5
8F
330
87
100
AcDbEntity
  8
P-SANR-FIXT
100
AcDbLine
 10
744.663907443254
 20
2038.500000000032
 30
0.0
 11
745.1639074431908
 21
2039.366025403708
 31
0.0
  0
LINE
  5
90
330
87
100
AcDbEntity
  8
P-SANR-FIXT
100
AcDbLine
 10
711.1639074431907
 20
2039.366025403708
 30
0.0
 11
711.6639074431276
 21
2038.500000000032
 31
0.0
  0
LINE
  5
91
330
87
100
AcDbEntity
  8
P-SANR-FIXT
100
AcDbLine
 10
745.1639074431908
 20
2039.366025403708
 30
0.0
 11
745.1639074431908
 21
2047.422649730843
 31
0.0
  0
LINE
  5
92
330
87
100
AcDbEntity
  8
P-SANR-FIXT
100
AcDbLine
 10
711.1639074431907
 20
2047.422649730843
 30
0.0
 11
711.1639074431907
 21
2039.366025403708
 31
0.0
  0
LINE
  5
93
330
87
100
AcDbEntity
  8
P-SANR-FIXT
100
AcDbLine
 10
745.1639074431908
 20
2047.422649730843
 30
0.0
 11
745.0988134540867
 21
2047.460231762975
 31
0.0
  0
LINE
  5
94
330
87
100
AcDbEntity
  8
P-SANR-FIXT
100
AcDbLine
 10
745.0820477966181
 20
2047.469911419828
 30
0.0
 11
744.1639074431907
 21
2048.000000000033
 31
0.0
  0
LINE
  5
95
330
87
100
AcDbEntity
  8
P-SANR-FIXT
100
AcDbLine
 10
712.1639074431907
 20
2048.000000000033
 30
0.0
 11
711.2457670897633
 21
2047.469911419828
 31
0.0
  0
LINE
  5
96
330
87
100
AcDbEntity
  8
P-SANR-FIXT
100
AcDbLine
 10
711.2290014322947
 20
2047.460231762975
 30
0.0
 11
711.1639074431907
 21
2047.422649730843
 31
0.0
  0
LINE
  5
97
330
87
100
AcDbEntity
  8
P-SANR-FIXT
100
AcDbLine
 10
744.1639074431907
 20
1951.999999999959
 30
0.0
 11
745.0820477966179
 21
1952.530088580164
 31
0.0
  0
LINE
  5
98
330
87
100
AcDbEntity
  8
P-SANR-FIXT
100
AcDbLine
 10
745.0988134540865
 20
1952.539768237016
 30
0.0
 11
745.1639074431908
 21
1952.577350269148
 31
0.0
  0
LINE
  5
99
330
87
100
AcDbEntity
  8
P-SANR-FIXT
100
AcDbLine
 10
711.1639074431912
 20
1952.577350269148
 30
0.0
 11
711.2290014322955
 21
1952.539768237016
 31
0.0
  0
LINE
  5
9A
330
87
100
AcDbEntity
  8
P-SANR-FIXT
100
AcDbLine
 10
711.2457670897638
 20
1952.530088580164
 30
0.0
 11
712.1639074431913
 21
1951.999999999959
 31
0.0
  0
LINE
  5
9B
330
87
100
AcDbEntity
  8
P-SANR-FIXT
100
AcDbLine
 10
745.1639074431905
 20
1952.577350269148
 30
0.0
 11
745.1639074431905
 21
1960.633974596214
 31
0.0
  0
LINE
  5
9C
330
87
100
AcDbEntity
  8
P-SANR-FIXT
100
AcDbLine
 10
711.1639074431912
 20
1960.633974596214
 30
0.0
 11
711.1639074431912
 21
1952.577350269148
 31
0.0
  0
LINE
  5
9D
330
87
100
AcDbEntity
  8
P-SANR-FIXT
100
AcDbLine
 10
745.1639074431908
 20
1960.633974596214
 30
0.0
 11
744.6639074432139
 21
1961.499999999959
 31
0.0
  0
LINE
  5
9E
330
87
100
AcDbEntity
  8
P-SANR-FIXT
100
AcDbLine
 10
711.663907443168
 20
1961.499999999958
 30
0.0
 11
711.1639074431912
 21
1960.633974596214
 31
0.0
  0
LINE
  5
9F
330
87
100
AcDbEntity
  8
P-SANR-FIXT
100
AcDbLine
 10
744.6639074432139
 20
1961.499999999959
 30
0.0
 11
744.6639074432139
 21
1971.999999999936
 31
0.0
  0
LINE
  5
A0
330
87
100
AcDbEntity
  8
P-SANR-FIXT
100
AcDbLine
 10
711.663907443168
 20
1971.999999999935
 30
0.0
 11
711.663907443168
 21
1961.499999999958
 31
0.0
  0
LWPOLYLINE
  5
A1
330
87
100
AcDbEntity
  8
P-SANR-FIXT
100
AcDbPolyline
 90
       12
 70
   128
 43
0.0
 10
744.663907443254
 20
2025.94046675602
 10
744.7379823407855
 20
2025.970667025354
 10
744.8132056749626
 20
2025.997880931863
 10
744.8894571044978
 20
2026.0220649391
 10
744.9666146433696
 20
2026.043180357812
 10
745.0445548559756
 20
2026.061193407835
 10
745.1231530546018
 20
2026.07607527213
 10
745.202283498897
 20
2026.087802142891
 10
745.2818195970307
 20
2026.096355259623
 10
745.3616341082125
 20
2026.101720939167
 10
745.441599346251
 20
2026.103890597579
 10
745.4558509551392
 20
2026.103941375312
  0
LWPOLYLINE
  5
A2
330
87
100
AcDbEntity
  8
P-SANR-FIXT
100
AcDbPolyline
 90
       10
 70
   128
 43
0.0
 10
745.4558509551382
 20
1973.896058624677
 10
745.3758722867649
 20
1973.897658411355
 10
745.2960215671999
 20
1973.902455212072
 10
745.2164265405603
 20
1973.91044135297
 10
745.1372145419096
 20
1973.921604057926
 10
745.0585122935482
 20
1973.935925468995
 10
744.980445702284
 20
1973.953382674973
 10
744.90313965801
 20
1973.973947748056
 10
744.826717833906
 20
1973.997587788512
 10
744.7513024885881
 20
1974.024264977321
  0
LINE
  5
A3
330
87
100
AcDbEntity
  8
P-SANR-FIXT
100
AcDbLine
 10
712.1639074431893
 20
2048.000000000032
 30
0.0
 11
744.1639074431893
 21
2048.000000000032
 31
0.0
  0
SPLINE
  5
A4
330
87
100
AcDbEntity
  8
P-SANR-FIXT
100
AcDbSpline
210
0.0
220
0.0
230
1.0
 70
     8
 71
     3
 72
    17
 73
    13
 74
     0
 42
0.000000001
 43
0.0000000001
 40
0.1135296923266417
 40
0.1135296923266417
 40
0.1135296923266417
 40
0.1135296923266417
 40
0.1666666666666666
 40
0.25
 40
0.3333333333333333
 40
0.4166666666666666
 40
0.5
 40
0.5833333333333333
 40
0.6666666666666666
 40
0.75
 40
0.8333333333333332
 40
1.0
 40
1.0
 40
1.0
 40
1.0
 10
726.802300866885
 20
2001.446839570033
 30
0.0
 10
726.9682685954546
 20
2001.630418092686
 30
0.0
 10
727.4014554825533
 20
2002.105429511819
 30
0.0
 10
728.1211840624025
 20
2002.885191299258
 30
0.0
 10
728.9625304953507
 20
2003.791013867475
 30
0.0
 10
729.7951717002338
 20
2004.721656419166
 30
0.0
 10
730.6108415741419
 20
2005.67593731536
 30
0.0
 10
731.4279045644566
 20
2006.645742635109
 30
0.0
 10
732.2685254462903
 20
2007.622958457469
 30
0.0
 10
733.1320583894984
 20
2008.606403143466
 30
0.0
 10
734.2781064169233
 20
2009.933810457939
 30
0.0
 10
735.1319440070282
 20
2010.945326417497
 30
0.0
 10
735.6919894151164
 20
2011.62700901508
 30
0.0
  0
SPLINE
  5
A5
330
87
100
AcDbEntity
  8
P-SANR-FIXT
100
AcDbSpline
210
0.0
220
0.0
230
1.0
 70
     8
 71
     3
 72
    10
 73
     6
 74
     0
 42
0.000000001
 43
0.0000000001
 40
0.0
 40
0.0
 40
0.0
 40
0.0
 40
0.3333333333333333
 40
0.6666666666666666
 40
1.0
 40
1.0
 40
1.0
 40
1.0
 10
735.6919894151164
 20
2011.62700901508
 30
0.0
 10
736.0605628732596
 20
2012.064614492653
 30
0.0
 10
736.7787158844614
 20
2012.978643036873
 30
0.0
 10
737.7352667285752
 20
2014.425321259249
 30
0.0
 10
738.3003227951853
 20
2015.396261214752
 30
0.0
 10
738.5559159707979
 20
2015.877009015079
 30
0.0
  0
SPLINE
  5
A6
330
87
100
AcDbEntity
  8
P-SANR-FIXT
100
AcDbSpline
210
0.0
220
0.0
230
1.0
 70
     8
 71
     3
 72
    17
 73
    13
 74
     0
 42
0.000000001
 43
0.0000000001
 40
0.0
 40
0.0
 40
0.0
 40
0.0
 40
0.1666666666666666
 40
0.25
 40
0.3333333333333333
 40
0.4166666666666666
 40
0.5
 40
0.5833333333333333
 40
0.6666666666666666
 40
0.75
 40
0.8333333333333332
 40
1.0
 40
1.0
 40
1.0
 40
1.0
 10
738.5559159707979
 20
2015.877009015079
 30
0.0
 10
738.8939306229198
 20
2016.52114732414
 30
0.0
 10
739.4106789150633
 20
2017.461109731206
 30
0.0
 10
740.1042130268852
 20
2018.66390701201
 30
0.0
 10
740.6229812059637
 20
2019.536753639444
 30
0.0
 10
741.1334232342937
 20
2020.396382409153
 30
0.0
 10
741.6314527501766
 20
2021.239572310443
 30
0.0
 10
742.114842675432
 20
2022.044205736565
 30
0.0
 10
742.5800071474388
 20
2022.788165080767
 30
0.0
 10
743.0199082194
 20
2023.468229332356
 30
0.0
 10
743.5603311649996
 20
2024.311166178251
 30
0.0
 10
743.9027644952998
 20
2024.865563833629
 30
0.0
 10
744.0918542350134
 20
2025.201250341339
 30
0.0
  0
SPLINE
  5
A7
330
87
100
AcDbEntity
  8
P-SANR-FIXT
100
AcDbSpline
210
0.0
220
0.0
230
1.0
 70
     8
 71
     3
 72
     9
 73
     5
 74
     0
 42
0.000000001
 43
0.0000000001
 40
0.0
 40
0.0
 40
0.0
 40
0.0
 40
0.5
 40
1.0
 40
1.0
 40
1.0
 40
1.0
 10
744.0918542350134
 20
2025.201250341339
 30
0.0
 10
744.2742548465735
 20
2025.459782153685
 30
0.0
 10
744.5604987497705
 20
2025.841516701812
 30
0.0
 10
744.6639074432527
 20
2025.952593096806
 30
0.0
 10
744.6639074432527
 20
2025.940466756019
 30
0.0
  0
LINE
  5
A8
330
87
100
AcDbEntity
  8
P-SANR-FIXT
100
AcDbLine
 10
744.6639074432527
 20
2038.500000000032
 30
0.0
 11
711.6639074431262
 21
2038.500000000032
 31
0.0
  0
LINE
  5
A9
330
87
100
AcDbEntity
  8
P-SANR-FIXT
100
AcDbLine
 10
745.1639074431895
 20
2039.366025403707
 30
0.0
 11
711.1639074431893
 21
2039.366025403706
 31
0.0
  0
LINE
  5
AA
330
87
100
AcDbEntity
  8
P-SANR-FIXT
100
AcDbLine
 10
745.1639074431893
 20
2047.422649730842
 30
0.0
 11
711.1639074431893
 21
2047.422649730842
 31
0.0
  0
LINE
  5
AB
330
87
100
AcDbEntity
  8
P-SANR-FIXT
100
AcDbLine
 10
744.1639074431892
 20
1951.999999999958
 30
0.0
 11
712.1639074431898
 21
1951.999999999958
 31
0.0
  0
LINE
  5
AC
330
87
100
AcDbEntity
  8
P-SANR-FIXT
100
AcDbLine
 10
745.1639074431891
 20
1952.577350269148
 30
0.0
 11
711.1639074431899
 21
1952.577350269148
 31
0.0
  0
LINE
  5
AD
330
87
100
AcDbEntity
  8
P-SANR-FIXT
100
AcDbLine
 10
745.1639074431891
 20
1960.633974596214
 30
0.0
 11
711.1639074431897
 21
1960.633974596214
 31
0.0
  0
LINE
  5
AE
330
87
100
AcDbEntity
  8
P-SANR-FIXT
100
AcDbLine
 10
744.6639074432124
 20
1961.499999999958
 30
0.0
 11
711.6639074431666
 21
1961.499999999958
 31
0.0
  0
LINE
  5
AF
330
87
100
AcDbEntity
  8
P-SANR-FIXT
100
AcDbLine
 10
744.3468645698652
 20
1971.999999999935
 30
0.0
 11
744.2231334153488
 21
1971.999999999935
 31
0.0
  0
LINE
  5
B0
330
87
100
AcDbEntity
  8
P-SANR-FIXT
100
AcDbLine
 10
743.5351422917264
 20
1971.999999999935
 30
0.0
 11
743.1773437011155
 21
1971.999999999935
 31
0.0
  0
LINE
  5
B1
330
87
100
AcDbEntity
  8
P-SANR-FIXT
100
AcDbLine
 10
742.7156083049575
 20
1971.999999999935
 30
0.0
 11
742.4720918587779
 21
1971.999999999935
 31
0.0
  0
LINE
  5
B2
330
87
100
AcDbEntity
  8
P-SANR-FIXT
100
AcDbLine
 10
741.6945730378662
 20
1971.999999999935
 30
0.0
 11
740.9185799236922
 21
1971.999999999935
 31
0.0
  0
LINE
  5
B3
330
87
100
AcDbEntity
  8
P-SANR-FIXT
100
AcDbLine
 10
740.8132175161963
 20
1971.999999999935
 30
0.0
 11
739.8355110497333
 21
1971.999999999935
 31
0.0
  0
LINE
  5
B4
330
87
100
AcDbEntity
  8
P-SANR-FIXT
100
AcDbLine
 10
739.8311693327838
 20
1971.999999999935
 30
0.0
 11
738.779540305713
 21
1971.999999999935
 31
0.0
  0
LINE
  5
B5
330
87
100
AcDbEntity
  8
P-SANR-FIXT
100
AcDbLine
 10
738.6313966319042
 20
1971.999999999935
 30
0.0
 11
736.4271583191051
 21
1971.999999999935
 31
0.0
  0
LINE
  5
B6
330
87
100
AcDbEntity
  8
P-SANR-FIXT
100
AcDbLine
 10
735.1496263722515
 20
1971.999999999935
 30
0.0
 11
734.4781840772222
 21
1971.999999999935
 31
0.0
  0
LINE
  5
B7
330
87
100
AcDbEntity
  8
P-SANR-FIXT
100
AcDbLine
 10
733.8179907538228
 20
1971.999999999935
 30
0.0
 11
732.7391335770397
 21
1971.999999999935
 31
0.0
  0
LINE
  5
B8
330
87
100
AcDbEntity
  8
P-SANR-FIXT
100
AcDbLine
 10
732.4428970600778
 20
1971.999999999935
 30
0.0
 11
731.3828977564602
 21
1971.999999999935
 31
0.0
  0
LINE
  5
B9
330
87
100
AcDbEntity
  8
P-SANR-FIXT
100
AcDbLine
 10
731.0353391891737
 20
1971.999999999935
 30
0.0
 11
729.7811902586295
 21
1971.999999999935
 31
0.0
  0
LINE
  5
BA
330
87
100
AcDbEntity
  8
P-SANR-FIXT
100
AcDbLine
 10
729.6065745818883
 20
1971.999999999935
 30
0.0
 11
728.1680366337682
 21
1971.999999999935
 31
0.0
  0
LINE
  5
BB
330
87
100
AcDbEntity
  8
P-SANR-FIXT
100
AcDbLine
 10
728.1639074431894
 20
1971.999999999935
 30
0.0
 11
726.729467238819
 21
1971.999999999935
 31
0.0
  0
LINE
  5
BC
330
87
100
AcDbEntity
  8
P-SANR-FIXT
100
AcDbLine
 10
726.5466246277496
 20
1971.999999999935
 30
0.0
 11
725.3006875111127
 21
1971.999999999935
 31
0.0
  0
LINE
  5
BD
330
87
100
AcDbEntity
  8
P-SANR-FIXT
100
AcDbLine
 10
724.9449171299191
 20
1971.999999999935
 30
0.0
 11
723.8931307466932
 21
1971.999999999935
 31
0.0
  0
LINE
  5
BE
330
87
100
AcDbEntity
  8
P-SANR-FIXT
100
AcDbLine
 10
723.3742102684843
 20
1971.999999999935
 30
0.0
 11
721.3585990779128
 21
1971.999999999935
 31
0.0
  0
LINE
  5
BF
330
87
100
AcDbEntity
  8
P-SANR-FIXT
100
AcDbLine
 10
721.1864559391517
 20
1971.999999999935
 30
0.0
 11
718.9969985983534
 21
1971.999999999935
 31
0.0
  0
LINE
  5
C0
330
87
100
AcDbEntity
  8
P-SANR-FIXT
100
AcDbLine
 10
718.6958544548819
 20
1971.999999999935
 30
0.0
 11
717.6964182544748
 21
1971.999999999935
 31
0.0
  0
LINE
  5
C1
330
87
100
AcDbEntity
  8
P-SANR-FIXT
100
AcDbLine
 10
717.5567993140561
 20
1971.999999999935
 30
0.0
 11
715.5224874195668
 21
1971.999999999935
 31
0.0
  0
LINE
  5
C2
330
87
100
AcDbEntity
  8
P-SANR-FIXT
100
AcDbLine
 10
715.4092349626868
 20
1971.999999999935
 30
0.0
 11
714.6411711231904
 21
1971.999999999935
 31
0.0
  0
LINE
  5
C3
330
87
100
AcDbEntity
  8
P-SANR-FIXT
100
AcDbLine
 10
714.4446588401786
 20
1971.999999999935
 30
0.0
 11
713.8637202672305
 21
1971.999999999935
 31
0.0
  0
LINE
  5
C4
330
87
100
AcDbEntity
  8
P-SANR-FIXT
100
AcDbLine
 10
713.7930050058627
 20
1971.999999999935
 30
0.0
 11
713.6122065814215
 21
1971.999999999935
 31
0.0
  0
LINE
  5
C5
330
87
100
AcDbEntity
  8
P-SANR-FIXT
100
AcDbLine
 10
713.1963713779297
 20
1971.999999999935
 30
0.0
 11
712.8400531528853
 21
1971.999999999935
 31
0.0
  0
LINE
  5
C6
330
87
100
AcDbEntity
  8
P-SANR-FIXT
100
AcDbLine
 10
712.6444590591686
 20
1971.999999999935
 30
0.0
 11
712.2868577362869
 21
1971.999999999935
 31
0.0
  0
LINE
  5
C7
330
87
100
AcDbEntity
  8
P-SANR-FIXT
100
AcDbLine
 10
712.1040250489998
 20
1971.999999999935
 30
0.0
 11
711.9388971767068
 21
1971.999999999935
 31
0.0
  0
LINE
  5
C8
330
87
100
AcDbEntity
  8
P-SANR-FIXT
100
AcDbLine
 10
711.822543236557
 20
1971.999999999935
 30
0.0
 11
711.7202685053476
 21
1971.999999999935
 31
0.0
  0
LINE
  5
C9
330
87
100
AcDbEntity
  8
P-SANR-FIXT
100
AcDbLine
 10
711.6811982639211
 20
1971.999999999935
 30
0.0
 11
711.6639074431666
 21
1971.999999999935
 31
0.0
  0
LWPOLYLINE
  5
CA
330
87
100
AcDbEntity
  8
P-SANR-FIXT
100
AcDbPolyline
 90
       18
 70
   128
 43
0.0
 10
719.9104349549559
 20
1997.790597753879
 10
719.7140052145612
 20
1997.52163938022
 10
718.7225711800042
 20
1996.043452611128
 10
717.7910418916272
 20
1994.526801446854
 10
716.9209075975755
 20
1992.974112205727
 10
716.1135603271011
 20
1991.38786885931
 10
715.370291663612
 20
1989.770609058575
 10
714.6922906784141
 20
1988.124920074208
 10
714.0806420284511
 20
1986.453434657521
 10
713.536324221085
 20
1984.758826828618
 10
713.0602080486927
 20
1983.043807598526
 10
712.6530551955839
 20
1981.311120632164
 10
712.315517019469
 20
1979.563537859056
 10
712.0481335094255
 20
1977.803855038843
 10
711.8513324220306
 20
1976.034887288657
 10
711.725428597042
 20
1974.25946457954
 10
711.6706234537221
 20
1972.480427209089
 10
711.6680300039554
 20
1971.999999999995
  0
LWPOLYLINE
  5
CB
330
87
100
AcDbEntity
  8
P-SANR-FIXT
100
AcDbPolyline
 90
        6
 70
   128
 43
0.0
 10
744.6680300039556
 20
1971.999999999995
 10
744.6772287773544
 20
1972.459877343142
 10
744.7048103814753
 20
1972.919018980641
 10
744.750730691636
 20
1973.376690383818
 10
744.8149162451358
 20
1973.832159376059
 10
744.8738551282123
 20
1974.156053620262
  0
LINE
  5
CC
330
87
100
AcDbEntity
  8
P-SANR-FIXT
100
AcDbLine
 10
744.6680300039542
 20
1971.999999999995
 30
0.0
 11
744.5918263134417
 21
1971.999999999995
 31
0.0
  0
LINE
  5
CD
330
87
100
AcDbEntity
  8
P-SANR-FIXT
100
AcDbLine
 10
744.5905921352891
 20
1971.999999999995
 30
0.0
 11
744.3576197257456
 21
1971.999999999995
 31
0.0
  0
LINE
  5
CE
330
87
100
AcDbEntity
  8
P-SANR-FIXT
100
AcDbLine
 10
744.2929493022208
 20
1971.999999999995
 30
0.0
 11
743.9671074166328
 21
1971.999999999995
 31
0.0
  0
LINE
  5
CF
330
87
100
AcDbEntity
  8
P-SANR-FIXT
100
AcDbLine
 10
743.8728378907701
 20
1971.999999999995
 30
0.0
 11
743.4224113073358
 21
1971.999999999995
 31
0.0
  0
LINE
  5
D0
330
87
100
AcDbEntity
  8
P-SANR-FIXT
100
AcDbLine
 10
743.3170852686246
 20
1971.999999999995
 30
0.0
 11
742.728821893771
 21
1971.999999999995
 31
0.0
  0
LINE
  5
D1
330
87
100
AcDbEntity
  8
P-SANR-FIXT
100
AcDbLine
 10
742.6932272981292
 20
1971.999999999995
 30
0.0
 11
741.8932383257705
 21
1971.999999999995
 31
0.0
  0
LINE
  5
D2
330
87
100
AcDbEntity
  8
P-SANR-FIXT
100
AcDbLine
 10
741.6840387347225
 20
1971.999999999995
 30
0.0
 11
740.924038971521
 21
1971.999999999995
 31
0.0
  0
LINE
  5
D3
330
87
100
AcDbEntity
  8
P-SANR-FIXT
100
AcDbLine
 10
740.8077633154173
 20
1971.999999999995
 30
0.0
 11
739.8352918935322
 21
1971.999999999995
 31
0.0
  0
LINE
  5
D4
330
87
100
AcDbEntity
  8
P-SANR-FIXT
100
AcDbLine
 10
739.8313361093167
 20
1971.999999999995
 30
0.0
 11
738.7740255637821
 21
1971.999999999995
 31
0.0
  0
LINE
  5
D5
330
87
100
AcDbEntity
  8
P-SANR-FIXT
100
AcDbLine
 10
738.6356352879252
 20
1971.999999999995
 30
0.0
 11
737.6320412037465
 21
1971.999999999995
 31
0.0
  0
LINE
  5
D6
330
87
100
AcDbEntity
  8
P-SANR-FIXT
100
AcDbLine
 10
737.3371851236127
 20
1971.999999999995
 30
0.0
 11
736.4180300039542
 21
1971.999999999995
 31
0.0
  0
LINE
  5
D7
330
87
100
AcDbEntity
  8
P-SANR-FIXT
100
AcDbLine
 10
735.94878436365
 20
1971.999999999995
 30
0.0
 11
734.4841944199944
 21
1971.999999999995
 31
0.0
  0
LINE
  5
D8
330
87
100
AcDbEntity
  8
P-SANR-FIXT
100
AcDbLine
 10
733.8113623688277
 20
1971.999999999995
 30
0.0
 11
732.9579816903097
 21
1971.999999999995
 31
0.0
  0
LINE
  5
D9
330
87
100
AcDbEntity
  8
P-SANR-FIXT
100
AcDbLine
 10
732.7398539429785
 20
1971.999999999995
 30
0.0
 11
731.3853551453253
 21
1971.999999999995
 31
0.0
  0
LINE
  5
DA
330
87
100
AcDbEntity
  8
P-SANR-FIXT
100
AcDbLine
 10
731.0332249354585
 20
1971.999999999995
 30
0.0
 11
729.781999138842
 21
1971.999999999995
 31
0.0
  0
LINE
  5
DB
330
87
100
AcDbEntity
  8
P-SANR-FIXT
100
AcDbLine
 10
729.6060997592905
 20
1971.999999999995
 30
0.0
 11
728.1680300039543
 21
1971.999999999995
 31
0.0
  0
LINE
  5
DC
330
87
100
AcDbEntity
  8
P-SANR-FIXT
100
AcDbLine
 10
728.1680300039542
 20
1971.999999999995
 30
0.0
 11
726.7299602486177
 21
1971.999999999995
 31
0.0
  0
LINE
  5
DD
330
87
100
AcDbEntity
  8
P-SANR-FIXT
100
AcDbLine
 10
726.5457820602071
 20
1971.999999999995
 30
0.0
 11
725.3028350724498
 21
1971.999999999995
 31
0.0
  0
LINE
  5
DE
330
87
100
AcDbEntity
  8
P-SANR-FIXT
100
AcDbLine
 10
724.9424194514029
 20
1971.999999999995
 30
0.0
 11
722.5246976390807
 21
1971.999999999995
 31
0.0
  0
LINE
  5
DF
330
87
100
AcDbEntity
  8
P-SANR-FIXT
100
AcDbLine
 10
721.8436191975654
 20
1971.999999999995
 30
0.0
 11
720.3790772823411
 21
1971.999999999995
 31
0.0
  0
LINE
  5
E0
330
87
100
AcDbEntity
  8
P-SANR-FIXT
100
AcDbLine
 10
719.9180300039543
 20
1971.999999999995
 30
0.0
 11
718.9907462331852
 21
1971.999999999995
 31
0.0
  0
LINE
  5
E1
330
87
100
AcDbEntity
  8
P-SANR-FIXT
100
AcDbLine
 10
718.7040188041621
 20
1971.999999999995
 30
0.0
 11
716.5007681143761
 21
1971.999999999995
 31
0.0
  0
LINE
  5
E2
330
87
100
AcDbEntity
  8
P-SANR-FIXT
100
AcDbLine
 10
716.4964526633916
 20
1971.999999999995
 30
0.0
 11
715.528296692491
 21
1971.999999999995
 31
0.0
  0
LINE
  5
E3
330
87
100
AcDbEntity
  8
P-SANR-FIXT
100
AcDbLine
 10
715.4034316661757
 20
1971.999999999995
 30
0.0
 11
714.6520212731858
 21
1971.999999999995
 31
0.0
  0
LINE
  5
E4
330
87
100
AcDbEntity
  8
P-SANR-FIXT
100
AcDbLine
 10
714.4343077278103
 20
1971.999999999995
 30
0.0
 11
713.8786108415108
 21
1971.999999999995
 31
0.0
  0
LINE
  5
E5
330
87
100
AcDbEntity
  8
P-SANR-FIXT
100
AcDbLine
 10
713.598845012809
 20
1971.999999999995
 30
0.0
 11
713.2139515178494
 21
1971.999999999995
 31
0.0
  0
LINE
  5
E6
330
87
100
AcDbEntity
  8
P-SANR-FIXT
100
AcDbLine
 10
712.8355421529552
 20
1971.999999999995
 30
0.0
 11
712.6631017609867
 21
1971.999999999995
 31
0.0
  0
LINE
  5
E7
330
87
100
AcDbEntity
  8
P-SANR-FIXT
100
AcDbLine
 10
712.2907877553417
 20
1971.999999999995
 30
0.0
 11
712.1078625524337
 21
1971.999999999995
 31
0.0
  0
LINE
  5
E8
330
87
100
AcDbEntity
  8
P-SANR-FIXT
100
AcDbLine
 10
711.9429472378381
 20
1971.999999999995
 30
0.0
 11
711.8265607651728
 21
1971.999999999995
 31
0.0
  0
LINE
  5
E9
330
87
100
AcDbEntity
  8
P-SANR-FIXT
100
AcDbLine
 10
711.7308174854404
 20
1971.999999999995
 30
0.0
 11
711.6853091650794
 21
1971.999999999995
 31
0.0
  0
LINE
  5
EA
330
87
100
AcDbEntity
  8
P-SANR-FIXT
100
AcDbLine
 10
804.2233907381397
 20
2065.397040377
 30
0.0
 11
803.66640744319
 21
2064.840057082049
 31
0.0
  0
LINE
  5
EB
330
87
100
AcDbEntity
  8
P-SANR-FIXT
100
AcDbLine
 10
827.6664074431888
 20
2064.840057082049
 30
0.0
 11
827.1094241482387
 21
2065.397040377
 31
0.0
  0
LINE
  5
EC
330
87
100
AcDbEntity
  8
P-SANR-FIXT
100
AcDbLine
 10
803.66640744319
 20
2064.840057082049
 30
0.0
 11
803.66640744319
 21
2063.397040376999
 31
0.0
  0
LINE
  5
ED
330
87
100
AcDbEntity
  8
P-SANR-FIXT
100
AcDbLine
 10
827.6664074431888
 20
2063.397040376999
 30
0.0
 11
827.6664074431888
 21
2064.840057082049
 31
0.0
  0
LINE
  5
EE
330
87
100
AcDbEntity
  8
P-SANR-FIXT
100
AcDbLine
 10
803.6664074431874
 20
2063.397040376998
 30
0.0
 11
804.5021069097163
 21
2063.397040376998
 31
0.0
  0
LINE
  5
EF
330
87
100
AcDbEntity
  8
P-SANR-FIXT
100
AcDbLine
 10
804.5021069097163
 20
2063.397040376998
 30
0.0
 11
809.6664074431881
 21
2063.397040376998
 31
0.0
  0
LINE
  5
F0
330
87
100
AcDbEntity
  8
P-SANR-FIXT
100
AcDbLine
 10
814.8307079766585
 20
2063.397040376998
 30
0.0
 11
816.5021069097164
 21
2063.397040376998
 31
0.0
  0
LINE
  5
F1
330
87
100
AcDbEntity
  8
P-SANR-FIXT
100
AcDbLine
 10
816.5021069097164
 20
2063.397040376998
 30
0.0
 11
821.6664074431879
 21
2063.397040376998
 31
0.0
  0
LINE
  5
F2
330
87
100
AcDbEntity
  8
P-SANR-FIXT
100
AcDbLine
 10
809.6664074431881
 20
2063.397040376998
 30
0.0
 11
814.8307079766585
 21
2063.397040376998
 31
0.0
  0
LINE
  5
F3
330
87
100
AcDbEntity
  8
P-SANR-FIXT
100
AcDbLine
 10
826.8307079766582
 20
2063.397040376998
 30
0.0
 11
827.6664074431872
 21
2063.397040376998
 31
0.0
  0
LINE
  5
F4
330
87
100
AcDbEntity
  8
P-SANR-FIXT
100
AcDbLine
 10
822.2392970448254
 20
2063.397040376998
 30
0.0
 11
821.6664074431879
 21
2063.397040376998
 31
0.0
  0
LINE
  5
F5
330
87
100
AcDbEntity
  8
P-SANR-FIXT
100
AcDbLine
 10
821.6664074431879
 20
2063.397040376998
 30
0.0
 11
826.8307079766582
 21
2063.397040376998
 31
0.0
  0
LINE
  5
F6
330
87
100
AcDbEntity
  8
P-SANR-FIXT
100
AcDbLine
 10
827.6664074431872
 20
2052.870000000033
 30
0.0
 11
826.8307079766582
 21
2052.870000000033
 31
0.0
  0
LINE
  5
F7
330
87
100
AcDbEntity
  8
P-SANR-FIXT
100
AcDbLine
 10
826.8307079766582
 20
2052.870000000033
 30
0.0
 11
816.5021069097164
 21
2052.870000000033
 31
0.0
  0
LINE
  5
F8
330
87
100
AcDbEntity
  8
P-SANR-FIXT
100
AcDbLine
 10
816.5021069097166
 20
2052.870000000033
 30
0.0
 11
814.8307079766587
 21
2052.870000000033
 31
0.0
  0
LINE
  5
F9
330
87
100
AcDbEntity
  8
P-SANR-FIXT
100
AcDbLine
 10
814.8307079766585
 20
2052.870000000033
 30
0.0
 11
804.5021069097163
 21
2052.870000000033
 31
0.0
  0
LINE
  5
FA
330
87
100
AcDbEntity
  8
P-SANR-FIXT
100
AcDbLine
 10
804.5021069097163
 20
2052.870000000033
 30
0.0
 11
803.6664074431874
 21
2052.870000000033
 31
0.0
  0
LINE
  5
FB
330
87
100
AcDbEntity
  8
P-SANR-FIXT
100
AcDbLine
 10
827.6664074431872
 20
2063.397040376998
 30
0.0
 11
827.6664074431872
 21
2052.870000000033
 31
0.0
  0
LINE
  5
FC
330
87
100
AcDbEntity
  8
P-SANR-FIXT
100
AcDbLine
 10
803.6664074431874
 20
2052.870000000033
 30
0.0
 11
803.6664074431874
 21
2063.397040376998
 31
0.0
  0
LINE
  5
FD
330
87
100
AcDbEntity
  8
P-SANR-FIXT
100
AcDbLine
 10
804.5021069097163
 20
2052.870000000033
 30
0.0
 11
804.5021069097163
 21
2063.397040376998
 31
0.0
  0
LINE
  5
FE
330
87
100
AcDbEntity
  8
P-SANR-FIXT
100
AcDbLine
 10
814.8307079766585
 20
2052.870000000033
 30
0.0
 11
814.8307079766585
 21
2063.397040376998
 31
0.0
  0
LINE
  5
FF
330
87
100
AcDbEntity
  8
P-SANR-FIXT
100
AcDbLine
 10
816.5021069097164
 20
2052.870000000033
 30
0.0
 11
816.5021069097164
 21
2063.397040376998
 31
0.0
  0
LINE
  5
100
330
87
100
AcDbEntity
  8
P-SANR-FIXT
100
AcDbLine
 10
826.8307079766582
 20
2052.870000000033
 30
0.0
 11
826.8307079766582
 21
2063.397040376998
 31
0.0
  0
LINE
  5
101
330
87
100
AcDbEntity
  8
P-SANR-FIXT
100
AcDbLine
 10
827.1094241482373
 20
2065.397040376998
 30
0.0
 11
804.2233907381383
 21
2065.397040376998
 31
0.0
  0
LINE
  5
102
330
87
100
AcDbEntity
  8
P-SANR-FIXT
100
AcDbLine
 10
803.6664074431884
 20
2064.840057082049
 30
0.0
 11
827.6664074431872
 21
2064.840057082049
 31
0.0
  0
LINE
  5
103
330
87
100
AcDbEntity
  8
P-SANR-FIXT
100
AcDbLine
 10
747.4035030800309
 20
1967.250000000005
 30
0.0
 11
767.5563171906855
 21
1967.250000000005
 31
0.0
  0
LINE
  5
104
330
87
100
AcDbEntity
  8
P-SANR-FIXT
100
AcDbLine
 10
767.5563171906855
 20
2032.749999999987
 30
0.0
 11
747.4035030800309
 21
2032.749999999987
 31
0.0
  0
LINE
  5
105
330
87
100
AcDbEntity
  8
P-SANR-FIXT
100
AcDbLine
 10
767.5563171906855
 20
1967.250000000005
 30
0.0
 11
768.2035030800319
 21
1967.897185889352
 31
0.0
  0
LINE
  5
106
330
87
100
AcDbEntity
  8
P-SANR-FIXT
100
AcDbLine
 10
768.2035030800319
 20
2032.10281411064
 30
0.0
 11
767.5563171906855
 21
2032.749999999987
 31
0.0
  0
LINE
  5
107
330
87
100
AcDbEntity
  8
P-SANR-FIXT
100
AcDbLine
 10
747.4035030800295
 20
1967.250000000004
 30
0.0
 11
747.4035030800295
 21
2032.749999999986
 31
0.0
  0
LINE
  5
108
330
87
100
AcDbEntity
  8
P-SANR-FIXT
100
AcDbLine
 10
767.556317190684
 20
1967.250000000004
 30
0.0
 11
767.556317190684
 21
2032.749999999986
 31
0.0
  0
LINE
  5
109
330
87
100
AcDbEntity
  8
P-SANR-FIXT
100
AcDbLine
 10
768.2035030800306
 20
1967.897185889351
 30
0.0
 11
768.2035030800306
 21
2032.102814110639
 31
0.0
  0
LINE
  5
10A
330
87
100
AcDbEntity
  8
P-SANR-FIXT
100
AcDbLine
 10
804.1714435505957
 20
1891.699999999996
 30
0.0
 11
804.1714435505957
 21
1889.899999999981
 31
0.0
  0
LINE
  5
10B
330
87
100
AcDbEntity
  8
P-SANR-FIXT
100
AcDbLine
 10
827.1613713357831
 20
1889.899999999981
 30
0.0
 11
827.1613713357831
 21
1891.699999999996
 31
0.0
  0
LINE
  5
10C
330
87
100
AcDbEntity
  8
P-SANR-FIXT
100
AcDbLine
 10
801.0269860253865
 20
1889.899999999981
 30
0.0
 11
801.0269860253865
 21
1883.04999999998
 31
0.0
  0
LINE
  5
10D
330
87
100
AcDbEntity
  8
P-SANR-FIXT
100
AcDbLine
 10
830.305828860992
 20
1876.380578582178
 30
0.0
 11
830.305828860992
 21
1889.899999999981
 31
0.0
  0
LINE
  5
10E
330
87
100
AcDbEntity
  8
P-SANR-FIXT
100
AcDbLine
 10
800.2464074431889
 20
1870.149999999981
 30
0.0
 11
800.2464074431889
 21
1866.099999999981
 31
0.0
  0
LINE
  5
10F
330
87
100
AcDbEntity
  8
P-SANR-FIXT
100
AcDbLine
 10
831.0864074431899
 20
1866.099999999981
 30
0.0
 11
831.0864074431899
 21
1876.380578582178
 31
0.0
  0
LINE
  5
110
330
87
100
AcDbEntity
  8
P-SANR-FIXT
100
AcDbLine
 10
801.1664074431902
 20
1866.099999999981
 30
0.0
 11
801.1664074431902
 21
1864.599999999965
 31
0.0
  0
LINE
  5
111
330
87
100
AcDbEntity
  8
P-SANR-FIXT
100
AcDbLine
 10
830.1664074431883
 20
1864.599999999965
 30
0.0
 11
830.1664074431883
 21
1866.099999999981
 31
0.0
  0
LINE
  5
112
330
87
100
AcDbEntity
  8
P-SANR-FIXT
100
AcDbLine
 10
803.9164074431887
 20
1864.599999999965
 30
0.0
 11
803.9164074431887
 21
1861.599999999965
 31
0.0
  0
LINE
  5
113
330
87
100
AcDbEntity
  8
P-SANR-FIXT
100
AcDbLine
 10
827.4164074431899
 20
1861.599999999965
 30
0.0
 11
827.4164074431899
 21
1864.599999999965
 31
0.0
  0
LINE
  5
114
330
87
100
AcDbEntity
  8
P-SANR-FIXT
100
AcDbLine
 10
802.2164074431886
 20
1861.599999999965
 30
0.0
 11
802.2164074431886
 21
1859.599999999993
 31
0.0
  0
LINE
  5
115
330
87
100
AcDbEntity
  8
P-SANR-FIXT
100
AcDbLine
 10
829.1164074431899
 20
1859.599999999993
 30
0.0
 11
829.1164074431899
 21
1861.599999999965
 31
0.0
  0
LINE
  5
116
330
87
100
AcDbEntity
  8
P-SANR-FIXT
100
AcDbLine
 10
800.8664074432019
 20
1859.599999999993
 30
0.0
 11
800.8664074432019
 21
1850.599999999993
 31
0.0
  0
LINE
  5
117
330
87
100
AcDbEntity
  8
P-SANR-FIXT
100
AcDbLine
 10
830.4664074431766
 20
1850.599999999993
 30
0.0
 11
830.4664074431766
 21
1859.599999999993
 31
0.0
  0
LINE
  5
118
330
87
100
AcDbEntity
  8
P-SANR-FIXT
100
AcDbLine
 10
808.1664074431889
 20
1850.599999999993
 30
0.0
 11
808.1664074431889
 21
1827.599999999993
 31
0.0
  0
LINE
  5
119
330
87
100
AcDbEntity
  8
P-SANR-FIXT
100
AcDbLine
 10
823.1664074431897
 20
1827.599999999993
 30
0.0
 11
823.1664074431897
 21
1850.599999999993
 31
0.0
  0
LINE
  5
11A
330
87
100
AcDbEntity
  8
P-SANR-FIXT
100
AcDbLine
 10
789.1664074431897
 20
1872.850000000044
 30
0.0
 11
793.6664074431896
 21
1872.850000000044
 31
0.0
  0
LINE
  5
11B
330
87
100
AcDbEntity
  8
P-SANR-FIXT
100
AcDbLine
 10
793.6664074431896
 20
1880.349999999917
 30
0.0
 11
789.1664074431896
 21
1880.349999999917
 31
0.0
  0
LINE
  5
11C
330
87
100
AcDbEntity
  8
P-SANR-FIXT
100
AcDbLine
 10
793.6664074431896
 20
1870.149999999981
 30
0.0
 11
800.2464074431889
 21
1870.149999999981
 31
0.0
  0
LINE
  5
11D
330
87
100
AcDbEntity
  8
P-SANR-FIXT
100
AcDbLine
 10
801.0269860253865
 20
1883.04999999998
 30
0.0
 11
793.6664074431896
 21
1883.04999999998
 31
0.0
  0
LINE
  5
11E
330
87
100
AcDbEntity
  8
P-SANR-FIXT
100
AcDbLine
 10
801.0269860253849
 20
1889.89999999998
 30
0.0
 11
830.3058288609905
 21
1889.89999999998
 31
0.0
  0
SPLINE
  5
11F
330
87
100
AcDbEntity
  8
P-SANR-FIXT
100
AcDbSpline
210
0.0
220
0.0
230
1.0
 70
     8
 71
     3
 72
    16
 73
    12
 74
     0
 42
0.000000001
 43
0.0000000001
 40
0.0
 40
0.0
 40
0.0
 40
0.0
 40
0.1428571428571428
 40
0.2857142857142857
 40
0.5714285714285714
 40
0.6785714285714287
 40
0.7321428571428572
 40
0.7857142857142857
 40
0.8392857142857142
 40
0.8928571428571427
 40
1.0
 40
1.0
 40
1.0
 40
1.0
 10
801.0269860253849
 20
1883.04999999998
 30
0.0
 10
801.0269860253849
 20
1883.047472047322
 30
0.0
 10
801.0791800924218
 20
1882.934131597671
 30
0.0
 10
801.3686606046622
 20
1882.25157839328
 30
0.0
 10
801.8177888727676
 20
1881.066523936592
 30
0.0
 10
802.1538133347998
 20
1879.773086530187
 30
0.0
 10
802.2894975062364
 20
1879.111487458493
 30
0.0
 10
802.3779462471621
 20
1878.588351528273
 30
0.0
 10
802.4488891994733
 20
1878.04838726576
 30
0.0
 10
802.5127242050055
 20
1877.323407483368
 30
0.0
 10
802.5278433045214
 20
1876.761944362826
 30
0.0
 10
802.5226520739405
 20
1876.380578582177
 30
0.0
  0
LINE
  5
120
330
87
100
AcDbEntity
  8
P-SANR-FIXT
100
AcDbLine
 10
801.6584794822577
 20
1876.380578582177
 30
0.0
 11
831.0864074431881
 21
1876.380578582177
 31
0.0
  0
SPLINE
  5
121
330
87
100
AcDbEntity
  8
P-SANR-FIXT
100
AcDbSpline
210
0.0
220
0.0
230
1.0
 70
     8
 71
     3
 72
    12
 73
     8
 74
     0
 42
0.000000001
 43
0.0000000001
 40
0.0
 40
0.0
 40
0.0
 40
0.0
 40
0.1428571428571428
 40
0.2857142857142857
 40
0.5714285714285714
 40
0.7857142857142857
 40
1.0
 40
1.0
 40
1.0
 40
1.0
 10
801.6584794822577
 20
1876.380578582177
 30
0.0
 10
801.6494247424503
 20
1875.894202504636
 30
0.0
 10
801.5868107468621
 20
1874.955424367751
 30
0.0
 10
801.2901825619305
 20
1873.174822771752
 30
0.0
 10
800.7928870125422
 20
1871.532397807225
 30
0.0
 10
800.3501884053624
 20
1870.391878513477
 30
0.0
 10
800.2464074431873
 20
1870.153071196904
 30
0.0
 10
800.2464074431873
 20
1870.14999999998
 30
0.0
  0
LINE
  5
122
330
87
100
AcDbEntity
  8
P-SANR-FIXT
100
AcDbLine
 10
800.2464074431873
 20
1866.09999999998
 30
0.0
 11
831.0864074431881
 21
1866.09999999998
 31
0.0
  0
LINE
  5
123
330
87
100
AcDbEntity
  8
P-SANR-FIXT
100
AcDbLine
 10
801.1664074431886
 20
1864.599999999964
 30
0.0
 11
830.1664074431869
 21
1864.599999999964
 31
0.0
  0
LINE
  5
124
330
87
100
AcDbEntity
  8
P-SANR-FIXT
100
AcDbLine
 10
802.2164074431874
 20
1861.599999999964
 30
0.0
 11
829.1164074431883
 21
1861.599999999964
 31
0.0
  0
LINE
  5
125
330
87
100
AcDbEntity
  8
P-SANR-FIXT
100
AcDbLine
 10
800.8664074432005
 20
1859.599999999992
 30
0.0
 11
830.466407443175
 21
1859.599999999992
 31
0.0
  0
LINE
  5
126
330
87
100
AcDbEntity
  8
P-SANR-FIXT
100
AcDbLine
 10
800.8664074432005
 20
1850.599999999992
 30
0.0
 11
830.466407443175
 21
1850.599999999992
 31
0.0
  0
LINE
  5
127
330
87
100
AcDbEntity
  8
P-SANR-FIXT
100
AcDbLine
 10
808.1664074431875
 20
1827.599999999992
 30
0.0
 11
823.1664074431881
 21
1827.599999999992
 31
0.0
  0
LINE
  5
128
330
87
100
AcDbEntity
  8
P-SANR-FIXT
100
AcDbLine
 10
789.1664074431881
 20
1880.349999999917
 30
0.0
 11
789.1664074431883
 21
1872.850000000043
 31
0.0
  0
LINE
  5
129
330
87
100
AcDbEntity
  8
P-SANR-FIXT
100
AcDbLine
 10
793.6664074431882
 20
1870.14999999998
 30
0.0
 11
793.6664074431882
 21
1883.04999999998
 31
0.0
  0
LINE
  5
12A
330
87
100
AcDbEntity
  8
P-SANR-FIXT
100
AcDbLine
 10
805.3511296010693
 20
2052.870000000034
 30
0.0
 11
806.5664074431897
 21
2052.168359010745
 31
0.0
  0
LINE
  5
12B
330
87
100
AcDbEntity
  8
P-SANR-FIXT
100
AcDbLine
 10
824.766407443189
 20
2052.168359010745
 30
0.0
 11
825.9816852853091
 21
2052.870000000034
 31
0.0
  0
LINE
  5
12C
330
87
100
AcDbEntity
  8
P-SANR-FIXT
100
AcDbLine
 10
806.5664074431897
 20
2052.168359010745
 30
0.0
 11
806.5664074431897
 21
2051.370000000056
 31
0.0
  0
LINE
  5
12D
330
87
100
AcDbEntity
  8
P-SANR-FIXT
100
AcDbLine
 10
824.766407443189
 20
2051.370000000056
 30
0.0
 11
824.766407443189
 21
2052.168359010745
 31
0.0
  0
LINE
  5
12E
330
87
100
AcDbEntity
  8
P-SANR-FIXT
100
AcDbLine
 10
801.6664074431895
 20
2051.370000000056
 30
0.0
 11
801.6664074431895
 21
2050.370000000056
 31
0.0
  0
LINE
  5
12F
330
87
100
AcDbEntity
  8
P-SANR-FIXT
100
AcDbLine
 10
829.6664074431891
 20
2050.370000000056
 30
0.0
 11
829.6664074431891
 21
2051.370000000056
 31
0.0
  0
LINE
  5
130
330
87
100
AcDbEntity
  8
P-SANR-FIXT
100
AcDbLine
 10
773.6664074431891
 20
2050.370000000056
 30
0.0
 11
773.6664074431891
 21
2029.970000000056
 31
0.0
  0
LINE
  5
131
330
87
100
AcDbEntity
  8
P-SANR-FIXT
100
AcDbLine
 10
857.6664074431896
 20
2029.970000000056
 30
0.0
 11
857.6664074431896
 21
2050.370000000056
 31
0.0
  0
LINE
  5
132
330
87
100
AcDbEntity
  8
P-SANR-FIXT
100
AcDbLine
 10
857.6664074431878
 20
2029.970000000055
 30
0.0
 11
773.6664074431877
 21
2029.970000000055
 31
0.0
  0
LINE
  5
133
330
87
100
AcDbEntity
  8
P-SANR-FIXT
100
AcDbLine
 10
806.5664074431881
 20
2052.168359010745
 30
0.0
 11
824.7664074431876
 21
2052.168359010745
 31
0.0
  0
LINE
  5
134
330
87
100
AcDbEntity
  8
P-SANR-FIXT
100
AcDbLine
 10
801.6664074431881
 20
2051.370000000055
 30
0.0
 11
829.6664074431875
 21
2051.370000000055
 31
0.0
  0
LINE
  5
135
330
87
100
AcDbEntity
  8
P-SANR-FIXT
100
AcDbLine
 10
773.6664074431877
 20
2050.370000000055
 30
0.0
 11
857.6664074431878
 21
2050.370000000055
 31
0.0
  0
LINE
  5
136
330
87
100
AcDbEntity
  8
P-SANR-FIXT
100
AcDbLine
 10
787.1664074431895
 20
1960.999999999996
 30
0.0
 11
787.1664074431895
 21
1931.580929122676
 31
0.0
  0
LINE
  5
137
330
87
100
AcDbEntity
  8
P-SANR-FIXT
100
AcDbLine
 10
844.1664074431891
 20
1931.580929122676
 30
0.0
 11
844.1664074431891
 21
1960.999999999996
 31
0.0
  0
LINE
  5
138
330
87
100
AcDbEntity
  8
P-SANR-FIXT
100
AcDbLine
 10
787.1664074431897
 20
1929.353518482997
 30
0.0
 11
787.1664074431897
 21
1922.500976325003
 31
0.0
  0
LINE
  5
139
330
87
100
AcDbEntity
  8
P-SANR-FIXT
100
AcDbLine
 10
844.1664074431889
 20
1922.500976325003
 30
0.0
 11
844.1664074431889
 21
1929.353518482997
 31
0.0
  0
LINE
  5
13A
330
87
100
AcDbEntity
  8
P-SANR-FIXT
100
AcDbLine
 10
789.1003818185139
 20
1915.265991874432
 30
0.0
 11
793.4653464081695
 21
1907.684737587135
 31
0.0
  0
LINE
  5
13B
330
87
100
AcDbEntity
  8
P-SANR-FIXT
100
AcDbLine
 10
837.867468478209
 20
1907.684737587135
 30
0.0
 11
842.2324330678648
 21
1915.265991874432
 31
0.0
  0
LINE
  5
13C
330
87
100
AcDbEntity
  8
P-SANR-FIXT
100
AcDbLine
 10
778.4152078151756
 20
2029.970000000056
 30
0.0
 11
781.1664074431893
 21
2028.381594154227
 31
0.0
  0
LINE
  5
13D
330
87
100
AcDbEntity
  8
P-SANR-FIXT
100
AcDbLine
 10
850.1664074431893
 20
2028.381594154227
 30
0.0
 11
852.9176070712031
 21
2029.970000000056
 31
0.0
  0
LINE
  5
13E
330
87
100
AcDbEntity
  8
P-SANR-FIXT
100
AcDbLine
 10
781.1664074431893
 20
2028.381594154227
 30
0.0
 11
781.1664074431893
 21
2025.499999999996
 31
0.0
  0
LINE
  5
13F
330
87
100
AcDbEntity
  8
P-SANR-FIXT
100
AcDbLine
 10
781.1664074431893
 20
1974.499999999995
 30
0.0
 11
781.1664074431893
 21
1964.999999999995
 31
0.0
  0
LINE
  5
140
330
87
100
AcDbEntity
  8
P-SANR-FIXT
100
AcDbLine
 10
850.1664074431893
 20
1964.999999999995
 30
0.0
 11
850.1664074431893
 21
2028.381594154227
 31
0.0
  0
LWPOLYLINE
  5
141
330
87
100
AcDbEntity
  8
P-SANR-FIXT
100
AcDbPolyline
 90
       80
 70
   128
 43
0.0
 10
785.1664074431893
 20
1960.999999999996
 10
785.1908041900294
 20
1960.999999999996
 10
785.2639554009595
 20
1960.999999999996
 10
785.3857440496463
 20
1960.999999999996
 10
785.5559753002327
 20
1960.999999999996
 10
785.7743768190315
 20
1960.999999999996
 10
786.0405992102023
 20
1960.999999999996
 10
786.3542165747108
 20
1960.999999999996
 10
786.7147271916749
 20
1960.999999999996
 10
787.1215543210123
 20
1960.999999999996
 10
787.5740471261013
 20
1960.999999999996
 10
788.0714817149804
 20
1960.999999999996
 10
788.6130622984211
 20
1960.999999999996
 10
789.1979224630209
 20
1960.999999999996
 10
789.8251265572802
 20
1960.999999999996
 10
790.4936711884442
 20
1960.999999999996
 10
791.2024868277185
 20
1960.999999999996
 10
791.9504395212862
 20
1960.999999999996
 10
792.7363327043921
 20
1960.999999999996
 10
793.5589091155917
 20
1960.999999999996
 10
794.4168528081007
 20
1960.999999999996
 10
795.3087912550294
 20
1960.999999999996
 10
796.2332975451325
 20
1960.999999999996
 10
797.1888926655638
 20
1960.999999999996
 10
798.1740478679795
 20
1960.999999999996
 10
799.187187114211
 20
1960.999999999996
 10
800.2266895975896
 20
1960.999999999996
 10
801.2908923358905
 20
1960.999999999996
 10
802.3780928317497
 20
1960.999999999996
 10
803.486551796298
 20
1960.999999999996
 10
804.614495931651
 20
1960.999999999996
 10
805.7601207678068
 20
1960.999999999996
 10
806.9215935494149
 20
1960.999999999996
 10
808.0970561677919
 20
1960.999999999996
 10
809.284628133501
 20
1960.999999999996
 10
810.482409584732
 20
1960.999999999996
 10
811.688484326676
 20
1960.999999999996
 10
812.9009228970279
 20
1960.999999999996
 10
814.1177856527152
 20
1960.999999999996
 10
815.3371258729125
 20
1960.999999999996
 10
816.5569928733786
 20
1960.999999999996
 10
817.7754351271383
 20
1960.999999999996
 10
818.9905033865056
 20
1960.999999999996
 10
820.2002538014662
 20
1960.999999999996
 10
821.4027510294224
 20
1960.999999999996
 10
822.5960713313286
 20
1960.999999999996
 10
823.7783056492633
 20
1960.999999999996
 10
824.9475626605143
 20
1960.999999999996
 10
826.1019718032921
 20
1960.999999999996
 10
827.2396862692282
 20
1960.999999999996
 10
828.3588859578774
 20
1960.999999999996
 10
829.4577803884873
 20
1960.999999999996
 10
830.5346115643875
 20
1960.999999999996
 10
831.5876567854081
 20
1960.999999999996
 10
832.6152314038331
 20
1960.999999999996
 10
833.6156915194775
 20
1960.999999999996
 10
834.5874366095761
 20
1960.999999999996
 10
835.5289120892795
 20
1960.999999999996
 10
836.4386117986576
 20
1960.999999999996
 10
837.3150804122342
 20
1960.999999999996
 10
838.1569157671973
 20
1960.999999999996
 10
838.9627711065616
 20
1960.999999999996
 10
839.7313572336901
 20
1960.999999999996
 10
840.4614445747361
 20
1960.999999999996
 10
841.1518651456972
 20
1960.999999999996
 10
841.8015144209423
 20
1960.999999999996
 10
842.4093531002151
 20
1960.999999999996
 10
842.974408771294
 20
1960.999999999996
 10
843.4957774656442
 20
1960.999999999996
 10
843.972625104574
 20
1960.999999999996
 10
844.4041888335835
 20
1960.999999999996
 10
844.7897782427681
 20
1960.999999999996
 10
845.1287764713276
 20
1960.999999999996
 10
845.4206411944124
 20
1960.999999999996
 10
845.6649054907266
 20
1960.999999999996
 10
845.861178589503
 20
1960.999999999996
 10
846.0091464956528
 20
1960.999999999996
 10
846.1085724920913
 20
1960.999999999996
 10
846.1592975184334
 20
1960.999999999996
 10
846.1664074431894
 20
1960.999999999996
  0
LWPOLYLINE
  5
142
330
87
100
AcDbEntity
  8
P-SANR-FIXT
100
AcDbPolyline
 90
       41
 70
   128
 43
0.0
 10
850.1664074431893
 20
1964.999999999995
 10
850.1632078698333
 20
1964.840042663249
 10
850.1536142683997
 20
1964.680341224119
 10
850.1376419866048
 20
1964.52115117084
 10
850.1153165766918
 20
1964.362727173539
 10
850.0866737545543
 20
1964.205322676815
 10
850.0517593425975
 20
1964.049189494287
 10
850.0106291964325
 20
1963.894577405739
 10
849.963349115519
 20
1963.741733757531
 10
849.9099947379011
 20
1963.590903066895
 10
849.8506514192008
 20
1963.442326630761
 10
849.7854140960692
 20
1963.296242139731
 10
849.7143871343064
 20
1963.15288329783
 10
849.6376841618999
 20
1963.012479448621
 10
849.5554278872431
 20
1962.875255208312
 10
849.4677499028281
 20
1962.741430106415
 10
849.3747904747264
 20
1962.611218234546
 10
849.2766983181931
 20
1962.484827903922
 10
849.1736303597528
 20
1962.36246131211
 10
849.0657514861531
 20
1962.244314219553
 10
848.9532342805782
 20
1962.130575636398
 10
848.8362587465546
 20
1962.021427520112
 10
848.7150120199837
 20
1961.9170444844
 10
848.5896880697632
 20
1961.81759351985
 10
848.4604873874792
 20
1961.723233726791
 10
848.327616666662
 20
1961.634116060764
 10
848.1912884721205
 20
1961.550383091022
 10
848.0517208998843
 20
1961.472168772456
 10
847.9091372282962
 20
1961.39959823129
 10
847.7637655608145
 20
1961.332787564909
 10
847.6158384610959
 20
1961.271843656127
 10
847.4655925809443
 20
1961.216864002198
 10
847.3132682817173
 20
1961.167936558839
 10
847.1591092497989
 20
1961.125139599522
 10
847.003362106755
 20
1961.088541590254
 10
846.8462760147904
 20
1961.058201080042
 10
846.688102278142
 20
1961.034166607229
 10
846.5290939410467
 20
1961.016476621845
 10
846.3695053829237
 20
1961.005159424093
 10
846.2095919114224
 20
1961.000233119076
 10
846.1664074431894
 20
1960.999999999996
  0
LWPOLYLINE
  5
143
330
87
100
AcDbEntity
  8
P-SANR-FIXT
100
AcDbPolyline
 90
       41
 70
   128
 43
0.0
 10
785.1664074431893
 20
1960.999999999996
 10
785.0064501064426
 20
1961.003199573352
 10
784.8467486673126
 20
1961.012793174785
 10
784.6875586140336
 20
1961.02876545658
 10
784.5291346167323
 20
1961.051090866493
 10
784.3717301200089
 20
1961.079733688631
 10
784.2155969374807
 20
1961.114648100587
 10
784.0609848489328
 20
1961.155778246752
 10
783.9081412007248
 20
1961.203058327666
 10
783.7573105100889
 20
1961.256412705284
 10
783.6087340739546
 20
1961.315756023984
 10
783.4626495829252
 20
1961.380993347116
 10
783.3192907410232
 20
1961.452020308879
 10
783.1788868918143
 20
1961.528723281285
 10
783.0416626515058
 20
1961.610979555942
 10
782.9078375496091
 20
1961.698657540357
 10
782.7776256777397
 20
1961.791616968459
 10
782.6512353471153
 20
1961.889709124992
 10
782.5288687553034
 20
1961.992777083432
 10
782.4107216627472
 20
1962.100655957032
 10
782.2969830795912
 20
1962.213173162607
 10
782.1878349633059
 20
1962.330148696631
 10
782.0834519275933
 20
1962.451395423201
 10
781.9840009630439
 20
1962.576719373422
 10
781.8896411699851
 20
1962.705920055706
 10
781.8005235039577
 20
1962.838790776523
 10
781.7167905342158
 20
1962.975118971065
 10
781.6385762156495
 20
1963.114686543301
 10
781.5660056744832
 20
1963.257270214889
 10
781.4991950081022
 20
1963.402641882371
 10
781.4382510993204
 20
1963.550568982089
 10
781.383271445391
 20
1963.700814862241
 10
781.3343440020324
 20
1963.853139161468
 10
781.2915470427161
 20
1964.007298193386
 10
781.254949033448
 20
1964.16304533643
 10
781.2246085232353
 20
1964.320131428395
 10
781.2005740504226
 20
1964.478305165043
 10
781.1828840650386
 20
1964.637313502138
 10
781.1715668672869
 20
1964.796902060261
 10
781.1666405622694
 20
1964.956815531763
 10
781.1664074431893
 20
1964.999999999995
  0
LWPOLYLINE
  5
144
330
87
100
AcDbEntity
  8
P-SANR-FIXT
100
AcDbPolyline
 90
        4
 70
   128
 43
0.0
 10
846.1664074431894
 20
1960.999999999996
 10
846.1420106963492
 20
1960.999999999996
 10
846.0688594854191
 20
1960.999999999996
 10
846.0441929441785
 20
1960.999999999996
  0
LWPOLYLINE
  5
145
330
87
100
AcDbEntity
  8
P-SANR-FIXT
100
AcDbPolyline
 90
        4
 70
   128
 43
0.0
 10
785.2934142951554
 20
1960.999999999996
 10
785.2242423942873
 20
1960.999999999996
 10
785.173517367945
 20
1960.999999999996
 10
785.1664074431893
 20
1960.999999999996
  0
LWPOLYLINE
  5
146
330
87
100
AcDbEntity
  8
P-SANR-FIXT
100
AcDbPolyline
 90
       15
 70
   128
 43
0.0
 10
844.1664074431892
 20
1922.500976325003
 10
844.1548089897734
 20
1921.921130979296
 10
844.1200321845771
 20
1921.34221326245
 10
844.0621326630704
 20
1920.765149319313
 10
843.9812030521357
 20
1920.190862329096
 10
843.8773728218873
 20
1919.620271028474
 10
843.7508080785436
 20
1919.054288241809
 10
843.6017112986954
 20
1918.493819420823
 10
843.4303210053846
 20
1917.939761196069
 10
843.2369113865192
 20
1917.392999942514
 10
843.0217918562311
 20
1916.854410361527
 10
842.7853065598785
 20
1916.324854081545
 10
842.5278338234889
 20
1915.805178279651
 10
842.2497855485151
 20
1915.296214326268
 10
842.2324330678648
 20
1915.265991874432
  0
LWPOLYLINE
  5
147
330
87
100
AcDbEntity
  8
P-SANR-FIXT
100
AcDbPolyline
 90
       15
 70
   128
 43
0.0
 10
789.1003818185139
 20
1915.265991874432
 10
788.8211110876802
 20
1915.774286088405
 10
788.5623900908313
 20
1916.293341571806
 10
788.3246327263718
 20
1916.822327946587
 10
788.1082193553655
 20
1917.360398947393
 10
787.9134961930408
 20
1917.906693775405
 10
787.7407747549183
 20
1918.460338475435
 10
787.5903313584537
 20
1919.020447334068
 10
787.4624066809887
 20
1919.586124296614
 10
787.3572053747181
 20
1920.156464400602
 10
787.27489573929
 20
1920.730555223534
 10
787.2156094525627
 20
1921.307478342558
 10
787.179441359948
 20
1921.886310803755
 10
787.1664493226785
 20
1922.466126598665
 10
787.1664074431894
 20
1922.500976325003
  0
LWPOLYLINE
  5
148
330
87
100
AcDbEntity
  8
P-SANR-FIXT
100
AcDbPolyline
 90
       15
 70
   128
 43
0.0
 10
837.8674684782094
 20
1907.684737587135
 10
837.4052272685533
 20
1906.843423026077
 10
836.9769994117001
 20
1905.984296708724
 10
836.5834699808704
 20
1905.108733053914
 10
836.2252685392052
 20
1904.218132776717
 10
835.9029681325987
 20
1903.313920647594
 10
835.6170843729476
 20
1902.397543213061
 10
835.3680746132821
 20
1901.470466481531
 10
835.1563372160988
 20
1900.534173578008
 10
834.9822109160644
 20
1899.590162371406
 10
834.8459742781145
 20
1898.639943078277
 10
834.7478452518071
 20
1897.685035846789
 10
834.6879808226516
 20
1896.726968324808
 10
834.666476760964
 20
1895.767273215992
 10
834.6664074431894
 20
1895.709590910329
  0
LWPOLYLINE
  5
149
330
87
100
AcDbEntity
  8
P-SANR-FIXT
100
AcDbPolyline
 90
       15
 70
   128
 43
0.0
 10
796.6664074431893
 20
1895.709590910329
 10
796.6472100030528
 20
1896.669334930808
 10
796.5896483944523
 20
1897.627543565589
 10
796.4938147036821
 20
1898.582683885263
 10
796.3598622442043
 20
1899.533227869071
 10
796.1880053113791
 20
1900.47765484941
 10
795.978518839638
 20
1901.41445394458
 10
795.7317379626478
 20
1902.342126475868
 10
795.4480574771679
 20
1903.259188365116
 10
795.1279312114597
 20
1904.164172508931
 10
794.7718712992585
 20
1905.055631125737
 10
794.3804473604683
 20
1905.932138071913
 10
793.9542855898921
 20
1906.792291123325
 10
793.4940677554528
 20
1907.634714218579
 10
793.4653464081693
 20
1907.684737587135
  0
LINE
  5
14A
330
87
100
AcDbEntity
  8
P-SANR-FIXT
100
AcDbLine
 10
796.6664074431893
 20
1895.709590910328
 30
0.0
 11
796.6664074431893
 21
1892.199999999996
 31
0.0
  0
LINE
  5
14B
330
87
100
AcDbEntity
  8
P-SANR-FIXT
100
AcDbLine
 10
834.6664074431894
 20
1892.199999999996
 30
0.0
 11
834.6664074431894
 21
1895.709590910328
 31
0.0
  0
LINE
  5
14C
330
87
100
AcDbEntity
  8
P-SANR-FIXT
100
AcDbLine
 10
768.2035030918004
 20
1970.999999999996
 30
0.0
 11
769.7035030800566
 21
1970.999999999996
 31
0.0
  0
LINE
  5
14D
330
87
100
AcDbEntity
  8
P-SANR-FIXT
100
AcDbLine
 10
769.7035030800565
 20
2028.999999999996
 30
0.0
 11
768.2035030918
 21
2028.999999999996
 31
0.0
  0
LINE
  5
14E
330
87
100
AcDbEntity
  8
P-SANR-FIXT
100
AcDbLine
 10
769.7035030800566
 20
1970.999999999995
 30
0.0
 11
769.7427892548731
 21
1971.068045650812
 31
0.0
  0
LINE
  5
14F
330
87
100
AcDbEntity
  8
P-SANR-FIXT
100
AcDbLine
 10
769.7551166478278
 20
1971.089397321735
 30
0.0
 11
771.4932889145445
 21
1974.099999999995
 31
0.0
  0
LINE
  5
150
330
87
100
AcDbEntity
  8
P-SANR-FIXT
100
AcDbLine
 10
771.4932889145442
 20
2025.899999999996
 30
0.0
 11
769.7551166478277
 21
2028.910602678257
 31
0.0
  0
LINE
  5
151
330
87
100
AcDbEntity
  8
P-SANR-FIXT
100
AcDbLine
 10
769.7427892548731
 20
2028.931954349179
 30
0.0
 11
769.7035030800565
 21
2028.999999999996
 31
0.0
  0
LWPOLYLINE
  5
152
330
87
100
AcDbEntity
  8
P-SANR-FIXT
100
AcDbPolyline
 90
       28
 70
   128
 43
0.0
 10
771.4932889145442
 20
2025.899999999996
 10
771.5098388305805
 20
2025.872614533902
 10
771.5274706350044
 20
2025.845912793385
 10
771.5461561206906
 20
2025.81993749553
 10
771.5658653948477
 20
2025.794730195275
 10
771.5865669268413
 20
2025.770331218922
 10
771.6082275986369
 20
2025.746779599629
 10
771.6308127577796
 20
2025.724113014963
 10
771.6542862728332
 20
2025.702367726623
 10
771.6786105911808
 20
2025.681578522433
 10
771.7037467991023
 20
2025.661778660683
 10
771.7296546840265
 20
2025.64299981693
 10
771.7562927988645
 20
2025.625272033318
 10
771.7836185283155
 20
2025.608623670518
 10
771.8115881570411
 20
2025.593081362359
 10
771.8401569396021
 20
2025.578669973219
 10
771.8692791720403
 20
2025.565412558247
 10
771.8989082649969
 20
2025.553330326477
 10
771.928996818243
 20
2025.542442606905
 10
771.9594966965126
 20
2025.532766817558
 10
771.9903591065063
 20
2025.524318437634
 10
772.021534674952
 20
2025.517110982741
 10
772.0529735275903
 20
2025.511155983268
 10
772.0846253689639
 20
2025.506462965944
 10
772.1164395628789
 20
2025.503039438595
 10
772.1483652134107
 20
2025.500890878136
 10
772.1803512463301
 20
2025.500020721803
 10
772.1861092375718
 20
2025.499999999996
  0
LWPOLYLINE
  5
153
330
87
100
AcDbEntity
  8
P-SANR-FIXT
100
AcDbPolyline
 90
       28
 70
   128
 43
0.0
 10
772.186109237572
 20
1974.499999999995
 10
772.1541177702227
 20
1974.499360085324
 10
772.1221774823966
 20
1974.497441365037
 10
772.090339471741
 20
1974.494246908678
 10
772.0586546722807
 20
1974.489781826696
 10
772.027173772936
 20
1974.484053262268
 10
771.9959471364302
 20
1974.477070379877
 10
771.9650247187206
 20
1974.468844350644
 10
771.9344559890791
 20
1974.459388334461
 10
771.904289850952
 20
1974.448717458938
 10
771.874574563725
 20
1974.436848795198
 10
771.8453576655191
 20
1974.423801330571
 10
771.8166858971386
 20
1974.409595938219
 10
771.788605127297
 20
1974.394255343737
 10
771.7611602792352
 20
1974.377804088806
 10
771.7343952588561
 20
1974.360268491923
 10
771.708352884482
 20
1974.341676606303
 10
771.6830748183572
 20
1974.322058174996
 10
771.6586014999948
 20
1974.301444583308
 10
771.6349720814835
 20
1974.279868808588
 10
771.6122243648523
 20
1974.257365367473
 10
771.5903947415952
 20
1974.233970260668
 10
771.5695181344528
 20
1974.209720915354
 10
771.5496279415427
 20
1974.18465612531
 10
771.5307559829311
 20
1974.158815988853
 10
771.5129324497256
 20
1974.13224184469
 10
771.4961858557773
 20
1974.104976205781
 10
771.4932889145445
 20
1974.099999999995
  0
LINE
  5
154
330
87
100
AcDbEntity
  8
P-SANR-FIXT
100
AcDbLine
 10
772.186109237572
 20
1974.499999999995
 30
0.0
 11
781.1664074431893
 21
1974.499999999995
 31
0.0
  0
LINE
  5
155
330
87
100
AcDbEntity
  8
P-SANR-FIXT
100
AcDbLine
 10
781.1664074431893
 20
2025.499999999996
 30
0.0
 11
772.1861092375718
 21
2025.499999999996
 31
0.0
  0
LINE
  5
156
330
87
100
AcDbEntity
  8
P-SANR-FIXT
100
AcDbLine
 10
796.6664074431893
 20
1892.199999999996
 30
0.0
 11
797.1664074431893
 21
1891.699999999996
 31
0.0
  0
LINE
  5
157
330
87
100
AcDbEntity
  8
P-SANR-FIXT
100
AcDbLine
 10
834.1664074431893
 20
1891.699999999996
 30
0.0
 11
834.6664074431894
 21
1892.199999999996
 31
0.0
  0
LINE
  5
158
330
87
100
AcDbEntity
  8
P-SANR-FIXT
100
AcDbLine
 10
787.1664074431897
 20
1931.580929122676
 30
0.0
 11
787.1664074431897
 21
1929.353518482997
 31
0.0
  0
LINE
  5
159
330
87
100
AcDbEntity
  8
P-SANR-FIXT
100
AcDbLine
 10
844.1664074431889
 20
1929.353518482997
 30
0.0
 11
844.1664074431889
 21
1931.580929122676
 31
0.0
  0
LINE
  5
15A
330
87
100
AcDbEntity
  8
P-SANR-FIXT
100
AcDbLine
 10
781.1664074431879
 20
2028.381594154227
 30
0.0
 11
850.1664074431877
 21
2028.381594154227
 31
0.0
  0
SPLINE
  5
15B
330
87
100
AcDbEntity
  8
P-SANR-FIXT
100
AcDbSpline
210
0.0
220
0.0
230
1.0
 70
     8
 71
     3
 72
    10
 73
     6
 74
     0
 42
0.000000001
 43
0.0000000001
 40
0.0
 40
0.0
 40
0.0
 40
0.0
 40
0.3333333333333333
 40
0.6666666666666666
 40
1.0
 40
1.0
 40
1.0
 40
1.0
 10
781.1664074431879
 20
2025.499999999995
 30
0.0
 10
781.1664074431879
 20
2025.490495222524
 30
0.0
 10
781.4136450064823
 20
2025.172780254432
 30
0.0
 10
782.4620684191645
 20
2023.722909601153
 30
0.0
 10
783.4988676930374
 20
2022.261827621588
 30
0.0
 10
784.079426521846
 20
2021.394797585511
 30
0.0
  0
SPLINE
  5
15C
330
87
100
AcDbEntity
  8
P-SANR-FIXT
100
AcDbSpline
210
0.0
220
0.0
230
1.0
 70
     8
 71
     3
 72
    29
 73
    25
 74
     0
 42
0.000000001
 43
0.0000000001
 40
0.0
 40
0.0
 40
0.0
 40
0.0
 40
0.125
 40
0.1875
 40
0.25
 40
0.265625
 40
0.28125
 40
0.3125
 40
0.34375
 40
0.375
 40
0.40625
 40
0.4375
 40
0.5
 40
0.5625
 40
0.59375
 40
0.625
 40
0.65625
 40
0.6875
 40
0.71875
 40
0.75
 40
0.78125
 40
0.8125
 40
0.875
 40
1.0
 40
1.0
 40
1.0
 40
1.0
 10
784.079426521846
 20
2021.394797585511
 30
0.0
 10
784.8639540778474
 20
2020.229415207239
 30
0.0
 10
786.1649911396965
 20
2018.240311927719
 30
0.0
 10
787.9963878828397
 20
2015.082271825574
 30
0.0
 10
788.9977818154935
 20
2013.129582122212
 30
0.0
 10
789.6194036479908
 20
2011.759894177951
 30
0.0
 10
790.0326238204768
 20
2010.824256943493
 30
0.0
 10
790.531056918544
 20
2009.618519170831
 30
0.0
 10
791.0769417854567
 20
2008.119136269519
 30
0.0
 10
791.5305562930324
 20
2006.585655823413
 30
0.0
 10
791.8970677562423
 20
2004.992650165391
 30
0.0
 10
792.2887983581745
 20
2002.779431271699
 30
0.0
 10
792.5217852275411
 20
1999.999082557551
 30
0.0
 10
792.2883826664219
 20
1997.217985703063
 30
0.0
 10
791.8963112511767
 20
1995.003992221703
 30
0.0
 10
791.5295657619955
 20
1993.410569678884
 30
0.0
 10
791.0755189795122
 20
1991.876769962486
 30
0.0
 10
790.5297506085892
 20
1990.37729220522
 30
0.0
 10
789.929660411767
 20
1988.929555604945
 30
0.0
 10
789.3085913305155
 20
1987.542915598805
 30
0.0
 10
788.6652730603217
 20
1986.216262601644
 30
0.0
 10
787.7625999693524
 20
1984.517413221817
 30
0.0
 10
786.1639503498773
 20
1981.7561083678
 30
0.0
 10
784.8629421686671
 20
1979.768580715401
 30
0.0
 10
784.079426521846
 20
1978.605202414478
 30
0.0
  0
SPLINE
  5
15D
330
87
100
AcDbEntity
  8
P-SANR-FIXT
100
AcDbSpline
210
0.0
220
0.0
230
1.0
 70
     8
 71
     3
 72
    10
 73
     6
 74
     0
 42
0.000000001
 43
0.0000000001
 40
0.0
 40
0.0
 40
0.0
 40
0.0
 40
0.3333333333333333
 40
0.6666666666666666
 40
1.0
 40
1.0
 40
1.0
 40
1.0
 10
784.079426521846
 20
1978.605202414478
 30
0.0
 10
783.4988676930374
 20
1977.738172378402
 30
0.0
 10
782.4620684191644
 20
1976.277090398837
 30
0.0
 10
781.4136450064823
 20
1974.827219745558
 30
0.0
 10
781.1664074431879
 20
1974.509504777465
 30
0.0
 10
781.1664074431879
 20
1974.499999999995
 30
0.0
  0
LINE
  5
15E
330
87
100
AcDbEntity
  8
P-SANR-FIXT
100
AcDbLine
 10
796.6664074431878
 20
1892.199999999995
 30
0.0
 11
834.6664074431878
 21
1892.199999999995
 31
0.0
  0
LINE
  5
15F
330
87
100
AcDbEntity
  8
P-SANR-FIXT
100
AcDbLine
 10
834.1664074431879
 20
1891.699999999995
 30
0.0
 11
797.1664074431878
 21
1891.699999999995
 31
0.0
  0
LINE
  5
160
330
87
100
AcDbEntity
  8
P-SANR-FIXT
100
AcDbLine
 10
769.7035030800551
 20
1970.999999999994
 30
0.0
 11
769.703503080055
 21
2028.999999999995
 31
0.0
  0
ENDBLK
  5
162
330
87
100
AcDbEntity
  8
0
100
AcDbBlockEnd
  0
BLOCK
  5
1BB
330
164
100
AcDbEntity
  8
0
100
AcDbBlockBegin
  2
Automatic flow rate regulator valve_Caleffi_121 DN15 - 1_2__-V1-Est - Idraulica
 70
     0
 10
0.0
 20
0.0
 30
0.0
  3
Automatic flow rate regulator valve_Caleffi_121 DN15 - 1_2__-V1-Est - Idraulica
  1

  0
LINE
  5
165
330
164
100
AcDbEntity
  8
P-SANR-FIXT
100
AcDbLine
 10
745.4558509551388
 20
1647.641937354737
 30
0.0
 11
747.4035030800309
 21
1647.641937354737
 31
0.0
  0
LINE
  5
166
330
164
100
AcDbEntity
  8
P-SANR-FIXT
100
AcDbLine
 10
733.8369938359894
 20
1657.742041979825
 30
0.0
 11
744.0918542350138
 21
1648.179229951498
 31
0.0
  0
LINE
  5
167
330
164
100
AcDbEntity
  8
P-SANR-FIXT
100
AcDbLine
 10
744.0918542350138
 20
1699.31252750861
 30
0.0
 11
733.8369938359895
 21
1689.749715480284
 31
0.0
  0
LWPOLYLINE
  5
168
330
164
100
AcDbEntity
  8
P-SANR-FIXT
100
AcDbPolyline
 90
       20
 70
   128
 43
0.0
 10
745.4558509551388
 20
1647.641937354737
 10
745.3758722867653
 20
1647.643537141415
 10
745.2960215672003
 20
1647.648333942131
 10
745.216426540561
 20
1647.656320083029
 10
745.1372145419102
 20
1647.667482787985
 10
745.0585122935486
 20
1647.681804199054
 10
744.9804457022844
 20
1647.699261405033
 10
744.9031396580103
 20
1647.719826478115
 10
744.8267178339065
 20
1647.743466518572
 10
744.7513024885884
 20
1647.770143707381
 10
744.6770142705214
 20
1647.799815366731
 10
744.6039720250068
 20
1647.832434028297
 10
744.5322926040558
 20
1647.867947509178
 10
744.4620906794511
 20
1647.906298995382
 10
744.393478559297
 20
1647.94742713271
 10
744.3265660083486
 20
1647.991266124918
 10
744.2614600724139
 20
1648.037745838968
 10
744.1982649071016
 20
1648.086791917235
 10
744.1370816111958
 20
1648.138325896455
 10
744.0918542350138
 20
1648.179229951498
  0
LWPOLYLINE
  5
169
330
164
100
AcDbEntity
  8
P-SANR-FIXT
100
AcDbPolyline
 90
       20
 70
   128
 43
0.0
 10
744.0918542350138
 20
1699.31252750861
 10
744.1514379820699
 20
1699.365902819372
 10
744.2131085116232
 20
1699.416852721205
 10
744.2767671639818
 20
1699.465295705135
 10
744.3423120988817
 20
1699.511154272722
 10
744.4096384584095
 20
1699.554355060041
 10
744.4786385347518
 20
1699.594828955046
 10
744.5492019425061
 20
1699.632511208141
 10
744.6212157952722
 20
1699.667341535758
 10
744.6945648862481
 20
1699.699264216805
 10
744.7691318725353
 20
1699.728228181799
 10
744.8447974628623
 20
1699.754187094578
 10
744.921440608426
 20
1699.777099426417
 10
744.998938696543
 20
1699.796928522473
 10
745.0771677468042
 20
1699.813642660422
 10
745.1560026094173
 20
1699.82721510121
 10
745.2353171654192
 20
1699.837624131827
 10
745.3149845284403
 20
1699.844853100044
 10
745.394877247694
 20
1699.848890441053
 10
745.4558509551388
 20
1699.849820105372
  0
LINE
  5
16A
330
164
100
AcDbEntity
  8
P-SANR-FIXT
100
AcDbLine
 10
747.4035030800309
 20
1699.849820105371
 30
0.0
 11
745.4558509551388
 21
1699.849820105371
 31
0.0
  0
ARC
  5
16B
330
164
100
AcDbEntity
  8
P-SANR-FIXT
100
AcDbCircle
 10
728.1639074431893
 20
1673.745878730054
 30
0.0
 40
16.0
100
AcDbArc
 50
180.0
 51
0.0
  0
ARC
  5
16C
330
164
100
AcDbEntity
  8
P-SANR-FIXT
100
AcDbCircle
 10
728.1639074431893
 20
1673.745878730054
 30
0.0
 40
16.0
100
AcDbArc
 50
0.0
 51
180.0
  0
ARC
  5
16D
330
164
100
AcDbEntity
  8
P-SANR-FIXT
100
AcDbCircle
 10
728.1639074431893
 20
1673.745878730054
 30
0.0
 40
17.0
100
AcDbArc
 50
180.0
 51
0.0
  0
ARC
  5
16E
330
164
100
AcDbEntity
  8
P-SANR-FIXT
100
AcDbCircle
 10
728.1639074431893
 20
1673.745878730054
 30
0.0
 40
17.0
100
AcDbArc
 50
0.0
 51
180.0
  0
ARC
  5
16F
330
164
100
AcDbEntity
  8
P-SANR-FIXT
100
AcDbCircle
 10
728.1639074431893
 20
1673.745878730054
 30
0.0
 40
9.550000000000068
100
AcDbArc
 50
180.0
 51
0.0
  0
ARC
  5
170
330
164
100
AcDbEntity
  8
P-SANR-FIXT
100
AcDbCircle
 10
728.1639074431893
 20
1673.745878730054
 30
0.0
 40
9.549999999999954
100
AcDbArc
 50
0.0
 51
180.0
  0
LWPOLYLINE
  5
171
330
164
100
AcDbEntity
  8
P-SANR-FIXT
100
AcDbPolyline
 90
        5
 70
   128
 43
0.0
 10
734.3717282330284
 20
1690.245878730054
 10
733.8911846429374
 20
1690.245878730054
 10
733.2306660915276
 20
1690.245878730054
 10
732.6068424293345
 20
1690.245878730054
 10
732.1724939796147
 20
1690.245878730054
  0
LWPOLYLINE
  5
172
330
164
100
AcDbEntity
  8
P-SANR-FIXT
100
AcDbPolyline
 90
        5
 70
   128
 43
0.0
 10
732.1724939796141
 20
1657.245878730054
 10
732.4448868955799
 20
1657.245878730054
 10
733.0586327864847
 20
1657.245878730054
 10
733.7093487831954
 20
1657.245878730054
 10
734.3717282345941
 20
1657.245878730054
  0
ARC
  5
173
330
164
100
AcDbEntity
  8
P-SANR-FIXT
100
AcDbCircle
 10
815.6664074431869
 20
1673.745878730054
 30
0.0
 40
13.40000000000029
100
AcDbArc
 50
26.42439207882428
 51
33.5756079211784
  0
LINE
  5
174
330
164
100
AcDbEntity
  8
P-SANR-FIXT
100
AcDbLine
 10
826.8307079766577
 20
1681.156573272291
 30
0.0
 11
821.6664074431871
 21
1684.138183575466
 31
0.0
  0
ARC
  5
175
330
164
100
AcDbEntity
  8
P-SANR-FIXT
100
AcDbCircle
 10
815.6664074431878
 20
1673.745878730054
 30
0.0
 40
11.99999999999925
100
AcDbArc
 50
50.0000000000026
 51
55.00000000000216
  0
ARC
  5
176
330
164
100
AcDbEntity
  8
P-SANR-FIXT
100
AcDbCircle
 10
815.6664074431878
 20
1673.745878730054
 30
0.0
 40
11.99999999999938
100
AcDbArc
 50
35.00000000000281
 51
40.00000000000251
  0
ARC
  5
177
330
164
100
AcDbEntity
  8
P-SANR-FIXT
100
AcDbCircle
 10
815.6664074431878
 20
1673.745878730054
 30
0.0
 40
11.99999999999927
100
AcDbArc
 50
20.00000000000115
 51
25.00000000000234
  0
ARC
  5
178
330
164
100
AcDbEntity
  8
P-SANR-FIXT
100
AcDbCircle
 10
815.6664074431878
 20
1673.745878730054
 30
0.0
 40
11.99999999999925
100
AcDbArc
 50
5.00000000000219
 51
10.00000000000238
  0
LINE
  5
179
330
164
100
AcDbEntity
  8
P-SANR-FIXT
100
AcDbLine
 10
827.6664074431868
 20
1673.745878730054
 30
0.0
 11
827.6664074431865
 21
1679.709099336405
 31
0.0
  0
ARC
  5
17A
330
164
100
AcDbEntity
  8
P-SANR-FIXT
100
AcDbCircle
 10
815.6664074431869
 20
1673.745878730054
 30
0.0
 40
13.40000000000035
100
AcDbArc
 50
86.42439207882508
 51
93.57560792117835
  0
LINE
  5
17B
330
164
100
AcDbEntity
  8
P-SANR-FIXT
100
AcDbLine
 10
814.8307079766576
 20
1687.119793878642
 30
0.0
 11
809.6664074431874
 21
1684.138183575466
 31
0.0
  0
ARC
  5
17C
330
164
100
AcDbEntity
  8
P-SANR-FIXT
100
AcDbCircle
 10
815.6664074431878
 20
1673.745878730054
 30
0.0
 40
11.99999999999922
100
AcDbArc
 50
110.0000000000029
 51
115.0000000000026
  0
ARC
  5
17D
330
164
100
AcDbEntity
  8
P-SANR-FIXT
100
AcDbCircle
 10
815.6664074431878
 20
1673.745878730054
 30
0.0
 40
11.99999999999925
100
AcDbArc
 50
95.00000000000225
 51
100.0000000000025
  0
ARC
  5
17E
330
164
100
AcDbEntity
  8
P-SANR-FIXT
100
AcDbCircle
 10
815.6664074431878
 20
1673.745878730054
 30
0.0
 40
11.99999999999928
100
AcDbArc
 50
80.00000000000198
 51
85.00000000000262
  0
ARC
  5
17F
330
164
100
AcDbEntity
  8
P-SANR-FIXT
100
AcDbCircle
 10
815.6664074431878
 20
1673.745878730054
 30
0.0
 40
11.9999999999993
100
AcDbArc
 50
65.00000000000241
 51
70.00000000000222
  0
LINE
  5
180
330
164
100
AcDbEntity
  8
P-SANR-FIXT
100
AcDbLine
 10
821.6664074431871
 20
1684.138183575466
 30
0.0
 11
816.5021069097155
 21
1687.119793878642
 31
0.0
  0
ARC
  5
181
330
164
100
AcDbEntity
  8
P-SANR-FIXT
100
AcDbCircle
 10
815.6664074431869
 20
1673.745878730054
 30
0.0
 40
13.40000000000028
100
AcDbArc
 50
146.4243920788248
 51
153.5756079211787
  0
LINE
  5
182
330
164
100
AcDbEntity
  8
P-SANR-FIXT
100
AcDbLine
 10
803.666407443187
 20
1679.709099336404
 30
0.0
 11
803.6664074431872
 21
1673.745878730053
 31
0.0
  0
ARC
  5
183
330
164
100
AcDbEntity
  8
P-SANR-FIXT
100
AcDbCircle
 10
815.6664074431878
 20
1673.745878730054
 30
0.0
 40
11.9999999999993
100
AcDbArc
 50
170.0000000000019
 51
175.000000000002
  0
ARC
  5
184
330
164
100
AcDbEntity
  8
P-SANR-FIXT
100
AcDbCircle
 10
815.6664074431878
 20
1673.745878730054
 30
0.0
 40
11.9999999999993
100
AcDbArc
 50
155.000000000002
 51
160.000000000002
  0
ARC
  5
185
330
164
100
AcDbEntity
  8
P-SANR-FIXT
100
AcDbCircle
 10
815.6664074431878
 20
1673.745878730054
 30
0.0
 40
11.99999999999934
100
AcDbArc
 50
140.0000000000026
 51
145.000000000002
  0
ARC
  5
186
330
164
100
AcDbEntity
  8
P-SANR-FIXT
100
AcDbCircle
 10
815.6664074431878
 20
1673.745878730054
 30
0.0
 40
11.9999999999993
100
AcDbArc
 50
125.0000000000031
 51
130.0000000000026
  0
LINE
  5
187
330
164
100
AcDbEntity
  8
P-SANR-FIXT
100
AcDbLine
 10
809.6664074431874
 20
1684.138183575466
 30
0.0
 11
804.5021069097158
 21
1681.156573272291
 31
0.0
  0
ARC
  5
188
330
164
100
AcDbEntity
  8
P-SANR-FIXT
100
AcDbCircle
 10
815.6664074431869
 20
1673.745878730054
 30
0.0
 40
13.40000000000034
100
AcDbArc
 50
206.4243920788251
 51
213.5756079211792
  0
LINE
  5
189
330
164
100
AcDbEntity
  8
P-SANR-FIXT
100
AcDbLine
 10
804.5021069097163
 20
1666.335184187816
 30
0.0
 11
809.6664074431881
 21
1663.35357388464
 31
0.0
  0
ARC
  5
18A
330
164
100
AcDbEntity
  8
P-SANR-FIXT
100
AcDbCircle
 10
815.6664074431878
 20
1673.745878730054
 30
0.0
 40
11.99999999999938
100
AcDbArc
 50
230.000000000002
 51
235.0000000000014
  0
ARC
  5
18B
330
164
100
AcDbEntity
  8
P-SANR-FIXT
100
AcDbCircle
 10
815.6664074431878
 20
1673.745878730054
 30
0.0
 40
11.99999999999932
100
AcDbArc
 50
215.0000000000019
 51
220.0000000000021
  0
ARC
  5
18C
330
164
100
AcDbEntity
  8
P-SANR-FIXT
100
AcDbCircle
 10
815.6664074431878
 20
1673.745878730054
 30
0.0
 40
11.99999999999938
100
AcDbArc
 50
200.0000000000021
 51
205.0000000000021
  0
ARC
  5
18D
330
164
100
AcDbEntity
  8
P-SANR-FIXT
100
AcDbCircle
 10
815.6664074431878
 20
1673.745878730054
 30
0.0
 40
11.99999999999934
100
AcDbArc
 50
185.0000000000018
 51
190.0000000000009
  0
LINE
  5
18E
330
164
100
AcDbEntity
  8
P-SANR-FIXT
100
AcDbLine
 10
803.6664074431872
 20
1673.745878730053
 30
0.0
 11
803.6664074431874
 21
1667.782658123702
 31
0.0
  0
ARC
  5
18F
330
164
100
AcDbEntity
  8
P-SANR-FIXT
100
AcDbCircle
 10
815.6664074431869
 20
1673.745878730054
 30
0.0
 40
13.40000000000024
100
AcDbArc
 50
266.4243920788247
 51
273.575607921179
  0
LINE
  5
190
330
164
100
AcDbEntity
  8
P-SANR-FIXT
100
AcDbLine
 10
816.5021069097164
 20
1660.371963581465
 30
0.0
 11
821.6664074431879
 21
1663.353573884641
 31
0.0
  0
ARC
  5
191
330
164
100
AcDbEntity
  8
P-SANR-FIXT
100
AcDbCircle
 10
815.6664074431878
 20
1673.745878730054
 30
0.0
 40
11.99999999999938
100
AcDbArc
 50
290.0000000000012
 51
295.0000000000014
  0
ARC
  5
192
330
164
100
AcDbEntity
  8
P-SANR-FIXT
100
AcDbCircle
 10
815.6664074431878
 20
1673.745878730054
 30
0.0
 40
11.99999999999934
100
AcDbArc
 50
275.0000000000014
 51
280.0000000000015
  0
ARC
  5
193
330
164
100
AcDbEntity
  8
P-SANR-FIXT
100
AcDbCircle
 10
815.6664074431878
 20
1673.745878730054
 30
0.0
 40
11.9999999999993
100
AcDbArc
 50
260.0000000000012
 51
265.0000000000012
  0
ARC
  5
194
330
164
100
AcDbEntity
  8
P-SANR-FIXT
100
AcDbCircle
 10
815.6664074431878
 20
1673.745878730054
 30
0.0
 40
11.99999999999934
100
AcDbArc
 50
245.0000000000013
 51
250.0000000000015
  0
LINE
  5
195
330
164
100
AcDbEntity
  8
P-SANR-FIXT
100
AcDbLine
 10
809.6664074431881
 20
1663.35357388464
 30
0.0
 11
814.8307079766585
 21
1660.371963581465
 31
0.0
  0
ARC
  5
196
330
164
100
AcDbEntity
  8
P-SANR-FIXT
100
AcDbCircle
 10
815.6664074431869
 20
1673.745878730054
 30
0.0
 40
13.40000000000034
100
AcDbArc
 50
326.4243920788245
 51
333.5756079211782
  0
LINE
  5
197
330
164
100
AcDbEntity
  8
P-SANR-FIXT
100
AcDbLine
 10
827.6664074431872
 20
1667.782658123703
 30
0.0
 11
827.6664074431868
 21
1673.745878730054
 31
0.0
  0
ARC
  5
198
330
164
100
AcDbEntity
  8
P-SANR-FIXT
100
AcDbCircle
 10
815.6664074431878
 20
1673.745878730054
 30
0.0
 40
11.99999999999928
100
AcDbArc
 50
350.0000000000018
 51
355.0000000000018
  0
ARC
  5
199
330
164
100
AcDbEntity
  8
P-SANR-FIXT
100
AcDbCircle
 10
815.6664074431878
 20
1673.745878730054
 30
0.0
 40
11.99999999999927
100
AcDbArc
 50
335.0000000000024
 51
340.0000000000021
  0
ARC
  5
19A
330
164
100
AcDbEntity
  8
P-SANR-FIXT
100
AcDbCircle
 10
815.6664074431878
 20
1673.745878730054
 30
0.0
 40
11.99999999999919
100
AcDbArc
 50
320.0000000000026
 51
325.0000000000026
  0
ARC
  5
19B
330
164
100
AcDbEntity
  8
P-SANR-FIXT
100
AcDbCircle
 10
815.6664074431878
 20
1673.745878730054
 30
0.0
 40
11.99999999999938
100
AcDbArc
 50
305.0000000000023
 51
310.0000000000026
  0
LINE
  5
19C
330
164
100
AcDbEntity
  8
P-SANR-FIXT
100
AcDbLine
 10
821.6664074431879
 20
1663.353573884641
 30
0.0
 11
826.8307079766582
 21
1666.335184187817
 31
0.0
  0
ARC
  5
19D
330
164
100
AcDbEntity
  8
P-SANR-FIXT
100
AcDbCircle
 10
815.6664074431878
 20
1673.745878730054
 30
0.0
 40
11.44301670504944
100
AcDbArc
 50
180.0
 51
0.0
  0
ARC
  5
19E
330
164
100
AcDbEntity
  8
P-SANR-FIXT
100
AcDbCircle
 10
815.6664074431878
 20
1673.745878730054
 30
0.0
 40
11.44301670504944
100
AcDbArc
 50
0.0
 51
180.0
  0
ARC
  5
19F
330
164
100
AcDbEntity
  8
P-SANR-FIXT
100
AcDbCircle
 10
815.6664074431878
 20
1673.745878730054
 30
0.0
 40
11.99999999999932
100
AcDbArc
 50
180.0
 51
0.0
  0
ARC
  5
1A0
330
164
100
AcDbEntity
  8
P-SANR-FIXT
100
AcDbCircle
 10
815.6664074431878
 20
1673.745878730054
 30
0.0
 40
11.99999999999932
100
AcDbArc
 50
0.0
 51
180.0
  0
LINE
  5
1A1
330
164
100
AcDbEntity
  8
P-SANR-FIXT
100
AcDbLine
 10
747.4035030800309
 20
1640.995878730063
 30
0.0
 11
767.5563171906855
 21
1640.995878730063
 31
0.0
  0
LINE
  5
1A2
330
164
100
AcDbEntity
  8
P-SANR-FIXT
100
AcDbLine
 10
767.5563171906855
 20
1706.495878730045
 30
0.0
 11
747.4035030800309
 21
1706.495878730045
 31
0.0
  0
LINE
  5
1A3
330
164
100
AcDbEntity
  8
P-SANR-FIXT
100
AcDbLine
 10
767.5563171906855
 20
1640.995878730063
 30
0.0
 11
768.2035030800319
 21
1641.64306461941
 31
0.0
  0
LINE
  5
1A4
330
164
100
AcDbEntity
  8
P-SANR-FIXT
100
AcDbLine
 10
768.2035030800319
 20
1705.848692840698
 30
0.0
 11
767.5563171906855
 21
1706.495878730045
 31
0.0
  0
LINE
  5
1A5
330
164
100
AcDbEntity
  8
P-SANR-FIXT
100
AcDbLine
 10
747.4035030800295
 20
1640.995878730063
 30
0.0
 11
747.4035030800295
 21
1673.745878730053
 31
0.0
  0
LINE
  5
1A6
330
164
100
AcDbEntity
  8
P-SANR-FIXT
100
AcDbLine
 10
747.4035030800295
 20
1673.745878730054
 30
0.0
 11
747.4035030800295
 21
1706.495878730044
 31
0.0
  0
LINE
  5
1A7
330
164
100
AcDbEntity
  8
P-SANR-FIXT
100
AcDbLine
 10
767.556317190684
 20
1640.995878730063
 30
0.0
 11
767.556317190684
 21
1673.745878730053
 31
0.0
  0
LINE
  5
1A8
330
164
100
AcDbEntity
  8
P-SANR-FIXT
100
AcDbLine
 10
767.556317190684
 20
1673.745878730054
 30
0.0
 11
767.556317190684
 21
1706.495878730044
 31
0.0
  0
LINE
  5
1A9
330
164
100
AcDbEntity
  8
P-SANR-FIXT
100
AcDbLine
 10
768.2035030800306
 20
1641.64306461941
 30
0.0
 11
768.2035030800306
 21
1673.745878730053
 31
0.0
  0
LINE
  5
1AA
330
164
100
AcDbEntity
  8
P-SANR-FIXT
100
AcDbLine
 10
768.2035030800306
 20
1673.745878730054
 30
0.0
 11
768.2035030800306
 21
1705.848692840698
 31
0.0
  0
ARC
  5
1AB
330
164
100
AcDbEntity
  8
P-SANR-FIXT
100
AcDbCircle
 10
815.6664074431878
 20
1673.745878730054
 30
0.0
 40
13.99999999999966
100
AcDbArc
 50
180.0
 51
0.0
  0
ARC
  5
1AC
330
164
100
AcDbEntity
  8
P-SANR-FIXT
100
AcDbCircle
 10
815.6664074431878
 20
1673.745878730054
 30
0.0
 40
13.99999999999966
100
AcDbArc
 50
0.0
 51
180.0
  0
ARC
  5
1AD
330
164
100
AcDbEntity
  8
P-SANR-FIXT
100
AcDbCircle
 10
815.6664074431878
 20
1673.745878730054
 30
0.0
 40
42.00000000000009
100
AcDbArc
 50
179.9999999999998
 51
359.9999999999992
  0
ARC
  5
1AE
330
164
100
AcDbEntity
  8
P-SANR-FIXT
100
AcDbCircle
 10
815.6664074431878
 20
1673.745878730054
 30
0.0
 40
42.00000000000005
100
AcDbArc
 50
359.9999999999996
 51
179.9999999999996
  0
LINE
  5
1AF
330
164
100
AcDbEntity
  8
P-SANR-FIXT
100
AcDbLine
 10
768.2035030918002
 20
1644.745878730054
 30
0.0
 11
769.7035030800565
 21
1644.745878730054
 31
0.0
  0
LINE
  5
1B0
330
164
100
AcDbEntity
  8
P-SANR-FIXT
100
AcDbLine
 10
769.7035030800565
 20
1702.745878730054
 30
0.0
 11
768.2035030918002
 21
1702.745878730054
 31
0.0
  0
LINE
  5
1B1
330
164
100
AcDbEntity
  8
P-SANR-FIXT
100
AcDbLine
 10
769.7035030800565
 20
1644.745878730054
 30
0.0
 11
769.7427892548731
 21
1644.813924380871
 31
0.0
  0
LINE
  5
1B2
330
164
100
AcDbEntity
  8
P-SANR-FIXT
100
AcDbLine
 10
769.7551166478277
 20
1644.835276051794
 30
0.0
 11
771.4932889145442
 21
1647.845878730054
 31
0.0
  0
LINE
  5
1B3
330
164
100
AcDbEntity
  8
P-SANR-FIXT
100
AcDbLine
 10
771.4932889145442
 20
1699.645878730055
 30
0.0
 11
769.7551166478277
 21
1702.656481408315
 31
0.0
  0
LINE
  5
1B4
330
164
100
AcDbEntity
  8
P-SANR-FIXT
100
AcDbLine
 10
769.7427892548729
 20
1702.677833079238
 30
0.0
 11
769.7035030800565
 21
1702.745878730055
 31
0.0
  0
LWPOLYLINE
  5
1B5
330
164
100
AcDbEntity
  8
P-SANR-FIXT
100
AcDbPolyline
 90
       28
 70
   128
 43
0.0
 10
772.1861092375718
 20
1648.245878730054
 10
772.1541177702227
 20
1648.245238815382
 10
772.1221774823966
 20
1648.243320095096
 10
772.0903394717407
 20
1648.240125638737
 10
772.0586546722804
 20
1648.235660556755
 10
772.0271737729357
 20
1648.229931992327
 10
771.9959471364302
 20
1648.222949109936
 10
771.9650247187206
 20
1648.214723080702
 10
771.934455989079
 20
1648.20526706452
 10
771.9042898509518
 20
1648.194596188996
 10
771.8745745637249
 20
1648.182727525257
 10
771.8453576655191
 20
1648.16968006063
 10
771.8166858971386
 20
1648.155474668277
 10
771.7886051272968
 20
1648.140134073796
 10
771.7611602792352
 20
1648.123682818865
 10
771.7343952588557
 20
1648.106147221982
 10
771.708352884482
 20
1648.087555336362
 10
771.6830748183572
 20
1648.067936905055
 10
771.6586014999948
 20
1648.047323313367
 10
771.6349720814835
 20
1648.025747538647
 10
771.6122243648522
 20
1648.003244097532
 10
771.5903947415952
 20
1647.979848990727
 10
771.5695181344527
 20
1647.955599645413
 10
771.5496279415427
 20
1647.930534855369
 10
771.5307559829311
 20
1647.904694718912
 10
771.5129324497255
 20
1647.878120574748
 10
771.4961858557773
 20
1647.85085493584
 10
771.4932889145442
 20
1647.845878730054
  0
LWPOLYLINE
  5
1B6
330
164
100
AcDbEntity
  8
P-SANR-FIXT
100
AcDbPolyline
 90
       28
 70
   128
 43
0.0
 10
771.4932889145442
 20
1699.645878730055
 10
771.5098388305805
 20
1699.618493263961
 10
771.5274706350045
 20
1699.591791523443
 10
771.5461561206906
 20
1699.565816225589
 10
771.5658653948477
 20
1699.540608925333
 10
771.5865669268413
 20
1699.516209948981
 10
771.6082275986369
 20
1699.492658329688
 10
771.6308127577796
 20
1699.469991745021
 10
771.6542862728333
 20
1699.448246456682
 10
771.678610591181
 20
1699.427457252491
 10
771.7037467991023
 20
1699.407657390742
 10
771.7296546840266
 20
1699.388878546989
 10
771.7562927988648
 20
1699.371150763377
 10
771.7836185283156
 20
1699.354502400577
 10
771.8115881570412
 20
1699.338960092418
 10
771.8401569396021
 20
1699.324548703278
 10
771.8692791720403
 20
1699.311291288305
 10
771.8989082649969
 20
1699.299209056536
 10
771.928996818243
 20
1699.288321336964
 10
771.9594966965127
 20
1699.278645547616
 10
771.9903591065063
 20
1699.270197167693
 10
772.021534674952
 20
1699.262989712799
 10
772.0529735275905
 20
1699.257034713326
 10
772.0846253689641
 20
1699.252341696002
 10
772.1164395628789
 20
1699.248918168654
 10
772.148365213411
 20
1699.246769608194
 10
772.1803512463302
 20
1699.245899451862
 10
772.1861092375718
 20
1699.245878730055
  0
LINE
  5
1B7
330
164
100
AcDbEntity
  8
P-SANR-FIXT
100
AcDbLine
 10
772.1861092375718
 20
1648.245878730054
 30
0.0
 11
782.343791246715
 21
1648.245878730054
 31
0.0
  0
LINE
  5
1B8
330
164
100
AcDbEntity
  8
P-SANR-FIXT
100
AcDbLine
 10
782.343791246715
 20
1699.245878730055
 30
0.0
 11
772.1861092375718
 21
1699.245878730055
 31
0.0
  0
LINE
  5
1B9
330
164
100
AcDbEntity
  8
P-SANR-FIXT
100
AcDbLine
 10
769.703503080055
 20
1644.745878730053
 30
0.0
 11
769.703503080055
 21
1673.745878730053
 31
0.0
  0
LINE
  5
1BA
330
164
100
AcDbEntity
  8
P-SANR-FIXT
100
AcDbLine
 10
769.703503080055
 20
1673.745878730054
 30
0.0
 11
769.703503080055
 21
1702.745878730054
 31
0.0
  0
ENDBLK
  5
1BC
330
164
100
AcDbEntity
  8
0
100
AcDbBlockEnd
  0
BLOCK
  5
2BB
330
1BE
100
AcDbEntity
  8
0
100
AcDbBlockBegin
  2
Automatic flow rate regulator valve_Caleffi_121 DN15 - 1_2__-V2-Est - Idraulica
 70
     0
 10
0.0
 20
0.0
 30
0.0
  3
Automatic flow rate regulator valve_Caleffi_121 DN15 - 1_2__-V2-Est - Idraulica
  1

  0
LINE
  5
1BF
330
1BE
100
AcDbEntity
  8
P-SANR-FIXT
100
AcDbLine
 10
1152.45462269079
 20
2002.913032239357
 30
0.0
 11
1157.475569875328
 21
2011.609567865096
 31
0.0
  0
LINE
  5
1C0
330
1BE
100
AcDbEntity
  8
P-SANR-FIXT
100
AcDbLine
 10
1126.753138010866
 20
2011.609567865096
 30
0.0
 11
1131.774085195404
 21
2002.913032239357
 31
0.0
  0
LWPOLYLINE
  5
1C1
330
1BE
100
AcDbEntity
  8
P-SANR-FIXT
100
AcDbPolyline
 90
       15
 70
   128
 43
0.0
 10
1158.614353943161
 20
2015.859567865096
 10
1158.607554849779
 20
2015.51965852451
 10
1158.587168446733
 20
2015.180292966358
 10
1158.553227347918
 20
2014.842014103141
 10
1158.505785851853
 20
2014.505363108875
 10
1158.444919854811
 20
2014.170878553338
 10
1158.370726729403
 20
2013.839095540466
 10
1158.283325168802
 20
2013.510544852301
 10
1158.182854996861
 20
2013.185752099859
 10
1158.069476944423
 20
2012.865236882258
 10
1157.943372392185
 20
2012.549511955473
 10
1157.80474308053
 20
2012.239082412035
 10
1157.653810786785
 20
2011.934444872994
 10
1157.490816970421
 20
2011.636086693425
 10
1157.475569875328
 20
2011.609567865096
  0
LWPOLYLINE
  5
1C2
330
1BE
100
AcDbEntity
  8
P-SANR-FIXT
100
AcDbPolyline
 90
       15
 70
   128
 43
0.0
 10
1126.753138010866
 20
2011.609567865096
 10
1126.589071528164
 20
2011.907337535719
 10
1126.437043892018
 20
2012.21142993177
 10
1126.297298314215
 20
2012.521358570287
 10
1126.170058357868
 20
2012.836627631563
 10
1126.055527579765
 20
2013.156732752353
 10
1125.953889204718
 20
2013.481161832749
 10
1125.865305832447
 20
2013.80939585543
 10
1125.789919177449
 20
2014.14090971598
 10
1125.727849842292
 20
2014.475173062942
 10
1125.67919712467
 20
2014.811651146265
 10
1125.644038858554
 20
2015.149805672794
 10
1125.622431289668
 20
2015.489095667424
 10
1125.614408985514
 20
2015.828978338539
 10
1125.614353943034
 20
2015.859567865096
  0
LINE
  5
1C3
330
1BE
100
AcDbEntity
  8
P-SANR-FIXT
100
AcDbLine
 10
1158.614353943161
 20
2015.859567865096
 30
0.0
 11
1158.614353943161
 21
2038.482558850049
 31
0.0
  0
LINE
  5
1C4
330
1BE
100
AcDbEntity
  8
P-SANR-FIXT
100
AcDbLine
 10
1125.614353943034
 20
2038.482558850049
 30
0.0
 11
1125.614353943034
 21
2015.859567865096
 31
0.0
  0
LINE
  5
1C5
330
1BE
100
AcDbEntity
  8
P-SANR-FIXT
100
AcDbLine
 10
1158.614353943161
 20
2038.482558850049
 30
0.0
 11
1159.114353943097
 21
2039.348584253724
 31
0.0
  0
LINE
  5
1C6
330
1BE
100
AcDbEntity
  8
P-SANR-FIXT
100
AcDbLine
 10
1125.114353943097
 20
2039.348584253724
 30
0.0
 11
1125.614353943034
 21
2038.482558850049
 31
0.0
  0
LINE
  5
1C7
330
1BE
100
AcDbEntity
  8
P-SANR-FIXT
100
AcDbLine
 10
1159.114353943097
 20
2039.348584253724
 30
0.0
 11
1159.114353943097
 21
2047.405208580858
 31
0.0
  0
LINE
  5
1C8
330
1BE
100
AcDbEntity
  8
P-SANR-FIXT
100
AcDbLine
 10
1125.114353943097
 20
2047.405208580858
 30
0.0
 11
1125.114353943097
 21
2039.348584253724
 31
0.0
  0
LINE
  5
1C9
330
1BE
100
AcDbEntity
  8
P-SANR-FIXT
100
AcDbLine
 10
1159.114353943097
 20
2047.405208580858
 30
0.0
 11
1159.049259953993
 21
2047.442790612991
 31
0.0
  0
LINE
  5
1CA
330
1BE
100
AcDbEntity
  8
P-SANR-FIXT
100
AcDbLine
 10
1159.032494296525
 20
2047.452470269843
 30
0.0
 11
1158.114353943097
 21
2047.982558850049
 31
0.0
  0
LINE
  5
1CB
330
1BE
100
AcDbEntity
  8
P-SANR-FIXT
100
AcDbLine
 10
1126.114353943097
 20
2047.982558850049
 30
0.0
 11
1125.19621358967
 21
2047.452470269843
 31
0.0
  0
LINE
  5
1CC
330
1BE
100
AcDbEntity
  8
P-SANR-FIXT
100
AcDbLine
 10
1125.179447932202
 20
2047.442790612991
 30
0.0
 11
1125.114353943097
 21
2047.405208580858
 31
0.0
  0
LINE
  5
1CD
330
1BE
100
AcDbEntity
  8
P-SANR-FIXT
100
AcDbLine
 10
1158.114353943097
 20
1951.982558849974
 30
0.0
 11
1159.032494296524
 21
1952.512647430179
 31
0.0
  0
LINE
  5
1CE
330
1BE
100
AcDbEntity
  8
P-SANR-FIXT
100
AcDbLine
 10
1159.049259953993
 20
1952.522327087032
 30
0.0
 11
1159.114353943097
 21
1952.559909119164
 31
0.0
  0
LINE
  5
1CF
330
1BE
100
AcDbEntity
  8
P-SANR-FIXT
100
AcDbLine
 10
1125.114353943097
 20
1952.559909119164
 30
0.0
 11
1125.179447932202
 21
1952.522327087032
 31
0.0
  0
LINE
  5
1D0
330
1BE
100
AcDbEntity
  8
P-SANR-FIXT
100
AcDbLine
 10
1125.19621358967
 20
1952.512647430179
 30
0.0
 11
1126.114353943098
 21
1951.982558849974
 31
0.0
  0
LINE
  5
1D1
330
1BE
100
AcDbEntity
  8
P-SANR-FIXT
100
AcDbLine
 10
1159.114353943097
 20
1952.559909119164
 30
0.0
 11
1159.114353943097
 21
1960.61653344623
 31
0.0
  0
LINE
  5
1D2
330
1BE
100
AcDbEntity
  8
P-SANR-FIXT
100
AcDbLine
 10
1125.114353943097
 20
1960.61653344623
 30
0.0
 11
1125.114353943097
 21
1952.559909119164
 31
0.0
  0
LINE
  5
1D3
330
1BE
100
AcDbEntity
  8
P-SANR-FIXT
100
AcDbLine
 10
1159.114353943097
 20
1960.61653344623
 30
0.0
 11
1158.614353943121
 21
1961.482558849974
 31
0.0
  0
LINE
  5
1D4
330
1BE
100
AcDbEntity
  8
P-SANR-FIXT
100
AcDbLine
 10
1125.614353943074
 20
1961.482558849974
 30
0.0
 11
1125.114353943097
 21
1960.61653344623
 31
0.0
  0
LINE
  5
1D5
330
1BE
100
AcDbEntity
  8
P-SANR-FIXT
100
AcDbLine
 10
1158.61435394312
 20
1961.482558849974
 30
0.0
 11
1158.61435394312
 21
1971.982558849951
 31
0.0
  0
LINE
  5
1D6
330
1BE
100
AcDbEntity
  8
P-SANR-FIXT
100
AcDbLine
 10
1125.614353943074
 20
1971.982558849951
 30
0.0
 11
1125.614353943074
 21
1961.482558849974
 31
0.0
  0
LWPOLYLINE
  5
1D7
330
1BE
100
AcDbEntity
  8
P-SANR-FIXT
100
AcDbPolyline
 90
       46
 70
   128
 43
0.0
 10
1158.614353943097
 20
1979.757303001394
 10
1159.326892764024
 20
1980.357466170889
 10
1160.097918958462
 20
1981.061482118911
 10
1160.840175285166
 20
1981.795767753422
 10
1161.55247429235
 20
1982.559148374045
 10
1162.233676453554
 20
1983.350402734634
 10
1162.882691990634
 20
1984.168264997004
 10
1163.498482617181
 20
1985.011426756003
 10
1164.080063199553
 20
1985.87853913268
 10
1164.626503332883
 20
1986.768214932208
 10
1165.136928829525
 20
1987.679030863095
 10
1165.61052311757
 20
1988.609529814149
 10
1166.046528547184
 20
1989.558223185542
 10
1166.44424760269
 20
1990.52359327026
 10
1166.803044018442
 20
1991.5040956821
 10
1167.122343796712
 20
1992.498161826366
 10
1167.401636125969
 20
1993.504201409284
 10
1167.640474198067
 20
1994.520604982131
 10
1167.838475923038
 20
1995.545746516012
 10
1167.995324540362
 20
1996.577986003159
 10
1168.11076912571
 20
1997.615672080589
 10
1168.184624992371
 20
1998.657144671942
 10
1168.216773986715
 20
1999.700737643241
 10
1168.207164677208
 20
2000.744781468351
 10
1168.155812436696
 20
2001.78760589987
 10
1168.062799417809
 20
2002.827542641167
 10
1167.928274421536
 20
2003.862928015295
 10
1167.752452659173
 20
2004.892105626526
 10
1167.535615408034
 20
2005.913429010229
 10
1167.278109561464
 20
2006.92526426686
 10
1166.980347073886
 20
2007.925992675856
 10
1166.642804301762
 20
2008.914013285239
 10
1166.26602124152
 20
2009.887745472802
 10
1165.850600665682
 20
2010.845631474762
 10
1165.39720715855
 20
2011.786138877853
 10
1164.906566053018
 20
2012.707763070864
 10
1164.379462270189
 20
2013.609029651686
 10
1163.816739063673
 20
2014.488496786051
 10
1163.219296670559
 20
2015.344757514153
 10
1162.588090871229
 20
2016.176442001487
 10
1161.924131460312
 20
2016.98221973029
 10
1161.228480631227
 20
2017.760801628085
 10
1160.502251276904
 20
2018.510942129924
 10
1159.74660520939
 20
2019.231441171027
 10
1158.962751301196
 20
2019.921146106625
 10
1158.610369188955
 20
2020.207033332652
  0
LWPOLYLINE
  5
1D8
330
1BE
100
AcDbEntity
  8
P-SANR-FIXT
100
AcDbPolyline
 90
       46
 70
   128
 43
0.0
 10
1125.618337795235
 20
2020.211170250993
 10
1124.901815122171
 20
2019.607651529132
 10
1124.130788927732
 20
2018.90363558111
 10
1123.388532601029
 20
2018.1693499466
 10
1122.676233593844
 20
2017.405969325976
 10
1121.995031432641
 20
2016.614714965387
 10
1121.34601589556
 20
2015.796852703017
 10
1120.730225269014
 20
2014.953690944019
 10
1120.148644686641
 20
2014.086578567341
 10
1119.602204553311
 20
2013.196902767813
 10
1119.091779056669
 20
2012.286086836926
 10
1118.618184768624
 20
2011.355587885873
 10
1118.18217933901
 20
2010.406894514479
 10
1117.784460283504
 20
2009.441524429762
 10
1117.425663867753
 20
2008.461022017922
 10
1117.106364089483
 20
2007.466955873655
 10
1116.827071760225
 20
2006.460916290737
 10
1116.588233688128
 20
2005.44451271789
 10
1116.390231963156
 20
2004.419371184008
 10
1116.233383345832
 20
2003.387131696863
 10
1116.117938760485
 20
2002.349445619432
 10
1116.044082893824
 20
2001.307973028079
 10
1116.01193389948
 20
2000.264380056781
 10
1116.021543208987
 20
1999.22033623167
 10
1116.072895449499
 20
1998.17751180015
 10
1116.165908468386
 20
1997.137575058854
 10
1116.300433464659
 20
1996.102189684727
 10
1116.476255227022
 20
1995.073012073495
 10
1116.693092478161
 20
1994.051688689793
 10
1116.950598324731
 20
1993.039853433161
 10
1117.248360812309
 20
1992.039125024165
 10
1117.585903584433
 20
1991.051104414782
 10
1117.962686644675
 20
1990.07737222722
 10
1118.378107220513
 20
1989.11948622526
 10
1118.831500727645
 20
1988.178978822167
 10
1119.322141833177
 20
1987.257354629158
 10
1119.849245616006
 20
1986.356088048335
 10
1120.411968822522
 20
1985.47662091397
 10
1121.009411215636
 20
1984.620360185868
 10
1121.640617014966
 20
1983.788675698534
 10
1122.304576425883
 20
1982.982897969731
 10
1123.000227254968
 20
1982.204316071937
 10
1123.72645660929
 20
1981.454175570097
 10
1124.482102676805
 20
1980.733676528994
 10
1125.265956584999
 20
1980.043971593396
 10
1125.614353943097
 20
1979.761317194089
  0
LINE
  5
1D9
330
1BE
100
AcDbEntity
  8
P-SANR-FIXT
100
AcDbLine
 10
1142.114353943096
 20
2047.982558850048
 30
0.0
 11
1158.114353943096
 21
2047.982558850048
 31
0.0
  0
LINE
  5
1DA
330
1BE
100
AcDbEntity
  8
P-SANR-FIXT
100
AcDbLine
 10
1126.114353943096
 20
2047.982558850048
 30
0.0
 11
1142.114353943095
 21
2047.982558850048
 31
0.0
  0
SPLINE
  5
1DB
330
1BE
100
AcDbEntity
  8
P-SANR-FIXT
100
AcDbSpline
210
0.0
220
0.0
230
1.0
 70
     8
 71
     3
 72
    10
 73
     6
 74
     0
 42
0.000000001
 43
0.0000000001
 40
0.1135296923266421
 40
0.1135296923266421
 40
0.1135296923266421
 40
0.1135296923266421
 40
0.1666666666666666
 40
0.25
 40
0.3333333333333333
 40
0.3333333333333333
 40
0.3333333333333333
 40
0.3333333333333333
 10
1151.499650076022
 20
2001.429398420048
 30
0.0
 10
1151.63085826025
 20
2001.612976942702
 30
0.0
 10
1151.957227398861
 20
2002.087988164849
 30
0.0
 10
1152.439612733103
 20
2002.867751264695
 30
0.0
 10
1152.767843342004
 20
2003.471629510288
 30
0.0
 10
1152.924491180613
 20
2003.777709381402
 30
0.0
  0
SPLINE
  5
1DC
330
1BE
100
AcDbEntity
  8
P-SANR-FIXT
100
AcDbSpline
210
0.0
220
0.0
230
1.0
 70
     8
 71
     3
 72
    10
 73
     6
 74
     0
 42
0.000000001
 43
0.0000000001
 40
0.6666666666666666
 40
0.6666666666666666
 40
0.6666666666666666
 40
0.6666666666666666
 40
0.75
 40
0.8333333333333332
 40
0.8863167530341986
 40
0.8863167530341986
 40
0.8863167530341986
 40
0.8863167530341986
 10
1131.304216705578
 20
2003.777709381402
 30
0.0
 10
1131.460870518303
 20
2003.471631861418
 30
0.0
 10
1131.791650279522
 20
2002.868583810737
 30
0.0
 10
1132.26358853913
 20
2002.086070715604
 30
0.0
 10
1132.60723975609
 20
2001.617345585265
 30
0.0
 10
1132.744098206099
 20
2001.436262443587
 30
0.0
  0
LINE
  5
1DD
330
1BE
100
AcDbEntity
  8
P-SANR-FIXT
100
AcDbLine
 10
1158.614353943159
 20
2038.482558850047
 30
0.0
 11
1142.114353943096
 21
2038.482558850047
 31
0.0
  0
LINE
  5
1DE
330
1BE
100
AcDbEntity
  8
P-SANR-FIXT
100
AcDbLine
 10
1142.114353943096
 20
2038.482558850047
 30
0.0
 11
1125.614353943032
 21
2038.482558850047
 31
0.0
  0
LINE
  5
1DF
330
1BE
100
AcDbEntity
  8
P-SANR-FIXT
100
AcDbLine
 10
1159.114353943096
 20
2039.348584253723
 30
0.0
 11
1142.114353943096
 21
2039.348584253723
 31
0.0
  0
LINE
  5
1E0
330
1BE
100
AcDbEntity
  8
P-SANR-FIXT
100
AcDbLine
 10
1142.114353943096
 20
2039.348584253723
 30
0.0
 11
1125.114353943096
 21
2039.348584253723
 31
0.0
  0
LINE
  5
1E1
330
1BE
100
AcDbEntity
  8
P-SANR-FIXT
100
AcDbLine
 10
1159.114353943096
 20
2047.405208580858
 30
0.0
 11
1142.114353943096
 21
2047.405208580858
 31
0.0
  0
LINE
  5
1E2
330
1BE
100
AcDbEntity
  8
P-SANR-FIXT
100
AcDbLine
 10
1142.114353943096
 20
2047.405208580858
 30
0.0
 11
1125.114353943096
 21
2047.405208580858
 31
0.0
  0
LINE
  5
1E3
330
1BE
100
AcDbEntity
  8
P-SANR-FIXT
100
AcDbLine
 10
1158.114353943095
 20
1951.982558849974
 30
0.0
 11
1142.114353943096
 21
1951.982558849974
 31
0.0
  0
LINE
  5
1E4
330
1BE
100
AcDbEntity
  8
P-SANR-FIXT
100
AcDbLine
 10
1142.114353943096
 20
1951.982558849974
 30
0.0
 11
1126.114353943096
 21
1951.982558849974
 31
0.0
  0
LINE
  5
1E5
330
1BE
100
AcDbEntity
  8
P-SANR-FIXT
100
AcDbLine
 10
1159.114353943095
 20
1952.559909119163
 30
0.0
 11
1142.114353943096
 21
1952.559909119163
 31
0.0
  0
LINE
  5
1E6
330
1BE
100
AcDbEntity
  8
P-SANR-FIXT
100
AcDbLine
 10
1142.114353943096
 20
1952.559909119163
 30
0.0
 11
1125.114353943096
 21
1952.559909119163
 31
0.0
  0
LINE
  5
1E7
330
1BE
100
AcDbEntity
  8
P-SANR-FIXT
100
AcDbLine
 10
1159.114353943095
 20
1960.61653344623
 30
0.0
 11
1142.114353943096
 21
1960.61653344623
 31
0.0
  0
LINE
  5
1E8
330
1BE
100
AcDbEntity
  8
P-SANR-FIXT
100
AcDbLine
 10
1142.114353943096
 20
1960.61653344623
 30
0.0
 11
1125.114353943096
 21
1960.61653344623
 31
0.0
  0
LINE
  5
1E9
330
1BE
100
AcDbEntity
  8
P-SANR-FIXT
100
AcDbLine
 10
1158.614353943119
 20
1961.482558849974
 30
0.0
 11
1142.114353943096
 21
1961.482558849974
 31
0.0
  0
LINE
  5
1EA
330
1BE
100
AcDbEntity
  8
P-SANR-FIXT
100
AcDbLine
 10
1142.114353943096
 20
1961.482558849974
 30
0.0
 11
1125.614353943073
 21
1961.482558849974
 31
0.0
  0
LINE
  5
1EB
330
1BE
100
AcDbEntity
  8
P-SANR-FIXT
100
AcDbLine
 10
1158.53490193321
 20
1971.982558849951
 30
0.0
 11
1158.484323360564
 21
1971.982558849951
 31
0.0
  0
LINE
  5
1EC
330
1BE
100
AcDbEntity
  8
P-SANR-FIXT
100
AcDbLine
 10
1158.331263609674
 20
1971.982558849951
 30
0.0
 11
1158.20021418144
 21
1971.982558849951
 31
0.0
  0
LINE
  5
1ED
330
1BE
100
AcDbEntity
  8
P-SANR-FIXT
100
AcDbLine
 10
1158.011097253097
 20
1971.982558849951
 30
0.0
 11
1157.777363463599
 21
1971.982558849951
 31
0.0
  0
LINE
  5
1EE
330
1BE
100
AcDbEntity
  8
P-SANR-FIXT
100
AcDbLine
 10
1157.358366229553
 20
1971.982558849951
 30
0.0
 11
1157.08594713191
 21
1971.982558849951
 31
0.0
  0
LINE
  5
1EF
330
1BE
100
AcDbEntity
  8
P-SANR-FIXT
100
AcDbLine
 10
1156.666054804864
 20
1971.982558849951
 30
0.0
 11
1156.418541429499
 21
1971.982558849951
 31
0.0
  0
LINE
  5
1F0
330
1BE
100
AcDbEntity
  8
P-SANR-FIXT
100
AcDbLine
 10
1156.256065942453
 20
1971.982558849951
 30
0.0
 11
1155.833602546107
 21
1971.982558849951
 31
0.0
  0
LINE
  5
1F1
330
1BE
100
AcDbEntity
  8
P-SANR-FIXT
100
AcDbLine
 10
1155.64105609119
 20
1971.982558849951
 30
0.0
 11
1154.869026423599
 21
1971.982558849951
 31
0.0
  0
LINE
  5
1F2
330
1BE
100
AcDbEntity
  8
P-SANR-FIXT
100
AcDbLine
 10
1154.759719867297
 20
1971.982558849951
 30
0.0
 11
1152.725725042702
 21
1971.982558849951
 31
0.0
  0
LINE
  5
1F3
330
1BE
100
AcDbEntity
  8
P-SANR-FIXT
100
AcDbLine
 10
1152.58184313181
 20
1971.982558849951
 30
0.0
 11
1151.586611678768
 21
1971.982558849951
 31
0.0
  0
LINE
  5
1F4
330
1BE
100
AcDbEntity
  8
P-SANR-FIXT
100
AcDbLine
 10
1151.281262787932
 20
1971.982558849951
 30
0.0
 11
1149.095939426523
 21
1971.982558849951
 31
0.0
  0
LINE
  5
1F5
330
1BE
100
AcDbEntity
  8
P-SANR-FIXT
100
AcDbLine
 10
1148.428630577128
 20
1971.982558849951
 30
0.0
 11
1147.909017305806
 21
1971.982558849951
 31
0.0
  0
LINE
  5
1F6
330
1BE
100
AcDbEntity
  8
P-SANR-FIXT
100
AcDbLine
 10
1147.764321987451
 20
1971.982558849951
 30
0.0
 11
1146.904051117801
 21
1971.982558849951
 31
0.0
  0
LINE
  5
1F7
330
1BE
100
AcDbEntity
  8
P-SANR-FIXT
100
AcDbLine
 10
1146.389237241706
 20
1971.982558849951
 30
0.0
 11
1145.333344256366
 21
1971.982558849951
 31
0.0
  0
LINE
  5
1F8
330
1BE
100
AcDbEntity
  8
P-SANR-FIXT
100
AcDbLine
 10
1144.981679873667
 20
1971.982558849951
 30
0.0
 11
1143.731636758536
 21
1971.982558849951
 31
0.0
  0
LINE
  5
1F9
330
1BE
100
AcDbEntity
  8
P-SANR-FIXT
100
AcDbLine
 10
1143.552907659676
 20
1971.982558849951
 30
0.0
 11
1142.114353943096
 21
1971.982558849951
 31
0.0
  0
LINE
  5
1FA
330
1BE
100
AcDbEntity
  8
P-SANR-FIXT
100
AcDbLine
 10
1142.114353943096
 20
1971.982558849951
 30
0.0
 11
1140.675800226515
 21
1971.982558849951
 31
0.0
  0
LINE
  5
1FB
330
1BE
100
AcDbEntity
  8
P-SANR-FIXT
100
AcDbLine
 10
1140.497071127655
 20
1971.982558849951
 30
0.0
 11
1139.247028012524
 21
1971.982558849951
 31
0.0
  0
LINE
  5
1FC
330
1BE
100
AcDbEntity
  8
P-SANR-FIXT
100
AcDbLine
 10
1138.895363629825
 20
1971.982558849951
 30
0.0
 11
1136.46438589874
 21
1971.982558849951
 31
0.0
  0
LINE
  5
1FD
330
1BE
100
AcDbEntity
  8
P-SANR-FIXT
100
AcDbLine
 10
1135.800077309063
 20
1971.982558849951
 30
0.0
 11
1135.46696826306
 21
1971.982558849951
 31
0.0
  0
LINE
  5
1FE
330
1BE
100
AcDbEntity
  8
P-SANR-FIXT
100
AcDbLine
 10
1135.132768459668
 20
1971.982558849951
 30
0.0
 11
1134.336307785456
 21
1971.982558849951
 31
0.0
  0
LINE
  5
1FF
330
1BE
100
AcDbEntity
  8
P-SANR-FIXT
100
AcDbLine
 10
1133.855265296483
 20
1971.982558849951
 30
0.0
 11
1132.947445098259
 21
1971.982558849951
 31
0.0
  0
LINE
  5
200
330
1BE
100
AcDbEntity
  8
P-SANR-FIXT
100
AcDbLine
 10
1132.642096207423
 20
1971.982558849951
 30
0.0
 11
1131.646864754381
 21
1971.982558849951
 31
0.0
  0
LINE
  5
201
330
1BE
100
AcDbEntity
  8
P-SANR-FIXT
100
AcDbLine
 10
1131.502982843489
 20
1971.982558849951
 30
0.0
 11
1129.468988018894
 21
1971.982558849951
 31
0.0
  0
LINE
  5
202
330
1BE
100
AcDbEntity
  8
P-SANR-FIXT
100
AcDbLine
 10
1129.359681462593
 20
1971.982558849951
 30
0.0
 11
1127.810166456692
 21
1971.982558849951
 31
0.0
  0
LINE
  5
203
330
1BE
100
AcDbEntity
  8
P-SANR-FIXT
100
AcDbLine
 10
1127.562653081327
 20
1971.982558849951
 30
0.0
 11
1127.245013968612
 21
1971.982558849951
 31
0.0
  0
LINE
  5
204
330
1BE
100
AcDbEntity
  8
P-SANR-FIXT
100
AcDbLine
 10
1127.142760754281
 20
1971.982558849951
 30
0.0
 11
1126.717820372987
 21
1971.982558849951
 31
0.0
  0
LINE
  5
205
330
1BE
100
AcDbEntity
  8
P-SANR-FIXT
100
AcDbLine
 10
1126.431499232316
 20
1971.982558849951
 30
0.0
 11
1126.24958847331
 21
1971.982558849951
 31
0.0
  0
LINE
  5
206
330
1BE
100
AcDbEntity
  8
P-SANR-FIXT
100
AcDbLine
 10
1126.028493704747
 20
1971.982558849951
 30
0.0
 11
1125.886778788883
 21
1971.982558849951
 31
0.0
  0
LINE
  5
207
330
1BE
100
AcDbEntity
  8
P-SANR-FIXT
100
AcDbLine
 10
1125.744384525644
 20
1971.982558849951
 30
0.0
 11
1125.693805952982
 21
1971.982558849951
 31
0.0
  0
LINE
  5
208
330
1BE
100
AcDbEntity
  8
P-SANR-FIXT
100
AcDbLine
 10
1125.614353943097
 20
1999.960161836519
 30
0.0
 11
1125.614353943097
 21
1999.944313815887
 31
0.0
  0
LWPOLYLINE
  5
209
330
1BE
100
AcDbEntity
  8
P-SANR-FIXT
100
AcDbPolyline
 90
       23
 70
   128
 43
0.0
 10
1125.614353943097
 20
1992.774867918255
 10
1125.614353943097
 20
1992.277967150757
 10
1125.614353943097
 20
1991.490346711732
 10
1125.614353943097
 20
1990.671517973568
 10
1125.614353943097
 20
1989.822790887572
 10
1125.614353943097
 20
1988.945523236029
 10
1125.614353943097
 20
1988.04111846004
 10
1125.614353943097
 20
1987.111023414319
 10
1125.614353943097
 20
1986.156726052529
 10
1125.614353943097
 20
1985.179753046876
 10
1125.614353943097
 20
1984.18166734576
 10
1125.614353943097
 20
1983.164065673387
 10
1125.614353943097
 20
1982.128575975358
 10
1125.614353943097
 20
1981.076854814297
 10
1125.614353943097
 20
1980.010584719706
 10
1125.614353943097
 20
1978.931471496278
 10
1125.614353943097
 20
1977.841241494971
 10
1125.614353943097
 20
1976.741638851218
 10
1125.614353943097
 20
1975.63442269468
 10
1125.614353943097
 20
1974.521364335012
 10
1125.614353943097
 20
1973.404244428152
 10
1125.614353943097
 20
1972.284850127643
 10
1125.614353943097
 20
1971.982558850012
  0
LWPOLYLINE
  5
20A
330
1BE
100
AcDbEntity
  8
P-SANR-FIXT
100
AcDbPolyline
 90
       22
 70
   128
 43
0.0
 10
1158.614353943097
 20
1971.982558850012
 10
1158.614353943097
 20
1973.102260207237
 10
1158.614353943097
 20
1974.220170281148
 10
1158.614353943097
 20
1975.334500654101
 10
1158.614353943097
 20
1976.44346863521
 10
1158.614353943097
 20
1977.545300112273
 10
1158.614353943097
 20
1978.638232389971
 10
1158.614353943097
 20
1979.720517009807
 10
1158.614353943097
 20
1980.790422547263
 10
1158.614353943097
 20
1981.846237381714
 10
1158.614353943097
 20
1982.886272434654
 10
1158.614353943097
 20
1983.90886387186
 10
1158.614353943097
 20
1984.912375765173
 10
1158.614353943097
 20
1985.895202709636
 10
1158.614353943097
 20
1986.855772391796
 10
1158.614353943097
 20
1987.792548105072
 10
1158.614353943097
 20
1988.704031208158
 10
1158.614353943097
 20
1989.588763522528
 10
1158.614353943097
 20
1990.445329665213
 10
1158.614353943097
 20
1991.272359313107
 10
1158.614353943097
 20
1992.068529395198
 10
1158.614353943097
 20
1992.777939742711
  0
LWPOLYLINE
  5
20B
330
1BE
100
AcDbEntity
  8
P-SANR-FIXT
100
AcDbPolyline
 90
        3
 70
   128
 43
0.0
 10
1158.614353943097
 20
1999.946442881328
 10
1158.614353943097
 20
1999.98092701645
 10
1158.614353943097
 20
1999.982558850011
  0
LINE
  5
20C
330
1BE
100
AcDbEntity
  8
P-SANR-FIXT
100
AcDbLine
 10
1158.614353943095
 20
1971.98255885001
 30
0.0
 11
1158.539943327651
 21
1971.98255885001
 31
0.0
  0
LINE
  5
20D
330
1BE
100
AcDbEntity
  8
P-SANR-FIXT
100
AcDbLine
 10
1158.483832388618
 20
1971.98255885001
 30
0.0
 11
1158.33045055108
 21
1971.98255885001
 31
0.0
  0
LINE
  5
20E
330
1BE
100
AcDbEntity
  8
P-SANR-FIXT
100
AcDbLine
 10
1158.199383673148
 20
1971.98255885001
 30
0.0
 11
1157.9779149389
 21
1971.982558850011
 31
0.0
  0
LINE
  5
20F
330
1BE
100
AcDbEntity
  8
P-SANR-FIXT
100
AcDbLine
 10
1157.776250150822
 20
1971.982558850011
 30
0.0
 11
1157.372839474801
 21
1971.982558850011
 31
0.0
  0
LINE
  5
210
330
1BE
100
AcDbEntity
  8
P-SANR-FIXT
100
AcDbLine
 10
1157.0684324292
 20
1971.982558850011
 30
0.0
 11
1156.679344517166
 21
1971.982558850011
 31
0.0
  0
LINE
  5
211
330
1BE
100
AcDbEntity
  8
P-SANR-FIXT
100
AcDbLine
 10
1156.403773105539
 20
1971.982558850011
 30
0.0
 11
1155.843820727438
 21
1971.982558850011
 31
0.0
  0
LINE
  5
212
330
1BE
100
AcDbEntity
  8
P-SANR-FIXT
100
AcDbLine
 10
1155.630362673864
 20
1971.982558850011
 30
0.0
 11
1154.87465867119
 21
1971.982558850011
 31
0.0
  0
LINE
  5
213
330
1BE
100
AcDbEntity
  8
P-SANR-FIXT
100
AcDbLine
 10
1154.754087254559
 20
1971.982558850011
 30
0.0
 11
1152.720349502923
 21
1971.982558850011
 31
0.0
  0
LINE
  5
214
330
1BE
100
AcDbEntity
  8
P-SANR-FIXT
100
AcDbLine
 10
1152.585976803939
 20
1971.982558850011
 30
0.0
 11
1151.578365142888
 21
1971.982558850011
 31
0.0
  0
LINE
  5
215
330
1BE
100
AcDbEntity
  8
P-SANR-FIXT
100
AcDbLine
 10
1151.287573791096
 20
1971.982558850011
 30
0.0
 11
1150.364353943095
 21
1971.982558850011
 31
0.0
  0
LINE
  5
216
330
1BE
100
AcDbEntity
  8
P-SANR-FIXT
100
AcDbLine
 10
1149.899207792783
 20
1971.982558850011
 30
0.0
 11
1148.434641785579
 21
1971.982558850011
 31
0.0
  0
LINE
  5
217
330
1BE
100
AcDbEntity
  8
P-SANR-FIXT
100
AcDbLine
 10
1147.905154218546
 20
1971.982558850011
 30
0.0
 11
1146.908443251785
 21
1971.982558850011
 31
0.0
  0
LINE
  5
218
330
1BE
100
AcDbEntity
  8
P-SANR-FIXT
100
AcDbLine
 10
1146.384868187287
 20
1971.982558850011
 30
0.0
 11
1143.732462533827
 21
1971.982558850011
 31
0.0
  0
LINE
  5
219
330
1BE
100
AcDbEntity
  8
P-SANR-FIXT
100
AcDbLine
 10
1143.552423698432
 20
1971.982558850011
 30
0.0
 11
1139.249159011591
 21
1971.982558850011
 31
0.0
  0
LINE
  5
21A
330
1BE
100
AcDbEntity
  8
P-SANR-FIXT
100
AcDbLine
 10
1138.892885990573
 20
1971.982558850011
 30
0.0
 11
1137.843839698904
 21
1971.982558850011
 31
0.0
  0
LINE
  5
21B
330
1BE
100
AcDbEntity
  8
P-SANR-FIXT
100
AcDbLine
 10
1137.320264634406
 20
1971.982558850011
 30
0.0
 11
1135.794066100611
 21
1971.982558850011
 31
0.0
  0
LINE
  5
21C
330
1BE
100
AcDbEntity
  8
P-SANR-FIXT
100
AcDbLine
 10
1135.468177646586
 20
1971.982558850011
 30
0.0
 11
1134.329500093408
 21
1971.982558850011
 31
0.0
  0
LINE
  5
21D
330
1BE
100
AcDbEntity
  8
P-SANR-FIXT
100
AcDbLine
 10
1133.864353943096
 20
1971.982558850011
 30
0.0
 11
1131.642731082252
 21
1971.982558850011
 31
0.0
  0
LINE
  5
21E
330
1BE
100
AcDbEntity
  8
P-SANR-FIXT
100
AcDbLine
 10
1131.508358383268
 20
1971.982558850011
 30
0.0
 11
1129.474620631633
 21
1971.982558850011
 31
0.0
  0
LINE
  5
21F
330
1BE
100
AcDbEntity
  8
P-SANR-FIXT
100
AcDbLine
 10
1129.354049215002
 20
1971.982558850011
 30
0.0
 11
1128.598345212327
 21
1971.982558850011
 31
0.0
  0
LINE
  5
220
330
1BE
100
AcDbEntity
  8
P-SANR-FIXT
100
AcDbLine
 10
1128.384887158753
 20
1971.982558850011
 30
0.0
 11
1127.824934780652
 21
1971.982558850011
 31
0.0
  0
LINE
  5
221
330
1BE
100
AcDbEntity
  8
P-SANR-FIXT
100
AcDbLine
 10
1127.549363369025
 20
1971.982558850011
 30
0.0
 11
1127.160275456991
 21
1971.982558850011
 31
0.0
  0
LINE
  5
222
330
1BE
100
AcDbEntity
  8
P-SANR-FIXT
100
AcDbLine
 10
1126.85586841139
 20
1971.982558850011
 30
0.0
 11
1126.452457735368
 21
1971.982558850011
 31
0.0
  0
LINE
  5
223
330
1BE
100
AcDbEntity
  8
P-SANR-FIXT
100
AcDbLine
 10
1126.250792947291
 20
1971.982558850011
 30
0.0
 11
1126.029324213044
 21
1971.98255885001
 31
0.0
  0
LINE
  5
224
330
1BE
100
AcDbEntity
  8
P-SANR-FIXT
100
AcDbLine
 10
1125.89825733511
 20
1971.98255885001
 30
0.0
 11
1125.744875497575
 21
1971.98255885001
 31
0.0
  0
LINE
  5
225
330
1BE
100
AcDbEntity
  8
P-SANR-FIXT
100
AcDbLine
 10
1125.68876455854
 20
1971.98255885001
 30
0.0
 11
1125.614353943095
 21
1971.98255885001
 31
0.0
  0
LINE
  5
226
330
1BE
100
AcDbEntity
  8
P-SANR-FIXT
100
AcDbLine
 10
1128.714353943097
 20
2063.379599227015
 30
0.0
 11
1128.714353943097
 21
2052.852558850049
 31
0.0
  0
LINE
  5
227
330
1BE
100
AcDbEntity
  8
P-SANR-FIXT
100
AcDbLine
 10
1155.514353943098
 20
2052.852558850049
 30
0.0
 11
1155.514353943098
 21
2063.379599227015
 31
0.0
  0
LINE
  5
228
330
1BE
100
AcDbEntity
  8
P-SANR-FIXT
100
AcDbLine
 10
1154.114353943097
 20
2064.822615932065
 30
0.0
 11
1153.557370648147
 21
2065.379599227015
 31
0.0
  0
LINE
  5
229
330
1BE
100
AcDbEntity
  8
P-SANR-FIXT
100
AcDbLine
 10
1130.671337238048
 20
2065.379599227015
 30
0.0
 11
1130.114353943098
 21
2064.822615932065
 31
0.0
  0
LINE
  5
22A
330
1BE
100
AcDbEntity
  8
P-SANR-FIXT
100
AcDbLine
 10
1154.114353943097
 20
2063.379599227015
 30
0.0
 11
1154.114353943097
 21
2064.822615932065
 31
0.0
  0
LINE
  5
22B
330
1BE
100
AcDbEntity
  8
P-SANR-FIXT
100
AcDbLine
 10
1130.114353943098
 20
2064.822615932065
 30
0.0
 11
1130.114353943098
 21
2063.379599227015
 31
0.0
  0
LINE
  5
22C
330
1BE
100
AcDbEntity
  8
P-SANR-FIXT
100
AcDbLine
 10
1128.714353943096
 20
2063.379599227014
 30
0.0
 11
1128.740438794507
 21
2063.379599227014
 31
0.0
  0
LINE
  5
22D
330
1BE
100
AcDbEntity
  8
P-SANR-FIXT
100
AcDbLine
 10
1128.740438794507
 20
2063.379599227014
 30
0.0
 11
1131.722049097683
 21
2063.379599227014
 31
0.0
  0
LINE
  5
22E
330
1BE
100
AcDbEntity
  8
P-SANR-FIXT
100
AcDbLine
 10
1134.703659400859
 20
2063.379599227014
 30
0.0
 11
1136.151133336745
 21
2063.379599227014
 31
0.0
  0
LINE
  5
22F
330
1BE
100
AcDbEntity
  8
P-SANR-FIXT
100
AcDbLine
 10
1136.151133336745
 20
2063.379599227014
 30
0.0
 11
1142.114353943096
 21
2063.379599227014
 31
0.0
  0
LINE
  5
230
330
1BE
100
AcDbEntity
  8
P-SANR-FIXT
100
AcDbLine
 10
1142.114353943096
 20
2063.379599227014
 30
0.0
 11
1141.068485030124
 21
2063.379599227014
 31
0.0
  0
LINE
  5
231
330
1BE
100
AcDbEntity
  8
P-SANR-FIXT
100
AcDbLine
 10
1131.722049097683
 20
2063.379599227014
 30
0.0
 11
1134.703659400859
 21
2063.379599227014
 31
0.0
  0
LINE
  5
232
330
1BE
100
AcDbEntity
  8
P-SANR-FIXT
100
AcDbLine
 10
1148.077574549448
 20
2063.379599227014
 30
0.0
 11
1149.525048485334
 21
2063.379599227014
 31
0.0
  0
LINE
  5
233
330
1BE
100
AcDbEntity
  8
P-SANR-FIXT
100
AcDbLine
 10
1149.525048485334
 20
2063.379599227014
 30
0.0
 11
1152.50665878851
 21
2063.379599227014
 31
0.0
  0
LINE
  5
234
330
1BE
100
AcDbEntity
  8
P-SANR-FIXT
100
AcDbLine
 10
1143.160222856068
 20
2063.379599227014
 30
0.0
 11
1142.114353943096
 21
2063.379599227014
 31
0.0
  0
LINE
  5
235
330
1BE
100
AcDbEntity
  8
P-SANR-FIXT
100
AcDbLine
 10
1142.114353943096
 20
2063.379599227014
 30
0.0
 11
1148.077574549448
 21
2063.379599227014
 31
0.0
  0
LINE
  5
236
330
1BE
100
AcDbEntity
  8
P-SANR-FIXT
100
AcDbLine
 10
1155.488269091685
 20
2063.379599227014
 30
0.0
 11
1155.514353943096
 21
2063.379599227014
 31
0.0
  0
LINE
  5
237
330
1BE
100
AcDbEntity
  8
P-SANR-FIXT
100
AcDbLine
 10
1152.50665878851
 20
2063.379599227014
 30
0.0
 11
1155.488269091685
 21
2063.379599227014
 31
0.0
  0
LINE
  5
238
330
1BE
100
AcDbEntity
  8
P-SANR-FIXT
100
AcDbLine
 10
1155.514353943096
 20
2052.852558850048
 30
0.0
 11
1155.488269091685
 21
2052.852558850048
 31
0.0
  0
LINE
  5
239
330
1BE
100
AcDbEntity
  8
P-SANR-FIXT
100
AcDbLine
 10
1155.488269091685
 20
2052.852558850048
 30
0.0
 11
1149.525048485334
 21
2052.852558850048
 31
0.0
  0
LINE
  5
23A
330
1BE
100
AcDbEntity
  8
P-SANR-FIXT
100
AcDbLine
 10
1149.525048485334
 20
2052.852558850048
 30
0.0
 11
1148.077574549448
 21
2052.852558850048
 31
0.0
  0
LINE
  5
23B
330
1BE
100
AcDbEntity
  8
P-SANR-FIXT
100
AcDbLine
 10
1148.077574549448
 20
2052.852558850048
 30
0.0
 11
1136.151133336745
 21
2052.852558850048
 31
0.0
  0
LINE
  5
23C
330
1BE
100
AcDbEntity
  8
P-SANR-FIXT
100
AcDbLine
 10
1136.151133336745
 20
2052.852558850048
 30
0.0
 11
1134.703659400859
 21
2052.852558850048
 31
0.0
  0
LINE
  5
23D
330
1BE
100
AcDbEntity
  8
P-SANR-FIXT
100
AcDbLine
 10
1134.703659400859
 20
2052.852558850048
 30
0.0
 11
1128.740438794507
 21
2052.852558850048
 31
0.0
  0
LINE
  5
23E
330
1BE
100
AcDbEntity
  8
P-SANR-FIXT
100
AcDbLine
 10
1128.740438794507
 20
2052.852558850048
 30
0.0
 11
1128.714353943096
 21
2052.852558850048
 31
0.0
  0
LINE
  5
23F
330
1BE
100
AcDbEntity
  8
P-SANR-FIXT
100
AcDbLine
 10
1128.740438794507
 20
2052.852558850048
 30
0.0
 11
1128.740438794507
 21
2063.379599227014
 31
0.0
  0
LINE
  5
240
330
1BE
100
AcDbEntity
  8
P-SANR-FIXT
100
AcDbLine
 10
1134.703659400859
 20
2052.852558850048
 30
0.0
 11
1134.703659400859
 21
2063.379599227014
 31
0.0
  0
LINE
  5
241
330
1BE
100
AcDbEntity
  8
P-SANR-FIXT
100
AcDbLine
 10
1136.151133336745
 20
2052.852558850048
 30
0.0
 11
1136.151133336745
 21
2063.379599227014
 31
0.0
  0
LINE
  5
242
330
1BE
100
AcDbEntity
  8
P-SANR-FIXT
100
AcDbLine
 10
1148.077574549448
 20
2052.852558850048
 30
0.0
 11
1148.077574549448
 21
2063.379599227014
 31
0.0
  0
LINE
  5
243
330
1BE
100
AcDbEntity
  8
P-SANR-FIXT
100
AcDbLine
 10
1149.525048485334
 20
2052.852558850048
 30
0.0
 11
1149.525048485334
 21
2063.379599227014
 31
0.0
  0
LINE
  5
244
330
1BE
100
AcDbEntity
  8
P-SANR-FIXT
100
AcDbLine
 10
1155.488269091685
 20
2052.852558850048
 30
0.0
 11
1155.488269091685
 21
2063.379599227014
 31
0.0
  0
LINE
  5
245
330
1BE
100
AcDbEntity
  8
P-SANR-FIXT
100
AcDbLine
 10
1153.557370648145
 20
2065.379599227014
 30
0.0
 11
1142.114353943096
 21
2065.379599227014
 31
0.0
  0
LINE
  5
246
330
1BE
100
AcDbEntity
  8
P-SANR-FIXT
100
AcDbLine
 10
1142.114353943096
 20
2065.379599227014
 30
0.0
 11
1130.671337238046
 21
2065.379599227014
 31
0.0
  0
LINE
  5
247
330
1BE
100
AcDbEntity
  8
P-SANR-FIXT
100
AcDbLine
 10
1142.114353943096
 20
2064.822615932064
 30
0.0
 11
1154.114353943095
 21
2064.822615932064
 31
0.0
  0
LINE
  5
248
330
1BE
100
AcDbEntity
  8
P-SANR-FIXT
100
AcDbLine
 10
1130.114353943097
 20
2064.822615932064
 30
0.0
 11
1142.114353943096
 21
2064.822615932064
 31
0.0
  0
ARC
  5
249
330
1BE
100
AcDbEntity
  8
P-SANR-FIXT
100
AcDbCircle
 10
1142.114353943096
 20
1999.982558850011
 30
0.0
 40
32.74999999999066
100
AcDbArc
 50
300.2593761048542
 51
59.74524586924084
  0
ARC
  5
24A
330
1BE
100
AcDbEntity
  8
P-SANR-FIXT
100
AcDbCircle
 10
1142.114353943096
 20
1999.982558850011
 30
0.0
 40
32.74999999999071
100
AcDbArc
 50
120.2547541307588
 51
239.7450841245942
  0
LINE
  5
24B
330
1BE
100
AcDbEntity
  8
P-SANR-FIXT
100
AcDbLine
 10
1153.609317835691
 20
1889.882558849997
 30
0.0
 11
1153.609317835691
 21
1891.682558850011
 31
0.0
  0
LINE
  5
24C
330
1BE
100
AcDbEntity
  8
P-SANR-FIXT
100
AcDbLine
 10
1130.619390050504
 20
1891.682558850011
 30
0.0
 11
1130.619390050504
 21
1889.882558849997
 31
0.0
  0
LINE
  5
24D
330
1BE
100
AcDbEntity
  8
P-SANR-FIXT
100
AcDbLine
 10
1156.7537753609
 20
1876.363137432194
 30
0.0
 11
1156.7537753609
 21
1889.882558849997
 31
0.0
  0
LINE
  5
24E
330
1BE
100
AcDbEntity
  8
P-SANR-FIXT
100
AcDbLine
 10
1127.474932525295
 20
1889.882558849997
 30
0.0
 11
1127.474932525295
 21
1876.363137432194
 31
0.0
  0
LINE
  5
24F
330
1BE
100
AcDbEntity
  8
P-SANR-FIXT
100
AcDbLine
 10
1157.534353943098
 20
1866.082558849997
 30
0.0
 11
1157.534353943098
 21
1876.363137432194
 31
0.0
  0
LINE
  5
250
330
1BE
100
AcDbEntity
  8
P-SANR-FIXT
100
AcDbLine
 10
1126.694353943097
 20
1876.363137432194
 30
0.0
 11
1126.694353943097
 21
1866.082558849997
 31
0.0
  0
LINE
  5
251
330
1BE
100
AcDbEntity
  8
P-SANR-FIXT
100
AcDbLine
 10
1156.614353943097
 20
1864.582558849981
 30
0.0
 11
1156.614353943097
 21
1866.082558849997
 31
0.0
  0
LINE
  5
252
330
1BE
100
AcDbEntity
  8
P-SANR-FIXT
100
AcDbLine
 10
1127.614353943099
 20
1866.082558849997
 30
0.0
 11
1127.614353943099
 21
1864.582558849981
 31
0.0
  0
LINE
  5
253
330
1BE
100
AcDbEntity
  8
P-SANR-FIXT
100
AcDbLine
 10
1153.864353943098
 20
1861.58255884998
 30
0.0
 11
1153.864353943098
 21
1864.582558849981
 31
0.0
  0
LINE
  5
254
330
1BE
100
AcDbEntity
  8
P-SANR-FIXT
100
AcDbLine
 10
1130.364353943097
 20
1864.582558849981
 30
0.0
 11
1130.364353943097
 21
1861.58255884998
 31
0.0
  0
LINE
  5
255
330
1BE
100
AcDbEntity
  8
P-SANR-FIXT
100
AcDbLine
 10
1155.564353943098
 20
1859.582558850009
 30
0.0
 11
1155.564353943098
 21
1861.58255884998
 31
0.0
  0
LINE
  5
256
330
1BE
100
AcDbEntity
  8
P-SANR-FIXT
100
AcDbLine
 10
1128.664353943097
 20
1861.58255884998
 30
0.0
 11
1128.664353943097
 21
1859.582558850009
 31
0.0
  0
LINE
  5
257
330
1BE
100
AcDbEntity
  8
P-SANR-FIXT
100
AcDbLine
 10
1156.914353943085
 20
1850.582558850009
 30
0.0
 11
1156.914353943085
 21
1859.582558850009
 31
0.0
  0
LINE
  5
258
330
1BE
100
AcDbEntity
  8
P-SANR-FIXT
100
AcDbLine
 10
1127.31435394311
 20
1859.582558850009
 30
0.0
 11
1127.31435394311
 21
1850.582558850009
 31
0.0
  0
LINE
  5
259
330
1BE
100
AcDbEntity
  8
P-SANR-FIXT
100
AcDbLine
 10
1149.614353943098
 20
1827.582558850009
 30
0.0
 11
1149.614353943098
 21
1850.582558850009
 31
0.0
  0
LINE
  5
25A
330
1BE
100
AcDbEntity
  8
P-SANR-FIXT
100
AcDbLine
 10
1134.614353943097
 20
1850.582558850009
 30
0.0
 11
1134.614353943097
 21
1827.582558850009
 31
0.0
  0
LINE
  5
25B
330
1BE
100
AcDbEntity
  8
P-SANR-FIXT
100
AcDbLine
 10
1142.114353943096
 20
1889.882558849995
 30
0.0
 11
1156.753775360899
 21
1889.882558849995
 31
0.0
  0
SPLINE
  5
25C
330
1BE
100
AcDbEntity
  8
P-SANR-FIXT
100
AcDbSpline
210
0.0
220
0.0
230
1.0
 70
     8
 71
     3
 72
    10
 73
     6
 74
     0
 42
0.000000001
 43
0.0000000001
 40
0.1078769370796808
 40
0.1078769370796808
 40
0.1078769370796808
 40
0.1078769370796808
 40
0.1428571428571428
 40
0.2857142857142857
 40
0.3264187301261443
 40
0.3264187301261443
 40
0.3264187301261443
 40
0.3264187301261443
 10
1143.241620399756
 20
1882.932986972379
 30
0.0
 10
1143.361006675144
 20
1882.911948903534
 30
0.0
 10
1143.964131661741
 20
1882.787832241624
 30
0.0
 10
1144.682842480571
 20
1882.526820840825
 30
0.0
 10
1145.238087795496
 20
1882.227511871125
 30
0.0
 10
1145.358684033574
 20
1882.157353751391
 30
0.0
  0
SPLINE
  5
25D
330
1BE
100
AcDbEntity
  8
P-SANR-FIXT
100
AcDbSpline
210
0.0
220
0.0
230
1.0
 70
     8
 71
     3
 72
     8
 73
     4
 74
     0
 42
0.000000001
 43
0.0000000001
 40
0.4285714285714286
 40
0.4285714285714286
 40
0.4285714285714286
 40
0.4285714285714286
 40
0.4334345427514991
 40
0.4334345427514991
 40
0.4334345427514991
 40
0.4334345427514991
 10
1146.216722080807
 20
1881.560081475385
 30
0.0
 10
1146.229504754265
 20
1881.549542729864
 30
0.0
 10
1146.242245834911
 20
1881.538955199992
 30
0.0
 10
1146.254945083271
 20
1881.528319147873
 30
0.0
  0
SPLINE
  5
25E
330
1BE
100
AcDbEntity
  8
P-SANR-FIXT
100
AcDbSpline
210
0.0
220
0.0
230
1.0
 70
     8
 71
     3
 72
     8
 73
     4
 74
     0
 42
0.000000001
 43
0.0000000001
 40
0.5418548695772576
 40
0.5418548695772576
 40
0.5418548695772576
 40
0.5418548695772576
 40
0.5714285714285714
 40
0.5714285714285714
 40
0.5714285714285714
 40
0.5714285714285714
 10
1147.039336094112
 20
1880.747524571162
 30
0.0
 10
1147.104487558018
 20
1880.670475122113
 30
0.0
 10
1147.167877803489
 20
1880.591839863524
 30
0.0
 10
1147.229474802521
 20
1880.511685800537
 30
0.0
  0
SPLINE
  5
25F
330
1BE
100
AcDbEntity
  8
P-SANR-FIXT
100
AcDbSpline
210
0.0
220
0.0
230
1.0
 70
     8
 71
     3
 72
    10
 73
     6
 74
     0
 42
0.000000001
 43
0.0000000001
 40
0.6516423225615405
 40
0.6516423225615405
 40
0.6516423225615405
 40
0.6516423225615405
 40
0.6785714285714287
 40
0.7321428571428572
 40
0.7618732692192652
 40
0.7618732692192652
 40
0.7618732692192652
 40
0.7618732692192652
 10
1147.688445625282
 20
1879.828480352696
 30
0.0
 10
1147.734838843306
 20
1879.748863061868
 30
0.0
 10
1147.868348478228
 20
1879.508002486819
 30
0.0
 10
1148.028219604364
 20
1879.167572860846
 30
0.0
 10
1148.134311079248
 20
1878.899701678509
 30
0.0
 10
1148.169822603507
 20
1878.802954145373
 30
0.0
  0
SPLINE
  5
260
330
1BE
100
AcDbEntity
  8
P-SANR-FIXT
100
AcDbSpline
210
0.0
220
0.0
230
1.0
 70
     8
 71
     3
 72
     8
 73
     4
 74
     0
 42
0.000000001
 43
0.0000000001
 40
0.8571428571428569
 40
0.8571428571428569
 40
0.8571428571428569
 40
0.8571428571428569
 40
0.8712628130834849
 40
0.8712628130834849
 40
0.8712628130834849
 40
0.8712628130834849
 10
1148.438740144544
 20
1877.849442013078
 30
0.0
 10
1148.448238529961
 20
1877.801686756447
 30
0.0
 10
1148.457644709013
 20
1877.753971904549
 30
0.0
 10
1148.466403777496
 20
1877.706136350069
 30
0.0
  0
SPLINE
  5
261
330
1BE
100
AcDbEntity
  8
P-SANR-FIXT
100
AcDbSpline
210
0.0
220
0.0
230
1.0
 70
     8
 71
     3
 72
     8
 73
     4
 74
     0
 42
0.000000001
 43
0.0000000001
 40
0.9789110079168729
 40
0.9789110079168729
 40
0.9789110079168729
 40
0.9789110079168729
 40
1.0
 40
1.0
 40
1.0
 40
1.0
 10
1148.563285277796
 20
1876.587504303586
 30
0.0
 10
1148.56359149628
 20
1876.512992931943
 30
0.0
 10
1148.562704040311
 20
1876.438201884862
 30
0.0
 10
1148.560620633313
 20
1876.363137432193
 30
0.0
  0
LINE
  5
262
330
1BE
100
AcDbEntity
  8
P-SANR-FIXT
100
AcDbLine
 10
1127.474932525293
 20
1889.882558849995
 30
0.0
 11
1142.114353943096
 21
1889.882558849995
 31
0.0
  0
SPLINE
  5
263
330
1BE
100
AcDbEntity
  8
P-SANR-FIXT
100
AcDbSpline
210
0.0
220
0.0
230
1.0
 70
     8
 71
     3
 72
     8
 73
     4
 74
     0
 42
0.000000001
 43
0.0000000001
 40
0.0
 40
0.0
 40
0.0
 40
0.0
 40
0.0210889920831189
 40
0.0210889920831189
 40
0.0210889920831189
 40
0.0210889920831189
 10
1135.668087252878
 20
1876.363137432193
 30
0.0
 10
1135.666003845881
 20
1876.438201884862
 30
0.0
 10
1135.665081657571
 20
1876.512936917248
 30
0.0
 10
1135.665334855791
 20
1876.587362634125
 30
0.0
  0
SPLINE
  5
264
330
1BE
100
AcDbEntity
  8
P-SANR-FIXT
100
AcDbSpline
210
0.0
220
0.0
230
1.0
 70
     8
 71
     3
 72
     8
 73
     4
 74
     0
 42
0.000000001
 43
0.0000000001
 40
0.1287371869165108
 40
0.1287371869165108
 40
0.1287371869165108
 40
0.1287371869165108
 40
0.1428571428571428
 40
0.1428571428571428
 40
0.1428571428571428
 40
0.1428571428571428
 10
1135.762972882563
 20
1877.705570560302
 30
0.0
 10
1135.771423707549
 20
1877.753638134448
 30
0.0
 10
1135.780458627069
 20
1877.801584032489
 30
0.0
 10
1135.790007596662
 20
1877.849501346855
 30
0.0
  0
SPLINE
  5
265
330
1BE
100
AcDbEntity
  8
P-SANR-FIXT
100
AcDbSpline
210
0.0
220
0.0
230
1.0
 70
     8
 71
     3
 72
     9
 73
     5
 74
     0
 42
0.000000001
 43
0.0000000001
 40
0.238126730780729
 40
0.238126730780729
 40
0.238126730780729
 40
0.238126730780729
 40
0.2857142857142857
 40
0.3483576774384493
 40
0.3483576774384493
 40
0.3483576774384493
 40
0.3483576774384493
 10
1136.058272024603
 20
1878.801440411846
 30
0.0
 10
1136.114924205688
 20
1878.956118163758
 30
0.0
 10
1136.258410294837
 20
1879.310727353342
 30
0.0
 10
1136.436476893768
 20
1879.640513043222
 30
0.0
 10
1136.547123000918
 20
1879.821257573236
 30
0.0
  0
SPLINE
  5
266
330
1BE
100
AcDbEntity
  8
P-SANR-FIXT
100
AcDbSpline
210
0.0
220
0.0
230
1.0
 70
     8
 71
     3
 72
     8
 73
     4
 74
     0
 42
0.000000001
 43
0.0000000001
 40
0.4285714285714286
 40
0.4285714285714286
 40
0.4285714285714286
 40
0.4285714285714286
 40
0.4581451304227354
 40
0.4581451304227354
 40
0.4581451304227354
 40
0.4581451304227354
 10
1136.998572585511
 20
1880.511988187299
 30
0.0
 10
1137.059922148179
 20
1880.591873661521
 30
0.0
 10
1137.123562229525
 20
1880.669448076855
 30
0.0
 10
1137.189167019129
 20
1880.745166780048
 30
0.0
  0
SPLINE
  5
267
330
1BE
100
AcDbEntity
  8
P-SANR-FIXT
100
AcDbSpline
210
0.0
220
0.0
230
1.0
 70
     8
 71
     3
 72
     8
 73
     4
 74
     0
 42
0.000000001
 43
0.0000000001
 40
0.5665654572484954
 40
0.5665654572484954
 40
0.5665654572484954
 40
0.5665654572484954
 40
0.5714285714285714
 40
0.5714285714285714
 40
0.5714285714285714
 40
0.5714285714285714
 10
1137.972900517816
 20
1881.527407126718
 30
0.0
 10
1137.985639163677
 20
1881.538054216979
 30
0.0
 10
1137.99843356376
 20
1881.54862447025
 30
0.0
 10
1138.011246139283
 20
1881.559204944534
 30
0.0
  0
SPLINE
  5
268
330
1BE
100
AcDbEntity
  8
P-SANR-FIXT
100
AcDbSpline
210
0.0
220
0.0
230
1.0
 70
     8
 71
     3
 72
     9
 73
     5
 74
     0
 42
0.000000001
 43
0.0000000001
 40
0.6735812698738358
 40
0.6735812698738358
 40
0.6735812698738358
 40
0.6735812698738358
 40
0.7857142857142857
 40
0.8921230629202863
 40
0.8921230629202863
 40
0.8921230629202863
 40
0.8921230629202863
 10
1138.872285303686
 20
1882.157615244432
 30
0.0
 10
1139.205152785154
 20
1882.3511545679
 30
0.0
 10
1139.883681761726
 20
1882.693737210417
 30
0.0
 10
1140.628951715752
 20
1882.824814372942
 30
0.0
 10
1140.996157348787
 20
1882.876093693768
 30
0.0
  0
LINE
  5
269
330
1BE
100
AcDbEntity
  8
P-SANR-FIXT
100
AcDbLine
 10
1148.502268604856
 20
1876.363137432193
 30
0.0
 11
1148.486413833714
 21
1876.363137432193
 31
0.0
  0
LINE
  5
26A
330
1BE
100
AcDbEntity
  8
P-SANR-FIXT
100
AcDbLine
 10
1135.742294052477
 20
1876.363137432193
 30
0.0
 11
1135.726439281336
 21
1876.363137432193
 31
0.0
  0
LINE
  5
26B
330
1BE
100
AcDbEntity
  8
P-SANR-FIXT
100
AcDbLine
 10
1148.560620633313
 20
1876.363137432193
 30
0.0
 11
1157.534353943096
 21
1876.363137432193
 31
0.0
  0
LINE
  5
26C
330
1BE
100
AcDbEntity
  8
P-SANR-FIXT
100
AcDbLine
 10
1148.510001407701
 20
1876.363137432193
 30
0.0
 11
1148.494823561012
 21
1876.363137432193
 31
0.0
  0
SPLINE
  5
26D
330
1BE
100
AcDbEntity
  8
P-SANR-FIXT
100
AcDbSpline
210
0.0
220
0.0
230
1.0
 70
     8
 71
     3
 72
     9
 73
     5
 74
     0
 42
0.000000001
 43
0.0000000001
 40
0.0910511674536652
 40
0.0910511674536652
 40
0.0910511674536652
 40
0.0910511674536652
 40
0.1428571428571428
 40
0.2048923496161147
 40
0.2048923496161147
 40
0.2048923496161147
 40
0.2048923496161147
 10
1148.463824181324
 20
1875.45259149965
 30
0.0
 10
1148.434030255802
 20
1875.283346619324
 30
0.0
 10
1148.353517741118
 20
1874.916106480909
 30
0.0
 10
1148.242104009248
 20
1874.553683580528
 30
0.0
 10
1148.171902443157
 20
1874.360131189839
 30
0.0
  0
SPLINE
  5
26E
330
1BE
100
AcDbEntity
  8
P-SANR-FIXT
100
AcDbSpline
210
0.0
220
0.0
230
1.0
 70
     8
 71
     3
 72
     8
 73
     4
 74
     0
 42
0.000000001
 43
0.0000000001
 40
0.2857142857142857
 40
0.2857142857142857
 40
0.2857142857142857
 40
0.2857142857142857
 40
0.3189279137516441
 40
0.3189279137516441
 40
0.3189279137516441
 40
0.3189279137516441
 10
1147.848505379824
 20
1873.629254378617
 30
0.0
 10
1147.798444469015
 20
1873.531971785383
 30
0.0
 10
1147.745481968354
 20
1873.436972773425
 30
0.0
 10
1147.689867385787
 20
1873.344042532508
 30
0.0
  0
SPLINE
  5
26F
330
1BE
100
AcDbEntity
  8
P-SANR-FIXT
100
AcDbSpline
210
0.0
220
0.0
230
1.0
 70
     8
 71
     3
 72
     8
 73
     4
 74
     0
 42
0.000000001
 43
0.0000000001
 40
0.4285714285714286
 40
0.4285714285714286
 40
0.4285714285714286
 40
0.4285714285714286
 40
0.4314305273592777
 40
0.4314305273592777
 40
0.4314305273592777
 40
0.4314305273592777
 10
1147.075771562425
 20
1872.46033035932
 30
0.0
 10
1147.069807052037
 20
1872.453149641041
 30
0.0
 10
1147.063823153201
 20
1872.445989599783
 30
0.0
 10
1147.057820144647
 20
1872.438849835317
 30
0.0
  0
SPLINE
  5
270
330
1BE
100
AcDbEntity
  8
P-SANR-FIXT
100
AcDbSpline
210
0.0
220
0.0
230
1.0
 70
     8
 71
     3
 72
     8
 73
     4
 74
     0
 42
0.000000001
 43
0.0000000001
 40
0.5445306713140944
 40
0.5445306713140944
 40
0.5445306713140944
 40
0.5445306713140944
 40
0.5714285714285714
 40
0.5714285714285714
 40
0.5714285714285714
 40
0.5714285714285714
 10
1146.276601264687
 20
1871.654998414725
 30
0.0
 10
1146.209355750713
 20
1871.598272945828
 30
0.0
 10
1146.140590052545
 20
1871.543650482445
 30
0.0
 10
1146.071262582213
 20
1871.488898670745
 30
0.0
  0
SPLINE
  5
271
330
1BE
100
AcDbEntity
  8
P-SANR-FIXT
100
AcDbSpline
210
0.0
220
0.0
230
1.0
 70
     8
 71
     3
 72
     8
 73
     4
 74
     0
 42
0.000000001
 43
0.0000000001
 40
0.6588118132806576
 40
0.6588118132806576
 40
0.6588118132806576
 40
0.6588118132806576
 40
0.773356660907295
 40
0.773356660907295
 40
0.773356660907295
 40
0.773356660907295
 10
1145.357754216159
 20
1871.008151876835
 30
0.0
 10
1145.031820698057
 20
1870.818658839704
 30
0.0
 10
1144.694438874096
 20
1870.635455520616
 30
0.0
 10
1144.335478635738
 20
1870.520542941663
 30
0.0
  0
SPLINE
  5
272
330
1BE
100
AcDbEntity
  8
P-SANR-FIXT
100
AcDbSpline
210
0.0
220
0.0
230
1.0
 70
     8
 71
     3
 72
     8
 73
     4
 74
     0
 42
0.000000001
 43
0.0000000001
 40
0.8571428571428569
 40
0.8571428571428569
 40
0.8571428571428569
 40
0.8571428571428569
 40
0.8873025755107295
 40
0.8873025755107295
 40
0.8873025755107295
 40
0.8873025755107295
 10
1143.537639767123
 20
1870.292342630418
 30
0.0
 10
1143.440168023404
 20
1870.270389409262
 30
0.0
 10
1143.341257000871
 20
1870.254270350259
 30
0.0
 10
1143.241458761444
 20
1870.241722264221
 30
0.0
  0
SPLINE
  5
273
330
1BE
100
AcDbEntity
  8
P-SANR-FIXT
100
AcDbSpline
210
0.0
220
0.0
230
1.0
 70
     8
 71
     3
 72
     8
 73
     4
 74
     0
 42
0.000000001
 43
0.0000000001
 40
0.1126271867333342
 40
0.1126271867333342
 40
0.1126271867333342
 40
0.1126271867333342
 40
0.1428571428571428
 40
0.1428571428571428
 40
0.1428571428571428
 40
0.1428571428571428
 10
1140.988627751374
 20
1870.231754121365
 30
0.0
 10
1140.889842069041
 20
1870.249163881991
 30
0.0
 10
1140.791538888572
 20
1870.268889169076
 30
0.0
 10
1140.69369879828
 20
1870.290958182478
 30
0.0
  0
SPLINE
  5
274
330
1BE
100
AcDbEntity
  8
P-SANR-FIXT
100
AcDbSpline
210
0.0
220
0.0
230
1.0
 70
     8
 71
     3
 72
     9
 73
     5
 74
     0
 42
0.000000001
 43
0.0000000001
 40
0.2265250231610938
 40
0.2265250231610938
 40
0.2265250231610938
 40
0.2265250231610938
 40
0.2857142857142857
 40
0.3410372669498714
 40
0.3410372669498714
 40
0.3410372669498714
 40
0.3410372669498714
 10
1139.894929164136
 20
1870.526565179635
 30
0.0
 10
1139.710517845939
 20
1870.594151411701
 30
0.0
 10
1139.360192511484
 20
1870.740956822318
 30
0.0
 10
1139.026190302416
 20
1870.916806912754
 30
0.0
 10
1138.869027841661
 20
1871.008212409065
 30
0.0
  0
SPLINE
  5
275
330
1BE
100
AcDbEntity
  8
P-SANR-FIXT
100
AcDbSpline
210
0.0
220
0.0
230
1.0
 70
     8
 71
     3
 72
     8
 73
     4
 74
     0
 42
0.000000001
 43
0.0000000001
 40
0.4285714285714286
 40
0.4285714285714286
 40
0.4285714285714286
 40
0.4285714285714286
 40
0.4552969128866195
 40
0.4552969128866195
 40
0.4552969128866195
 40
0.4552969128866195
 10
1138.156672411483
 20
1871.489578058172
 30
0.0
 10
1138.087672387612
 20
1871.543212831008
 30
0.0
 10
1138.019774237546
 20
1871.598217790259
 30
0.0
 10
1137.953027809105
 20
1871.654558626919
 30
0.0
  0
SPLINE
  5
276
330
1BE
100
AcDbEntity
  8
P-SANR-FIXT
100
AcDbSpline
210
0.0
220
0.0
230
1.0
 70
     8
 71
     3
 72
     8
 73
     4
 74
     0
 42
0.000000001
 43
0.0000000001
 40
0.5684234018593238
 40
0.5684234018593238
 40
0.5684234018593238
 40
0.5684234018593238
 40
0.5714285714285714
 40
0.5714285714285714
 40
0.5714285714285714
 40
0.5714285714285714
 10
1137.17114956715
 20
1872.439234914682
 30
0.0
 10
1137.164832246441
 20
1872.446767957845
 30
0.0
 10
1137.158531415553
 20
1872.454315682978
 30
0.0
 10
1137.152248185551
 20
1872.461878511636
 30
0.0
  0
SPLINE
  5
277
330
1BE
100
AcDbEntity
  8
P-SANR-FIXT
100
AcDbSpline
210
0.0
220
0.0
230
1.0
 70
     8
 71
     3
 72
     8
 73
     4
 74
     0
 42
0.000000001
 43
0.0000000001
 40
0.6809174518771553
 40
0.6809174518771553
 40
0.6809174518771553
 40
0.6809174518771553
 40
0.7142857142857143
 40
0.7142857142857143
 40
0.7142857142857143
 40
0.7142857142857143
 10
1136.536665047072
 20
1873.343020756572
 30
0.0
 10
1136.481761579508
 20
1873.437634216898
 30
0.0
 10
1136.429058544855
 20
1873.533588869315
 30
0.0
 10
1136.378781470568
 20
1873.630929472248
 30
0.0
  0
SPLINE
  5
278
330
1BE
100
AcDbEntity
  8
P-SANR-FIXT
100
AcDbSpline
210
0.0
220
0.0
230
1.0
 70
     8
 71
     3
 72
    10
 73
     6
 74
     0
 42
0.000000001
 43
0.0000000001
 40
0.7949950094913513
 40
0.7949950094913513
 40
0.7949950094913513
 40
0.7949950094913513
 40
0.8392857142857142
 40
0.8928571428571427
 40
0.9088933037579536
 40
0.9088933037579536
 40
0.9088933037579536
 40
0.9088933037579536
 10
1136.058993922508
 20
1874.361939445021
 30
0.0
 10
1136.008252589731
 20
1874.499849215856
 30
0.0
 10
1135.907744680525
 20
1874.809621283959
 30
0.0
 10
1135.812093521239
 20
1875.171506060053
 30
0.0
 10
1135.777838478649
 20
1875.400503219233
 30
0.0
 10
1135.7708460124
 20
1875.453551040827
 30
0.0
  0
LINE
  5
279
330
1BE
100
AcDbEntity
  8
P-SANR-FIXT
100
AcDbLine
 10
1135.73388432518
 20
1876.363137432193
 30
0.0
 11
1135.718706478491
 21
1876.363137432193
 31
0.0
  0
LINE
  5
27A
330
1BE
100
AcDbEntity
  8
P-SANR-FIXT
100
AcDbLine
 10
1126.694353943095
 20
1876.363137432193
 30
0.0
 11
1135.668087252878
 21
1876.363137432193
 31
0.0
  0
LINE
  5
27B
330
1BE
100
AcDbEntity
  8
P-SANR-FIXT
100
AcDbLine
 10
1142.114353943096
 20
1866.082558849996
 30
0.0
 11
1157.534353943096
 21
1866.082558849996
 31
0.0
  0
LINE
  5
27C
330
1BE
100
AcDbEntity
  8
P-SANR-FIXT
100
AcDbLine
 10
1126.694353943095
 20
1866.082558849996
 30
0.0
 11
1142.114353943096
 21
1866.082558849996
 31
0.0
  0
LINE
  5
27D
330
1BE
100
AcDbEntity
  8
P-SANR-FIXT
100
AcDbLine
 10
1142.114353943096
 20
1864.58255884998
 30
0.0
 11
1156.614353943095
 21
1864.58255884998
 31
0.0
  0
LINE
  5
27E
330
1BE
100
AcDbEntity
  8
P-SANR-FIXT
100
AcDbLine
 10
1127.614353943097
 20
1864.58255884998
 30
0.0
 11
1142.114353943096
 21
1864.58255884998
 31
0.0
  0
LINE
  5
27F
330
1BE
100
AcDbEntity
  8
P-SANR-FIXT
100
AcDbLine
 10
1142.114353943096
 20
1861.58255884998
 30
0.0
 11
1155.564353943096
 21
1861.58255884998
 31
0.0
  0
LINE
  5
280
330
1BE
100
AcDbEntity
  8
P-SANR-FIXT
100
AcDbLine
 10
1128.664353943095
 20
1861.58255884998
 30
0.0
 11
1142.114353943096
 21
1861.58255884998
 31
0.0
  0
LINE
  5
281
330
1BE
100
AcDbEntity
  8
P-SANR-FIXT
100
AcDbLine
 10
1142.114353943096
 20
1859.582558850008
 30
0.0
 11
1156.914353943083
 21
1859.582558850008
 31
0.0
  0
LINE
  5
282
330
1BE
100
AcDbEntity
  8
P-SANR-FIXT
100
AcDbLine
 10
1127.314353943108
 20
1859.582558850008
 30
0.0
 11
1142.114353943096
 21
1859.582558850008
 31
0.0
  0
LINE
  5
283
330
1BE
100
AcDbEntity
  8
P-SANR-FIXT
100
AcDbLine
 10
1142.114353943096
 20
1850.582558850008
 30
0.0
 11
1156.914353943083
 21
1850.582558850008
 31
0.0
  0
LINE
  5
284
330
1BE
100
AcDbEntity
  8
P-SANR-FIXT
100
AcDbLine
 10
1127.314353943108
 20
1850.582558850008
 30
0.0
 11
1142.114353943096
 21
1850.582558850008
 31
0.0
  0
LINE
  5
285
330
1BE
100
AcDbEntity
  8
P-SANR-FIXT
100
AcDbLine
 10
1142.114353943096
 20
1827.582558850008
 30
0.0
 11
1149.614353943096
 21
1827.582558850008
 31
0.0
  0
LINE
  5
286
330
1BE
100
AcDbEntity
  8
P-SANR-FIXT
100
AcDbLine
 10
1134.614353943095
 20
1827.582558850008
 30
0.0
 11
1142.114353943096
 21
1827.582558850008
 31
0.0
  0
ARC
  5
287
330
1BE
100
AcDbEntity
  8
P-SANR-FIXT
100
AcDbCircle
 10
1142.114353943096
 20
1876.582558849996
 30
0.0
 40
3.74999999993679
100
AcDbArc
 50
269.9999999999997
 51
90.0
  0
ARC
  5
288
330
1BE
100
AcDbEntity
  8
P-SANR-FIXT
100
AcDbCircle
 10
1142.114353943096
 20
1876.582558849996
 30
0.0
 40
3.74999999993679
100
AcDbArc
 50
90.0
 51
269.9999999999997
  0
ARC
  5
289
330
1BE
100
AcDbEntity
  8
P-SANR-FIXT
100
AcDbCircle
 10
1142.114353943096
 20
1876.582558849996
 30
0.0
 40
6.450000000000045
100
AcDbArc
 50
269.9999999999997
 51
90.0
  0
ARC
  5
28A
330
1BE
100
AcDbEntity
  8
P-SANR-FIXT
100
AcDbCircle
 10
1142.114353943096
 20
1876.582558849996
 30
0.0
 40
6.450000000000045
100
AcDbArc
 50
90.0
 51
269.9999999999997
  0
LINE
  5
28B
330
1BE
100
AcDbEntity
  8
P-SANR-FIXT
100
AcDbLine
 10
1151.214353943097
 20
2052.150917860761
 30
0.0
 11
1152.429631785217
 21
2052.852558850049
 31
0.0
  0
LINE
  5
28C
330
1BE
100
AcDbEntity
  8
P-SANR-FIXT
100
AcDbLine
 10
1131.799076100977
 20
2052.852558850049
 30
0.0
 11
1133.014353943098
 21
2052.150917860761
 31
0.0
  0
LINE
  5
28D
330
1BE
100
AcDbEntity
  8
P-SANR-FIXT
100
AcDbLine
 10
1151.214353943097
 20
2051.352558850072
 30
0.0
 11
1151.214353943097
 21
2052.150917860761
 31
0.0
  0
LINE
  5
28E
330
1BE
100
AcDbEntity
  8
P-SANR-FIXT
100
AcDbLine
 10
1133.014353943098
 20
2052.150917860761
 30
0.0
 11
1133.014353943098
 21
2051.352558850072
 31
0.0
  0
LINE
  5
28F
330
1BE
100
AcDbEntity
  8
P-SANR-FIXT
100
AcDbLine
 10
1156.114353943098
 20
2050.352558850072
 30
0.0
 11
1156.114353943098
 21
2051.352558850072
 31
0.0
  0
LINE
  5
290
330
1BE
100
AcDbEntity
  8
P-SANR-FIXT
100
AcDbLine
 10
1128.114353943098
 20
2051.352558850072
 30
0.0
 11
1128.114353943098
 21
2050.352558850072
 31
0.0
  0
LINE
  5
291
330
1BE
100
AcDbEntity
  8
P-SANR-FIXT
100
AcDbLine
 10
1184.114353943098
 20
2029.952558850071
 30
0.0
 11
1184.114353943098
 21
2050.352558850072
 31
0.0
  0
LINE
  5
292
330
1BE
100
AcDbEntity
  8
P-SANR-FIXT
100
AcDbLine
 10
1100.114353943097
 20
2050.352558850072
 30
0.0
 11
1100.114353943097
 21
2029.952558850071
 31
0.0
  0
LINE
  5
293
330
1BE
100
AcDbEntity
  8
P-SANR-FIXT
100
AcDbLine
 10
1184.114353943096
 20
2029.95255885007
 30
0.0
 11
1158.626884712723
 21
2029.95255885007
 31
0.0
  0
LINE
  5
294
330
1BE
100
AcDbEntity
  8
P-SANR-FIXT
100
AcDbLine
 10
1125.601823173468
 20
2029.95255885007
 30
0.0
 11
1100.114353943096
 21
2029.95255885007
 31
0.0
  0
LINE
  5
295
330
1BE
100
AcDbEntity
  8
P-SANR-FIXT
100
AcDbLine
 10
1142.114353943096
 20
2052.15091786076
 30
0.0
 11
1151.214353943096
 21
2052.15091786076
 31
0.0
  0
LINE
  5
296
330
1BE
100
AcDbEntity
  8
P-SANR-FIXT
100
AcDbLine
 10
1133.014353943096
 20
2052.15091786076
 30
0.0
 11
1142.114353943096
 21
2052.15091786076
 31
0.0
  0
LINE
  5
297
330
1BE
100
AcDbEntity
  8
P-SANR-FIXT
100
AcDbLine
 10
1142.114353943096
 20
2051.35255885007
 30
0.0
 11
1156.114353943095
 21
2051.35255885007
 31
0.0
  0
LINE
  5
298
330
1BE
100
AcDbEntity
  8
P-SANR-FIXT
100
AcDbLine
 10
1128.114353943096
 20
2051.35255885007
 30
0.0
 11
1142.114353943096
 21
2051.35255885007
 31
0.0
  0
LINE
  5
299
330
1BE
100
AcDbEntity
  8
P-SANR-FIXT
100
AcDbLine
 10
1142.114353943096
 20
2050.352558850071
 30
0.0
 11
1184.114353943096
 21
2050.352558850071
 31
0.0
  0
LINE
  5
29A
330
1BE
100
AcDbEntity
  8
P-SANR-FIXT
100
AcDbLine
 10
1100.114353943096
 20
2050.352558850071
 30
0.0
 11
1142.114353943096
 21
2050.352558850071
 31
0.0
  0
LINE
  5
29B
330
1BE
100
AcDbEntity
  8
P-SANR-FIXT
100
AcDbLine
 10
1170.614353943097
 20
1931.563487972692
 30
0.0
 11
1170.614353943097
 21
1960.982558850011
 31
0.0
  0
LINE
  5
29C
330
1BE
100
AcDbEntity
  8
P-SANR-FIXT
100
AcDbLine
 10
1113.614353943098
 20
1960.982558850011
 30
0.0
 11
1113.614353943098
 21
1931.563487972692
 31
0.0
  0
LINE
  5
29D
330
1BE
100
AcDbEntity
  8
P-SANR-FIXT
100
AcDbLine
 10
1170.614353943097
 20
1922.483535175018
 30
0.0
 11
1170.614353943097
 21
1929.336077333013
 31
0.0
  0
LINE
  5
29E
330
1BE
100
AcDbEntity
  8
P-SANR-FIXT
100
AcDbLine
 10
1113.614353943098
 20
1929.336077333013
 30
0.0
 11
1113.614353943098
 21
1922.483535175018
 31
0.0
  0
LINE
  5
29F
330
1BE
100
AcDbEntity
  8
P-SANR-FIXT
100
AcDbLine
 10
1164.315414978117
 20
1907.667296437151
 30
0.0
 11
1168.680379567773
 21
1915.248550724447
 31
0.0
  0
LINE
  5
2A0
330
1BE
100
AcDbEntity
  8
P-SANR-FIXT
100
AcDbLine
 10
1115.548328318422
 20
1915.248550724447
 30
0.0
 11
1119.913292908078
 21
1907.667296437151
 31
0.0
  0
LINE
  5
2A1
330
1BE
100
AcDbEntity
  8
P-SANR-FIXT
100
AcDbLine
 10
1176.614353943098
 20
2028.364153004243
 30
0.0
 11
1179.365553571111
 21
2029.952558850071
 31
0.0
  0
LINE
  5
2A2
330
1BE
100
AcDbEntity
  8
P-SANR-FIXT
100
AcDbLine
 10
1104.863154315084
 20
2029.952558850071
 30
0.0
 11
1107.614353943098
 21
2028.364153004243
 31
0.0
  0
LINE
  5
2A3
330
1BE
100
AcDbEntity
  8
P-SANR-FIXT
100
AcDbLine
 10
1176.614353943098
 20
1964.982558850012
 30
0.0
 11
1176.614353943098
 21
2028.364153004243
 31
0.0
  0
LINE
  5
2A4
330
1BE
100
AcDbEntity
  8
P-SANR-FIXT
100
AcDbLine
 10
1107.614353943098
 20
2028.364153004243
 30
0.0
 11
1107.614353943098
 21
1964.982558850012
 31
0.0
  0
LWPOLYLINE
  5
2A5
330
1BE
100
AcDbEntity
  8
P-SANR-FIXT
100
AcDbPolyline
 90
       41
 70
   128
 43
0.0
 10
1176.614353943098
 20
1964.982558850012
 10
1176.611154369741
 20
1964.822601513265
 10
1176.601560768308
 20
1964.662900074135
 10
1176.585588486513
 20
1964.503710020856
 10
1176.5632630766
 20
1964.345286023554
 10
1176.534620254463
 20
1964.187881526831
 10
1176.499705842506
 20
1964.031748344303
 10
1176.458575696341
 20
1963.877136255755
 10
1176.411295615428
 20
1963.724292607547
 10
1176.35794123781
 20
1963.573461916911
 10
1176.298597919109
 20
1963.424885480777
 10
1176.233360595978
 20
1963.278800989748
 10
1176.162333634215
 20
1963.135442147845
 10
1176.085630661808
 20
1962.995038298636
 10
1176.003374387151
 20
1962.857814058328
 10
1175.915696402736
 20
1962.723988956432
 10
1175.822736974635
 20
1962.593777084562
 10
1175.724644818101
 20
1962.467386753937
 10
1175.621576859661
 20
1962.345020162126
 10
1175.513697986061
 20
1962.226873069569
 10
1175.401180780486
 20
1962.113134486413
 10
1175.284205246463
 20
1962.003986370128
 10
1175.162958519892
 20
1961.899603334416
 10
1175.037634569672
 20
1961.800152369866
 10
1174.908433887387
 20
1961.705792576807
 10
1174.77556316657
 20
1961.61667491078
 10
1174.639234972029
 20
1961.532941941038
 10
1174.499667399793
 20
1961.454727622471
 10
1174.357083728205
 20
1961.382157081305
 10
1174.211712060723
 20
1961.315346414924
 10
1174.063784961004
 20
1961.254402506143
 10
1173.913539080853
 20
1961.199422852213
 10
1173.761214781626
 20
1961.150495408854
 10
1173.607055749707
 20
1961.107698449538
 10
1173.451308606663
 20
1961.07110044027
 10
1173.294222514698
 20
1961.040759930057
 10
1173.13604877805
 20
1961.016725457245
 10
1172.977040440955
 20
1960.999035471861
 10
1172.817451882832
 20
1960.987718274109
 10
1172.657538411331
 20
1960.982791969092
 10
1172.614353943097
 20
1960.982558850011
  0
LWPOLYLINE
  5
2A6
330
1BE
100
AcDbEntity
  8
P-SANR-FIXT
100
AcDbPolyline
 90
       27
 70
   128
 43
0.0
 10
1158.903029077694
 20
1960.982558850011
 10
1159.335949381646
 20
1960.982558850011
 10
1160.328814904651
 20
1960.982558850011
 10
1161.292541175661
 20
1960.982558850011
 10
1162.225586438228
 20
1960.982558850011
 10
1163.126458018969
 20
1960.982558850011
 10
1163.993714715533
 20
1960.982558850011
 10
1164.825969102209
 20
1960.982558850011
 10
1165.621889749516
 20
1960.982558850011
 10
1166.380203354207
 20
1960.982558850011
 10
1167.099696776278
 20
1960.982558850011
 10
1167.779218979739
 20
1960.982558850011
 10
1168.41768287402
 20
1960.982558850011
 10
1169.014067053089
 20
1960.982558850011
 10
1169.567417429481
 20
1960.982558850011
 10
1170.076848760637
 20
1960.982558850011
 10
1170.541546065098
 20
1960.982558850011
 10
1170.960765926309
 20
1960.982558850011
 10
1171.333837681919
 20
1960.982558850011
 10
1171.660164496705
 20
1960.982558850011
 10
1171.939224317375
 20
1960.982558850011
 10
1172.170570707746
 20
1960.982558850011
 10
1172.353833562944
 20
1960.982558850011
 10
1172.488719701496
 20
1960.982558850011
 10
1172.575013334353
 20
1960.982558850011
 10
1172.612576410112
 20
1960.982558850011
 10
1172.614353943097
 20
1960.982558850011
  0
LWPOLYLINE
  5
2A7
330
1BE
100
AcDbEntity
  8
P-SANR-FIXT
100
AcDbPolyline
 90
       11
 70
   128
 43
0.0
 10
1172.614353943097
 20
1960.982558850011
 10
1172.589957196257
 20
1960.982558850011
 10
1172.516805985327
 20
1960.982558850011
 10
1172.39501733664
 20
1960.982558850011
 10
1172.224786086054
 20
1960.982558850011
 10
1172.006384567255
 20
1960.982558850011
 10
1171.740162176085
 20
1960.982558850011
 10
1171.426544811576
 20
1960.982558850011
 10
1171.066034194612
 20
1960.982558850011
 10
1170.659207065275
 20
1960.982558850011
 10
1170.614353943097
 20
1960.982558850011
  0
LWPOLYLINE
  5
2A8
330
1BE
100
AcDbEntity
  8
P-SANR-FIXT
100
AcDbPolyline
 90
       41
 70
   128
 43
0.0
 10
1111.614353943098
 20
1960.982558850011
 10
1111.454396606351
 20
1960.985758423367
 10
1111.294695167221
 20
1960.995352024801
 10
1111.135505113942
 20
1961.011324306596
 10
1110.977081116641
 20
1961.033649716509
 10
1110.819676619917
 20
1961.062292538647
 10
1110.663543437389
 20
1961.097206950603
 10
1110.508931348841
 20
1961.138337096769
 10
1110.356087700633
 20
1961.185617177681
 10
1110.205257009997
 20
1961.2389715553
 10
1110.056680573863
 20
1961.298314874
 10
1109.910596082834
 20
1961.363552197132
 10
1109.767237240932
 20
1961.434579158894
 10
1109.626833391723
 20
1961.511282131301
 10
1109.489609151414
 20
1961.593538405958
 10
1109.355784049517
 20
1961.681216390373
 10
1109.225572177648
 20
1961.774175818474
 10
1109.099181847024
 20
1961.872267975008
 10
1108.976815255212
 20
1961.975335933448
 10
1108.858668162655
 20
1962.083214807048
 10
1108.744929579499
 20
1962.195732012623
 10
1108.635781463214
 20
1962.312707546646
 10
1108.531398427502
 20
1962.433954273217
 10
1108.431947462952
 20
1962.559278223437
 10
1108.337587669893
 20
1962.688478905722
 10
1108.248470003866
 20
1962.821349626539
 10
1108.164737034124
 20
1962.95767782108
 10
1108.086522715558
 20
1963.097245393317
 10
1108.013952174392
 20
1963.239829064905
 10
1107.947141508011
 20
1963.385200732386
 10
1107.886197599229
 20
1963.533127832105
 10
1107.8312179453
 20
1963.683373712256
 10
1107.782290501941
 20
1963.835698011483
 10
1107.739493542625
 20
1963.989857043402
 10
1107.702895533356
 20
1964.145604186446
 10
1107.672555023144
 20
1964.302690278411
 10
1107.648520550331
 20
1964.460864015059
 10
1107.630830564947
 20
1964.619872352155
 10
1107.619513367195
 20
1964.779460910277
 10
1107.614587062178
 20
1964.939374381778
 10
1107.614353943098
 20
1964.982558850012
  0
LWPOLYLINE
  5
2A9
330
1BE
100
AcDbEntity
  8
P-SANR-FIXT
100
AcDbPolyline
 90
       11
 70
   128
 43
0.0
 10
1113.614353943098
 20
1960.982558850011
 10
1113.267941959887
 20
1960.982558850011
 10
1112.894870204276
 20
1960.982558850011
 10
1112.568543389491
 20
1960.982558850011
 10
1112.28948356882
 20
1960.982558850011
 10
1112.058137178449
 20
1960.982558850011
 10
1111.874874323251
 20
1960.982558850011
 10
1111.7399881847
 20
1960.982558850011
 10
1111.653694551842
 20
1960.982558850011
 10
1111.616131476084
 20
1960.982558850011
 10
1111.614353943098
 20
1960.982558850011
  0
LWPOLYLINE
  5
2AA
330
1BE
100
AcDbEntity
  8
P-SANR-FIXT
100
AcDbPolyline
 90
       26
 70
   128
 43
0.0
 10
1111.614353943098
 20
1960.982558850011
 10
1111.638750689938
 20
1960.982558850011
 10
1111.711901900868
 20
1960.982558850011
 10
1111.833690549555
 20
1960.982558850011
 10
1112.003921800141
 20
1960.982558850011
 10
1112.22232331894
 20
1960.982558850011
 10
1112.488545710111
 20
1960.982558850011
 10
1112.802163074619
 20
1960.982558850011
 10
1113.162673691583
 20
1960.982558850011
 10
1113.569500820921
 20
1960.982558850011
 10
1114.02199362601
 20
1960.982558850011
 10
1114.519428214889
 20
1960.982558850011
 10
1115.061008798329
 20
1960.982558850011
 10
1115.645868962929
 20
1960.982558850011
 10
1116.273073057189
 20
1960.982558850011
 10
1116.941617688352
 20
1960.982558850011
 10
1117.650433327627
 20
1960.982558850011
 10
1118.398386021194
 20
1960.982558850011
 10
1119.1842792043
 20
1960.982558850011
 10
1120.0068556155
 20
1960.982558850011
 10
1120.864799308009
 20
1960.982558850011
 10
1121.756737754938
 20
1960.982558850011
 10
1122.681244045041
 20
1960.982558850011
 10
1123.636839165472
 20
1960.982558850011
 10
1124.621994367888
 20
1960.982558850011
 10
1125.325678808501
 20
1960.982558850011
  0
LWPOLYLINE
  5
2AB
330
1BE
100
AcDbEntity
  8
P-SANR-FIXT
100
AcDbPolyline
 90
       15
 70
   128
 43
0.0
 10
1170.614353943097
 20
1922.483535175018
 10
1170.602755489682
 20
1921.903689829312
 10
1170.567978684486
 20
1921.324772112465
 10
1170.510079162979
 20
1920.747708169329
 10
1170.429149552044
 20
1920.173421179112
 10
1170.325319321795
 20
1919.60282987849
 10
1170.198754578452
 20
1919.036847091825
 10
1170.049657798604
 20
1918.476378270839
 10
1169.878267505293
 20
1917.922320046085
 10
1169.684857886428
 20
1917.375558792529
 10
1169.46973835614
 20
1916.836969211543
 10
1169.233253059787
 20
1916.307412931562
 10
1168.975780323397
 20
1915.787737129667
 10
1168.697732048423
 20
1915.278773176284
 10
1168.680379567773
 20
1915.248550724448
  0
LWPOLYLINE
  5
2AC
330
1BE
100
AcDbEntity
  8
P-SANR-FIXT
100
AcDbPolyline
 90
       15
 70
   128
 43
0.0
 10
1115.548328318422
 20
1915.248550724448
 10
1115.269057587588
 20
1915.756844938421
 10
1115.01033659074
 20
1916.275900421821
 10
1114.77257922628
 20
1916.804886796603
 10
1114.556165855274
 20
1917.342957797409
 10
1114.361442692949
 20
1917.889252625421
 10
1114.188721254826
 20
1918.442897325451
 10
1114.038277858362
 20
1919.003006184084
 10
1113.910353180897
 20
1919.568683146629
 10
1113.805151874627
 20
1920.139023250618
 10
1113.722842239198
 20
1920.71311407355
 10
1113.663555952471
 20
1921.290037192574
 10
1113.627387859856
 20
1921.868869653771
 10
1113.614395822587
 20
1922.44868544868
 10
1113.614353943098
 20
1922.483535175018
  0
LWPOLYLINE
  5
2AD
330
1BE
100
AcDbEntity
  8
P-SANR-FIXT
100
AcDbPolyline
 90
       15
 70
   128
 43
0.0
 10
1164.315414978118
 20
1907.667296437151
 10
1163.853173768462
 20
1906.825981876093
 10
1163.424945911608
 20
1905.96685555874
 10
1163.031416480779
 20
1905.09129190393
 10
1162.673215039114
 20
1904.200691626733
 10
1162.350914632507
 20
1903.296479497609
 10
1162.065030872856
 20
1902.380102063077
 10
1161.81602111319
 20
1901.453025331546
 10
1161.604283716007
 20
1900.516732428023
 10
1161.430157415973
 20
1899.572721221422
 10
1161.293920778023
 20
1898.622501928293
 10
1161.195791751715
 20
1897.667594696805
 10
1161.13592732256
 20
1896.709527174823
 10
1161.114423260872
 20
1895.749832066007
 10
1161.114353943098
 20
1895.692149760345
  0
LWPOLYLINE
  5
2AE
330
1BE
100
AcDbEntity
  8
P-SANR-FIXT
100
AcDbPolyline
 90
       15
 70
   128
 43
0.0
 10
1123.114353943098
 20
1895.692149760345
 10
1123.095156502961
 20
1896.651893780824
 10
1123.03759489436
 20
1897.610102415605
 10
1122.94176120359
 20
1898.565242735279
 10
1122.807808744112
 20
1899.515786719086
 10
1122.635951811288
 20
1900.460213699426
 10
1122.426465339547
 20
1901.397012794596
 10
1122.179684462556
 20
1902.324685325883
 10
1121.896003977076
 20
1903.241747215131
 10
1121.575877711368
 20
1904.146731358947
 10
1121.219817799167
 20
1905.038189975752
 10
1120.828393860377
 20
1905.914696921929
 10
1120.402232089801
 20
1906.77484997334
 10
1119.942014255361
 20
1907.617273068595
 10
1119.913292908077
 20
1907.667296437151
  0
LINE
  5
2AF
330
1BE
100
AcDbEntity
  8
P-SANR-FIXT
100
AcDbLine
 10
1161.114353943098
 20
1892.182558850011
 30
0.0
 11
1161.114353943098
 21
1895.692149760344
 31
0.0
  0
LINE
  5
2B0
330
1BE
100
AcDbEntity
  8
P-SANR-FIXT
100
AcDbLine
 10
1123.114353943098
 20
1895.692149760344
 30
0.0
 11
1123.114353943098
 21
1892.182558850011
 31
0.0
  0
LINE
  5
2B1
330
1BE
100
AcDbEntity
  8
P-SANR-FIXT
100
AcDbLine
 10
1160.614353943097
 20
1891.682558850011
 30
0.0
 11
1161.114353943098
 21
1892.182558850011
 31
0.0
  0
LINE
  5
2B2
330
1BE
100
AcDbEntity
  8
P-SANR-FIXT
100
AcDbLine
 10
1123.114353943098
 20
1892.182558850011
 30
0.0
 11
1123.614353943098
 21
1891.682558850011
 31
0.0
  0
LINE
  5
2B3
330
1BE
100
AcDbEntity
  8
P-SANR-FIXT
100
AcDbLine
 10
1170.614353943097
 20
1929.336077333013
 30
0.0
 11
1170.614353943097
 21
1931.563487972692
 31
0.0
  0
LINE
  5
2B4
330
1BE
100
AcDbEntity
  8
P-SANR-FIXT
100
AcDbLine
 10
1113.614353943098
 20
1931.563487972692
 30
0.0
 11
1113.614353943098
 21
1929.336077333013
 31
0.0
  0
LINE
  5
2B5
330
1BE
100
AcDbEntity
  8
P-SANR-FIXT
100
AcDbLine
 10
1158.624570590201
 20
2028.364153004242
 30
0.0
 11
1176.614353943096
 21
2028.364153004242
 31
0.0
  0
LINE
  5
2B6
330
1BE
100
AcDbEntity
  8
P-SANR-FIXT
100
AcDbLine
 10
1107.614353943096
 20
2028.364153004242
 30
0.0
 11
1125.604137295989
 21
2028.364153004242
 31
0.0
  0
LINE
  5
2B7
330
1BE
100
AcDbEntity
  8
P-SANR-FIXT
100
AcDbLine
 10
1142.114353943096
 20
1892.182558850011
 30
0.0
 11
1161.114353943096
 21
1892.182558850011
 31
0.0
  0
LINE
  5
2B8
330
1BE
100
AcDbEntity
  8
P-SANR-FIXT
100
AcDbLine
 10
1123.114353943096
 20
1892.182558850011
 30
0.0
 11
1142.114353943096
 21
1892.182558850011
 31
0.0
  0
LINE
  5
2B9
330
1BE
100
AcDbEntity
  8
P-SANR-FIXT
100
AcDbLine
 10
1160.614353943096
 20
1891.682558850011
 30
0.0
 11
1142.114353943096
 21
1891.682558850011
 31
0.0
  0
LINE
  5
2BA
330
1BE
100
AcDbEntity
  8
P-SANR-FIXT
100
AcDbLine
 10
1142.114353943096
 20
1891.682558850011
 30
0.0
 11
1123.614353943096
 21
1891.682558850011
 31
0.0
  0
ENDBLK
  5
2BC
330
1BE
100
AcDbEntity
  8
0
100
AcDbBlockEnd
  0
ENDSEC
  0
SECTION
  2
ENTITIES
  0
INSERT
  5
163
330
71
100
AcDbEntity
  8
P-SANR-FIXT
100
AcDbBlockReference
  2
Automatic flow rate regulator valve_Caleffi_121 DN15 - 1_2__-859151-Est - Idraulica
 10
0.0
 20
0.0
 30
0.0
1001
REVIT
1002
{
1070
     1
1000
863131
1002
}
1002
{
1070
     5
1000
859151
1002
}
1002
{
1070
     2
1000
-2001160
1002
}
  0
INSERT
  5
1BD
330
71
100
AcDbEntity
  8
P-SANR-FIXT
100
AcDbBlockReference
  2
Automatic flow rate regulator valve_Caleffi_121 DN15 - 1_2__-V1-Est - Idraulica
 10
0.0
 20
0.0
 30
0.0
1001
REVIT
1002
{
1070
     1
1000
863152
1002
}
1002
{
1070
     5
1000
859151
1002
}
1002
{
1070
     2
1000
-2001160
1002
}
  0
INSERT
  5
2BD
330
71
100
AcDbEntity
  8
P-SANR-FIXT
100
AcDbBlockReference
  2
Automatic flow rate regulator valve_Caleffi_121 DN15 - 1_2__-V2-Est - Idraulica
 10
0.0
 20
0.0
 30
0.0
1001
REVIT
1002
{
1070
     1
1000
863172
1002
}
1002
{
1070
     5
1000
859151
1002
}
1002
{
1070
     2
1000
-2001160
1002
}
  0
ENDSEC
  0
SECTION
  2
OBJECTS
  0
DICTIONARY
  5
C
330
0
100
AcDbDictionary
281
     1
  3
ACAD_CIP_PREVIOUS_PRODUCT_INFO
350
7A
  3
ACAD_COLOR
350
63
  3
ACAD_DETAILVIEWSTYLE
350
6B
  3
ACAD_GROUP
350
D
  3
ACAD_IMAGE_VARS
350
7B
  3
ACAD_LAYOUT
350
62
  3
ACAD_MATERIAL
350
10
  3
ACAD_MLEADERSTYLE
350
66
  3
ACAD_MLINESTYLE
350
5F
  3
ACAD_PLOTSETTINGS
350
61
  3
ACAD_PLOTSTYLENAME
350
E
  3
ACAD_SCALELIST
350
42
  3
ACAD_SECTIONVIEWSTYLE
350
68
  3
ACAD_TABLESTYLE
350
64
  3
ACAD_VISUALSTYLE
350
29
  3
ACDB_RECOMPOSE_DATA
350
2C7
  3
AcDbVariableDictionary
350
7C
  3
REVIT_DICTIONARY
350
2BF
  0
DICTIONARY
  5
2C3
330
71
100
AcDbDictionary
280
     1
281
     1
  3
ACAD_SORTENTS
360
2C4
  0
XRECORD
  5
7A
102
{ACAD_REACTORS
330
C
102
}
330
C
100
AcDbXrecord
280
     1
300
RVT
300
2013
300
RVT2013
  0
DICTIONARY
  5
63
102
{ACAD_REACTORS
330
C
102
}
330
C
100
AcDbDictionary
281
     1
  0
DICTIONARY
  5
6B
102
{ACAD_REACTORS
330
C
102
}
330
C
100
AcDbDictionary
281
     1
  3
Imperial24
350
6C
  0
DICTIONARY
  5
D
102
{ACAD_REACTORS
330
C
102
}
330
C
100
AcDbDictionary
281
     1
  0
RASTERVARIABLES
  5
7B
102
{ACAD_REACTORS
330
C
102
}
330
C
100
AcDbRasterVariables
 90
        0
 70
     0
 71
     1
 72
     1
  0
DICTIONARY
  5
62
102
{ACAD_REACTORS
330
C
102
}
330
C
100
AcDbDictionary
281
     1
  3
Layout1
350
70
  3
Layout2
350
78
  3
Model
350
74
  0
DICTIONARY
  5
10
102
{ACAD_REACTORS
330
C
102
}
330
C
100
AcDbDictionary
281
     1
  3
ByBlock
350
19
  3
ByLayer
350
11
  3
Global
350
21
  0
DICTIONARY
  5
66
102
{ACAD_REACTORS
330
C
102
}
330
C
100
AcDbDictionary
281
     1
  3
Standard
350
67
  0
DICTIONARY
  5
5F
102
{ACAD_REACTORS
330
C
102
}
330
C
100
AcDbDictionary
281
     1
  3
Standard
350
60
  0
DICTIONARY
  5
61
102
{ACAD_REACTORS
330
C
102
}
330
C
100
AcDbDictionary
281
     1
  0
ACDBDICTIONARYWDFLT
  5
E
102
{ACAD_REACTORS
330
C
102
}
330
C
100
AcDbDictionary
281
     1
  3
Normal
350
F
100
AcDbDictionaryWithDefault
340
F
  0
DICTIONARY
  5
42
102
{ACAD_REACTORS
330
C
102
}
330
C
100
AcDbDictionary
281
     1
  3
A0
350
43
  3
A1
350
44
  3
A2
350
45
  3
A3
350
46
  3
A4
350
47
  3
A5
350
48
  3
A6
350
49
  3
A7
350
4A
  3
A8
350
4B
  3
A9
350
4C
  3
B0
350
4D
  3
B1
350
4E
  3
B2
350
4F
  3
B3
350
50
  3
B4
350
51
  3
B5
350
52
  3
B6
350
53
  0
DICTIONARY
  5
68
102
{ACAD_REACTORS
330
C
102
}
330
C
100
AcDbDictionary
281
     1
  3
Imperial24
350
6A
  0
DICTIONARY
  5
64
102
{ACAD_REACTORS
330
C
102
}
330
C
100
AcDbDictionary
281
     1
  3
Standard
350
65
  0
DICTIONARY
  5
29
102
{ACAD_REACTORS
330
C
102
}
330
C
100
AcDbDictionary
281
     1
  3
2dWireframe
350
2F
  3
Basic
350
2E
  3
Brighten
350
35
  3
ColorChange
350
39
  3
Conceptual
350
32
  3
Dim
350
34
  3
EdgeColorOff
350
41
  3
Facepattern
350
38
  3
Flat
350
2A
  3
FlatWithEdges
350
2B
  3
Gouraud
350
2C
  3
GouraudWithEdges
350
2D
  3
Hidden
350
31
  3
JitterOff
350
3F
  3
Linepattern
350
37
  3
OverhangOff
350
40
  3
Realistic
350
33
  3
Shaded
350
3E
  3
Shaded with edges
350
3D
  3
Shades of Gray
350
3A
  3
Sketchy
350
3B
  3
Thicken
350
36
  3
Wireframe
350
30
  3
X-Ray
350
3C
  0
XRECORD
  5
2C7
102
{ACAD_REACTORS
330
C
102
}
330
C
100
AcDbXrecord
280
     1
 90
        1
330
65
  0
DICTIONARY
  5
7C
102
{ACAD_REACTORS
330
C
102
}
330
C
100
AcDbDictionary
281
     1
  3
CANNOSCALE
350
81
  3
CMLEADERSTYLE
350
7E
  3
CTABLESTYLE
350
7D
  3
CVIEWDETAILSTYLE
350
7F
  3
CVIEWSECTIONSTYLE
350
80
  0
DICTIONARY
  5
2BF
102
{ACAD_REACTORS
330
C
102
}
330
C
100
AcDbDictionary
281
     1
  3
DRAWING_TOOL
350
2C2
  3
REVIT_CATEGORY_MAPPING
350
2C1
  3
REVIT_TYPE_MAPPING
350
2C0
  0
SORTENTSTABLE
  5
2C4
102
{ACAD_REACTORS
330
2C3
102
}
330
2C3
100
AcDbSortentsTable
330
71
  0
ACDBDETAILVIEWSTYLE
  5
6C
102
{ACAD_REACTORS
330
6B
102
}
330
6B
100
AcDbModelDocViewStyle
 70
     0
  3
Imperial24
290
     1
100
AcDbDetailViewStyle
 70
     0
 71
     0
 90
        3
 71
     1
340
55
 62
   256
 40
0.24
340
0
 62
   256
 40
0.24
300

 40
0.36
280
     3
 71
     2
340
5D
 90
       25
 62
   256
 71
     3
340
55
 62
   256
 40
0.24
 90
        1
 40
0.75
 90
        1
300
%<\AcVar ViewType \f "%tc1">% %<\AcVar ViewDetailId>%\PSCALA %<\AcVar ViewScale \f "%sn">%
 71
     4
340
5D
 90
       25
 62
   256
340
5D
 90
       25
 62
   256
280
     0
  0
LAYOUT
  5
70
102
{ACAD_REACTORS
330
62
102
}
330
62
100
AcDbPlotSettings
  1

  2

  4

  6

 40
0.0
 41
0.0
 42
0.0
 43
0.0
 44
0.0
 45
0.0
 46
0.0
 47
0.0
 48
0.0
 49
0.0
140
0.0
141
0.0
142
1.0
143
1.0
 70
   688
 72
     0
 73
     0
 74
     5
  7

 75
    16
147
1.0
 76
     0
 77
     2
 78
   300
148
0.0
149
0.0
100
AcDbLayout
  1
Layout1
 70
     1
 71
     1
 10
0.0
 20
0.0
 11
12.0
 21
9.0
 12
0.0
 22
0.0
 32
0.0
 14
0.0
 24
0.0
 34
0.0
 15
0.0
 25
0.0
 35
0.0
146
0.0
 13
0.0
 23
0.0
 33
0.0
 16
1.0
 26
0.0
 36
0.0
 17
0.0
 27
1.0
 37
0.0
 76
     0
330
6D
  0
LAYOUT
  5
78
102
{ACAD_REACTORS
330
62
102
}
330
62
100
AcDbPlotSettings
  1

  2

  4

  6

 40
0.0
 41
0.0
 42
0.0
 43
0.0
 44
0.0
 45
0.0
 46
0.0
 47
0.0
 48
0.0
 49
0.0
140
0.0
141
0.0
142
1.0
143
1.0
 70
   688
 72
     0
 73
     0
 74
     5
  7

 75
    16
147
1.0
 76
     0
 77
     2
 78
   300
148
0.0
149
0.0
100
AcDbLayout
  1
Layout2
 70
     1
 71
     2
 10
0.0
 20
0.0
 11
12.0
 21
9.0
 12
0.0
 22
0.0
 32
0.0
 14
0.0
 24
0.0
 34
0.0
 15
0.0
 25
0.0
 35
0.0
146
0.0
 13
0.0
 23
0.0
 33
0.0
 16
1.0
 26
0.0
 36
0.0
 17
0.0
 27
1.0
 37
0.0
 76
     0
330
75
  0
LAYOUT
  5
74
102
{ACAD_REACTORS
330
62
102
}
330
62
100
AcDbPlotSettings
  1

  2

  4

  6

 40
0.0
 41
0.0
 42
0.0
 43
0.0
 44
0.0
 45
0.0
 46
0.0
 47
0.0
 48
0.0
 49
0.0
140
0.0
141
0.0
142
1.0
143
1.0
 70
  1712
 72
     0
 73
     0
 74
     0
  7

 75
     0
147
1.0
 76
     0
 77
     2
 78
   300
148
0.0
149
0.0
100
AcDbLayout
  1
Model
 70
     1
 71
     0
 10
0.0
 20
0.0
 11
12.0
 21
9.0
 12
0.0
 22
0.0
 32
0.0
 14
0.0
 24
0.0
 34
0.0
 15
0.0
 25
0.0
 35
0.0
146
0.0
 13
0.0
 23
0.0
 33
0.0
 16
1.0
 26
0.0
 36
0.0
 17
0.0
 27
1.0
 37
0.0
 76
     0
330
71
  0
MATERIAL
  5
19
102
{ACAD_XDICTIONARY
360
1A
102
}
102
{ACAD_REACTORS
330
10
102
}
330
10
100
AcDbMaterial
  1
ByBlock
 72
     0
 43
0.0208333333333333
 43
0.0
 43
0.0
 43
0.0
 43
0.0
 43
0.0208333333333333
 43
0.0
 43
0.0
 43
0.0
 43
0.0
 43
1.0
 43
0.0
 43
0.0
 43
0.0
 43
0.0
 43
1.0
 77
     0
 47
0.0208333333333333
 47
0.0
 47
0.0
 47
0.0
 47
0.0
 47
0.0208333333333333
 47
0.0
 47
0.0
 47
0.0
 47
0.0
 47
1.0
 47
0.0
 47
0.0
 47
0.0
 47
0.0
 47
1.0
171
     0
 49
0.0208333333333333
 49
0.0
 49
0.0
 49
0.0
 49
0.0
 49
0.0208333333333333
 49
0.0
 49
0.0
 49
0.0
 49
0.0
 49
1.0
 49
0.0
 49
0.0
 49
0.0
 49
0.0
 49
1.0
175
     0
142
0.0208333333333333
142
0.0
142
0.0
142
0.0
142
0.0
142
0.0208333333333333
142
0.0
142
0.0
142
0.0
142
0.0
142
1.0
142
0.0
142
0.0
142
0.0
142
0.0
142
1.0
179
     0
144
0.0208333333333333
144
0.0
144
0.0
144
0.0
144
0.0
144
0.0208333333333333
144
0.0
144
0.0
144
0.0
144
0.0
144
1.0
144
0.0
144
0.0
144
0.0
144
0.0
144
1.0
147
0.0208333333333333
147
0.0
147
0.0
147
0.0
147
0.0
147
0.0208333333333333
147
0.0
147
0.0
147
0.0
147
0.0
147
1.0
147
0.0
147
0.0
147
0.0
147
0.0
147
1.0
  0
MATERIAL
  5
11
102
{ACAD_XDICTIONARY
360
12
102
}
102
{ACAD_REACTORS
330
10
102
}
330
10
100
AcDbMaterial
  1
ByLayer
 72
     0
 43
0.0208333333333333
 43
0.0
 43
0.0
 43
0.0
 43
0.0
 43
0.0208333333333333
 43
0.0
 43
0.0
 43
0.0
 43
0.0
 43
1.0
 43
0.0
 43
0.0
 43
0.0
 43
0.0
 43
1.0
 77
     0
 47
0.0208333333333333
 47
0.0
 47
0.0
 47
0.0
 47
0.0
 47
0.0208333333333333
 47
0.0
 47
0.0
 47
0.0
 47
0.0
 47
1.0
 47
0.0
 47
0.0
 47
0.0
 47
0.0
 47
1.0
171
     0
 49
0.0208333333333333
 49
0.0
 49
0.0
 49
0.0
 49
0.0
 49
0.0208333333333333
 49
0.0
 49
0.0
 49
0.0
 49
0.0
 49
1.0
 49
0.0
 49
0.0
 49
0.0
 49
0.0
 49
1.0
175
     0
142
0.0208333333333333
142
0.0
142
0.0
142
0.0
142
0.0
142
0.0208333333333333
142
0.0
142
0.0
142
0.0
142
0.0
142
1.0
142
0.0
142
0.0
142
0.0
142
0.0
142
1.0
179
     0
144
0.0208333333333333
144
0.0
144
0.0
144
0.0
144
0.0
144
0.0208333333333333
144
0.0
144
0.0
144
0.0
144
0.0
144
1.0
144
0.0
144
0.0
144
0.0
144
0.0
144
1.0
147
0.0208333333333333
147
0.0
147
0.0
147
0.0
147
0.0
147
0.0208333333333333
147
0.0
147
0.0
147
0.0
147
0.0
147
1.0
147
0.0
147
0.0
147
0.0
147
0.0
147
1.0
  0
MATERIAL
  5
21
102
{ACAD_XDICTIONARY
360
22
102
}
102
{ACAD_REACTORS
330
10
102
}
330
10
100
AcDbMaterial
  1
Global
 72
     0
 43
0.0208333333333333
 43
0.0
 43
0.0
 43
0.0
 43
0.0
 43
0.0208333333333333
 43
0.0
 43
0.0
 43
0.0
 43
0.0
 43
1.0
 43
0.0
 43
0.0
 43
0.0
 43
0.0
 43
1.0
 77
     0
 47
0.0208333333333333
 47
0.0
 47
0.0
 47
0.0
 47
0.0
 47
0.0208333333333333
 47
0.0
 47
0.0
 47
0.0
 47
0.0
 47
1.0
 47
0.0
 47
0.0
 47
0.0
 47
0.0
 47
1.0
171
     0
 49
0.0208333333333333
 49
0.0
 49
0.0
 49
0.0
 49
0.0
 49
0.0208333333333333
 49
0.0
 49
0.0
 49
0.0
 49
0.0
 49
1.0
 49
0.0
 49
0.0
 49
0.0
 49
0.0
 49
1.0
175
     0
142
0.0208333333333333
142
0.0
142
0.0
142
0.0
142
0.0
142
0.0208333333333333
142
0.0
142
0.0
142
0.0
142
0.0
142
1.0
142
0.0
142
0.0
142
0.0
142
0.0
142
1.0
179
     0
144
0.0208333333333333
144
0.0
144
0.0
144
0.0
144
0.0
144
0.0208333333333333
144
0.0
144
0.0
144
0.0
144
0.0
144
1.0
144
0.0
144
0.0
144
0.0
144
0.0
144
1.0
147
0.0208333333333333
147
0.0
147
0.0
147
0.0
147
0.0
147
0.0208333333333333
147
0.0
147
0.0
147
0.0
147
0.0
147
1.0
147
0.0
147
0.0
147
0.0
147
0.0
147
1.0
  0
MLEADERSTYLE
  5
67
102
{ACAD_REACTORS
330
66
102
}
330
66
100
AcDbMLeaderStyle
179
     2
170
     2
171
     1
172
     0
 90
        2
 40
0.0
 41
0.0
173
     1
 91
-1056964608
340
5B
 92
       -2
290
     1
 42
0.09
291
     1
 43
0.36
  3
Standard
 44
0.18
300

342
55
174
     1
178
     6
175
     1
176
     0
 93
-1056964608
 45
0.18
292
     0
297
     0
 46
0.18
 94
-1056964608
 47
1.0
 49
1.0
140
1.0
293
     1
141
0.0
294
     1
177
     0
142
1.0
295
     1
296
     0
143
0.125
271
     0
272
     9
273
     9
298
     1
  0
MLINESTYLE
  5
60
102
{ACAD_REACTORS
330
5F
102
}
330
5F
100
AcDbMlineStyle
  2
STANDARD
 70
     0
  3

 62
   256
 51
90.0
 52
90.0
 71
     2
 49
0.5
 62
   256
  6
BYLAYER
 49
-0.5
 62
   256
  6
BYLAYER
  0
ACDBPLACEHOLDER
  5
F
102
{ACAD_REACTORS
330
E
102
}
330
E
  0
SCALE
  5
43
102
{ACAD_REACTORS
330
42
102
}
330
42
100
AcDbScale
 70
     0
300
1:1
140
1.0
141
1.0
290
     1
  0
SCALE
  5
44
102
{ACAD_REACTORS
330
42
102
}
330
42
100
AcDbScale
 70
     0
300
1/128" = 1'-0"
140
0.0078125
141
12.0
290
     0
  0
SCALE
  5
45
102
{ACAD_REACTORS
330
42
102
}
330
42
100
AcDbScale
 70
     0
300
1/64" = 1'-0"
140
0.015625
141
12.0
290
     0
  0
SCALE
  5
46
102
{ACAD_REACTORS
330
42
102
}
330
42
100
AcDbScale
 70
     0
300
1/32" = 1'-0"
140
0.03125
141
12.0
290
     0
  0
SCALE
  5
47
102
{ACAD_REACTORS
330
42
102
}
330
42
100
AcDbScale
 70
     0
300
1/16" = 1'-0"
140
0.0625
141
12.0
290
     0
  0
SCALE
  5
48
102
{ACAD_REACTORS
330
42
102
}
330
42
100
AcDbScale
 70
     0
300
3/32" = 1'-0"
140
0.09375
141
12.0
290
     0
  0
SCALE
  5
49
102
{ACAD_REACTORS
330
42
102
}
330
42
100
AcDbScale
 70
     0
300
1/8" = 1'-0"
140
0.125
141
12.0
290
     0
  0
SCALE
  5
4A
102
{ACAD_REACTORS
330
42
102
}
330
42
100
AcDbScale
 70
     0
300
3/16" = 1'-0"
140
0.1875
141
12.0
290
     0
  0
SCALE
  5
4B
102
{ACAD_REACTORS
330
42
102
}
330
42
100
AcDbScale
 70
     0
300
1/4" = 1'-0"
140
0.25
141
12.0
290
     0
  0
SCALE
  5
4C
102
{ACAD_REACTORS
330
42
102
}
330
42
100
AcDbScale
 70
     0
300
3/8" = 1'-0"
140
0.375
141
12.0
290
     0
  0
SCALE
  5
4D
102
{ACAD_REACTORS
330
42
102
}
330
42
100
AcDbScale
 70
     0
300
1/2" = 1'-0"
140
0.5
141
12.0
290
     0
  0
SCALE
  5
4E
102
{ACAD_REACTORS
330
42
102
}
330
42
100
AcDbScale
 70
     0
300
3/4" = 1'-0"
140
0.75
141
12.0
290
     0
  0
SCALE
  5
4F
102
{ACAD_REACTORS
330
42
102
}
330
42
100
AcDbScale
 70
     0
300
1" = 1'-0"
140
1.0
141
12.0
290
     0
  0
SCALE
  5
50
102
{ACAD_REACTORS
330
42
102
}
330
42
100
AcDbScale
 70
     0
300
1-1/2" = 1'-0"
140
1.5
141
12.0
290
     0
  0
SCALE
  5
51
102
{ACAD_REACTORS
330
42
102
}
330
42
100
AcDbScale
 70
     0
300
3" = 1'-0"
140
3.0
141
12.0
290
     0
  0
SCALE
  5
52
102
{ACAD_REACTORS
330
42
102
}
330
42
100
AcDbScale
 70
     0
300
6" = 1'-0"
140
6.0
141
12.0
290
     0
  0
SCALE
  5
53
102
{ACAD_REACTORS
330
42
102
}
330
42
100
AcDbScale
 70
     0
300
1'-0" = 1'-0"
140
12.0
141
12.0
290
     0
  0
ACDBSECTIONVIEWSTYLE
  5
6A
102
{ACAD_REACTORS
330
68
102
}
330
68
100
AcDbModelDocViewStyle
 70
     0
  3
Imperial24
290
     1
100
AcDbSectionViewStyle
 70
     0
 71
     0
 90
       78
 71
     1
340
55
 62
   256
 40
0.24
340
0
340
0
 62
   256
 40
0.24
300
I, O, Q, S, X, Z
 40
0.48
 90
        3
 40
0.18
 90
        1
 71
     2
340
69
 90
       25
 62
   256
340
5D
 90
       50
 62
   256
 40
0.24
 40
0.0
 40
0.24
 71
     3
340
55
 62
   256
 40
0.24
 90
        1
 40
0.75
 90
        1
300
%<\AcVar ViewType \f "%tc1">% %<\AcVar ViewSectionStartId>%-%<\AcVar ViewSectionEndId>%\PSCALA %<\AcVar ViewScale \f "%sn">%
 71
     4
 62
   256
 62
   257
300
ANSI31
 40
1.0
 90
        0
290
     0
290
     0
 90
        6
 40
0.0
 40
1.570796326794896
 40
0.2617993877991494
 40
1.308996938995747
 40
-0.2617993877991494
 40
1.832595714594046
  0
TABLESTYLE
  5
65
102
{ACAD_XDICTIONARY
360
2C5
102
}
102
{ACAD_REACTORS
330
64
102
}
330
64
100
AcDbTableStyle
280
     0
  3
Standard
 70
     0
 71
     0
 40
0.06
 41
0.06
280
     0
281
     0
  7
Standard
140
0.18
170
     2
 62
     0
 63
     7
283
     0
 90
      512
 91
        0
  1

274
    -2
284
     1
 64
     0
275
    -2
285
     1
 65
     0
276
    -2
286
     1
 66
     0
277
    -2
287
     1
 67
     0
278
    -2
288
     1
 68
     0
279
    -2
289
     1
 69
     0
  7
Standard
140
0.25
170
     5
 62
     0
 63
     7
283
     0
 90
      512
 91
        0
  1

274
    -2
284
     1
 64
     0
275
    -2
285
     1
 65
     0
276
    -2
286
     1
 66
     0
277
    -2
287
     1
 67
     0
278
    -2
288
     1
 68
     0
279
    -2
289
     1
 69
     0
  7
Standard
140
0.18
170
     5
 62
     0
 63
     7
283
     0
 90
      512
 91
        0
  1

274
    -2
284
     1
 64
     0
275
    -2
285
     1
 65
     0
276
    -2
286
     1
 66
     0
277
    -2
287
     1
 67
     0
278
    -2
288
     1
 68
     0
279
    -2
289
     1
 69
     0
  0
VISUALSTYLE
  5
2F
102
{ACAD_REACTORS
330
29
102
}
330
29
100
AcDbVisualStyle
  2
2dWireframe
 70
     4
177
     3
291
     0
 70
    58
 90
        0
176
     1
 90
        2
176
     1
 90
        0
176
     1
 90
        0
176
     1
 40
0.6
176
     1
 40
30.0
176
     1
 62
     7
420
 16777215
176
     1
 90
        1
176
     1
 90
        4
176
     1
 62
     7
176
     1
 62
   257
176
     1
 90
        1
176
     1
 90
        1
176
     1
 40
1.0
176
     1
 90
        0
176
     1
 62
   257
176
     1
 40
1.0
176
     1
 90
        1
176
     1
 90
        6
176
     1
 90
        2
176
     1
 62
     7
176
     1
 90
        5
176
     1
 90
        0
176
     1
 90
        0
176
     1
290
     0
176
     1
 90
        1
176
     1
 40
0.0
176
     1
 90
        0
176
     1
290
     1
176
     1
290
     1
176
     1
290
     0
176
     1
290
     0
176
     1
290
     0
176
     1
290
     0
176
     1
290
     0
176
     1
290
     0
176
     1
290
     0
176
     1
 90
       50
176
     1
 40
0.0
176
     1
 40
1.0
176
     1
 90
        0
176
     1
 62
    18
420
        0
176
     1
 90
       50
176
     1
 90
        3
176
     1
 62
     5
420
      255
176
     1
290
     0
176
     1
 90
       50
176
     1
 90
       50
176
     1
 90
       50
176
     1
290
     0
176
     1
 90
       50
176
     1
 62
   256
176
     0
 40
1.0
176
     0
 90
        2
176
     1
  1
strokes_ogs.tif
176
     1
290
     0
176
     1
 40
1.0
176
     1
 40
1.0
176
     1
  0
VISUALSTYLE
  5
2E
102
{ACAD_REACTORS
330
29
102
}
330
29
100
AcDbVisualStyle
  2
Basic
 70
     7
177
     3
291
     1
 70
    58
 90
        1
176
     1
 90
        0
176
     1
 90
        1
176
     1
 90
        0
176
     1
 40
0.6
176
     1
 40
30.0
176
     1
 62
     7
420
 16777215
176
     1
 90
        0
176
     1
 90
        4
176
     1
 62
     7
176
     1
 62
   257
176
     1
 90
        1
176
     1
 90
        1
176
     1
 40
1.0
176
     1
 90
        8
176
     1
 62
     7
176
     1
 40
1.0
176
     1
 90
        1
176
     1
 90
        6
176
     1
 90
        2
176
     1
 62
     7
176
     1
 90
        5
176
     1
 90
        0
176
     1
 90
        0
176
     1
290
     0
176
     1
 90
        1
176
     1
 40
0.0
176
     1
 90
        0
176
     1
290
     0
176
     1
290
     1
176
     1
290
     1
176
     1
290
     0
176
     1
290
     0
176
     1
290
     0
176
     1
290
     0
176
     1
290
     0
176
     1
290
     0
176
     1
 90
       50
176
     1
 40
0.0
176
     1
 40
1.0
176
     1
 90
        0
176
     1
 62
    18
420
        0
176
     1
 90
       50
176
     1
 90
        3
176
     1
 62
     5
420
      255
176
     1
290
     0
176
     1
 90
       50
176
     1
 90
       50
176
     1
 90
       50
176
     1
290
     0
176
     1
 90
       50
176
     1
 62
   256
176
     0
 40
1.0
176
     0
 90
        2
176
     1
  1
strokes_ogs.tif
176
     1
290
     0
176
     1
 40
1.0
176
     1
 40
1.0
176
     1
  0
VISUALSTYLE
  5
35
102
{ACAD_REACTORS
330
29
102
}
330
29
100
AcDbVisualStyle
  2
Brighten
 70
    12
177
     3
291
     1
 70
    58
 90
        2
176
     1
 90
        2
176
     1
 90
        0
176
     1
 90
        0
176
     1
 40
0.6
176
     1
 40
30.0
176
     1
 62
     7
420
 16777215
176
     1
 90
        1
176
     1
 90
        4
176
     1
 62
     7
176
     1
 62
   257
176
     1
 90
        1
176
     1
 90
        1
176
     1
 40
1.0
176
     1
 90
        8
176
     1
 62
     7
176
     1
 40
1.0
176
     1
 90
        1
176
     1
 90
        6
176
     1
 90
        2
176
     1
 62
     7
176
     1
 90
        5
176
     1
 90
        0
176
     1
 90
        0
176
     1
290
     0
176
     1
 90
        1
176
     1
 40
50.0
176
     1
 90
        0
176
     1
290
     0
176
     1
290
     1
176
     1
290
     1
176
     1
290
     0
176
     1
290
     0
176
     1
290
     0
176
     1
290
     0
176
     1
290
     0
176
     1
290
     0
176
     1
 90
       50
176
     1
 40
0.0
176
     1
 40
1.0
176
     1
 90
        0
176
     1
 62
    18
420
        0
176
     1
 90
       50
176
     1
 90
        3
176
     1
 62
     5
420
      255
176
     1
290
     0
176
     1
 90
       50
176
     1
 90
       50
176
     1
 90
       50
176
     1
290
     0
176
     1
 90
       50
176
     1
 62
   256
176
     0
 40
1.0
176
     0
 90
        2
176
     1
  1
strokes_ogs.tif
176
     1
290
     0
176
     1
 40
1.0
176
     1
 40
1.0
176
     1
  0
VISUALSTYLE
  5
39
102
{ACAD_REACTORS
330
29
102
}
330
29
100
AcDbVisualStyle
  2
ColorChange
 70
    16
177
     3
291
     1
 70
    58
 90
        2
176
     1
 90
        2
176
     1
 90
        3
176
     1
 90
        0
176
     1
 40
0.6
176
     1
 40
30.0
176
     1
 62
     8
420
  8421504
176
     1
 90
        1
176
     1
 90
        4
176
     1
 62
     7
176
     1
 62
   257
176
     1
 90
        1
176
     1
 90
        1
176
     1
 40
1.0
176
     1
 90
        8
176
     1
 62
     8
420
  8421504
176
     1
 40
1.0
176
     1
 90
        1
176
     1
 90
        6
176
     1
 90
        2
176
     1
 62
     7
176
     1
 90
        5
176
     1
 90
        0
176
     1
 90
        0
176
     1
290
     0
176
     1
 90
        1
176
     1
 40
0.0
176
     1
 90
        0
176
     1
290
     0
176
     1
290
     1
176
     1
290
     1
176
     1
290
     0
176
     1
290
     0
176
     1
290
     0
176
     1
290
     0
176
     1
290
     0
176
     1
290
     0
176
     1
 90
       50
176
     1
 40
0.0
176
     1
 40
1.0
176
     1
 90
        0
176
     1
 62
    18
420
        0
176
     1
 90
       50
176
     1
 90
        3
176
     1
 62
     5
420
      255
176
     1
290
     0
176
     1
 90
       50
176
     1
 90
       50
176
     1
 90
       50
176
     1
290
     0
176
     1
 90
       50
176
     1
 62
   256
176
     0
 40
1.0
176
     0
 90
        2
176
     1
  1
strokes_ogs.tif
176
     1
290
     0
176
     1
 40
1.0
176
     1
 40
1.0
176
     1
  0
VISUALSTYLE
  5
32
102
{ACAD_REACTORS
330
29
102
}
330
29
100
AcDbVisualStyle
  2
Conceptual
 70
     9
177
     3
291
     0
 70
    58
 90
        3
176
     1
 90
        2
176
     1
 90
        0
176
     1
 90
        0
176
     1
 40
0.6
176
     1
 40
30.0
176
     1
 62
     7
420
 16777215
176
     1
 90
        2
176
     1
 90
        2
176
     1
 62
     7
176
     1
 62
   257
176
     1
 90
        1
176
     1
 90
        1
176
     1
 40
179.0
176
     1
 90
        8
176
     1
 62
     7
176
     1
 40
1.0
176
     1
 90
        1
176
     1
 90
        6
176
     1
 90
        2
176
     1
 62
     7
176
     1
 90
        3
176
     1
 90
        0
176
     1
 90
        0
176
     1
290
     0
176
     1
 90
        1
176
     1
 40
0.0
176
     1
 90
        0
176
     1
290
     0
176
     1
290
     1
176
     1
290
     1
176
     1
290
     0
176
     1
290
     0
176
     1
290
     0
176
     1
290
     0
176
     1
290
     0
176
     1
290
     0
176
     1
 90
       50
176
     1
 40
0.0
176
     1
 40
1.0
176
     1
 90
        0
176
     1
 62
    18
420
        0
176
     1
 90
       50
176
     1
 90
        3
176
     1
 62
     5
420
      255
176
     1
290
     0
176
     1
 90
       50
176
     1
 90
       50
176
     1
 90
       50
176
     1
290
     0
176
     1
 90
       50
176
     1
 62
   256
176
     0
 40
1.0
176
     0
 90
        2
176
     1
  1
strokes_ogs.tif
176
     1
290
     0
176
     1
 40
1.0
176
     1
 40
1.0
176
     1
  0
VISUALSTYLE
  5
34
102
{ACAD_REACTORS
330
29
102
}
330
29
100
AcDbVisualStyle
  2
Dim
 70
    11
177
     3
291
     1
 70
    58
 90
        2
176
     1
 90
        2
176
     1
 90
        0
176
     1
 90
        0
176
     1
 40
0.6
176
     1
 40
30.0
176
     1
 62
     7
420
 16777215
176
     1
 90
        1
176
     1
 90
        4
176
     1
 62
     7
176
     1
 62
   257
176
     1
 90
        1
176
     1
 90
        1
176
     1
 40
1.0
176
     1
 90
        8
176
     1
 62
     7
176
     1
 40
1.0
176
     1
 90
        1
176
     1
 90
        6
176
     1
 90
        2
176
     1
 62
     7
176
     1
 90
        5
176
     1
 90
        0
176
     1
 90
        0
176
     1
290
     0
176
     1
 90
        1
176
     1
 40
-50.0
176
     1
 90
        0
176
     1
290
     0
176
     1
290
     1
176
     1
290
     1
176
     1
290
     0
176
     1
290
     0
176
     1
290
     0
176
     1
290
     0
176
     1
290
     0
176
     1
290
     0
176
     1
 90
       50
176
     1
 40
0.0
176
     1
 40
1.0
176
     1
 90
        0
176
     1
 62
    18
420
        0
176
     1
 90
       50
176
     1
 90
        3
176
     1
 62
     5
420
      255
176
     1
290
     0
176
     1
 90
       50
176
     1
 90
       50
176
     1
 90
       50
176
     1
290
     0
176
     1
 90
       50
176
     1
 62
   256
176
     0
 40
1.0
176
     0
 90
        2
176
     1
  1
strokes_ogs.tif
176
     1
290
     0
176
     1
 40
1.0
176
     1
 40
1.0
176
     1
  0
VISUALSTYLE
  5
41
102
{ACAD_REACTORS
330
29
102
}
330
29
100
AcDbVisualStyle
  2
EdgeColorOff
 70
    22
177
     3
291
     1
 70
    58
 90
        2
176
     0
 90
        2
176
     0
 90
        0
176
     0
 90
        0
176
     0
 40
0.6
176
     0
 40
30.0
176
     0
 62
     7
420
 16777215
176
     0
 90
        1
176
     0
 90
        4
176
     0
 62
     7
176
     0
 62
   257
176
     0
 90
        1
176
     0
 90
        1
176
     0
 40
1.0
176
     0
 90
        8
176
     2
 62
     7
176
     0
 40
1.0
176
     0
 90
        1
176
     0
 90
        6
176
     0
 90
        2
176
     0
 62
     7
176
     0
 90
        5
176
     0
 90
        0
176
     0
 90
        0
176
     0
290
     0
176
     0
 90
        1
176
     0
 40
0.0
176
     0
 90
        0
176
     0
290
     0
176
     0
290
     1
176
     0
290
     1
176
     0
290
     0
176
     0
290
     0
176
     0
290
     0
176
     0
290
     0
176
     0
290
     0
176
     0
290
     0
176
     0
 90
       50
176
     0
 40
0.0
176
     0
 40
1.0
176
     0
 90
        0
176
     0
 62
    18
420
        0
176
     0
 90
       50
176
     0
 90
        3
176
     0
 62
     5
420
      255
176
     0
290
     0
176
     0
 90
       50
176
     0
 90
       50
176
     0
 90
       50
176
     0
290
     0
176
     0
 90
       50
176
     0
 62
   256
176
     0
 40
1.0
176
     0
 90
        2
176
     0
  1
strokes_ogs.tif
176
     0
290
     0
176
     0
 40
1.0
176
     0
 40
1.0
176
     0
  0
VISUALSTYLE
  5
38
102
{ACAD_REACTORS
330
29
102
}
330
29
100
AcDbVisualStyle
  2
Facepattern
 70
    15
177
     3
291
     1
 70
    58
 90
        2
176
     1
 90
        2
176
     1
 90
        0
176
     1
 90
        0
176
     1
 40
0.6
176
     1
 40
30.0
176
     1
 62
     7
420
 16777215
176
     1
 90
        1
176
     1
 90
        4
176
     1
 62
     7
176
     1
 62
   257
176
     1
 90
        1
176
     1
 90
        1
176
     1
 40
1.0
176
     1
 90
        8
176
     1
 62
     7
176
     1
 40
1.0
176
     1
 90
        1
176
     1
 90
        6
176
     1
 90
        2
176
     1
 62
     7
176
     1
 90
        5
176
     1
 90
        0
176
     1
 90
        0
176
     1
290
     0
176
     1
 90
        1
176
     1
 40
0.0
176
     1
 90
        0
176
     1
290
     0
176
     1
290
     1
176
     1
290
     1
176
     1
290
     0
176
     1
290
     0
176
     1
290
     0
176
     1
290
     0
176
     1
290
     0
176
     1
290
     0
176
     1
 90
       50
176
     1
 40
0.0
176
     1
 40
1.0
176
     1
 90
        0
176
     1
 62
    18
420
        0
176
     1
 90
       50
176
     1
 90
        3
176
     1
 62
     5
420
      255
176
     1
290
     0
176
     1
 90
       50
176
     1
 90
       50
176
     1
 90
       50
176
     1
290
     0
176
     1
 90
       50
176
     1
 62
   256
176
     0
 40
1.0
176
     0
 90
        2
176
     1
  1
strokes_ogs.tif
176
     1
290
     0
176
     1
 40
1.0
176
     1
 40
1.0
176
     1
  0
VISUALSTYLE
  5
2A
102
{ACAD_REACTORS
330
29
102
}
330
29
100
AcDbVisualStyle
  2
Flat
 70
     0
177
     3
291
     1
 70
    58
 90
        2
176
     1
 90
        1
176
     1
 90
        1
176
     1
 90
        2
176
     1
 40
0.6
176
     1
 40
30.0
176
     1
 62
     7
420
 16777215
176
     1
 90
        0
176
     1
 90
        0
176
     1
 62
     7
176
     1
 62
   257
176
     1
 90
        1
176
     1
 90
        1
176
     1
 40
1.0
176
     1
 90
        8
176
     1
 62
     7
176
     1
 40
1.0
176
     1
 90
        1
176
     1
 90
        6
176
     1
 90
        2
176
     1
 62
     7
176
     1
 90
        5
176
     1
 90
        0
176
     1
 90
        0
176
     1
290
     0
176
     1
 90
       13
176
     1
 40
0.0
176
     1
 90
        0
176
     1
290
     0
176
     1
290
     1
176
     1
290
     1
176
     1
290
     0
176
     1
290
     0
176
     1
290
     0
176
     1
290
     0
176
     1
290
     0
176
     1
290
     0
176
     1
 90
       50
176
     1
 40
0.0
176
     1
 40
1.0
176
     1
 90
        0
176
     1
 62
    18
420
        0
176
     1
 90
       50
176
     1
 90
        3
176
     1
 62
     5
420
      255
176
     1
290
     0
176
     1
 90
       50
176
     1
 90
       50
176
     1
 90
       50
176
     1
290
     0
176
     1
 90
       50
176
     1
 62
   256
176
     0
 40
1.0
176
     0
 90
        2
176
     1
  1
strokes_ogs.tif
176
     1
290
     0
176
     1
 40
1.0
176
     1
 40
1.0
176
     1
  0
VISUALSTYLE
  5
2B
102
{ACAD_REACTORS
330
29
102
}
330
29
100
AcDbVisualStyle
  2
FlatWithEdges
 70
     1
177
     3
291
     1
 70
    58
 90
        2
176
     1
 90
        1
176
     1
 90
        1
176
     1
 90
        2
176
     1
 40
0.6
176
     1
 40
30.0
176
     1
 62
     7
420
 16777215
176
     1
 90
        1
176
     1
 90
        0
176
     1
 62
     7
176
     1
 62
   257
176
     1
 90
        1
176
     1
 90
        1
176
     1
 40
1.0
176
     1
 90
        0
176
     1
 62
   257
176
     1
 40
1.0
176
     1
 90
        1
176
     1
 90
        6
176
     1
 90
        2
176
     1
 62
     7
176
     1
 90
        5
176
     1
 90
        0
176
     1
 90
        0
176
     1
290
     0
176
     1
 90
       13
176
     1
 40
0.0
176
     1
 90
        0
176
     1
290
     0
176
     1
290
     1
176
     1
290
     1
176
     1
290
     0
176
     1
290
     0
176
     1
290
     0
176
     1
290
     0
176
     1
290
     0
176
     1
290
     0
176
     1
 90
       50
176
     1
 40
0.0
176
     1
 40
1.0
176
     1
 90
        0
176
     1
 62
    18
420
        0
176
     1
 90
       50
176
     1
 90
        3
176
     1
 62
     5
420
      255
176
     1
290
     0
176
     1
 90
       50
176
     1
 90
       50
176
     1
 90
       50
176
     1
290
     0
176
     1
 90
       50
176
     1
 62
   256
176
     0
 40
1.0
176
     0
 90
        2
176
     1
  1
strokes_ogs.tif
176
     1
290
     0
176
     1
 40
1.0
176
     1
 40
1.0
176
     1
  0
VISUALSTYLE
  5
2C
102
{ACAD_REACTORS
330
29
102
}
330
29
100
AcDbVisualStyle
  2
Gouraud
 70
     2
177
     3
291
     1
 70
    58
 90
        2
176
     1
 90
        2
176
     1
 90
        1
176
     1
 90
        2
176
     1
 40
0.6
176
     1
 40
30.0
176
     1
 62
     7
420
 16777215
176
     1
 90
        0
176
     1
 90
        0
176
     1
 62
     7
176
     1
 62
   257
176
     1
 90
        1
176
     1
 90
        1
176
     1
 40
1.0
176
     1
 90
        0
176
     1
 62
     7
176
     1
 40
1.0
176
     1
 90
        1
176
     1
 90
        6
176
     1
 90
        2
176
     1
 62
     7
176
     1
 90
        5
176
     1
 90
        0
176
     1
 90
        0
176
     1
290
     0
176
     1
 90
       13
176
     1
 40
0.0
176
     1
 90
        0
176
     1
290
     0
176
     1
290
     1
176
     1
290
     1
176
     1
290
     0
176
     1
290
     0
176
     1
290
     0
176
     1
290
     0
176
     1
290
     0
176
     1
290
     0
176
     1
 90
       50
176
     1
 40
0.0
176
     1
 40
1.0
176
     1
 90
        0
176
     1
 62
    18
420
        0
176
     1
 90
       50
176
     1
 90
        3
176
     1
 62
     5
420
      255
176
     1
290
     0
176
     1
 90
       50
176
     1
 90
       50
176
     1
 90
       50
176
     1
290
     0
176
     1
 90
       50
176
     1
 62
   256
176
     0
 40
1.0
176
     0
 90
        2
176
     1
  1
strokes_ogs.tif
176
     1
290
     0
176
     1
 40
1.0
176
     1
 40
1.0
176
     1
  0
VISUALSTYLE
  5
2D
102
{ACAD_REACTORS
330
29
102
}
330
29
100
AcDbVisualStyle
  2
GouraudWithEdges
 70
     3
177
     3
291
     1
 70
    58
 90
        2
176
     1
 90
        2
176
     1
 90
        1
176
     1
 90
        2
176
     1
 40
0.6
176
     1
 40
30.0
176
     1
 62
     7
420
 16777215
176
     1
 90
        1
176
     1
 90
        0
176
     1
 62
     7
176
     1
 62
   257
176
     1
 90
        1
176
     1
 90
        1
176
     1
 40
1.0
176
     1
 90
        0
176
     1
 62
   257
176
     1
 40
1.0
176
     1
 90
        1
176
     1
 90
        6
176
     1
 90
        2
176
     1
 62
     7
176
     1
 90
        5
176
     1
 90
        0
176
     1
 90
        0
176
     1
290
     0
176
     1
 90
       13
176
     1
 40
0.0
176
     1
 90
        0
176
     1
290
     0
176
     1
290
     1
176
     1
290
     1
176
     1
290
     0
176
     1
290
     0
176
     1
290
     0
176
     1
290
     0
176
     1
290
     0
176
     1
290
     0
176
     1
 90
       50
176
     1
 40
0.0
176
     1
 40
1.0
176
     1
 90
        0
176
     1
 62
    18
420
        0
176
     1
 90
       50
176
     1
 90
        3
176
     1
 62
     5
420
      255
176
     1
290
     0
176
     1
 90
       50
176
     1
 90
       50
176
     1
 90
       50
176
     1
290
     0
176
     1
 90
       50
176
     1
 62
   256
176
     0
 40
1.0
176
     0
 90
        2
176
     1
  1
strokes_ogs.tif
176
     1
290
     0
176
     1
 40
1.0
176
     1
 40
1.0
176
     1
  0
VISUALSTYLE
  5
31
102
{ACAD_REACTORS
330
29
102
}
330
29
100
AcDbVisualStyle
  2
Hidden
 70
     6
177
     3
291
     0
 70
    58
 90
        1
176
     1
 90
        2
176
     1
 90
        2
176
     1
 90
        0
176
     1
 40
0.6
176
     1
 40
30.0
176
     1
 62
     7
420
 16777215
176
     1
 90
        2
176
     1
 90
        2
176
     1
 62
     7
176
     1
 62
   257
176
     1
 90
        2
176
     1
 90
        1
176
     1
 40
40.0
176
     1
 90
        0
176
     1
 62
   257
176
     1
 40
1.0
176
     1
 90
        1
176
     1
 90
        6
176
     1
 90
        2
176
     1
 62
     7
176
     1
 90
        3
176
     1
 90
        0
176
     1
 90
        0
176
     1
290
     0
176
     1
 90
        1
176
     1
 40
0.0
176
     1
 90
        0
176
     1
290
     0
176
     1
290
     1
176
     1
290
     1
176
     1
290
     0
176
     1
290
     0
176
     1
290
     0
176
     1
290
     0
176
     1
290
     0
176
     1
290
     0
176
     1
 90
       50
176
     1
 40
0.0
176
     1
 40
1.0
176
     1
 90
        0
176
     1
 62
    18
420
        0
176
     1
 90
       50
176
     1
 90
        3
176
     1
 62
     5
420
      255
176
     1
290
     0
176
     1
 90
       50
176
     1
 90
       50
176
     1
 90
       50
176
     1
290
     0
176
     1
 90
       50
176
     1
 62
   256
176
     0
 40
1.0
176
     0
 90
        2
176
     1
  1
strokes_ogs.tif
176
     1
290
     0
176
     1
 40
1.0
176
     1
 40
1.0
176
     1
  0
VISUALSTYLE
  5
3F
102
{ACAD_REACTORS
330
29
102
}
330
29
100
AcDbVisualStyle
  2
JitterOff
 70
    20
177
     3
291
     1
 70
    58
 90
        2
176
     0
 90
        2
176
     0
 90
        0
176
     0
 90
        0
176
     0
 40
0.6
176
     0
 40
30.0
176
     0
 62
     7
420
 16777215
176
     0
 90
        1
176
     0
 90
        4
176
     0
 62
     7
176
     0
 62
   257
176
     0
 90
        1
176
     0
 90
        1
176
     0
 40
1.0
176
     0
 90
       10
176
     2
 62
     7
176
     0
 40
1.0
176
     0
 90
        1
176
     0
 90
        6
176
     0
 90
        2
176
     0
 62
     7
176
     0
 90
        5
176
     0
 90
        0
176
     0
 90
        0
176
     0
290
     0
176
     0
 90
        1
176
     0
 40
0.0
176
     0
 90
        0
176
     0
290
     0
176
     0
290
     1
176
     0
290
     1
176
     0
290
     0
176
     0
290
     0
176
     0
290
     0
176
     0
290
     0
176
     0
290
     0
176
     0
290
     0
176
     0
 90
       50
176
     0
 40
0.0
176
     0
 40
1.0
176
     0
 90
        0
176
     0
 62
    18
420
        0
176
     0
 90
       50
176
     0
 90
        3
176
     0
 62
     5
420
      255
176
     0
290
     0
176
     0
 90
       50
176
     0
 90
       50
176
     0
 90
       50
176
     0
290
     0
176
     0
 90
       50
176
     0
 62
   256
176
     0
 40
1.0
176
     0
 90
        2
176
     0
  1
strokes_ogs.tif
176
     0
290
     0
176
     0
 40
1.0
176
     0
 40
1.0
176
     0
  0
VISUALSTYLE
  5
37
102
{ACAD_REACTORS
330
29
102
}
330
29
100
AcDbVisualStyle
  2
Linepattern
 70
    14
177
     3
291
     1
 70
    58
 90
        2
176
     1
 90
        2
176
     1
 90
        0
176
     1
 90
        0
176
     1
 40
0.6
176
     1
 40
30.0
176
     1
 62
     7
420
 16777215
176
     1
 90
        1
176
     1
 90
        4
176
     1
 62
     7
176
     1
 62
   257
176
     1
 90
        7
176
     1
 90
        7
176
     1
 40
1.0
176
     1
 90
        8
176
     1
 62
     7
176
     1
 40
1.0
176
     1
 90
        1
176
     1
 90
        6
176
     1
 90
        2
176
     1
 62
     7
176
     1
 90
        5
176
     1
 90
        0
176
     1
 90
        0
176
     1
290
     0
176
     1
 90
        1
176
     1
 40
0.0
176
     1
 90
        0
176
     1
290
     0
176
     1
290
     1
176
     1
290
     1
176
     1
290
     0
176
     1
290
     0
176
     1
290
     0
176
     1
290
     0
176
     1
290
     0
176
     1
290
     0
176
     1
 90
       50
176
     1
 40
0.0
176
     1
 40
1.0
176
     1
 90
        0
176
     1
 62
    18
420
        0
176
     1
 90
       50
176
     1
 90
        3
176
     1
 62
     5
420
      255
176
     1
290
     0
176
     1
 90
       50
176
     1
 90
       50
176
     1
 90
       50
176
     1
290
     0
176
     1
 90
       50
176
     1
 62
   256
176
     0
 40
1.0
176
     0
 90
        2
176
     1
  1
strokes_ogs.tif
176
     1
290
     0
176
     1
 40
1.0
176
     1
 40
1.0
176
     1
  0
VISUALSTYLE
  5
40
102
{ACAD_REACTORS
330
29
102
}
330
29
100
AcDbVisualStyle
  2
OverhangOff
 70
    21
177
     3
291
     1
 70
    58
 90
        2
176
     0
 90
        2
176
     0
 90
        0
176
     0
 90
        0
176
     0
 40
0.6
176
     0
 40
30.0
176
     0
 62
     7
420
 16777215
176
     0
 90
        1
176
     0
 90
        4
176
     0
 62
     7
176
     0
 62
   257
176
     0
 90
        1
176
     0
 90
        1
176
     0
 40
1.0
176
     0
 90
        9
176
     2
 62
     7
176
     0
 40
1.0
176
     0
 90
        1
176
     0
 90
        6
176
     0
 90
        2
176
     0
 62
     7
176
     0
 90
        5
176
     0
 90
        0
176
     0
 90
        0
176
     0
290
     0
176
     0
 90
        1
176
     0
 40
0.0
176
     0
 90
        0
176
     0
290
     0
176
     0
290
     1
176
     0
290
     1
176
     0
290
     0
176
     0
290
     0
176
     0
290
     0
176
     0
290
     0
176
     0
290
     0
176
     0
290
     0
176
     0
 90
       50
176
     0
 40
0.0
176
     0
 40
1.0
176
     0
 90
        0
176
     0
 62
    18
420
        0
176
     0
 90
       50
176
     0
 90
        3
176
     0
 62
     5
420
      255
176
     0
290
     0
176
     0
 90
       50
176
     0
 90
       50
176
     0
 90
       50
176
     0
290
     0
176
     0
 90
       50
176
     0
 62
   256
176
     0
 40
1.0
176
     0
 90
        2
176
     0
  1
strokes_ogs.tif
176
     0
290
     0
176
     0
 40
1.0
176
     0
 40
1.0
176
     0
  0
VISUALSTYLE
  5
33
102
{ACAD_REACTORS
330
29
102
}
330
29
100
AcDbVisualStyle
  2
Realistic
 70
     8
177
     3
291
     0
 70
    58
 90
        2
176
     1
 90
        3
176
     1
 90
        0
176
     1
 90
        2
176
     1
 40
0.6
176
     1
 40
30.0
176
     1
 62
     7
420
 16777215
176
     1
 90
        0
176
     1
 90
        0
176
     1
 62
     7
176
     1
 62
   257
176
     1
 90
        1
176
     1
 90
        1
176
     1
 40
1.0
176
     1
 90
        8
176
     1
 62
   257
176
     1
 40
1.0
176
     1
 90
        1
176
     1
 90
        6
176
     1
 90
        2
176
     1
 62
     7
176
     1
 90
        3
176
     1
 90
        0
176
     1
 90
        0
176
     1
290
     0
176
     1
 90
       13
176
     1
 40
0.0
176
     1
 90
        0
176
     1
290
     0
176
     1
290
     1
176
     1
290
     1
176
     1
290
     0
176
     1
290
     0
176
     1
290
     0
176
     1
290
     0
176
     1
290
     0
176
     1
290
     0
176
     1
 90
       50
176
     1
 40
0.0
176
     1
 40
1.0
176
     1
 90
        0
176
     1
 62
    18
420
        0
176
     1
 90
       50
176
     1
 90
        3
176
     1
 62
     5
420
      255
176
     1
290
     0
176
     1
 90
       50
176
     1
 90
       50
176
     1
 90
       50
176
     1
290
     0
176
     1
 90
       50
176
     1
 62
   256
176
     0
 40
1.0
176
     0
 90
        2
176
     1
  1
strokes_ogs.tif
176
     1
290
     0
176
     1
 40
1.0
176
     1
 40
1.0
176
     1
  0
VISUALSTYLE
  5
3E
102
{ACAD_REACTORS
330
29
102
}
330
29
100
AcDbVisualStyle
  2
Shaded
 70
    27
177
     3
291
     0
 70
    58
 90
        2
176
     1
 90
        2
176
     1
 90
        1
176
     1
 90
        2
176
     1
 40
0.6
176
     1
 40
30.0
176
     1
 62
     7
420
 16777215
176
     1
 90
        0
176
     1
 90
        4
176
     1
 62
     7
176
     1
 62
   257
176
     1
 90
        1
176
     1
 90
        1
176
     1
 40
1.0
176
     1
 90
        8
176
     1
 62
   257
176
     1
 40
1.0
176
     1
 90
        1
176
     1
 90
        6
176
     1
 90
        2
176
     1
 62
     8
420
  7895160
176
     1
 90
        3
176
     1
 90
        0
176
     1
 90
        0
176
     1
290
     0
176
     1
 90
        5
176
     1
 40
0.0
176
     1
 90
        0
176
     1
290
     0
176
     1
290
     1
176
     1
290
     1
176
     1
290
     0
176
     1
290
     0
176
     1
290
     0
176
     1
290
     0
176
     1
290
     0
176
     1
290
     0
176
     1
 90
       50
176
     1
 40
0.0
176
     1
 40
1.0
176
     1
 90
        0
176
     1
 62
    18
420
        0
176
     1
 90
       50
176
     1
 90
        3
176
     1
 62
     5
420
      255
176
     1
290
     0
176
     1
 90
       50
176
     1
 90
       50
176
     1
 90
       50
176
     1
290
     0
176
     1
 90
       50
176
     1
 62
   256
176
     0
 40
1.0
176
     0
 90
        2
176
     1
  1
strokes_ogs.tif
176
     1
290
     0
176
     1
 40
1.0
176
     1
 40
1.0
176
     1
  0
VISUALSTYLE
  5
3D
102
{ACAD_REACTORS
330
29
102
}
330
29
100
AcDbVisualStyle
  2
Shaded with edges
 70
    26
177
     3
291
     0
 70
    58
 90
        2
176
     1
 90
        2
176
     1
 90
        1
176
     1
 90
        2
176
     1
 40
0.6
176
     1
 40
30.0
176
     1
 62
     7
420
 16777215
176
     1
 90
        1
176
     1
 90
       10
176
     1
 62
     7
176
     1
 62
   257
176
     1
 90
        2
176
     1
 90
        1
176
     1
 40
1.0
176
     1
 90
        8
176
     1
 62
   257
176
     1
 40
1.0
176
     1
 90
        1
176
     1
 90
        6
176
     1
 90
        2
176
     1
 62
     7
176
     1
 90
        3
176
     1
 90
        0
176
     1
 90
        0
176
     1
290
     0
176
     1
 90
        5
176
     1
 40
0.0
176
     1
 90
        0
176
     1
290
     0
176
     1
290
     1
176
     1
290
     1
176
     1
290
     0
176
     1
290
     0
176
     1
290
     0
176
     1
290
     0
176
     1
290
     0
176
     1
290
     0
176
     1
 90
       50
176
     1
 40
0.0
176
     1
 40
1.0
176
     1
 90
        0
176
     1
 62
    18
420
        0
176
     1
 90
       50
176
     1
 90
        3
176
     1
 62
     5
420
      255
176
     1
290
     0
176
     1
 90
       50
176
     1
 90
       50
176
     1
 90
       50
176
     1
290
     0
176
     1
 90
       50
176
     1
 62
   256
176
     0
 40
1.0
176
     0
 90
        2
176
     1
  1
strokes_ogs.tif
176
     1
290
     0
176
     1
 40
1.0
176
     1
 40
1.0
176
     1
  0
VISUALSTYLE
  5
3A
102
{ACAD_REACTORS
330
29
102
}
330
29
100
AcDbVisualStyle
  2
Shades of Gray
 70
    23
177
     3
291
     0
 70
    58
 90
        2
176
     1
 90
        2
176
     1
 90
        3
176
     1
 90
        0
176
     1
 40
0.6
176
     1
 40
30.0
176
     1
 62
     7
420
 16777215
176
     1
 90
        2
176
     1
 90
        2
176
     1
 62
     7
176
     1
 62
     7
176
     1
 90
        1
176
     1
 90
        1
176
     1
 40
40.0
176
     1
 90
        8
176
     1
 62
     7
176
     1
 40
1.0
176
     1
 90
        1
176
     1
 90
        6
176
     1
 90
        2
176
     1
 62
     7
176
     1
 90
        3
176
     1
 90
        0
176
     1
 90
        0
176
     1
290
     0
176
     1
 90
        1
176
     1
 40
0.0
176
     1
 90
        0
176
     1
290
     0
176
     1
290
     1
176
     1
290
     1
176
     1
290
     0
176
     1
290
     0
176
     1
290
     0
176
     1
290
     0
176
     1
290
     0
176
     1
290
     0
176
     1
 90
       50
176
     1
 40
0.0
176
     1
 40
1.0
176
     1
 90
        0
176
     1
 62
    18
420
        0
176
     1
 90
       50
176
     1
 90
        3
176
     1
 62
     5
420
      255
176
     1
290
     0
176
     1
 90
       50
176
     1
 90
       50
176
     1
 90
       50
176
     1
290
     0
176
     1
 90
       50
176
     1
 62
   256
176
     0
 40
1.0
176
     0
 90
        2
176
     1
  1
strokes_ogs.tif
176
     1
290
     0
176
     1
 40
1.0
176
     1
 40
1.0
176
     1
  0
VISUALSTYLE
  5
3B
102
{ACAD_REACTORS
330
29
102
}
330
29
100
AcDbVisualStyle
  2
Sketchy
 70
    24
177
     3
291
     0
 70
    58
 90
        1
176
     1
 90
        2
176
     1
 90
        2
176
     1
 90
        0
176
     1
 40
0.6
176
     1
 40
30.0
176
     1
 62
     7
420
 16777215
176
     1
 90
        2
176
     1
 90
        2
176
     1
 62
     7
176
     1
 62
     7
176
     1
 90
        1
176
     1
 90
        1
176
     1
 40
40.0
176
     1
 90
       11
176
     1
 62
     7
176
     1
 40
1.0
176
     1
 90
        1
176
     1
 90
        6
176
     1
 90
        2
176
     1
 62
     7
176
     1
 90
        6
176
     1
 90
        0
176
     1
 90
        0
176
     1
290
     0
176
     1
 90
        1
176
     1
 40
0.0
176
     1
 90
        0
176
     1
290
     0
176
     1
290
     1
176
     1
290
     1
176
     1
290
     0
176
     1
290
     0
176
     1
290
     0
176
     1
290
     0
176
     1
290
     0
176
     1
290
     0
176
     1
 90
       50
176
     1
 40
0.0
176
     1
 40
1.0
176
     1
 90
        0
176
     1
 62
    18
420
        0
176
     1
 90
       50
176
     1
 90
        3
176
     1
 62
     5
420
      255
176
     1
290
     0
176
     1
 90
       50
176
     1
 90
       50
176
     1
 90
       50
176
     1
290
     0
176
     1
 90
       50
176
     1
 62
   256
176
     0
 40
1.0
176
     0
 90
        2
176
     1
  1
strokes_ogs.tif
176
     1
290
     0
176
     1
 40
1.0
176
     1
 40
1.0
176
     1
  0
VISUALSTYLE
  5
36
102
{ACAD_REACTORS
330
29
102
}
330
29
100
AcDbVisualStyle
  2
Thicken
 70
    13
177
     3
291
     1
 70
    58
 90
        2
176
     1
 90
        2
176
     1
 90
        0
176
     1
 90
        0
176
     1
 40
0.6
176
     1
 40
30.0
176
     1
 62
     7
420
 16777215
176
     1
 90
        1
176
     1
 90
        4
176
     1
 62
     7
176
     1
 62
   257
176
     1
 90
        1
176
     1
 90
        1
176
     1
 40
1.0
176
     1
 90
       12
176
     1
 62
     7
176
     1
 40
1.0
176
     1
 90
        1
176
     1
 90
        6
176
     1
 90
        2
176
     1
 62
     7
176
     1
 90
        5
176
     1
 90
        0
176
     1
 90
        0
176
     1
290
     0
176
     1
 90
        1
176
     1
 40
0.0
176
     1
 90
        0
176
     1
290
     0
176
     1
290
     1
176
     1
290
     1
176
     1
290
     0
176
     1
290
     0
176
     1
290
     0
176
     1
290
     0
176
     1
290
     0
176
     1
290
     0
176
     1
 90
       50
176
     1
 40
0.0
176
     1
 40
1.0
176
     1
 90
        0
176
     1
 62
    18
420
        0
176
     1
 90
       50
176
     1
 90
        3
176
     1
 62
     5
420
      255
176
     1
290
     0
176
     1
 90
       50
176
     1
 90
       50
176
     1
 90
       50
176
     1
290
     0
176
     1
 90
       50
176
     1
 62
   256
176
     0
 40
1.0
176
     0
 90
        2
176
     1
  1
strokes_ogs.tif
176
     1
290
     0
176
     1
 40
1.0
176
     1
 40
1.0
176
     1
  0
VISUALSTYLE
  5
30
102
{ACAD_REACTORS
330
29
102
}
330
29
100
AcDbVisualStyle
  2
Wireframe
 70
     5
177
     3
291
     0
 70
    58
 90
        0
176
     1
 90
        2
176
     1
 90
        0
176
     1
 90
        0
176
     1
 40
0.6
176
     1
 40
30.0
176
     1
 62
     7
420
 16777215
176
     1
 90
        1
176
     1
 90
        4
176
     1
 62
     7
176
     1
 62
   257
176
     1
 90
        1
176
     1
 90
        1
176
     1
 40
1.0
176
     1
 90
        0
176
     1
 62
   257
176
     1
 40
1.0
176
     1
 90
        1
176
     1
 90
        6
176
     1
 90
        2
176
     1
 62
     7
176
     1
 90
        3
176
     1
 90
        0
176
     1
 90
        0
176
     1
290
     0
176
     1
 90
        1
176
     1
 40
0.0
176
     1
 90
        0
176
     1
290
     0
176
     1
290
     1
176
     1
290
     1
176
     1
290
     0
176
     1
290
     0
176
     1
290
     0
176
     1
290
     0
176
     1
290
     0
176
     1
290
     0
176
     1
 90
       50
176
     1
 40
0.0
176
     1
 40
1.0
176
     1
 90
        0
176
     1
 62
    18
420
        0
176
     1
 90
       50
176
     1
 90
        3
176
     1
 62
     5
420
      255
176
     1
290
     0
176
     1
 90
       50
176
     1
 90
       50
176
     1
 90
       50
176
     1
290
     0
176
     1
 90
       50
176
     1
 62
   256
176
     0
 40
1.0
176
     0
 90
        2
176
     1
  1
strokes_ogs.tif
176
     1
290
     0
176
     1
 40
1.0
176
     1
 40
1.0
176
     1
  0
VISUALSTYLE
  5
3C
102
{ACAD_REACTORS
330
29
102
}
330
29
100
AcDbVisualStyle
  2
X-Ray
 70
    25
177
     3
291
     0
 70
    58
 90
        2
176
     1
 90
        2
176
     1
 90
        1
176
     1
 90
        1
176
     1
 40
0.5
176
     1
 40
30.0
176
     1
 62
     7
420
 16777215
176
     1
 90
        1
176
     1
 90
        0
176
     1
 62
     7
176
     1
 62
   257
176
     1
 90
        1
176
     1
 90
        1
176
     1
 40
1.0
176
     1
 90
        8
176
     1
 62
     7
176
     1
 40
1.0
176
     1
 90
        1
176
     1
 90
        6
176
     1
 90
        2
176
     1
 62
     7
176
     1
 90
        3
176
     1
 90
        0
176
     1
 90
        0
176
     1
290
     0
176
     1
 90
       13
176
     1
 40
0.0
176
     1
 90
        0
176
     1
290
     0
176
     1
290
     1
176
     1
290
     1
176
     1
290
     0
176
     1
290
     0
176
     1
290
     0
176
     1
290
     0
176
     1
290
     0
176
     1
290
     0
176
     1
 90
       50
176
     1
 40
0.0
176
     1
 40
1.0
176
     1
 90
        0
176
     1
 62
    18
420
        0
176
     1
 90
       50
176
     1
 90
        3
176
     1
 62
     5
420
      255
176
     1
290
     0
176
     1
 90
       50
176
     1
 90
       50
176
     1
 90
       50
176
     1
290
     0
176
     1
 90
       50
176
     1
 62
   256
176
     0
 40
1.0
176
     0
 90
        2
176
     1
  1
strokes_ogs.tif
176
     1
290
     0
176
     1
 40
1.0
176
     1
 40
1.0
176
     1
  0
DICTIONARYVAR
  5
81
102
{ACAD_REACTORS
330
7C
102
}
330
7C
100
DictionaryVariables
280
     0
  1
1:1
  0
DICTIONARYVAR
  5
7E
102
{ACAD_REACTORS
330
7C
102
}
330
7C
100
DictionaryVariables
280
     0
  1
STANDARD
  0
DICTIONARYVAR
  5
7D
102
{ACAD_REACTORS
330
7C
102
}
330
7C
100
DictionaryVariables
280
     0
  1
STANDARD
  0
DICTIONARYVAR
  5
7F
102
{ACAD_REACTORS
330
7C
102
}
330
7C
100
DictionaryVariables
280
     0
  1
Imperial24
  0
DICTIONARYVAR
  5
80
102
{ACAD_REACTORS
330
7C
102
}
330
7C
100
DictionaryVariables
280
     0
  1
Imperial24
  0
XRECORD
  5
2C2
102
{ACAD_REACTORS
330
2BF
102
}
330
2BF
100
AcDbXrecord
280
     1
  1
BUILDING_ID
  1
Progetto per messa in tavola DXF, DWG
  1
FLOOR_ID
  1
694395
  0
XRECORD
  5
2C1
102
{ACAD_REACTORS
330
2BF
102
}
330
2BF
100
AcDbXrecord
280
     1
  1
-2001160
  1
Apparecchi idraulici
  0
XRECORD
  5
2C0
102
{ACAD_REACTORS
330
2BF
102
}
330
2BF
100
AcDbXrecord
280
     1
  1
859151
  1
Automatic flow rate regulator valve_Caleffi_121 DN15 : 1/2''
  0
DICTIONARY
  5
1A
330
19
100
AcDbDictionary
280
     1
281
     1
  3
BUMPTILE
360
1C
  3
DIFFUSETILE
360
1B
  3
OPACITYTILE
360
1F
  3
REFLECTIONTILE
360
1E
  3
REFRACTIONTILE
360
20
  3
SPECULARTILE
360
1D
  0
DICTIONARY
  5
12
330
11
100
AcDbDictionary
280
     1
281
     1
  3
BUMPTILE
360
14
  3
DIFFUSETILE
360
13
  3
OPACITYTILE
360
17
  3
REFLECTIONTILE
360
16
  3
REFRACTIONTILE
360
18
  3
SPECULARTILE
360
15
  0
DICTIONARY
  5
22
330
21
100
AcDbDictionary
280
     1
281
     1
  3
BUMPTILE
360
24
  3
DIFFUSETILE
360
23
  3
OPACITYTILE
360
27
  3
REFLECTIONTILE
360
26
  3
REFRACTIONTILE
360
28
  3
SPECULARTILE
360
25
  0
DICTIONARY
  5
2C5
330
65
100
AcDbDictionary
280
     1
281
     1
  3
ACAD_ROUNDTRIP_2008_TABLESTYLE_CELLSTYLEMAP
360
2C6
  0
XRECORD
  5
1C
102
{ACAD_REACTORS
330
1A
102
}
330
1A
100
AcDbXrecord
280
     1
270
     1
271
     1
  0
XRECORD
  5
1B
102
{ACAD_REACTORS
330
1A
102
}
330
1A
100
AcDbXrecord
280
     1
270
     1
271
     1
  0
XRECORD
  5
1F
102
{ACAD_REACTORS
330
1A
102
}
330
1A
100
AcDbXrecord
280
     1
270
     1
271
     1
  0
XRECORD
  5
1E
102
{ACAD_REACTORS
330
1A
102
}
330
1A
100
AcDbXrecord
280
     1
270
     1
271
     1
  0
XRECORD
  5
20
102
{ACAD_REACTORS
330
1A
102
}
330
1A
100
AcDbXrecord
280
     1
270
     1
271
     1
  0
XRECORD
  5
1D
102
{ACAD_REACTORS
330
1A
102
}
330
1A
100
AcDbXrecord
280
     1
270
     1
271
     1
  0
XRECORD
  5
14
102
{ACAD_REACTORS
330
12
102
}
330
12
100
AcDbXrecord
280
     1
270
     1
271
     1
  0
XRECORD
  5
13
102
{ACAD_REACTORS
330
12
102
}
330
12
100
AcDbXrecord
280
     1
270
     1
271
     1
  0
XRECORD
  5
17
102
{ACAD_REACTORS
330
12
102
}
330
12
100
AcDbXrecord
280
     1
270
     1
271
     1
  0
XRECORD
  5
16
102
{ACAD_REACTORS
330
12
102
}
330
12
100
AcDbXrecord
280
     1
270
     1
271
     1
  0
XRECORD
  5
18
102
{ACAD_REACTORS
330
12
102
}
330
12
100
AcDbXrecord
280
     1
270
     1
271
     1
  0
XRECORD
  5
15
102
{ACAD_REACTORS
330
12
102
}
330
12
100
AcDbXrecord
280
     1
270
     1
271
     1
  0
XRECORD
  5
24
102
{ACAD_REACTORS
330
22
102
}
330
22
100
AcDbXrecord
280
     1
270
     1
271
     1
  0
XRECORD
  5
23
102
{ACAD_REACTORS
330
22
102
}
330
22
100
AcDbXrecord
280
     1
270
     1
271
     1
  0
XRECORD
  5
27
102
{ACAD_REACTORS
330
22
102
}
330
22
100
AcDbXrecord
280
     1
270
     1
271
     1
  0
XRECORD
  5
26
102
{ACAD_REACTORS
330
22
102
}
330
22
100
AcDbXrecord
280
     1
270
     1
271
     1
  0
XRECORD
  5
28
102
{ACAD_REACTORS
330
22
102
}
330
22
100
AcDbXrecord
280
     1
270
     1
271
     1
  0
XRECORD
  5
25
102
{ACAD_REACTORS
330
22
102
}
330
22
100
AcDbXrecord
280
     1
270
     1
271
     1
  0
CELLSTYLEMAP
  5
2C6
102
{ACAD_REACTORS
330
2C5
102
}
330
2C5
100
AcDbCellStyleMap
 90
        3
300
CELLSTYLE
  1
TABLEFORMAT_BEGIN
 90
        5
170
     1
 91
        0
 92
    32768
 62
   257
 93
        1
300
CONTENTFORMAT
  1
CONTENTFORMAT_BEGIN
 90
        0
 91
        0
 92
      512
 93
        0
300

 40
0.0
140
1.0
 94
        5
 62
     0
340
55
144
0.25
309
CONTENTFORMAT_END
171
     0
 94
        0
309
TABLEFORMAT_END
  1
CELLSTYLE_BEGIN
 90
        1
 91
        1
300
_TITLE
309
CELLSTYLE_END
300
CELLSTYLE
  1
TABLEFORMAT_BEGIN
 90
        5
170
     1
 91
        0
 92
        0
 62
   257
 93
        1
300
CONTENTFORMAT
  1
CONTENTFORMAT_BEGIN
 90
        0
 91
        0
 92
      512
 93
        0
300

 40
0.0
140
1.0
 94
        5
 62
     0
340
55
144
0.18
309
CONTENTFORMAT_END
171
     0
 94
        0
309
TABLEFORMAT_END
  1
CELLSTYLE_BEGIN
 90
        2
 91
        1
300
_HEADER
309
CELLSTYLE_END
300
CELLSTYLE
  1
TABLEFORMAT_BEGIN
 90
        5
170
     1
 91
        0
 92
        0
 62
   257
 93
        1
300
CONTENTFORMAT
  1
CONTENTFORMAT_BEGIN
 90
        0
 91
        0
 92
      512
 93
        0
300

 40
0.0
140
1.0
 94
        2
 62
     0
340
55
144
0.18
309
CONTENTFORMAT_END
171
     0
 94
        0
309
TABLEFORMAT_END
  1
CELLSTYLE_BEGIN
 90
        3
 91
        2
300
_DATA
309
CELLSTYLE_END
  0
ENDSEC
  0
EOF
