  0
SECTION
  2
HEADER
  9
$ACADVER
  1
AC1027
  9
$ACADMAINTVER
 70
    20
  9
$DWGCODEPAGE
  3
ANSI_1252
  9
$REQUIREDVERSIONS
160
                 0
  9
$INSBASE
 10
0.0
 20
0.0
 30
0.0
  9
$EXTMIN
 10
707.1528004441971
 20
1611.745878720054
 30
-0.00000001
  9
$EXTMAX
 10
1184.114353943098
 20
2065.395481924749
 30
0.00000001
  9
$LIMMIN
 10
0.0
 20
0.0
  9
$LIMMAX
 10
12.0
 20
9.0
  9
$ORTHOMODE
 70
     0
  9
$REGENMODE
 70
     1
  9
$FILLMODE
 70
     1
  9
$QTEXTMODE
 70
     0
  9
$MIRRTEXT
 70
     0
  9
$LTSCALE
 40
1.0
  9
$ATTMODE
 70
     1
  9
$TEXTSIZE
 40
0.2
  9
$TRACEWID
 40
0.05
  9
$TEXTSTYLE
  7
Standard
  9
$CLAYER
  8
0
  9
$CELTYPE
  6
ByLayer
  9
$CECOLOR
 62
   256
  9
$CELTSCALE
 40
1.0
  9
$DISPSILH
 70
     0
  9
$DIMSCALE
 40
1.0
  9
$DIMASZ
 40
0.18
  9
$DIMEXO
 40
0.0625
  9
$DIMDLI
 40
0.38
  9
$DIMRND
 40
0.0
  9
$DIMDLE
 40
0.0
  9
$DIMEXE
 40
0.18
  9
$DIMTP
 40
0.0
  9
$DIMTM
 40
0.0
  9
$DIMTXT
 40
0.18
  9
$DIMCEN
 40
0.09
  9
$DIMTSZ
 40
0.0
  9
$DIMTOL
 70
     0
  9
$DIMLIM
 70
     0
  9
$DIMTIH
 70
     1
  9
$DIMTOH
 70
     1
  9
$DIMSE1
 70
     0
  9
$DIMSE2
 70
     0
  9
$DIMTAD
 70
     0
  9
$DIMZIN
 70
     0
  9
$DIMBLK
  1

  9
$DIMASO
 70
     1
  9
$DIMSHO
 70
     1
  9
$DIMPOST
  1

  9
$DIMAPOST
  1

  9
$DIMALT
 70
     0
  9
$DIMALTD
 70
     2
  9
$DIMALTF
 40
25.4
  9
$DIMLFAC
 40
1.0
  9
$DIMTOFL
 70
     0
  9
$DIMTVP
 40
0.0
  9
$DIMTIX
 70
     0
  9
$DIMSOXD
 70
     0
  9
$DIMSAH
 70
     0
  9
$DIMBLK1
  1

  9
$DIMBLK2
  1

  9
$DIMSTYLE
  2
Standard
  9
$DIMCLRD
 70
     0
  9
$DIMCLRE
 70
     0
  9
$DIMCLRT
 70
     0
  9
$DIMTFAC
 40
1.0
  9
$DIMGAP
 40
0.09
  9
$DIMJUST
 70
     0
  9
$DIMSD1
 70
     0
  9
$DIMSD2
 70
     0
  9
$DIMTOLJ
 70
     1
  9
$DIMTZIN
 70
     0
  9
$DIMALTZ
 70
     0
  9
$DIMALTTZ
 70
     0
  9
$DIMUPT
 70
     0
  9
$DIMDEC
 70
     4
  9
$DIMTDEC
 70
     4
  9
$DIMALTU
 70
     2
  9
$DIMALTTD
 70
     2
  9
$DIMTXSTY
  7
Standard
  9
$DIMAUNIT
 70
     0
  9
$DIMADEC
 70
     0
  9
$DIMALTRND
 40
0.0
  9
$DIMAZIN
 70
     0
  9
$DIMDSEP
 70
    46
  9
$DIMATFIT
 70
     3
  9
$DIMFRAC
 70
     0
  9
$DIMLDRBLK
  1

  9
$DIMLUNIT
 70
     2
  9
$DIMLWD
 70
    -2
  9
$DIMLWE
 70
    -2
  9
$DIMTMOVE
 70
     0
  9
$DIMFXL
 40
1.0
  9
$DIMFXLON
 70
     0
  9
$DIMJOGANG
 40
0.7853981633974483
  9
$DIMTFILL
 70
     0
  9
$DIMTFILLCLR
 70
     0
  9
$DIMARCSYM
 70
     0
  9
$DIMLTYPE
  6

  9
$DIMLTEX1
  6

  9
$DIMLTEX2
  6

  9
$DIMTXTDIRECTION
 70
     0
  9
$LUNITS
 70
     2
  9
$LUPREC
 70
     4
  9
$SKETCHINC
 40
0.1
  9
$FILLETRAD
 40
0.0
  9
$AUNITS
 70
     0
  9
$AUPREC
 70
     0
  9
$MENU
  1
.
  9
$ELEVATION
 40
0.0
  9
$PELEVATION
 40
0.0
  9
$THICKNESS
 40
0.0
  9
$LIMCHECK
 70
     0
  9
$CHAMFERA
 40
0.0
  9
$CHAMFERB
 40
0.0
  9
$CHAMFERC
 40
0.0
  9
$CHAMFERD
 40
0.0
  9
$SKPOLY
 70
     0
  9
$TDCREATE
 40
2457589.358167373
  9
$TDUCREATE
 40
2457589.274834039
  9
$TDUPDATE
 40
2457589.358167373
  9
$TDUUPDATE
 40
2457589.274834039
  9
$TDINDWG
 40
0.0000166667
  9
$TDUSRTIMER
 40
0.0000166667
  9
$USRTIMER
 70
     1
  9
$ANGBASE
 50
0.0
  9
$ANGDIR
 70
     0
  9
$PDMODE
 70
     0
  9
$PDSIZE
 40
0.0
  9
$PLINEWID
 40
0.0
  9
$SPLFRAME
 70
     0
  9
$SPLINETYPE
 70
     6
  9
$SPLINESEGS
 70
     8
  9
$HANDSEED
  5
3D5
  9
$SURFTAB1
 70
     6
  9
$SURFTAB2
 70
     6
  9
$SURFTYPE
 70
     6
  9
$SURFU
 70
     6
  9
$SURFV
 70
     6
  9
$UCSBASE
  2

  9
$UCSNAME
  2

  9
$UCSORG
 10
0.0
 20
0.0
 30
0.0
  9
$UCSXDIR
 10
1.0
 20
0.0
 30
0.0
  9
$UCSYDIR
 10
0.0
 20
1.0
 30
0.0
  9
$UCSORTHOREF
  2

  9
$UCSORTHOVIEW
 70
     0
  9
$UCSORGTOP
 10
0.0
 20
0.0
 30
0.0
  9
$UCSORGBOTTOM
 10
0.0
 20
0.0
 30
0.0
  9
$UCSORGLEFT
 10
0.0
 20
0.0
 30
0.0
  9
$UCSORGRIGHT
 10
0.0
 20
0.0
 30
0.0
  9
$UCSORGFRONT
 10
0.0
 20
0.0
 30
0.0
  9
$UCSORGBACK
 10
0.0
 20
0.0
 30
0.0
  9
$PUCSBASE
  2

  9
$PUCSNAME
  2

  9
$PUCSORG
 10
0.0
 20
0.0
 30
0.0
  9
$PUCSXDIR
 10
1.0
 20
0.0
 30
0.0
  9
$PUCSYDIR
 10
0.0
 20
1.0
 30
0.0
  9
$PUCSORTHOREF
  2

  9
$PUCSORTHOVIEW
 70
     0
  9
$PUCSORGTOP
 10
0.0
 20
0.0
 30
0.0
  9
$PUCSORGBOTTOM
 10
0.0
 20
0.0
 30
0.0
  9
$PUCSORGLEFT
 10
0.0
 20
0.0
 30
0.0
  9
$PUCSORGRIGHT
 10
0.0
 20
0.0
 30
0.0
  9
$PUCSORGFRONT
 10
0.0
 20
0.0
 30
0.0
  9
$PUCSORGBACK
 10
0.0
 20
0.0
 30
0.0
  9
$USERI1
 70
     0
  9
$USERI2
 70
     0
  9
$USERI3
 70
     0
  9
$USERI4
 70
     0
  9
$USERI5
 70
     0
  9
$USERR1
 40
0.0
  9
$USERR2
 40
0.0
  9
$USERR3
 40
0.0
  9
$USERR4
 40
0.0
  9
$USERR5
 40
0.0
  9
$WORLDVIEW
 70
     1
  9
$SHADEDGE
 70
     3
  9
$SHADEDIF
 70
    70
  9
$TILEMODE
 70
     1
  9
$MAXACTVP
 70
    64
  9
$PINSBASE
 10
0.0
 20
0.0
 30
0.0
  9
$PLIMCHECK
 70
     0
  9
$PEXTMIN
 10
1.000000000000000E+20
 20
1.000000000000000E+20
 30
1.000000000000000E+20
  9
$PEXTMAX
 10
-1.000000000000000E+20
 20
-1.000000000000000E+20
 30
-1.000000000000000E+20
  9
$PLIMMIN
 10
0.0
 20
0.0
  9
$PLIMMAX
 10
12.0
 20
9.0
  9
$UNITMODE
 70
     0
  9
$VISRETAIN
 70
     1
  9
$PLINEGEN
 70
     0
  9
$PSLTSCALE
 70
     1
  9
$TREEDEPTH
 70
  3020
  9
$CMLSTYLE
  2
Standard
  9
$CMLJUST
 70
     0
  9
$CMLSCALE
 40
1.0
  9
$PROXYGRAPHICS
 70
     1
  9
$MEASUREMENT
 70
     1
  9
$CELWEIGHT
370
    -1
  9
$ENDCAPS
280
     0
  9
$JOINSTYLE
280
     0
  9
$LWDISPLAY
290
     0
  9
$INSUNITS
 70
     4
  9
$HYPERLINKBASE
  1

  9
$STYLESHEET
  1

  9
$XEDIT
290
     1
  9
$CEPSNTYPE
380
     0
  9
$PSTYLEMODE
290
     1
  9
$FINGERPRINTGUID
  2
{E333A3E9-4409-4B50-8E66-930CBACF6EDA}
  9
$VERSIONGUID
  2
{15E42418-077E-43D3-B676-394E4B5C28C4}
  9
$EXTNAMES
290
     1
  9
$PSVPSCALE
 40
0.0
  9
$OLESTARTUP
290
     0
  9
$SORTENTS
280
   127
  9
$INDEXCTL
280
     0
  9
$HIDETEXT
280
     1
  9
$XCLIPFRAME
280
     2
  9
$HALOGAP
280
     0
  9
$OBSCOLOR
 70
   257
  9
$OBSLTYPE
280
     0
  9
$INTERSECTIONDISPLAY
280
     0
  9
$INTERSECTIONCOLOR
 70
   257
  9
$DIMASSOC
280
     2
  9
$PROJECTNAME
  1

  9
$CAMERADISPLAY
290
     0
  9
$LENSLENGTH
 40
50.0
  9
$CAMERAHEIGHT
 40
0.0
  9
$STEPSPERSEC
 40
2.0
  9
$STEPSIZE
 40
6.0
  9
$3DDWFPREC
 40
2.0
  9
$PSOLWIDTH
 40
0.25
  9
$PSOLHEIGHT
 40
4.0
  9
$LOFTANG1
 40
1.570796326794896
  9
$LOFTANG2
 40
1.570796326794896
  9
$LOFTMAG1
 40
0.0
  9
$LOFTMAG2
 40
0.0
  9
$LOFTPARAM
 70
     7
  9
$LOFTNORMALS
280
     1
  9
$LATITUDE
 40
37.795
  9
$LONGITUDE
 40
-122.394
  9
$NORTHDIRECTION
 40
0.0
  9
$TIMEZONE
 70
 -8000
  9
$LIGHTGLYPHDISPLAY
280
     1
  9
$TILEMODELIGHTSYNCH
280
     1
  9
$CMATERIAL
347
11
  9
$SOLIDHIST
280
     0
  9
$SHOWHIST
280
     1
  9
$DWFFRAME
280
     2
  9
$DGNFRAME
280
     0
  9
$REALWORLDSCALE
290
     1
  9
$INTERFERECOLOR
 62
     1
  9
$INTERFEREOBJVS
345
33
  9
$INTERFEREVPVS
346
30
  9
$CSHADOW
280
     0
  9
$SHADOWPLANELOCATION
 40
0.0
  0
ENDSEC
  0
SECTION
  2
CLASSES
  0
CLASS
  1
ACDBDICTIONARYWDFLT
  2
AcDbDictionaryWithDefault
  3
ObjectDBX Classes
 90
        0
 91
        1
280
     0
281
     0
  0
CLASS
  1
MATERIAL
  2
AcDbMaterial
  3
ObjectDBX Classes
 90
     1153
 91
        3
280
     0
281
     0
  0
CLASS
  1
VISUALSTYLE
  2
AcDbVisualStyle
  3
ObjectDBX Classes
 90
     4095
 91
       24
280
     0
281
     0
  0
CLASS
  1
SCALE
  2
AcDbScale
  3
ObjectDBX Classes
 90
     1153
 91
       17
280
     0
281
     0
  0
CLASS
  1
TABLESTYLE
  2
AcDbTableStyle
  3
ObjectDBX Classes
 90
     4095
 91
        1
280
     0
281
     0
  0
CLASS
  1
MLEADERSTYLE
  2
AcDbMLeaderStyle
  3
ACDB_MLEADERSTYLE_CLASS
 90
     4095
 91
        1
280
     0
281
     0
  0
CLASS
  1
ACDBSECTIONVIEWSTYLE
  2
AcDbSectionViewStyle
  3
ObjectDBX Classes
 90
     1025
 91
        1
280
     0
281
     0
  0
CLASS
  1
ACDBDETAILVIEWSTYLE
  2
AcDbDetailViewStyle
  3
ObjectDBX Classes
 90
     1025
 91
        1
280
     0
281
     0
  0
CLASS
  1
RASTERVARIABLES
  2
AcDbRasterVariables
  3
ISM
 90
        0
 91
        1
280
     0
281
     0
  0
CLASS
  1
DICTIONARYVAR
  2
AcDbDictionaryVar
  3
ObjectDBX Classes
 90
        0
 91
        5
280
     0
281
     0
  0
CLASS
  1
CELLSTYLEMAP
  2
AcDbCellStyleMap
  3
ObjectDBX Classes
 90
     1152
 91
        2
280
     0
281
     0
  0
CLASS
  1
SORTENTSTABLE
  2
AcDbSortentsTable
  3
ObjectDBX Classes
 90
        0
 91
        1
280
     0
281
     0
  0
ENDSEC
  0
SECTION
  2
TABLES
  0
TABLE
  2
VPORT
  5
8
330
0
100
AcDbSymbolTable
 70
     1
  0
VPORT
  5
57
330
8
100
AcDbSymbolTableRecord
100
AcDbViewportTableRecord
  2
*Active
 70
     0
 10
0.0
 20
0.0
 11
1.0
 21
1.0
 12
945.6335771936474
 22
1838.570680322401
 13
0.0
 23
0.0
 14
1.0
 24
1.0
 15
0.0
 25
0.0
 16
0.0
 26
0.0
 36
1.0
 17
0.0
 27
0.0
 37
0.0
 40
453.6496032046946
 41
1.051387569016978
 42
50.0
 43
0.0
 44
0.0
 50
0.0
 51
0.0
 71
     0
 72
  1000
 73
     1
 74
     1
 75
     0
 76
     0
 77
     0
 78
     0
281
     0
 65
     1
110
0.0
120
0.0
130
0.0
111
1.0
121
0.0
131
0.0
112
0.0
122
1.0
132
0.0
 79
     0
146
0.0
 60
     3
 61
     5
292
     1
282
     1
141
0.0
142
0.0
 63
   250
421
  3355443
  0
ENDTAB
  0
TABLE
  2
LTYPE
  5
5
330
0
100
AcDbSymbolTable
 70
     3
  0
LTYPE
  5
5B
330
5
100
AcDbSymbolTableRecord
100
AcDbLinetypeTableRecord
  2
ByBlock
 70
     0
  3

 72
    65
 73
     0
 40
0.0
  0
LTYPE
  5
5C
330
5
100
AcDbSymbolTableRecord
100
AcDbLinetypeTableRecord
  2
ByLayer
 70
     0
  3

 72
    65
 73
     0
 40
0.0
  0
LTYPE
  5
5D
330
5
100
AcDbSymbolTableRecord
100
AcDbLinetypeTableRecord
  2
Continuous
 70
     0
  3
Solid line
 72
    65
 73
     0
 40
0.0
  0
LTYPE
  5
69
330
5
100
AcDbSymbolTableRecord
100
AcDbLinetypeTableRecord
  2
PHANTOM2
 70
     0
  3
___ _ _ ___ _ _ ___ _ _ ___ _ _
 72
    65
 73
     6
 40
1.25
 49
0.625
 74
     0
 49
-0.125
 74
     0
 49
0.125
 74
     0
 49
-0.125
 74
     0
 49
0.125
 74
     0
 49
-0.125
 74
     0
  0
LTYPE
  5
86
330
5
100
AcDbSymbolTableRecord
100
AcDbLinetypeTableRecord
  2
Nascosto 1_5 mm
 70
     0
  3

 72
    65
 73
     2
 40
2.2
 49
1.5
 74
     0
 49
-0.7000000000000001
 74
     0
  0
ENDTAB
  0
TABLE
  2
LAYER
  5
2
330
0
100
AcDbSymbolTable
 70
     4
  0
LAYER
  5
54
330
2
100
AcDbSymbolTableRecord
100
AcDbLayerTableRecord
  2
0
 70
     0
 62
     7
  6
Continuous
370
    -3
390
F
347
21
348
0
  0
LAYER
  5
85
330
2
100
AcDbSymbolTableRecord
100
AcDbLayerTableRecord
  2
P-SANR-FIXT
 70
     0
 62
     6
  6
Continuous
370
    18
390
F
347
21
348
0
  0
LAYER
  5
88
330
2
100
AcDbSymbolTableRecord
100
AcDbLayerTableRecord
  2
M-PIPE
 70
     0
 62
     3
  6
Continuous
370
    18
390
F
347
21
348
0
  0
ENDTAB
  0
TABLE
  2
STYLE
  5
3
330
0
100
AcDbSymbolTable
 70
     2
  0
STYLE
  5
55
330
3
100
AcDbSymbolTableRecord
100
AcDbTextStyleTableRecord
  2
Standard
 70
     0
 40
0.0
 41
1.0
 50
0.0
 71
     0
 42
0.2
  3
txt
  4

  0
STYLE
  5
5A
330
3
100
AcDbSymbolTableRecord
100
AcDbTextStyleTableRecord
  2
Annotative
 70
     0
 40
0.0
 41
1.0
 50
0.0
 71
     0
 42
0.2
  3
txt
  4

1001
AcadAnnotative
1000
AnnotativeData
1002
{
1070
     1
1070
     1
1002
}
  0
ENDTAB
  0
TABLE
  2
VIEW
  5
6
330
0
100
AcDbSymbolTable
 70
     0
  0
ENDTAB
  0
TABLE
  2
UCS
  5
7
330
0
100
AcDbSymbolTable
 70
     0
  0
ENDTAB
  0
TABLE
  2
APPID
  5
9
330
0
100
AcDbSymbolTable
 70
     3
  0
APPID
  5
56
330
9
100
AcDbSymbolTableRecord
100
AcDbRegAppTableRecord
  2
ACAD
 70
     0
  0
APPID
  5
5E
330
9
100
AcDbSymbolTableRecord
100
AcDbRegAppTableRecord
  2
AcadAnnotative
 70
     0
  0
APPID
  5
79
330
9
100
AcDbSymbolTableRecord
100
AcDbRegAppTableRecord
  2
REVIT
 70
     0
  0
ENDTAB
  0
TABLE
  2
DIMSTYLE
  5
A
330
0
100
AcDbSymbolTable
 70
     2
100
AcDbDimStyleTable
 71
     0
  0
DIMSTYLE
105
58
330
A
100
AcDbSymbolTableRecord
100
AcDbDimStyleTableRecord
  2
Standard
 70
     0
340
55
  0
DIMSTYLE
105
59
330
A
100
AcDbSymbolTableRecord
100
AcDbDimStyleTableRecord
  2
Annotative
 70
     0
340
55
1001
AcadAnnotative
1000
AnnotativeData
1002
{
1070
     1
1070
     1
1002
}
  0
ENDTAB
  0
TABLE
  2
BLOCK_RECORD
  5
1
330
0
100
AcDbSymbolTable
 70
     4
  0
BLOCK_RECORD
  5
71
102
{ACAD_XDICTIONARY
360
3D0
102
}
330
1
100
AcDbSymbolTableRecord
100
AcDbBlockTableRecord
  2
*Model_Space
340
74
 70
     0
280
     1
281
     0
  0
BLOCK_RECORD
  5
6D
330
1
100
AcDbSymbolTableRecord
100
AcDbBlockTableRecord
  2
*Paper_Space
340
70
 70
     0
280
     1
281
     0
  0
BLOCK_RECORD
  5
75
330
1
100
AcDbSymbolTableRecord
100
AcDbBlockTableRecord
  2
*Paper_Space0
340
78
 70
     0
280
     1
281
     0
  0
BLOCK_RECORD
  5
87
330
1
100
AcDbSymbolTableRecord
100
AcDbBlockTableRecord
  2
Automatic flow rate regulator valve_Caleffi_121 DN15 - 1_2__-859151-Est - Idraulica
340
0
102
{BLKREFS
331
1E3
102
}
 70
     0
280
     1
281
     0
  0
BLOCK_RECORD
  5
1E4
330
1
100
AcDbSymbolTableRecord
100
AcDbBlockTableRecord
  2
Automatic flow rate regulator valve_Caleffi_121 DN15 - 1_2__-V1-Est - Idraulica
340
0
102
{BLKREFS
331
267
102
}
 70
     0
280
     1
281
     0
  0
BLOCK_RECORD
  5
268
330
1
100
AcDbSymbolTableRecord
100
AcDbBlockTableRecord
  2
Automatic flow rate regulator valve_Caleffi_121 DN15 - 1_2__-V2-Est - Idraulica
340
0
102
{BLKREFS
331
3C9
102
}
 70
     0
280
     1
281
     0
  0
ENDTAB
  0
ENDSEC
  0
SECTION
  2
BLOCKS
  0
BLOCK
  5
72
330
71
100
AcDbEntity
  8
0
100
AcDbBlockBegin
  2
*Model_Space
 70
     0
 10
0.0
 20
0.0
 30
0.0
  3
*Model_Space
  1

  0
ENDBLK
  5
73
330
71
100
AcDbEntity
  8
0
100
AcDbBlockEnd
  0
BLOCK
  5
6E
330
6D
100
AcDbEntity
 67
     1
  8
0
100
AcDbBlockBegin
  2
*Paper_Space
 70
     0
 10
0.0
 20
0.0
 30
0.0
  3
*Paper_Space
  1

  0
ENDBLK
  5
6F
330
6D
100
AcDbEntity
 67
     1
  8
0
100
AcDbBlockEnd
  0
BLOCK
  5
76
330
75
100
AcDbEntity
 67
     1
  8
0
100
AcDbBlockBegin
  2
*Paper_Space0
 70
     0
 10
0.0
 20
0.0
 30
0.0
  3
*Paper_Space0
  1

  0
ENDBLK
  5
77
330
75
100
AcDbEntity
 67
     1
  8
0
100
AcDbBlockEnd
  0
BLOCK
  5
1E1
330
87
100
AcDbEntity
  8
0
100
AcDbBlockBegin
  2
Automatic flow rate regulator valve_Caleffi_121 DN15 - 1_2__-859151-Est - Idraulica
 70
     0
 10
0.0
 20
0.0
 30
0.0
  3
Automatic flow rate regulator valve_Caleffi_121 DN15 - 1_2__-859151-Est - Idraulica
  1

  0
LWPOLYLINE
  5
89
330
87
100
AcDbEntity
  8
M-PIPE
100
AcDbPolyline
 90
       17
 70
   128
 43
0.0
 10
719.8425342947857
 20
1997.710072979597
 10
718.8434588188861
 20
1996.237040134525
 10
717.9040880995145
 20
1994.725233195533
 10
717.0259249294332
 20
1993.177070731218
 10
716.2103741823829
 20
1991.595029471267
 10
715.458740565584
 20
1989.981640344213
 10
714.7722265324837
 20
1988.339484428486
 10
714.151930359086
 20
1986.671188823245
 10
713.5988443869455
 20
1984.979422445572
 10
713.1138534356328
 20
1983.266891760783
 10
712.6977333872101
 20
1981.536336452652
 10
712.3511499449878
 20
1979.790525040507
 10
712.0746575685395
 20
1978.032250450186
 10
711.8686985866858
 20
1976.264325545957
 10
711.7336024898618
 20
1974.489578630528
 10
711.6695854030033
 20
1972.710848920373
 10
711.663907443151
 20
1971.999999999973
1001
REVIT
1002
{
1070
     3
1000
790271
1002
}
  0
LWPOLYLINE
  5
8A
330
87
100
AcDbEntity
  8
M-PIPE
100
AcDbPolyline
 90
       15
 70
   128
 43
0.0
 10
712.8026915108969
 20
2011.627009015043
 10
712.6386250281949
 20
2011.924778685666
 10
712.4865973920487
 20
2012.228871081717
 10
712.3468518142454
 20
2012.538799720235
 10
712.2196118578987
 20
2012.854068781511
 10
712.1050810797954
 20
2013.1741739023
 10
712.003442704749
 20
2013.498602982696
 10
711.9148593324773
 20
2013.826837005377
 10
711.8394726774796
 20
2014.158350865927
 10
711.7774033423223
 20
2014.492614212889
 10
711.7287506247004
 20
2014.829092296212
 10
711.6935923585839
 20
2015.167246822741
 10
711.6719847896984
 20
2015.506536817371
 10
711.6639624855448
 20
2015.846419488486
 10
711.6639074430645
 20
2015.877009015043
1001
REVIT
1002
{
1070
     3
1000
790271
1002
}
  0
LINE
  5
8B
330
87
100
AcDbEntity
  8
M-PIPE
100
AcDbLine
 10
745.4517283943581
 20
1973.89605862468
 30
0.0
 11
747.4035030800306
 21
1973.89605862468
 31
0.0
1001
REVIT
1002
{
1070
     3
1000
790271
1002
}
  0
LINE
  5
8C
330
87
100
AcDbEntity
  8
M-PIPE
100
AcDbLine
 10
747.4035030800306
 20
2026.103941375312
 30
0.0
 11
745.4517283943577
 21
2026.103941375312
 31
0.0
1001
REVIT
1002
{
1070
     3
1000
790271
1002
}
  0
LINE
  5
8D
330
87
100
AcDbEntity
  8
M-PIPE
100
AcDbLine
 10
711.6639074431048
 20
1971.999999999972
 30
0.0
 11
711.6639074431048
 21
1961.499999999995
 31
0.0
1001
REVIT
1002
{
1070
     3
1000
790271
1002
}
  0
LINE
  5
8E
330
87
100
AcDbEntity
  8
M-PIPE
100
AcDbLine
 10
744.6639074431512
 20
1961.499999999995
 30
0.0
 11
744.6639074431512
 21
1971.999999999973
 31
0.0
1001
REVIT
1002
{
1070
     3
1000
790271
1002
}
  0
LINE
  5
8F
330
87
100
AcDbEntity
  8
M-PIPE
100
AcDbLine
 10
711.6639074431048
 20
1961.499999999995
 30
0.0
 11
711.163907443128
 21
1960.633974596251
 31
0.0
1001
REVIT
1002
{
1070
     3
1000
790271
1002
}
  0
LINE
  5
90
330
87
100
AcDbEntity
  8
M-PIPE
100
AcDbLine
 10
745.163907443128
 20
1960.633974596251
 30
0.0
 11
744.6639074431512
 21
1961.499999999995
 31
0.0
1001
REVIT
1002
{
1070
     3
1000
790271
1002
}
  0
LINE
  5
91
330
87
100
AcDbEntity
  8
M-PIPE
100
AcDbLine
 10
711.163907443128
 20
1960.633974596251
 30
0.0
 11
711.163907443128
 21
1957.999999999977
 31
0.0
1001
REVIT
1002
{
1070
     3
1000
790271
1002
}
  0
LINE
  5
92
330
87
100
AcDbEntity
  8
M-PIPE
100
AcDbLine
 10
745.163907443128
 20
1957.999999999975
 30
0.0
 11
745.163907443128
 21
1960.633974596251
 31
0.0
1001
REVIT
1002
{
1070
     3
1000
790271
1002
}
  0
LWPOLYLINE
  5
93
330
87
100
AcDbEntity
  8
M-PIPE
100
AcDbPolyline
 90
        6
 70
   128
 43
0.0
 10
744.663907443151
 20
1971.999999999973
 10
744.6731062165498
 20
1972.45987734312
 10
744.700687820671
 20
1972.91901898062
 10
744.7466081308317
 20
1973.376690383798
 10
744.8107936843315
 20
1973.83215937604
 10
744.8378513974399
 20
1973.99259992204
1001
REVIT
1002
{
1070
     3
1000
790271
1002
}
  0
LWPOLYLINE
  5
94
330
87
100
AcDbEntity
  8
M-PIPE
100
AcDbPolyline
 90
       18
 70
   128
 43
0.0
 10
719.8425342947857
 20
1997.710072979597
 10
719.8625160943713
 20
1997.868809599612
 10
719.8761341389034
 20
1998.028218306124
 10
719.8833666424156
 20
1998.188044079207
 10
719.8842020344446
 20
1998.348031231719
 10
719.8786389785418
 20
1998.507923818344
 10
719.8666863744099
 20
1998.667466045053
 10
719.8483633436658
 20
1998.826402678316
 10
719.8236991992497
 20
1998.984479453426
 10
719.7927333985317
 20
1999.141443481262
 10
719.7555154801866
 20
1999.297043652864
 10
719.712104984945
 20
1999.451031041152
 10
719.6625713603387
 20
1999.603159299152
 10
719.6069938496004
 20
1999.753185054103
 10
719.5454613648912
 20
1999.900868296803
 10
719.4780723450606
 20
2000.045972765566
 10
719.404934598165
 20
2000.188266324196
 10
719.3487404455005
 20
2000.288919671478
1001
REVIT
1002
{
1070
     3
1000
790271
1002
}
  0
LINE
  5
95
330
87
100
AcDbEntity
  8
M-PIPE
100
AcDbLine
 10
712.8026915108969
 20
2011.627009015043
 30
0.0
 11
719.3487404455005
 21
2000.288919671478
 31
0.0
1001
REVIT
1002
{
1070
     3
1000
790271
1002
}
  0
LINE
  5
96
330
87
100
AcDbEntity
  8
M-PIPE
100
AcDbLine
 10
744.663907443191
 20
2025.942238997815
 30
0.0
 11
744.6639074431908
 21
2038.499999999996
 31
0.0
1001
REVIT
1002
{
1070
     3
1000
790271
1002
}
  0
LINE
  5
97
330
87
100
AcDbEntity
  8
M-PIPE
100
AcDbLine
 10
711.6639074430644
 20
2038.499999999995
 30
0.0
 11
711.6639074430645
 21
2015.877009015043
 31
0.0
1001
REVIT
1002
{
1070
     3
1000
790271
1002
}
  0
LINE
  5
98
330
87
100
AcDbEntity
  8
M-PIPE
100
AcDbLine
 10
744.6639074431908
 20
2038.499999999996
 30
0.0
 11
745.1639074431277
 21
2039.366025403671
 31
0.0
1001
REVIT
1002
{
1070
     3
1000
790271
1002
}
  0
LINE
  5
99
330
87
100
AcDbEntity
  8
M-PIPE
100
AcDbLine
 10
711.1639074431275
 20
2039.366025403671
 30
0.0
 11
711.6639074430644
 21
2038.499999999995
 31
0.0
1001
REVIT
1002
{
1070
     3
1000
790271
1002
}
  0
LINE
  5
9A
330
87
100
AcDbEntity
  8
M-PIPE
100
AcDbLine
 10
745.1639074431277
 20
2039.366025403671
 30
0.0
 11
745.1639074431277
 21
2042.000000000015
 31
0.0
1001
REVIT
1002
{
1070
     3
1000
790271
1002
}
  0
LINE
  5
9B
330
87
100
AcDbEntity
  8
M-PIPE
100
AcDbLine
 10
711.1639074431275
 20
2042.000000000016
 30
0.0
 11
711.1639074431275
 21
2039.366025403671
 31
0.0
1001
REVIT
1002
{
1070
     3
1000
790271
1002
}
  0
LWPOLYLINE
  5
9C
330
87
100
AcDbEntity
  8
M-PIPE
100
AcDbPolyline
 90
       12
 70
   128
 43
0.0
 10
744.663907443191
 20
2025.942238997815
 10
744.7380499138829
 20
2025.972272991088
 10
744.8133341179002
 20
2025.999318052331
 10
744.8896396165767
 20
2026.023330915216
 10
744.9668443373915
 20
2026.044273164285
 10
745.044824769261
 20
2026.062111296408
 10
745.1234561601292
 20
2026.076816774377
 10
745.2026127165445
 20
2026.088366072565
 10
745.2821678049025
 20
2026.096740714559
 10
745.3619941540328
 20
2026.101927302718
 10
745.441964058805
 20
2026.103917539607
 10
745.4517283943577
 20
2026.103941375312
1001
REVIT
1002
{
1070
     3
1000
790271
1002
}
  0
LWPOLYLINE
  5
9D
330
87
100
AcDbEntity
  8
M-PIPE
100
AcDbPolyline
 90
        9
 70
   128
 43
0.0
 10
745.4517283943581
 20
1973.89605862468
 10
745.3717497259849
 20
1973.897658411358
 10
745.2918990064197
 20
1973.902455212074
 10
745.2123039797803
 20
1973.910441352972
 10
745.1330919811297
 20
1973.921604057929
 10
745.0543897327681
 20
1973.935925468997
 10
744.9763231415039
 20
1973.953382674975
 10
744.89901709723
 20
1973.973947748058
 10
744.8378513974399
 20
1973.99259992204
1001
REVIT
1002
{
1070
     3
1000
790271
1002
}
  0
SPLINE
  5
9E
330
87
100
AcDbEntity
  8
M-PIPE
100
AcDbSpline
210
0.0
220
0.0
230
1.0
 70
     8
 71
     3
 72
    15
 73
    11
 74
     0
 42
0.000000001
 43
0.0000000001
 40
0.0
 40
0.0
 40
0.0
 40
0.0
 40
0.25
 40
0.375
 40
0.5
 40
0.5625
 40
0.625
 40
0.75
 40
0.875
 40
1.0
 40
1.0
 40
1.0
 40
1.0
 10
736.4090390310555
 20
1991.843013229349
 30
0.0
 10
735.8231441787271
 20
1993.090494303481
 30
0.0
 10
734.8892663131812
 20
1994.920766616024
 30
0.0
 10
733.5065957110344
 20
1997.178303121298
 30
0.0
 10
732.5778576419486
 20
1998.440085144318
 30
0.0
 10
731.7767896832809
 20
1999.324014433714
 30
0.0
 10
730.9390440542395
 20
2000.13353320875
 30
0.0
 10
729.8383182314982
 20
2000.927630762509
 30
0.0
 10
728.4310430696572
 20
2001.449717842559
 30
0.0
 10
727.4230874553279
 20
2001.525742713395
 30
0.0
 10
726.903183413258
 20
2001.490111417457
 30
0.0
1001
REVIT
1002
{
1070
     3
1000
790271
1002
}
  0
SPLINE
  5
9F
330
87
100
AcDbEntity
  8
M-PIPE
100
AcDbSpline
210
0.0
220
0.0
230
1.0
 70
     8
 71
     3
 72
     9
 73
     5
 74
     0
 42
0.000000001
 43
0.0000000001
 40
0.0
 40
0.0
 40
0.0
 40
0.0
 40
0.5
 40
1.0
 40
1.0
 40
1.0
 40
1.0
 10
726.903183413258
 20
2001.490111417457
 30
0.0
 10
726.4994708745087
 20
2001.268307137484
 30
0.0
 10
725.707055305976
 20
2000.847685539307
 30
0.0
 10
724.9483507422817
 20
2000.469024680569
 30
0.0
 10
724.5791923738539
 20
2000.288919671477
 30
0.0
1001
REVIT
1002
{
1070
     3
1000
790271
1002
}
  0
SPLINE
  5
A0
330
87
100
AcDbEntity
  8
M-PIPE
100
AcDbSpline
210
0.0
220
0.0
230
1.0
 70
     8
 71
     3
 72
    21
 73
    17
 74
     0
 42
0.000000001
 43
0.0000000001
 40
0.0
 40
0.0
 40
0.0
 40
0.0
 40
0.2
 40
0.3
 40
0.35
 40
0.4
 40
0.45
 40
0.5
 40
0.55
 40
0.6
 40
0.65
 40
0.7
 40
0.75
 40
0.8
 40
0.9
 40
1.0
 40
1.0
 40
1.0
 40
1.0
 10
724.5791923738539
 20
2000.288919671477
 30
0.0
 10
724.0758042503355
 20
2000.039503198606
 30
0.0
 10
723.3564087852263
 20
1999.679777210565
 30
0.0
 10
722.5826685689636
 20
1999.27021907418
 30
0.0
 10
722.1635242301612
 20
1999.042765882067
 30
0.0
 10
721.8643325878304
 20
1998.880446928582
 30
0.0
 10
721.5786013416118
 20
1998.723380020836
 30
0.0
 10
721.3061798241946
 20
1998.569832971806
 30
0.0
 10
721.0510577694415
 20
1998.424237244366
 30
0.0
 10
720.8179306250599
 20
1998.291744253235
 30
0.0
 10
720.6043928991332
 20
1998.168941457798
 30
0.0
 10
720.4096566749321
 20
1998.053212144549
 30
0.0
 10
720.2397295361491
 20
1997.950764869911
 30
0.0
 10
720.0532933689637
 20
1997.839698090265
 30
0.0
 10
719.8954921672914
 20
1997.747748041971
 30
0.0
 10
719.8464476523411
 20
1997.715601494439
 30
0.0
 10
719.8425342947841
 20
1997.710072979596
 30
0.0
1001
REVIT
1002
{
1070
     3
1000
790271
1002
}
  0
LINE
  5
A1
330
87
100
AcDbEntity
  8
M-PIPE
100
AcDbLine
 10
711.6639074431034
 20
1961.499999999995
 30
0.0
 11
744.6639074431498
 21
1961.499999999995
 31
0.0
1001
REVIT
1002
{
1070
     3
1000
790271
1002
}
  0
LINE
  5
A2
330
87
100
AcDbEntity
  8
M-PIPE
100
AcDbLine
 10
711.1639074431267
 20
1960.63397459625
 30
0.0
 11
745.1639074431266
 21
1960.633974596251
 31
0.0
1001
REVIT
1002
{
1070
     3
1000
790271
1002
}
  0
SPLINE
  5
A3
330
87
100
AcDbEntity
  8
M-PIPE
100
AcDbSpline
210
0.0
220
0.0
230
1.0
 70
     8
 71
     3
 72
    10
 73
     6
 74
     0
 42
0.000000001
 43
0.0000000001
 40
0.0
 40
0.0
 40
0.0
 40
0.0
 40
0.3333333333333333
 40
0.6666666666666666
 40
1.0
 40
1.0
 40
1.0
 40
1.0
 10
744.8378513974386
 20
1973.992599922039
 30
0.0
 10
744.8374359507842
 20
1973.990238498634
 30
0.0
 10
744.7749886681927
 20
1974.059721998912
 30
0.0
 10
744.4986079417534
 20
1974.375408316483
 30
0.0
 10
744.2318302334562
 20
1974.781961402996
 30
0.0
 10
744.0877316742318
 20
1975.037327952638
 30
0.0
1001
REVIT
1002
{
1070
     3
1000
790271
1002
}
  0
SPLINE
  5
A4
330
87
100
AcDbEntity
  8
M-PIPE
100
AcDbSpline
210
0.0
220
0.0
230
1.0
 70
     8
 71
     3
 72
    18
 73
    14
 74
     0
 42
0.000000001
 43
0.0000000001
 40
0.0
 40
0.0
 40
0.0
 40
0.0
 40
0.1
 40
0.2
 40
0.25
 40
0.3
 40
0.35
 40
0.4
 40
0.45
 40
0.5
 40
0.6
 40
0.8
 40
1.0
 40
1.0
 40
1.0
 40
1.0
 10
744.0877316742318
 20
1975.037327952638
 30
0.0
 10
743.930549920736
 20
1975.36965208819
 30
0.0
 10
743.5656907900195
 20
1976.079549787548
 30
0.0
 10
743.0158846940214
 20
1977.098670794186
 30
0.0
 10
742.5534582966005
 20
1978.014686590724
 30
0.0
 10
742.2043267338096
 20
1978.75468763211
 30
0.0
 10
741.8488192664077
 20
1979.535786085711
 30
0.0
 10
741.478223245832
 20
1980.345520660805
 30
0.0
 10
741.0952071508525
 20
1981.182445078443
 30
0.0
 10
740.5841422693927
 20
1982.344190621707
 30
0.0
 10
739.6614766181485
 20
1984.476596916811
 30
0.0
 10
738.2679232534426
 20
1987.744708184104
 30
0.0
 10
737.0499108620024
 20
1990.491833383066
 30
0.0
 10
736.4090390310555
 20
1991.843013229349
 30
0.0
1001
REVIT
1002
{
1070
     3
1000
790271
1002
}
  0
LINE
  5
A5
330
87
100
AcDbEntity
  8
M-PIPE
100
AcDbLine
 10
744.6639074431894
 20
2038.499999999995
 30
0.0
 11
711.6639074430629
 21
2038.499999999995
 31
0.0
1001
REVIT
1002
{
1070
     3
1000
790271
1002
}
  0
LINE
  5
A6
330
87
100
AcDbEntity
  8
M-PIPE
100
AcDbLine
 10
745.1639074431263
 20
2039.36602540367
 30
0.0
 11
711.1639074431263
 21
2039.36602540367
 31
0.0
1001
REVIT
1002
{
1070
     3
1000
790271
1002
}
  0
SPLINE
  5
A7
330
87
100
AcDbEntity
  8
M-PIPE
100
AcDbSpline
210
0.0
220
0.0
230
1.0
 70
     8
 71
     3
 72
    17
 73
    13
 74
     0
 42
0.000000001
 43
0.0000000001
 40
0.0
 40
0.0
 40
0.0
 40
0.0
 40
0.1666666666666666
 40
0.25
 40
0.3333333333333333
 40
0.4166666666666666
 40
0.5
 40
0.5833333333333333
 40
0.6666666666666666
 40
0.75
 40
0.8333333333333332
 40
1.0
 40
1.0
 40
1.0
 40
1.0
 10
738.5532495006385
 20
2015.877009015043
 30
0.0
 10
738.8959221187685
 20
2016.527940859103
 30
0.0
 10
739.4175982854159
 20
2017.475727318593
 30
0.0
 10
740.1139722765202
 20
2018.683984675432
 30
0.0
 10
740.6333817533748
 20
2019.558919350379
 30
0.0
 10
741.1423609020109
 20
2020.416713208411
 30
0.0
 10
741.6373546683254
 20
2021.254530139442
 30
0.0
 10
742.1174637258356
 20
2022.052895520872
 30
0.0
 10
742.5801447918709
 20
2022.792334730105
 30
0.0
 10
743.0183968959185
 20
2023.470011657054
 30
0.0
 10
743.5569648434793
 20
2024.310054550964
 30
0.0
 10
743.898721203415
 20
2024.863325514456
 30
0.0
 10
744.0877316742314
 20
2025.198644961719
 30
0.0
1001
REVIT
1002
{
1070
     3
1000
790271
1002
}
  0
SPLINE
  5
A8
330
87
100
AcDbEntity
  8
M-PIPE
100
AcDbSpline
210
0.0
220
0.0
230
1.0
 70
     8
 71
     3
 72
    10
 73
     6
 74
     0
 42
0.000000001
 43
0.0000000001
 40
-1.0
 40
-1.0
 40
-1.0
 40
-1.0
 40
-0.6666666666666666
 40
-0.3333333333333333
 40
0.0
 40
0.0
 40
0.0
 40
0.0
 10
735.6891562899829
 20
2011.627009015043
 30
0.0
 10
736.0627247344623
 20
2012.067731685133
 30
0.0
 10
736.7730568654579
 20
2012.976956266882
 30
0.0
 10
737.7350921309969
 20
2014.426326910435
 30
0.0
 10
738.2935710015162
 20
2015.394882253727
 30
0.0
 10
738.5532495006385
 20
2015.877009015043
 30
0.0
1001
REVIT
1002
{
1070
     3
1000
790271
1002
}
  0
SPLINE
  5
A9
330
87
100
AcDbEntity
  8
M-PIPE
100
AcDbSpline
210
0.0
220
0.0
230
1.0
 70
     8
 71
     3
 72
    14
 73
    10
 74
     0
 42
0.000000001
 43
0.0000000001
 40
-1.0
 40
-1.0
 40
-1.0
 40
-1.0
 40
-0.8333333333333332
 40
-0.6666666666666666
 40
-0.5
 40
-0.4166666666666666
 40
-0.3333333333333333
 40
-0.1666666666666666
 40
0.0
 40
0.0
 40
0.0
 40
0.0
 10
726.903183413258
 20
2001.490111417457
 30
0.0
 10
727.371370821251
 20
2001.982567235714
 30
0.0
 10
728.3146021972942
 20
2003.025759244801
 30
0.0
 10
729.7495593709373
 20
2004.706271524042
 30
0.0
 10
730.9632643667709
 20
2006.112797526295
 30
0.0
 10
731.9441133771075
 20
2007.241150805934
 30
0.0
 10
732.9306776805292
 20
2008.395052809289
 30
0.0
 10
734.174797424159
 20
2009.869807739312
 30
0.0
 10
735.1823602237114
 20
2011.043675764952
 30
0.0
 10
735.6891562899829
 20
2011.627009015043
 30
0.0
1001
REVIT
1002
{
1070
     3
1000
790271
1002
}
  0
SPLINE
  5
AA
330
87
100
AcDbEntity
  8
M-PIPE
100
AcDbSpline
210
0.0
220
0.0
230
1.0
 70
     8
 71
     3
 72
     9
 73
     5
 74
     0
 42
0.000000001
 43
0.0000000001
 40
0.0
 40
0.0
 40
0.0
 40
0.0
 40
0.5
 40
1.0
 40
1.0
 40
1.0
 40
1.0
 10
744.0877316742314
 20
2025.198644961719
 30
0.0
 10
744.2713909324194
 20
2025.458782424957
 30
0.0
 10
744.5596979935345
 20
2025.842852227544
 30
0.0
 10
744.6639074431894
 20
2025.954511782354
 30
0.0
 10
744.6639074431896
 20
2025.942238997815
 30
0.0
1001
REVIT
1002
{
1070
     3
1000
790271
1002
}
  0
LINE
  5
AB
330
87
100
AcDbEntity
  8
P-SANR-FIXT
100
AcDbLine
 10
749.1750144421798
 20
1949.161113167206
 30
0.0
 11
749.1750144421798
 21
1956.838886832749
 31
0.0
  0
LINE
  5
AC
330
87
100
AcDbEntity
  8
P-SANR-FIXT
100
AcDbLine
 10
707.1528004442021
 20
1956.83888683275
 30
0.0
 11
707.1528004442021
 21
1949.161113167208
 31
0.0
  0
LINE
  5
AD
330
87
100
AcDbEntity
  8
P-SANR-FIXT
100
AcDbLine
 10
749.1750144421798
 20
1956.838886832749
 30
0.0
 11
748.986715424615
 21
1956.947601321228
 31
0.0
  0
LINE
  5
AE
330
87
100
AcDbEntity
  8
P-SANR-FIXT
100
AcDbLine
 10
748.9680640728725
 20
1956.958369684178
 30
0.0
 11
747.1639074432061
 21
1957.999999999976
 31
0.0
  0
LINE
  5
AF
330
87
100
AcDbEntity
  8
P-SANR-FIXT
100
AcDbLine
 10
709.1639074431766
 20
1957.999999999977
 30
0.0
 11
707.3597508135097
 21
1956.958369684178
 31
0.0
  0
LINE
  5
B0
330
87
100
AcDbEntity
  8
P-SANR-FIXT
100
AcDbLine
 10
707.3410994617671
 20
1956.947601321229
 30
0.0
 11
707.1528004442021
 21
1956.83888683275
 31
0.0
  0
LINE
  5
B1
330
87
100
AcDbEntity
  8
P-SANR-FIXT
100
AcDbLine
 10
747.16390744309
 20
1947.999999999913
 30
0.0
 11
748.9680640728725
 21
1949.041630315778
 31
0.0
  0
LINE
  5
B2
330
87
100
AcDbEntity
  8
P-SANR-FIXT
100
AcDbLine
 10
748.9867154246147
 20
1949.052398678727
 30
0.0
 11
749.1750144421798
 21
1949.161113167206
 31
0.0
  0
LINE
  5
B3
330
87
100
AcDbEntity
  8
P-SANR-FIXT
100
AcDbLine
 10
707.1528004442021
 20
1949.161113167208
 30
0.0
 11
707.3410994617671
 21
1949.052398678728
 31
0.0
  0
LINE
  5
B4
330
87
100
AcDbEntity
  8
P-SANR-FIXT
100
AcDbLine
 10
707.3597508135097
 20
1949.041630315779
 30
0.0
 11
709.1639074432921
 21
1947.999999999914
 31
0.0
  0
LINE
  5
B5
330
87
100
AcDbEntity
  8
P-SANR-FIXT
100
AcDbLine
 10
709.1639074431753
 20
1957.999999999976
 30
0.0
 11
711.7094247712733
 21
1957.999999999976
 31
0.0
  0
LINE
  5
B6
330
87
100
AcDbEntity
  8
P-SANR-FIXT
100
AcDbLine
 10
711.7094247712732
 20
1957.999999999976
 30
0.0
 11
728.1639074431914
 21
1957.999999999976
 31
0.0
  0
LINE
  5
B7
330
87
100
AcDbEntity
  8
P-SANR-FIXT
100
AcDbLine
 10
728.1639074431914
 20
1957.999999999976
 30
0.0
 11
744.6183901151073
 21
1957.999999999976
 31
0.0
  0
LINE
  5
B8
330
87
100
AcDbEntity
  8
P-SANR-FIXT
100
AcDbLine
 10
744.6183901151073
 20
1957.999999999976
 30
0.0
 11
747.1639074432046
 21
1957.999999999975
 31
0.0
  0
LINE
  5
B9
330
87
100
AcDbEntity
  8
P-SANR-FIXT
100
AcDbLine
 10
747.1639074430885
 20
1947.999999999912
 30
0.0
 11
747.0782224920307
 21
1947.999999999912
 31
0.0
  0
LINE
  5
BA
330
87
100
AcDbEntity
  8
P-SANR-FIXT
100
AcDbLine
 10
747.0189084224029
 20
1947.999999999912
 30
0.0
 11
746.8351692387154
 21
1947.999999999912
 31
0.0
  0
LINE
  5
BB
330
87
100
AcDbEntity
  8
P-SANR-FIXT
100
AcDbLine
 10
746.6954474603729
 20
1947.999999999912
 30
0.0
 11
746.4257358384676
 21
1947.999999999912
 31
0.0
  0
LINE
  5
BC
330
87
100
AcDbEntity
  8
P-SANR-FIXT
100
AcDbLine
 10
746.2119623185211
 20
1947.999999999912
 30
0.0
 11
745.734284722109
 21
1947.999999999912
 31
0.0
  0
LINE
  5
BD
330
87
100
AcDbEntity
  8
P-SANR-FIXT
100
AcDbLine
 10
745.5734190078759
 20
1947.999999999912
 30
0.0
 11
744.9357147708981
 21
1947.999999999912
 31
0.0
  0
LINE
  5
BE
330
87
100
AcDbEntity
  8
P-SANR-FIXT
100
AcDbLine
 10
744.6183901150068
 20
1947.999999999912
 30
0.0
 11
743.9735964675801
 21
1947.999999999912
 31
0.0
  0
LINE
  5
BF
330
87
100
AcDbEntity
  8
P-SANR-FIXT
100
AcDbLine
 10
743.727796284598
 20
1947.999999999912
 30
0.0
 11
742.8575916755411
 21
1947.999999999912
 31
0.0
  0
LINE
  5
C0
330
87
100
AcDbEntity
  8
P-SANR-FIXT
100
AcDbLine
 10
742.7187518623733
 20
1947.999999999912
 30
0.0
 11
740.3768720271695
 21
1947.999999999912
 31
0.0
  0
LINE
  5
C1
330
87
100
AcDbEntity
  8
P-SANR-FIXT
100
AcDbLine
 10
740.2221398284094
 20
1947.999999999912
 30
0.0
 11
739.0618597338023
 21
1947.999999999912
 31
0.0
  0
LINE
  5
C2
330
87
100
AcDbEntity
  8
P-SANR-FIXT
100
AcDbLine
 10
738.7270090863545
 20
1947.999999999912
 30
0.0
 11
737.6639074431399
 21
1947.999999999912
 31
0.0
  0
LINE
  5
C3
330
87
100
AcDbEntity
  8
P-SANR-FIXT
100
AcDbLine
 10
737.128284603455
 20
1947.999999999912
 30
0.0
 11
735.4418146557734
 21
1947.999999999913
 31
0.0
  0
LINE
  5
C4
330
87
100
AcDbEntity
  8
P-SANR-FIXT
100
AcDbLine
 10
734.6622901663436
 20
1947.999999999913
 30
0.0
 11
733.6843739198963
 21
1947.999999999913
 31
0.0
  0
LINE
  5
C5
330
87
100
AcDbEntity
  8
P-SANR-FIXT
100
AcDbLine
 10
733.0814693001123
 20
1947.999999999913
 30
0.0
 11
731.8734766006799
 21
1947.999999999913
 31
0.0
  0
LINE
  5
C6
330
87
100
AcDbEntity
  8
P-SANR-FIXT
100
AcDbLine
 10
731.4632228188448
 20
1947.999999999913
 30
0.0
 11
730.0271840022618
 21
1947.999999999913
 31
0.0
  0
LINE
  5
C7
330
87
100
AcDbEntity
  8
P-SANR-FIXT
100
AcDbLine
 10
729.8198665553874
 20
1947.999999999913
 30
0.0
 11
728.1639074431906
 21
1947.999999999913
 31
0.0
  0
LINE
  5
C8
330
87
100
AcDbEntity
  8
P-SANR-FIXT
100
AcDbLine
 10
728.1639074431906
 20
1947.999999999913
 30
0.0
 11
726.507948330994
 21
1947.999999999913
 31
0.0
  0
LINE
  5
C9
330
87
100
AcDbEntity
  8
P-SANR-FIXT
100
AcDbLine
 10
726.3006308842278
 20
1947.999999999913
 30
0.0
 11
724.8645920675365
 21
1947.999999999913
 31
0.0
  0
LINE
  5
CA
330
87
100
AcDbEntity
  8
P-SANR-FIXT
100
AcDbLine
 10
724.4543382858093
 20
1947.999999999913
 30
0.0
 11
722.78826307871
 21
1947.999999999913
 31
0.0
  0
LINE
  5
CB
330
87
100
AcDbEntity
  8
P-SANR-FIXT
100
AcDbLine
 10
722.643440966593
 20
1947.999999999913
 30
0.0
 11
721.6655247200373
 21
1947.999999999913
 31
0.0
  0
LINE
  5
CC
330
87
100
AcDbEntity
  8
P-SANR-FIXT
100
AcDbLine
 10
720.8860002307154
 20
1947.999999999913
 30
0.0
 11
719.1995302830331
 21
1947.999999999913
 31
0.0
  0
LINE
  5
CD
330
87
100
AcDbEntity
  8
P-SANR-FIXT
100
AcDbLine
 10
718.6639074432409
 20
1947.999999999913
 30
0.0
 11
716.1056750580768
 21
1947.999999999913
 31
0.0
  0
LINE
  5
CE
330
87
100
AcDbEntity
  8
P-SANR-FIXT
100
AcDbLine
 10
715.9509428592109
 20
1947.999999999913
 30
0.0
 11
713.6090630240069
 21
1947.999999999913
 31
0.0
  0
LINE
  5
CF
330
87
100
AcDbEntity
  8
P-SANR-FIXT
100
AcDbLine
 10
713.4702232109523
 20
1947.999999999913
 30
0.0
 11
712.6000186017819
 21
1947.999999999913
 31
0.0
  0
LINE
  5
D0
330
87
100
AcDbEntity
  8
P-SANR-FIXT
100
AcDbLine
 10
712.3542184189125
 20
1947.999999999913
 30
0.0
 11
711.709424771373
 21
1947.999999999913
 31
0.0
  0
LINE
  5
D1
330
87
100
AcDbEntity
  8
P-SANR-FIXT
100
AcDbLine
 10
711.3921001155927
 20
1947.999999999913
 30
0.0
 11
710.7543958776955
 21
1947.999999999913
 31
0.0
  0
LINE
  5
D2
330
87
100
AcDbEntity
  8
P-SANR-FIXT
100
AcDbLine
 10
710.5935301643793
 20
1947.999999999913
 30
0.0
 11
710.115852567015
 21
1947.999999999913
 31
0.0
  0
LINE
  5
D3
330
87
100
AcDbEntity
  8
P-SANR-FIXT
100
AcDbLine
 10
709.9020790483988
 20
1947.999999999913
 30
0.0
 11
709.6323674251486
 21
1947.999999999913
 31
0.0
  0
LINE
  5
D4
330
87
100
AcDbEntity
  8
P-SANR-FIXT
100
AcDbLine
 10
709.4926456479473
 20
1947.999999999913
 30
0.0
 11
709.3089064631604
 21
1947.999999999913
 31
0.0
  0
LINE
  5
D5
330
87
100
AcDbEntity
  8
P-SANR-FIXT
100
AcDbLine
 10
709.2495923944279
 20
1947.999999999913
 30
0.0
 11
709.1639074432906
 21
1947.999999999913
 31
0.0
  0
SPLINE
  5
D6
330
87
100
AcDbEntity
  8
P-SANR-FIXT
100
AcDbSpline
210
0.0
220
0.0
230
1.0
 70
     8
 71
     3
 72
     9
 73
     5
 74
     0
 42
0.000000001
 43
0.0000000001
 40
0.0
 40
0.0
 40
0.0
 40
0.0
 40
0.5
 40
1.0
 40
1.0
 40
1.0
 40
1.0
 10
748.3711668648851
 20
1948.824882227367
 30
0.0
 10
748.6297492934283
 20
1948.935887419055
 30
0.0
 10
749.0337462779407
 20
1949.102931100716
 30
0.0
 10
749.1750144421748
 20
1949.160041378947
 30
0.0
 10
749.1750144421786
 20
1949.161113167206
 30
0.0
  0
SPLINE
  5
D7
330
87
100
AcDbEntity
  8
P-SANR-FIXT
100
AcDbSpline
210
0.0
220
0.0
230
1.0
 70
     8
 71
     3
 72
     9
 73
     5
 74
     0
 42
0.000000001
 43
0.0000000001
 40
0.0
 40
0.0
 40
0.0
 40
0.0
 40
0.5
 40
1.0
 40
1.0
 40
1.0
 40
1.0
 10
749.1750144421786
 20
1956.838886832748
 30
0.0
 10
749.1750144421748
 20
1956.839958621007
 30
0.0
 10
749.0337462779407
 20
1956.897068899238
 30
0.0
 10
748.6297492934283
 20
1957.0641125809
 30
0.0
 10
748.3711668648851
 20
1957.175117772588
 30
0.0
  0
SPLINE
  5
D8
330
87
100
AcDbEntity
  8
P-SANR-FIXT
100
AcDbSpline
210
0.0
220
0.0
230
1.0
 70
     8
 71
     3
 72
     9
 73
     5
 74
     0
 42
0.000000001
 43
0.0000000001
 40
0.0
 40
0.0
 40
0.0
 40
0.0
 40
0.5
 40
1.0
 40
1.0
 40
1.0
 40
1.0
 10
707.1528004442008
 20
1949.161113167207
 30
0.0
 10
707.1528004442045
 20
1949.160041378949
 30
0.0
 10
707.2940686084384
 20
1949.102931100717
 30
0.0
 10
707.6980655929511
 20
1948.935887419056
 30
0.0
 10
707.956648021494
 20
1948.824882227368
 30
0.0
  0
SPLINE
  5
D9
330
87
100
AcDbEntity
  8
P-SANR-FIXT
100
AcDbSpline
210
0.0
220
0.0
230
1.0
 70
     8
 71
     3
 72
     9
 73
     5
 74
     0
 42
0.000000001
 43
0.0000000001
 40
0.0
 40
0.0
 40
0.0
 40
0.0
 40
0.5
 40
1.0
 40
1.0
 40
1.0
 40
1.0
 10
707.956648021494
 20
1957.175117772588
 30
0.0
 10
707.6980655929511
 20
1957.0641125809
 30
0.0
 10
707.2940686084386
 20
1956.897068899239
 30
0.0
 10
707.1528004442045
 20
1956.839958621008
 30
0.0
 10
707.1528004442008
 20
1956.838886832749
 30
0.0
  0
SPLINE
  5
DA
330
87
100
AcDbEntity
  8
P-SANR-FIXT
100
AcDbSpline
210
0.0
220
0.0
230
1.0
 70
     8
 71
     3
 72
     9
 73
     5
 74
     0
 42
0.000000001
 43
0.0000000001
 40
0.0
 40
0.0
 40
0.0
 40
0.0
 40
0.5
 40
0.9199734145302949
 40
0.9199734145302949
 40
0.9199734145302949
 40
0.9199734145302949
 10
707.9566480214942
 20
1948.824882227368
 30
0.0
 10
708.5750321601604
 20
1948.555313899326
 30
0.0
 10
709.7193382677759
 20
1948.180839917565
 30
0.0
 10
710.8756264265978
 20
1948.029951506498
 30
0.0
 10
711.4059759803543
 20
1948.007664768261
 30
0.0
  0
SPLINE
  5
DB
330
87
100
AcDbEntity
  8
P-SANR-FIXT
100
AcDbSpline
210
0.0
220
0.0
230
1.0
 70
     8
 71
     3
 72
     9
 73
     5
 74
     0
 42
0.000000001
 43
0.0000000001
 40
0.0
 40
0.0
 40
0.0
 40
0.0
 40
0.5
 40
1.0
 40
1.0
 40
1.0
 40
1.0
 10
711.7094247712603
 20
1947.999999999912
 30
0.0
 10
712.3419662158426
 20
1948.005392414355
 30
0.0
 10
713.5999704520466
 20
1948.148265200038
 30
0.0
 10
714.8438173823283
 20
1948.555313899315
 30
0.0
 10
715.4622015209885
 20
1948.824882227352
 30
0.0
  0
SPLINE
  5
DC
330
87
100
AcDbEntity
  8
P-SANR-FIXT
100
AcDbSpline
210
0.0
220
0.0
230
1.0
 70
     8
 71
     3
 72
     9
 73
     5
 74
     0
 42
0.000000001
 43
0.0000000001
 40
0.0
 40
0.0
 40
0.0
 40
0.0
 40
0.5
 40
1.0
 40
1.0
 40
1.0
 40
1.0
 10
715.4622015209885
 20
1957.175117772604
 30
0.0
 10
714.843817382329
 20
1957.444686100652
 30
0.0
 10
713.5999704520481
 20
1957.851734799929
 30
0.0
 10
712.3419662158436
 20
1957.994607585566
 30
0.0
 10
711.7094247712604
 20
1957.999999999976
 30
0.0
  0
SPLINE
  5
DD
330
87
100
AcDbEntity
  8
P-SANR-FIXT
100
AcDbSpline
210
0.0
220
0.0
230
1.0
 70
     8
 71
     3
 72
     9
 73
     5
 74
     0
 42
0.000000001
 43
0.0000000001
 40
0.0
 40
0.0
 40
0.0
 40
0.0
 40
0.5
 40
1.0
 40
1.0
 40
1.0
 40
1.0
 10
711.7094247712604
 20
1957.999999999976
 30
0.0
 10
711.0768833266706
 20
1957.994607585566
 30
0.0
 10
709.8188790904531
 20
1957.851734799926
 30
0.0
 10
708.5750321601598
 20
1957.444686100641
 30
0.0
 10
707.9566480214942
 20
1957.175117772588
 30
0.0
  0
SPLINE
  5
DE
330
87
100
AcDbEntity
  8
P-SANR-FIXT
100
AcDbSpline
210
0.0
220
0.0
230
1.0
 70
     8
 71
     3
 72
    10
 73
     6
 74
     0
 42
0.000000001
 43
0.0000000001
 40
0.0
 40
0.0
 40
0.0
 40
0.0
 40
0.4
 40
0.7
 40
1.0
 40
1.0
 40
1.0
 40
1.0
 10
715.4622015209885
 20
1948.824882227352
 30
0.0
 10
715.8757177497006
 20
1949.001811428187
 30
0.0
 10
716.8745590373419
 20
1949.193384515254
 30
0.0
 10
718.7872123012952
 20
1949.146003547593
 30
0.0
 10
720.0393587603697
 20
1948.957378932107
 30
0.0
 10
720.6583539436951
 20
1948.824882227348
 30
0.0
  0
SPLINE
  5
DF
330
87
100
AcDbEntity
  8
P-SANR-FIXT
100
AcDbSpline
210
0.0
220
0.0
230
1.0
 70
     8
 71
     3
 72
    10
 73
     6
 74
     0
 42
0.000000001
 43
0.0000000001
 40
0.0
 40
0.0
 40
0.0
 40
0.0
 40
0.4
 40
0.7
 40
1.0
 40
1.0
 40
1.0
 40
1.0
 10
720.6583539436951
 20
1957.175117772608
 30
0.0
 10
719.8330270325945
 20
1956.998455499595
 30
0.0
 10
718.3643325532204
 20
1956.806738795108
 30
0.0
 10
716.5667227742065
 20
1956.853771827615
 30
0.0
 10
715.7723386925225
 20
1957.042420871978
 30
0.0
 10
715.4622015209885
 20
1957.175117772604
 30
0.0
  0
SPLINE
  5
E0
330
87
100
AcDbEntity
  8
P-SANR-FIXT
100
AcDbSpline
210
0.0
220
0.0
230
1.0
 70
     8
 71
     3
 72
     9
 73
     5
 74
     0
 42
0.000000001
 43
0.0000000001
 40
0.0
 40
0.0
 40
0.0
 40
0.0
 40
0.5
 40
1.0
 40
1.0
 40
1.0
 40
1.0
 10
720.6583539436951
 20
1948.824882227348
 30
0.0
 10
721.8951222210213
 20
1948.555313899306
 30
0.0
 10
724.3828160815968
 20
1948.148265200025
 30
0.0
 10
726.8988245540183
 20
1948.005392414349
 30
0.0
 10
728.1639074431905
 20
1947.999999999912
 30
0.0
  0
SPLINE
  5
E1
330
87
100
AcDbEntity
  8
P-SANR-FIXT
100
AcDbSpline
210
0.0
220
0.0
230
1.0
 70
     8
 71
     3
 72
     9
 73
     5
 74
     0
 42
0.000000001
 43
0.0000000001
 40
0.0
 40
0.0
 40
0.0
 40
0.0
 40
0.5
 40
1.0
 40
1.0
 40
1.0
 40
1.0
 10
728.1639074431905
 20
1947.999999999912
 30
0.0
 10
729.4289903323623
 20
1948.005392414349
 30
0.0
 10
731.944998804783
 20
1948.148265200025
 30
0.0
 10
734.4326926653579
 20
1948.555313899306
 30
0.0
 10
735.6694609426839
 20
1948.824882227347
 30
0.0
  0
SPLINE
  5
E2
330
87
100
AcDbEntity
  8
P-SANR-FIXT
100
AcDbSpline
210
0.0
220
0.0
230
1.0
 70
     8
 71
     3
 72
     9
 73
     5
 74
     0
 42
0.000000001
 43
0.0000000001
 40
0.0
 40
0.0
 40
0.0
 40
0.0
 40
0.5
 40
1.0
 40
1.0
 40
1.0
 40
1.0
 10
735.6694609426839
 20
1957.175117772607
 30
0.0
 10
734.4326926653593
 20
1957.44468610066
 30
0.0
 10
731.944998804786
 20
1957.851734799941
 30
0.0
 10
729.4289903323645
 20
1957.994607585572
 30
0.0
 10
728.1639074431914
 20
1957.999999999976
 30
0.0
  0
SPLINE
  5
E3
330
87
100
AcDbEntity
  8
P-SANR-FIXT
100
AcDbSpline
210
0.0
220
0.0
230
1.0
 70
     8
 71
     3
 72
     9
 73
     5
 74
     0
 42
0.000000001
 43
0.0000000001
 40
0.0
 40
0.0
 40
0.0
 40
0.0
 40
0.5
 40
1.0
 40
1.0
 40
1.0
 40
1.0
 10
728.1639074431914
 20
1957.999999999976
 30
0.0
 10
726.8988245540178
 20
1957.994607585573
 30
0.0
 10
724.3828160815949
 20
1957.851734799941
 30
0.0
 10
721.8951222210201
 20
1957.44468610066
 30
0.0
 10
720.6583539436951
 20
1957.175117772608
 30
0.0
  0
SPLINE
  5
E4
330
87
100
AcDbEntity
  8
P-SANR-FIXT
100
AcDbSpline
210
0.0
220
0.0
230
1.0
 70
     8
 71
     3
 72
    10
 73
     6
 74
     0
 42
0.000000001
 43
0.0000000001
 40
0.0
 40
0.0
 40
0.0
 40
0.0
 40
0.4
 40
0.7
 40
1.0
 40
1.0
 40
1.0
 40
1.0
 10
735.6694609426839
 20
1948.824882227347
 30
0.0
 10
736.4964934001079
 20
1949.001811428183
 30
0.0
 10
737.9648504490655
 20
1949.193384515252
 30
0.0
 10
739.7626515733981
 20
1949.146003547594
 30
0.0
 10
740.5561157737279
 20
1948.95737893211
 30
0.0
 10
740.8656133653906
 20
1948.824882227351
 30
0.0
  0
SPLINE
  5
E5
330
87
100
AcDbEntity
  8
P-SANR-FIXT
100
AcDbSpline
210
0.0
220
0.0
230
1.0
 70
     8
 71
     3
 72
    10
 73
     6
 74
     0
 42
0.000000001
 43
0.0000000001
 40
0.0
 40
0.0
 40
0.0
 40
0.0
 40
0.4
 40
0.7
 40
1.0
 40
1.0
 40
1.0
 40
1.0
 10
740.8656133653906
 20
1957.175117772604
 30
0.0
 10
740.4529499098402
 20
1956.998455499592
 30
0.0
 10
739.4544503482023
 20
1956.806738795107
 30
0.0
 10
737.5425504305771
 20
1956.853771827617
 30
0.0
 10
736.289735285752
 20
1957.04242087198
 30
0.0
 10
735.6694609426839
 20
1957.175117772607
 30
0.0
  0
SPLINE
  5
E6
330
87
100
AcDbEntity
  8
P-SANR-FIXT
100
AcDbSpline
210
0.0
220
0.0
230
1.0
 70
     8
 71
     3
 72
     9
 73
     5
 74
     0
 42
0.000000001
 43
0.0000000001
 40
0.0
 40
0.0
 40
0.0
 40
0.0
 40
0.5
 40
1.0
 40
1.0
 40
1.0
 40
1.0
 10
748.3711668648851
 20
1957.175117772588
 30
0.0
 10
747.7527827262197
 20
1957.444686100641
 30
0.0
 10
746.5089357959266
 20
1957.851734799925
 30
0.0
 10
745.2509315597093
 20
1957.994607585566
 30
0.0
 10
744.6183901151198
 20
1957.999999999976
 30
0.0
  0
SPLINE
  5
E7
330
87
100
AcDbEntity
  8
P-SANR-FIXT
100
AcDbSpline
210
0.0
220
0.0
230
1.0
 70
     8
 71
     3
 72
     9
 73
     5
 74
     0
 42
0.000000001
 43
0.0000000001
 40
0.0
 40
0.0
 40
0.0
 40
0.0
 40
0.5
 40
1.0
 40
1.0
 40
1.0
 40
1.0
 10
744.6183901151198
 20
1957.999999999976
 30
0.0
 10
743.9858486705364
 20
1957.994607585566
 30
0.0
 10
742.7278444343316
 20
1957.851734799928
 30
0.0
 10
741.4839975040503
 20
1957.444686100652
 30
0.0
 10
740.8656133653906
 20
1957.175117772604
 30
0.0
  0
SPLINE
  5
E8
330
87
100
AcDbEntity
  8
P-SANR-FIXT
100
AcDbSpline
210
0.0
220
0.0
230
1.0
 70
     8
 71
     3
 72
     9
 73
     5
 74
     0
 42
0.000000001
 43
0.0000000001
 40
0.0
 40
0.0
 40
0.0
 40
0.0
 40
0.5
 40
1.0
 40
1.0
 40
1.0
 40
1.0
 10
740.8656133653906
 20
1948.824882227351
 30
0.0
 10
741.4839975040508
 20
1948.555313899314
 30
0.0
 10
742.7278444343325
 20
1948.148265200037
 30
0.0
 10
743.9858486705367
 20
1948.005392414355
 30
0.0
 10
744.6183901151194
 20
1947.999999999912
 30
0.0
  0
SPLINE
  5
E9
330
87
100
AcDbEntity
  8
P-SANR-FIXT
100
AcDbSpline
210
0.0
220
0.0
230
1.0
 70
     8
 71
     3
 72
     9
 73
     5
 74
     0
 42
0.000000001
 43
0.0000000001
 40
0.0
 40
0.0
 40
0.0
 40
0.0
 40
0.5
 40
1.0
 40
1.0
 40
1.0
 40
1.0
 10
744.6183901151194
 20
1947.999999999912
 30
0.0
 10
745.2509315597085
 20
1948.005392414355
 30
0.0
 10
746.5089357959251
 20
1948.14826520004
 30
0.0
 10
747.7527827262189
 20
1948.555313899325
 30
0.0
 10
748.3711668648851
 20
1948.824882227367
 30
0.0
  0
LINE
  5
EA
330
87
100
AcDbEntity
  8
P-SANR-FIXT
100
AcDbLine
 10
749.1750144421798
 20
2043.161113167265
 30
0.0
 11
749.1750144421798
 21
2050.838886832847
 31
0.0
  0
LINE
  5
EB
330
87
100
AcDbEntity
  8
P-SANR-FIXT
100
AcDbLine
 10
707.1528004442021
 20
2050.838886832871
 30
0.0
 11
707.1528004442021
 21
2043.161113167241
 31
0.0
  0
LINE
  5
EC
330
87
100
AcDbEntity
  8
P-SANR-FIXT
100
AcDbLine
 10
707.1528004442021
 20
2043.161113167241
 30
0.0
 11
707.3410994617671
 21
2043.052398678762
 31
0.0
  0
LINE
  5
ED
330
87
100
AcDbEntity
  8
P-SANR-FIXT
100
AcDbLine
 10
707.3597508135097
 20
2043.041630315812
 30
0.0
 11
709.1639074431753
 21
2042.000000000015
 31
0.0
  0
LINE
  5
EE
330
87
100
AcDbEntity
  8
P-SANR-FIXT
100
AcDbLine
 10
747.1639074431662
 20
2042.000000000015
 30
0.0
 11
748.9680640728725
 21
2043.041630315836
 31
0.0
  0
LINE
  5
EF
330
87
100
AcDbEntity
  8
P-SANR-FIXT
100
AcDbLine
 10
748.986715424615
 20
2043.052398678785
 30
0.0
 11
749.1750144421798
 21
2043.161113167265
 31
0.0
  0
LINE
  5
F0
330
87
100
AcDbEntity
  8
P-SANR-FIXT
100
AcDbLine
 10
709.1639074431429
 20
2052.000000000078
 30
0.0
 11
707.3597508135097
 21
2050.958369684299
 31
0.0
  0
LINE
  5
F1
330
87
100
AcDbEntity
  8
P-SANR-FIXT
100
AcDbLine
 10
707.3410994617671
 20
2050.94760132135
 30
0.0
 11
707.1528004442022
 21
2050.838886832871
 31
0.0
  0
LINE
  5
F2
330
87
100
AcDbEntity
  8
P-SANR-FIXT
100
AcDbLine
 10
749.1750144421798
 20
2050.838886832847
 30
0.0
 11
748.986715424615
 21
2050.947601321326
 31
0.0
  0
LINE
  5
F3
330
87
100
AcDbEntity
  8
P-SANR-FIXT
100
AcDbLine
 10
748.9680640728725
 20
2050.958369684276
 30
0.0
 11
747.1639074431984
 21
2052.000000000078
 31
0.0
  0
LINE
  5
F4
330
87
100
AcDbEntity
  8
P-SANR-FIXT
100
AcDbLine
 10
709.1639074431415
 20
2052.000000000077
 30
0.0
 11
709.2495923943873
 21
2052.000000000077
 31
0.0
  0
LINE
  5
F5
330
87
100
AcDbEntity
  8
P-SANR-FIXT
100
AcDbLine
 10
709.3089064618903
 20
2052.000000000077
 30
0.0
 11
709.4926456481894
 21
2052.000000000077
 31
0.0
  0
LINE
  5
F6
330
87
100
AcDbEntity
  8
P-SANR-FIXT
100
AcDbLine
 10
709.6323674238008
 20
2052.000000000077
 30
0.0
 11
709.9020790489379
 21
2052.000000000077
 31
0.0
  0
LINE
  5
F7
330
87
100
AcDbEntity
  8
P-SANR-FIXT
100
AcDbLine
 10
710.1158525656602
 20
2052.000000000077
 30
0.0
 11
710.5935301643782
 21
2052.000000000077
 31
0.0
  0
LINE
  5
F8
330
87
100
AcDbEntity
  8
P-SANR-FIXT
100
AcDbLine
 10
710.7543958763556
 20
2052.000000000077
 30
0.0
 11
711.3921001155948
 21
2052.000000000077
 31
0.0
  0
LINE
  5
F9
330
87
100
AcDbEntity
  8
P-SANR-FIXT
100
AcDbLine
 10
711.7094247712407
 20
2052.000000000077
 30
0.0
 11
712.3542184189163
 21
2052.000000000077
 31
0.0
  0
LINE
  5
FA
330
87
100
AcDbEntity
  8
P-SANR-FIXT
100
AcDbLine
 10
712.6000186016555
 20
2052.000000000077
 30
0.0
 11
713.4702232109572
 21
2052.000000000077
 31
0.0
  0
LINE
  5
FB
330
87
100
AcDbEntity
  8
P-SANR-FIXT
100
AcDbLine
 10
713.6090630238872
 20
2052.000000000077
 30
0.0
 11
715.9509428591069
 21
2052.000000000077
 31
0.0
  0
LINE
  5
FC
330
87
100
AcDbEntity
  8
P-SANR-FIXT
100
AcDbLine
 10
716.105675058074
 20
2052.000000000077
 30
0.0
 11
718.663907443155
 21
2052.000000000077
 31
0.0
  0
LINE
  5
FD
330
87
100
AcDbEntity
  8
P-SANR-FIXT
100
AcDbLine
 10
719.1995302830324
 20
2052.000000000077
 30
0.0
 11
720.8860002307154
 21
2052.000000000077
 31
0.0
  0
LINE
  5
FE
330
87
100
AcDbEntity
  8
P-SANR-FIXT
100
AcDbLine
 10
721.6655247199716
 20
2052.000000000077
 30
0.0
 11
722.643440966593
 21
2052.000000000077
 31
0.0
  0
LINE
  5
FF
330
87
100
AcDbEntity
  8
P-SANR-FIXT
100
AcDbLine
 10
722.78826307871
 20
2052.000000000077
 30
0.0
 11
724.4543382858093
 21
2052.000000000077
 31
0.0
  0
LINE
  5
100
330
87
100
AcDbEntity
  8
P-SANR-FIXT
100
AcDbLine
 10
724.8645920674923
 20
2052.000000000077
 30
0.0
 11
726.3006308842276
 21
2052.000000000077
 31
0.0
  0
LINE
  5
101
330
87
100
AcDbEntity
  8
P-SANR-FIXT
100
AcDbLine
 10
726.507948330961
 20
2052.000000000077
 30
0.0
 11
728.163907443169
 21
2052.000000000077
 31
0.0
  0
LINE
  5
102
330
87
100
AcDbEntity
  8
P-SANR-FIXT
100
AcDbLine
 10
728.163907443169
 20
2052.000000000077
 30
0.0
 11
729.8198665553768
 21
2052.000000000077
 31
0.0
  0
LINE
  5
103
330
87
100
AcDbEntity
  8
P-SANR-FIXT
100
AcDbLine
 10
730.0271840022616
 20
2052.000000000077
 30
0.0
 11
731.4632228188454
 21
2052.000000000077
 31
0.0
  0
LINE
  5
104
330
87
100
AcDbEntity
  8
P-SANR-FIXT
100
AcDbLine
 10
731.8734766006798
 20
2052.000000000077
 30
0.0
 11
733.081469300124
 21
2052.000000000077
 31
0.0
  0
LINE
  5
105
330
87
100
AcDbEntity
  8
P-SANR-FIXT
100
AcDbLine
 10
733.684373919896
 20
2052.000000000077
 30
0.0
 11
734.6622901663661
 21
2052.000000000077
 31
0.0
  0
LINE
  5
106
330
87
100
AcDbEntity
  8
P-SANR-FIXT
100
AcDbLine
 10
735.4418146557733
 20
2052.000000000077
 30
0.0
 11
737.1282846034552
 21
2052.000000000077
 31
0.0
  0
LINE
  5
107
330
87
100
AcDbEntity
  8
P-SANR-FIXT
100
AcDbLine
 10
737.6639074431828
 20
2052.000000000077
 30
0.0
 11
738.7270090863551
 21
2052.000000000077
 31
0.0
  0
LINE
  5
108
330
87
100
AcDbEntity
  8
P-SANR-FIXT
100
AcDbLine
 10
739.0618597338548
 20
2052.000000000077
 30
0.0
 11
740.2221398284106
 21
2052.000000000077
 31
0.0
  0
LINE
  5
109
330
87
100
AcDbEntity
  8
P-SANR-FIXT
100
AcDbLine
 10
740.3768720272311
 20
2052.000000000077
 30
0.0
 11
742.7187518624508
 21
2052.000000000077
 31
0.0
  0
LINE
  5
10A
330
87
100
AcDbEntity
  8
P-SANR-FIXT
100
AcDbLine
 10
742.8575916755378
 20
2052.000000000077
 30
0.0
 11
743.7277962846827
 21
2052.000000000077
 31
0.0
  0
LINE
  5
10B
330
87
100
AcDbEntity
  8
P-SANR-FIXT
100
AcDbLine
 10
743.9735964675771
 20
2052.000000000077
 30
0.0
 11
744.6183901150974
 21
2052.000000000077
 31
0.0
  0
LINE
  5
10C
330
87
100
AcDbEntity
  8
P-SANR-FIXT
100
AcDbLine
 10
744.9357147708965
 20
2052.000000000077
 30
0.0
 11
745.5734190088748
 21
2052.000000000077
 31
0.0
  0
LINE
  5
10D
330
87
100
AcDbEntity
  8
P-SANR-FIXT
100
AcDbLine
 10
745.7342847221095
 20
2052.000000000077
 30
0.0
 11
746.2119623195202
 21
2052.000000000077
 31
0.0
  0
LINE
  5
10E
330
87
100
AcDbEntity
  8
P-SANR-FIXT
100
AcDbLine
 10
746.4257358380702
 20
2052.000000000077
 30
0.0
 11
746.6954474613593
 21
2052.000000000077
 31
0.0
  0
LINE
  5
10F
330
87
100
AcDbEntity
  8
P-SANR-FIXT
100
AcDbLine
 10
746.8351692385371
 20
2052.000000000077
 30
0.0
 11
747.0189084233303
 21
2052.000000000077
 31
0.0
  0
LINE
  5
110
330
87
100
AcDbEntity
  8
P-SANR-FIXT
100
AcDbLine
 10
747.0782224920602
 20
2052.000000000077
 30
0.0
 11
747.1639074431969
 21
2052.000000000077
 31
0.0
  0
LINE
  5
111
330
87
100
AcDbEntity
  8
P-SANR-FIXT
100
AcDbLine
 10
747.1639074431648
 20
2042.000000000014
 30
0.0
 11
744.6183901150695
 21
2042.000000000014
 31
0.0
  0
LINE
  5
112
330
87
100
AcDbEntity
  8
P-SANR-FIXT
100
AcDbLine
 10
744.6183901150696
 20
2042.000000000014
 30
0.0
 11
728.1639074431691
 21
2042.000000000014
 31
0.0
  0
LINE
  5
113
330
87
100
AcDbEntity
  8
P-SANR-FIXT
100
AcDbLine
 10
728.1639074431691
 20
2042.000000000014
 30
0.0
 11
711.7094247712688
 21
2042.000000000014
 31
0.0
  0
LINE
  5
114
330
87
100
AcDbEntity
  8
P-SANR-FIXT
100
AcDbLine
 10
711.7094247712688
 20
2042.000000000014
 30
0.0
 11
709.1639074431737
 21
2042.000000000014
 31
0.0
  0
SPLINE
  5
115
330
87
100
AcDbEntity
  8
P-SANR-FIXT
100
AcDbSpline
210
0.0
220
0.0
230
1.0
 70
     8
 71
     3
 72
     9
 73
     5
 74
     0
 42
0.000000001
 43
0.0000000001
 40
0.0
 40
0.0
 40
0.0
 40
0.0
 40
0.5
 40
1.0
 40
1.0
 40
1.0
 40
1.0
 10
748.3711668648851
 20
2042.824882227425
 30
0.0
 10
748.6297492934283
 20
2042.935887419113
 30
0.0
 10
749.0337462779407
 20
2043.102931100774
 30
0.0
 10
749.1750144421748
 20
2043.160041379006
 30
0.0
 10
749.1750144421786
 20
2043.161113167264
 30
0.0
  0
SPLINE
  5
116
330
87
100
AcDbEntity
  8
P-SANR-FIXT
100
AcDbSpline
210
0.0
220
0.0
230
1.0
 70
     8
 71
     3
 72
     9
 73
     5
 74
     0
 42
0.000000001
 43
0.0000000001
 40
0.0
 40
0.0
 40
0.0
 40
0.0
 40
0.5
 40
1.0
 40
1.0
 40
1.0
 40
1.0
 10
749.1750144421786
 20
2050.838886832847
 30
0.0
 10
749.1750144421748
 20
2050.839958621105
 30
0.0
 10
749.0337462779407
 20
2050.897068899336
 30
0.0
 10
748.6297492934283
 20
2051.064112580998
 30
0.0
 10
748.3711668648851
 20
2051.175117772686
 30
0.0
  0
SPLINE
  5
117
330
87
100
AcDbEntity
  8
P-SANR-FIXT
100
AcDbSpline
210
0.0
220
0.0
230
1.0
 70
     8
 71
     3
 72
     9
 73
     5
 74
     0
 42
0.000000001
 43
0.0000000001
 40
0.0
 40
0.0
 40
0.0
 40
0.0
 40
0.5
 40
1.0
 40
1.0
 40
1.0
 40
1.0
 10
707.1528004442008
 20
2043.16111316724
 30
0.0
 10
707.1528004442045
 20
2043.160041378982
 30
0.0
 10
707.2940686084386
 20
2043.102931100751
 30
0.0
 10
707.6980655929511
 20
2042.935887419089
 30
0.0
 10
707.956648021494
 20
2042.824882227401
 30
0.0
  0
SPLINE
  5
118
330
87
100
AcDbEntity
  8
P-SANR-FIXT
100
AcDbSpline
210
0.0
220
0.0
230
1.0
 70
     8
 71
     3
 72
     9
 73
     5
 74
     0
 42
0.000000001
 43
0.0000000001
 40
0.0
 40
0.0
 40
0.0
 40
0.0
 40
0.5
 40
1.0
 40
1.0
 40
1.0
 40
1.0
 10
707.956648021494
 20
2051.175117772709
 30
0.0
 10
707.6980655929511
 20
2051.064112581021
 30
0.0
 10
707.2940686084386
 20
2050.897068899359
 30
0.0
 10
707.1528004442045
 20
2050.839958621128
 30
0.0
 10
707.1528004442008
 20
2050.83888683287
 30
0.0
  0
SPLINE
  5
119
330
87
100
AcDbEntity
  8
P-SANR-FIXT
100
AcDbSpline
210
0.0
220
0.0
230
1.0
 70
     8
 71
     3
 72
     9
 73
     5
 74
     0
 42
0.000000001
 43
0.0000000001
 40
0.0
 40
0.0
 40
0.0
 40
0.0
 40
0.5
 40
1.0
 40
1.0
 40
1.0
 40
1.0
 10
707.9566480214942
 20
2042.824882227401
 30
0.0
 10
708.5750321601588
 20
2042.555313899349
 30
0.0
 10
709.8188790904504
 20
2042.148265200065
 30
0.0
 10
711.0768833266661
 20
2042.005392414424
 30
0.0
 10
711.7094247712548
 20
2042.000000000014
 30
0.0
  0
SPLINE
  5
11A
330
87
100
AcDbEntity
  8
P-SANR-FIXT
100
AcDbSpline
210
0.0
220
0.0
230
1.0
 70
     8
 71
     3
 72
     9
 73
     5
 74
     0
 42
0.000000001
 43
0.0000000001
 40
0.0
 40
0.0
 40
0.0
 40
0.0
 40
0.5
 40
1.0
 40
1.0
 40
1.0
 40
1.0
 10
711.7094247712548
 20
2042.000000000014
 30
0.0
 10
712.341966215839
 20
2042.005392414424
 30
0.0
 10
713.5999704520453
 20
2042.148265200063
 30
0.0
 10
714.8438173823279
 20
2042.555313899341
 30
0.0
 10
715.4622015209885
 20
2042.82488222739
 30
0.0
  0
SPLINE
  5
11B
330
87
100
AcDbEntity
  8
P-SANR-FIXT
100
AcDbSpline
210
0.0
220
0.0
230
1.0
 70
     8
 71
     3
 72
     9
 73
     5
 74
     0
 42
0.000000001
 43
0.0000000001
 40
0.0
 40
0.0
 40
0.0
 40
0.0
 40
0.5
 40
1.0
 40
1.0
 40
1.0
 40
1.0
 10
715.4622015209885
 20
2051.175117772721
 30
0.0
 10
714.8438173823283
 20
2051.444686100772
 30
0.0
 10
713.5999704520457
 20
2051.85173480005
 30
0.0
 10
712.3419662158392
 20
2051.994607585677
 30
0.0
 10
711.7094247712548
 20
2052.000000000077
 30
0.0
  0
SPLINE
  5
11C
330
87
100
AcDbEntity
  8
P-SANR-FIXT
100
AcDbSpline
210
0.0
220
0.0
230
1.0
 70
     8
 71
     3
 72
     9
 73
     5
 74
     0
 42
0.000000001
 43
0.0000000001
 40
0.080026585468371
 40
0.080026585468371
 40
0.080026585468371
 40
0.080026585468371
 40
0.5
 40
1.0
 40
1.0
 40
1.0
 40
1.0
 10
711.4059759803542
 20
2051.992335231748
 30
0.0
 10
710.8756264265961
 20
2051.970048493544
 30
0.0
 10
709.7193382677734
 20
2051.819160082525
 30
0.0
 10
708.5750321601587
 20
2051.444686100764
 30
0.0
 10
707.956648021494
 20
2051.175117772709
 30
0.0
  0
SPLINE
  5
11D
330
87
100
AcDbEntity
  8
P-SANR-FIXT
100
AcDbSpline
210
0.0
220
0.0
230
1.0
 70
     8
 71
     3
 72
    10
 73
     6
 74
     0
 42
0.000000001
 43
0.0000000001
 40
0.0
 40
0.0
 40
0.0
 40
0.0
 40
0.4
 40
0.7
 40
1.0
 40
1.0
 40
1.0
 40
1.0
 10
715.4622015209885
 20
2042.82488222739
 30
0.0
 10
715.8757177497005
 20
2043.001811428226
 30
0.0
 10
716.8745590373418
 20
2043.193384515294
 30
0.0
 10
718.7872123012951
 20
2043.146003547634
 30
0.0
 10
720.0393587603697
 20
2042.957378932149
 30
0.0
 10
720.6583539436951
 20
2042.824882227389
 30
0.0
  0
SPLINE
  5
11E
330
87
100
AcDbEntity
  8
P-SANR-FIXT
100
AcDbSpline
210
0.0
220
0.0
230
1.0
 70
     8
 71
     3
 72
    10
 73
     6
 74
     0
 42
0.000000001
 43
0.0000000001
 40
0.0
 40
0.0
 40
0.0
 40
0.0
 40
0.4
 40
0.7
 40
1.0
 40
1.0
 40
1.0
 40
1.0
 10
720.6583539436951
 20
2051.175117772721
 30
0.0
 10
719.8330270325945
 20
2050.998455499709
 30
0.0
 10
718.3643325532203
 20
2050.806738795223
 30
0.0
 10
716.5667227742063
 20
2050.853771827731
 30
0.0
 10
715.7723386925225
 20
2051.042420872094
 30
0.0
 10
715.4622015209885
 20
2051.175117772721
 30
0.0
  0
SPLINE
  5
11F
330
87
100
AcDbEntity
  8
P-SANR-FIXT
100
AcDbSpline
210
0.0
220
0.0
230
1.0
 70
     8
 71
     3
 72
     9
 73
     5
 74
     0
 42
0.000000001
 43
0.0000000001
 40
0.0
 40
0.0
 40
0.0
 40
0.0
 40
0.5
 40
1.0
 40
1.0
 40
1.0
 40
1.0
 10
720.6583539436951
 20
2042.824882227389
 30
0.0
 10
721.8951222210169
 20
2042.55531389934
 30
0.0
 10
724.3828160815844
 20
2042.148265200061
 30
0.0
 10
726.8988245539995
 20
2042.005392414423
 30
0.0
 10
728.1639074431691
 20
2042.000000000014
 30
0.0
  0
SPLINE
  5
120
330
87
100
AcDbEntity
  8
P-SANR-FIXT
100
AcDbSpline
210
0.0
220
0.0
230
1.0
 70
     8
 71
     3
 72
     9
 73
     5
 74
     0
 42
0.000000001
 43
0.0000000001
 40
0.0
 40
0.0
 40
0.0
 40
0.0
 40
0.5
 40
1.0
 40
1.0
 40
1.0
 40
1.0
 10
728.1639074431691
 20
2042.000000000014
 30
0.0
 10
729.4289903323457
 20
2042.005392414423
 30
0.0
 10
731.9449988047747
 20
2042.148265200063
 30
0.0
 10
734.4326926653556
 20
2042.555313899346
 30
0.0
 10
735.6694609426839
 20
2042.824882227398
 30
0.0
  0
SPLINE
  5
121
330
87
100
AcDbEntity
  8
P-SANR-FIXT
100
AcDbSpline
210
0.0
220
0.0
230
1.0
 70
     8
 71
     3
 72
     9
 73
     5
 74
     0
 42
0.000000001
 43
0.0000000001
 40
0.0
 40
0.0
 40
0.0
 40
0.0
 40
0.5
 40
1.0
 40
1.0
 40
1.0
 40
1.0
 10
735.6694609426839
 20
2051.175117772713
 30
0.0
 10
734.4326926653558
 20
2051.444686100768
 30
0.0
 10
731.9449988047754
 20
2051.851734800051
 30
0.0
 10
729.428990332346
 20
2051.994607585678
 30
0.0
 10
728.1639074431691
 20
2052.000000000077
 30
0.0
  0
SPLINE
  5
122
330
87
100
AcDbEntity
  8
P-SANR-FIXT
100
AcDbSpline
210
0.0
220
0.0
230
1.0
 70
     8
 71
     3
 72
     9
 73
     5
 74
     0
 42
0.000000001
 43
0.0000000001
 40
0.0
 40
0.0
 40
0.0
 40
0.0
 40
0.5
 40
1.0
 40
1.0
 40
1.0
 40
1.0
 10
728.1639074431691
 20
2052.000000000077
 30
0.0
 10
726.8988245539993
 20
2051.994607585678
 30
0.0
 10
724.3828160815836
 20
2051.851734800052
 30
0.0
 10
721.8951222210165
 20
2051.444686100774
 30
0.0
 10
720.6583539436951
 20
2051.175117772721
 30
0.0
  0
SPLINE
  5
123
330
87
100
AcDbEntity
  8
P-SANR-FIXT
100
AcDbSpline
210
0.0
220
0.0
230
1.0
 70
     8
 71
     3
 72
    10
 73
     6
 74
     0
 42
0.000000001
 43
0.0000000001
 40
0.0
 40
0.0
 40
0.0
 40
0.0
 40
0.4
 40
0.7
 40
1.0
 40
1.0
 40
1.0
 40
1.0
 10
735.6694609426839
 20
2042.824882227398
 30
0.0
 10
736.4964934001079
 20
2043.001811428235
 30
0.0
 10
737.9648504490655
 20
2043.193384515304
 30
0.0
 10
739.7626515733981
 20
2043.146003547647
 30
0.0
 10
740.5561157737279
 20
2042.957378932163
 30
0.0
 10
740.8656133653906
 20
2042.824882227405
 30
0.0
  0
SPLINE
  5
124
330
87
100
AcDbEntity
  8
P-SANR-FIXT
100
AcDbSpline
210
0.0
220
0.0
230
1.0
 70
     8
 71
     3
 72
    10
 73
     6
 74
     0
 42
0.000000001
 43
0.0000000001
 40
0.0
 40
0.0
 40
0.0
 40
0.0
 40
0.4
 40
0.7
 40
1.0
 40
1.0
 40
1.0
 40
1.0
 10
740.8656133653906
 20
2051.175117772706
 30
0.0
 10
740.4529499098402
 20
2050.998455499694
 30
0.0
 10
739.4544503482022
 20
2050.80673879521
 30
0.0
 10
737.5425504305769
 20
2050.853771827721
 30
0.0
 10
736.2897352857519
 20
2051.042420872085
 30
0.0
 10
735.6694609426839
 20
2051.175117772713
 30
0.0
  0
SPLINE
  5
125
330
87
100
AcDbEntity
  8
P-SANR-FIXT
100
AcDbSpline
210
0.0
220
0.0
230
1.0
 70
     8
 71
     3
 72
     9
 73
     5
 74
     0
 42
0.000000001
 43
0.0000000001
 40
0.0
 40
0.0
 40
0.0
 40
0.0
 40
0.5
 40
1.0
 40
1.0
 40
1.0
 40
1.0
 10
748.3711668648851
 20
2051.175117772686
 30
0.0
 10
747.7527827262187
 20
2051.444686100738
 30
0.0
 10
746.5089357959238
 20
2051.851734800024
 30
0.0
 10
745.2509315597048
 20
2051.994607585667
 30
0.0
 10
744.6183901151142
 20
2052.000000000077
 30
0.0
  0
SPLINE
  5
126
330
87
100
AcDbEntity
  8
P-SANR-FIXT
100
AcDbSpline
210
0.0
220
0.0
230
1.0
 70
     8
 71
     3
 72
     9
 73
     5
 74
     0
 42
0.000000001
 43
0.0000000001
 40
0.0
 40
0.0
 40
0.0
 40
0.0
 40
0.5
 40
1.0
 40
1.0
 40
1.0
 40
1.0
 10
744.6183901151142
 20
2052.000000000077
 30
0.0
 10
743.9858486705317
 20
2051.994607585667
 30
0.0
 10
742.7278444343288
 20
2051.851734800028
 30
0.0
 10
741.4839975040494
 20
2051.444686100753
 30
0.0
 10
740.8656133653907
 20
2051.175117772706
 30
0.0
  0
SPLINE
  5
127
330
87
100
AcDbEntity
  8
P-SANR-FIXT
100
AcDbSpline
210
0.0
220
0.0
230
1.0
 70
     8
 71
     3
 72
     9
 73
     5
 74
     0
 42
0.000000001
 43
0.0000000001
 40
0.0
 40
0.0
 40
0.0
 40
0.0
 40
0.5
 40
1.0
 40
1.0
 40
1.0
 40
1.0
 10
740.8656133653906
 20
2042.824882227405
 30
0.0
 10
741.4839975040496
 20
2042.555313899361
 30
0.0
 10
742.7278444343292
 20
2042.148265200086
 30
0.0
 10
743.985848670532
 20
2042.005392414434
 30
0.0
 10
744.6183901151142
 20
2042.000000000014
 30
0.0
  0
SPLINE
  5
128
330
87
100
AcDbEntity
  8
P-SANR-FIXT
100
AcDbSpline
210
0.0
220
0.0
230
1.0
 70
     8
 71
     3
 72
     9
 73
     5
 74
     0
 42
0.000000001
 43
0.0000000001
 40
0.0
 40
0.0
 40
0.0
 40
0.0
 40
0.5
 40
1.0
 40
1.0
 40
1.0
 40
1.0
 10
744.6183901151142
 20
2042.000000000014
 30
0.0
 10
745.2509315597044
 20
2042.005392414434
 30
0.0
 10
746.5089357959234
 20
2042.14826520009
 30
0.0
 10
747.7527827262185
 20
2042.555313899375
 30
0.0
 10
748.3711668648851
 20
2042.824882227425
 30
0.0
  0
LINE
  5
129
330
87
100
AcDbEntity
  8
P-SANR-FIXT
100
AcDbLine
 10
713.0139074432456
 20
2058.500000000015
 30
0.0
 11
709.6639074432933
 21
2056.565876598257
 31
0.0
  0
LINE
  5
12A
330
87
100
AcDbEntity
  8
P-SANR-FIXT
100
AcDbLine
 10
746.6639074431982
 20
2056.565876598257
 30
0.0
 11
743.3139074432457
 21
2058.500000000015
 31
0.0
  0
LWPOLYLINE
  5
12B
330
87
100
AcDbEntity
  8
P-SANR-FIXT
100
AcDbPolyline
 90
       28
 70
   128
 43
0.0
 10
746.6639074431982
 20
2056.565876598257
 10
746.6981392758147
 20
2056.545189203212
 10
746.7315164514623
 20
2056.523149447682
 10
746.7639855737803
 20
2056.499792590575
 10
746.7954946990992
 20
2056.475155997878
 10
746.82599341954
 20
2056.449279082886
 10
746.8554329436563
 20
2056.422203243142
 10
746.8837661744894
 20
2056.393971794213
 10
746.910947784914
 20
2056.364629900397
 10
746.9369342901521
 20
2056.334224502462
 10
746.9616841173384
 20
2056.30280424256
 10
746.9851576720298
 20
2056.270419386405
 10
747.0073174015453
 20
2056.237121742856
 10
747.0281278550455
 20
2056.202964581043
 10
747.0475557402441
 20
2056.168002545136
 10
747.0655699766687
 20
2056.132291566935
 10
747.0821417453844
 20
2056.095888776388
 10
747.0972445350961
 20
2056.058852410192
 10
747.110854184562
 20
2056.021241718633
 10
747.1229489212462
 20
2055.983116870797
 10
747.1335093961503
 20
2055.944538858305
 10
747.1425187147669
 20
2055.905569397748
 10
747.1499624641084
 20
2055.86627083195
 10
747.1558287357635
 20
2055.826706030233
 10
747.160108144949
 20
2055.786938287839
 10
747.1627938455234
 20
2055.747031224674
 10
747.1638815409384
 20
2055.707048683525
 10
747.1639074431981
 20
2055.699851194473
  0
LWPOLYLINE
  5
12C
330
87
100
AcDbEntity
  8
P-SANR-FIXT
100
AcDbPolyline
 90
       28
 70
   128
 43
0.0
 10
709.1639074432934
 20
2055.699851194473
 10
709.1647073366323
 20
2055.739840528659
 10
709.1671057369907
 20
2055.779765888442
 10
709.1710988074395
 20
2055.819563401762
 10
709.1766801599176
 20
2055.859169401087
 10
709.183840865452
 20
2055.898520525268
 10
709.1925694684412
 20
2055.9375538209
 10
709.2028520049825
 20
2055.976206843037
 10
709.2146720252108
 20
2056.014417755089
 10
709.2280106196154
 20
2056.052125427748
 10
709.2428464492906
 20
2056.089269536781
 10
709.2591557800732
 20
2056.125790659539
 10
709.276912520514
 20
2056.161630370015
 10
709.2960882636157
 20
2056.196731332316
 10
709.31665233228
 20
2056.231037392393
 10
709.3385718283835
 20
2056.264493667868
 10
709.3618116854091
 20
2056.297046635835
 10
709.3863347245424
 20
2056.328644218492
 10
709.4121017141524
 20
2056.359235866444
 10
709.4390714325525
 20
2056.388772639583
 10
709.4672007339461
 20
2056.417207285372
 10
709.4964446174519
 20
2056.444494314444
 10
709.5267562990947
 20
2056.470590073372
 10
709.5580872866498
 20
2056.495452814509
 10
709.5903874572208
 20
2056.519042762774
 10
709.6236051374252
 20
2056.541322179281
 10
709.6576871860605
 20
2056.562255421716
 10
709.6639074432933
 20
2056.565876598257
  0
LINE
  5
12D
330
87
100
AcDbEntity
  8
P-SANR-FIXT
100
AcDbLine
 10
709.1639074432934
 20
2055.699851194473
 30
0.0
 11
709.1639074432934
 21
2052.000000000078
 31
0.0
  0
LINE
  5
12E
330
87
100
AcDbEntity
  8
P-SANR-FIXT
100
AcDbLine
 10
747.1639074431983
 20
2052.000000000079
 30
0.0
 11
747.1639074431981
 21
2055.699851194473
 31
0.0
  0
LINE
  5
12F
330
87
100
AcDbEntity
  8
P-SANR-FIXT
100
AcDbLine
 10
743.3139074432443
 20
2058.500000000014
 30
0.0
 11
713.0139074432443
 21
2058.500000000014
 31
0.0
  0
LINE
  5
130
330
87
100
AcDbEntity
  8
P-SANR-FIXT
100
AcDbLine
 10
709.2553976365199
 20
2052.000000000077
 30
0.0
 11
709.2926316225138
 21
2052.000000000077
 31
0.0
  0
LINE
  5
131
330
87
100
AcDbEntity
  8
P-SANR-FIXT
100
AcDbLine
 10
709.4807435776051
 20
2052.000000000077
 30
0.0
 11
709.6324392846894
 21
2052.000000000077
 31
0.0
  0
LINE
  5
132
330
87
100
AcDbEntity
  8
P-SANR-FIXT
100
AcDbLine
 10
709.901949029257
 20
2052.000000000077
 30
0.0
 11
710.1159847514987
 21
2052.000000000077
 31
0.0
  0
LINE
  5
133
330
87
100
AcDbEntity
  8
P-SANR-FIXT
100
AcDbLine
 10
710.3943953953586
 20
2052.000000000077
 30
0.0
 11
710.6251933038067
 21
2052.000000000077
 31
0.0
  0
LINE
  5
134
330
87
100
AcDbEntity
  8
P-SANR-FIXT
100
AcDbLine
 10
711.4074034206675
 20
2052.000000000077
 30
0.0
 11
711.6924188224535
 21
2052.000000000077
 31
0.0
  0
LINE
  5
135
330
87
100
AcDbEntity
  8
P-SANR-FIXT
100
AcDbLine
 10
712.3291743922314
 20
2052.000000000077
 30
0.0
 11
712.3659848095354
 21
2052.000000000077
 31
0.0
  0
LINE
  5
136
330
87
100
AcDbEntity
  8
P-SANR-FIXT
100
AcDbLine
 10
712.5877049695896
 20
2052.000000000077
 30
0.0
 11
713.476708829389
 21
2052.000000000077
 31
0.0
  0
LINE
  5
137
330
87
100
AcDbEntity
  8
P-SANR-FIXT
100
AcDbLine
 10
713.6025769849823
 20
2052.000000000077
 30
0.0
 11
715.9447528435994
 21
2052.000000000077
 31
0.0
  0
LINE
  5
138
330
87
100
AcDbEntity
  8
P-SANR-FIXT
100
AcDbLine
 10
716.1104350441651
 20
2052.000000000077
 30
0.0
 11
717.2564591414673
 21
2052.000000000077
 31
0.0
  0
LINE
  5
139
330
87
100
AcDbEntity
  8
P-SANR-FIXT
100
AcDbLine
 10
717.6080730158982
 20
2052.000000000077
 30
0.0
 11
718.6534417288736
 21
2052.000000000077
 31
0.0
  0
LINE
  5
13A
330
87
100
AcDbEntity
  8
P-SANR-FIXT
100
AcDbLine
 10
720.1245059773917
 20
2052.000000000077
 30
0.0
 11
720.8929222283257
 21
2052.000000000077
 31
0.0
  0
LINE
  5
13B
330
87
100
AcDbEntity
  8
P-SANR-FIXT
100
AcDbLine
 10
721.6578836345075
 20
2052.000000000077
 30
0.0
 11
722.7909060533838
 21
2052.000000000078
 31
0.0
  0
LINE
  5
13C
330
87
100
AcDbEntity
  8
P-SANR-FIXT
100
AcDbLine
 10
723.2413145538531
 20
2052.000000000078
 30
0.0
 11
724.4571913249471
 21
2052.000000000078
 31
0.0
  0
LINE
  5
13D
330
87
100
AcDbEntity
  8
P-SANR-FIXT
100
AcDbLine
 10
724.8621381897796
 20
2052.000000000078
 30
0.0
 11
726.3015817769873
 21
2052.000000000078
 31
0.0
  0
LINE
  5
13E
330
87
100
AcDbEntity
  8
P-SANR-FIXT
100
AcDbLine
 10
726.5073910422553
 20
2052.000000000078
 30
0.0
 11
729.8204238440828
 21
2052.000000000078
 31
0.0
  0
LINE
  5
13F
330
87
100
AcDbEntity
  8
P-SANR-FIXT
100
AcDbLine
 10
730.0262331095012
 20
2052.000000000078
 30
0.0
 11
731.4656766965588
 21
2052.000000000078
 31
0.0
  0
LINE
  5
140
330
87
100
AcDbEntity
  8
P-SANR-FIXT
100
AcDbLine
 10
731.8706235615414
 20
2052.000000000078
 30
0.0
 11
734.6699312518305
 21
2052.000000000078
 31
0.0
  0
LINE
  5
141
330
87
100
AcDbEntity
  8
P-SANR-FIXT
100
AcDbLine
 10
735.4348926581628
 20
2052.000000000078
 30
0.0
 11
736.2033089089459
 21
2052.000000000078
 31
0.0
  0
LINE
  5
142
330
87
100
AcDbEntity
  8
P-SANR-FIXT
100
AcDbLine
 10
737.1204454429157
 20
2052.000000000078
 30
0.0
 11
738.7197418705902
 21
2052.000000000078
 31
0.0
  0
LINE
  5
143
330
87
100
AcDbEntity
  8
P-SANR-FIXT
100
AcDbLine
 10
739.0713557448677
 20
2052.000000000078
 30
0.0
 11
740.2173798423233
 21
2052.000000000078
 31
0.0
  0
LINE
  5
144
330
87
100
AcDbEntity
  8
P-SANR-FIXT
100
AcDbLine
 10
740.3830620427335
 20
2052.000000000078
 30
0.0
 11
743.7401099167541
 21
2052.000000000078
 31
0.0
  0
LINE
  5
145
330
87
100
AcDbEntity
  8
P-SANR-FIXT
100
AcDbLine
 10
743.9618300769531
 20
2052.000000000078
 30
0.0
 11
743.9986404940996
 21
2052.000000000078
 31
0.0
  0
LINE
  5
146
330
87
100
AcDbEntity
  8
P-SANR-FIXT
100
AcDbLine
 10
744.6353960638994
 20
2052.000000000078
 30
0.0
 11
745.1844718523284
 21
2052.000000000078
 31
0.0
  0
LINE
  5
147
330
87
100
AcDbEntity
  8
P-SANR-FIXT
100
AcDbLine
 10
745.7026215825465
 20
2052.000000000078
 30
0.0
 11
745.9334194916508
 21
2052.000000000078
 31
0.0
  0
LINE
  5
148
330
87
100
AcDbEntity
  8
P-SANR-FIXT
100
AcDbLine
 10
746.2118301338136
 20
2052.000000000078
 30
0.0
 11
746.425865857891
 21
2052.000000000078
 31
0.0
  0
LINE
  5
149
330
87
100
AcDbEntity
  8
P-SANR-FIXT
100
AcDbLine
 10
746.6953756006086
 20
2052.000000000078
 30
0.0
 11
746.8470713091509
 21
2052.000000000078
 31
0.0
  0
LINE
  5
14A
330
87
100
AcDbEntity
  8
P-SANR-FIXT
100
AcDbLine
 10
747.0351832631248
 20
2052.000000000078
 30
0.0
 11
747.0724172499688
 21
2052.000000000078
 31
0.0
  0
LINE
  5
14B
330
87
100
AcDbEntity
  8
P-SANR-FIXT
100
AcDbLine
 10
804.348786124323
 20
2065.395481924749
 30
0.0
 11
803.66640744319
 21
2064.713103243616
 31
0.0
  0
LINE
  5
14C
330
87
100
AcDbEntity
  8
P-SANR-FIXT
100
AcDbLine
 10
827.6664074431884
 20
2064.713103243616
 30
0.0
 11
826.9840287620557
 21
2065.395481924749
 31
0.0
  0
LINE
  5
14D
330
87
100
AcDbEntity
  8
P-SANR-FIXT
100
AcDbLine
 10
803.66640744319
 20
2064.713103243616
 30
0.0
 11
803.66640744319
 21
2063.395481924749
 31
0.0
  0
LINE
  5
14E
330
87
100
AcDbEntity
  8
P-SANR-FIXT
100
AcDbLine
 10
827.6664074431884
 20
2063.395481924749
 30
0.0
 11
827.6664074431884
 21
2064.713103243616
 31
0.0
  0
LINE
  5
14F
330
87
100
AcDbEntity
  8
P-SANR-FIXT
100
AcDbLine
 10
804.3487861243216
 20
2065.395481924749
 30
0.0
 11
826.9840287620539
 21
2065.395481924749
 31
0.0
  0
LINE
  5
150
330
87
100
AcDbEntity
  8
P-SANR-FIXT
100
AcDbLine
 10
803.6664074431886
 20
2064.713103243616
 30
0.0
 11
827.6664074431868
 21
2064.713103243616
 31
0.0
  0
LINE
  5
151
330
87
100
AcDbEntity
  8
P-SANR-FIXT
100
AcDbLine
 10
803.6664074431872
 20
2063.395481924748
 30
0.0
 11
804.5021069097163
 21
2063.395481924748
 31
0.0
  0
LINE
  5
152
330
87
100
AcDbEntity
  8
P-SANR-FIXT
100
AcDbLine
 10
804.5021069097163
 20
2063.395481924748
 30
0.0
 11
814.8307079766585
 21
2063.395481924748
 31
0.0
  0
LINE
  5
153
330
87
100
AcDbEntity
  8
P-SANR-FIXT
100
AcDbLine
 10
814.8307079766585
 20
2063.395481924748
 30
0.0
 11
816.5021069097162
 21
2063.395481924748
 31
0.0
  0
LINE
  5
154
330
87
100
AcDbEntity
  8
P-SANR-FIXT
100
AcDbLine
 10
816.5021069097162
 20
2063.395481924748
 30
0.0
 11
826.830707976658
 21
2063.395481924748
 31
0.0
  0
LINE
  5
155
330
87
100
AcDbEntity
  8
P-SANR-FIXT
100
AcDbLine
 10
826.830707976658
 20
2063.395481924748
 30
0.0
 11
827.6664074431868
 21
2063.395481924748
 31
0.0
  0
LINE
  5
156
330
87
100
AcDbEntity
  8
P-SANR-FIXT
100
AcDbLine
 10
827.6664074431868
 20
2052.868441547783
 30
0.0
 11
826.830707976658
 21
2052.868441547783
 31
0.0
  0
LINE
  5
157
330
87
100
AcDbEntity
  8
P-SANR-FIXT
100
AcDbLine
 10
826.830707976658
 20
2052.868441547783
 30
0.0
 11
816.5021069097162
 21
2052.868441547783
 31
0.0
  0
LINE
  5
158
330
87
100
AcDbEntity
  8
P-SANR-FIXT
100
AcDbLine
 10
816.5021069097164
 20
2052.868441547783
 30
0.0
 11
814.8307079766585
 21
2052.868441547783
 31
0.0
  0
LINE
  5
159
330
87
100
AcDbEntity
  8
P-SANR-FIXT
100
AcDbLine
 10
814.8307079766585
 20
2052.868441547783
 30
0.0
 11
804.5021069097163
 21
2052.868441547783
 31
0.0
  0
LINE
  5
15A
330
87
100
AcDbEntity
  8
P-SANR-FIXT
100
AcDbLine
 10
804.5021069097163
 20
2052.868441547783
 30
0.0
 11
803.6664074431874
 21
2052.868441547783
 31
0.0
  0
LINE
  5
15B
330
87
100
AcDbEntity
  8
P-SANR-FIXT
100
AcDbLine
 10
827.6664074431868
 20
2063.395481924748
 30
0.0
 11
827.6664074431868
 21
2052.868441547783
 31
0.0
  0
LINE
  5
15C
330
87
100
AcDbEntity
  8
P-SANR-FIXT
100
AcDbLine
 10
803.6664074431872
 20
2052.868441547783
 30
0.0
 11
803.6664074431872
 21
2063.395481924748
 31
0.0
  0
LINE
  5
15D
330
87
100
AcDbEntity
  8
P-SANR-FIXT
100
AcDbLine
 10
804.5021069097163
 20
2052.868441547783
 30
0.0
 11
804.5021069097163
 21
2063.395481924748
 31
0.0
  0
LINE
  5
15E
330
87
100
AcDbEntity
  8
P-SANR-FIXT
100
AcDbLine
 10
814.8307079766585
 20
2052.868441547783
 30
0.0
 11
814.8307079766585
 21
2063.395481924748
 31
0.0
  0
LINE
  5
15F
330
87
100
AcDbEntity
  8
P-SANR-FIXT
100
AcDbLine
 10
816.5021069097162
 20
2052.868441547783
 30
0.0
 11
816.5021069097162
 21
2063.395481924748
 31
0.0
  0
LINE
  5
160
330
87
100
AcDbEntity
  8
P-SANR-FIXT
100
AcDbLine
 10
826.830707976658
 20
2052.868441547783
 30
0.0
 11
826.830707976658
 21
2063.395481924748
 31
0.0
  0
LINE
  5
161
330
87
100
AcDbEntity
  8
P-SANR-FIXT
100
AcDbLine
 10
804.1714435505957
 20
1891.699999999996
 30
0.0
 11
804.1714435505957
 21
1889.899999999981
 31
0.0
  0
LINE
  5
162
330
87
100
AcDbEntity
  8
P-SANR-FIXT
100
AcDbLine
 10
827.1613713357831
 20
1889.899999999981
 30
0.0
 11
827.1613713357831
 21
1891.699999999996
 31
0.0
  0
LINE
  5
163
330
87
100
AcDbEntity
  8
P-SANR-FIXT
100
AcDbLine
 10
801.0269860253863
 20
1889.899999999981
 30
0.0
 11
801.0269860253863
 21
1883.04999999998
 31
0.0
  0
LINE
  5
164
330
87
100
AcDbEntity
  8
P-SANR-FIXT
100
AcDbLine
 10
830.3058288609923
 20
1876.380578582178
 30
0.0
 11
830.3058288609923
 21
1889.899999999981
 31
0.0
  0
LINE
  5
165
330
87
100
AcDbEntity
  8
P-SANR-FIXT
100
AcDbLine
 10
800.2464074431891
 20
1870.14999999998
 30
0.0
 11
800.2464074431891
 21
1866.099999999965
 31
0.0
  0
LINE
  5
166
330
87
100
AcDbEntity
  8
P-SANR-FIXT
100
AcDbLine
 10
831.0864074431895
 20
1866.099999999965
 30
0.0
 11
831.0864074431895
 21
1876.380578582178
 31
0.0
  0
LINE
  5
167
330
87
100
AcDbEntity
  8
P-SANR-FIXT
100
AcDbLine
 10
801.1664074431902
 20
1866.099999999965
 30
0.0
 11
801.1664074431902
 21
1864.599999999964
 31
0.0
  0
LINE
  5
168
330
87
100
AcDbEntity
  8
P-SANR-FIXT
100
AcDbLine
 10
830.1664074431883
 20
1864.599999999964
 30
0.0
 11
830.1664074431883
 21
1866.099999999965
 31
0.0
  0
LINE
  5
169
330
87
100
AcDbEntity
  8
P-SANR-FIXT
100
AcDbLine
 10
803.9164074431887
 20
1864.599999999964
 30
0.0
 11
803.9164074431887
 21
1861.599999999965
 31
0.0
  0
LINE
  5
16A
330
87
100
AcDbEntity
  8
P-SANR-FIXT
100
AcDbLine
 10
827.4164074431899
 20
1861.599999999965
 30
0.0
 11
827.4164074431899
 21
1864.599999999964
 31
0.0
  0
LINE
  5
16B
330
87
100
AcDbEntity
  8
P-SANR-FIXT
100
AcDbLine
 10
802.2164074431886
 20
1861.599999999965
 30
0.0
 11
802.2164074431886
 21
1859.599999999993
 31
0.0
  0
LINE
  5
16C
330
87
100
AcDbEntity
  8
P-SANR-FIXT
100
AcDbLine
 10
829.1164074431899
 20
1859.599999999993
 30
0.0
 11
829.1164074431899
 21
1861.599999999965
 31
0.0
  0
LINE
  5
16D
330
87
100
AcDbEntity
  8
P-SANR-FIXT
100
AcDbLine
 10
800.8664074432019
 20
1859.599999999993
 30
0.0
 11
800.8664074432019
 21
1850.599999999993
 31
0.0
  0
LINE
  5
16E
330
87
100
AcDbEntity
  8
P-SANR-FIXT
100
AcDbLine
 10
830.4664074431768
 20
1850.599999999993
 30
0.0
 11
830.4664074431768
 21
1859.599999999993
 31
0.0
  0
LINE
  5
16F
330
87
100
AcDbEntity
  8
P-SANR-FIXT
100
AcDbLine
 10
808.1664074431888
 20
1850.599999999993
 30
0.0
 11
808.1664074431888
 21
1827.599999999993
 31
0.0
  0
LINE
  5
170
330
87
100
AcDbEntity
  8
P-SANR-FIXT
100
AcDbLine
 10
823.1664074431897
 20
1827.599999999993
 30
0.0
 11
823.1664074431897
 21
1850.599999999993
 31
0.0
  0
LINE
  5
171
330
87
100
AcDbEntity
  8
P-SANR-FIXT
100
AcDbLine
 10
789.1664074431897
 20
1872.850000000044
 30
0.0
 11
793.6664074431896
 21
1872.850000000044
 31
0.0
  0
LINE
  5
172
330
87
100
AcDbEntity
  8
P-SANR-FIXT
100
AcDbLine
 10
793.6664074431896
 20
1880.349999999917
 30
0.0
 11
789.1664074431896
 21
1880.349999999917
 31
0.0
  0
LINE
  5
173
330
87
100
AcDbEntity
  8
P-SANR-FIXT
100
AcDbLine
 10
793.6664074431899
 20
1870.14999999998
 30
0.0
 11
800.2464074431891
 21
1870.14999999998
 31
0.0
  0
LINE
  5
174
330
87
100
AcDbEntity
  8
P-SANR-FIXT
100
AcDbLine
 10
801.0269860253863
 20
1883.04999999998
 30
0.0
 11
793.6664074431896
 21
1883.04999999998
 31
0.0
  0
LINE
  5
175
330
87
100
AcDbEntity
  8
P-SANR-FIXT
100
AcDbLine
 10
823.1664074431883
 20
1827.599999999992
 30
0.0
 11
808.1664074431873
 21
1827.599999999992
 31
0.0
  0
LINE
  5
176
330
87
100
AcDbEntity
  8
P-SANR-FIXT
100
AcDbLine
 10
801.0269860253847
 20
1889.89999999998
 30
0.0
 11
830.3058288609909
 21
1889.89999999998
 31
0.0
  0
SPLINE
  5
177
330
87
100
AcDbEntity
  8
P-SANR-FIXT
100
AcDbSpline
210
0.0
220
0.0
230
1.0
 70
     8
 71
     3
 72
    16
 73
    12
 74
     0
 42
0.000000001
 43
0.0000000001
 40
0.0
 40
0.0
 40
0.0
 40
0.0
 40
0.1428571428571428
 40
0.2857142857142857
 40
0.5714285714285714
 40
0.6785714285714287
 40
0.7321428571428572
 40
0.7857142857142857
 40
0.8392857142857142
 40
0.8928571428571427
 40
1.0
 40
1.0
 40
1.0
 40
1.0
 10
801.0269860253847
 20
1883.04999999998
 30
0.0
 10
801.0269860253847
 20
1883.047472047321
 30
0.0
 10
801.0791800924215
 20
1882.934131597671
 30
0.0
 10
801.3686606046622
 20
1882.25157839328
 30
0.0
 10
801.8177888727676
 20
1881.066523936592
 30
0.0
 10
802.1538133347998
 20
1879.773086530187
 30
0.0
 10
802.2894975062362
 20
1879.111487458493
 30
0.0
 10
802.3779462471619
 20
1878.588351528273
 30
0.0
 10
802.4488891994732
 20
1878.048387265759
 30
0.0
 10
802.5127242050054
 20
1877.323407483368
 30
0.0
 10
802.5278433045212
 20
1876.761944362825
 30
0.0
 10
802.5226520739405
 20
1876.380578582177
 30
0.0
  0
LINE
  5
178
330
87
100
AcDbEntity
  8
P-SANR-FIXT
100
AcDbLine
 10
801.6584794822579
 20
1876.380578582177
 30
0.0
 11
831.0864074431879
 21
1876.380578582177
 31
0.0
  0
SPLINE
  5
179
330
87
100
AcDbEntity
  8
P-SANR-FIXT
100
AcDbSpline
210
0.0
220
0.0
230
1.0
 70
     8
 71
     3
 72
    12
 73
     8
 74
     0
 42
0.000000001
 43
0.0000000001
 40
0.0
 40
0.0
 40
0.0
 40
0.0
 40
0.1428571428571428
 40
0.2857142857142857
 40
0.5714285714285714
 40
0.7857142857142857
 40
1.0
 40
1.0
 40
1.0
 40
1.0
 10
801.6584794822579
 20
1876.380578582177
 30
0.0
 10
801.6494247424505
 20
1875.894202504636
 30
0.0
 10
801.5868107468623
 20
1874.955424367751
 30
0.0
 10
801.2901825619305
 20
1873.174822771752
 30
0.0
 10
800.7928870125423
 20
1871.532397807225
 30
0.0
 10
800.3501884053624
 20
1870.391878513477
 30
0.0
 10
800.2464074431875
 20
1870.153071196903
 30
0.0
 10
800.2464074431875
 20
1870.14999999998
 30
0.0
  0
LINE
  5
17A
330
87
100
AcDbEntity
  8
P-SANR-FIXT
100
AcDbLine
 10
800.2464074431875
 20
1866.099999999964
 30
0.0
 11
831.0864074431879
 21
1866.099999999964
 31
0.0
  0
LINE
  5
17B
330
87
100
AcDbEntity
  8
P-SANR-FIXT
100
AcDbLine
 10
801.1664074431886
 20
1864.599999999964
 30
0.0
 11
830.1664074431871
 21
1864.599999999964
 31
0.0
  0
LINE
  5
17C
330
87
100
AcDbEntity
  8
P-SANR-FIXT
100
AcDbLine
 10
802.2164074431872
 20
1861.599999999964
 30
0.0
 11
829.1164074431884
 21
1861.599999999964
 31
0.0
  0
LINE
  5
17D
330
87
100
AcDbEntity
  8
P-SANR-FIXT
100
AcDbLine
 10
800.8664074432003
 20
1859.599999999992
 30
0.0
 11
830.4664074431752
 21
1859.599999999992
 31
0.0
  0
LINE
  5
17E
330
87
100
AcDbEntity
  8
P-SANR-FIXT
100
AcDbLine
 10
800.8664074432003
 20
1850.599999999992
 30
0.0
 11
830.4664074431752
 21
1850.599999999992
 31
0.0
  0
LINE
  5
17F
330
87
100
AcDbEntity
  8
P-SANR-FIXT
100
AcDbLine
 10
789.1664074431883
 20
1872.850000000043
 30
0.0
 11
789.1664074431881
 21
1880.349999999917
 31
0.0
  0
LINE
  5
180
330
87
100
AcDbEntity
  8
P-SANR-FIXT
100
AcDbLine
 10
793.6664074431882
 20
1870.14999999998
 30
0.0
 11
793.6664074431882
 21
1883.04999999998
 31
0.0
  0
LINE
  5
181
330
87
100
AcDbEntity
  8
P-SANR-FIXT
100
AcDbLine
 10
747.4035030800306
 20
1967.250000000005
 30
0.0
 11
767.4751872035401
 21
1967.250000000005
 31
0.0
  0
LINE
  5
182
330
87
100
AcDbEntity
  8
P-SANR-FIXT
100
AcDbLine
 10
767.4751872035401
 20
2032.749999999987
 30
0.0
 11
747.4035030800306
 21
2032.749999999987
 31
0.0
  0
LINE
  5
183
330
87
100
AcDbEntity
  8
P-SANR-FIXT
100
AcDbLine
 10
767.4751872035401
 20
1967.250000000005
 30
0.0
 11
768.2035030800318
 21
1967.978315876496
 31
0.0
  0
LINE
  5
184
330
87
100
AcDbEntity
  8
P-SANR-FIXT
100
AcDbLine
 10
768.2035030800318
 20
2032.021684123495
 30
0.0
 11
767.4751872035401
 21
2032.749999999987
 31
0.0
  0
LINE
  5
185
330
87
100
AcDbEntity
  8
P-SANR-FIXT
100
AcDbLine
 10
747.4035030800292
 20
2032.749999999986
 30
0.0
 11
747.4035030800292
 21
1967.250000000004
 31
0.0
  0
LINE
  5
186
330
87
100
AcDbEntity
  8
P-SANR-FIXT
100
AcDbLine
 10
767.4751872035387
 20
1967.250000000004
 30
0.0
 11
767.4751872035387
 21
2032.749999999986
 31
0.0
  0
LINE
  5
187
330
87
100
AcDbEntity
  8
P-SANR-FIXT
100
AcDbLine
 10
768.2035030800303
 20
1967.978315876496
 30
0.0
 11
768.2035030800303
 21
2032.021684123494
 31
0.0
  0
LINE
  5
188
330
87
100
AcDbEntity
  8
P-SANR-FIXT
100
AcDbLine
 10
805.3511296009983
 20
2052.868441547783
 30
0.0
 11
806.5664074431897
 21
2052.166800558454
 31
0.0
  0
LINE
  5
189
330
87
100
AcDbEntity
  8
P-SANR-FIXT
100
AcDbLine
 10
824.766407443189
 20
2052.166800558454
 30
0.0
 11
825.9816852853804
 21
2052.868441547783
 31
0.0
  0
LINE
  5
18A
330
87
100
AcDbEntity
  8
P-SANR-FIXT
100
AcDbLine
 10
806.5664074431897
 20
2052.166800558454
 30
0.0
 11
806.5664074431897
 21
2051.368441547764
 31
0.0
  0
LINE
  5
18B
330
87
100
AcDbEntity
  8
P-SANR-FIXT
100
AcDbLine
 10
824.766407443189
 20
2051.368441547764
 30
0.0
 11
824.766407443189
 21
2052.166800558454
 31
0.0
  0
LINE
  5
18C
330
87
100
AcDbEntity
  8
P-SANR-FIXT
100
AcDbLine
 10
801.6664074431895
 20
2051.368441547764
 30
0.0
 11
801.6664074431895
 21
2050.368441547765
 31
0.0
  0
LINE
  5
18D
330
87
100
AcDbEntity
  8
P-SANR-FIXT
100
AcDbLine
 10
829.6664074431891
 20
2050.368441547765
 30
0.0
 11
829.6664074431891
 21
2051.368441547764
 31
0.0
  0
LINE
  5
18E
330
87
100
AcDbEntity
  8
P-SANR-FIXT
100
AcDbLine
 10
773.6664074431894
 20
2050.368441547765
 30
0.0
 11
773.6664074431894
 21
2029.968441547764
 31
0.0
  0
LINE
  5
18F
330
87
100
AcDbEntity
  8
P-SANR-FIXT
100
AcDbLine
 10
857.6664074431892
 20
2029.968441547764
 30
0.0
 11
857.6664074431892
 21
2050.368441547765
 31
0.0
  0
LINE
  5
190
330
87
100
AcDbEntity
  8
P-SANR-FIXT
100
AcDbLine
 10
857.6664074431876
 20
2029.968441547763
 30
0.0
 11
773.6664074431878
 21
2029.968441547763
 31
0.0
  0
LINE
  5
191
330
87
100
AcDbEntity
  8
P-SANR-FIXT
100
AcDbLine
 10
806.5664074431881
 20
2052.166800558453
 30
0.0
 11
824.7664074431876
 21
2052.166800558453
 31
0.0
  0
LINE
  5
192
330
87
100
AcDbEntity
  8
P-SANR-FIXT
100
AcDbLine
 10
801.6664074431881
 20
2051.368441547763
 30
0.0
 11
829.6664074431875
 21
2051.368441547763
 31
0.0
  0
LINE
  5
193
330
87
100
AcDbEntity
  8
P-SANR-FIXT
100
AcDbLine
 10
773.6664074431878
 20
2050.368441547764
 30
0.0
 11
857.6664074431876
 21
2050.368441547764
 31
0.0
  0
LINE
  5
194
330
87
100
AcDbEntity
  8
P-SANR-FIXT
100
AcDbLine
 10
787.1664074431891
 20
1960.999999999996
 30
0.0
 11
787.1664074431891
 21
1930.802425320934
 31
0.0
  0
LINE
  5
195
330
87
100
AcDbEntity
  8
P-SANR-FIXT
100
AcDbLine
 10
844.1664074431894
 20
1930.802425320934
 30
0.0
 11
844.1664074431894
 21
1960.999999999996
 31
0.0
  0
LINE
  5
196
330
87
100
AcDbEntity
  8
P-SANR-FIXT
100
AcDbLine
 10
787.1664074431891
 20
1929.966685410454
 30
0.0
 11
787.1664074431891
 21
1922.500976325003
 31
0.0
  0
LINE
  5
197
330
87
100
AcDbEntity
  8
P-SANR-FIXT
100
AcDbLine
 10
844.1664074431894
 20
1922.500976325003
 30
0.0
 11
844.1664074431894
 21
1929.966685410454
 31
0.0
  0
LINE
  5
198
330
87
100
AcDbEntity
  8
P-SANR-FIXT
100
AcDbLine
 10
789.1003818185139
 20
1915.265991874432
 30
0.0
 11
793.4653464081695
 21
1907.684737587135
 31
0.0
  0
LINE
  5
199
330
87
100
AcDbEntity
  8
P-SANR-FIXT
100
AcDbLine
 10
837.867468478209
 20
1907.684737587135
 30
0.0
 11
842.2324330678648
 21
1915.265991874432
 31
0.0
  0
LINE
  5
19A
330
87
100
AcDbEntity
  8
P-SANR-FIXT
100
AcDbLine
 10
778.4179071337249
 20
2029.968441547764
 30
0.0
 11
781.1664074431893
 21
2028.381594154227
 31
0.0
  0
LINE
  5
19B
330
87
100
AcDbEntity
  8
P-SANR-FIXT
100
AcDbLine
 10
850.1664074431893
 20
2028.381594154227
 30
0.0
 11
852.9149077526538
 21
2029.968441547764
 31
0.0
  0
LINE
  5
19C
330
87
100
AcDbEntity
  8
P-SANR-FIXT
100
AcDbLine
 10
781.1664074431889
 20
2028.381594154227
 30
0.0
 11
781.1664074431889
 21
2025.499999999996
 31
0.0
  0
LINE
  5
19D
330
87
100
AcDbEntity
  8
P-SANR-FIXT
100
AcDbLine
 10
781.1664074431889
 20
1974.499999999995
 30
0.0
 11
781.1664074431889
 21
1964.999999999995
 31
0.0
  0
LINE
  5
19E
330
87
100
AcDbEntity
  8
P-SANR-FIXT
100
AcDbLine
 10
850.1664074431895
 20
1964.999999999995
 30
0.0
 11
850.1664074431895
 21
2028.381594154227
 31
0.0
  0
LWPOLYLINE
  5
19F
330
87
100
AcDbEntity
  8
P-SANR-FIXT
100
AcDbPolyline
 90
       80
 70
   128
 43
0.0
 10
785.1664074431893
 20
1960.999999999996
 10
785.1908041900294
 20
1960.999999999996
 10
785.2639554009595
 20
1960.999999999996
 10
785.3857440496463
 20
1960.999999999996
 10
785.5559753002327
 20
1960.999999999996
 10
785.7743768190315
 20
1960.999999999996
 10
786.0405992102023
 20
1960.999999999996
 10
786.3542165747108
 20
1960.999999999996
 10
786.7147271916749
 20
1960.999999999996
 10
787.1215543210123
 20
1960.999999999996
 10
787.5740471261013
 20
1960.999999999996
 10
788.0714817149804
 20
1960.999999999996
 10
788.6130622984211
 20
1960.999999999996
 10
789.1979224630209
 20
1960.999999999996
 10
789.8251265572802
 20
1960.999999999996
 10
790.4936711884442
 20
1960.999999999996
 10
791.2024868277185
 20
1960.999999999996
 10
791.9504395212862
 20
1960.999999999996
 10
792.7363327043921
 20
1960.999999999996
 10
793.5589091155918
 20
1960.999999999996
 10
794.4168528081007
 20
1960.999999999996
 10
795.3087912550294
 20
1960.999999999996
 10
796.2332975451325
 20
1960.999999999996
 10
797.1888926655638
 20
1960.999999999996
 10
798.1740478679795
 20
1960.999999999996
 10
799.187187114211
 20
1960.999999999996
 10
800.2266895975896
 20
1960.999999999996
 10
801.2908923358905
 20
1960.999999999996
 10
802.3780928317497
 20
1960.999999999996
 10
803.486551796298
 20
1960.999999999996
 10
804.614495931651
 20
1960.999999999996
 10
805.7601207678068
 20
1960.999999999996
 10
806.9215935494149
 20
1960.999999999996
 10
808.0970561677919
 20
1960.999999999996
 10
809.284628133501
 20
1960.999999999996
 10
810.482409584732
 20
1960.999999999996
 10
811.688484326676
 20
1960.999999999996
 10
812.9009228970279
 20
1960.999999999996
 10
814.1177856527152
 20
1960.999999999996
 10
815.3371258729125
 20
1960.999999999996
 10
816.5569928733786
 20
1960.999999999996
 10
817.7754351271383
 20
1960.999999999996
 10
818.9905033865056
 20
1960.999999999996
 10
820.2002538014662
 20
1960.999999999996
 10
821.4027510294224
 20
1960.999999999996
 10
822.5960713313286
 20
1960.999999999996
 10
823.7783056492633
 20
1960.999999999996
 10
824.9475626605143
 20
1960.999999999996
 10
826.1019718032921
 20
1960.999999999996
 10
827.2396862692282
 20
1960.999999999996
 10
828.3588859578774
 20
1960.999999999996
 10
829.4577803884873
 20
1960.999999999996
 10
830.5346115643875
 20
1960.999999999996
 10
831.5876567854081
 20
1960.999999999996
 10
832.6152314038331
 20
1960.999999999996
 10
833.6156915194775
 20
1960.999999999996
 10
834.5874366095761
 20
1960.999999999996
 10
835.5289120892795
 20
1960.999999999996
 10
836.4386117986576
 20
1960.999999999996
 10
837.3150804122342
 20
1960.999999999996
 10
838.1569157671973
 20
1960.999999999996
 10
838.9627711065616
 20
1960.999999999996
 10
839.7313572336901
 20
1960.999999999996
 10
840.4614445747361
 20
1960.999999999996
 10
841.1518651456972
 20
1960.999999999996
 10
841.8015144209423
 20
1960.999999999996
 10
842.4093531002151
 20
1960.999999999996
 10
842.974408771294
 20
1960.999999999996
 10
843.4957774656441
 20
1960.999999999996
 10
843.972625104574
 20
1960.999999999996
 10
844.4041888335835
 20
1960.999999999996
 10
844.7897782427681
 20
1960.999999999996
 10
845.1287764713276
 20
1960.999999999996
 10
845.4206411944124
 20
1960.999999999996
 10
845.6649054907266
 20
1960.999999999996
 10
845.861178589503
 20
1960.999999999996
 10
846.0091464956528
 20
1960.999999999996
 10
846.1085724920913
 20
1960.999999999996
 10
846.1592975184334
 20
1960.999999999996
 10
846.1664074431894
 20
1960.999999999996
  0
LWPOLYLINE
  5
1A0
330
87
100
AcDbEntity
  8
P-SANR-FIXT
100
AcDbPolyline
 90
       41
 70
   128
 43
0.0
 10
850.1664074431893
 20
1964.999999999996
 10
850.1632078698333
 20
1964.840042663249
 10
850.1536142683997
 20
1964.680341224119
 10
850.1376419866048
 20
1964.52115117084
 10
850.1153165766918
 20
1964.362727173539
 10
850.0866737545543
 20
1964.205322676815
 10
850.0517593425975
 20
1964.049189494287
 10
850.0106291964325
 20
1963.894577405739
 10
849.963349115519
 20
1963.741733757531
 10
849.9099947379011
 20
1963.590903066895
 10
849.8506514192008
 20
1963.442326630761
 10
849.7854140960692
 20
1963.296242139731
 10
849.7143871343064
 20
1963.15288329783
 10
849.6376841618999
 20
1963.012479448621
 10
849.5554278872431
 20
1962.875255208312
 10
849.4677499028281
 20
1962.741430106415
 10
849.3747904747264
 20
1962.611218234546
 10
849.2766983181931
 20
1962.484827903922
 10
849.1736303597528
 20
1962.36246131211
 10
849.0657514861531
 20
1962.244314219553
 10
848.9532342805782
 20
1962.130575636398
 10
848.8362587465546
 20
1962.021427520112
 10
848.7150120199837
 20
1961.9170444844
 10
848.5896880697632
 20
1961.81759351985
 10
848.4604873874792
 20
1961.723233726791
 10
848.327616666662
 20
1961.634116060764
 10
848.1912884721205
 20
1961.550383091022
 10
848.0517208998843
 20
1961.472168772456
 10
847.9091372282962
 20
1961.39959823129
 10
847.7637655608145
 20
1961.332787564909
 10
847.6158384610959
 20
1961.271843656127
 10
847.4655925809443
 20
1961.216864002198
 10
847.3132682817173
 20
1961.167936558839
 10
847.1591092497989
 20
1961.125139599523
 10
847.003362106755
 20
1961.088541590254
 10
846.8462760147904
 20
1961.058201080042
 10
846.688102278142
 20
1961.034166607229
 10
846.5290939410467
 20
1961.016476621845
 10
846.3695053829237
 20
1961.005159424093
 10
846.2095919114224
 20
1961.000233119076
 10
846.1664074431894
 20
1960.999999999996
  0
LWPOLYLINE
  5
1A1
330
87
100
AcDbEntity
  8
P-SANR-FIXT
100
AcDbPolyline
 90
       41
 70
   128
 43
0.0
 10
785.1664074431893
 20
1960.999999999996
 10
785.0064501064426
 20
1961.003199573352
 10
784.8467486673126
 20
1961.012793174785
 10
784.6875586140336
 20
1961.02876545658
 10
784.5291346167323
 20
1961.051090866493
 10
784.3717301200089
 20
1961.079733688631
 10
784.2155969374807
 20
1961.114648100587
 10
784.0609848489328
 20
1961.155778246752
 10
783.9081412007248
 20
1961.203058327666
 10
783.7573105100889
 20
1961.256412705284
 10
783.6087340739546
 20
1961.315756023984
 10
783.4626495829252
 20
1961.380993347116
 10
783.3192907410232
 20
1961.452020308879
 10
783.1788868918143
 20
1961.528723281285
 10
783.0416626515058
 20
1961.610979555942
 10
782.9078375496091
 20
1961.698657540357
 10
782.7776256777397
 20
1961.791616968459
 10
782.6512353471153
 20
1961.889709124992
 10
782.5288687553034
 20
1961.992777083432
 10
782.4107216627472
 20
1962.100655957032
 10
782.2969830795912
 20
1962.213173162607
 10
782.1878349633059
 20
1962.330148696631
 10
782.0834519275933
 20
1962.451395423201
 10
781.9840009630439
 20
1962.576719373422
 10
781.8896411699851
 20
1962.705920055706
 10
781.8005235039577
 20
1962.838790776523
 10
781.7167905342158
 20
1962.975118971065
 10
781.6385762156495
 20
1963.114686543301
 10
781.5660056744832
 20
1963.257270214889
 10
781.4991950081022
 20
1963.402641882371
 10
781.4382510993204
 20
1963.550568982089
 10
781.383271445391
 20
1963.700814862241
 10
781.3343440020324
 20
1963.853139161468
 10
781.2915470427161
 20
1964.007298193386
 10
781.254949033448
 20
1964.16304533643
 10
781.2246085232353
 20
1964.320131428395
 10
781.2005740504226
 20
1964.478305165043
 10
781.1828840650386
 20
1964.637313502138
 10
781.1715668672869
 20
1964.796902060261
 10
781.1666405622694
 20
1964.956815531763
 10
781.1664074431893
 20
1964.999999999996
  0
LWPOLYLINE
  5
1A2
330
87
100
AcDbEntity
  8
P-SANR-FIXT
100
AcDbPolyline
 90
        4
 70
   128
 43
0.0
 10
846.1664074431894
 20
1960.999999999996
 10
846.1420106963492
 20
1960.999999999996
 10
846.0688594854191
 20
1960.999999999996
 10
846.0441929441785
 20
1960.999999999996
  0
LWPOLYLINE
  5
1A3
330
87
100
AcDbEntity
  8
P-SANR-FIXT
100
AcDbPolyline
 90
        4
 70
   128
 43
0.0
 10
785.2952884905151
 20
1960.999999999996
 10
785.2242423942873
 20
1960.999999999996
 10
785.173517367945
 20
1960.999999999996
 10
785.1664074431893
 20
1960.999999999996
  0
LWPOLYLINE
  5
1A4
330
87
100
AcDbEntity
  8
P-SANR-FIXT
100
AcDbPolyline
 90
       15
 70
   128
 43
0.0
 10
844.1664074431892
 20
1922.500976325003
 10
844.1548089897734
 20
1921.921130979296
 10
844.1200321845771
 20
1921.34221326245
 10
844.0621326630704
 20
1920.765149319313
 10
843.9812030521357
 20
1920.190862329096
 10
843.8773728218873
 20
1919.620271028474
 10
843.7508080785436
 20
1919.054288241809
 10
843.6017112986954
 20
1918.493819420823
 10
843.4303210053846
 20
1917.939761196069
 10
843.2369113865192
 20
1917.392999942514
 10
843.0217918562311
 20
1916.854410361527
 10
842.7853065598785
 20
1916.324854081545
 10
842.5278338234889
 20
1915.805178279651
 10
842.2497855485151
 20
1915.296214326268
 10
842.2324330678648
 20
1915.265991874432
  0
LWPOLYLINE
  5
1A5
330
87
100
AcDbEntity
  8
P-SANR-FIXT
100
AcDbPolyline
 90
       15
 70
   128
 43
0.0
 10
789.1003818185139
 20
1915.265991874432
 10
788.8211110876802
 20
1915.774286088405
 10
788.5623900908313
 20
1916.293341571806
 10
788.3246327263718
 20
1916.822327946587
 10
788.1082193553655
 20
1917.360398947393
 10
787.9134961930408
 20
1917.906693775405
 10
787.7407747549183
 20
1918.460338475435
 10
787.5903313584537
 20
1919.020447334068
 10
787.4624066809887
 20
1919.586124296614
 10
787.3572053747181
 20
1920.156464400602
 10
787.27489573929
 20
1920.730555223534
 10
787.2156094525627
 20
1921.307478342558
 10
787.179441359948
 20
1921.886310803755
 10
787.1664493226785
 20
1922.466126598665
 10
787.1664074431894
 20
1922.500976325003
  0
LWPOLYLINE
  5
1A6
330
87
100
AcDbEntity
  8
P-SANR-FIXT
100
AcDbPolyline
 90
       15
 70
   128
 43
0.0
 10
837.8674684782094
 20
1907.684737587135
 10
837.4052272685533
 20
1906.843423026077
 10
836.9769994117001
 20
1905.984296708724
 10
836.5834699808704
 20
1905.108733053914
 10
836.2252685392052
 20
1904.218132776717
 10
835.9029681325987
 20
1903.313920647594
 10
835.6170843729476
 20
1902.397543213061
 10
835.3680746132821
 20
1901.470466481531
 10
835.1563372160988
 20
1900.534173578008
 10
834.9822109160644
 20
1899.590162371406
 10
834.8459742781145
 20
1898.639943078277
 10
834.7478452518071
 20
1897.685035846789
 10
834.6879808226516
 20
1896.726968324808
 10
834.666476760964
 20
1895.767273215992
 10
834.6664074431894
 20
1895.709590910329
  0
LWPOLYLINE
  5
1A7
330
87
100
AcDbEntity
  8
P-SANR-FIXT
100
AcDbPolyline
 90
       15
 70
   128
 43
0.0
 10
796.6664074431893
 20
1895.709590910329
 10
796.6472100030528
 20
1896.669334930808
 10
796.5896483944523
 20
1897.627543565589
 10
796.4938147036821
 20
1898.582683885263
 10
796.3598622442043
 20
1899.533227869071
 10
796.1880053113791
 20
1900.47765484941
 10
795.978518839638
 20
1901.41445394458
 10
795.7317379626478
 20
1902.342126475868
 10
795.4480574771679
 20
1903.259188365116
 10
795.1279312114597
 20
1904.164172508931
 10
794.7718712992585
 20
1905.055631125737
 10
794.3804473604683
 20
1905.932138071913
 10
793.9542855898921
 20
1906.792291123325
 10
793.4940677554528
 20
1907.634714218579
 10
793.4653464081693
 20
1907.684737587135
  0
LINE
  5
1A8
330
87
100
AcDbEntity
  8
P-SANR-FIXT
100
AcDbLine
 10
796.6664074431893
 20
1895.709590910328
 30
0.0
 11
796.6664074431893
 21
1892.199999999996
 31
0.0
  0
LINE
  5
1A9
330
87
100
AcDbEntity
  8
P-SANR-FIXT
100
AcDbLine
 10
834.6664074431894
 20
1892.199999999996
 30
0.0
 11
834.6664074431894
 21
1895.709590910328
 31
0.0
  0
LINE
  5
1AA
330
87
100
AcDbEntity
  8
P-SANR-FIXT
100
AcDbLine
 10
768.2035030800319
 20
1970.999999999996
 30
0.0
 11
769.7035030800566
 21
1970.999999999996
 31
0.0
  0
LINE
  5
1AB
330
87
100
AcDbEntity
  8
P-SANR-FIXT
100
AcDbLine
 10
769.7035030800565
 20
2028.999999999996
 30
0.0
 11
768.2035030800318
 21
2028.999999999996
 31
0.0
  0
LINE
  5
1AC
330
87
100
AcDbEntity
  8
P-SANR-FIXT
100
AcDbLine
 10
769.7035030800566
 20
1970.999999999995
 30
0.0
 11
769.7427892548731
 21
1971.068045650812
 31
0.0
  0
LINE
  5
1AD
330
87
100
AcDbEntity
  8
P-SANR-FIXT
100
AcDbLine
 10
769.7551166478278
 20
1971.089397321735
 30
0.0
 11
771.4932889145445
 21
1974.099999999995
 31
0.0
  0
LINE
  5
1AE
330
87
100
AcDbEntity
  8
P-SANR-FIXT
100
AcDbLine
 10
771.4932889145442
 20
2025.899999999996
 30
0.0
 11
769.7551166478277
 21
2028.910602678257
 31
0.0
  0
LINE
  5
1AF
330
87
100
AcDbEntity
  8
P-SANR-FIXT
100
AcDbLine
 10
769.7427892548729
 20
2028.931954349179
 30
0.0
 11
769.7035030800565
 21
2028.999999999996
 31
0.0
  0
LWPOLYLINE
  5
1B0
330
87
100
AcDbEntity
  8
P-SANR-FIXT
100
AcDbPolyline
 90
       28
 70
   128
 43
0.0
 10
771.4932889145442
 20
2025.899999999996
 10
771.5098388305805
 20
2025.872614533902
 10
771.5274706350044
 20
2025.845912793385
 10
771.5461561206906
 20
2025.81993749553
 10
771.5658653948477
 20
2025.794730195275
 10
771.5865669268413
 20
2025.770331218922
 10
771.6082275986369
 20
2025.746779599629
 10
771.6308127577796
 20
2025.724113014963
 10
771.6542862728332
 20
2025.702367726623
 10
771.6786105911808
 20
2025.681578522433
 10
771.7037467991023
 20
2025.661778660683
 10
771.7296546840265
 20
2025.64299981693
 10
771.7562927988645
 20
2025.625272033318
 10
771.7836185283155
 20
2025.608623670518
 10
771.8115881570411
 20
2025.593081362359
 10
771.8401569396021
 20
2025.578669973219
 10
771.8692791720403
 20
2025.565412558247
 10
771.8989082649969
 20
2025.553330326477
 10
771.928996818243
 20
2025.542442606905
 10
771.9594966965126
 20
2025.532766817558
 10
771.9903591065063
 20
2025.524318437634
 10
772.021534674952
 20
2025.517110982741
 10
772.0529735275903
 20
2025.511155983268
 10
772.0846253689639
 20
2025.506462965944
 10
772.1164395628789
 20
2025.503039438595
 10
772.1483652134107
 20
2025.500890878136
 10
772.1803512463301
 20
2025.500020721803
 10
772.1861092375718
 20
2025.499999999996
  0
LWPOLYLINE
  5
1B1
330
87
100
AcDbEntity
  8
P-SANR-FIXT
100
AcDbPolyline
 90
       28
 70
   128
 43
0.0
 10
772.186109237572
 20
1974.499999999995
 10
772.1541177702227
 20
1974.499360085324
 10
772.1221774823966
 20
1974.497441365037
 10
772.090339471741
 20
1974.494246908678
 10
772.0586546722807
 20
1974.489781826696
 10
772.027173772936
 20
1974.484053262268
 10
771.9959471364302
 20
1974.477070379877
 10
771.9650247187206
 20
1974.468844350644
 10
771.9344559890791
 20
1974.459388334461
 10
771.904289850952
 20
1974.448717458938
 10
771.874574563725
 20
1974.436848795198
 10
771.8453576655191
 20
1974.423801330571
 10
771.8166858971386
 20
1974.409595938219
 10
771.788605127297
 20
1974.394255343737
 10
771.7611602792352
 20
1974.377804088806
 10
771.7343952588561
 20
1974.360268491923
 10
771.708352884482
 20
1974.341676606303
 10
771.6830748183572
 20
1974.322058174996
 10
771.6586014999948
 20
1974.301444583308
 10
771.6349720814835
 20
1974.279868808588
 10
771.6122243648523
 20
1974.257365367473
 10
771.5903947415952
 20
1974.233970260668
 10
771.5695181344528
 20
1974.209720915354
 10
771.5496279415427
 20
1974.18465612531
 10
771.5307559829311
 20
1974.158815988853
 10
771.5129324497256
 20
1974.13224184469
 10
771.4961858557773
 20
1974.104976205781
 10
771.4932889145445
 20
1974.099999999995
  0
LINE
  5
1B2
330
87
100
AcDbEntity
  8
P-SANR-FIXT
100
AcDbLine
 10
772.186109237572
 20
1974.499999999995
 30
0.0
 11
781.1664074431889
 21
1974.499999999995
 31
0.0
  0
LINE
  5
1B3
330
87
100
AcDbEntity
  8
P-SANR-FIXT
100
AcDbLine
 10
781.1664074431889
 20
2025.499999999996
 30
0.0
 11
772.1861092375718
 21
2025.499999999996
 31
0.0
  0
LINE
  5
1B4
330
87
100
AcDbEntity
  8
P-SANR-FIXT
100
AcDbLine
 10
796.6664074431893
 20
1892.199999999996
 30
0.0
 11
797.1664074431893
 21
1891.699999999996
 31
0.0
  0
LINE
  5
1B5
330
87
100
AcDbEntity
  8
P-SANR-FIXT
100
AcDbLine
 10
834.1664074431893
 20
1891.699999999996
 30
0.0
 11
834.6664074431894
 21
1892.199999999996
 31
0.0
  0
LINE
  5
1B6
330
87
100
AcDbEntity
  8
P-SANR-FIXT
100
AcDbLine
 10
787.1664074431895
 20
1930.802425320934
 30
0.0
 11
787.1664074431895
 21
1929.966685410454
 31
0.0
  0
LINE
  5
1B7
330
87
100
AcDbEntity
  8
P-SANR-FIXT
100
AcDbLine
 10
844.1664074431891
 20
1929.966685410454
 30
0.0
 11
844.1664074431891
 21
1930.802425320934
 31
0.0
  0
LINE
  5
1B8
330
87
100
AcDbEntity
  8
P-SANR-FIXT
100
AcDbLine
 10
781.1664074431874
 20
2028.381594154227
 30
0.0
 11
850.1664074431882
 21
2028.381594154227
 31
0.0
  0
SPLINE
  5
1B9
330
87
100
AcDbEntity
  8
P-SANR-FIXT
100
AcDbSpline
210
0.0
220
0.0
230
1.0
 70
     8
 71
     3
 72
    10
 73
     6
 74
     0
 42
0.000000001
 43
0.0000000001
 40
0.0
 40
0.0
 40
0.0
 40
0.0
 40
0.3333333333333333
 40
0.6666666666666666
 40
1.0
 40
1.0
 40
1.0
 40
1.0
 10
781.1664074431874
 20
2025.499999999995
 30
0.0
 10
781.1664074431874
 20
2025.490495222524
 30
0.0
 10
781.413645006482
 20
2025.172780254432
 30
0.0
 10
782.4620684191646
 20
2023.722909601152
 30
0.0
 10
783.4988676930382
 20
2022.261827621585
 30
0.0
 10
784.0794265218469
 20
2021.394797585509
 30
0.0
  0
SPLINE
  5
1BA
330
87
100
AcDbEntity
  8
P-SANR-FIXT
100
AcDbSpline
210
0.0
220
0.0
230
1.0
 70
     8
 71
     3
 72
    29
 73
    25
 74
     0
 42
0.000000001
 43
0.0000000001
 40
0.0
 40
0.0
 40
0.0
 40
0.0
 40
0.125
 40
0.1875
 40
0.25
 40
0.265625
 40
0.28125
 40
0.3125
 40
0.34375
 40
0.375
 40
0.40625
 40
0.4375
 40
0.5
 40
0.5625
 40
0.59375
 40
0.625
 40
0.65625
 40
0.6875
 40
0.71875
 40
0.75
 40
0.78125
 40
0.8125
 40
0.875
 40
1.0
 40
1.0
 40
1.0
 40
1.0
 10
784.0794265218469
 20
2021.394797585509
 30
0.0
 10
784.862942168668
 20
2020.231419284586
 30
0.0
 10
786.1623570030043
 20
2018.244508766236
 30
0.0
 10
787.9936340645439
 20
2015.087086099419
 30
0.0
 10
788.9955158441527
 20
2013.134223016979
 30
0.0
 10
789.6173245836893
 20
2011.764472876954
 30
0.0
 10
790.0307154179459
 20
2010.828745921327
 30
0.0
 10
790.5293972854742
 20
2009.622846763598
 30
0.0
 10
791.0756136392986
 20
2008.123192804353
 30
0.0
 10
791.5295404459635
 20
2006.589440284873
 30
0.0
 10
791.896317855516
 20
2004.99600515636
 30
0.0
 10
792.2883789965376
 20
2002.78201586948
 30
0.0
 10
792.5217852347942
 20
2000.000916399084
 30
0.0
 10
792.2888020062961
 20
1997.2205702858
 30
0.0
 10
791.8970611881709
 20
1995.007347239755
 30
0.0
 10
791.5305814712418
 20
1993.414354036534
 30
0.0
 10
791.076847640688
 20
1991.880826885487
 30
0.0
 10
790.531408319407
 20
1990.381618349142
 30
0.0
 10
789.9316257421782
 20
1988.934082267023
 30
0.0
 10
789.3107645289953
 20
1987.547531561902
 30
0.0
 10
788.6676777077727
 20
1986.220941546564
 30
0.0
 10
787.7653525071871
 20
1984.522161597894
 30
0.0
 10
786.1665742267676
 20
1981.76029674509
 30
0.0
 10
784.8639540778483
 20
1979.770584792753
 30
0.0
 10
784.0794265218469
 20
1978.60520241448
 30
0.0
  0
SPLINE
  5
1BB
330
87
100
AcDbEntity
  8
P-SANR-FIXT
100
AcDbSpline
210
0.0
220
0.0
230
1.0
 70
     8
 71
     3
 72
    10
 73
     6
 74
     0
 42
0.000000001
 43
0.0000000001
 40
0.0
 40
0.0
 40
0.0
 40
0.0
 40
0.3333333333333333
 40
0.6666666666666666
 40
1.0
 40
1.0
 40
1.0
 40
1.0
 10
784.0794265218469
 20
1978.60520241448
 30
0.0
 10
783.4988676930382
 20
1977.738172378404
 30
0.0
 10
782.4620684191646
 20
1976.277090398838
 30
0.0
 10
781.413645006482
 20
1974.827219745558
 30
0.0
 10
781.1664074431874
 20
1974.509504777465
 30
0.0
 10
781.1664074431874
 20
1974.499999999995
 30
0.0
  0
LINE
  5
1BC
330
87
100
AcDbEntity
  8
P-SANR-FIXT
100
AcDbLine
 10
796.6664074431878
 20
1892.199999999995
 30
0.0
 11
834.6664074431878
 21
1892.199999999995
 31
0.0
  0
LINE
  5
1BD
330
87
100
AcDbEntity
  8
P-SANR-FIXT
100
AcDbLine
 10
834.1664074431879
 20
1891.699999999995
 30
0.0
 11
797.1664074431878
 21
1891.699999999995
 31
0.0
  0
LINE
  5
1BE
330
87
100
AcDbEntity
  8
P-SANR-FIXT
100
AcDbLine
 10
769.7035030800551
 20
1970.999999999994
 30
0.0
 11
769.703503080055
 21
2028.999999999995
 31
0.0
  0
LINE
  5
1BF
330
87
100
AcDbEntity
  8
P-SANR-FIXT
100
AcDbLine
 10
709.6639074432933
 20
1943.434123401734
 30
0.0
 11
713.0139074432456
 21
1941.499999999976
 31
0.0
  0
LINE
  5
1C0
330
87
100
AcDbEntity
  8
P-SANR-FIXT
100
AcDbLine
 10
743.3139074432457
 20
1941.499999999976
 30
0.0
 11
746.6639074431982
 21
1943.434123401734
 31
0.0
  0
LWPOLYLINE
  5
1C1
330
87
100
AcDbEntity
  8
P-SANR-FIXT
100
AcDbPolyline
 90
       28
 70
   128
 43
0.0
 10
747.1639074431981
 20
1944.300148805518
 10
747.1631075498592
 20
1944.260159471332
 10
747.1607091495009
 20
1944.220234111549
 10
747.1567160790519
 20
1944.18043659823
 10
747.1511347265738
 20
1944.140830598904
 10
747.1439740210392
 20
1944.101479474723
 10
747.1352454180502
 20
1944.062446179091
 10
747.1249628815088
 20
1944.023793156955
 10
747.1131428612807
 20
1943.985582244902
 10
747.0998042668761
 20
1943.947874572243
 10
747.084968437201
 20
1943.91073046321
 10
747.0686591064182
 20
1943.874209340453
 10
747.0509023659775
 20
1943.838369629977
 10
747.0317266228759
 20
1943.803268667675
 10
747.0111625542117
 20
1943.768962607598
 10
746.9892430581079
 20
1943.735506332124
 10
746.9660032010826
 20
1943.702953364156
 10
746.9414801619491
 20
1943.6713557815
 10
746.915713172339
 20
1943.640764133547
 10
746.8887434539389
 20
1943.611227360408
 10
746.8606141525452
 20
1943.582792714619
 10
746.8313702690394
 20
1943.555505685548
 10
746.8010585873968
 20
1943.52940992662
 10
746.7697275998416
 20
1943.504547185482
 10
746.7374274292706
 20
1943.480957237218
 10
746.7042097490664
 20
1943.458677820711
 10
746.6701277004309
 20
1943.437744578275
 10
746.6639074431982
 20
1943.434123401734
  0
LWPOLYLINE
  5
1C2
330
87
100
AcDbEntity
  8
P-SANR-FIXT
100
AcDbPolyline
 90
       28
 70
   128
 43
0.0
 10
709.6639074432933
 20
1943.434123401734
 10
709.6296756106767
 20
1943.454810796779
 10
709.5962984350291
 20
1943.47685055231
 10
709.563829312711
 20
1943.500207409417
 10
709.532320187392
 20
1943.524844002114
 10
709.5018214669513
 20
1943.550720917105
 10
709.4723819428351
 20
1943.57779675685
 10
709.4440487120021
 20
1943.606028205779
 10
709.4168671015775
 20
1943.635370099596
 10
709.3908805963395
 20
1943.66577549753
 10
709.366130769153
 20
1943.697195757432
 10
709.3426572144618
 20
1943.729580613587
 10
709.3204974849462
 20
1943.762878257135
 10
709.2996870314458
 20
1943.797035418948
 10
709.2802591462475
 20
1943.831997454855
 10
709.2622449098225
 20
1943.867708433057
 10
709.245673141107
 20
1943.904111223605
 10
709.2305703513954
 20
1943.9411475898
 10
709.2169607019294
 20
1943.978758281358
 10
709.2048659652452
 20
1944.016883129195
 10
709.1943054903413
 20
1944.055461141687
 10
709.1852961717247
 20
1944.094430602244
 10
709.1778524223832
 20
1944.133729168042
 10
709.171986150728
 20
1944.173293969759
 10
709.1677067415425
 20
1944.213061712152
 10
709.1650210409681
 20
1944.252968775318
 10
709.163933345553
 20
1944.292951316467
 10
709.1639074432934
 20
1944.300148805519
  0
LINE
  5
1C3
330
87
100
AcDbEntity
  8
P-SANR-FIXT
100
AcDbLine
 10
709.1639074432934
 20
1947.999999999913
 30
0.0
 11
709.1639074432934
 21
1944.300148805519
 31
0.0
  0
LINE
  5
1C4
330
87
100
AcDbEntity
  8
P-SANR-FIXT
100
AcDbLine
 10
747.1639074431981
 20
1944.300148805518
 30
0.0
 11
747.1639074431983
 21
1947.999999999913
 31
0.0
  0
LINE
  5
1C5
330
87
100
AcDbEntity
  8
P-SANR-FIXT
100
AcDbLine
 10
747.0724172499688
 20
1947.999999999912
 30
0.0
 11
747.0351832625085
 21
1947.999999999912
 31
0.0
  0
LINE
  5
1C6
330
87
100
AcDbEntity
  8
P-SANR-FIXT
100
AcDbLine
 10
746.8470713093488
 20
1947.999999999912
 30
0.0
 11
746.6953755997295
 21
1947.999999999912
 31
0.0
  0
LINE
  5
1C7
330
87
100
AcDbEntity
  8
P-SANR-FIXT
100
AcDbLine
 10
746.4258658583934
 20
1947.999999999912
 30
0.0
 11
746.2118301329243
 21
1947.999999999912
 31
0.0
  0
LINE
  5
1C8
330
87
100
AcDbEntity
  8
P-SANR-FIXT
100
AcDbLine
 10
745.9334194920698
 20
1947.999999999912
 30
0.0
 11
745.702621582458
 21
1947.999999999912
 31
0.0
  0
LINE
  5
1C9
330
87
100
AcDbEntity
  8
P-SANR-FIXT
100
AcDbLine
 10
745.1844718523285
 20
1947.999999999912
 30
0.0
 11
744.6353960638934
 21
1947.999999999912
 31
0.0
  0
LINE
  5
1CA
330
87
100
AcDbEntity
  8
P-SANR-FIXT
100
AcDbLine
 10
743.9986404940319
 20
1947.999999999912
 30
0.0
 11
743.9618300769532
 21
1947.999999999912
 31
0.0
  0
LINE
  5
1CB
330
87
100
AcDbEntity
  8
P-SANR-FIXT
100
AcDbLine
 10
743.7401099166728
 20
1947.999999999912
 30
0.0
 11
740.3830620426695
 21
1947.999999999912
 31
0.0
  0
LINE
  5
1CC
330
87
100
AcDbEntity
  8
P-SANR-FIXT
100
AcDbLine
 10
740.2173798423234
 20
1947.999999999912
 30
0.0
 11
739.0713557448139
 21
1947.999999999912
 31
0.0
  0
LINE
  5
1CD
330
87
100
AcDbEntity
  8
P-SANR-FIXT
100
AcDbLine
 10
738.7197418705904
 20
1947.999999999912
 30
0.0
 11
737.1204454429159
 21
1947.999999999912
 31
0.0
  0
LINE
  5
1CE
330
87
100
AcDbEntity
  8
P-SANR-FIXT
100
AcDbLine
 10
736.2033089089126
 20
1947.999999999912
 30
0.0
 11
735.4348926581629
 21
1947.999999999912
 31
0.0
  0
LINE
  5
1CF
330
87
100
AcDbEntity
  8
P-SANR-FIXT
100
AcDbLine
 10
734.6699312518079
 20
1947.999999999912
 30
0.0
 11
731.8706235615414
 21
1947.999999999912
 31
0.0
  0
LINE
  5
1D0
330
87
100
AcDbEntity
  8
P-SANR-FIXT
100
AcDbLine
 10
731.4656766965581
 20
1947.999999999912
 30
0.0
 11
730.0262331095013
 21
1947.999999999912
 31
0.0
  0
LINE
  5
1D1
330
87
100
AcDbEntity
  8
P-SANR-FIXT
100
AcDbLine
 10
729.8204238440931
 20
1947.999999999912
 30
0.0
 11
726.5073910422881
 21
1947.999999999912
 31
0.0
  0
LINE
  5
1D2
330
87
100
AcDbEntity
  8
P-SANR-FIXT
100
AcDbLine
 10
726.3015817769875
 20
1947.999999999912
 30
0.0
 11
724.8621381898233
 21
1947.999999999912
 31
0.0
  0
LINE
  5
1D3
330
87
100
AcDbEntity
  8
P-SANR-FIXT
100
AcDbLine
 10
724.4571913249472
 20
1947.999999999912
 30
0.0
 11
723.2413145539078
 21
1947.999999999912
 31
0.0
  0
LINE
  5
1D4
330
87
100
AcDbEntity
  8
P-SANR-FIXT
100
AcDbLine
 10
722.7909060533839
 20
1947.999999999912
 30
0.0
 11
721.6578836345728
 21
1947.999999999913
 31
0.0
  0
LINE
  5
1D5
330
87
100
AcDbEntity
  8
P-SANR-FIXT
100
AcDbLine
 10
720.8929222283259
 20
1947.999999999913
 30
0.0
 11
720.1245059774678
 21
1947.999999999913
 31
0.0
  0
LINE
  5
1D6
330
87
100
AcDbEntity
  8
P-SANR-FIXT
100
AcDbLine
 10
718.6534417289602
 20
1947.999999999913
 30
0.0
 11
717.6080730158982
 21
1947.999999999913
 31
0.0
  0
LINE
  5
1D7
330
87
100
AcDbEntity
  8
P-SANR-FIXT
100
AcDbLine
 10
717.2564591415643
 20
1947.999999999913
 30
0.0
 11
716.1104350441653
 21
1947.999999999913
 31
0.0
  0
LINE
  5
1D8
330
87
100
AcDbEntity
  8
P-SANR-FIXT
100
AcDbLine
 10
715.9447528437067
 20
1947.999999999913
 30
0.0
 11
713.6025769850967
 21
1947.999999999913
 31
0.0
  0
LINE
  5
1D9
330
87
100
AcDbEntity
  8
P-SANR-FIXT
100
AcDbLine
 10
713.4767088293891
 20
1947.999999999913
 30
0.0
 11
712.5877049697111
 21
1947.999999999913
 31
0.0
  0
LINE
  5
1DA
330
87
100
AcDbEntity
  8
P-SANR-FIXT
100
AcDbLine
 10
712.3659848095357
 20
1947.999999999913
 30
0.0
 11
712.3291743923661
 21
1947.999999999913
 31
0.0
  0
LINE
  5
1DB
330
87
100
AcDbEntity
  8
P-SANR-FIXT
100
AcDbLine
 10
711.6924188225715
 20
1947.999999999913
 30
0.0
 11
711.4074034206675
 21
1947.999999999913
 31
0.0
  0
LINE
  5
1DC
330
87
100
AcDbEntity
  8
P-SANR-FIXT
100
AcDbLine
 10
710.6251933039324
 20
1947.999999999913
 30
0.0
 11
710.3943953947961
 21
1947.999999999913
 31
0.0
  0
LINE
  5
1DD
330
87
100
AcDbEntity
  8
P-SANR-FIXT
100
AcDbLine
 10
710.1159847527217
 20
1947.999999999913
 30
0.0
 11
709.9019490285695
 21
1947.999999999913
 31
0.0
  0
LINE
  5
1DE
330
87
100
AcDbEntity
  8
P-SANR-FIXT
100
AcDbLine
 10
709.6324392859028
 20
1947.999999999913
 30
0.0
 11
709.4807435773319
 21
1947.999999999913
 31
0.0
  0
LINE
  5
1DF
330
87
100
AcDbEntity
  8
P-SANR-FIXT
100
AcDbLine
 10
709.29263162337
 20
1947.999999999913
 30
0.0
 11
709.2553976365199
 21
1947.999999999913
 31
0.0
  0
LINE
  5
1E0
330
87
100
AcDbEntity
  8
P-SANR-FIXT
100
AcDbLine
 10
713.0139074432443
 20
1941.499999999976
 30
0.0
 11
743.3139074432443
 21
1941.499999999976
 31
0.0
  0
ENDBLK
  5
1E2
330
87
100
AcDbEntity
  8
0
100
AcDbBlockEnd
  0
BLOCK
  5
265
330
1E4
100
AcDbEntity
  8
0
100
AcDbBlockBegin
  2
Automatic flow rate regulator valve_Caleffi_121 DN15 - 1_2__-V1-Est - Idraulica
 70
     0
 10
0.0
 20
0.0
 30
0.0
  3
Automatic flow rate regulator valve_Caleffi_121 DN15 - 1_2__-V1-Est - Idraulica
  1

  0
LINE
  5
1E5
330
1E4
100
AcDbEntity
  8
M-PIPE
100
AcDbLine
 10
745.4517283943574
 20
1627.641937354781
 30
0.0
 11
747.4035030800306
 21
1627.641937354781
 31
0.0
1001
REVIT
1002
{
1070
     3
1000
790271
1002
}
  0
LINE
  5
1E6
330
1E4
100
AcDbEntity
  8
M-PIPE
100
AcDbLine
 10
747.4035030800306
 20
1679.849820105413
 30
0.0
 11
745.4517283943584
 21
1679.849820105413
 31
0.0
1001
REVIT
1002
{
1070
     3
1000
790271
1002
}
  0
LINE
  5
1E7
330
1E4
100
AcDbEntity
  8
M-PIPE
100
AcDbLine
 10
736.9080435354357
 20
1634.874397454735
 30
0.0
 11
744.0877316742326
 21
1628.179229951543
 31
0.0
1001
REVIT
1002
{
1070
     3
1000
790271
1002
}
  0
LINE
  5
1E8
330
1E4
100
AcDbEntity
  8
M-PIPE
100
AcDbLine
 10
744.0877316742333
 20
1679.312527508652
 30
0.0
 11
736.9063973842586
 21
1672.615824944653
 31
0.0
1001
REVIT
1002
{
1070
     3
1000
790271
1002
}
  0
LWPOLYLINE
  5
1E9
330
1E4
100
AcDbEntity
  8
M-PIPE
100
AcDbPolyline
 90
       20
 70
   128
 43
0.0
 10
745.4517283943574
 20
1627.641937354781
 10
745.3717497259843
 20
1627.643537141459
 10
745.2918990064191
 20
1627.648333942176
 10
745.2123039797797
 20
1627.656320083073
 10
745.133091981129
 20
1627.66748278803
 10
745.0543897327674
 20
1627.681804199099
 10
744.9763231415032
 20
1627.699261405077
 10
744.8990170972294
 20
1627.71982647816
 10
744.8225952731253
 20
1627.743466518617
 10
744.7471799278073
 20
1627.770143707426
 10
744.6728917097402
 20
1627.799815366776
 10
744.5998494642254
 20
1627.832434028342
 10
744.5281700432746
 20
1627.867947509223
 10
744.4579681186699
 20
1627.906298995426
 10
744.3893559985157
 20
1627.947427132754
 10
744.3224434475674
 20
1627.991266124962
 10
744.2573375116329
 20
1628.037745839013
 10
744.1941423463207
 20
1628.08679191728
 10
744.1329590504145
 20
1628.1383258965
 10
744.0877316742326
 20
1628.179229951543
1001
REVIT
1002
{
1070
     3
1000
790271
1002
}
  0
LWPOLYLINE
  5
1EA
330
1E4
100
AcDbEntity
  8
M-PIPE
100
AcDbPolyline
 90
       20
 70
   128
 43
0.0
 10
744.0877316742333
 20
1679.312527508652
 10
744.1473154212895
 20
1679.365902819413
 10
744.2089859508426
 20
1679.416852721247
 10
744.2726446032014
 20
1679.465295705177
 10
744.3381895381013
 20
1679.511154272764
 10
744.4055158976291
 20
1679.554355060082
 10
744.4745159739714
 20
1679.594828955088
 10
744.5450793817254
 20
1679.632511208183
 10
744.6170932344917
 20
1679.6673415358
 10
744.6904423254677
 20
1679.699264216846
 10
744.7650093117549
 20
1679.728228181841
 10
744.8406749020819
 20
1679.754187094619
 10
744.9173180476456
 20
1679.777099426458
 10
744.9948161357625
 20
1679.796928522514
 10
745.0730451860238
 20
1679.813642660464
 10
745.1518800486369
 20
1679.827215101252
 10
745.2311946046389
 20
1679.837624131869
 10
745.3108619676598
 20
1679.844853100085
 10
745.3907546869136
 20
1679.848890441095
 10
745.4517283943584
 20
1679.849820105413
1001
REVIT
1002
{
1070
     3
1000
790271
1002
}
  0
ARC
  5
1EB
330
1E4
100
AcDbEntity
  8
P-SANR-FIXT
100
AcDbCircle
 10
728.1639074431693
 20
1653.745878730054
 30
0.0
 40
19.00000000002786
100
AcDbArc
 50
184.9999999999996
 51
185.6278813627825
  0
ARC
  5
1EC
330
1E4
100
AcDbEntity
  8
P-SANR-FIXT
100
AcDbCircle
 10
728.1639074431693
 20
1653.745878730054
 30
0.0
 40
19.00000000002774
100
AcDbArc
 50
189.999999999999
 51
191.2587722183661
  0
ARC
  5
1ED
330
1E4
100
AcDbEntity
  8
P-SANR-FIXT
100
AcDbCircle
 10
728.1639074431693
 20
1653.745878730054
 30
0.0
 40
19.00000000002776
100
AcDbArc
 50
194.9999999999997
 51
196.8909385105946
  0
ARC
  5
1EE
330
1E4
100
AcDbEntity
  8
P-SANR-FIXT
100
AcDbCircle
 10
728.1639074431693
 20
1653.745878730054
 30
0.0
 40
19.00000000002775
100
AcDbArc
 50
199.4802373805727
 51
199.9999999999995
  0
ARC
  5
1EF
330
1E4
100
AcDbEntity
  8
P-SANR-FIXT
100
AcDbCircle
 10
728.1639074431693
 20
1653.745878730054
 30
0.0
 40
19.00000000002772
100
AcDbArc
 50
204.9999999999994
 51
205.1162024039931
  0
ARC
  5
1F0
330
1E4
100
AcDbEntity
  8
P-SANR-FIXT
100
AcDbCircle
 10
728.1639074431693
 20
1653.745878730054
 30
0.0
 40
19.00000000002778
100
AcDbArc
 50
208.1518079188118
 51
209.9999999999993
  0
ARC
  5
1F1
330
1E4
100
AcDbEntity
  8
P-SANR-FIXT
100
AcDbCircle
 10
728.1639074431693
 20
1653.745878730054
 30
0.0
 40
19.00000000002779
100
AcDbArc
 50
213.7763607326846
 51
214.9999999999985
  0
ARC
  5
1F2
330
1E4
100
AcDbEntity
  8
P-SANR-FIXT
100
AcDbCircle
 10
728.1639074431693
 20
1653.745878730054
 30
0.0
 40
19.00000000002774
100
AcDbArc
 50
219.3935715058083
 51
219.9999999999989
  0
ARC
  5
1F3
330
1E4
100
AcDbEntity
  8
P-SANR-FIXT
100
AcDbCircle
 10
728.1639074431693
 20
1653.745878730054
 30
0.0
 40
19.00000000002772
100
AcDbArc
 50
229.9999999999986
 51
230.6064284944762
  0
ARC
  5
1F4
330
1E4
100
AcDbEntity
  8
P-SANR-FIXT
100
AcDbCircle
 10
728.1639074431693
 20
1653.745878730054
 30
0.0
 40
19.00000000002771
100
AcDbArc
 50
234.9999999999982
 51
236.2236392675831
  0
ARC
  5
1F5
330
1E4
100
AcDbEntity
  8
P-SANR-FIXT
100
AcDbCircle
 10
728.1639074431693
 20
1653.745878730054
 30
0.0
 40
19.00000000002776
100
AcDbArc
 50
239.9999999999986
 51
241.8481920814424
  0
ARC
  5
1F6
330
1E4
100
AcDbEntity
  8
P-SANR-FIXT
100
AcDbCircle
 10
728.1639074431693
 20
1653.745878730054
 30
0.0
 40
19.00000000002776
100
AcDbArc
 50
244.7909818530253
 51
244.9999999999984
  0
ARC
  5
1F7
330
1E4
100
AcDbEntity
  8
P-SANR-FIXT
100
AcDbCircle
 10
728.1639074431693
 20
1653.745878730054
 30
0.0
 40
19.00000000002771
100
AcDbArc
 50
247.4774045701309
 51
254.9999999999985
  0
ARC
  5
1F8
330
1E4
100
AcDbEntity
  8
P-SANR-FIXT
100
AcDbCircle
 10
728.1639074431693
 20
1653.745878730054
 30
0.0
 40
19.00000000002785
100
AcDbArc
 50
258.7412277818643
 51
259.9999999999986
  0
ARC
  5
1F9
330
1E4
100
AcDbEntity
  8
P-SANR-FIXT
100
AcDbCircle
 10
728.1639074431693
 20
1653.745878730054
 30
0.0
 40
19.00000000002772
100
AcDbArc
 50
264.3721186374444
 51
264.9999999999986
  0
ARC
  5
1FA
330
1E4
100
AcDbEntity
  8
P-SANR-FIXT
100
AcDbCircle
 10
728.1639074431693
 20
1653.745878730054
 30
0.0
 40
19.00000000002784
100
AcDbArc
 50
274.9999999999986
 51
275.6278813630113
  0
ARC
  5
1FB
330
1E4
100
AcDbEntity
  8
P-SANR-FIXT
100
AcDbCircle
 10
728.1639074431693
 20
1653.745878730054
 30
0.0
 40
19.00000000002783
100
AcDbArc
 50
279.9999999999987
 51
281.258772218598
  0
ARC
  5
1FC
330
1E4
100
AcDbEntity
  8
P-SANR-FIXT
100
AcDbCircle
 10
728.1639074431693
 20
1653.745878730054
 30
0.0
 40
19.00000000002784
100
AcDbArc
 50
284.9999999999986
 51
292.5225954303577
  0
ARC
  5
1FD
330
1E4
100
AcDbEntity
  8
P-SANR-FIXT
100
AcDbCircle
 10
728.1639074431693
 20
1653.745878730054
 30
0.0
 40
19.00000000002772
100
AcDbArc
 50
294.9999999999987
 51
295.2090181571405
  0
ARC
  5
1FE
330
1E4
100
AcDbEntity
  8
P-SANR-FIXT
100
AcDbCircle
 10
728.1639074431693
 20
1653.745878730054
 30
0.0
 40
19.00000000002783
100
AcDbArc
 50
298.151807919067
 51
299.9999999999985
  0
ARC
  5
1FF
330
1E4
100
AcDbEntity
  8
P-SANR-FIXT
100
AcDbCircle
 10
728.1639074431693
 20
1653.745878730054
 30
0.0
 40
19.00000000002783
100
AcDbArc
 50
303.7763607329529
 51
304.9999999999984
  0
ARC
  5
200
330
1E4
100
AcDbEntity
  8
P-SANR-FIXT
100
AcDbCircle
 10
728.1639074431693
 20
1653.745878730054
 30
0.0
 40
19.00000000002774
100
AcDbArc
 50
309.3935715060932
 51
309.9999999999988
  0
ARC
  5
201
330
1E4
100
AcDbEntity
  8
P-SANR-FIXT
100
AcDbCircle
 10
728.1639074431693
 20
1653.745878730054
 30
0.0
 40
19.00000000002772
100
AcDbArc
 50
319.9999999999983
 51
320.6064284941908
  0
ARC
  5
202
330
1E4
100
AcDbEntity
  8
P-SANR-FIXT
100
AcDbCircle
 10
728.1639074431693
 20
1653.745878730054
 30
0.0
 40
19.0000000000279
100
AcDbArc
 50
324.9999999999984
 51
326.2236392673136
  0
ARC
  5
203
330
1E4
100
AcDbEntity
  8
P-SANR-FIXT
100
AcDbCircle
 10
728.1639074431693
 20
1653.745878730054
 30
0.0
 40
19.00000000002778
100
AcDbArc
 50
331.8481920811863
 51
344.9999999999984
  0
ARC
  5
204
330
1E4
100
AcDbEntity
  8
P-SANR-FIXT
100
AcDbCircle
 10
728.1639074431693
 20
1653.745878730054
 30
0.0
 40
19.00000000002774
100
AcDbArc
 50
348.7412277816325
 51
349.9999999999989
  0
ARC
  5
205
330
1E4
100
AcDbEntity
  8
P-SANR-FIXT
100
AcDbCircle
 10
728.1639074431693
 20
1653.745878730054
 30
0.0
 40
19.00000000002777
100
AcDbArc
 50
354.372118637216
 51
354.9999999999989
  0
ARC
  5
206
330
1E4
100
AcDbEntity
  8
P-SANR-FIXT
100
AcDbCircle
 10
728.1639074431693
 20
1653.745878730054
 30
0.0
 40
19.00000000002767
100
AcDbArc
 50
5.000000000000047
 51
5.627881362782884
  0
ARC
  5
207
330
1E4
100
AcDbEntity
  8
P-SANR-FIXT
100
AcDbCircle
 10
728.1639074431693
 20
1653.745878730054
 30
0.0
 40
19.00000000002779
100
AcDbArc
 50
10.00000000000025
 51
11.25877221836665
  0
ARC
  5
208
330
1E4
100
AcDbEntity
  8
P-SANR-FIXT
100
AcDbCircle
 10
728.1639074431693
 20
1653.745878730054
 30
0.0
 40
19.00000000002771
100
AcDbArc
 50
15.0000000000005
 51
16.8909385105948
  0
ARC
  5
209
330
1E4
100
AcDbEntity
  8
P-SANR-FIXT
100
AcDbCircle
 10
728.1639074431693
 20
1653.745878730054
 30
0.0
 40
19.00000000002768
100
AcDbArc
 50
19.53051911725953
 51
19.99999999999996
  0
ARC
  5
20A
330
1E4
100
AcDbEntity
  8
P-SANR-FIXT
100
AcDbCircle
 10
728.1639074431693
 20
1653.745878730054
 30
0.0
 40
19.00000000002771
100
AcDbArc
 50
24.99999999999983
 51
25.21735302794676
  0
ARC
  5
20B
330
1E4
100
AcDbEntity
  8
P-SANR-FIXT
100
AcDbCircle
 10
728.1639074431693
 20
1653.745878730054
 30
0.0
 40
19.00000000002773
100
AcDbArc
 50
28.15180791881181
 51
29.99999999999932
  0
ARC
  5
20C
330
1E4
100
AcDbEntity
  8
P-SANR-FIXT
100
AcDbCircle
 10
728.1639074431693
 20
1653.745878730054
 30
0.0
 40
19.00000000002779
100
AcDbArc
 50
33.77636073268498
 51
34.99999999999963
  0
ARC
  5
20D
330
1E4
100
AcDbEntity
  8
P-SANR-FIXT
100
AcDbCircle
 10
728.1639074431693
 20
1653.745878730054
 30
0.0
 40
19.00000000002774
100
AcDbArc
 50
39.39357150580886
 51
39.9999999999999
  0
ARC
  5
20E
330
1E4
100
AcDbEntity
  8
P-SANR-FIXT
100
AcDbCircle
 10
728.1639074431693
 20
1653.745878730054
 30
0.0
 40
19.00000000002766
100
AcDbArc
 50
49.99999999999967
 51
50.60642849390551
  0
ARC
  5
20F
330
1E4
100
AcDbEntity
  8
P-SANR-FIXT
100
AcDbCircle
 10
728.1639074431693
 20
1653.745878730054
 30
0.0
 40
19.00000000002776
100
AcDbArc
 50
54.99999999999961
 51
56.22363926704641
  0
ARC
  5
210
330
1E4
100
AcDbEntity
  8
P-SANR-FIXT
100
AcDbCircle
 10
728.1639074431693
 20
1653.745878730054
 30
0.0
 40
19.00000000002775
100
AcDbArc
 50
59.99999999999967
 51
61.8481920809321
  0
ARC
  5
211
330
1E4
100
AcDbEntity
  8
P-SANR-FIXT
100
AcDbCircle
 10
728.1639074431693
 20
1653.745878730054
 30
0.0
 40
19.00000000002772
100
AcDbArc
 50
64.79098186544028
 51
64.99999999999968
  0
ARC
  5
212
330
1E4
100
AcDbEntity
  8
P-SANR-FIXT
100
AcDbCircle
 10
728.1639074431693
 20
1653.745878730054
 30
0.0
 40
19.00000000002779
100
AcDbArc
 50
67.4774045696412
 51
74.99999999999968
  0
ARC
  5
213
330
1E4
100
AcDbEntity
  8
P-SANR-FIXT
100
AcDbCircle
 10
728.1639074431693
 20
1653.745878730054
 30
0.0
 40
19.00000000002773
100
AcDbArc
 50
78.74122778140104
 51
79.99999999999919
  0
ARC
  5
214
330
1E4
100
AcDbEntity
  8
P-SANR-FIXT
100
AcDbCircle
 10
728.1639074431693
 20
1653.745878730054
 30
0.0
 40
19.0000000000278
100
AcDbArc
 50
84.37211863698804
 51
84.99999999999966
  0
ARC
  5
215
330
1E4
100
AcDbEntity
  8
P-SANR-FIXT
100
AcDbCircle
 10
728.1639074431693
 20
1653.745878730054
 30
0.0
 40
19.00000000002785
100
AcDbArc
 50
94.99999999999934
 51
95.62788136255488
  0
ARC
  5
216
330
1E4
100
AcDbEntity
  8
P-SANR-FIXT
100
AcDbCircle
 10
728.1639074431693
 20
1653.745878730054
 30
0.0
 40
19.00000000002774
100
AcDbArc
 50
99.99999999999946
 51
101.2587722181343
  0
ARC
  5
217
330
1E4
100
AcDbEntity
  8
P-SANR-FIXT
100
AcDbCircle
 10
728.1639074431693
 20
1653.745878730054
 30
0.0
 40
19.00000000002776
100
AcDbArc
 50
104.9999999999994
 51
112.5225954298686
  0
ARC
  5
218
330
1E4
100
AcDbEntity
  8
P-SANR-FIXT
100
AcDbCircle
 10
728.1639074431693
 20
1653.745878730054
 30
0.0
 40
19.00000000002776
100
AcDbArc
 50
114.9999999999997
 51
115.2090181625512
  0
ARC
  5
219
330
1E4
100
AcDbEntity
  8
P-SANR-FIXT
100
AcDbCircle
 10
728.1639074431693
 20
1653.745878730054
 30
0.0
 40
19.00000000002777
100
AcDbArc
 50
118.1518079185568
 51
119.9999999999994
  0
ARC
  5
21A
330
1E4
100
AcDbEntity
  8
P-SANR-FIXT
100
AcDbCircle
 10
728.1639074431693
 20
1653.745878730054
 30
0.0
 40
19.00000000002778
100
AcDbArc
 50
123.7763607324163
 51
124.9999999999997
  0
ARC
  5
21B
330
1E4
100
AcDbEntity
  8
P-SANR-FIXT
100
AcDbCircle
 10
728.1639074431693
 20
1653.745878730054
 30
0.0
 40
19.00000000002775
100
AcDbArc
 50
129.3935715055229
 51
130.0
  0
ARC
  5
21C
330
1E4
100
AcDbEntity
  8
P-SANR-FIXT
100
AcDbCircle
 10
728.1639074431693
 20
1653.745878730054
 30
0.0
 40
19.00000000002781
100
AcDbArc
 50
139.9999999999996
 51
140.6064284941914
  0
ARC
  5
21D
330
1E4
100
AcDbEntity
  8
P-SANR-FIXT
100
AcDbCircle
 10
728.1639074431693
 20
1653.745878730054
 30
0.0
 40
19.00000000002783
100
AcDbArc
 50
144.9999999999998
 51
146.223639267315
  0
ARC
  5
21E
330
1E4
100
AcDbEntity
  8
P-SANR-FIXT
100
AcDbCircle
 10
728.1639074431693
 20
1653.745878730054
 30
0.0
 40
19.00000000002773
100
AcDbArc
 50
151.8481920811874
 51
164.9999999999995
  0
ARC
  5
21F
330
1E4
100
AcDbEntity
  8
P-SANR-FIXT
100
AcDbCircle
 10
728.1639074431693
 20
1653.745878730054
 30
0.0
 40
19.00000000002785
100
AcDbArc
 50
168.7412277816336
 51
169.9999999999999
  0
ARC
  5
220
330
1E4
100
AcDbEntity
  8
P-SANR-FIXT
100
AcDbCircle
 10
728.1639074431693
 20
1653.745878730054
 30
0.0
 40
19.00000000002776
100
AcDbArc
 50
174.3721186372171
 51
175.0
  0
SPLINE
  5
221
330
1E4
100
AcDbEntity
  8
P-SANR-FIXT
100
AcDbSpline
210
0.0
220
0.0
230
1.0
 70
     8
 71
     3
 72
     9
 73
     5
 74
     0
 42
0.000000001
 43
0.0000000001
 40
0.0
 40
0.0
 40
0.0
 40
0.0
 40
0.5
 40
1.0
 40
1.0
 40
1.0
 40
1.0
 10
748.3711668648851
 20
1656.745878730097
 30
0.0
 10
748.6297492934352
 20
1656.298000825904
 30
0.0
 10
749.0337462779554
 20
1655.329269914745
 30
0.0
 10
749.1750144421823
 20
1654.275911424164
 30
0.0
 10
749.1750144421786
 20
1653.745878730054
 30
0.0
  0
SPLINE
  5
222
330
1E4
100
AcDbEntity
  8
P-SANR-FIXT
100
AcDbSpline
210
0.0
220
0.0
230
1.0
 70
     8
 71
     3
 72
     9
 73
     5
 74
     0
 42
0.000000001
 43
0.0000000001
 40
0.0
 40
0.0
 40
0.0
 40
0.0
 40
0.5
 40
1.0
 40
1.0
 40
1.0
 40
1.0
 10
749.1750144421786
 20
1653.745878730054
 30
0.0
 10
749.1750144421748
 20
1653.215846035958
 30
0.0
 10
749.0337462779407
 20
1652.162487545408
 30
0.0
 10
748.6297492934283
 20
1651.193756634278
 30
0.0
 10
748.3711668648851
 20
1650.745878730097
 30
0.0
  0
SPLINE
  5
223
330
1E4
100
AcDbEntity
  8
P-SANR-FIXT
100
AcDbSpline
210
0.0
220
0.0
230
1.0
 70
    24
 71
     3
 72
     9
 73
     5
 74
     0
 42
0.000000001
 43
0.0000000001
 40
0.0
 40
0.0
 40
0.0
 40
0.0
 40
0.5
 40
0.8384779443308287
 40
0.8384779443308287
 40
0.8384779443308287
 40
0.8384779443308287
 10
740.8656133653908
 20
1669.745878730147
 30
0.0
 10
741.483997504056
 20
1668.674805983385
 30
0.0
 10
742.5269357212292
 20
1666.868384002085
 30
0.0
 10
743.5798271652706
 20
1665.044722526151
 30
0.0
 10
744.0064818143632
 20
1664.305734996637
 30
0.0
  0
SPLINE
  5
224
330
1E4
100
AcDbEntity
  8
P-SANR-FIXT
100
AcDbSpline
210
0.0
220
0.0
230
1.0
 70
    24
 71
     3
 72
     9
 73
     5
 74
     0
 42
0.000000001
 43
0.0000000001
 40
0.0831390767427155
 40
0.0831390767427155
 40
0.0831390767427155
 40
0.0831390767427155
 40
0.5
 40
1.0
 40
1.0
 40
1.0
 40
1.0
 10
744.9336300149756
 20
1662.699867207031
 30
0.0
 10
745.4600123244081
 20
1661.788146302888
 30
0.0
 10
746.6123480813345
 20
1659.792242224513
 30
0.0
 10
747.7527827262243
 20
1657.816951476852
 30
0.0
 10
748.3711668648851
 20
1656.745878730097
 30
0.0
  0
SPLINE
  5
225
330
1E4
100
AcDbEntity
  8
P-SANR-FIXT
100
AcDbSpline
210
0.0
220
0.0
230
1.0
 70
     8
 71
     3
 72
    10
 73
     6
 74
     0
 42
0.000000001
 43
0.0000000001
 40
0.0
 40
0.0
 40
0.0
 40
0.0
 40
0.4
 40
0.7
 40
1.0
 40
1.0
 40
1.0
 40
1.0
 10
735.6694609426843
 20
1672.745878730148
 30
0.0
 10
736.4947878537847
 20
1672.745878730148
 30
0.0
 10
737.9634823331589
 20
1672.440861901777
 30
0.0
 10
739.7610921121729
 20
1671.271040527379
 30
0.0
 10
740.5554761938568
 20
1670.28305206856
 30
0.0
 10
740.8656133653908
 20
1669.745878730147
 30
0.0
  0
SPLINE
  5
226
330
1E4
100
AcDbEntity
  8
P-SANR-FIXT
100
AcDbSpline
210
0.0
220
0.0
230
1.0
 70
    24
 71
     3
 72
     9
 73
     5
 74
     0
 42
0.000000001
 43
0.0000000001
 40
0.0
 40
0.0
 40
0.0
 40
0.0
 40
0.5
 40
1.0
 40
1.0
 40
1.0
 40
1.0
 10
720.6583539436953
 20
1672.745878730148
 30
0.0
 10
721.8951222210179
 20
1672.745878730148
 30
0.0
 10
724.382816081586
 20
1672.745878730148
 30
0.0
 10
726.8988245540006
 20
1672.745878730148
 30
0.0
 10
728.1639074431693
 20
1672.745878730148
 30
0.0
  0
SPLINE
  5
227
330
1E4
100
AcDbEntity
  8
P-SANR-FIXT
100
AcDbSpline
210
0.0
220
0.0
230
1.0
 70
    24
 71
     3
 72
     9
 73
     5
 74
     0
 42
0.000000001
 43
0.0000000001
 40
0.0
 40
0.0
 40
0.0
 40
0.0
 40
0.5
 40
1.0
 40
1.0
 40
1.0
 40
1.0
 10
728.1639074431693
 20
1672.745878730148
 30
0.0
 10
729.4289903323452
 20
1672.745878730148
 30
0.0
 10
731.9449988047734
 20
1672.745878730148
 30
0.0
 10
734.432692665355
 20
1672.745878730148
 30
0.0
 10
735.6694609426843
 20
1672.745878730148
 30
0.0
  0
SPLINE
  5
228
330
1E4
100
AcDbEntity
  8
P-SANR-FIXT
100
AcDbSpline
210
0.0
220
0.0
230
1.0
 70
     8
 71
     3
 72
    10
 73
     6
 74
     0
 42
0.000000001
 43
0.0000000001
 40
0.0
 40
0.0
 40
0.0
 40
0.0
 40
0.4
 40
0.7
 40
1.0
 40
1.0
 40
1.0
 40
1.0
 10
715.4622015209886
 20
1669.745878730148
 30
0.0
 10
715.8748649765389
 20
1670.460632801588
 30
0.0
 10
716.8733645381766
 20
1671.580051116938
 30
0.0
 10
718.7852644558017
 20
1672.551916164457
 30
0.0
 10
720.0380796006271
 20
1672.745878730148
 30
0.0
 10
720.6583539436953
 20
1672.745878730148
 30
0.0
  0
SPLINE
  5
229
330
1E4
100
AcDbEntity
  8
P-SANR-FIXT
100
AcDbSpline
210
0.0
220
0.0
230
1.0
 70
    24
 71
     3
 72
     9
 73
     5
 74
     0
 42
0.000000001
 43
0.0000000001
 40
0.0
 40
0.0
 40
0.0
 40
0.0
 40
0.5
 40
0.9168609232597125
 40
0.9168609232597125
 40
0.9168609232597125
 40
0.9168609232597125
 10
707.9566480214942
 20
1656.745878730097
 30
0.0
 10
708.575032160153
 20
1657.816951476849
 30
0.0
 10
709.7154668050428
 20
1659.79224222451
 30
0.0
 10
710.8678025619691
 20
1661.788146302885
 30
0.0
 10
711.3941848714035
 20
1662.69986720703
 30
0.0
  0
SPLINE
  5
22A
330
1E4
100
AcDbEntity
  8
P-SANR-FIXT
100
AcDbSpline
210
0.0
220
0.0
230
1.0
 70
    24
 71
     3
 72
     9
 73
     5
 74
     0
 42
0.000000001
 43
0.0000000001
 40
0.1615220556713459
 40
0.1615220556713459
 40
0.1615220556713459
 40
0.1615220556713459
 40
0.5
 40
1.0
 40
1.0
 40
1.0
 40
1.0
 10
712.321333072016
 20
1664.305734996637
 30
0.0
 10
712.7479877211072
 20
1665.044722526149
 30
0.0
 10
713.8008791651489
 20
1666.868384002083
 30
0.0
 10
714.8438173823222
 20
1668.674805983382
 30
0.0
 10
715.4622015209886
 20
1669.745878730148
 30
0.0
  0
SPLINE
  5
22B
330
1E4
100
AcDbEntity
  8
P-SANR-FIXT
100
AcDbSpline
210
0.0
220
0.0
230
1.0
 70
     8
 71
     3
 72
     9
 73
     5
 74
     0
 42
0.000000001
 43
0.0000000001
 40
0.0
 40
0.0
 40
0.0
 40
0.0
 40
0.5
 40
1.0
 40
1.0
 40
1.0
 40
1.0
 10
707.956648021494
 20
1650.745878730097
 30
0.0
 10
707.6980655929511
 20
1651.193756634279
 30
0.0
 10
707.2940686084386
 20
1652.162487545409
 30
0.0
 10
707.1528004442045
 20
1653.215846035958
 30
0.0
 10
707.1528004442008
 20
1653.745878730054
 30
0.0
  0
SPLINE
  5
22C
330
1E4
100
AcDbEntity
  8
P-SANR-FIXT
100
AcDbSpline
210
0.0
220
0.0
230
1.0
 70
     8
 71
     3
 72
     9
 73
     5
 74
     0
 42
0.000000001
 43
0.0000000001
 40
0.0
 40
0.0
 40
0.0
 40
0.0
 40
0.5
 40
1.0
 40
1.0
 40
1.0
 40
1.0
 10
707.1528004442008
 20
1653.745878730054
 30
0.0
 10
707.1528004441971
 20
1654.275911424164
 30
0.0
 10
707.2940686084238
 20
1655.329269914746
 30
0.0
 10
707.6980655929442
 20
1656.298000825904
 30
0.0
 10
707.9566480214942
 20
1656.745878730097
 30
0.0
  0
SPLINE
  5
22D
330
1E4
100
AcDbEntity
  8
P-SANR-FIXT
100
AcDbSpline
210
0.0
220
0.0
230
1.0
 70
    24
 71
     3
 72
     9
 73
     5
 74
     0
 42
0.000000001
 43
0.0000000001
 40
0.0
 40
0.0
 40
0.0
 40
0.0
 40
0.5
 40
0.8384779443237368
 40
0.8384779443237368
 40
0.8384779443237368
 40
0.8384779443237368
 10
715.4622015209885
 20
1637.745878730046
 30
0.0
 10
714.8438173823283
 20
1638.8169514768
 30
0.0
 10
713.8008791651716
 20
1640.623373458071
 30
0.0
 10
712.7479877211465
 20
1642.447034933977
 30
0.0
 10
712.3213330720658
 20
1643.186022463471
 30
0.0
  0
SPLINE
  5
22E
330
1E4
100
AcDbEntity
  8
P-SANR-FIXT
100
AcDbSpline
210
0.0
220
0.0
230
1.0
 70
    24
 71
     3
 72
     9
 73
     5
 74
     0
 42
0.000000001
 43
0.0000000001
 40
0.0831390767361036
 40
0.0831390767361036
 40
0.0831390767361036
 40
0.0831390767361036
 40
0.5
 40
1.0
 40
1.0
 40
1.0
 40
1.0
 10
711.3941848714532
 20
1644.791890253078
 30
0.0
 10
710.867802562008
 20
1645.703611157242
 30
0.0
 10
709.7154668050645
 20
1647.699515235646
 30
0.0
 10
708.5750321601587
 20
1649.674805983335
 30
0.0
 10
707.956648021494
 20
1650.745878730097
 30
0.0
  0
SPLINE
  5
22F
330
1E4
100
AcDbEntity
  8
P-SANR-FIXT
100
AcDbSpline
210
0.0
220
0.0
230
1.0
 70
     8
 71
     3
 72
    10
 73
     6
 74
     0
 42
0.000000001
 43
0.0000000001
 40
0.0
 40
0.0
 40
0.0
 40
0.0
 40
0.4
 40
0.7
 40
1.0
 40
1.0
 40
1.0
 40
1.0
 10
720.6583539436951
 20
1634.745878730046
 30
0.0
 10
719.8330270325945
 20
1634.745878730046
 30
0.0
 10
718.3643325532203
 20
1635.050895558417
 30
0.0
 10
716.5667227742063
 20
1636.220716932814
 30
0.0
 10
715.7723386925225
 20
1637.208705391634
 30
0.0
 10
715.4622015209885
 20
1637.745878730046
 30
0.0
  0
SPLINE
  5
230
330
1E4
100
AcDbEntity
  8
P-SANR-FIXT
100
AcDbSpline
210
0.0
220
0.0
230
1.0
 70
    24
 71
     3
 72
     9
 73
     5
 74
     0
 42
0.000000001
 43
0.0000000001
 40
0.0
 40
0.0
 40
0.0
 40
0.0
 40
0.5
 40
1.0
 40
1.0
 40
1.0
 40
1.0
 10
735.6694609426839
 20
1634.745878730046
 30
0.0
 10
734.4326926653558
 20
1634.745878730046
 30
0.0
 10
731.9449988047754
 20
1634.745878730046
 30
0.0
 10
729.428990332346
 20
1634.745878730046
 30
0.0
 10
728.1639074431691
 20
1634.745878730046
 30
0.0
  0
SPLINE
  5
231
330
1E4
100
AcDbEntity
  8
P-SANR-FIXT
100
AcDbSpline
210
0.0
220
0.0
230
1.0
 70
    24
 71
     3
 72
     9
 73
     5
 74
     0
 42
0.000000001
 43
0.0000000001
 40
0.0
 40
0.0
 40
0.0
 40
0.0
 40
0.5
 40
1.0
 40
1.0
 40
1.0
 40
1.0
 10
728.1639074431691
 20
1634.745878730046
 30
0.0
 10
726.8988245539993
 20
1634.745878730046
 30
0.0
 10
724.3828160815836
 20
1634.745878730046
 30
0.0
 10
721.8951222210165
 20
1634.745878730046
 30
0.0
 10
720.6583539436951
 20
1634.745878730046
 30
0.0
  0
SPLINE
  5
232
330
1E4
100
AcDbEntity
  8
P-SANR-FIXT
100
AcDbSpline
210
0.0
220
0.0
230
1.0
 70
     8
 71
     3
 72
    10
 73
     6
 74
     0
 42
0.000000001
 43
0.0000000001
 40
0.0
 40
0.0
 40
0.0
 40
0.0
 40
0.4
 40
0.7
 40
1.0
 40
1.0
 40
1.0
 40
1.0
 10
740.8656133653906
 20
1637.745878730046
 30
0.0
 10
740.4529499098402
 20
1637.031124658606
 30
0.0
 10
739.4544503482022
 20
1635.911706343255
 30
0.0
 10
737.5425504305769
 20
1634.939841295737
 30
0.0
 10
736.2897352857519
 20
1634.745878730046
 30
0.0
 10
735.6694609426839
 20
1634.745878730046
 30
0.0
  0
SPLINE
  5
233
330
1E4
100
AcDbEntity
  8
P-SANR-FIXT
100
AcDbSpline
210
0.0
220
0.0
230
1.0
 70
    24
 71
     3
 72
     9
 73
     5
 74
     0
 42
0.000000001
 43
0.0000000001
 40
0.0
 40
0.0
 40
0.0
 40
0.0
 40
0.5
 40
0.9168609232613883
 40
0.9168609232613883
 40
0.9168609232613883
 40
0.9168609232613883
 10
748.3711668648851
 20
1650.745878730097
 30
0.0
 10
747.7527827262187
 20
1649.674805983332
 30
0.0
 10
746.6123480813126
 20
1647.699515235643
 30
0.0
 10
745.4600123243694
 20
1645.703611157239
 30
0.0
 10
744.933630014926
 20
1644.791890253078
 30
0.0
  0
SPLINE
  5
234
330
1E4
100
AcDbEntity
  8
P-SANR-FIXT
100
AcDbSpline
210
0.0
220
0.0
230
1.0
 70
    24
 71
     3
 72
     9
 73
     5
 74
     0
 42
0.000000001
 43
0.0000000001
 40
0.1615220556739976
 40
0.1615220556739976
 40
0.1615220556739976
 40
0.1615220556739976
 40
0.5
 40
1.0
 40
1.0
 40
1.0
 40
1.0
 10
744.0064818143135
 20
1643.186022463471
 30
0.0
 10
743.5798271652313
 20
1642.447034933974
 30
0.0
 10
742.5269357212063
 20
1640.623373458069
 30
0.0
 10
741.4839975040494
 20
1638.816951476798
 30
0.0
 10
740.8656133653907
 20
1637.745878730046
 30
0.0
  0
LWPOLYLINE
  5
235
330
1E4
100
AcDbEntity
  8
P-SANR-FIXT
100
AcDbPolyline
 90
       80
 70
   128
 43
0.0
 10
709.1639074432934
 20
1653.745878730054
 10
709.1791054167347
 20
1652.98608138051
 10
709.2246750235433
 20
1652.227499544644
 10
709.3005433620694
 20
1651.471346791571
 10
709.4065890591557
 20
1650.718832804392
 10
709.5426424643087
 20
1649.971161444958
 10
709.7084859211033
 20
1649.22952882795
 10
709.9038541153868
 20
1648.495121407349
 10
710.1284344997245
 20
1647.769114078363
 10
710.3818677934095
 20
1647.052668297845
 10
710.6637485572347
 20
1646.346930226209
 10
710.9736258421094
 20
1645.653028893821
 10
711.3110039104815
 20
1644.972074394788
 10
711.6753430294116
 20
1644.305156111047
 10
712.0660603340312
 20
1643.653340969583
 10
712.482530760001
 20
1643.017671735576
 10
712.9240880434824
 20
1642.399165344197
 10
713.3900257870151
 20
1641.798811273734
 10
713.8795985896044
 20
1641.217569962628
 10
714.392023239203
 20
1640.656371272987
 10
714.9264799656826
 20
1640.116113002997
 10
715.4821137522926
 20
1639.597659450643
 10
716.0580357035031
 20
1639.10184003101
 10
716.6533244670488
 20
1638.629447949401
 10
717.2670277078963
 20
1638.181238932375
 10
717.898163631777
 20
1637.757930018744
 10
718.545722555847
 20
1637.360198412472
 10
719.2086685239671
 20
1636.988680399282
 10
719.8859409640089
 20
1636.643970328744
 10
720.5764563845455
 20
1636.326619663434
 10
721.2791101082063
 20
1636.037136096722
 10
721.9927780389245
 20
1635.775982740558
 10
722.7163184602523
 20
1635.543577384605
 10
723.4485738618626
 20
1635.340291827853
 10
724.1883727913188
 20
1635.16645128383
 10
724.9345317281493
 20
1635.022333860321
 10
725.6858569772274
 20
1634.908170114459
 10
726.4411465784283
 20
1634.824142683887
 10
727.1991922295102
 20
1634.770385994566
 10
727.9587812191392
 20
1634.746986045733
 10
728.7186983669689
 20
1634.753980272314
 10
729.4777279676696
 20
1634.791357485038
 10
730.2346557357982
 20
1634.859057888338
 10
730.9882707483946
 20
1634.956973176012
 10
731.7373673822015
 20
1635.084946704487
 10
732.4807472424035
 20
1635.242773743415
 10
733.2172210798038
 20
1635.430201803204
 10
733.9456106933681
 20
1635.646931038939
 10
734.6647508150965
 20
1635.892614730078
 10
735.3734909742028
 20
1636.166859835123
 10
736.0706973376218
 20
1636.46922762041
 10
736.7552545239016
 20
1636.799234361983
 10
737.4260673875754
 20
1637.156352119453
 10
738.0820627711602
 20
1637.540009580591
 10
738.722191221981
 20
1637.949592975299
 10
739.3454286710695
 20
1638.384447057521
 10
739.9507780714571
 20
1638.843876153488
 10
740.5372709932382
 20
1639.327145274653
 10
741.1039691728493
 20
1639.833481293514
 10
741.6499660140924
 20
1640.362074180455
 10
742.1743880384942
 20
1640.912078299615
 10
742.6763962826872
 20
1641.482613761732
 10
743.1551876405694
 20
1642.072767831775
 10
743.6099961481049
 20
1642.681596389125
 10
744.0400942087027
 20
1643.308125437965
 10
744.4447937572151
 20
1643.951352665471
 10
744.8234473606954
 20
1644.610249045293
 10
745.1754492541535
 20
1645.28376048378
 10
745.5002363096496
 20
1645.970809506305
 10
745.797288937179
 20
1646.670296980996
 10
746.0661319159055
 20
1647.381103877108
 10
746.3063351544133
 20
1648.102093055239
 10
746.5175143787613
 20
1648.832111086506
 10
746.6993317472399
 20
1649.569990097788
 10
746.8514963908451
 20
1650.314549640073
 10
746.9737648786071
 20
1651.064598576924
 10
747.0659416070282
 20
1651.818936990044
 10
747.127879113006
 20
1652.576358098889
 10
747.1594783097438
 20
1653.33565019126
 10
747.1639074431981
 20
1653.745878730054
  0
LWPOLYLINE
  5
236
330
1E4
100
AcDbEntity
  8
P-SANR-FIXT
100
AcDbPolyline
 90
       80
 70
   128
 43
0.0
 10
747.1639074431981
 20
1653.745878730054
 10
747.1487094697567
 20
1654.505676079599
 10
747.103139862948
 20
1655.264257915465
 10
747.0272715244219
 20
1656.020410668539
 10
746.9212258273357
 20
1656.772924655718
 10
746.7851724221827
 20
1657.520596015151
 10
746.6193289653881
 20
1658.262228632159
 10
746.4239607711045
 20
1658.99663605276
 10
746.199380386767
 20
1659.722643381746
 10
745.9459470930818
 20
1660.439089162265
 10
745.6640663292567
 20
1661.144827233901
 10
745.354189044382
 20
1661.838728566288
 10
745.0168109760099
 20
1662.519683065321
 10
744.6524718570798
 20
1663.186601349062
 10
744.2617545524604
 20
1663.838416490526
 10
743.8452841264903
 20
1664.474085724534
 10
743.403726843009
 20
1665.092592115912
 10
742.9377890994762
 20
1665.692946186376
 10
742.4482162968867
 20
1666.274187497481
 10
741.9357916472884
 20
1666.835386187122
 10
741.4013349208087
 20
1667.375644457111
 10
740.8457011341988
 20
1667.894098009465
 10
740.2697791829884
 20
1668.389917429098
 10
739.6744904194425
 20
1668.862309510708
 10
739.0607871785951
 20
1669.310518527734
 10
738.4296512547146
 20
1669.733827441364
 10
737.7820923306443
 20
1670.131559047637
 10
737.1191463625242
 20
1670.503077060827
 10
736.4418739224824
 20
1670.847787131365
 10
735.7513585019459
 20
1671.165137796675
 10
735.0487047782852
 20
1671.454621363388
 10
734.3350368475669
 20
1671.715774719551
 10
733.6114964262391
 20
1671.948180075504
 10
732.879241024629
 20
1672.151465632255
 10
732.1394420951727
 20
1672.325306176279
 10
731.3932831583421
 20
1672.469423599789
 10
730.6419579092642
 20
1672.58358734565
 10
729.8866683080632
 20
1672.667614776222
 10
729.1286226569812
 20
1672.721371465543
 10
728.3690336673521
 20
1672.744771414376
 10
727.6091165195225
 20
1672.737777187796
 10
726.8500869188218
 20
1672.700399975071
 10
726.0931591506931
 20
1672.632699571771
 10
725.3395441380968
 20
1672.534784284097
 10
724.5904475042897
 20
1672.406810755623
 10
723.8470676440877
 20
1672.248983716694
 10
723.1105938066876
 20
1672.061555656905
 10
722.3822041931232
 20
1671.84482642117
 10
721.6630640713948
 20
1671.599142730031
 10
720.9543239122888
 20
1671.324897624986
 10
720.2571175488698
 20
1671.022529839699
 10
719.5725603625897
 20
1670.692523098126
 10
718.901747498916
 20
1670.335405340656
 10
718.245752115331
 20
1669.951747879518
 10
717.6056236645104
 20
1669.54216448481
 10
716.9823862154219
 20
1669.107310402588
 10
716.3770368150343
 20
1668.647881306621
 10
715.7905438932533
 20
1668.164612185456
 10
715.2238457136421
 20
1667.658276166594
 10
714.6778488723993
 20
1667.129683279654
 10
714.1534268479971
 20
1666.579679160494
 10
713.6514186038043
 20
1666.009143698377
 10
713.1726272459221
 20
1665.418989628334
 10
712.7178187383864
 20
1664.810161070984
 10
712.2877206777887
 20
1664.183632022144
 10
711.8830211292763
 20
1663.540404794638
 10
711.504367525796
 20
1662.881508414816
 10
711.1523656323379
 20
1662.207996976329
 10
710.827578576842
 20
1661.520947953803
 10
710.5305259493124
 20
1660.821460479113
 10
710.261682970586
 20
1660.110653583001
 10
710.0214797320782
 20
1659.38966440487
 10
709.81030050773
 20
1658.659646373603
 10
709.6284831392514
 20
1657.921767362321
 10
709.4763184956463
 20
1657.177207820036
 10
709.3540500078843
 20
1656.427158883185
 10
709.2618732794633
 20
1655.672820470065
 10
709.1999357734855
 20
1654.91539936122
 10
709.1683365767477
 20
1654.156107268849
 10
709.1639074432934
 20
1653.745878730054
  0
ARC
  5
237
330
1E4
100
AcDbEntity
  8
P-SANR-FIXT
100
AcDbCircle
 10
728.1639074432444
 20
1653.745878730054
 30
0.0
 40
15.14999999999986
100
AcDbArc
 50
180.0
 51
0.0
  0
ARC
  5
238
330
1E4
100
AcDbEntity
  8
P-SANR-FIXT
100
AcDbCircle
 10
728.1639074432444
 20
1653.745878730054
 30
0.0
 40
15.14999999999985
100
AcDbArc
 50
0.0000000000002163
 51
180.0000000000002
  0
ARC
  5
239
330
1E4
100
AcDbEntity
  8
P-SANR-FIXT
100
AcDbCircle
 10
728.1639074432444
 20
1653.745878730054
 30
0.0
 40
13.99999999999989
100
AcDbArc
 50
180.0
 51
0.0
  0
ARC
  5
23A
330
1E4
100
AcDbEntity
  8
P-SANR-FIXT
100
AcDbCircle
 10
728.1639074432444
 20
1653.745878730054
 30
0.0
 40
13.99999999999997
100
AcDbArc
 50
0.0000000000002417
 51
180.0000000000002
  0
ARC
  5
23B
330
1E4
100
AcDbEntity
  8
P-SANR-FIXT
100
AcDbCircle
 10
815.6664074431878
 20
1653.745878730054
 30
0.0
 40
11.31762131886626
100
AcDbArc
 50
180.0
 51
0.0
  0
ARC
  5
23C
330
1E4
100
AcDbEntity
  8
P-SANR-FIXT
100
AcDbCircle
 10
815.6664074431878
 20
1653.745878730054
 30
0.0
 40
11.31762131886614
100
AcDbArc
 50
0.0
 51
180.0
  0
ARC
  5
23D
330
1E4
100
AcDbEntity
  8
P-SANR-FIXT
100
AcDbCircle
 10
815.6664074431878
 20
1653.745878730054
 30
0.0
 40
11.9999999999992
100
AcDbArc
 50
180.0
 51
0.0
  0
ARC
  5
23E
330
1E4
100
AcDbEntity
  8
P-SANR-FIXT
100
AcDbCircle
 10
815.6664074431878
 20
1653.745878730054
 30
0.0
 40
11.99999999999909
100
AcDbArc
 50
0.0
 51
180.0
  0
LINE
  5
23F
330
1E4
100
AcDbEntity
  8
P-SANR-FIXT
100
AcDbLine
 10
827.6664074431868
 20
1647.782658123703
 30
0.0
 11
827.6664074431865
 21
1659.709099336405
 31
0.0
  0
ARC
  5
240
330
1E4
100
AcDbEntity
  8
P-SANR-FIXT
100
AcDbCircle
 10
815.6664074431867
 20
1653.745878730054
 30
0.0
 40
13.40000000000029
100
AcDbArc
 50
26.42439207882407
 51
33.57560792117814
  0
LINE
  5
241
330
1E4
100
AcDbEntity
  8
P-SANR-FIXT
100
AcDbLine
 10
826.8307079766575
 20
1661.156573272292
 30
0.0
 11
816.5021069097154
 21
1667.119793878643
 31
0.0
  0
ARC
  5
242
330
1E4
100
AcDbEntity
  8
P-SANR-FIXT
100
AcDbCircle
 10
815.6664074431867
 20
1653.745878730054
 30
0.0
 40
13.40000000000014
100
AcDbArc
 50
86.42439207882405
 51
93.57560792117789
  0
LINE
  5
243
330
1E4
100
AcDbEntity
  8
P-SANR-FIXT
100
AcDbLine
 10
814.8307079766576
 20
1667.119793878643
 30
0.0
 11
804.5021069097158
 21
1661.156573272291
 31
0.0
  0
ARC
  5
244
330
1E4
100
AcDbEntity
  8
P-SANR-FIXT
100
AcDbCircle
 10
815.6664074431867
 20
1653.745878730054
 30
0.0
 40
13.40000000000012
100
AcDbArc
 50
146.4243920788254
 51
153.5756079211792
  0
LINE
  5
245
330
1E4
100
AcDbEntity
  8
P-SANR-FIXT
100
AcDbLine
 10
803.6664074431868
 20
1659.709099336405
 30
0.0
 11
803.6664074431872
 21
1647.782658123702
 31
0.0
  0
ARC
  5
246
330
1E4
100
AcDbEntity
  8
P-SANR-FIXT
100
AcDbCircle
 10
815.6664074431867
 20
1653.745878730054
 30
0.0
 40
13.40000000000024
100
AcDbArc
 50
206.4243920788251
 51
213.5756079211795
  0
LINE
  5
247
330
1E4
100
AcDbEntity
  8
P-SANR-FIXT
100
AcDbLine
 10
804.5021069097163
 20
1646.335184187815
 30
0.0
 11
814.8307079766585
 21
1640.371963581465
 31
0.0
  0
ARC
  5
248
330
1E4
100
AcDbEntity
  8
P-SANR-FIXT
100
AcDbCircle
 10
815.6664074431867
 20
1653.745878730054
 30
0.0
 40
13.40000000000035
100
AcDbArc
 50
266.4243920788252
 51
273.575607921179
  0
LINE
  5
249
330
1E4
100
AcDbEntity
  8
P-SANR-FIXT
100
AcDbLine
 10
816.5021069097162
 20
1640.371963581465
 30
0.0
 11
826.830707976658
 21
1646.335184187817
 31
0.0
  0
ARC
  5
24A
330
1E4
100
AcDbEntity
  8
P-SANR-FIXT
100
AcDbCircle
 10
815.6664074431867
 20
1653.745878730054
 30
0.0
 40
13.40000000000038
100
AcDbArc
 50
326.4243920788238
 51
333.5756079211778
  0
LINE
  5
24B
330
1E4
100
AcDbEntity
  8
P-SANR-FIXT
100
AcDbLine
 10
747.4035030800306
 20
1620.995878730064
 30
0.0
 11
767.4751872035401
 21
1620.995878730064
 31
0.0
  0
LINE
  5
24C
330
1E4
100
AcDbEntity
  8
P-SANR-FIXT
100
AcDbLine
 10
767.4751872035401
 20
1686.495878730045
 30
0.0
 11
747.4035030800306
 21
1686.495878730045
 31
0.0
  0
LINE
  5
24D
330
1E4
100
AcDbEntity
  8
P-SANR-FIXT
100
AcDbLine
 10
767.4751872035401
 20
1620.995878730064
 30
0.0
 11
768.2035030800318
 21
1621.724194606555
 31
0.0
  0
LINE
  5
24E
330
1E4
100
AcDbEntity
  8
P-SANR-FIXT
100
AcDbLine
 10
768.2035030800318
 20
1685.767562853554
 30
0.0
 11
767.4751872035401
 21
1686.495878730045
 31
0.0
  0
LINE
  5
24F
330
1E4
100
AcDbEntity
  8
P-SANR-FIXT
100
AcDbLine
 10
747.4035030800292
 20
1649.126144183925
 30
0.0
 11
747.4035030800292
 21
1620.995878730063
 31
0.0
  0
LINE
  5
250
330
1E4
100
AcDbEntity
  8
P-SANR-FIXT
100
AcDbLine
 10
747.4035030800292
 20
1658.365613276252
 30
0.0
 11
747.4035030800292
 21
1686.495878730044
 31
0.0
  0
LINE
  5
251
330
1E4
100
AcDbEntity
  8
P-SANR-FIXT
100
AcDbLine
 10
767.4751872035387
 20
1620.995878730063
 30
0.0
 11
767.4751872035387
 21
1653.745878730054
 31
0.0
  0
LINE
  5
252
330
1E4
100
AcDbEntity
  8
P-SANR-FIXT
100
AcDbLine
 10
767.4751872035387
 20
1653.745878730054
 30
0.0
 11
767.4751872035387
 21
1686.495878730044
 31
0.0
  0
LINE
  5
253
330
1E4
100
AcDbEntity
  8
P-SANR-FIXT
100
AcDbLine
 10
768.2035030800303
 20
1621.724194606555
 30
0.0
 11
768.2035030800303
 21
1653.745878730054
 31
0.0
  0
LINE
  5
254
330
1E4
100
AcDbEntity
  8
P-SANR-FIXT
100
AcDbLine
 10
768.2035030800303
 20
1653.745878730054
 30
0.0
 11
768.2035030800303
 21
1685.767562853553
 31
0.0
  0
ARC
  5
255
330
1E4
100
AcDbEntity
  8
P-SANR-FIXT
100
AcDbCircle
 10
815.6664074431878
 20
1653.745878730054
 30
0.0
 40
13.99999999999966
100
AcDbArc
 50
0.0
 51
180.0
  0
ARC
  5
256
330
1E4
100
AcDbEntity
  8
P-SANR-FIXT
100
AcDbCircle
 10
815.6664074431878
 20
1653.745878730054
 30
0.0
 40
13.99999999999966
100
AcDbArc
 50
180.0
 51
0.0
  0
ARC
  5
257
330
1E4
100
AcDbEntity
  8
P-SANR-FIXT
100
AcDbCircle
 10
815.6664074431878
 20
1653.745878730054
 30
0.0
 40
41.99999999999994
100
AcDbArc
 50
179.9999999999998
 51
359.9999999999991
  0
ARC
  5
258
330
1E4
100
AcDbEntity
  8
P-SANR-FIXT
100
AcDbCircle
 10
815.6664074431878
 20
1653.745878730054
 30
0.0
 40
41.99999999999991
100
AcDbArc
 50
359.9999999999996
 51
179.9999999999996
  0
LINE
  5
259
330
1E4
100
AcDbEntity
  8
P-SANR-FIXT
100
AcDbLine
 10
768.2035030800319
 20
1624.745878730054
 30
0.0
 11
769.7035030800565
 21
1624.745878730054
 31
0.0
  0
LINE
  5
25A
330
1E4
100
AcDbEntity
  8
P-SANR-FIXT
100
AcDbLine
 10
769.7035030800565
 20
1682.745878730054
 30
0.0
 11
768.2035030800319
 21
1682.745878730054
 31
0.0
  0
LINE
  5
25B
330
1E4
100
AcDbEntity
  8
P-SANR-FIXT
100
AcDbLine
 10
769.7035030800565
 20
1624.745878730054
 30
0.0
 11
769.7427892548729
 21
1624.813924380871
 31
0.0
  0
LINE
  5
25C
330
1E4
100
AcDbEntity
  8
P-SANR-FIXT
100
AcDbLine
 10
769.7551166478277
 20
1624.835276051794
 30
0.0
 11
771.4932889145442
 21
1627.845878730054
 31
0.0
  0
LINE
  5
25D
330
1E4
100
AcDbEntity
  8
P-SANR-FIXT
100
AcDbLine
 10
771.4932889145442
 20
1679.645878730054
 30
0.0
 11
769.7551166478277
 21
1682.656481408315
 31
0.0
  0
LINE
  5
25E
330
1E4
100
AcDbEntity
  8
P-SANR-FIXT
100
AcDbLine
 10
769.7427892548729
 20
1682.677833079237
 30
0.0
 11
769.7035030800565
 21
1682.745878730055
 31
0.0
  0
LWPOLYLINE
  5
25F
330
1E4
100
AcDbEntity
  8
P-SANR-FIXT
100
AcDbPolyline
 90
       28
 70
   128
 43
0.0
 10
772.1861092375718
 20
1628.245878730054
 10
772.1541177702227
 20
1628.245238815383
 10
772.1221774823966
 20
1628.243320095096
 10
772.0903394717407
 20
1628.240125638737
 10
772.0586546722804
 20
1628.235660556755
 10
772.0271737729357
 20
1628.229931992327
 10
771.9959471364302
 20
1628.222949109936
 10
771.9650247187206
 20
1628.214723080703
 10
771.934455989079
 20
1628.205267064521
 10
771.9042898509518
 20
1628.194596188996
 10
771.8745745637249
 20
1628.182727525256
 10
771.8453576655191
 20
1628.16968006063
 10
771.8166858971386
 20
1628.155474668278
 10
771.7886051272968
 20
1628.140134073796
 10
771.7611602792352
 20
1628.123682818865
 10
771.7343952588557
 20
1628.106147221982
 10
771.708352884482
 20
1628.087555336362
 10
771.6830748183572
 20
1628.067936905055
 10
771.6586014999948
 20
1628.047323313367
 10
771.6349720814835
 20
1628.025747538647
 10
771.6122243648522
 20
1628.003244097532
 10
771.5903947415952
 20
1627.979848990727
 10
771.5695181344527
 20
1627.955599645413
 10
771.5496279415427
 20
1627.930534855369
 10
771.5307559829311
 20
1627.904694718912
 10
771.5129324497255
 20
1627.878120574749
 10
771.4961858557773
 20
1627.85085493584
 10
771.4932889145442
 20
1627.845878730054
  0
LWPOLYLINE
  5
260
330
1E4
100
AcDbEntity
  8
P-SANR-FIXT
100
AcDbPolyline
 90
       28
 70
   128
 43
0.0
 10
771.4932889145442
 20
1679.645878730054
 10
771.5098388305805
 20
1679.618493263961
 10
771.5274706350045
 20
1679.591791523443
 10
771.5461561206906
 20
1679.565816225589
 10
771.5658653948477
 20
1679.540608925333
 10
771.5865669268413
 20
1679.516209948981
 10
771.6082275986369
 20
1679.492658329688
 10
771.6308127577796
 20
1679.469991745022
 10
771.6542862728333
 20
1679.448246456682
 10
771.678610591181
 20
1679.427457252491
 10
771.7037467991023
 20
1679.407657390743
 10
771.7296546840266
 20
1679.388878546989
 10
771.7562927988648
 20
1679.371150763377
 10
771.7836185283156
 20
1679.354502400577
 10
771.8115881570412
 20
1679.338960092418
 10
771.8401569396021
 20
1679.324548703278
 10
771.8692791720403
 20
1679.311291288306
 10
771.8989082649969
 20
1679.299209056536
 10
771.928996818243
 20
1679.288321336963
 10
771.9594966965127
 20
1679.278645547616
 10
771.9903591065063
 20
1679.270197167693
 10
772.021534674952
 20
1679.2629897128
 10
772.0529735275905
 20
1679.257034713327
 10
772.0846253689641
 20
1679.252341696003
 10
772.1164395628789
 20
1679.248918168654
 10
772.148365213411
 20
1679.246769608195
 10
772.1803512463302
 20
1679.245899451862
 10
772.1861092375718
 20
1679.245878730055
  0
LINE
  5
261
330
1E4
100
AcDbEntity
  8
P-SANR-FIXT
100
AcDbLine
 10
772.1861092375718
 20
1628.245878730054
 30
0.0
 11
782.3437912467152
 21
1628.245878730054
 31
0.0
  0
LINE
  5
262
330
1E4
100
AcDbEntity
  8
P-SANR-FIXT
100
AcDbLine
 10
782.343791246715
 20
1679.245878730055
 30
0.0
 11
772.1861092375718
 21
1679.245878730055
 31
0.0
  0
LINE
  5
263
330
1E4
100
AcDbEntity
  8
P-SANR-FIXT
100
AcDbLine
 10
769.703503080055
 20
1624.745878730054
 30
0.0
 11
769.703503080055
 21
1653.745878730054
 31
0.0
  0
LINE
  5
264
330
1E4
100
AcDbEntity
  8
P-SANR-FIXT
100
AcDbLine
 10
769.703503080055
 20
1653.745878730054
 30
0.0
 11
769.703503080055
 21
1682.745878730054
 31
0.0
  0
ENDBLK
  5
266
330
1E4
100
AcDbEntity
  8
0
100
AcDbBlockEnd
  0
BLOCK
  5
3C7
330
268
100
AcDbEntity
  8
0
100
AcDbBlockBegin
  2
Automatic flow rate regulator valve_Caleffi_121 DN15 - 1_2__-V2-Est - Idraulica
 70
     0
 10
0.0
 20
0.0
 30
0.0
  3
Automatic flow rate regulator valve_Caleffi_121 DN15 - 1_2__-V2-Est - Idraulica
  1

  0
LWPOLYLINE
  5
269
330
268
100
AcDbEntity
  8
M-PIPE
100
AcDbPolyline
 90
       21
 70
   128
 43
0.0
 10
1125.614353943054
 20
1991.825572079365
 10
1125.614353943054
 20
1991.019715750512
 10
1125.614353943054
 20
1990.183404031661
 10
1125.614353943054
 20
1989.31797484316
 10
1125.614353943054
 20
1988.424812687094
 10
1125.614353943054
 20
1987.505346432383
 10
1125.614353943054
 20
1986.561047028891
 10
1125.614353943054
 20
1985.593425154224
 10
1125.614353943054
 20
1984.604028796968
 10
1125.614353943054
 20
1983.594440780233
 10
1125.614353943054
 20
1982.566276229478
 10
1125.614353943054
 20
1981.521179988657
 10
1125.614353943054
 20
1980.46082398881
 10
1125.614353943054
 20
1979.386904573341
 10
1125.614353943054
 20
1978.301139784225
 10
1125.614353943054
 20
1977.205266613506
 10
1125.614353943054
 20
1976.101038224484
 10
1125.614353943054
 20
1974.990221147024
 10
1125.614353943054
 20
1973.874592451489
 10
1125.614353943054
 20
1972.755936905804
 10
1125.614353943054
 20
1971.982558849989
1001
REVIT
1002
{
1070
     3
1000
790271
1002
}
  0
LWPOLYLINE
  5
26A
330
268
100
AcDbEntity
  8
M-PIPE
100
AcDbPolyline
 90
       21
 70
   128
 43
0.0
 10
1158.614353943054
 20
1971.982558849989
 10
1158.614353943054
 20
1973.102260207215
 10
1158.614353943054
 20
1974.220170281127
 10
1158.614353943054
 20
1975.334500654081
 10
1158.614353943054
 20
1976.443468635191
 10
1158.614353943054
 20
1977.545300112255
 10
1158.614353943054
 20
1978.638232389954
 10
1158.614353943054
 20
1979.72051700979
 10
1158.614353943054
 20
1980.790422547247
 10
1158.614353943054
 20
1981.846237381699
 10
1158.614353943054
 20
1982.88627243464
 10
1158.614353943054
 20
1983.908863871846
 10
1158.614353943054
 20
1984.912375765161
 10
1158.614353943054
 20
1985.895202709625
 10
1158.614353943054
 20
1986.855772391785
 10
1158.614353943054
 20
1987.792548105063
 10
1158.614353943054
 20
1988.704031208149
 10
1158.614353943054
 20
1989.58876352252
 10
1158.614353943054
 20
1990.445329665205
 10
1158.614353943054
 20
1991.2723593131
 10
1158.614353943054
 20
1991.825572079365
1001
REVIT
1002
{
1070
     3
1000
790271
1002
}
  0
LWPOLYLINE
  5
26B
330
268
100
AcDbEntity
  8
M-PIPE
100
AcDbPolyline
 90
       15
 70
   128
 43
0.0
 10
1158.614353943117
 20
2015.859567865059
 10
1158.607554849736
 20
2015.519658524473
 10
1158.58716844669
 20
2015.180292966321
 10
1158.553227347876
 20
2014.842014103104
 10
1158.50578585181
 20
2014.505363108838
 10
1158.444919854768
 20
2014.170878553301
 10
1158.37072672936
 20
2013.839095540429
 10
1158.283325168759
 20
2013.510544852264
 10
1158.182854996818
 20
2013.185752099822
 10
1158.06947694438
 20
2012.865236882221
 10
1157.943372392142
 20
2012.549511955436
 10
1157.804743080487
 20
2012.239082411998
 10
1157.653810786741
 20
2011.934444872956
 10
1157.490816970377
 20
2011.636086693388
 10
1157.475569875285
 20
2011.609567865059
1001
REVIT
1002
{
1070
     3
1000
790271
1002
}
  0
LWPOLYLINE
  5
26C
330
268
100
AcDbEntity
  8
M-PIPE
100
AcDbPolyline
 90
       15
 70
   128
 43
0.0
 10
1126.753138010823
 20
2011.609567865059
 10
1126.589071528121
 20
2011.907337535681
 10
1126.437043891975
 20
2012.211429931733
 10
1126.297298314172
 20
2012.52135857025
 10
1126.170058357825
 20
2012.836627631526
 10
1126.055527579722
 20
2013.156732752316
 10
1125.953889204675
 20
2013.481161832712
 10
1125.865305832404
 20
2013.809395855393
 10
1125.789919177406
 20
2014.140909715943
 10
1125.727849842249
 20
2014.475173062905
 10
1125.679197124627
 20
2014.811651146228
 10
1125.64403885851
 20
2015.149805672757
 10
1125.622431289625
 20
2015.489095667386
 10
1125.614408985471
 20
2015.828978338502
 10
1125.614353942991
 20
2015.859567865059
1001
REVIT
1002
{
1070
     3
1000
790271
1002
}
  0
LINE
  5
26D
330
268
100
AcDbEntity
  8
M-PIPE
100
AcDbLine
 10
1125.114353943054
 20
2039.348584253686
 30
0.0
 11
1125.614353942991
 21
2038.482558850011
 31
0.0
1001
REVIT
1002
{
1070
     3
1000
790271
1002
}
  0
LINE
  5
26E
330
268
100
AcDbEntity
  8
M-PIPE
100
AcDbLine
 10
1158.614353943077
 20
1961.482558850011
 30
0.0
 11
1158.614353943077
 21
1971.982558849989
 31
0.0
1001
REVIT
1002
{
1070
     3
1000
790271
1002
}
  0
LINE
  5
26F
330
268
100
AcDbEntity
  8
M-PIPE
100
AcDbLine
 10
1125.614353943031
 20
1971.982558849989
 30
0.0
 11
1125.614353943031
 21
1961.482558850011
 31
0.0
1001
REVIT
1002
{
1070
     3
1000
790271
1002
}
  0
LINE
  5
270
330
268
100
AcDbEntity
  8
M-PIPE
100
AcDbLine
 10
1159.114353943054
 20
1960.616533446267
 30
0.0
 11
1158.614353943077
 21
1961.482558850011
 31
0.0
1001
REVIT
1002
{
1070
     3
1000
790271
1002
}
  0
LINE
  5
271
330
268
100
AcDbEntity
  8
M-PIPE
100
AcDbLine
 10
1125.614353943031
 20
1961.482558850011
 30
0.0
 11
1125.114353943054
 21
1960.616533446267
 31
0.0
1001
REVIT
1002
{
1070
     3
1000
790271
1002
}
  0
LINE
  5
272
330
268
100
AcDbEntity
  8
M-PIPE
100
AcDbLine
 10
1159.114353943054
 20
1957.982558849992
 30
0.0
 11
1159.114353943054
 21
1960.616533446267
 31
0.0
1001
REVIT
1002
{
1070
     3
1000
790271
1002
}
  0
LINE
  5
273
330
268
100
AcDbEntity
  8
M-PIPE
100
AcDbLine
 10
1125.114353943054
 20
1960.616533446267
 30
0.0
 11
1125.114353943054
 21
1957.982558849992
 31
0.0
1001
REVIT
1002
{
1070
     3
1000
790271
1002
}
  0
LINE
  5
274
330
268
100
AcDbEntity
  8
M-PIPE
100
AcDbLine
 10
1152.456888717312
 20
2002.916957112462
 30
0.0
 11
1157.475569875285
 21
2011.609567865059
 31
0.0
1001
REVIT
1002
{
1070
     3
1000
790271
1002
}
  0
LINE
  5
275
330
268
100
AcDbEntity
  8
M-PIPE
100
AcDbLine
 10
1126.753138010823
 20
2011.609567865059
 30
0.0
 11
1131.771819168796
 21
2002.916957112462
 31
0.0
1001
REVIT
1002
{
1070
     3
1000
790271
1002
}
  0
LINE
  5
276
330
268
100
AcDbEntity
  8
M-PIPE
100
AcDbLine
 10
1158.614353943117
 20
2015.859567865059
 30
0.0
 11
1158.614353943117
 21
2038.482558850011
 31
0.0
1001
REVIT
1002
{
1070
     3
1000
790271
1002
}
  0
LINE
  5
277
330
268
100
AcDbEntity
  8
M-PIPE
100
AcDbLine
 10
1125.614353942991
 20
2038.482558850011
 30
0.0
 11
1125.614353942991
 21
2015.859567865059
 31
0.0
1001
REVIT
1002
{
1070
     3
1000
790271
1002
}
  0
LINE
  5
278
330
268
100
AcDbEntity
  8
M-PIPE
100
AcDbLine
 10
1158.614353943117
 20
2038.482558850011
 30
0.0
 11
1159.114353943054
 21
2039.348584253687
 31
0.0
1001
REVIT
1002
{
1070
     3
1000
790271
1002
}
  0
LINE
  5
279
330
268
100
AcDbEntity
  8
M-PIPE
100
AcDbLine
 10
1159.114353943054
 20
2039.348584253687
 30
0.0
 11
1159.114353943054
 21
2041.982558850031
 31
0.0
1001
REVIT
1002
{
1070
     3
1000
790271
1002
}
  0
LINE
  5
27A
330
268
100
AcDbEntity
  8
M-PIPE
100
AcDbLine
 10
1125.114353943054
 20
2041.982558850031
 30
0.0
 11
1125.114353943054
 21
2039.348584253686
 31
0.0
1001
REVIT
1002
{
1070
     3
1000
790271
1002
}
  0
LWPOLYLINE
  5
27B
330
268
100
AcDbEntity
  8
M-PIPE
100
AcDbPolyline
 90
       46
 70
   128
 43
0.0
 10
1158.614353943054
 20
1979.757303001397
 10
1159.32689276398
 20
1980.357466170891
 10
1160.097918958419
 20
1981.061482118913
 10
1160.840175285122
 20
1981.795767753424
 10
1161.552474292306
 20
1982.559148374048
 10
1162.23367645351
 20
1983.350402734637
 10
1162.88269199059
 20
1984.168264997006
 10
1163.498482617137
 20
1985.011426756004
 10
1164.080063199509
 20
1985.878539132681
 10
1164.626503332839
 20
1986.76821493221
 10
1165.136928829481
 20
1987.679030863097
 10
1165.610523117526
 20
1988.60952981415
 10
1166.04652854714
 20
1989.558223185544
 10
1166.444247602646
 20
1990.523593270262
 10
1166.803044018397
 20
1991.504095682102
 10
1167.122343796667
 20
1992.498161826368
 10
1167.401636125925
 20
1993.504201409286
 10
1167.640474198023
 20
1994.520604982133
 10
1167.838475922994
 20
1995.545746516014
 10
1167.995324540318
 20
1996.57798600316
 10
1168.110769125665
 20
1997.615672080591
 10
1168.184624992326
 20
1998.657144671944
 10
1168.21677398667
 20
1999.700737643242
 10
1168.207164677163
 20
2000.744781468352
 10
1168.155812436651
 20
2001.787605899872
 10
1168.062799417764
 20
2002.827542641167
 10
1167.928274421491
 20
2003.862928015295
 10
1167.752452659128
 20
2004.892105626526
 10
1167.535615407989
 20
2005.913429010229
 10
1167.278109561419
 20
2006.925264266861
 10
1166.980347073842
 20
2007.925992675856
 10
1166.642804301717
 20
2008.91401328524
 10
1166.266021241476
 20
2009.887745472802
 10
1165.850600665638
 20
2010.845631474762
 10
1165.397207158506
 20
2011.786138877853
 10
1164.906566052973
 20
2012.707763070864
 10
1164.379462270144
 20
2013.609029651686
 10
1163.816739063628
 20
2014.488496786051
 10
1163.219296670515
 20
2015.344757514153
 10
1162.588090871184
 20
2016.176442001487
 10
1161.924131460267
 20
2016.98221973029
 10
1161.228480631183
 20
2017.760801628085
 10
1160.50225127686
 20
2018.510942129924
 10
1159.746605209346
 20
2019.231441171027
 10
1158.962751301152
 20
2019.921146106625
 10
1158.610417060291
 20
2020.206994494654
1001
REVIT
1002
{
1070
     3
1000
790271
1002
}
  0
LWPOLYLINE
  5
27C
330
268
100
AcDbEntity
  8
M-PIPE
100
AcDbPolyline
 90
       46
 70
   128
 43
0.0
 10
1125.618289934969
 20
2020.211129938882
 10
1124.901815122129
 20
2019.607651529132
 10
1124.130788927691
 20
2018.90363558111
 10
1123.388532600987
 20
2018.1693499466
 10
1122.676233593802
 20
2017.405969325976
 10
1121.995031432599
 20
2016.614714965387
 10
1121.346015895519
 20
2015.796852703017
 10
1120.730225268972
 20
2014.953690944019
 10
1120.1486446866
 20
2014.086578567341
 10
1119.60220455327
 20
2013.196902767814
 10
1119.091779056627
 20
2012.286086836927
 10
1118.618184768583
 20
2011.355587885873
 10
1118.182179338969
 20
2010.406894514479
 10
1117.784460283463
 20
2009.441524429762
 10
1117.425663867712
 20
2008.461022017922
 10
1117.106364089441
 20
2007.466955873656
 10
1116.827071760184
 20
2006.460916290738
 10
1116.588233688086
 20
2005.44451271789
 10
1116.390231963115
 20
2004.41937118401
 10
1116.233383345791
 20
2003.387131696863
 10
1116.117938760444
 20
2002.349445619433
 10
1116.044082893782
 20
2001.30797302808
 10
1116.011933899439
 20
2000.264380056782
 10
1116.021543208946
 20
1999.220336231671
 10
1116.072895449458
 20
1998.177511800152
 10
1116.165908468345
 20
1997.137575058856
 10
1116.300433464618
 20
1996.102189684728
 10
1116.476255226981
 20
1995.073012073497
 10
1116.69309247812
 20
1994.051688689794
 10
1116.95059832469
 20
1993.039853433162
 10
1117.248360812267
 20
1992.039125024167
 10
1117.585903584392
 20
1991.051104414783
 10
1117.962686644633
 20
1990.077372227221
 10
1118.378107220471
 20
1989.119486225262
 10
1118.831500727603
 20
1988.178978822169
 10
1119.322141833135
 20
1987.257354629159
 10
1119.849245615965
 20
1986.356088048337
 10
1120.411968822481
 20
1985.476620913972
 10
1121.009411215594
 20
1984.62036018587
 10
1121.640617014924
 20
1983.788675698536
 10
1122.304576425841
 20
1982.982897969733
 10
1123.000227254926
 20
1982.204316071938
 10
1123.726456609249
 20
1981.454175570099
 10
1124.482102676763
 20
1980.733676528996
 10
1125.265956584957
 20
1980.043971593398
 10
1125.614353943054
 20
1979.761317194092
1001
REVIT
1002
{
1070
     3
1000
790271
1002
}
  0
SPLINE
  5
27D
330
268
100
AcDbEntity
  8
M-PIPE
100
AcDbSpline
210
0.0
220
0.0
230
1.0
 70
     8
 71
     3
 72
    15
 73
    11
 74
     0
 42
0.000000001
 43
0.0000000001
 40
0.0
 40
0.0
 40
0.0
 40
0.0
 40
0.25
 40
0.375
 40
0.5
 40
0.5625
 40
0.625
 40
0.75
 40
0.875
 40
1.0
 40
1.0
 40
1.0
 40
1.0
 10
1158.614353943052
 20
1991.825572079365
 30
0.0
 10
1158.614353943052
 20
1993.073053153497
 30
0.0
 10
1158.385551765297
 20
1994.90332546604
 30
0.0
 10
1157.579791502543
 20
1997.160861971314
 30
0.0
 10
1156.873952549551
 20
1998.422643994334
 30
0.0
 10
1156.1938141971
 20
1999.30657328373
 30
0.0
 10
1155.430880418604
 20
2000.116092058766
 30
0.0
 10
1154.364663656314
 20
2000.910189612524
 30
0.0
 10
1152.996541230524
 20
2001.432276692574
 30
0.0
 10
1152.02895250027
 20
2001.508301563411
 30
0.0
 10
1151.53908111775
 20
2001.472670267472
 30
0.0
1001
REVIT
1002
{
1070
     3
1000
790271
1002
}
  0
SPLINE
  5
27E
330
268
100
AcDbEntity
  8
M-PIPE
100
AcDbSpline
210
0.0
220
0.0
230
1.0
 70
     8
 71
     3
 72
     9
 73
     5
 74
     0
 42
0.000000001
 43
0.0000000001
 40
0.0
 40
0.0
 40
0.0
 40
0.0
 40
0.5
 40
1.0
 40
1.0
 40
1.0
 40
1.0
 10
1151.53908111775
 20
2001.472670267472
 30
0.0
 10
1151.356723570291
 20
2001.2508659875
 30
0.0
 10
1150.947898494066
 20
2000.830244389323
 30
0.0
 10
1150.444598427616
 20
2000.451583530584
 30
0.0
 10
1150.167737521909
 20
2000.271478521493
 30
0.0
1001
REVIT
1002
{
1070
     3
1000
790271
1002
}
  0
SPLINE
  5
27F
330
268
100
AcDbEntity
  8
M-PIPE
100
AcDbSpline
210
0.0
220
0.0
230
1.0
 70
     8
 71
     3
 72
    21
 73
    17
 74
     0
 42
0.000000001
 43
0.0000000001
 40
0.0
 40
0.0
 40
0.0
 40
0.0
 40
0.2
 40
0.3
 40
0.35
 40
0.4
 40
0.45
 40
0.5
 40
0.55
 40
0.6
 40
0.65
 40
0.7
 40
0.75
 40
0.8
 40
0.9
 40
1.0
 40
1.0
 40
1.0
 40
1.0
 10
1150.167737521909
 20
2000.271478521493
 30
0.0
 10
1149.794768706584
 20
2000.022062048622
 30
0.0
 10
1149.188997981811
 20
1999.662336060581
 30
0.0
 10
1148.402939500398
 20
1999.252777924196
 30
0.0
 10
1147.929048555929
 20
1999.025324732082
 30
0.0
 10
1147.559382577217
 20
1998.863005778598
 30
0.0
 10
1147.175347110968
 20
1998.705938870852
 30
0.0
 10
1146.777879798552
 20
1998.552391821821
 30
0.0
 10
1146.366550066443
 20
1998.406796094382
 30
0.0
 10
1145.94190814402
 20
1998.27430310325
 30
0.0
 10
1145.502165557636
 20
1998.151500307814
 30
0.0
 10
1145.047847324709
 20
1998.035770994565
 30
0.0
 10
1144.581619517905
 20
1997.933323719927
 30
0.0
 10
1143.948095029888
 20
1997.822256940281
 30
0.0
 10
1143.134088449644
 20
1997.730306891987
 30
0.0
 10
1142.457844418521
 20
1997.698160344455
 30
0.0
 10
1142.114353943052
 20
1997.692631829611
 30
0.0
1001
REVIT
1002
{
1070
     3
1000
790271
1002
}
  0
SPLINE
  5
280
330
268
100
AcDbEntity
  8
M-PIPE
100
AcDbSpline
210
0.0
220
0.0
230
1.0
 70
     8
 71
     3
 72
    21
 73
    17
 74
     0
 42
0.000000001
 43
0.0000000001
 40
0.0
 40
0.0
 40
0.0
 40
0.0
 40
0.1
 40
0.2
 40
0.25
 40
0.3
 40
0.35
 40
0.4
 40
0.475
 40
0.55
 40
0.5875
 40
0.625
 40
0.7
 40
0.775
 40
0.85
 40
1.0
 40
1.0
 40
1.0
 40
1.0
 10
1142.114353943052
 20
1997.692631829611
 30
0.0
 10
1141.770863467583
 20
1997.698160344455
 30
0.0
 10
1141.094619247549
 20
1997.730307611898
 30
0.0
 10
1140.280613375724
 20
1997.822254960526
 30
0.0
 10
1139.647087470868
 20
1997.933327139503
 30
0.0
 10
1139.180863985422
 20
1998.035757946181
 30
0.0
 10
1138.726529529694
 20
1998.151549081771
 30
0.0
 10
1138.213567177068
 20
1998.294549718145
 30
0.0
 10
1137.652014550897
 20
1998.475949817458
 30
0.0
 10
1137.150706523171
 20
1998.66684296478
 30
0.0
 10
1136.765123596608
 20
1998.824069241818
 30
0.0
 10
1136.389854356804
 20
1998.983182566014
 30
0.0
 10
1135.941541262758
 20
1999.194922433033
 30
0.0
 10
1135.432122038987
 20
1999.458253446599
 30
0.0
 10
1134.785606747554
 20
1999.810216919295
 30
0.0
 10
1134.340696975689
 20
2000.084416166839
 30
0.0
 10
1134.060970364196
 20
2000.271478521493
 30
0.0
1001
REVIT
1002
{
1070
     3
1000
790271
1002
}
  0
SPLINE
  5
281
330
268
100
AcDbEntity
  8
M-PIPE
100
AcDbSpline
210
0.0
220
0.0
230
1.0
 70
     8
 71
     3
 72
     9
 73
     5
 74
     0
 42
0.000000001
 43
0.0000000001
 40
0.0
 40
0.0
 40
0.0
 40
0.0
 40
0.5
 40
1.0
 40
1.0
 40
1.0
 40
1.0
 10
1134.060970364196
 20
2000.271478521493
 30
0.0
 10
1133.784109458489
 20
2000.451583530584
 30
0.0
 10
1133.280809392039
 20
2000.830244389323
 30
0.0
 10
1132.871984315814
 20
2001.2508659875
 30
0.0
 10
1132.689626768355
 20
2001.472670267472
 30
0.0
1001
REVIT
1002
{
1070
     3
1000
790271
1002
}
  0
SPLINE
  5
282
330
268
100
AcDbEntity
  8
M-PIPE
100
AcDbSpline
210
0.0
220
0.0
230
1.0
 70
     8
 71
     3
 72
    15
 73
    11
 74
     0
 42
0.000000001
 43
0.0000000001
 40
0.0
 40
0.0
 40
0.0
 40
0.0
 40
0.125
 40
0.25
 40
0.375
 40
0.4375
 40
0.5
 40
0.625
 40
0.75
 40
1.0
 40
1.0
 40
1.0
 40
1.0
 10
1132.689626768355
 20
2001.472670267472
 30
0.0
 10
1132.199755385835
 20
2001.508301563411
 30
0.0
 10
1131.232166655581
 20
2001.432276692574
 30
0.0
 10
1129.864044229791
 20
2000.910189612524
 30
0.0
 10
1128.797827467501
 20
2000.116092058766
 30
0.0
 10
1128.034893689005
 20
1999.30657328373
 30
0.0
 10
1127.354755336555
 20
1998.422643994334
 30
0.0
 10
1126.648916383562
 20
1997.160861971314
 30
0.0
 10
1125.843156120808
 20
1994.90332546604
 30
0.0
 10
1125.614353943052
 20
1993.073053153497
 30
0.0
 10
1125.614353943052
 20
1991.825572079365
 30
0.0
1001
REVIT
1002
{
1070
     3
1000
790271
1002
}
  0
LINE
  5
283
330
268
100
AcDbEntity
  8
M-PIPE
100
AcDbLine
 10
1125.614353942989
 20
2038.482558850011
 30
0.0
 11
1142.114353943052
 21
2038.48255885001
 31
0.0
1001
REVIT
1002
{
1070
     3
1000
790271
1002
}
  0
LINE
  5
284
330
268
100
AcDbEntity
  8
M-PIPE
100
AcDbLine
 10
1142.114353943052
 20
1961.482558850011
 30
0.0
 11
1158.614353943076
 21
1961.482558850011
 31
0.0
1001
REVIT
1002
{
1070
     3
1000
790271
1002
}
  0
LINE
  5
285
330
268
100
AcDbEntity
  8
M-PIPE
100
AcDbLine
 10
1125.614353943029
 20
1961.482558850011
 30
0.0
 11
1142.114353943052
 21
1961.482558850011
 31
0.0
1001
REVIT
1002
{
1070
     3
1000
790271
1002
}
  0
LINE
  5
286
330
268
100
AcDbEntity
  8
M-PIPE
100
AcDbLine
 10
1142.114353943052
 20
1960.616533446266
 30
0.0
 11
1159.114353943053
 21
1960.616533446266
 31
0.0
1001
REVIT
1002
{
1070
     3
1000
790271
1002
}
  0
LINE
  5
287
330
268
100
AcDbEntity
  8
M-PIPE
100
AcDbLine
 10
1125.114353943053
 20
1960.616533446266
 30
0.0
 11
1142.114353943052
 21
1960.616533446266
 31
0.0
1001
REVIT
1002
{
1070
     3
1000
790271
1002
}
  0
LINE
  5
288
330
268
100
AcDbEntity
  8
M-PIPE
100
AcDbLine
 10
1158.614353943115
 20
2038.482558850011
 30
0.0
 11
1142.114353943052
 21
2038.48255885001
 31
0.0
1001
REVIT
1002
{
1070
     3
1000
790271
1002
}
  0
LINE
  5
289
330
268
100
AcDbEntity
  8
M-PIPE
100
AcDbLine
 10
1159.114353943052
 20
2039.348584253685
 30
0.0
 11
1142.114353943052
 21
2039.348584253685
 31
0.0
1001
REVIT
1002
{
1070
     3
1000
790271
1002
}
  0
LINE
  5
28A
330
268
100
AcDbEntity
  8
M-PIPE
100
AcDbLine
 10
1142.114353943052
 20
2039.348584253685
 30
0.0
 11
1125.114353943052
 21
2039.348584253685
 31
0.0
1001
REVIT
1002
{
1070
     3
1000
790271
1002
}
  0
SPLINE
  5
28B
330
268
100
AcDbEntity
  8
M-PIPE
100
AcDbSpline
210
0.0
220
0.0
230
1.0
 70
     8
 71
     3
 72
     8
 73
     4
 74
     0
 42
0.000000001
 43
0.0000000001
 40
-1.0
 40
-1.0
 40
-1.0
 40
-1.0
 40
-0.8333333333333332
 40
-0.8333333333333332
 40
-0.8333333333333332
 40
-0.8333333333333332
 10
1151.53908111775
 20
2001.472670267472
 30
0.0
 10
1151.903235642878
 20
2001.96512608573
 30
0.0
 10
1152.236556280192
 20
2002.486722090273
 30
0.0
 10
1152.539853164357
 20
2003.027605472418
 30
0.0
1001
REVIT
1002
{
1070
     3
1000
790271
1002
}
  0
SPLINE
  5
28C
330
268
100
AcDbEntity
  8
M-PIPE
100
AcDbSpline
210
0.0
220
0.0
230
1.0
 70
     8
 71
     3
 72
     8
 73
     4
 74
     0
 42
0.000000001
 43
0.0000000001
 40
-0.1666666666666666
 40
-0.1666666666666666
 40
-0.1666666666666666
 40
-0.1666666666666666
 40
0.0
 40
0.0
 40
0.0
 40
0.0
 10
1131.688854721748
 20
2003.027605472418
 30
0.0
 10
1131.992151605913
 20
2002.486722090273
 30
0.0
 10
1132.325472243227
 20
2001.96512608573
 30
0.0
 10
1132.689626768355
 20
2001.472670267472
 30
0.0
1001
REVIT
1002
{
1070
     3
1000
790271
1002
}
  0
LINE
  5
28D
330
268
100
AcDbEntity
  8
P-SANR-FIXT
100
AcDbLine
 10
1123.114353943003
 20
1957.157676622578
 30
0.0
 11
1123.114353943003
 21
1948.807441077411
 31
0.0
  0
LINE
  5
28E
330
268
100
AcDbEntity
  8
P-SANR-FIXT
100
AcDbLine
 10
1161.114353943105
 20
1948.807441077364
 30
0.0
 11
1161.114353943105
 21
1957.157676622624
 31
0.0
  0
LINE
  5
28F
330
268
100
AcDbEntity
  8
P-SANR-FIXT
100
AcDbLine
 10
1142.114353943096
 20
1957.982558849992
 30
0.0
 11
1151.614353943103
 21
1957.982558849992
 31
0.0
  0
LINE
  5
290
330
268
100
AcDbEntity
  8
P-SANR-FIXT
100
AcDbLine
 10
1151.614353943103
 20
1957.982558849992
 30
0.0
 11
1161.11435394311
 21
1957.982558849991
 31
0.0
  0
LINE
  5
291
330
268
100
AcDbEntity
  8
P-SANR-FIXT
100
AcDbLine
 10
1123.114353943081
 20
1957.982558849991
 30
0.0
 11
1132.614353943087
 21
1957.982558849992
 31
0.0
  0
LINE
  5
292
330
268
100
AcDbEntity
  8
P-SANR-FIXT
100
AcDbLine
 10
1132.614353943087
 20
1957.982558849992
 30
0.0
 11
1142.114353943095
 21
1957.982558849992
 31
0.0
  0
LINE
  5
293
330
268
100
AcDbEntity
  8
P-SANR-FIXT
100
AcDbLine
 10
1161.114353942995
 20
1947.982558849928
 30
0.0
 11
1161.028668991897
 21
1947.982558849928
 31
0.0
  0
LINE
  5
294
330
268
100
AcDbEntity
  8
P-SANR-FIXT
100
AcDbLine
 10
1160.969354922775
 20
1947.982558849928
 30
0.0
 11
1160.785615738459
 21
1947.982558849928
 31
0.0
  0
LINE
  5
295
330
268
100
AcDbEntity
  8
P-SANR-FIXT
100
AcDbLine
 10
1160.645893960815
 20
1947.982558849928
 30
0.0
 11
1160.346590007141
 21
1947.982558849928
 31
0.0
  0
LINE
  5
296
330
268
100
AcDbEntity
  8
P-SANR-FIXT
100
AcDbLine
 10
1160.162408819001
 20
1947.982558849928
 30
0.0
 11
1159.68473122196
 21
1947.982558849928
 31
0.0
  0
LINE
  5
297
330
268
100
AcDbEntity
  8
P-SANR-FIXT
100
AcDbLine
 10
1159.523865508378
 20
1947.982558849928
 30
0.0
 11
1158.886161270748
 21
1947.982558849928
 31
0.0
  0
LINE
  5
298
330
268
100
AcDbEntity
  8
P-SANR-FIXT
100
AcDbLine
 10
1158.568836614913
 20
1947.982558849928
 30
0.0
 11
1157.92404296743
 21
1947.982558849929
 31
0.0
  0
LINE
  5
299
330
268
100
AcDbEntity
  8
P-SANR-FIXT
100
AcDbLine
 10
1157.8562943431
 20
1947.982558849929
 30
0.0
 11
1156.80803817539
 21
1947.982558849929
 31
0.0
  0
LINE
  5
29A
330
268
100
AcDbEntity
  8
P-SANR-FIXT
100
AcDbLine
 10
1156.669198362279
 20
1947.982558849929
 30
0.0
 11
1154.327318527075
 21
1947.982558849929
 31
0.0
  0
LINE
  5
29B
330
268
100
AcDbEntity
  8
P-SANR-FIXT
100
AcDbLine
 10
1154.172586328262
 20
1947.982558849929
 30
0.0
 11
1153.012306233708
 21
1947.982558849929
 31
0.0
  0
LINE
  5
29C
330
268
100
AcDbEntity
  8
P-SANR-FIXT
100
AcDbLine
 10
1152.677455586206
 20
1947.982558849929
 30
0.0
 11
1151.614353943045
 21
1947.982558849929
 31
0.0
  0
LINE
  5
29D
330
268
100
AcDbEntity
  8
P-SANR-FIXT
100
AcDbLine
 10
1151.078731103307
 20
1947.982558849929
 30
0.0
 11
1149.392261155624
 21
1947.982558849929
 31
0.0
  0
LINE
  5
29E
330
268
100
AcDbEntity
  8
P-SANR-FIXT
100
AcDbLine
 10
1148.612736666249
 20
1947.982558849929
 30
0.0
 11
1147.634820419747
 21
1947.982558849929
 31
0.0
  0
LINE
  5
29F
330
268
100
AcDbEntity
  8
P-SANR-FIXT
100
AcDbLine
 10
1147.031915800018
 20
1947.982558849929
 30
0.0
 11
1145.823923100531
 21
1947.982558849929
 31
0.0
  0
LINE
  5
2A0
330
268
100
AcDbEntity
  8
P-SANR-FIXT
100
AcDbLine
 10
1145.416884458631
 20
1947.982558849929
 30
0.0
 11
1143.977630502113
 21
1947.982558849929
 31
0.0
  0
LINE
  5
2A1
330
268
100
AcDbEntity
  8
P-SANR-FIXT
100
AcDbLine
 10
1143.770313055292
 20
1947.982558849929
 30
0.0
 11
1142.114353943096
 21
1947.982558849929
 31
0.0
  0
LINE
  5
2A2
330
268
100
AcDbEntity
  8
P-SANR-FIXT
100
AcDbLine
 10
1142.114353943095
 20
1947.982558849929
 30
0.0
 11
1140.444736950567
 21
1947.982558849929
 31
0.0
  0
LINE
  5
2A3
330
268
100
AcDbEntity
  8
P-SANR-FIXT
100
AcDbLine
 10
1140.251077384078
 20
1947.982558849929
 30
0.0
 11
1138.815038567441
 21
1947.982558849929
 31
0.0
  0
LINE
  5
2A4
330
268
100
AcDbEntity
  8
P-SANR-FIXT
100
AcDbLine
 10
1138.40478478566
 20
1947.982558849929
 30
0.0
 11
1137.196792086173
 21
1947.982558849929
 31
0.0
  0
LINE
  5
2A5
330
268
100
AcDbEntity
  8
P-SANR-FIXT
100
AcDbLine
 10
1136.593887466444
 20
1947.982558849929
 30
0.0
 11
1135.470476738392
 21
1947.982558849929
 31
0.0
  0
LINE
  5
2A6
330
268
100
AcDbEntity
  8
P-SANR-FIXT
100
AcDbLine
 10
1134.836446730567
 20
1947.982558849929
 30
0.0
 11
1133.149976782885
 21
1947.982558849929
 31
0.0
  0
LINE
  5
2A7
330
268
100
AcDbEntity
  8
P-SANR-FIXT
100
AcDbLine
 10
1132.614353943146
 20
1947.982558849929
 30
0.0
 11
1131.551252299985
 21
1947.982558849929
 31
0.0
  0
LINE
  5
2A8
330
268
100
AcDbEntity
  8
P-SANR-FIXT
100
AcDbLine
 10
1131.216401652483
 20
1947.982558849929
 30
0.0
 11
1130.056121557929
 21
1947.982558849929
 31
0.0
  0
LINE
  5
2A9
330
268
100
AcDbEntity
  8
P-SANR-FIXT
100
AcDbLine
 10
1129.901389359115
 20
1947.982558849929
 30
0.0
 11
1127.559509523912
 21
1947.982558849929
 31
0.0
  0
LINE
  5
2AA
330
268
100
AcDbEntity
  8
P-SANR-FIXT
100
AcDbLine
 10
1127.420669710801
 20
1947.982558849929
 30
0.0
 11
1126.550465101687
 21
1947.982558849929
 31
0.0
  0
LINE
  5
2AB
330
268
100
AcDbEntity
  8
P-SANR-FIXT
100
AcDbLine
 10
1126.304664918762
 20
1947.982558849929
 30
0.0
 11
1125.519588530115
 21
1947.982558849928
 31
0.0
  0
LINE
  5
2AC
330
268
100
AcDbEntity
  8
P-SANR-FIXT
100
AcDbLine
 10
1125.342546615443
 20
1947.982558849928
 30
0.0
 11
1124.704842377814
 21
1947.982558849928
 31
0.0
  0
LINE
  5
2AD
330
268
100
AcDbEntity
  8
P-SANR-FIXT
100
AcDbLine
 10
1124.543976664231
 20
1947.982558849928
 30
0.0
 11
1124.066299067191
 21
1947.982558849928
 31
0.0
  0
LINE
  5
2AE
330
268
100
AcDbEntity
  8
P-SANR-FIXT
100
AcDbLine
 10
1123.852525548123
 20
1947.982558849928
 30
0.0
 11
1123.582813925375
 21
1947.982558849928
 31
0.0
  0
LINE
  5
2AF
330
268
100
AcDbEntity
  8
P-SANR-FIXT
100
AcDbLine
 10
1123.443092147732
 20
1947.982558849928
 30
0.0
 11
1123.259352963416
 21
1947.982558849928
 31
0.0
  0
LINE
  5
2B0
330
268
100
AcDbEntity
  8
P-SANR-FIXT
100
AcDbLine
 10
1123.200038894294
 20
1947.982558849928
 30
0.0
 11
1123.114353943197
 21
1947.982558849928
 31
0.0
  0
SPLINE
  5
2B1
330
268
100
AcDbEntity
  8
P-SANR-FIXT
100
AcDbSpline
210
0.0
220
0.0
230
1.0
 70
    24
 71
     3
 72
     9
 73
     5
 74
     0
 42
0.000000001
 43
0.0000000001
 40
0.0
 40
0.0
 40
0.0
 40
0.0
 40
0.5
 40
1.0
 40
1.0
 40
1.0
 40
1.0
 10
1123.114353943002
 20
1947.982558849928
 30
0.0
 10
1123.114353943002
 20
1947.987951264389
 30
0.0
 10
1123.114353943002
 20
1948.130824050098
 30
0.0
 10
1123.114353943002
 20
1948.537872749377
 30
0.0
 10
1123.114353943002
 20
1948.80744107741
 30
0.0
  0
SPLINE
  5
2B2
330
268
100
AcDbEntity
  8
P-SANR-FIXT
100
AcDbSpline
210
0.0
220
0.0
230
1.0
 70
    24
 71
     3
 72
     9
 73
     5
 74
     0
 42
0.000000001
 43
0.0000000001
 40
0.0
 40
0.0
 40
0.0
 40
0.0
 40
0.5
 40
1.0
 40
1.0
 40
1.0
 40
1.0
 10
1123.114353943002
 20
1957.157676622577
 30
0.0
 10
1123.114353943002
 20
1957.427244950621
 30
0.0
 10
1123.114353943002
 20
1957.8342936499
 30
0.0
 10
1123.114353943002
 20
1957.977166435563
 30
0.0
 10
1123.114353943002
 20
1957.982558849991
 30
0.0
  0
SPLINE
  5
2B3
330
268
100
AcDbEntity
  8
P-SANR-FIXT
100
AcDbSpline
210
0.0
220
0.0
230
1.0
 70
     8
 71
     3
 72
    10
 73
     6
 74
     0
 42
0.000000001
 43
0.0000000001
 40
0.0
 40
0.0
 40
0.0
 40
0.0
 40
0.4
 40
0.7
 40
1.0
 40
1.0
 40
1.0
 40
1.0
 10
1123.114353943002
 20
1948.80744107741
 30
0.0
 10
1123.114353943002
 20
1948.984370278245
 30
0.0
 10
1123.419960178114
 20
1949.175943365313
 30
0.0
 10
1124.590540968651
 20
1949.128562397652
 30
0.0
 10
1125.578288389422
 20
1948.939937782166
 30
0.0
 10
1126.114353943002
 20
1948.807441077406
 30
0.0
  0
SPLINE
  5
2B4
330
268
100
AcDbEntity
  8
P-SANR-FIXT
100
AcDbSpline
210
0.0
220
0.0
230
1.0
 70
     8
 71
     3
 72
    10
 73
     6
 74
     0
 42
0.000000001
 43
0.0000000001
 40
0.0
 40
0.0
 40
0.0
 40
0.0
 40
0.4
 40
0.7
 40
1.0
 40
1.0
 40
1.0
 40
1.0
 10
1126.114353943002
 20
1957.15767662258
 30
0.0
 10
1125.399599871562
 20
1956.981014349569
 30
0.0
 10
1124.280181556211
 20
1956.789297645081
 30
0.0
 10
1123.308316508693
 20
1956.836330677588
 30
0.0
 10
1123.114353943002
 20
1957.024979721951
 30
0.0
 10
1123.114353943002
 20
1957.157676622577
 30
0.0
  0
SPLINE
  5
2B5
330
268
100
AcDbEntity
  8
P-SANR-FIXT
100
AcDbSpline
210
0.0
220
0.0
230
1.0
 70
     8
 71
     3
 72
     9
 73
     5
 74
     0
 42
0.000000001
 43
0.0000000001
 40
0.0
 40
0.0
 40
0.0
 40
0.0
 40
0.5
 40
1.0
 40
1.0
 40
1.0
 40
1.0
 10
1126.114353943002
 20
1948.807441077406
 30
0.0
 10
1127.185426689767
 20
1948.537872749369
 30
0.0
 10
1129.339832769874
 20
1948.130824050086
 30
0.0
 10
1131.518760023138
 20
1947.987951264384
 30
0.0
 10
1132.614353943059
 20
1947.982558849928
 30
0.0
  0
SPLINE
  5
2B6
330
268
100
AcDbEntity
  8
P-SANR-FIXT
100
AcDbSpline
210
0.0
220
0.0
230
1.0
 70
     8
 71
     3
 72
     9
 73
     5
 74
     0
 42
0.000000001
 43
0.0000000001
 40
0.0
 40
0.0
 40
0.0
 40
0.0
 40
0.5
 40
1.0
 40
1.0
 40
1.0
 40
1.0
 10
1132.614353943059
 20
1947.982558849928
 30
0.0
 10
1133.709947862969
 20
1947.987951264383
 30
0.0
 10
1135.888875116211
 20
1948.130824050083
 30
0.0
 10
1138.043281196297
 20
1948.537872749358
 30
0.0
 10
1139.114353943052
 20
1948.807441077391
 30
0.0
  0
SPLINE
  5
2B7
330
268
100
AcDbEntity
  8
P-SANR-FIXT
100
AcDbSpline
210
0.0
220
0.0
230
1.0
 70
     8
 71
     3
 72
     9
 73
     5
 74
     0
 42
0.000000001
 43
0.0000000001
 40
0.0
 40
0.0
 40
0.0
 40
0.0
 40
0.5
 40
1.0
 40
1.0
 40
1.0
 40
1.0
 10
1139.114353943052
 20
1957.157676622597
 30
0.0
 10
1138.043281196299
 20
1957.42724495064
 30
0.0
 10
1135.888875116213
 20
1957.834293649916
 30
0.0
 10
1133.709947862969
 20
1957.97716643557
 30
0.0
 10
1132.614353943059
 20
1957.982558849991
 30
0.0
  0
SPLINE
  5
2B8
330
268
100
AcDbEntity
  8
P-SANR-FIXT
100
AcDbSpline
210
0.0
220
0.0
230
1.0
 70
     8
 71
     3
 72
     9
 73
     5
 74
     0
 42
0.000000001
 43
0.0000000001
 40
0.0
 40
0.0
 40
0.0
 40
0.0
 40
0.5
 40
1.0
 40
1.0
 40
1.0
 40
1.0
 10
1132.614353943059
 20
1957.982558849991
 30
0.0
 10
1131.518760023137
 20
1957.97716643557
 30
0.0
 10
1129.339832769872
 20
1957.834293649912
 30
0.0
 10
1127.185426689766
 20
1957.427244950629
 30
0.0
 10
1126.114353943002
 20
1957.15767662258
 30
0.0
  0
SPLINE
  5
2B9
330
268
100
AcDbEntity
  8
P-SANR-FIXT
100
AcDbSpline
210
0.0
220
0.0
230
1.0
 70
     8
 71
     3
 72
     9
 73
     5
 74
     0
 42
0.000000001
 43
0.0000000001
 40
0.0
 40
0.0
 40
0.0
 40
0.0
 40
0.5
 40
1.0
 40
1.0
 40
1.0
 40
1.0
 10
1139.114353943052
 20
1948.807441077391
 30
0.0
 10
1139.562231847246
 20
1948.918446269081
 30
0.0
 10
1140.530962758404
 20
1949.085489950743
 30
0.0
 10
1141.584321248984
 20
1949.142600228969
 30
0.0
 10
1142.114353943096
 20
1949.143672017223
 30
0.0
  0
SPLINE
  5
2BA
330
268
100
AcDbEntity
  8
P-SANR-FIXT
100
AcDbSpline
210
0.0
220
0.0
230
1.0
 70
     8
 71
     3
 72
     9
 73
     5
 74
     0
 42
0.000000001
 43
0.0000000001
 40
0.0
 40
0.0
 40
0.0
 40
0.0
 40
0.5
 40
1.0
 40
1.0
 40
1.0
 40
1.0
 10
1142.114353943096
 20
1949.143672017223
 30
0.0
 10
1142.644386637192
 20
1949.142600228964
 30
0.0
 10
1143.697745127741
 20
1949.085489950733
 30
0.0
 10
1144.666476038871
 20
1948.918446269071
 30
0.0
 10
1145.114353943052
 20
1948.807441077384
 30
0.0
  0
SPLINE
  5
2BB
330
268
100
AcDbEntity
  8
P-SANR-FIXT
100
AcDbSpline
210
0.0
220
0.0
230
1.0
 70
     8
 71
     3
 72
     9
 73
     5
 74
     0
 42
0.000000001
 43
0.0000000001
 40
0.0
 40
0.0
 40
0.0
 40
0.0
 40
0.5
 40
1.0
 40
1.0
 40
1.0
 40
1.0
 10
1145.114353943052
 20
1957.157676622604
 30
0.0
 10
1144.666476038871
 20
1957.046671430916
 30
0.0
 10
1143.697745127741
 20
1956.879627749255
 30
0.0
 10
1142.644386637192
 20
1956.822517471023
 30
0.0
 10
1142.114353943096
 20
1956.821445682765
 30
0.0
  0
SPLINE
  5
2BC
330
268
100
AcDbEntity
  8
P-SANR-FIXT
100
AcDbSpline
210
0.0
220
0.0
230
1.0
 70
     8
 71
     3
 72
     9
 73
     5
 74
     0
 42
0.000000001
 43
0.0000000001
 40
0.0
 40
0.0
 40
0.0
 40
0.0
 40
0.5
 40
1.0
 40
1.0
 40
1.0
 40
1.0
 10
1142.114353943096
 20
1956.821445682765
 30
0.0
 10
1141.584321248984
 20
1956.822517471019
 30
0.0
 10
1140.530962758404
 20
1956.879627749245
 30
0.0
 10
1139.562231847246
 20
1957.046671430907
 30
0.0
 10
1139.114353943052
 20
1957.157676622597
 30
0.0
  0
SPLINE
  5
2BD
330
268
100
AcDbEntity
  8
P-SANR-FIXT
100
AcDbSpline
210
0.0
220
0.0
230
1.0
 70
     8
 71
     3
 72
     9
 73
     5
 74
     0
 42
0.000000001
 43
0.0000000001
 40
0.0
 40
0.0
 40
0.0
 40
0.0
 40
0.5
 40
1.0
 40
1.0
 40
1.0
 40
1.0
 10
1145.114353943052
 20
1948.807441077384
 30
0.0
 10
1146.185426689817
 20
1948.537872749341
 30
0.0
 10
1148.339832769925
 20
1948.130824050057
 30
0.0
 10
1150.518760023189
 20
1947.987951264371
 30
0.0
 10
1151.61435394311
 20
1947.982558849928
 30
0.0
  0
SPLINE
  5
2BE
330
268
100
AcDbEntity
  8
P-SANR-FIXT
100
AcDbSpline
210
0.0
220
0.0
230
1.0
 70
     8
 71
     3
 72
     9
 73
     5
 74
     0
 42
0.000000001
 43
0.0000000001
 40
0.0
 40
0.0
 40
0.0
 40
0.0
 40
0.5
 40
1.0
 40
1.0
 40
1.0
 40
1.0
 10
1151.61435394311
 20
1947.982558849928
 30
0.0
 10
1152.70994786302
 20
1947.987951264371
 30
0.0
 10
1154.888875116263
 20
1948.130824050054
 30
0.0
 10
1157.043281196349
 20
1948.537872749331
 30
0.0
 10
1158.114353943103
 20
1948.807441077368
 30
0.0
  0
SPLINE
  5
2BF
330
268
100
AcDbEntity
  8
P-SANR-FIXT
100
AcDbSpline
210
0.0
220
0.0
230
1.0
 70
     8
 71
     3
 72
     9
 73
     5
 74
     0
 42
0.000000001
 43
0.0000000001
 40
0.0
 40
0.0
 40
0.0
 40
0.0
 40
0.5
 40
1.0
 40
1.0
 40
1.0
 40
1.0
 10
1158.114353943103
 20
1957.157676622619
 30
0.0
 10
1157.04328119635
 20
1957.427244950667
 30
0.0
 10
1154.888875116265
 20
1957.834293649944
 30
0.0
 10
1152.709947863022
 20
1957.977166435582
 30
0.0
 10
1151.614353943111
 20
1957.982558849991
 30
0.0
  0
SPLINE
  5
2C0
330
268
100
AcDbEntity
  8
P-SANR-FIXT
100
AcDbSpline
210
0.0
220
0.0
230
1.0
 70
     8
 71
     3
 72
     9
 73
     5
 74
     0
 42
0.000000001
 43
0.0000000001
 40
0.0
 40
0.0
 40
0.0
 40
0.0
 40
0.5
 40
1.0
 40
1.0
 40
1.0
 40
1.0
 10
1151.614353943111
 20
1957.982558849991
 30
0.0
 10
1150.518760023188
 20
1957.977166435582
 30
0.0
 10
1148.339832769923
 20
1957.834293649941
 30
0.0
 10
1146.185426689816
 20
1957.427244950657
 30
0.0
 10
1145.114353943052
 20
1957.157676622604
 30
0.0
  0
SPLINE
  5
2C1
330
268
100
AcDbEntity
  8
P-SANR-FIXT
100
AcDbSpline
210
0.0
220
0.0
230
1.0
 70
     8
 71
     3
 72
    10
 73
     6
 74
     0
 42
0.000000001
 43
0.0000000001
 40
0.0
 40
0.0
 40
0.0
 40
0.0
 40
0.4
 40
0.7
 40
1.0
 40
1.0
 40
1.0
 40
1.0
 10
1158.114353943103
 20
1948.807441077368
 30
0.0
 10
1158.830585060987
 20
1948.984370278203
 30
0.0
 10
1159.949416449654
 20
1949.17594336527
 30
0.0
 10
1160.92106749901
 20
1949.128562397609
 30
0.0
 10
1161.114353943103
 20
1948.939937782123
 30
0.0
 10
1161.114353943103
 20
1948.807441077364
 30
0.0
  0
SPLINE
  5
2C2
330
268
100
AcDbEntity
  8
P-SANR-FIXT
100
AcDbSpline
210
0.0
220
0.0
230
1.0
 70
     8
 71
     3
 72
    10
 73
     6
 74
     0
 42
0.000000001
 43
0.0000000001
 40
0.0
 40
0.0
 40
0.0
 40
0.0
 40
0.4
 40
0.7
 40
1.0
 40
1.0
 40
1.0
 40
1.0
 10
1161.114353943103
 20
1957.157676622623
 30
0.0
 10
1161.114353943103
 20
1956.981014349611
 30
0.0
 10
1160.809337114733
 20
1956.789297645124
 30
0.0
 10
1159.639515740335
 20
1956.836330677631
 30
0.0
 10
1158.651527281516
 20
1957.024979721993
 30
0.0
 10
1158.114353943103
 20
1957.157676622619
 30
0.0
  0
SPLINE
  5
2C3
330
268
100
AcDbEntity
  8
P-SANR-FIXT
100
AcDbSpline
210
0.0
220
0.0
230
1.0
 70
    24
 71
     3
 72
     9
 73
     5
 74
     0
 42
0.000000001
 43
0.0000000001
 40
0.0
 40
0.0
 40
0.0
 40
0.0
 40
0.5
 40
1.0
 40
1.0
 40
1.0
 40
1.0
 10
1161.114353943103
 20
1948.807441077364
 30
0.0
 10
1161.114353943103
 20
1948.537872749322
 30
0.0
 10
1161.114353943103
 20
1948.130824050041
 30
0.0
 10
1161.114353943103
 20
1947.987951264365
 30
0.0
 10
1161.114353943103
 20
1947.982558849928
 30
0.0
  0
SPLINE
  5
2C4
330
268
100
AcDbEntity
  8
P-SANR-FIXT
100
AcDbSpline
210
0.0
220
0.0
230
1.0
 70
    24
 71
     3
 72
     9
 73
     5
 74
     0
 42
0.000000001
 43
0.0000000001
 40
0.0
 40
0.0
 40
0.0
 40
0.0
 40
0.5
 40
1.0
 40
1.0
 40
1.0
 40
1.0
 10
1161.114353943103
 20
1957.982558849991
 30
0.0
 10
1161.114353943103
 20
1957.977166435588
 30
0.0
 10
1161.114353943103
 20
1957.834293649957
 30
0.0
 10
1161.114353943103
 20
1957.427244950676
 30
0.0
 10
1161.114353943103
 20
1957.157676622623
 30
0.0
  0
LINE
  5
2C5
330
268
100
AcDbEntity
  8
P-SANR-FIXT
100
AcDbLine
 10
1123.114353943003
 20
2051.157676622691
 30
0.0
 11
1123.114353943003
 21
2042.807441077452
 31
0.0
  0
LINE
  5
2C6
330
268
100
AcDbEntity
  8
P-SANR-FIXT
100
AcDbLine
 10
1161.114353943105
 20
2042.807441077406
 30
0.0
 11
1161.114353943105
 21
2051.157676622738
 31
0.0
  0
LINE
  5
2C7
330
268
100
AcDbEntity
  8
P-SANR-FIXT
100
AcDbLine
 10
1142.114353943096
 20
2051.982558850093
 30
0.0
 11
1143.770313055303
 21
2051.982558850093
 31
0.0
  0
LINE
  5
2C8
330
268
100
AcDbEntity
  8
P-SANR-FIXT
100
AcDbLine
 10
1143.977630502113
 20
2051.982558850093
 30
0.0
 11
1145.416884458631
 21
2051.982558850093
 31
0.0
  0
LINE
  5
2C9
330
268
100
AcDbEntity
  8
P-SANR-FIXT
100
AcDbLine
 10
1145.82392310053
 20
2051.982558850093
 30
0.0
 11
1148.612736666293
 21
2051.982558850093
 31
0.0
  0
LINE
  5
2CA
330
268
100
AcDbEntity
  8
P-SANR-FIXT
100
AcDbLine
 10
1149.392261155624
 20
2051.982558850093
 30
0.0
 11
1151.078731103307
 21
2051.982558850093
 31
0.0
  0
LINE
  5
2CB
330
268
100
AcDbEntity
  8
P-SANR-FIXT
100
AcDbLine
 10
1151.614353943109
 20
2051.982558850093
 30
0.0
 11
1152.677455586207
 21
2051.982558850093
 31
0.0
  0
LINE
  5
2CC
330
268
100
AcDbEntity
  8
P-SANR-FIXT
100
AcDbLine
 10
1152.878437140739
 20
2051.982558850093
 30
0.0
 11
1154.172586328264
 21
2051.982558850093
 31
0.0
  0
LINE
  5
2CD
330
268
100
AcDbEntity
  8
P-SANR-FIXT
100
AcDbLine
 10
1154.327318527157
 20
2051.982558850093
 30
0.0
 11
1156.669198362377
 21
2051.982558850093
 31
0.0
  0
LINE
  5
2CE
330
268
100
AcDbEntity
  8
P-SANR-FIXT
100
AcDbLine
 10
1156.808038175386
 20
2051.982558850093
 30
0.0
 11
1157.856294343095
 21
2051.982558850093
 31
0.0
  0
LINE
  5
2CF
330
268
100
AcDbEntity
  8
P-SANR-FIXT
100
AcDbLine
 10
1157.924042967426
 20
2051.982558850093
 30
0.0
 11
1158.568836615024
 21
2051.982558850093
 31
0.0
  0
LINE
  5
2D0
330
268
100
AcDbEntity
  8
P-SANR-FIXT
100
AcDbLine
 10
1158.886161270746
 20
2051.982558850093
 30
0.0
 11
1159.523865509616
 21
2051.982558850093
 31
0.0
  0
LINE
  5
2D1
330
268
100
AcDbEntity
  8
P-SANR-FIXT
100
AcDbLine
 10
1159.684731221961
 20
2051.982558850093
 30
0.0
 11
1160.162408820232
 21
2051.982558850093
 31
0.0
  0
LINE
  5
2D2
330
268
100
AcDbEntity
  8
P-SANR-FIXT
100
AcDbLine
 10
1160.346590007149
 20
2051.982558850093
 30
0.0
 11
1160.645893962023
 21
2051.982558850093
 31
0.0
  0
LINE
  5
2D3
330
268
100
AcDbEntity
  8
P-SANR-FIXT
100
AcDbLine
 10
1160.785615738241
 20
2051.982558850093
 30
0.0
 11
1160.969354923899
 21
2051.982558850093
 31
0.0
  0
LINE
  5
2D4
330
268
100
AcDbEntity
  8
P-SANR-FIXT
100
AcDbLine
 10
1161.028668991932
 20
2051.982558850093
 30
0.0
 11
1161.114353943123
 21
2051.982558850093
 31
0.0
  0
LINE
  5
2D5
330
268
100
AcDbEntity
  8
P-SANR-FIXT
100
AcDbLine
 10
1123.114353943068
 20
2051.982558850093
 30
0.0
 11
1123.200038894259
 21
2051.982558850093
 31
0.0
  0
LINE
  5
2D6
330
268
100
AcDbEntity
  8
P-SANR-FIXT
100
AcDbLine
 10
1123.259352962294
 20
2051.982558850093
 30
0.0
 11
1123.44309214795
 21
2051.982558850093
 31
0.0
  0
LINE
  5
2D7
330
268
100
AcDbEntity
  8
P-SANR-FIXT
100
AcDbLine
 10
1123.582813924167
 20
2051.982558850093
 30
0.0
 11
1123.852525548614
 21
2051.982558850093
 31
0.0
  0
LINE
  5
2D8
330
268
100
AcDbEntity
  8
P-SANR-FIXT
100
AcDbLine
 10
1124.06629906596
 20
2051.982558850093
 30
0.0
 11
1124.54397666423
 21
2051.982558850093
 31
0.0
  0
LINE
  5
2D9
330
268
100
AcDbEntity
  8
P-SANR-FIXT
100
AcDbLine
 10
1124.704842376574
 20
2051.982558850093
 30
0.0
 11
1125.342546615445
 21
2051.982558850093
 31
0.0
  0
LINE
  5
2DA
330
268
100
AcDbEntity
  8
P-SANR-FIXT
100
AcDbLine
 10
1125.519588530121
 20
2051.982558850093
 30
0.0
 11
1126.304664918765
 21
2051.982558850093
 31
0.0
  0
LINE
  5
2DB
330
268
100
AcDbEntity
  8
P-SANR-FIXT
100
AcDbLine
 10
1126.550465101582
 20
2051.982558850093
 30
0.0
 11
1127.420669710805
 21
2051.982558850093
 31
0.0
  0
LINE
  5
2DC
330
268
100
AcDbEntity
  8
P-SANR-FIXT
100
AcDbLine
 10
1127.559509523814
 20
2051.982558850093
 30
0.0
 11
1129.901389359033
 21
2051.982558850093
 31
0.0
  0
LINE
  5
2DD
330
268
100
AcDbEntity
  8
P-SANR-FIXT
100
AcDbLine
 10
1130.056121557927
 20
2051.982558850093
 30
0.0
 11
1131.216401652409
 21
2051.982558850093
 31
0.0
  0
LINE
  5
2DE
330
268
100
AcDbEntity
  8
P-SANR-FIXT
100
AcDbLine
 10
1131.551252299983
 20
2051.982558850093
 30
0.0
 11
1132.614353943081
 21
2051.982558850093
 31
0.0
  0
LINE
  5
2DF
330
268
100
AcDbEntity
  8
P-SANR-FIXT
100
AcDbLine
 10
1132.614353943081
 20
2051.982558850093
 30
0.0
 11
1132.980327525266
 21
2051.982558850093
 31
0.0
  0
LINE
  5
2E0
330
268
100
AcDbEntity
  8
P-SANR-FIXT
100
AcDbLine
 10
1133.149976782884
 20
2051.982558850093
 30
0.0
 11
1134.836446730566
 21
2051.982558850093
 31
0.0
  0
LINE
  5
2E1
330
268
100
AcDbEntity
  8
P-SANR-FIXT
100
AcDbLine
 10
1135.470476738393
 20
2051.982558850093
 30
0.0
 11
1136.593887466444
 21
2051.982558850093
 31
0.0
  0
LINE
  5
2E2
330
268
100
AcDbEntity
  8
P-SANR-FIXT
100
AcDbLine
 10
1137.19679208614
 20
2051.982558850093
 30
0.0
 11
1140.251077384078
 21
2051.982558850093
 31
0.0
  0
LINE
  5
2E3
330
268
100
AcDbEntity
  8
P-SANR-FIXT
100
AcDbLine
 10
1140.444736950567
 20
2051.982558850093
 30
0.0
 11
1142.114353943096
 21
2051.982558850093
 31
0.0
  0
LINE
  5
2E4
330
268
100
AcDbEntity
  8
P-SANR-FIXT
100
AcDbLine
 10
1161.114353943091
 20
2041.98255885003
 30
0.0
 11
1151.614353943093
 21
2041.98255885003
 31
0.0
  0
LINE
  5
2E5
330
268
100
AcDbEntity
  8
P-SANR-FIXT
100
AcDbLine
 10
1151.614353943093
 20
2041.98255885003
 30
0.0
 11
1142.114353943096
 21
2041.98255885003
 31
0.0
  0
LINE
  5
2E6
330
268
100
AcDbEntity
  8
P-SANR-FIXT
100
AcDbLine
 10
1142.114353943096
 20
2041.98255885003
 30
0.0
 11
1132.614353943098
 21
2041.98255885003
 31
0.0
  0
LINE
  5
2E7
330
268
100
AcDbEntity
  8
P-SANR-FIXT
100
AcDbLine
 10
1132.614353943098
 20
2041.98255885003
 30
0.0
 11
1123.1143539431
 21
2041.98255885003
 31
0.0
  0
SPLINE
  5
2E8
330
268
100
AcDbEntity
  8
P-SANR-FIXT
100
AcDbSpline
210
0.0
220
0.0
230
1.0
 70
    24
 71
     3
 72
     9
 73
     5
 74
     0
 42
0.000000001
 43
0.0000000001
 40
0.0
 40
0.0
 40
0.0
 40
0.0
 40
0.5
 40
1.0
 40
1.0
 40
1.0
 40
1.0
 10
1123.114353943002
 20
2041.98255885003
 30
0.0
 10
1123.114353943002
 20
2041.987951264463
 30
0.0
 10
1123.114353943002
 20
2042.130824050134
 30
0.0
 10
1123.114353943002
 20
2042.537872749411
 30
0.0
 10
1123.114353943002
 20
2042.807441077451
 30
0.0
  0
SPLINE
  5
2E9
330
268
100
AcDbEntity
  8
P-SANR-FIXT
100
AcDbSpline
210
0.0
220
0.0
230
1.0
 70
    24
 71
     3
 72
     9
 73
     5
 74
     0
 42
0.000000001
 43
0.0000000001
 40
0.0
 40
0.0
 40
0.0
 40
0.0
 40
0.5
 40
1.0
 40
1.0
 40
1.0
 40
1.0
 10
1123.114353943002
 20
2051.157676622691
 30
0.0
 10
1123.114353943002
 20
2051.427244950734
 30
0.0
 10
1123.114353943002
 20
2051.834293650011
 30
0.0
 10
1123.114353943002
 20
2051.977166435669
 30
0.0
 10
1123.114353943002
 20
2051.982558850093
 30
0.0
  0
SPLINE
  5
2EA
330
268
100
AcDbEntity
  8
P-SANR-FIXT
100
AcDbSpline
210
0.0
220
0.0
230
1.0
 70
     8
 71
     3
 72
    10
 73
     6
 74
     0
 42
0.000000001
 43
0.0000000001
 40
0.0
 40
0.0
 40
0.0
 40
0.0
 40
0.4
 40
0.7
 40
1.0
 40
1.0
 40
1.0
 40
1.0
 10
1123.114353943002
 20
2042.807441077451
 30
0.0
 10
1123.114353943002
 20
2042.984370278286
 30
0.0
 10
1123.419960178114
 20
2043.175943365353
 30
0.0
 10
1124.590540968651
 20
2043.128562397691
 30
0.0
 10
1125.578288389422
 20
2042.939937782204
 30
0.0
 10
1126.114353943002
 20
2042.807441077445
 30
0.0
  0
SPLINE
  5
2EB
330
268
100
AcDbEntity
  8
P-SANR-FIXT
100
AcDbSpline
210
0.0
220
0.0
230
1.0
 70
     8
 71
     3
 72
    10
 73
     6
 74
     0
 42
0.000000001
 43
0.0000000001
 40
0.0
 40
0.0
 40
0.0
 40
0.0
 40
0.4
 40
0.7
 40
1.0
 40
1.0
 40
1.0
 40
1.0
 10
1126.114353943002
 20
2051.157676622697
 30
0.0
 10
1125.399599871562
 20
2050.981014349684
 30
0.0
 10
1124.280181556211
 20
2050.789297645197
 30
0.0
 10
1123.308316508693
 20
2050.836330677702
 30
0.0
 10
1123.114353943002
 20
2051.024979722064
 30
0.0
 10
1123.114353943002
 20
2051.157676622691
 30
0.0
  0
SPLINE
  5
2EC
330
268
100
AcDbEntity
  8
P-SANR-FIXT
100
AcDbSpline
210
0.0
220
0.0
230
1.0
 70
     8
 71
     3
 72
     9
 73
     5
 74
     0
 42
0.000000001
 43
0.0000000001
 40
0.0
 40
0.0
 40
0.0
 40
0.0
 40
0.5
 40
1.0
 40
1.0
 40
1.0
 40
1.0
 10
1126.114353943002
 20
2042.807441077445
 30
0.0
 10
1127.185426689767
 20
2042.537872749395
 30
0.0
 10
1129.339832769877
 20
2042.13082405011
 30
0.0
 10
1131.518760023145
 20
2041.987951264452
 30
0.0
 10
1132.614353943068
 20
2041.98255885003
 30
0.0
  0
SPLINE
  5
2ED
330
268
100
AcDbEntity
  8
P-SANR-FIXT
100
AcDbSpline
210
0.0
220
0.0
230
1.0
 70
     8
 71
     3
 72
     9
 73
     5
 74
     0
 42
0.000000001
 43
0.0000000001
 40
0.0
 40
0.0
 40
0.0
 40
0.0
 40
0.5
 40
1.0
 40
1.0
 40
1.0
 40
1.0
 10
1132.614353943068
 20
2041.98255885003
 30
0.0
 10
1133.709947862977
 20
2041.987951264452
 30
0.0
 10
1135.888875116217
 20
2042.130824050107
 30
0.0
 10
1138.0432811963
 20
2042.537872749382
 30
0.0
 10
1139.114353943052
 20
2042.807441077425
 30
0.0
  0
SPLINE
  5
2EE
330
268
100
AcDbEntity
  8
P-SANR-FIXT
100
AcDbSpline
210
0.0
220
0.0
230
1.0
 70
     8
 71
     3
 72
     9
 73
     5
 74
     0
 42
0.000000001
 43
0.0000000001
 40
0.0
 40
0.0
 40
0.0
 40
0.0
 40
0.5
 40
1.0
 40
1.0
 40
1.0
 40
1.0
 10
1139.114353943052
 20
2051.157676622717
 30
0.0
 10
1138.0432811963
 20
2051.427244950763
 30
0.0
 10
1135.888875116218
 20
2051.834293650038
 30
0.0
 10
1133.709947862977
 20
2051.97716643568
 30
0.0
 10
1132.614353943068
 20
2051.982558850093
 30
0.0
  0
SPLINE
  5
2EF
330
268
100
AcDbEntity
  8
P-SANR-FIXT
100
AcDbSpline
210
0.0
220
0.0
230
1.0
 70
     8
 71
     3
 72
     9
 73
     5
 74
     0
 42
0.000000001
 43
0.0000000001
 40
0.0
 40
0.0
 40
0.0
 40
0.0
 40
0.5
 40
1.0
 40
1.0
 40
1.0
 40
1.0
 10
1132.614353943068
 20
2051.982558850093
 30
0.0
 10
1131.518760023144
 20
2051.97716643568
 30
0.0
 10
1129.339832769876
 20
2051.834293650034
 30
0.0
 10
1127.185426689767
 20
2051.427244950749
 30
0.0
 10
1126.114353943002
 20
2051.157676622697
 30
0.0
  0
SPLINE
  5
2F0
330
268
100
AcDbEntity
  8
P-SANR-FIXT
100
AcDbSpline
210
0.0
220
0.0
230
1.0
 70
     8
 71
     3
 72
     9
 73
     5
 74
     0
 42
0.000000001
 43
0.0000000001
 40
0.0
 40
0.0
 40
0.0
 40
0.0
 40
0.5
 40
1.0
 40
1.0
 40
1.0
 40
1.0
 10
1139.114353943052
 20
2042.807441077425
 30
0.0
 10
1139.562231847246
 20
2042.918446269114
 30
0.0
 10
1140.530962758404
 20
2043.085489950776
 30
0.0
 10
1141.584321248984
 20
2043.142600229002
 30
0.0
 10
1142.114353943096
 20
2043.143672017256
 30
0.0
  0
SPLINE
  5
2F1
330
268
100
AcDbEntity
  8
P-SANR-FIXT
100
AcDbSpline
210
0.0
220
0.0
230
1.0
 70
     8
 71
     3
 72
     9
 73
     5
 74
     0
 42
0.000000001
 43
0.0000000001
 40
0.0
 40
0.0
 40
0.0
 40
0.0
 40
0.5
 40
1.0
 40
1.0
 40
1.0
 40
1.0
 10
1142.114353943096
 20
2043.143672017256
 30
0.0
 10
1142.644386637192
 20
2043.142600228998
 30
0.0
 10
1143.697745127741
 20
2043.085489950766
 30
0.0
 10
1144.666476038871
 20
2042.918446269105
 30
0.0
 10
1145.114353943052
 20
2042.807441077417
 30
0.0
  0
SPLINE
  5
2F2
330
268
100
AcDbEntity
  8
P-SANR-FIXT
100
AcDbSpline
210
0.0
220
0.0
230
1.0
 70
     8
 71
     3
 72
     9
 73
     5
 74
     0
 42
0.000000001
 43
0.0000000001
 40
0.0
 40
0.0
 40
0.0
 40
0.0
 40
0.5
 40
1.0
 40
1.0
 40
1.0
 40
1.0
 10
1145.114353943052
 20
2051.157676622725
 30
0.0
 10
1144.666476038871
 20
2051.046671431036
 30
0.0
 10
1143.697745127741
 20
2050.879627749376
 30
0.0
 10
1142.644386637192
 20
2050.822517471144
 30
0.0
 10
1142.114353943096
 20
2050.821445682886
 30
0.0
  0
SPLINE
  5
2F3
330
268
100
AcDbEntity
  8
P-SANR-FIXT
100
AcDbSpline
210
0.0
220
0.0
230
1.0
 70
     8
 71
     3
 72
     9
 73
     5
 74
     0
 42
0.000000001
 43
0.0000000001
 40
0.0
 40
0.0
 40
0.0
 40
0.0
 40
0.5
 40
1.0
 40
1.0
 40
1.0
 40
1.0
 10
1142.114353943096
 20
2050.821445682886
 30
0.0
 10
1141.584321248984
 20
2050.822517471139
 30
0.0
 10
1140.530962758404
 20
2050.879627749365
 30
0.0
 10
1139.562231847246
 20
2051.046671431027
 30
0.0
 10
1139.114353943052
 20
2051.157676622717
 30
0.0
  0
SPLINE
  5
2F4
330
268
100
AcDbEntity
  8
P-SANR-FIXT
100
AcDbSpline
210
0.0
220
0.0
230
1.0
 70
     8
 71
     3
 72
     9
 73
     5
 74
     0
 42
0.000000001
 43
0.0000000001
 40
0.0
 40
0.0
 40
0.0
 40
0.0
 40
0.5
 40
1.0
 40
1.0
 40
1.0
 40
1.0
 10
1145.114353943052
 20
2042.807441077417
 30
0.0
 10
1146.185426689815
 20
2042.537872749365
 30
0.0
 10
1148.339832769918
 20
2042.130824050081
 30
0.0
 10
1150.51876002318
 20
2041.98795126444
 30
0.0
 10
1151.614353943101
 20
2041.98255885003
 30
0.0
  0
SPLINE
  5
2F5
330
268
100
AcDbEntity
  8
P-SANR-FIXT
100
AcDbSpline
210
0.0
220
0.0
230
1.0
 70
     8
 71
     3
 72
     9
 73
     5
 74
     0
 42
0.000000001
 43
0.0000000001
 40
0.0
 40
0.0
 40
0.0
 40
0.0
 40
0.5
 40
1.0
 40
1.0
 40
1.0
 40
1.0
 10
1151.614353943101
 20
2041.98255885003
 30
0.0
 10
1152.709947863014
 20
2041.98795126444
 30
0.0
 10
1154.88887511626
 20
2042.130824050079
 30
0.0
 10
1157.043281196349
 20
2042.537872749357
 30
0.0
 10
1158.114353943103
 20
2042.807441077405
 30
0.0
  0
SPLINE
  5
2F6
330
268
100
AcDbEntity
  8
P-SANR-FIXT
100
AcDbSpline
210
0.0
220
0.0
230
1.0
 70
     8
 71
     3
 72
     9
 73
     5
 74
     0
 42
0.000000001
 43
0.0000000001
 40
0.0
 40
0.0
 40
0.0
 40
0.0
 40
0.5
 40
1.0
 40
1.0
 40
1.0
 40
1.0
 10
1158.114353943103
 20
2051.157676622736
 30
0.0
 10
1157.043281196349
 20
2051.427244950787
 30
0.0
 10
1154.888875116261
 20
2051.834293650066
 30
0.0
 10
1152.709947863014
 20
2051.977166435693
 30
0.0
 10
1151.614353943101
 20
2051.982558850093
 30
0.0
  0
SPLINE
  5
2F7
330
268
100
AcDbEntity
  8
P-SANR-FIXT
100
AcDbSpline
210
0.0
220
0.0
230
1.0
 70
     8
 71
     3
 72
     9
 73
     5
 74
     0
 42
0.000000001
 43
0.0000000001
 40
0.0
 40
0.0
 40
0.0
 40
0.0
 40
0.5
 40
1.0
 40
1.0
 40
1.0
 40
1.0
 10
1151.614353943101
 20
2051.982558850093
 30
0.0
 10
1150.51876002318
 20
2051.977166435692
 30
0.0
 10
1148.339832769917
 20
2051.834293650063
 30
0.0
 10
1146.185426689814
 20
2051.42724495078
 30
0.0
 10
1145.114353943052
 20
2051.157676622725
 30
0.0
  0
SPLINE
  5
2F8
330
268
100
AcDbEntity
  8
P-SANR-FIXT
100
AcDbSpline
210
0.0
220
0.0
230
1.0
 70
     8
 71
     3
 72
    10
 73
     6
 74
     0
 42
0.000000001
 43
0.0000000001
 40
0.0
 40
0.0
 40
0.0
 40
0.0
 40
0.4
 40
0.7
 40
1.0
 40
1.0
 40
1.0
 40
1.0
 10
1158.114353943103
 20
2042.807441077405
 30
0.0
 10
1158.830585060987
 20
2042.984370278241
 30
0.0
 10
1159.949416449654
 20
2043.175943365309
 30
0.0
 10
1160.92106749901
 20
2043.128562397649
 30
0.0
 10
1161.114353943103
 20
2042.939937782164
 30
0.0
 10
1161.114353943103
 20
2042.807441077405
 30
0.0
  0
SPLINE
  5
2F9
330
268
100
AcDbEntity
  8
P-SANR-FIXT
100
AcDbSpline
210
0.0
220
0.0
230
1.0
 70
     8
 71
     3
 72
    10
 73
     6
 74
     0
 42
0.000000001
 43
0.0000000001
 40
0.0
 40
0.0
 40
0.0
 40
0.0
 40
0.4
 40
0.7
 40
1.0
 40
1.0
 40
1.0
 40
1.0
 10
1161.114353943103
 20
2051.157676622737
 30
0.0
 10
1161.114353943103
 20
2050.981014349725
 30
0.0
 10
1160.809337114732
 20
2050.789297645239
 30
0.0
 10
1159.639515740335
 20
2050.836330677746
 30
0.0
 10
1158.651527281516
 20
2051.02497972211
 30
0.0
 10
1158.114353943103
 20
2051.157676622736
 30
0.0
  0
SPLINE
  5
2FA
330
268
100
AcDbEntity
  8
P-SANR-FIXT
100
AcDbSpline
210
0.0
220
0.0
230
1.0
 70
    24
 71
     3
 72
     9
 73
     5
 74
     0
 42
0.000000001
 43
0.0000000001
 40
0.0
 40
0.0
 40
0.0
 40
0.0
 40
0.5
 40
1.0
 40
1.0
 40
1.0
 40
1.0
 10
1161.114353943103
 20
2042.807441077405
 30
0.0
 10
1161.114353943103
 20
2042.537872749356
 30
0.0
 10
1161.114353943103
 20
2042.130824050077
 30
0.0
 10
1161.114353943103
 20
2041.987951264438
 30
0.0
 10
1161.114353943103
 20
2041.98255885003
 30
0.0
  0
SPLINE
  5
2FB
330
268
100
AcDbEntity
  8
P-SANR-FIXT
100
AcDbSpline
210
0.0
220
0.0
230
1.0
 70
    24
 71
     3
 72
     9
 73
     5
 74
     0
 42
0.000000001
 43
0.0000000001
 40
0.0
 40
0.0
 40
0.0
 40
0.0
 40
0.5
 40
1.0
 40
1.0
 40
1.0
 40
1.0
 10
1161.114353943103
 20
2051.982558850093
 30
0.0
 10
1161.114353943103
 20
2051.977166435694
 30
0.0
 10
1161.114353943103
 20
2051.834293650068
 30
0.0
 10
1161.114353943103
 20
2051.42724495079
 30
0.0
 10
1161.114353943103
 20
2051.157676622737
 30
0.0
  0
LINE
  5
2FC
330
268
100
AcDbEntity
  8
P-SANR-FIXT
100
AcDbLine
 10
1160.61435394305
 20
2056.548435448273
 30
0.0
 11
1157.264353943097
 21
2058.482558850031
 31
0.0
  0
LINE
  5
2FD
330
268
100
AcDbEntity
  8
P-SANR-FIXT
100
AcDbLine
 10
1126.964353943098
 20
2058.482558850031
 30
0.0
 11
1123.614353943145
 21
2056.548435448273
 31
0.0
  0
LWPOLYLINE
  5
2FE
330
268
100
AcDbEntity
  8
P-SANR-FIXT
100
AcDbPolyline
 90
       28
 70
   128
 43
0.0
 10
1160.61435394305
 20
2056.548435448273
 10
1160.648585775666
 20
2056.527748053228
 10
1160.681962951314
 20
2056.505708297698
 10
1160.714432073632
 20
2056.48235144059
 10
1160.745941198951
 20
2056.457714847894
 10
1160.776439919392
 20
2056.431837932902
 10
1160.805879443508
 20
2056.404762093158
 10
1160.834212674341
 20
2056.376530644229
 10
1160.861394284766
 20
2056.347188750412
 10
1160.887380790003
 20
2056.316783352477
 10
1160.91213061719
 20
2056.285363092575
 10
1160.935604171881
 20
2056.25297823642
 10
1160.957763901397
 20
2056.219680592873
 10
1160.978574354897
 20
2056.185523431059
 10
1160.998002240096
 20
2056.150561395152
 10
1161.01601647652
 20
2056.114850416951
 10
1161.032588245236
 20
2056.078447626402
 10
1161.047691034948
 20
2056.041411260208
 10
1161.061300684413
 20
2056.00380056865
 10
1161.073395421098
 20
2055.965675720813
 10
1161.083955896002
 20
2055.927097708321
 10
1161.092965214619
 20
2055.888128247764
 10
1161.10040896396
 20
2055.848829681965
 10
1161.106275235615
 20
2055.809264880248
 10
1161.110554644801
 20
2055.769497137855
 10
1161.113240345375
 20
2055.72959007469
 10
1161.11432804079
 20
2055.689607533541
 10
1161.11435394305
 20
2055.682410044489
  0
LWPOLYLINE
  5
2FF
330
268
100
AcDbEntity
  8
P-SANR-FIXT
100
AcDbPolyline
 90
       28
 70
   128
 43
0.0
 10
1123.114353943145
 20
2055.682410044489
 10
1123.115153836484
 20
2055.722399378675
 10
1123.117552236842
 20
2055.762324738457
 10
1123.121545307291
 20
2055.802122251777
 10
1123.127126659769
 20
2055.841728251103
 10
1123.134287365304
 20
2055.881079375284
 10
1123.143015968293
 20
2055.920112670916
 10
1123.153298504834
 20
2055.958765693052
 10
1123.165118525063
 20
2055.996976605104
 10
1123.178457119467
 20
2056.034684277764
 10
1123.193292949142
 20
2056.071828386798
 10
1123.209602279925
 20
2056.108349509555
 10
1123.227359020366
 20
2056.14418922003
 10
1123.246534763467
 20
2056.179290182333
 10
1123.267098832132
 20
2056.213596242409
 10
1123.289018328235
 20
2056.247052517884
 10
1123.312258185261
 20
2056.279605485851
 10
1123.336781224394
 20
2056.311203068507
 10
1123.362548214004
 20
2056.34179471646
 10
1123.389517932404
 20
2056.371331489599
 10
1123.417647233798
 20
2056.399766135388
 10
1123.446891117303
 20
2056.427053164459
 10
1123.477202798946
 20
2056.453148923387
 10
1123.508533786502
 20
2056.478011664525
 10
1123.540833957072
 20
2056.501601612789
 10
1123.574051637277
 20
2056.523881029296
 10
1123.608133685912
 20
2056.544814271732
 10
1123.614353943145
 20
2056.548435448273
  0
LINE
  5
300
330
268
100
AcDbEntity
  8
P-SANR-FIXT
100
AcDbLine
 10
1161.11435394305
 20
2051.982558850094
 30
0.0
 11
1161.11435394305
 21
2055.682410044489
 31
0.0
  0
LINE
  5
301
330
268
100
AcDbEntity
  8
P-SANR-FIXT
100
AcDbLine
 10
1123.114353943145
 20
2055.682410044489
 30
0.0
 11
1123.114353943145
 21
2051.982558850094
 31
0.0
  0
LINE
  5
302
330
268
100
AcDbEntity
  8
P-SANR-FIXT
100
AcDbLine
 10
1157.264353943096
 20
2058.48255885003
 30
0.0
 11
1142.114353943096
 21
2058.48255885003
 31
0.0
  0
LINE
  5
303
330
268
100
AcDbEntity
  8
P-SANR-FIXT
100
AcDbLine
 10
1142.114353943096
 20
2058.48255885003
 30
0.0
 11
1126.964353943096
 21
2058.48255885003
 31
0.0
  0
LINE
  5
304
330
268
100
AcDbEntity
  8
P-SANR-FIXT
100
AcDbLine
 10
1142.114353943096
 20
2051.982558850093
 30
0.0
 11
1143.770870344009
 21
2051.982558850093
 31
0.0
  0
LINE
  5
305
330
268
100
AcDbEntity
  8
P-SANR-FIXT
100
AcDbLine
 10
1143.976679609352
 20
2051.982558850093
 30
0.0
 11
1145.416123196485
 21
2051.982558850093
 31
0.0
  0
LINE
  5
306
330
268
100
AcDbEntity
  8
P-SANR-FIXT
100
AcDbLine
 10
1145.419296665275
 20
2051.982558850093
 30
0.0
 11
1147.036946832411
 21
2051.982558850093
 31
0.0
  0
LINE
  5
307
330
268
100
AcDbEntity
  8
P-SANR-FIXT
100
AcDbLine
 10
1147.629762810916
 20
2051.982558850093
 30
0.0
 11
1147.906804078896
 21
2051.982558850093
 31
0.0
  0
LINE
  5
308
330
268
100
AcDbEntity
  8
P-SANR-FIXT
100
AcDbLine
 10
1148.620377751757
 20
2051.982558850093
 30
0.0
 11
1150.153755408872
 21
2051.982558850093
 31
0.0
  0
LINE
  5
309
330
268
100
AcDbEntity
  8
P-SANR-FIXT
100
AcDbLine
 10
1150.398396625481
 20
2051.982558850093
 30
0.0
 11
1151.070891942767
 21
2051.982558850093
 31
0.0
  0
LINE
  5
30A
330
268
100
AcDbEntity
  8
P-SANR-FIXT
100
AcDbLine
 10
1151.62481965739
 20
2051.982558850093
 30
0.0
 11
1152.881262542762
 21
2051.982558850093
 31
0.0
  0
LINE
  5
30B
330
268
100
AcDbEntity
  8
P-SANR-FIXT
100
AcDbLine
 10
1153.021802244795
 20
2051.982558850093
 30
0.0
 11
1154.167826342175
 21
2051.982558850093
 31
0.0
  0
LINE
  5
30C
330
268
100
AcDbEntity
  8
P-SANR-FIXT
100
AcDbLine
 10
1154.333508542662
 20
2051.982558850093
 30
0.0
 11
1156.675684401285
 21
2051.982558850093
 31
0.0
  0
LINE
  5
30D
330
268
100
AcDbEntity
  8
P-SANR-FIXT
100
AcDbLine
 10
1156.801552556951
 20
2051.982558850093
 30
0.0
 11
1157.690556416678
 21
2051.982558850093
 31
0.0
  0
LINE
  5
30E
330
268
100
AcDbEntity
  8
P-SANR-FIXT
100
AcDbLine
 10
1157.851091530929
 20
2051.982558850093
 30
0.0
 11
1158.585842563824
 21
2051.982558850093
 31
0.0
  0
LINE
  5
30F
330
268
100
AcDbEntity
  8
P-SANR-FIXT
100
AcDbLine
 10
1158.703647682226
 20
2051.982558850093
 30
0.0
 11
1158.870857965672
 21
2051.982558850093
 31
0.0
  0
LINE
  5
310
330
268
100
AcDbEntity
  8
P-SANR-FIXT
100
AcDbLine
 10
1160.081170544346
 20
2051.982558850093
 30
0.0
 11
1160.33960594262
 21
2051.982558850093
 31
0.0
  0
LINE
  5
311
330
268
100
AcDbEntity
  8
P-SANR-FIXT
100
AcDbLine
 10
1160.645822101186
 20
2051.982558850093
 30
0.0
 11
1160.785689568506
 21
2051.982558850093
 31
0.0
  0
LINE
  5
312
330
268
100
AcDbEntity
  8
P-SANR-FIXT
100
AcDbLine
 10
1160.953767087376
 20
2051.982558850093
 30
0.0
 11
1161.02286374982
 21
2051.982558850093
 31
0.0
  0
LINE
  5
313
330
268
100
AcDbEntity
  8
P-SANR-FIXT
100
AcDbLine
 10
1123.205844136371
 20
2051.982558850093
 30
0.0
 11
1123.274940798815
 21
2051.982558850093
 31
0.0
  0
LINE
  5
314
330
268
100
AcDbEntity
  8
P-SANR-FIXT
100
AcDbLine
 10
1123.443018317685
 20
2051.982558850093
 30
0.0
 11
1123.582885785005
 21
2051.982558850093
 31
0.0
  0
LINE
  5
315
330
268
100
AcDbEntity
  8
P-SANR-FIXT
100
AcDbLine
 10
1123.852395528881
 20
2051.982558850093
 30
0.0
 11
1124.147537341844
 21
2051.982558850093
 31
0.0
  0
LINE
  5
316
330
268
100
AcDbEntity
  8
P-SANR-FIXT
100
AcDbLine
 10
1125.357849920519
 20
2051.982558850093
 30
0.0
 11
1125.517086727239
 21
2051.982558850093
 31
0.0
  0
LINE
  5
317
330
268
100
AcDbEntity
  8
P-SANR-FIXT
100
AcDbLine
 10
1125.642865322368
 20
2051.982558850093
 30
0.0
 11
1126.316431309387
 21
2051.982558850093
 31
0.0
  0
LINE
  5
318
330
268
100
AcDbEntity
  8
P-SANR-FIXT
100
AcDbLine
 10
1126.538151469513
 20
2051.982558850093
 30
0.0
 11
1127.42715532924
 21
2051.982558850093
 31
0.0
  0
LINE
  5
319
330
268
100
AcDbEntity
  8
P-SANR-FIXT
100
AcDbLine
 10
1127.553023484906
 20
2051.982558850093
 30
0.0
 11
1129.895199343528
 21
2051.982558850093
 31
0.0
  0
LINE
  5
31A
330
268
100
AcDbEntity
  8
P-SANR-FIXT
100
AcDbLine
 10
1130.060881544016
 20
2051.982558850093
 30
0.0
 11
1131.206905641395
 21
2051.982558850093
 31
0.0
  0
LINE
  5
31B
330
268
100
AcDbEntity
  8
P-SANR-FIXT
100
AcDbLine
 10
1131.558519515749
 20
2051.982558850093
 30
0.0
 11
1132.60388822879
 21
2051.982558850093
 31
0.0
  0
LINE
  5
31C
330
268
100
AcDbEntity
  8
P-SANR-FIXT
100
AcDbLine
 10
1132.982332304021
 20
2051.982558850093
 30
0.0
 11
1134.074952477318
 21
2051.982558850093
 31
0.0
  0
LINE
  5
31D
330
268
100
AcDbEntity
  8
P-SANR-FIXT
100
AcDbLine
 10
1134.843368728177
 20
2051.982558850093
 30
0.0
 11
1135.465571782047
 21
2051.982558850093
 31
0.0
  0
LINE
  5
31E
330
268
100
AcDbEntity
  8
P-SANR-FIXT
100
AcDbLine
 10
1135.608330134433
 20
2051.982558850093
 30
0.0
 11
1136.598945075274
 21
2051.982558850093
 31
0.0
  0
LINE
  5
31F
330
268
100
AcDbEntity
  8
P-SANR-FIXT
100
AcDbLine
 10
1137.191761053779
 20
2051.982558850093
 30
0.0
 11
1138.407637824798
 21
2051.982558850093
 31
0.0
  0
LINE
  5
320
330
268
100
AcDbEntity
  8
P-SANR-FIXT
100
AcDbLine
 10
1138.812584689706
 20
2051.982558850093
 30
0.0
 11
1140.444279065524
 21
2051.982558850093
 31
0.0
  0
LINE
  5
321
330
268
100
AcDbEntity
  8
P-SANR-FIXT
100
AcDbLine
 10
1140.457837542182
 20
2051.982558850093
 30
0.0
 11
1142.114353943096
 21
2051.982558850093
 31
0.0
  0
LINE
  5
322
330
268
100
AcDbEntity
  8
P-SANR-FIXT
100
AcDbLine
 10
1154.114353943097
 20
2064.695662093632
 30
0.0
 11
1153.431975261964
 21
2065.378040774765
 31
0.0
  0
LINE
  5
323
330
268
100
AcDbEntity
  8
P-SANR-FIXT
100
AcDbLine
 10
1130.796732624231
 20
2065.378040774765
 30
0.0
 11
1130.114353943098
 21
2064.695662093632
 31
0.0
  0
LINE
  5
324
330
268
100
AcDbEntity
  8
P-SANR-FIXT
100
AcDbLine
 10
1154.114353943097
 20
2063.378040774765
 30
0.0
 11
1154.114353943097
 21
2064.695662093632
 31
0.0
  0
LINE
  5
325
330
268
100
AcDbEntity
  8
P-SANR-FIXT
100
AcDbLine
 10
1130.114353943098
 20
2064.695662093632
 30
0.0
 11
1130.114353943098
 21
2063.378040774765
 31
0.0
  0
LINE
  5
326
330
268
100
AcDbEntity
  8
P-SANR-FIXT
100
AcDbLine
 10
1142.114353943096
 20
2065.378040774763
 30
0.0
 11
1153.431975261962
 21
2065.378040774763
 31
0.0
  0
LINE
  5
327
330
268
100
AcDbEntity
  8
P-SANR-FIXT
100
AcDbLine
 10
1130.79673262423
 20
2065.378040774763
 30
0.0
 11
1142.114353943096
 21
2065.378040774763
 31
0.0
  0
LINE
  5
328
330
268
100
AcDbEntity
  8
P-SANR-FIXT
100
AcDbLine
 10
1142.114353943096
 20
2064.695662093631
 30
0.0
 11
1154.114353943095
 21
2064.695662093631
 31
0.0
  0
LINE
  5
329
330
268
100
AcDbEntity
  8
P-SANR-FIXT
100
AcDbLine
 10
1130.114353943097
 20
2064.695662093631
 30
0.0
 11
1142.114353943096
 21
2064.695662093631
 31
0.0
  0
LINE
  5
32A
330
268
100
AcDbEntity
  8
P-SANR-FIXT
100
AcDbLine
 10
1128.714353943097
 20
2063.378040774765
 30
0.0
 11
1128.714353943097
 21
2058.482558850031
 31
0.0
  0
LINE
  5
32B
330
268
100
AcDbEntity
  8
P-SANR-FIXT
100
AcDbLine
 10
1155.514353943098
 20
2058.482558850031
 30
0.0
 11
1155.514353943098
 21
2063.378040774765
 31
0.0
  0
LINE
  5
32C
330
268
100
AcDbEntity
  8
P-SANR-FIXT
100
AcDbLine
 10
1128.714353943096
 20
2063.378040774764
 30
0.0
 11
1128.740438794507
 21
2063.378040774764
 31
0.0
  0
LINE
  5
32D
330
268
100
AcDbEntity
  8
P-SANR-FIXT
100
AcDbLine
 10
1128.740438794507
 20
2063.378040774764
 30
0.0
 11
1134.703659400859
 21
2063.378040774764
 31
0.0
  0
LINE
  5
32E
330
268
100
AcDbEntity
  8
P-SANR-FIXT
100
AcDbLine
 10
1134.703659400859
 20
2063.378040774764
 30
0.0
 11
1136.151133336745
 21
2063.378040774764
 31
0.0
  0
LINE
  5
32F
330
268
100
AcDbEntity
  8
P-SANR-FIXT
100
AcDbLine
 10
1136.151133336745
 20
2063.378040774764
 30
0.0
 11
1148.077574549448
 21
2063.378040774764
 31
0.0
  0
LINE
  5
330
330
268
100
AcDbEntity
  8
P-SANR-FIXT
100
AcDbLine
 10
1148.077574549448
 20
2063.378040774764
 30
0.0
 11
1149.525048485334
 21
2063.378040774764
 31
0.0
  0
LINE
  5
331
330
268
100
AcDbEntity
  8
P-SANR-FIXT
100
AcDbLine
 10
1149.525048485334
 20
2063.378040774764
 30
0.0
 11
1155.488269091685
 21
2063.378040774764
 31
0.0
  0
LINE
  5
332
330
268
100
AcDbEntity
  8
P-SANR-FIXT
100
AcDbLine
 10
1155.488269091685
 20
2063.378040774764
 30
0.0
 11
1155.514353943096
 21
2063.378040774764
 31
0.0
  0
LINE
  5
333
330
268
100
AcDbEntity
  8
P-SANR-FIXT
100
AcDbLine
 10
1128.740438794507
 20
2058.48255885003
 30
0.0
 11
1128.740438794507
 21
2063.378040774764
 31
0.0
  0
LINE
  5
334
330
268
100
AcDbEntity
  8
P-SANR-FIXT
100
AcDbLine
 10
1134.703659400859
 20
2058.48255885003
 30
0.0
 11
1134.703659400859
 21
2063.378040774764
 31
0.0
  0
LINE
  5
335
330
268
100
AcDbEntity
  8
P-SANR-FIXT
100
AcDbLine
 10
1136.151133336745
 20
2058.48255885003
 30
0.0
 11
1136.151133336745
 21
2063.378040774764
 31
0.0
  0
LINE
  5
336
330
268
100
AcDbEntity
  8
P-SANR-FIXT
100
AcDbLine
 10
1148.077574549448
 20
2058.48255885003
 30
0.0
 11
1148.077574549448
 21
2063.378040774764
 31
0.0
  0
LINE
  5
337
330
268
100
AcDbEntity
  8
P-SANR-FIXT
100
AcDbLine
 10
1149.525048485334
 20
2058.48255885003
 30
0.0
 11
1149.525048485334
 21
2063.378040774764
 31
0.0
  0
LINE
  5
338
330
268
100
AcDbEntity
  8
P-SANR-FIXT
100
AcDbLine
 10
1155.488269091685
 20
2058.48255885003
 30
0.0
 11
1155.488269091685
 21
2063.378040774764
 31
0.0
  0
LINE
  5
339
330
268
100
AcDbEntity
  8
P-SANR-FIXT
100
AcDbLine
 10
1153.609317835691
 20
1889.882558849996
 30
0.0
 11
1153.609317835691
 21
1891.682558850011
 31
0.0
  0
LINE
  5
33A
330
268
100
AcDbEntity
  8
P-SANR-FIXT
100
AcDbLine
 10
1130.619390050504
 20
1891.682558850011
 30
0.0
 11
1130.619390050504
 21
1889.882558849996
 31
0.0
  0
LINE
  5
33B
330
268
100
AcDbEntity
  8
P-SANR-FIXT
100
AcDbLine
 10
1156.7537753609
 20
1876.363137432193
 30
0.0
 11
1156.7537753609
 21
1889.882558849996
 31
0.0
  0
LINE
  5
33C
330
268
100
AcDbEntity
  8
P-SANR-FIXT
100
AcDbLine
 10
1127.474932525295
 20
1889.882558849996
 30
0.0
 11
1127.474932525295
 21
1876.363137432193
 31
0.0
  0
LINE
  5
33D
330
268
100
AcDbEntity
  8
P-SANR-FIXT
100
AcDbLine
 10
1157.534353943098
 20
1866.08255884998
 30
0.0
 11
1157.534353943098
 21
1876.363137432193
 31
0.0
  0
LINE
  5
33E
330
268
100
AcDbEntity
  8
P-SANR-FIXT
100
AcDbLine
 10
1126.694353943098
 20
1876.363137432193
 30
0.0
 11
1126.694353943098
 21
1866.08255884998
 31
0.0
  0
LINE
  5
33F
330
268
100
AcDbEntity
  8
P-SANR-FIXT
100
AcDbLine
 10
1156.614353943097
 20
1864.582558849981
 30
0.0
 11
1156.614353943097
 21
1866.08255884998
 31
0.0
  0
LINE
  5
340
330
268
100
AcDbEntity
  8
P-SANR-FIXT
100
AcDbLine
 10
1127.614353943099
 20
1866.08255884998
 30
0.0
 11
1127.614353943099
 21
1864.582558849981
 31
0.0
  0
LINE
  5
341
330
268
100
AcDbEntity
  8
P-SANR-FIXT
100
AcDbLine
 10
1153.864353943098
 20
1861.58255884998
 30
0.0
 11
1153.864353943098
 21
1864.582558849981
 31
0.0
  0
LINE
  5
342
330
268
100
AcDbEntity
  8
P-SANR-FIXT
100
AcDbLine
 10
1130.364353943097
 20
1864.582558849981
 30
0.0
 11
1130.364353943097
 21
1861.58255884998
 31
0.0
  0
LINE
  5
343
330
268
100
AcDbEntity
  8
P-SANR-FIXT
100
AcDbLine
 10
1155.564353943098
 20
1859.582558850009
 30
0.0
 11
1155.564353943098
 21
1861.58255884998
 31
0.0
  0
LINE
  5
344
330
268
100
AcDbEntity
  8
P-SANR-FIXT
100
AcDbLine
 10
1128.664353943097
 20
1861.58255884998
 30
0.0
 11
1128.664353943097
 21
1859.582558850009
 31
0.0
  0
LINE
  5
345
330
268
100
AcDbEntity
  8
P-SANR-FIXT
100
AcDbLine
 10
1156.914353943085
 20
1850.582558850009
 30
0.0
 11
1156.914353943085
 21
1859.582558850009
 31
0.0
  0
LINE
  5
346
330
268
100
AcDbEntity
  8
P-SANR-FIXT
100
AcDbLine
 10
1127.31435394311
 20
1859.582558850009
 30
0.0
 11
1127.31435394311
 21
1850.582558850009
 31
0.0
  0
LINE
  5
347
330
268
100
AcDbEntity
  8
P-SANR-FIXT
100
AcDbLine
 10
1149.614353943098
 20
1827.582558850009
 30
0.0
 11
1149.614353943098
 21
1850.582558850009
 31
0.0
  0
LINE
  5
348
330
268
100
AcDbEntity
  8
P-SANR-FIXT
100
AcDbLine
 10
1134.614353943097
 20
1850.582558850009
 30
0.0
 11
1134.614353943097
 21
1827.582558850009
 31
0.0
  0
LINE
  5
349
330
268
100
AcDbEntity
  8
P-SANR-FIXT
100
AcDbLine
 10
1149.614353943096
 20
1827.582558850008
 30
0.0
 11
1142.114353943096
 21
1827.582558850008
 31
0.0
  0
LINE
  5
34A
330
268
100
AcDbEntity
  8
P-SANR-FIXT
100
AcDbLine
 10
1142.114353943096
 20
1827.582558850008
 30
0.0
 11
1134.614353943095
 21
1827.582558850008
 31
0.0
  0
LINE
  5
34B
330
268
100
AcDbEntity
  8
P-SANR-FIXT
100
AcDbLine
 10
1142.114353943096
 20
1889.882558849995
 30
0.0
 11
1156.753775360899
 21
1889.882558849995
 31
0.0
  0
SPLINE
  5
34C
330
268
100
AcDbEntity
  8
P-SANR-FIXT
100
AcDbSpline
210
0.0
220
0.0
230
1.0
 70
     8
 71
     3
 72
    10
 73
     6
 74
     0
 42
0.000000001
 43
0.0000000001
 40
0.1078769370796808
 40
0.1078769370796808
 40
0.1078769370796808
 40
0.1078769370796808
 40
0.1428571428571428
 40
0.2857142857142857
 40
0.3264187301261443
 40
0.3264187301261443
 40
0.3264187301261443
 40
0.3264187301261443
 10
1143.241620399756
 20
1882.932986972379
 30
0.0
 10
1143.361006675144
 20
1882.911948903534
 30
0.0
 10
1143.964131661741
 20
1882.787832241625
 30
0.0
 10
1144.682842480571
 20
1882.526820840825
 30
0.0
 10
1145.238087795496
 20
1882.227511871125
 30
0.0
 10
1145.358684033574
 20
1882.157353751391
 30
0.0
  0
SPLINE
  5
34D
330
268
100
AcDbEntity
  8
P-SANR-FIXT
100
AcDbSpline
210
0.0
220
0.0
230
1.0
 70
     8
 71
     3
 72
     8
 73
     4
 74
     0
 42
0.000000001
 43
0.0000000001
 40
0.4285714285714286
 40
0.4285714285714286
 40
0.4285714285714286
 40
0.4285714285714286
 40
0.4334345427514989
 40
0.4334345427514989
 40
0.4334345427514989
 40
0.4334345427514989
 10
1146.216722080807
 20
1881.560081475385
 30
0.0
 10
1146.229504754265
 20
1881.549542729864
 30
0.0
 10
1146.242245834911
 20
1881.538955199992
 30
0.0
 10
1146.254945083271
 20
1881.528319147872
 30
0.0
  0
SPLINE
  5
34E
330
268
100
AcDbEntity
  8
P-SANR-FIXT
100
AcDbSpline
210
0.0
220
0.0
230
1.0
 70
     8
 71
     3
 72
     8
 73
     4
 74
     0
 42
0.000000001
 43
0.0000000001
 40
0.5418548695772531
 40
0.5418548695772531
 40
0.5418548695772531
 40
0.5418548695772531
 40
0.5714285714285714
 40
0.5714285714285714
 40
0.5714285714285714
 40
0.5714285714285714
 10
1147.039336094112
 20
1880.747524571162
 30
0.0
 10
1147.104487558018
 20
1880.670475122113
 30
0.0
 10
1147.167877803489
 20
1880.591839863523
 30
0.0
 10
1147.229474802522
 20
1880.511685800536
 30
0.0
  0
SPLINE
  5
34F
330
268
100
AcDbEntity
  8
P-SANR-FIXT
100
AcDbSpline
210
0.0
220
0.0
230
1.0
 70
     8
 71
     3
 72
    10
 73
     6
 74
     0
 42
0.000000001
 43
0.0000000001
 40
0.6516423225615357
 40
0.6516423225615357
 40
0.6516423225615357
 40
0.6516423225615357
 40
0.6785714285714287
 40
0.7321428571428572
 40
0.7618732692192637
 40
0.7618732692192637
 40
0.7618732692192637
 40
0.7618732692192637
 10
1147.688445625282
 20
1879.828480352696
 30
0.0
 10
1147.734838843306
 20
1879.748863061868
 30
0.0
 10
1147.868348478228
 20
1879.508002486819
 30
0.0
 10
1148.028219604364
 20
1879.167572860846
 30
0.0
 10
1148.134311079249
 20
1878.899701678509
 30
0.0
 10
1148.169822603507
 20
1878.802954145373
 30
0.0
  0
SPLINE
  5
350
330
268
100
AcDbEntity
  8
P-SANR-FIXT
100
AcDbSpline
210
0.0
220
0.0
230
1.0
 70
     8
 71
     3
 72
     8
 73
     4
 74
     0
 42
0.000000001
 43
0.0000000001
 40
0.8571428571428569
 40
0.8571428571428569
 40
0.8571428571428569
 40
0.8571428571428569
 40
0.871262813083481
 40
0.871262813083481
 40
0.871262813083481
 40
0.871262813083481
 10
1148.438740144544
 20
1877.849442013078
 30
0.0
 10
1148.448238529961
 20
1877.801686756447
 30
0.0
 10
1148.457644709013
 20
1877.753971904549
 30
0.0
 10
1148.466403777496
 20
1877.706136350069
 30
0.0
  0
SPLINE
  5
351
330
268
100
AcDbEntity
  8
P-SANR-FIXT
100
AcDbSpline
210
0.0
220
0.0
230
1.0
 70
     8
 71
     3
 72
     8
 73
     4
 74
     0
 42
0.000000001
 43
0.0000000001
 40
0.9789110079168688
 40
0.9789110079168688
 40
0.9789110079168688
 40
0.9789110079168688
 40
1.0
 40
1.0
 40
1.0
 40
1.0
 10
1148.563285277796
 20
1876.587504303586
 30
0.0
 10
1148.56359149628
 20
1876.512992931943
 30
0.0
 10
1148.562704040311
 20
1876.438201884862
 30
0.0
 10
1148.560620633313
 20
1876.363137432193
 30
0.0
  0
LINE
  5
352
330
268
100
AcDbEntity
  8
P-SANR-FIXT
100
AcDbLine
 10
1127.474932525293
 20
1889.882558849995
 30
0.0
 11
1142.114353943096
 21
1889.882558849995
 31
0.0
  0
SPLINE
  5
353
330
268
100
AcDbEntity
  8
P-SANR-FIXT
100
AcDbSpline
210
0.0
220
0.0
230
1.0
 70
     8
 71
     3
 72
     8
 73
     4
 74
     0
 42
0.000000001
 43
0.0000000001
 40
0.0
 40
0.0
 40
0.0
 40
0.0
 40
0.0210889920831223
 40
0.0210889920831223
 40
0.0210889920831223
 40
0.0210889920831223
 10
1135.668087252878
 20
1876.363137432193
 30
0.0
 10
1135.666003845881
 20
1876.438201884862
 30
0.0
 10
1135.665081657571
 20
1876.512936917247
 30
0.0
 10
1135.665334855791
 20
1876.587362634125
 30
0.0
  0
SPLINE
  5
354
330
268
100
AcDbEntity
  8
P-SANR-FIXT
100
AcDbSpline
210
0.0
220
0.0
230
1.0
 70
     8
 71
     3
 72
     8
 73
     4
 74
     0
 42
0.000000001
 43
0.0000000001
 40
0.1287371869165112
 40
0.1287371869165112
 40
0.1287371869165112
 40
0.1287371869165112
 40
0.1428571428571428
 40
0.1428571428571428
 40
0.1428571428571428
 40
0.1428571428571428
 10
1135.762972882563
 20
1877.705570560302
 30
0.0
 10
1135.771423707549
 20
1877.753638134448
 30
0.0
 10
1135.780458627069
 20
1877.801584032488
 30
0.0
 10
1135.790007596662
 20
1877.849501346854
 30
0.0
  0
SPLINE
  5
355
330
268
100
AcDbEntity
  8
P-SANR-FIXT
100
AcDbSpline
210
0.0
220
0.0
230
1.0
 70
     8
 71
     3
 72
     9
 73
     5
 74
     0
 42
0.000000001
 43
0.0000000001
 40
0.2381267307807318
 40
0.2381267307807318
 40
0.2381267307807318
 40
0.2381267307807318
 40
0.2857142857142857
 40
0.3483576774384567
 40
0.3483576774384567
 40
0.3483576774384567
 40
0.3483576774384567
 10
1136.058272024603
 20
1878.801440411846
 30
0.0
 10
1136.114924205687
 20
1878.956118163758
 30
0.0
 10
1136.258410294837
 20
1879.310727353342
 30
0.0
 10
1136.436476893768
 20
1879.640513043221
 30
0.0
 10
1136.547123000918
 20
1879.821257573236
 30
0.0
  0
SPLINE
  5
356
330
268
100
AcDbEntity
  8
P-SANR-FIXT
100
AcDbSpline
210
0.0
220
0.0
230
1.0
 70
     8
 71
     3
 72
     8
 73
     4
 74
     0
 42
0.000000001
 43
0.0000000001
 40
0.4285714285714286
 40
0.4285714285714286
 40
0.4285714285714286
 40
0.4285714285714286
 40
0.4581451304227412
 40
0.4581451304227412
 40
0.4581451304227412
 40
0.4581451304227412
 10
1136.998572585511
 20
1880.511988187299
 30
0.0
 10
1137.059922148179
 20
1880.591873661521
 30
0.0
 10
1137.123562229525
 20
1880.669448076854
 30
0.0
 10
1137.189167019129
 20
1880.745166780047
 30
0.0
  0
SPLINE
  5
357
330
268
100
AcDbEntity
  8
P-SANR-FIXT
100
AcDbSpline
210
0.0
220
0.0
230
1.0
 70
     8
 71
     3
 72
     8
 73
     4
 74
     0
 42
0.000000001
 43
0.0000000001
 40
0.5665654572484954
 40
0.5665654572484954
 40
0.5665654572484954
 40
0.5665654572484954
 40
0.5714285714285714
 40
0.5714285714285714
 40
0.5714285714285714
 40
0.5714285714285714
 10
1137.972900517816
 20
1881.527407126718
 30
0.0
 10
1137.985639163677
 20
1881.538054216979
 30
0.0
 10
1137.99843356376
 20
1881.54862447025
 30
0.0
 10
1138.011246139283
 20
1881.559204944534
 30
0.0
  0
SPLINE
  5
358
330
268
100
AcDbEntity
  8
P-SANR-FIXT
100
AcDbSpline
210
0.0
220
0.0
230
1.0
 70
     8
 71
     3
 72
     9
 73
     5
 74
     0
 42
0.000000001
 43
0.0000000001
 40
0.6735812698738415
 40
0.6735812698738415
 40
0.6735812698738415
 40
0.6735812698738415
 40
0.7857142857142857
 40
0.8921230629202863
 40
0.8921230629202863
 40
0.8921230629202863
 40
0.8921230629202863
 10
1138.872285303686
 20
1882.157615244432
 30
0.0
 10
1139.205152785154
 20
1882.3511545679
 30
0.0
 10
1139.883681761726
 20
1882.693737210417
 30
0.0
 10
1140.628951715752
 20
1882.824814372942
 30
0.0
 10
1140.996157348787
 20
1882.876093693768
 30
0.0
  0
LINE
  5
359
330
268
100
AcDbEntity
  8
P-SANR-FIXT
100
AcDbLine
 10
1148.502268604856
 20
1876.363137432193
 30
0.0
 11
1148.486413833714
 21
1876.363137432193
 31
0.0
  0
LINE
  5
35A
330
268
100
AcDbEntity
  8
P-SANR-FIXT
100
AcDbLine
 10
1135.742294052477
 20
1876.363137432193
 30
0.0
 11
1135.726439281336
 21
1876.363137432193
 31
0.0
  0
LINE
  5
35B
330
268
100
AcDbEntity
  8
P-SANR-FIXT
100
AcDbLine
 10
1148.560620633313
 20
1876.363137432193
 30
0.0
 11
1157.534353943096
 21
1876.363137432193
 31
0.0
  0
LINE
  5
35C
330
268
100
AcDbEntity
  8
P-SANR-FIXT
100
AcDbLine
 10
1148.510001407702
 20
1876.363137432193
 30
0.0
 11
1148.494823561012
 21
1876.363137432193
 31
0.0
  0
SPLINE
  5
35D
330
268
100
AcDbEntity
  8
P-SANR-FIXT
100
AcDbSpline
210
0.0
220
0.0
230
1.0
 70
     8
 71
     3
 72
     9
 73
     5
 74
     0
 42
0.000000001
 43
0.0000000001
 40
0.0910511674536566
 40
0.0910511674536566
 40
0.0910511674536566
 40
0.0910511674536566
 40
0.1428571428571428
 40
0.2048923496161121
 40
0.2048923496161121
 40
0.2048923496161121
 40
0.2048923496161121
 10
1148.463824181324
 20
1875.45259149965
 30
0.0
 10
1148.434030255802
 20
1875.283346619324
 30
0.0
 10
1148.353517741118
 20
1874.916106480909
 30
0.0
 10
1148.242104009248
 20
1874.553683580528
 30
0.0
 10
1148.171902443157
 20
1874.360131189839
 30
0.0
  0
SPLINE
  5
35E
330
268
100
AcDbEntity
  8
P-SANR-FIXT
100
AcDbSpline
210
0.0
220
0.0
230
1.0
 70
     8
 71
     3
 72
     8
 73
     4
 74
     0
 42
0.000000001
 43
0.0000000001
 40
0.2857142857142857
 40
0.2857142857142857
 40
0.2857142857142857
 40
0.2857142857142857
 40
0.3189279137516378
 40
0.3189279137516378
 40
0.3189279137516378
 40
0.3189279137516378
 10
1147.848505379824
 20
1873.629254378617
 30
0.0
 10
1147.798444469015
 20
1873.531971785383
 30
0.0
 10
1147.745481968354
 20
1873.436972773425
 30
0.0
 10
1147.689867385787
 20
1873.344042532508
 30
0.0
  0
SPLINE
  5
35F
330
268
100
AcDbEntity
  8
P-SANR-FIXT
100
AcDbSpline
210
0.0
220
0.0
230
1.0
 70
     8
 71
     3
 72
     8
 73
     4
 74
     0
 42
0.000000001
 43
0.0000000001
 40
0.4285714285714286
 40
0.4285714285714286
 40
0.4285714285714286
 40
0.4285714285714286
 40
0.4314305273592777
 40
0.4314305273592777
 40
0.4314305273592777
 40
0.4314305273592777
 10
1147.075771562426
 20
1872.46033035932
 30
0.0
 10
1147.069807052037
 20
1872.453149641041
 30
0.0
 10
1147.063823153201
 20
1872.445989599783
 30
0.0
 10
1147.057820144648
 20
1872.438849835316
 30
0.0
  0
SPLINE
  5
360
330
268
100
AcDbEntity
  8
P-SANR-FIXT
100
AcDbSpline
210
0.0
220
0.0
230
1.0
 70
     8
 71
     3
 72
     8
 73
     4
 74
     0
 42
0.000000001
 43
0.0000000001
 40
0.5445306713140944
 40
0.5445306713140944
 40
0.5445306713140944
 40
0.5445306713140944
 40
0.5714285714285714
 40
0.5714285714285714
 40
0.5714285714285714
 40
0.5714285714285714
 10
1146.276601264687
 20
1871.654998414725
 30
0.0
 10
1146.209355750713
 20
1871.598272945828
 30
0.0
 10
1146.140590052545
 20
1871.543650482445
 30
0.0
 10
1146.071262582213
 20
1871.488898670745
 30
0.0
  0
SPLINE
  5
361
330
268
100
AcDbEntity
  8
P-SANR-FIXT
100
AcDbSpline
210
0.0
220
0.0
230
1.0
 70
     8
 71
     3
 72
     8
 73
     4
 74
     0
 42
0.000000001
 43
0.0000000001
 40
0.6588118132806576
 40
0.6588118132806576
 40
0.6588118132806576
 40
0.6588118132806576
 40
0.773356660907295
 40
0.773356660907295
 40
0.773356660907295
 40
0.773356660907295
 10
1145.357754216159
 20
1871.008151876835
 30
0.0
 10
1145.031820698057
 20
1870.818658839704
 30
0.0
 10
1144.694438874096
 20
1870.635455520615
 30
0.0
 10
1144.335478635738
 20
1870.520542941662
 30
0.0
  0
SPLINE
  5
362
330
268
100
AcDbEntity
  8
P-SANR-FIXT
100
AcDbSpline
210
0.0
220
0.0
230
1.0
 70
     8
 71
     3
 72
     8
 73
     4
 74
     0
 42
0.000000001
 43
0.0000000001
 40
0.8571428571428569
 40
0.8571428571428569
 40
0.8571428571428569
 40
0.8571428571428569
 40
0.8873025755107295
 40
0.8873025755107295
 40
0.8873025755107295
 40
0.8873025755107295
 10
1143.537639767123
 20
1870.292342630418
 30
0.0
 10
1143.440168023404
 20
1870.270389409262
 30
0.0
 10
1143.341257000871
 20
1870.254270350259
 30
0.0
 10
1143.241458761444
 20
1870.241722264221
 30
0.0
  0
SPLINE
  5
363
330
268
100
AcDbEntity
  8
P-SANR-FIXT
100
AcDbSpline
210
0.0
220
0.0
230
1.0
 70
     8
 71
     3
 72
     8
 73
     4
 74
     0
 42
0.000000001
 43
0.0000000001
 40
0.1126271867333342
 40
0.1126271867333342
 40
0.1126271867333342
 40
0.1126271867333342
 40
0.1428571428571428
 40
0.1428571428571428
 40
0.1428571428571428
 40
0.1428571428571428
 10
1140.988627751374
 20
1870.231754121365
 30
0.0
 10
1140.889842069041
 20
1870.249163881991
 30
0.0
 10
1140.791538888572
 20
1870.268889169075
 30
0.0
 10
1140.69369879828
 20
1870.290958182478
 30
0.0
  0
SPLINE
  5
364
330
268
100
AcDbEntity
  8
P-SANR-FIXT
100
AcDbSpline
210
0.0
220
0.0
230
1.0
 70
     8
 71
     3
 72
     9
 73
     5
 74
     0
 42
0.000000001
 43
0.0000000001
 40
0.2265250231610938
 40
0.2265250231610938
 40
0.2265250231610938
 40
0.2265250231610938
 40
0.2857142857142857
 40
0.3410372669498714
 40
0.3410372669498714
 40
0.3410372669498714
 40
0.3410372669498714
 10
1139.894929164136
 20
1870.526565179635
 30
0.0
 10
1139.710517845939
 20
1870.594151411701
 30
0.0
 10
1139.360192511484
 20
1870.740956822318
 30
0.0
 10
1139.026190302416
 20
1870.916806912753
 30
0.0
 10
1138.869027841661
 20
1871.008212409064
 30
0.0
  0
SPLINE
  5
365
330
268
100
AcDbEntity
  8
P-SANR-FIXT
100
AcDbSpline
210
0.0
220
0.0
230
1.0
 70
     8
 71
     3
 72
     8
 73
     4
 74
     0
 42
0.000000001
 43
0.0000000001
 40
0.4285714285714286
 40
0.4285714285714286
 40
0.4285714285714286
 40
0.4285714285714286
 40
0.4552969128866195
 40
0.4552969128866195
 40
0.4552969128866195
 40
0.4552969128866195
 10
1138.156672411483
 20
1871.489578058172
 30
0.0
 10
1138.087672387612
 20
1871.543212831007
 30
0.0
 10
1138.019774237546
 20
1871.598217790259
 30
0.0
 10
1137.953027809105
 20
1871.654558626919
 30
0.0
  0
SPLINE
  5
366
330
268
100
AcDbEntity
  8
P-SANR-FIXT
100
AcDbSpline
210
0.0
220
0.0
230
1.0
 70
     8
 71
     3
 72
     8
 73
     4
 74
     0
 42
0.000000001
 43
0.0000000001
 40
0.5684234018593479
 40
0.5684234018593479
 40
0.5684234018593479
 40
0.5684234018593479
 40
0.5714285714285714
 40
0.5714285714285714
 40
0.5714285714285714
 40
0.5714285714285714
 10
1137.17114956715
 20
1872.439234914682
 30
0.0
 10
1137.164832246441
 20
1872.446767957845
 30
0.0
 10
1137.158531415553
 20
1872.454315682978
 30
0.0
 10
1137.152248185551
 20
1872.461878511636
 30
0.0
  0
SPLINE
  5
367
330
268
100
AcDbEntity
  8
P-SANR-FIXT
100
AcDbSpline
210
0.0
220
0.0
230
1.0
 70
     8
 71
     3
 72
     8
 73
     4
 74
     0
 42
0.000000001
 43
0.0000000001
 40
0.680917451877154
 40
0.680917451877154
 40
0.680917451877154
 40
0.680917451877154
 40
0.7142857142857143
 40
0.7142857142857143
 40
0.7142857142857143
 40
0.7142857142857143
 10
1136.536665047072
 20
1873.343020756572
 30
0.0
 10
1136.481761579508
 20
1873.437634216898
 30
0.0
 10
1136.429058544855
 20
1873.533588869314
 30
0.0
 10
1136.378781470568
 20
1873.630929472247
 30
0.0
  0
SPLINE
  5
368
330
268
100
AcDbEntity
  8
P-SANR-FIXT
100
AcDbSpline
210
0.0
220
0.0
230
1.0
 70
     8
 71
     3
 72
    10
 73
     6
 74
     0
 42
0.000000001
 43
0.0000000001
 40
0.7949950094913606
 40
0.7949950094913606
 40
0.7949950094913606
 40
0.7949950094913606
 40
0.8392857142857142
 40
0.8928571428571427
 40
0.9088933037579623
 40
0.9088933037579623
 40
0.9088933037579623
 40
0.9088933037579623
 10
1136.058993922508
 20
1874.361939445021
 30
0.0
 10
1136.008252589731
 20
1874.499849215855
 30
0.0
 10
1135.907744680525
 20
1874.809621283959
 30
0.0
 10
1135.812093521239
 20
1875.171506060053
 30
0.0
 10
1135.777838478649
 20
1875.400503219233
 30
0.0
 10
1135.7708460124
 20
1875.453551040827
 30
0.0
  0
LINE
  5
369
330
268
100
AcDbEntity
  8
P-SANR-FIXT
100
AcDbLine
 10
1135.733884325179
 20
1876.363137432193
 30
0.0
 11
1135.71870647849
 21
1876.363137432193
 31
0.0
  0
LINE
  5
36A
330
268
100
AcDbEntity
  8
P-SANR-FIXT
100
AcDbLine
 10
1126.694353943096
 20
1876.363137432193
 30
0.0
 11
1135.668087252878
 21
1876.363137432193
 31
0.0
  0
LINE
  5
36B
330
268
100
AcDbEntity
  8
P-SANR-FIXT
100
AcDbLine
 10
1142.114353943096
 20
1866.08255884998
 30
0.0
 11
1157.534353943096
 21
1866.08255884998
 31
0.0
  0
LINE
  5
36C
330
268
100
AcDbEntity
  8
P-SANR-FIXT
100
AcDbLine
 10
1126.694353943096
 20
1866.08255884998
 30
0.0
 11
1142.114353943096
 21
1866.08255884998
 31
0.0
  0
LINE
  5
36D
330
268
100
AcDbEntity
  8
P-SANR-FIXT
100
AcDbLine
 10
1142.114353943096
 20
1864.58255884998
 30
0.0
 11
1156.614353943095
 21
1864.58255884998
 31
0.0
  0
LINE
  5
36E
330
268
100
AcDbEntity
  8
P-SANR-FIXT
100
AcDbLine
 10
1127.614353943097
 20
1864.58255884998
 30
0.0
 11
1142.114353943096
 21
1864.58255884998
 31
0.0
  0
LINE
  5
36F
330
268
100
AcDbEntity
  8
P-SANR-FIXT
100
AcDbLine
 10
1142.114353943096
 20
1861.58255884998
 30
0.0
 11
1155.564353943097
 21
1861.58255884998
 31
0.0
  0
LINE
  5
370
330
268
100
AcDbEntity
  8
P-SANR-FIXT
100
AcDbLine
 10
1128.664353943095
 20
1861.58255884998
 30
0.0
 11
1142.114353943096
 21
1861.58255884998
 31
0.0
  0
LINE
  5
371
330
268
100
AcDbEntity
  8
P-SANR-FIXT
100
AcDbLine
 10
1142.114353943096
 20
1859.582558850008
 30
0.0
 11
1156.914353943083
 21
1859.582558850008
 31
0.0
  0
LINE
  5
372
330
268
100
AcDbEntity
  8
P-SANR-FIXT
100
AcDbLine
 10
1127.314353943108
 20
1859.582558850008
 30
0.0
 11
1142.114353943096
 21
1859.582558850008
 31
0.0
  0
LINE
  5
373
330
268
100
AcDbEntity
  8
P-SANR-FIXT
100
AcDbLine
 10
1142.114353943096
 20
1850.582558850008
 30
0.0
 11
1156.914353943083
 21
1850.582558850008
 31
0.0
  0
LINE
  5
374
330
268
100
AcDbEntity
  8
P-SANR-FIXT
100
AcDbLine
 10
1127.314353943108
 20
1850.582558850008
 30
0.0
 11
1142.114353943096
 21
1850.582558850008
 31
0.0
  0
ARC
  5
375
330
268
100
AcDbEntity
  8
P-SANR-FIXT
100
AcDbCircle
 10
1142.114353943096
 20
1876.582558849995
 30
0.0
 40
3.74999999993679
100
AcDbArc
 50
269.9999999999997
 51
90.0
  0
ARC
  5
376
330
268
100
AcDbEntity
  8
P-SANR-FIXT
100
AcDbCircle
 10
1142.114353943096
 20
1876.582558849995
 30
0.0
 40
3.74999999993679
100
AcDbArc
 50
90.0
 51
269.9999999999997
  0
ARC
  5
377
330
268
100
AcDbEntity
  8
P-SANR-FIXT
100
AcDbCircle
 10
1142.114353943096
 20
1876.582558849995
 30
0.0
 40
6.450000000000045
100
AcDbArc
 50
269.9999999999997
 51
90.0
  0
ARC
  5
378
330
268
100
AcDbEntity
  8
P-SANR-FIXT
100
AcDbCircle
 10
1142.114353943096
 20
1876.582558849995
 30
0.0
 40
6.449999999999931
100
AcDbArc
 50
89.99999999999898
 51
269.9999999999986
  0
ARC
  5
379
330
268
100
AcDbEntity
  8
P-SANR-FIXT
100
AcDbCircle
 10
1142.114353943096
 20
1999.982558850011
 30
0.0
 40
32.74999999999062
100
AcDbArc
 50
300.2593761047658
 51
59.74519034054063
  0
ARC
  5
37A
330
268
100
AcDbEntity
  8
P-SANR-FIXT
100
AcDbCircle
 10
1142.114353943096
 20
1999.982558850011
 30
0.0
 40
32.74999999999069
100
AcDbArc
 50
120.254809659638
 51
239.7406238950539
  0
LINE
  5
37B
330
268
100
AcDbEntity
  8
P-SANR-FIXT
100
AcDbLine
 10
1184.114353943098
 20
2029.95100039778
 30
0.0
 11
1184.114353943098
 21
2050.351000397781
 31
0.0
  0
LINE
  5
37C
330
268
100
AcDbEntity
  8
P-SANR-FIXT
100
AcDbLine
 10
1100.114353943098
 20
2050.351000397781
 30
0.0
 11
1100.114353943098
 21
2029.95100039778
 31
0.0
  0
LINE
  5
37D
330
268
100
AcDbEntity
  8
P-SANR-FIXT
100
AcDbLine
 10
1125.6018012596
 20
2029.951000397779
 30
0.0
 11
1100.114353943096
 21
2029.951000397779
 31
0.0
  0
LINE
  5
37E
330
268
100
AcDbEntity
  8
P-SANR-FIXT
100
AcDbLine
 10
1184.114353943096
 20
2029.951000397779
 30
0.0
 11
1158.626906626505
 21
2029.951000397779
 31
0.0
  0
LINE
  5
37F
330
268
100
AcDbEntity
  8
P-SANR-FIXT
100
AcDbLine
 10
1161.131716502475
 20
2050.35100039778
 30
0.0
 11
1184.114353943096
 21
2050.35100039778
 31
0.0
  0
LINE
  5
380
330
268
100
AcDbEntity
  8
P-SANR-FIXT
100
AcDbLine
 10
1100.114353943096
 20
2050.35100039778
 30
0.0
 11
1123.096991383629
 21
2050.35100039778
 31
0.0
  0
LINE
  5
381
330
268
100
AcDbEntity
  8
P-SANR-FIXT
100
AcDbLine
 10
1170.614353943098
 20
1930.78498417095
 30
0.0
 11
1170.614353943098
 21
1960.982558850011
 31
0.0
  0
LINE
  5
382
330
268
100
AcDbEntity
  8
P-SANR-FIXT
100
AcDbLine
 10
1113.614353943098
 20
1960.982558850011
 30
0.0
 11
1113.614353943098
 21
1930.78498417095
 31
0.0
  0
LINE
  5
383
330
268
100
AcDbEntity
  8
P-SANR-FIXT
100
AcDbLine
 10
1170.614353943098
 20
1922.483535175018
 30
0.0
 11
1170.614353943098
 21
1929.94924426047
 31
0.0
  0
LINE
  5
384
330
268
100
AcDbEntity
  8
P-SANR-FIXT
100
AcDbLine
 10
1113.614353943098
 20
1929.94924426047
 30
0.0
 11
1113.614353943098
 21
1922.483535175018
 31
0.0
  0
LINE
  5
385
330
268
100
AcDbEntity
  8
P-SANR-FIXT
100
AcDbLine
 10
1164.315414978117
 20
1907.667296437151
 30
0.0
 11
1168.680379567773
 21
1915.248550724447
 31
0.0
  0
LINE
  5
386
330
268
100
AcDbEntity
  8
P-SANR-FIXT
100
AcDbLine
 10
1115.548328318422
 20
1915.248550724447
 30
0.0
 11
1119.913292908078
 21
1907.667296437151
 31
0.0
  0
LINE
  5
387
330
268
100
AcDbEntity
  8
P-SANR-FIXT
100
AcDbLine
 10
1176.614353943098
 20
2028.364153004243
 30
0.0
 11
1179.362854252562
 21
2029.95100039778
 31
0.0
  0
LINE
  5
388
330
268
100
AcDbEntity
  8
P-SANR-FIXT
100
AcDbLine
 10
1104.865853633633
 20
2029.95100039778
 30
0.0
 11
1107.614353943098
 21
2028.364153004243
 31
0.0
  0
LINE
  5
389
330
268
100
AcDbEntity
  8
P-SANR-FIXT
100
AcDbLine
 10
1176.614353943098
 20
1964.982558850012
 30
0.0
 11
1176.614353943098
 21
2028.364153004243
 31
0.0
  0
LINE
  5
38A
330
268
100
AcDbEntity
  8
P-SANR-FIXT
100
AcDbLine
 10
1107.614353943097
 20
2028.364153004243
 30
0.0
 11
1107.614353943097
 21
1964.982558850012
 31
0.0
  0
LWPOLYLINE
  5
38B
330
268
100
AcDbEntity
  8
P-SANR-FIXT
100
AcDbPolyline
 90
       41
 70
   128
 43
0.0
 10
1176.614353943098
 20
1964.982558850012
 10
1176.611154369741
 20
1964.822601513265
 10
1176.601560768308
 20
1964.662900074135
 10
1176.585588486513
 20
1964.503710020856
 10
1176.5632630766
 20
1964.345286023554
 10
1176.534620254463
 20
1964.187881526831
 10
1176.499705842506
 20
1964.031748344303
 10
1176.458575696341
 20
1963.877136255755
 10
1176.411295615428
 20
1963.724292607547
 10
1176.35794123781
 20
1963.573461916911
 10
1176.298597919109
 20
1963.424885480777
 10
1176.233360595978
 20
1963.278800989748
 10
1176.162333634215
 20
1963.135442147845
 10
1176.085630661808
 20
1962.995038298636
 10
1176.003374387151
 20
1962.857814058328
 10
1175.915696402736
 20
1962.723988956432
 10
1175.822736974635
 20
1962.593777084562
 10
1175.724644818101
 20
1962.467386753937
 10
1175.621576859661
 20
1962.345020162126
 10
1175.513697986061
 20
1962.226873069569
 10
1175.401180780486
 20
1962.113134486413
 10
1175.284205246463
 20
1962.003986370128
 10
1175.162958519892
 20
1961.899603334416
 10
1175.037634569672
 20
1961.800152369866
 10
1174.908433887387
 20
1961.705792576807
 10
1174.77556316657
 20
1961.61667491078
 10
1174.639234972029
 20
1961.532941941038
 10
1174.499667399793
 20
1961.454727622471
 10
1174.357083728205
 20
1961.382157081305
 10
1174.211712060723
 20
1961.315346414924
 10
1174.063784961004
 20
1961.254402506143
 10
1173.913539080853
 20
1961.199422852213
 10
1173.761214781626
 20
1961.150495408855
 10
1173.607055749707
 20
1961.107698449538
 10
1173.451308606663
 20
1961.07110044027
 10
1173.294222514698
 20
1961.040759930057
 10
1173.13604877805
 20
1961.016725457245
 10
1172.977040440955
 20
1960.999035471861
 10
1172.817451882832
 20
1960.987718274109
 10
1172.657538411331
 20
1960.982791969092
 10
1172.614353943097
 20
1960.982558850011
  0
LWPOLYLINE
  5
38C
330
268
100
AcDbEntity
  8
P-SANR-FIXT
100
AcDbPolyline
 90
       27
 70
   128
 43
0.0
 10
1158.903029077672
 20
1960.982558850011
 10
1159.335949381646
 20
1960.982558850011
 10
1160.328814904651
 20
1960.982558850011
 10
1161.292541175661
 20
1960.982558850011
 10
1162.225586438228
 20
1960.982558850011
 10
1163.126458018969
 20
1960.982558850011
 10
1163.993714715533
 20
1960.982558850011
 10
1164.825969102209
 20
1960.982558850011
 10
1165.621889749516
 20
1960.982558850011
 10
1166.380203354207
 20
1960.982558850011
 10
1167.099696776278
 20
1960.982558850011
 10
1167.779218979738
 20
1960.982558850011
 10
1168.41768287402
 20
1960.982558850011
 10
1169.014067053089
 20
1960.982558850011
 10
1169.567417429481
 20
1960.982558850011
 10
1170.076848760637
 20
1960.982558850011
 10
1170.541546065098
 20
1960.982558850011
 10
1170.960765926309
 20
1960.982558850011
 10
1171.333837681919
 20
1960.982558850011
 10
1171.660164496705
 20
1960.982558850011
 10
1171.939224317375
 20
1960.982558850011
 10
1172.170570707746
 20
1960.982558850011
 10
1172.353833562944
 20
1960.982558850011
 10
1172.488719701496
 20
1960.982558850011
 10
1172.575013334353
 20
1960.982558850011
 10
1172.612576410112
 20
1960.982558850011
 10
1172.614353943097
 20
1960.982558850011
  0
LWPOLYLINE
  5
38D
330
268
100
AcDbEntity
  8
P-SANR-FIXT
100
AcDbPolyline
 90
       11
 70
   128
 43
0.0
 10
1172.614353943097
 20
1960.982558850011
 10
1172.589957196257
 20
1960.982558850011
 10
1172.516805985327
 20
1960.982558850011
 10
1172.39501733664
 20
1960.982558850011
 10
1172.224786086054
 20
1960.982558850011
 10
1172.006384567255
 20
1960.982558850011
 10
1171.740162176085
 20
1960.982558850011
 10
1171.426544811576
 20
1960.982558850011
 10
1171.066034194612
 20
1960.982558850011
 10
1170.659207065275
 20
1960.982558850011
 10
1170.614353943098
 20
1960.982558850011
  0
LWPOLYLINE
  5
38E
330
268
100
AcDbEntity
  8
P-SANR-FIXT
100
AcDbPolyline
 90
       41
 70
   128
 43
0.0
 10
1111.614353943098
 20
1960.982558850011
 10
1111.454396606351
 20
1960.985758423367
 10
1111.294695167221
 20
1960.995352024801
 10
1111.135505113942
 20
1961.011324306596
 10
1110.977081116641
 20
1961.033649716509
 10
1110.819676619917
 20
1961.062292538647
 10
1110.663543437389
 20
1961.097206950603
 10
1110.508931348841
 20
1961.138337096769
 10
1110.356087700633
 20
1961.185617177681
 10
1110.205257009997
 20
1961.2389715553
 10
1110.056680573863
 20
1961.298314874
 10
1109.910596082834
 20
1961.363552197132
 10
1109.767237240932
 20
1961.434579158894
 10
1109.626833391723
 20
1961.511282131301
 10
1109.489609151414
 20
1961.593538405958
 10
1109.355784049517
 20
1961.681216390373
 10
1109.225572177648
 20
1961.774175818474
 10
1109.099181847024
 20
1961.872267975008
 10
1108.976815255212
 20
1961.975335933448
 10
1108.858668162655
 20
1962.083214807048
 10
1108.744929579499
 20
1962.195732012623
 10
1108.635781463214
 20
1962.312707546646
 10
1108.531398427502
 20
1962.433954273217
 10
1108.431947462952
 20
1962.559278223437
 10
1108.337587669893
 20
1962.688478905722
 10
1108.248470003866
 20
1962.821349626539
 10
1108.164737034124
 20
1962.95767782108
 10
1108.086522715558
 20
1963.097245393317
 10
1108.013952174392
 20
1963.239829064905
 10
1107.947141508011
 20
1963.385200732387
 10
1107.886197599229
 20
1963.533127832105
 10
1107.8312179453
 20
1963.683373712256
 10
1107.782290501941
 20
1963.835698011483
 10
1107.739493542625
 20
1963.989857043402
 10
1107.702895533356
 20
1964.145604186446
 10
1107.672555023144
 20
1964.302690278411
 10
1107.648520550331
 20
1964.460864015059
 10
1107.630830564947
 20
1964.619872352155
 10
1107.619513367195
 20
1964.779460910277
 10
1107.614587062178
 20
1964.939374381778
 10
1107.614353943098
 20
1964.982558850012
  0
LWPOLYLINE
  5
38F
330
268
100
AcDbEntity
  8
P-SANR-FIXT
100
AcDbPolyline
 90
       11
 70
   128
 43
0.0
 10
1113.614353943098
 20
1960.982558850011
 10
1113.267941959887
 20
1960.982558850011
 10
1112.894870204276
 20
1960.982558850011
 10
1112.568543389491
 20
1960.982558850011
 10
1112.28948356882
 20
1960.982558850011
 10
1112.058137178449
 20
1960.982558850011
 10
1111.874874323251
 20
1960.982558850011
 10
1111.7399881847
 20
1960.982558850011
 10
1111.653694551842
 20
1960.982558850011
 10
1111.616131476084
 20
1960.982558850011
 10
1111.614353943098
 20
1960.982558850011
  0
LWPOLYLINE
  5
390
330
268
100
AcDbEntity
  8
P-SANR-FIXT
100
AcDbPolyline
 90
       26
 70
   128
 43
0.0
 10
1111.614353943098
 20
1960.982558850011
 10
1111.638750689938
 20
1960.982558850011
 10
1111.711901900868
 20
1960.982558850011
 10
1111.833690549555
 20
1960.982558850011
 10
1112.003921800141
 20
1960.982558850011
 10
1112.22232331894
 20
1960.982558850011
 10
1112.488545710111
 20
1960.982558850011
 10
1112.802163074619
 20
1960.982558850011
 10
1113.162673691583
 20
1960.982558850011
 10
1113.569500820921
 20
1960.982558850011
 10
1114.02199362601
 20
1960.982558850011
 10
1114.519428214889
 20
1960.982558850011
 10
1115.061008798329
 20
1960.982558850011
 10
1115.645868962929
 20
1960.982558850011
 10
1116.273073057189
 20
1960.982558850011
 10
1116.941617688352
 20
1960.982558850011
 10
1117.650433327627
 20
1960.982558850011
 10
1118.398386021194
 20
1960.982558850011
 10
1119.1842792043
 20
1960.982558850011
 10
1120.0068556155
 20
1960.982558850011
 10
1120.864799308009
 20
1960.982558850011
 10
1121.756737754938
 20
1960.982558850011
 10
1122.681244045041
 20
1960.982558850011
 10
1123.636839165472
 20
1960.982558850011
 10
1124.621994367888
 20
1960.982558850011
 10
1125.325678808436
 20
1960.982558850011
  0
LWPOLYLINE
  5
391
330
268
100
AcDbEntity
  8
P-SANR-FIXT
100
AcDbPolyline
 90
       15
 70
   128
 43
0.0
 10
1170.614353943097
 20
1922.483535175018
 10
1170.602755489682
 20
1921.903689829312
 10
1170.567978684486
 20
1921.324772112465
 10
1170.510079162979
 20
1920.747708169329
 10
1170.429149552044
 20
1920.173421179112
 10
1170.325319321795
 20
1919.60282987849
 10
1170.198754578452
 20
1919.036847091825
 10
1170.049657798604
 20
1918.476378270839
 10
1169.878267505293
 20
1917.922320046085
 10
1169.684857886428
 20
1917.37555879253
 10
1169.46973835614
 20
1916.836969211543
 10
1169.233253059787
 20
1916.307412931562
 10
1168.975780323397
 20
1915.787737129667
 10
1168.697732048423
 20
1915.278773176284
 10
1168.680379567773
 20
1915.248550724448
  0
LWPOLYLINE
  5
392
330
268
100
AcDbEntity
  8
P-SANR-FIXT
100
AcDbPolyline
 90
       15
 70
   128
 43
0.0
 10
1115.548328318422
 20
1915.248550724448
 10
1115.269057587588
 20
1915.756844938421
 10
1115.01033659074
 20
1916.275900421821
 10
1114.77257922628
 20
1916.804886796603
 10
1114.556165855274
 20
1917.342957797409
 10
1114.361442692949
 20
1917.889252625421
 10
1114.188721254826
 20
1918.442897325451
 10
1114.038277858362
 20
1919.003006184084
 10
1113.910353180897
 20
1919.568683146629
 10
1113.805151874627
 20
1920.139023250618
 10
1113.722842239198
 20
1920.71311407355
 10
1113.663555952471
 20
1921.290037192574
 10
1113.627387859856
 20
1921.868869653771
 10
1113.614395822587
 20
1922.44868544868
 10
1113.614353943098
 20
1922.483535175018
  0
LWPOLYLINE
  5
393
330
268
100
AcDbEntity
  8
P-SANR-FIXT
100
AcDbPolyline
 90
       15
 70
   128
 43
0.0
 10
1164.315414978118
 20
1907.667296437151
 10
1163.853173768462
 20
1906.825981876093
 10
1163.424945911608
 20
1905.96685555874
 10
1163.031416480779
 20
1905.09129190393
 10
1162.673215039114
 20
1904.200691626733
 10
1162.350914632507
 20
1903.296479497609
 10
1162.065030872856
 20
1902.380102063077
 10
1161.81602111319
 20
1901.453025331546
 10
1161.604283716007
 20
1900.516732428023
 10
1161.430157415973
 20
1899.572721221422
 10
1161.293920778023
 20
1898.622501928294
 10
1161.195791751715
 20
1897.667594696805
 10
1161.13592732256
 20
1896.709527174823
 10
1161.114423260872
 20
1895.749832066007
 10
1161.114353943098
 20
1895.692149760345
  0
LWPOLYLINE
  5
394
330
268
100
AcDbEntity
  8
P-SANR-FIXT
100
AcDbPolyline
 90
       15
 70
   128
 43
0.0
 10
1123.114353943098
 20
1895.692149760345
 10
1123.095156502961
 20
1896.651893780824
 10
1123.03759489436
 20
1897.610102415605
 10
1122.94176120359
 20
1898.565242735279
 10
1122.807808744112
 20
1899.515786719086
 10
1122.635951811288
 20
1900.460213699426
 10
1122.426465339547
 20
1901.397012794596
 10
1122.179684462556
 20
1902.324685325883
 10
1121.896003977076
 20
1903.241747215131
 10
1121.575877711368
 20
1904.146731358947
 10
1121.219817799167
 20
1905.038189975752
 10
1120.828393860377
 20
1905.914696921929
 10
1120.402232089801
 20
1906.77484997334
 10
1119.942014255361
 20
1907.617273068595
 10
1119.913292908077
 20
1907.667296437151
  0
LINE
  5
395
330
268
100
AcDbEntity
  8
P-SANR-FIXT
100
AcDbLine
 10
1161.114353943098
 20
1892.182558850011
 30
0.0
 11
1161.114353943098
 21
1895.692149760344
 31
0.0
  0
LINE
  5
396
330
268
100
AcDbEntity
  8
P-SANR-FIXT
100
AcDbLine
 10
1123.114353943098
 20
1895.692149760344
 30
0.0
 11
1123.114353943098
 21
1892.182558850011
 31
0.0
  0
LINE
  5
397
330
268
100
AcDbEntity
  8
P-SANR-FIXT
100
AcDbLine
 10
1160.614353943097
 20
1891.682558850011
 30
0.0
 11
1161.114353943098
 21
1892.182558850011
 31
0.0
  0
LINE
  5
398
330
268
100
AcDbEntity
  8
P-SANR-FIXT
100
AcDbLine
 10
1123.114353943098
 20
1892.182558850011
 30
0.0
 11
1123.614353943098
 21
1891.682558850011
 31
0.0
  0
LINE
  5
399
330
268
100
AcDbEntity
  8
P-SANR-FIXT
100
AcDbLine
 10
1170.614353943097
 20
1929.94924426047
 30
0.0
 11
1170.614353943097
 21
1930.78498417095
 31
0.0
  0
LINE
  5
39A
330
268
100
AcDbEntity
  8
P-SANR-FIXT
100
AcDbLine
 10
1113.614353943098
 20
1930.78498417095
 30
0.0
 11
1113.614353943098
 21
1929.94924426047
 31
0.0
  0
LINE
  5
39B
330
268
100
AcDbEntity
  8
P-SANR-FIXT
100
AcDbLine
 10
1158.624596839916
 20
2028.364153004242
 30
0.0
 11
1176.614353943096
 21
2028.364153004242
 31
0.0
  0
LINE
  5
39C
330
268
100
AcDbEntity
  8
P-SANR-FIXT
100
AcDbLine
 10
1107.614353943096
 20
2028.364153004242
 30
0.0
 11
1125.604111046189
 21
2028.364153004242
 31
0.0
  0
LINE
  5
39D
330
268
100
AcDbEntity
  8
P-SANR-FIXT
100
AcDbLine
 10
1142.114353943096
 20
1892.182558850011
 30
0.0
 11
1161.114353943096
 21
1892.182558850011
 31
0.0
  0
LINE
  5
39E
330
268
100
AcDbEntity
  8
P-SANR-FIXT
100
AcDbLine
 10
1123.114353943096
 20
1892.182558850011
 30
0.0
 11
1142.114353943096
 21
1892.182558850011
 31
0.0
  0
LINE
  5
39F
330
268
100
AcDbEntity
  8
P-SANR-FIXT
100
AcDbLine
 10
1160.614353943096
 20
1891.682558850011
 30
0.0
 11
1142.114353943096
 21
1891.682558850011
 31
0.0
  0
LINE
  5
3A0
330
268
100
AcDbEntity
  8
P-SANR-FIXT
100
AcDbLine
 10
1142.114353943096
 20
1891.682558850011
 30
0.0
 11
1123.614353943096
 21
1891.682558850011
 31
0.0
  0
LINE
  5
3A1
330
268
100
AcDbEntity
  8
P-SANR-FIXT
100
AcDbLine
 10
1157.264353943097
 20
1941.482558849992
 30
0.0
 11
1160.61435394305
 21
1943.41668225175
 31
0.0
  0
LWPOLYLINE
  5
3A2
330
268
100
AcDbEntity
  8
P-SANR-FIXT
100
AcDbPolyline
 90
       28
 70
   128
 43
0.0
 10
1123.614353943145
 20
1943.41668225175
 10
1123.580122110529
 20
1943.437369646795
 10
1123.546744934881
 20
1943.459409402325
 10
1123.514275812563
 20
1943.482766259432
 10
1123.482766687244
 20
1943.507402852129
 10
1123.452267966803
 20
1943.533279767121
 10
1123.422828442687
 20
1943.560355606865
 10
1123.394495211853
 20
1943.588587055795
 10
1123.367313601429
 20
1943.617928949611
 10
1123.341327096191
 20
1943.648334347546
 10
1123.316577269005
 20
1943.679754607447
 10
1123.293103714313
 20
1943.712139463603
 10
1123.270943984797
 20
1943.745437107151
 10
1123.250133531297
 20
1943.779594268964
 10
1123.230705646099
 20
1943.814556304871
 10
1123.212691409674
 20
1943.850267283072
 10
1123.196119640959
 20
1943.88667007362
 10
1123.181016851247
 20
1943.923706439816
 10
1123.167407201781
 20
1943.961317131373
 10
1123.155312465097
 20
1943.999441979211
 10
1123.144751990193
 20
1944.038019991702
 10
1123.135742671576
 20
1944.076989452259
 10
1123.128298922235
 20
1944.116288018058
 10
1123.12243265058
 20
1944.155852819775
 10
1123.118153241394
 20
1944.195620562168
 10
1123.115467540819
 20
1944.235527625334
 10
1123.114379845405
 20
1944.275510166482
 10
1123.114353943145
 20
1944.282707655534
  0
LINE
  5
3A3
330
268
100
AcDbEntity
  8
P-SANR-FIXT
100
AcDbLine
 10
1123.614353943145
 20
1943.41668225175
 30
0.0
 11
1123.665046456046
 21
1943.387414915781
 31
0.0
  0
LINE
  5
3A4
330
268
100
AcDbEntity
  8
P-SANR-FIXT
100
AcDbLine
 10
1123.703436499709
 20
1943.365250413737
 30
0.0
 11
1126.964353943098
 21
1941.482558849992
 31
0.0
  0
LWPOLYLINE
  5
3A5
330
268
100
AcDbEntity
  8
P-SANR-FIXT
100
AcDbPolyline
 90
       28
 70
   128
 43
0.0
 10
1161.11435394305
 20
1944.282707655534
 10
1161.113554049711
 20
1944.242718321348
 10
1161.111155649352
 20
1944.202792961565
 10
1161.107162578904
 20
1944.162995448245
 10
1161.101581226425
 20
1944.12338944892
 10
1161.094420520891
 20
1944.08403832474
 10
1161.085691917902
 20
1944.045005029107
 10
1161.075409381361
 20
1944.00635200697
 10
1161.063589361132
 20
1943.968141094918
 10
1161.050250766727
 20
1943.930433422259
 10
1161.035414937052
 20
1943.893289313226
 10
1161.01910560627
 20
1943.856768190468
 10
1161.001348865829
 20
1943.820928479993
 10
1160.982173122727
 20
1943.785827517691
 10
1160.961609054063
 20
1943.751521457613
 10
1160.93968955796
 20
1943.718065182139
 10
1160.916449700934
 20
1943.685512214172
 10
1160.891926661801
 20
1943.653914631516
 10
1160.866159672191
 20
1943.623322983563
 10
1160.839189953791
 20
1943.593786210424
 10
1160.811060652397
 20
1943.565351564635
 10
1160.781816768891
 20
1943.538064535564
 10
1160.751505087248
 20
1943.511968776635
 10
1160.720174099693
 20
1943.487106035498
 10
1160.687873929122
 20
1943.463516087233
 10
1160.654656248918
 20
1943.441236670727
 10
1160.620574200283
 20
1943.420303428291
 10
1160.61435394305
 20
1943.41668225175
  0
LINE
  5
3A6
330
268
100
AcDbEntity
  8
P-SANR-FIXT
100
AcDbLine
 10
1161.11435394305
 20
1944.282707655534
 30
0.0
 11
1161.11435394305
 21
1947.982558849929
 31
0.0
  0
LINE
  5
3A7
330
268
100
AcDbEntity
  8
P-SANR-FIXT
100
AcDbLine
 10
1123.114353943145
 20
1947.982558849929
 30
0.0
 11
1123.114353943145
 21
1944.282707655534
 31
0.0
  0
LINE
  5
3A8
330
268
100
AcDbEntity
  8
P-SANR-FIXT
100
AcDbLine
 10
1142.114353943096
 20
1941.482558849991
 30
0.0
 11
1126.964353943096
 21
1941.482558849991
 31
0.0
  0
LINE
  5
3A9
330
268
100
AcDbEntity
  8
P-SANR-FIXT
100
AcDbLine
 10
1161.02286374982
 20
1947.982558849928
 30
0.0
 11
1160.953767087263
 21
1947.982558849928
 31
0.0
  0
LINE
  5
3AA
330
268
100
AcDbEntity
  8
P-SANR-FIXT
100
AcDbLine
 10
1160.785689568856
 20
1947.982558849928
 30
0.0
 11
1160.645822100102
 21
1947.982558849928
 31
0.0
  0
LINE
  5
3AB
330
268
100
AcDbEntity
  8
P-SANR-FIXT
100
AcDbLine
 10
1160.33960594262
 20
1947.982558849928
 30
0.0
 11
1160.081170543694
 21
1947.982558849928
 31
0.0
  0
LINE
  5
3AC
330
268
100
AcDbEntity
  8
P-SANR-FIXT
100
AcDbLine
 10
1158.870857965673
 20
1947.982558849928
 30
0.0
 11
1158.703647681319
 21
1947.982558849928
 31
0.0
  0
LINE
  5
3AD
330
268
100
AcDbEntity
  8
P-SANR-FIXT
100
AcDbLine
 10
1158.585842563716
 20
1947.982558849928
 30
0.0
 11
1157.851091530929
 21
1947.982558849928
 31
0.0
  0
LINE
  5
3AE
330
268
100
AcDbEntity
  8
P-SANR-FIXT
100
AcDbLine
 10
1157.690556416577
 20
1947.982558849928
 30
0.0
 11
1156.801552556951
 21
1947.982558849928
 31
0.0
  0
LINE
  5
3AF
330
268
100
AcDbEntity
  8
P-SANR-FIXT
100
AcDbLine
 10
1156.675684401191
 20
1947.982558849928
 30
0.0
 11
1154.333508542577
 21
1947.982558849928
 31
0.0
  0
LINE
  5
3B0
330
268
100
AcDbEntity
  8
P-SANR-FIXT
100
AcDbLine
 10
1154.167826342175
 20
1947.982558849928
 30
0.0
 11
1153.021802244721
 21
1947.982558849928
 31
0.0
  0
LINE
  5
3B1
330
268
100
AcDbEntity
  8
P-SANR-FIXT
100
AcDbLine
 10
1152.670188370441
 20
1947.982558849928
 30
0.0
 11
1151.624819657374
 21
1947.982558849928
 31
0.0
  0
LINE
  5
3B2
330
268
100
AcDbEntity
  8
P-SANR-FIXT
100
AcDbLine
 10
1151.070891942767
 20
1947.982558849928
 30
0.0
 11
1150.398396625481
 21
1947.982558849928
 31
0.0
  0
LINE
  5
3B3
330
268
100
AcDbEntity
  8
P-SANR-FIXT
100
AcDbLine
 10
1150.153755408818
 20
1947.982558849928
 30
0.0
 11
1148.620377751713
 21
1947.982558849928
 31
0.0
  0
LINE
  5
3B4
330
268
100
AcDbEntity
  8
P-SANR-FIXT
100
AcDbLine
 10
1147.036946832378
 20
1947.982558849928
 30
0.0
 11
1145.419296665275
 21
1947.982558849928
 31
0.0
  0
LINE
  5
3B5
330
268
100
AcDbEntity
  8
P-SANR-FIXT
100
AcDbLine
 10
1145.416123196463
 20
1947.982558849928
 30
0.0
 11
1143.976679609353
 21
1947.982558849928
 31
0.0
  0
LINE
  5
3B6
330
268
100
AcDbEntity
  8
P-SANR-FIXT
100
AcDbLine
 10
1143.770870343998
 20
1947.982558849928
 30
0.0
 11
1142.114353943096
 21
1947.982558849928
 31
0.0
  0
LINE
  5
3B7
330
268
100
AcDbEntity
  8
P-SANR-FIXT
100
AcDbLine
 10
1123.205844136371
 20
1947.982558849928
 30
0.0
 11
1123.274940798928
 21
1947.982558849928
 31
0.0
  0
LINE
  5
3B8
330
268
100
AcDbEntity
  8
P-SANR-FIXT
100
AcDbLine
 10
1123.443018317336
 20
1947.982558849928
 30
0.0
 11
1123.582885786087
 21
1947.982558849928
 31
0.0
  0
LINE
  5
3B9
330
268
100
AcDbEntity
  8
P-SANR-FIXT
100
AcDbLine
 10
1123.852395528258
 20
1947.982558849928
 30
0.0
 11
1124.147537342497
 21
1947.982558849928
 31
0.0
  0
LINE
  5
3BA
330
268
100
AcDbEntity
  8
P-SANR-FIXT
100
AcDbLine
 10
1125.357849920519
 20
1947.982558849928
 30
0.0
 11
1125.517086727239
 21
1947.982558849928
 31
0.0
  0
LINE
  5
3BB
330
268
100
AcDbEntity
  8
P-SANR-FIXT
100
AcDbLine
 10
1125.642865322475
 20
1947.982558849928
 30
0.0
 11
1126.316431309387
 21
1947.982558849928
 31
0.0
  0
LINE
  5
3BC
330
268
100
AcDbEntity
  8
P-SANR-FIXT
100
AcDbLine
 10
1126.538151469614
 20
1947.982558849928
 30
0.0
 11
1127.42715532924
 21
1947.982558849928
 31
0.0
  0
LINE
  5
3BD
330
268
100
AcDbEntity
  8
P-SANR-FIXT
100
AcDbLine
 10
1127.553023484999
 20
1947.982558849928
 30
0.0
 11
1129.895199343613
 21
1947.982558849928
 31
0.0
  0
LINE
  5
3BE
330
268
100
AcDbEntity
  8
P-SANR-FIXT
100
AcDbLine
 10
1130.060881544016
 20
1947.982558849928
 30
0.0
 11
1131.20690564147
 21
1947.982558849928
 31
0.0
  0
LINE
  5
3BF
330
268
100
AcDbEntity
  8
P-SANR-FIXT
100
AcDbLine
 10
1131.558519515749
 20
1947.982558849928
 30
0.0
 11
1132.603888228865
 21
1947.982558849928
 31
0.0
  0
LINE
  5
3C0
330
268
100
AcDbEntity
  8
P-SANR-FIXT
100
AcDbLine
 10
1133.157815943424
 20
1947.982558849928
 30
0.0
 11
1134.074952477372
 21
1947.982558849928
 31
0.0
  0
LINE
  5
3C1
330
268
100
AcDbEntity
  8
P-SANR-FIXT
100
AcDbLine
 10
1134.843368728177
 20
1947.982558849928
 30
0.0
 11
1135.465571782047
 21
1947.982558849928
 31
0.0
  0
LINE
  5
3C2
330
268
100
AcDbEntity
  8
P-SANR-FIXT
100
AcDbLine
 10
1135.608330134477
 20
1947.982558849928
 30
0.0
 11
1136.598945075274
 21
1947.982558849928
 31
0.0
  0
LINE
  5
3C3
330
268
100
AcDbEntity
  8
P-SANR-FIXT
100
AcDbLine
 10
1137.191761053812
 20
1947.982558849928
 30
0.0
 11
1138.407637824798
 21
1947.982558849928
 31
0.0
  0
LINE
  5
3C4
330
268
100
AcDbEntity
  8
P-SANR-FIXT
100
AcDbLine
 10
1138.812584689727
 20
1947.982558849928
 30
0.0
 11
1140.444279065524
 21
1947.982558849928
 31
0.0
  0
LINE
  5
3C5
330
268
100
AcDbEntity
  8
P-SANR-FIXT
100
AcDbLine
 10
1140.457837542192
 20
1947.982558849928
 30
0.0
 11
1142.114353943096
 21
1947.982558849928
 31
0.0
  0
LINE
  5
3C6
330
268
100
AcDbEntity
  8
P-SANR-FIXT
100
AcDbLine
 10
1142.114353943096
 20
1941.482558849991
 30
0.0
 11
1157.264353943096
 21
1941.482558849991
 31
0.0
  0
ENDBLK
  5
3C8
330
268
100
AcDbEntity
  8
0
100
AcDbBlockEnd
  0
ENDSEC
  0
SECTION
  2
ENTITIES
  0
INSERT
  5
1E3
330
71
100
AcDbEntity
  8
P-SANR-FIXT
100
AcDbBlockReference
  2
Automatic flow rate regulator valve_Caleffi_121 DN15 - 1_2__-859151-Est - Idraulica
 10
0.0
 20
0.0
 30
0.0
1001
REVIT
1002
{
1070
     1
1000
863131
1002
}
1002
{
1070
     5
1000
859151
1002
}
1002
{
1070
     2
1000
-2001160
1002
}
  0
INSERT
  5
267
330
71
100
AcDbEntity
  8
P-SANR-FIXT
100
AcDbBlockReference
  2
Automatic flow rate regulator valve_Caleffi_121 DN15 - 1_2__-V1-Est - Idraulica
 10
0.0
 20
0.0
 30
0.0
1001
REVIT
1002
{
1070
     1
1000
863152
1002
}
1002
{
1070
     5
1000
859151
1002
}
1002
{
1070
     2
1000
-2001160
1002
}
  0
INSERT
  5
3C9
330
71
100
AcDbEntity
  8
P-SANR-FIXT
100
AcDbBlockReference
  2
Automatic flow rate regulator valve_Caleffi_121 DN15 - 1_2__-V2-Est - Idraulica
 10
0.0
 20
0.0
 30
0.0
1001
REVIT
1002
{
1070
     1
1000
863172
1002
}
1002
{
1070
     5
1000
859151
1002
}
1002
{
1070
     2
1000
-2001160
1002
}
  0
ENDSEC
  0
SECTION
  2
OBJECTS
  0
DICTIONARY
  5
C
330
0
100
AcDbDictionary
281
     1
  3
ACAD_CIP_PREVIOUS_PRODUCT_INFO
350
7A
  3
ACAD_COLOR
350
63
  3
ACAD_DETAILVIEWSTYLE
350
6B
  3
ACAD_GROUP
350
D
  3
ACAD_IMAGE_VARS
350
7B
  3
ACAD_LAYOUT
350
62
  3
ACAD_MATERIAL
350
10
  3
ACAD_MLEADERSTYLE
350
66
  3
ACAD_MLINESTYLE
350
5F
  3
ACAD_PLOTSETTINGS
350
61
  3
ACAD_PLOTSTYLENAME
350
E
  3
ACAD_SCALELIST
350
42
  3
ACAD_SECTIONVIEWSTYLE
350
68
  3
ACAD_TABLESTYLE
350
64
  3
ACAD_VISUALSTYLE
350
29
  3
ACDB_RECOMPOSE_DATA
350
3D4
  3
AcDbVariableDictionary
350
7C
  3
REVIT_DICTIONARY
350
3CB
  0
DICTIONARY
  5
3D0
330
71
100
AcDbDictionary
280
     1
281
     1
  3
ACAD_SORTENTS
360
3D1
  0
XRECORD
  5
7A
102
{ACAD_REACTORS
330
C
102
}
330
C
100
AcDbXrecord
280
     1
300
RVT
300
2013
300
RVT2013
  0
DICTIONARY
  5
63
102
{ACAD_REACTORS
330
C
102
}
330
C
100
AcDbDictionary
281
     1
  0
DICTIONARY
  5
6B
102
{ACAD_REACTORS
330
C
102
}
330
C
100
AcDbDictionary
281
     1
  3
Imperial24
350
6C
  0
DICTIONARY
  5
D
102
{ACAD_REACTORS
330
C
102
}
330
C
100
AcDbDictionary
281
     1
  0
RASTERVARIABLES
  5
7B
102
{ACAD_REACTORS
330
C
102
}
330
C
100
AcDbRasterVariables
 90
        0
 70
     0
 71
     1
 72
     1
  0
DICTIONARY
  5
62
102
{ACAD_REACTORS
330
C
102
}
330
C
100
AcDbDictionary
281
     1
  3
Layout1
350
70
  3
Layout2
350
78
  3
Model
350
74
  0
DICTIONARY
  5
10
102
{ACAD_REACTORS
330
C
102
}
330
C
100
AcDbDictionary
281
     1
  3
ByBlock
350
19
  3
ByLayer
350
11
  3
Global
350
21
  0
DICTIONARY
  5
66
102
{ACAD_REACTORS
330
C
102
}
330
C
100
AcDbDictionary
281
     1
  3
Standard
350
67
  0
DICTIONARY
  5
5F
102
{ACAD_REACTORS
330
C
102
}
330
C
100
AcDbDictionary
281
     1
  3
Standard
350
60
  0
DICTIONARY
  5
61
102
{ACAD_REACTORS
330
C
102
}
330
C
100
AcDbDictionary
281
     1
  0
ACDBDICTIONARYWDFLT
  5
E
102
{ACAD_REACTORS
330
C
102
}
330
C
100
AcDbDictionary
281
     1
  3
Normal
350
F
100
AcDbDictionaryWithDefault
340
F
  0
DICTIONARY
  5
42
102
{ACAD_REACTORS
330
C
102
}
330
C
100
AcDbDictionary
281
     1
  3
A0
350
43
  3
A1
350
44
  3
A2
350
45
  3
A3
350
46
  3
A4
350
47
  3
A5
350
48
  3
A6
350
49
  3
A7
350
4A
  3
A8
350
4B
  3
A9
350
4C
  3
B0
350
4D
  3
B1
350
4E
  3
B2
350
4F
  3
B3
350
50
  3
B4
350
51
  3
B5
350
52
  3
B6
350
53
  0
DICTIONARY
  5
68
102
{ACAD_REACTORS
330
C
102
}
330
C
100
AcDbDictionary
281
     1
  3
Imperial24
350
6A
  0
DICTIONARY
  5
64
102
{ACAD_REACTORS
330
C
102
}
330
C
100
AcDbDictionary
281
     1
  3
Standard
350
65
  0
DICTIONARY
  5
29
102
{ACAD_REACTORS
330
C
102
}
330
C
100
AcDbDictionary
281
     1
  3
2dWireframe
350
2F
  3
Basic
350
2E
  3
Brighten
350
35
  3
ColorChange
350
39
  3
Conceptual
350
32
  3
Dim
350
34
  3
EdgeColorOff
350
41
  3
Facepattern
350
38
  3
Flat
350
2A
  3
FlatWithEdges
350
2B
  3
Gouraud
350
2C
  3
GouraudWithEdges
350
2D
  3
Hidden
350
31
  3
JitterOff
350
3F
  3
Linepattern
350
37
  3
OverhangOff
350
40
  3
Realistic
350
33
  3
Shaded
350
3E
  3
Shaded with edges
350
3D
  3
Shades of Gray
350
3A
  3
Sketchy
350
3B
  3
Thicken
350
36
  3
Wireframe
350
30
  3
X-Ray
350
3C
  0
XRECORD
  5
3D4
102
{ACAD_REACTORS
330
C
102
}
330
C
100
AcDbXrecord
280
     1
 90
        1
330
65
  0
DICTIONARY
  5
7C
102
{ACAD_REACTORS
330
C
102
}
330
C
100
AcDbDictionary
281
     1
  3
CANNOSCALE
350
81
  3
CMLEADERSTYLE
350
7E
  3
CTABLESTYLE
350
7D
  3
CVIEWDETAILSTYLE
350
7F
  3
CVIEWSECTIONSTYLE
350
80
  0
DICTIONARY
  5
3CB
102
{ACAD_REACTORS
330
C
102
}
330
C
100
AcDbDictionary
281
     1
  3
DRAWING_TOOL
350
3CF
  3
REVIT_CATEGORY_MAPPING
350
3CD
  3
REVIT_SUB_CATEGORY_MAPPING
350
3CE
  3
REVIT_TYPE_MAPPING
350
3CC
  0
SORTENTSTABLE
  5
3D1
102
{ACAD_REACTORS
330
3D0
102
}
330
3D0
100
AcDbSortentsTable
330
71
  0
ACDBDETAILVIEWSTYLE
  5
6C
102
{ACAD_REACTORS
330
6B
102
}
330
6B
100
AcDbModelDocViewStyle
 70
     0
  3
Imperial24
290
     1
100
AcDbDetailViewStyle
 70
     0
 71
     0
 90
        3
 71
     1
340
55
 62
   256
 40
0.24
340
0
 62
   256
 40
0.24
300

 40
0.36
280
     3
 71
     2
340
5D
 90
       25
 62
   256
 71
     3
340
55
 62
   256
 40
0.24
 90
        1
 40
0.75
 90
        1
300
%<\AcVar ViewType \f "%tc1">% %<\AcVar ViewDetailId>%\PSCALA %<\AcVar ViewScale \f "%sn">%
 71
     4
340
5D
 90
       25
 62
   256
340
5D
 90
       25
 62
   256
280
     0
  0
LAYOUT
  5
70
102
{ACAD_REACTORS
330
62
102
}
330
62
100
AcDbPlotSettings
  1

  2

  4

  6

 40
0.0
 41
0.0
 42
0.0
 43
0.0
 44
0.0
 45
0.0
 46
0.0
 47
0.0
 48
0.0
 49
0.0
140
0.0
141
0.0
142
1.0
143
1.0
 70
   688
 72
     0
 73
     0
 74
     5
  7

 75
    16
147
1.0
 76
     0
 77
     2
 78
   300
148
0.0
149
0.0
100
AcDbLayout
  1
Layout1
 70
     1
 71
     1
 10
0.0
 20
0.0
 11
12.0
 21
9.0
 12
0.0
 22
0.0
 32
0.0
 14
0.0
 24
0.0
 34
0.0
 15
0.0
 25
0.0
 35
0.0
146
0.0
 13
0.0
 23
0.0
 33
0.0
 16
1.0
 26
0.0
 36
0.0
 17
0.0
 27
1.0
 37
0.0
 76
     0
330
6D
  0
LAYOUT
  5
78
102
{ACAD_REACTORS
330
62
102
}
330
62
100
AcDbPlotSettings
  1

  2

  4

  6

 40
0.0
 41
0.0
 42
0.0
 43
0.0
 44
0.0
 45
0.0
 46
0.0
 47
0.0
 48
0.0
 49
0.0
140
0.0
141
0.0
142
1.0
143
1.0
 70
   688
 72
     0
 73
     0
 74
     5
  7

 75
    16
147
1.0
 76
     0
 77
     2
 78
   300
148
0.0
149
0.0
100
AcDbLayout
  1
Layout2
 70
     1
 71
     2
 10
0.0
 20
0.0
 11
12.0
 21
9.0
 12
0.0
 22
0.0
 32
0.0
 14
0.0
 24
0.0
 34
0.0
 15
0.0
 25
0.0
 35
0.0
146
0.0
 13
0.0
 23
0.0
 33
0.0
 16
1.0
 26
0.0
 36
0.0
 17
0.0
 27
1.0
 37
0.0
 76
     0
330
75
  0
LAYOUT
  5
74
102
{ACAD_REACTORS
330
62
102
}
330
62
100
AcDbPlotSettings
  1

  2

  4

  6

 40
0.0
 41
0.0
 42
0.0
 43
0.0
 44
0.0
 45
0.0
 46
0.0
 47
0.0
 48
0.0
 49
0.0
140
0.0
141
0.0
142
1.0
143
1.0
 70
  1712
 72
     0
 73
     0
 74
     0
  7

 75
     0
147
1.0
 76
     0
 77
     2
 78
   300
148
0.0
149
0.0
100
AcDbLayout
  1
Model
 70
     1
 71
     0
 10
0.0
 20
0.0
 11
12.0
 21
9.0
 12
0.0
 22
0.0
 32
0.0
 14
0.0
 24
0.0
 34
0.0
 15
0.0
 25
0.0
 35
0.0
146
0.0
 13
0.0
 23
0.0
 33
0.0
 16
1.0
 26
0.0
 36
0.0
 17
0.0
 27
1.0
 37
0.0
 76
     0
330
71
  0
MATERIAL
  5
19
102
{ACAD_XDICTIONARY
360
1A
102
}
102
{ACAD_REACTORS
330
10
102
}
330
10
100
AcDbMaterial
  1
ByBlock
 72
     0
 43
0.0208333333333333
 43
0.0
 43
0.0
 43
0.0
 43
0.0
 43
0.0208333333333333
 43
0.0
 43
0.0
 43
0.0
 43
0.0
 43
1.0
 43
0.0
 43
0.0
 43
0.0
 43
0.0
 43
1.0
 77
     0
 47
0.0208333333333333
 47
0.0
 47
0.0
 47
0.0
 47
0.0
 47
0.0208333333333333
 47
0.0
 47
0.0
 47
0.0
 47
0.0
 47
1.0
 47
0.0
 47
0.0
 47
0.0
 47
0.0
 47
1.0
171
     0
 49
0.0208333333333333
 49
0.0
 49
0.0
 49
0.0
 49
0.0
 49
0.0208333333333333
 49
0.0
 49
0.0
 49
0.0
 49
0.0
 49
1.0
 49
0.0
 49
0.0
 49
0.0
 49
0.0
 49
1.0
175
     0
142
0.0208333333333333
142
0.0
142
0.0
142
0.0
142
0.0
142
0.0208333333333333
142
0.0
142
0.0
142
0.0
142
0.0
142
1.0
142
0.0
142
0.0
142
0.0
142
0.0
142
1.0
179
     0
144
0.0208333333333333
144
0.0
144
0.0
144
0.0
144
0.0
144
0.0208333333333333
144
0.0
144
0.0
144
0.0
144
0.0
144
1.0
144
0.0
144
0.0
144
0.0
144
0.0
144
1.0
147
0.0208333333333333
147
0.0
147
0.0
147
0.0
147
0.0
147
0.0208333333333333
147
0.0
147
0.0
147
0.0
147
0.0
147
1.0
147
0.0
147
0.0
147
0.0
147
0.0
147
1.0
  0
MATERIAL
  5
11
102
{ACAD_XDICTIONARY
360
12
102
}
102
{ACAD_REACTORS
330
10
102
}
330
10
100
AcDbMaterial
  1
ByLayer
 72
     0
 43
0.0208333333333333
 43
0.0
 43
0.0
 43
0.0
 43
0.0
 43
0.0208333333333333
 43
0.0
 43
0.0
 43
0.0
 43
0.0
 43
1.0
 43
0.0
 43
0.0
 43
0.0
 43
0.0
 43
1.0
 77
     0
 47
0.0208333333333333
 47
0.0
 47
0.0
 47
0.0
 47
0.0
 47
0.0208333333333333
 47
0.0
 47
0.0
 47
0.0
 47
0.0
 47
1.0
 47
0.0
 47
0.0
 47
0.0
 47
0.0
 47
1.0
171
     0
 49
0.0208333333333333
 49
0.0
 49
0.0
 49
0.0
 49
0.0
 49
0.0208333333333333
 49
0.0
 49
0.0
 49
0.0
 49
0.0
 49
1.0
 49
0.0
 49
0.0
 49
0.0
 49
0.0
 49
1.0
175
     0
142
0.0208333333333333
142
0.0
142
0.0
142
0.0
142
0.0
142
0.0208333333333333
142
0.0
142
0.0
142
0.0
142
0.0
142
1.0
142
0.0
142
0.0
142
0.0
142
0.0
142
1.0
179
     0
144
0.0208333333333333
144
0.0
144
0.0
144
0.0
144
0.0
144
0.0208333333333333
144
0.0
144
0.0
144
0.0
144
0.0
144
1.0
144
0.0
144
0.0
144
0.0
144
0.0
144
1.0
147
0.0208333333333333
147
0.0
147
0.0
147
0.0
147
0.0
147
0.0208333333333333
147
0.0
147
0.0
147
0.0
147
0.0
147
1.0
147
0.0
147
0.0
147
0.0
147
0.0
147
1.0
  0
MATERIAL
  5
21
102
{ACAD_XDICTIONARY
360
22
102
}
102
{ACAD_REACTORS
330
10
102
}
330
10
100
AcDbMaterial
  1
Global
 72
     0
 43
0.0208333333333333
 43
0.0
 43
0.0
 43
0.0
 43
0.0
 43
0.0208333333333333
 43
0.0
 43
0.0
 43
0.0
 43
0.0
 43
1.0
 43
0.0
 43
0.0
 43
0.0
 43
0.0
 43
1.0
 77
     0
 47
0.0208333333333333
 47
0.0
 47
0.0
 47
0.0
 47
0.0
 47
0.0208333333333333
 47
0.0
 47
0.0
 47
0.0
 47
0.0
 47
1.0
 47
0.0
 47
0.0
 47
0.0
 47
0.0
 47
1.0
171
     0
 49
0.0208333333333333
 49
0.0
 49
0.0
 49
0.0
 49
0.0
 49
0.0208333333333333
 49
0.0
 49
0.0
 49
0.0
 49
0.0
 49
1.0
 49
0.0
 49
0.0
 49
0.0
 49
0.0
 49
1.0
175
     0
142
0.0208333333333333
142
0.0
142
0.0
142
0.0
142
0.0
142
0.0208333333333333
142
0.0
142
0.0
142
0.0
142
0.0
142
1.0
142
0.0
142
0.0
142
0.0
142
0.0
142
1.0
179
     0
144
0.0208333333333333
144
0.0
144
0.0
144
0.0
144
0.0
144
0.0208333333333333
144
0.0
144
0.0
144
0.0
144
0.0
144
1.0
144
0.0
144
0.0
144
0.0
144
0.0
144
1.0
147
0.0208333333333333
147
0.0
147
0.0
147
0.0
147
0.0
147
0.0208333333333333
147
0.0
147
0.0
147
0.0
147
0.0
147
1.0
147
0.0
147
0.0
147
0.0
147
0.0
147
1.0
  0
MLEADERSTYLE
  5
67
102
{ACAD_REACTORS
330
66
102
}
330
66
100
AcDbMLeaderStyle
179
     2
170
     2
171
     1
172
     0
 90
        2
 40
0.0
 41
0.0
173
     1
 91
-1056964608
340
5B
 92
       -2
290
     1
 42
0.09
291
     1
 43
0.36
  3
Standard
 44
0.18
300

342
55
174
     1
178
     6
175
     1
176
     0
 93
-1056964608
 45
0.18
292
     0
297
     0
 46
0.18
 94
-1056964608
 47
1.0
 49
1.0
140
1.0
293
     1
141
0.0
294
     1
177
     0
142
1.0
295
     1
296
     0
143
0.125
271
     0
272
     9
273
     9
298
     1
  0
MLINESTYLE
  5
60
102
{ACAD_REACTORS
330
5F
102
}
330
5F
100
AcDbMlineStyle
  2
STANDARD
 70
     0
  3

 62
   256
 51
90.0
 52
90.0
 71
     2
 49
0.5
 62
   256
  6
BYLAYER
 49
-0.5
 62
   256
  6
BYLAYER
  0
ACDBPLACEHOLDER
  5
F
102
{ACAD_REACTORS
330
E
102
}
330
E
  0
SCALE
  5
43
102
{ACAD_REACTORS
330
42
102
}
330
42
100
AcDbScale
 70
     0
300
1:1
140
1.0
141
1.0
290
     1
  0
SCALE
  5
44
102
{ACAD_REACTORS
330
42
102
}
330
42
100
AcDbScale
 70
     0
300
1/128" = 1'-0"
140
0.0078125
141
12.0
290
     0
  0
SCALE
  5
45
102
{ACAD_REACTORS
330
42
102
}
330
42
100
AcDbScale
 70
     0
300
1/64" = 1'-0"
140
0.015625
141
12.0
290
     0
  0
SCALE
  5
46
102
{ACAD_REACTORS
330
42
102
}
330
42
100
AcDbScale
 70
     0
300
1/32" = 1'-0"
140
0.03125
141
12.0
290
     0
  0
SCALE
  5
47
102
{ACAD_REACTORS
330
42
102
}
330
42
100
AcDbScale
 70
     0
300
1/16" = 1'-0"
140
0.0625
141
12.0
290
     0
  0
SCALE
  5
48
102
{ACAD_REACTORS
330
42
102
}
330
42
100
AcDbScale
 70
     0
300
3/32" = 1'-0"
140
0.09375
141
12.0
290
     0
  0
SCALE
  5
49
102
{ACAD_REACTORS
330
42
102
}
330
42
100
AcDbScale
 70
     0
300
1/8" = 1'-0"
140
0.125
141
12.0
290
     0
  0
SCALE
  5
4A
102
{ACAD_REACTORS
330
42
102
}
330
42
100
AcDbScale
 70
     0
300
3/16" = 1'-0"
140
0.1875
141
12.0
290
     0
  0
SCALE
  5
4B
102
{ACAD_REACTORS
330
42
102
}
330
42
100
AcDbScale
 70
     0
300
1/4" = 1'-0"
140
0.25
141
12.0
290
     0
  0
SCALE
  5
4C
102
{ACAD_REACTORS
330
42
102
}
330
42
100
AcDbScale
 70
     0
300
3/8" = 1'-0"
140
0.375
141
12.0
290
     0
  0
SCALE
  5
4D
102
{ACAD_REACTORS
330
42
102
}
330
42
100
AcDbScale
 70
     0
300
1/2" = 1'-0"
140
0.5
141
12.0
290
     0
  0
SCALE
  5
4E
102
{ACAD_REACTORS
330
42
102
}
330
42
100
AcDbScale
 70
     0
300
3/4" = 1'-0"
140
0.75
141
12.0
290
     0
  0
SCALE
  5
4F
102
{ACAD_REACTORS
330
42
102
}
330
42
100
AcDbScale
 70
     0
300
1" = 1'-0"
140
1.0
141
12.0
290
     0
  0
SCALE
  5
50
102
{ACAD_REACTORS
330
42
102
}
330
42
100
AcDbScale
 70
     0
300
1-1/2" = 1'-0"
140
1.5
141
12.0
290
     0
  0
SCALE
  5
51
102
{ACAD_REACTORS
330
42
102
}
330
42
100
AcDbScale
 70
     0
300
3" = 1'-0"
140
3.0
141
12.0
290
     0
  0
SCALE
  5
52
102
{ACAD_REACTORS
330
42
102
}
330
42
100
AcDbScale
 70
     0
300
6" = 1'-0"
140
6.0
141
12.0
290
     0
  0
SCALE
  5
53
102
{ACAD_REACTORS
330
42
102
}
330
42
100
AcDbScale
 70
     0
300
1'-0" = 1'-0"
140
12.0
141
12.0
290
     0
  0
ACDBSECTIONVIEWSTYLE
  5
6A
102
{ACAD_REACTORS
330
68
102
}
330
68
100
AcDbModelDocViewStyle
 70
     0
  3
Imperial24
290
     1
100
AcDbSectionViewStyle
 70
     0
 71
     0
 90
       78
 71
     1
340
55
 62
   256
 40
0.24
340
0
340
0
 62
   256
 40
0.24
300
I, O, Q, S, X, Z
 40
0.48
 90
        3
 40
0.18
 90
        1
 71
     2
340
69
 90
       25
 62
   256
340
5D
 90
       50
 62
   256
 40
0.24
 40
0.0
 40
0.24
 71
     3
340
55
 62
   256
 40
0.24
 90
        1
 40
0.75
 90
        1
300
%<\AcVar ViewType \f "%tc1">% %<\AcVar ViewSectionStartId>%-%<\AcVar ViewSectionEndId>%\PSCALA %<\AcVar ViewScale \f "%sn">%
 71
     4
 62
   256
 62
   257
300
ANSI31
 40
1.0
 90
        0
290
     0
290
     0
 90
        6
 40
0.0
 40
1.570796326794896
 40
0.2617993877991494
 40
1.308996938995747
 40
-0.2617993877991494
 40
1.832595714594046
  0
TABLESTYLE
  5
65
102
{ACAD_XDICTIONARY
360
3D2
102
}
102
{ACAD_REACTORS
330
64
102
}
330
64
100
AcDbTableStyle
280
     0
  3
Standard
 70
     0
 71
     0
 40
0.06
 41
0.06
280
     0
281
     0
  7
Standard
140
0.18
170
     2
 62
     0
 63
     7
283
     0
 90
      512
 91
        0
  1

274
    -2
284
     1
 64
     0
275
    -2
285
     1
 65
     0
276
    -2
286
     1
 66
     0
277
    -2
287
     1
 67
     0
278
    -2
288
     1
 68
     0
279
    -2
289
     1
 69
     0
  7
Standard
140
0.25
170
     5
 62
     0
 63
     7
283
     0
 90
      512
 91
        0
  1

274
    -2
284
     1
 64
     0
275
    -2
285
     1
 65
     0
276
    -2
286
     1
 66
     0
277
    -2
287
     1
 67
     0
278
    -2
288
     1
 68
     0
279
    -2
289
     1
 69
     0
  7
Standard
140
0.18
170
     5
 62
     0
 63
     7
283
     0
 90
      512
 91
        0
  1

274
    -2
284
     1
 64
     0
275
    -2
285
     1
 65
     0
276
    -2
286
     1
 66
     0
277
    -2
287
     1
 67
     0
278
    -2
288
     1
 68
     0
279
    -2
289
     1
 69
     0
  0
VISUALSTYLE
  5
2F
102
{ACAD_REACTORS
330
29
102
}
330
29
100
AcDbVisualStyle
  2
2dWireframe
 70
     4
177
     3
291
     0
 70
    58
 90
        0
176
     1
 90
        2
176
     1
 90
        0
176
     1
 90
        0
176
     1
 40
0.6
176
     1
 40
30.0
176
     1
 62
     7
420
 16777215
176
     1
 90
        1
176
     1
 90
        4
176
     1
 62
     7
176
     1
 62
   257
176
     1
 90
        1
176
     1
 90
        1
176
     1
 40
1.0
176
     1
 90
        0
176
     1
 62
   257
176
     1
 40
1.0
176
     1
 90
        1
176
     1
 90
        6
176
     1
 90
        2
176
     1
 62
     7
176
     1
 90
        5
176
     1
 90
        0
176
     1
 90
        0
176
     1
290
     0
176
     1
 90
        1
176
     1
 40
0.0
176
     1
 90
        0
176
     1
290
     1
176
     1
290
     1
176
     1
290
     0
176
     1
290
     0
176
     1
290
     0
176
     1
290
     0
176
     1
290
     0
176
     1
290
     0
176
     1
290
     0
176
     1
 90
       50
176
     1
 40
0.0
176
     1
 40
1.0
176
     1
 90
        0
176
     1
 62
    18
420
        0
176
     1
 90
       50
176
     1
 90
        3
176
     1
 62
     5
420
      255
176
     1
290
     0
176
     1
 90
       50
176
     1
 90
       50
176
     1
 90
       50
176
     1
290
     0
176
     1
 90
       50
176
     1
 62
   256
176
     0
 40
1.0
176
     0
 90
        2
176
     1
  1
strokes_ogs.tif
176
     1
290
     0
176
     1
 40
1.0
176
     1
 40
1.0
176
     1
  0
VISUALSTYLE
  5
2E
102
{ACAD_REACTORS
330
29
102
}
330
29
100
AcDbVisualStyle
  2
Basic
 70
     7
177
     3
291
     1
 70
    58
 90
        1
176
     1
 90
        0
176
     1
 90
        1
176
     1
 90
        0
176
     1
 40
0.6
176
     1
 40
30.0
176
     1
 62
     7
420
 16777215
176
     1
 90
        0
176
     1
 90
        4
176
     1
 62
     7
176
     1
 62
   257
176
     1
 90
        1
176
     1
 90
        1
176
     1
 40
1.0
176
     1
 90
        8
176
     1
 62
     7
176
     1
 40
1.0
176
     1
 90
        1
176
     1
 90
        6
176
     1
 90
        2
176
     1
 62
     7
176
     1
 90
        5
176
     1
 90
        0
176
     1
 90
        0
176
     1
290
     0
176
     1
 90
        1
176
     1
 40
0.0
176
     1
 90
        0
176
     1
290
     0
176
     1
290
     1
176
     1
290
     1
176
     1
290
     0
176
     1
290
     0
176
     1
290
     0
176
     1
290
     0
176
     1
290
     0
176
     1
290
     0
176
     1
 90
       50
176
     1
 40
0.0
176
     1
 40
1.0
176
     1
 90
        0
176
     1
 62
    18
420
        0
176
     1
 90
       50
176
     1
 90
        3
176
     1
 62
     5
420
      255
176
     1
290
     0
176
     1
 90
       50
176
     1
 90
       50
176
     1
 90
       50
176
     1
290
     0
176
     1
 90
       50
176
     1
 62
   256
176
     0
 40
1.0
176
     0
 90
        2
176
     1
  1
strokes_ogs.tif
176
     1
290
     0
176
     1
 40
1.0
176
     1
 40
1.0
176
     1
  0
VISUALSTYLE
  5
35
102
{ACAD_REACTORS
330
29
102
}
330
29
100
AcDbVisualStyle
  2
Brighten
 70
    12
177
     3
291
     1
 70
    58
 90
        2
176
     1
 90
        2
176
     1
 90
        0
176
     1
 90
        0
176
     1
 40
0.6
176
     1
 40
30.0
176
     1
 62
     7
420
 16777215
176
     1
 90
        1
176
     1
 90
        4
176
     1
 62
     7
176
     1
 62
   257
176
     1
 90
        1
176
     1
 90
        1
176
     1
 40
1.0
176
     1
 90
        8
176
     1
 62
     7
176
     1
 40
1.0
176
     1
 90
        1
176
     1
 90
        6
176
     1
 90
        2
176
     1
 62
     7
176
     1
 90
        5
176
     1
 90
        0
176
     1
 90
        0
176
     1
290
     0
176
     1
 90
        1
176
     1
 40
50.0
176
     1
 90
        0
176
     1
290
     0
176
     1
290
     1
176
     1
290
     1
176
     1
290
     0
176
     1
290
     0
176
     1
290
     0
176
     1
290
     0
176
     1
290
     0
176
     1
290
     0
176
     1
 90
       50
176
     1
 40
0.0
176
     1
 40
1.0
176
     1
 90
        0
176
     1
 62
    18
420
        0
176
     1
 90
       50
176
     1
 90
        3
176
     1
 62
     5
420
      255
176
     1
290
     0
176
     1
 90
       50
176
     1
 90
       50
176
     1
 90
       50
176
     1
290
     0
176
     1
 90
       50
176
     1
 62
   256
176
     0
 40
1.0
176
     0
 90
        2
176
     1
  1
strokes_ogs.tif
176
     1
290
     0
176
     1
 40
1.0
176
     1
 40
1.0
176
     1
  0
VISUALSTYLE
  5
39
102
{ACAD_REACTORS
330
29
102
}
330
29
100
AcDbVisualStyle
  2
ColorChange
 70
    16
177
     3
291
     1
 70
    58
 90
        2
176
     1
 90
        2
176
     1
 90
        3
176
     1
 90
        0
176
     1
 40
0.6
176
     1
 40
30.0
176
     1
 62
     8
420
  8421504
176
     1
 90
        1
176
     1
 90
        4
176
     1
 62
     7
176
     1
 62
   257
176
     1
 90
        1
176
     1
 90
        1
176
     1
 40
1.0
176
     1
 90
        8
176
     1
 62
     8
420
  8421504
176
     1
 40
1.0
176
     1
 90
        1
176
     1
 90
        6
176
     1
 90
        2
176
     1
 62
     7
176
     1
 90
        5
176
     1
 90
        0
176
     1
 90
        0
176
     1
290
     0
176
     1
 90
        1
176
     1
 40
0.0
176
     1
 90
        0
176
     1
290
     0
176
     1
290
     1
176
     1
290
     1
176
     1
290
     0
176
     1
290
     0
176
     1
290
     0
176
     1
290
     0
176
     1
290
     0
176
     1
290
     0
176
     1
 90
       50
176
     1
 40
0.0
176
     1
 40
1.0
176
     1
 90
        0
176
     1
 62
    18
420
        0
176
     1
 90
       50
176
     1
 90
        3
176
     1
 62
     5
420
      255
176
     1
290
     0
176
     1
 90
       50
176
     1
 90
       50
176
     1
 90
       50
176
     1
290
     0
176
     1
 90
       50
176
     1
 62
   256
176
     0
 40
1.0
176
     0
 90
        2
176
     1
  1
strokes_ogs.tif
176
     1
290
     0
176
     1
 40
1.0
176
     1
 40
1.0
176
     1
  0
VISUALSTYLE
  5
32
102
{ACAD_REACTORS
330
29
102
}
330
29
100
AcDbVisualStyle
  2
Conceptual
 70
     9
177
     3
291
     0
 70
    58
 90
        3
176
     1
 90
        2
176
     1
 90
        0
176
     1
 90
        0
176
     1
 40
0.6
176
     1
 40
30.0
176
     1
 62
     7
420
 16777215
176
     1
 90
        2
176
     1
 90
        2
176
     1
 62
     7
176
     1
 62
   257
176
     1
 90
        1
176
     1
 90
        1
176
     1
 40
179.0
176
     1
 90
        8
176
     1
 62
     7
176
     1
 40
1.0
176
     1
 90
        1
176
     1
 90
        6
176
     1
 90
        2
176
     1
 62
     7
176
     1
 90
        3
176
     1
 90
        0
176
     1
 90
        0
176
     1
290
     0
176
     1
 90
        1
176
     1
 40
0.0
176
     1
 90
        0
176
     1
290
     0
176
     1
290
     1
176
     1
290
     1
176
     1
290
     0
176
     1
290
     0
176
     1
290
     0
176
     1
290
     0
176
     1
290
     0
176
     1
290
     0
176
     1
 90
       50
176
     1
 40
0.0
176
     1
 40
1.0
176
     1
 90
        0
176
     1
 62
    18
420
        0
176
     1
 90
       50
176
     1
 90
        3
176
     1
 62
     5
420
      255
176
     1
290
     0
176
     1
 90
       50
176
     1
 90
       50
176
     1
 90
       50
176
     1
290
     0
176
     1
 90
       50
176
     1
 62
   256
176
     0
 40
1.0
176
     0
 90
        2
176
     1
  1
strokes_ogs.tif
176
     1
290
     0
176
     1
 40
1.0
176
     1
 40
1.0
176
     1
  0
VISUALSTYLE
  5
34
102
{ACAD_REACTORS
330
29
102
}
330
29
100
AcDbVisualStyle
  2
Dim
 70
    11
177
     3
291
     1
 70
    58
 90
        2
176
     1
 90
        2
176
     1
 90
        0
176
     1
 90
        0
176
     1
 40
0.6
176
     1
 40
30.0
176
     1
 62
     7
420
 16777215
176
     1
 90
        1
176
     1
 90
        4
176
     1
 62
     7
176
     1
 62
   257
176
     1
 90
        1
176
     1
 90
        1
176
     1
 40
1.0
176
     1
 90
        8
176
     1
 62
     7
176
     1
 40
1.0
176
     1
 90
        1
176
     1
 90
        6
176
     1
 90
        2
176
     1
 62
     7
176
     1
 90
        5
176
     1
 90
        0
176
     1
 90
        0
176
     1
290
     0
176
     1
 90
        1
176
     1
 40
-50.0
176
     1
 90
        0
176
     1
290
     0
176
     1
290
     1
176
     1
290
     1
176
     1
290
     0
176
     1
290
     0
176
     1
290
     0
176
     1
290
     0
176
     1
290
     0
176
     1
290
     0
176
     1
 90
       50
176
     1
 40
0.0
176
     1
 40
1.0
176
     1
 90
        0
176
     1
 62
    18
420
        0
176
     1
 90
       50
176
     1
 90
        3
176
     1
 62
     5
420
      255
176
     1
290
     0
176
     1
 90
       50
176
     1
 90
       50
176
     1
 90
       50
176
     1
290
     0
176
     1
 90
       50
176
     1
 62
   256
176
     0
 40
1.0
176
     0
 90
        2
176
     1
  1
strokes_ogs.tif
176
     1
290
     0
176
     1
 40
1.0
176
     1
 40
1.0
176
     1
  0
VISUALSTYLE
  5
41
102
{ACAD_REACTORS
330
29
102
}
330
29
100
AcDbVisualStyle
  2
EdgeColorOff
 70
    22
177
     3
291
     1
 70
    58
 90
        2
176
     0
 90
        2
176
     0
 90
        0
176
     0
 90
        0
176
     0
 40
0.6
176
     0
 40
30.0
176
     0
 62
     7
420
 16777215
176
     0
 90
        1
176
     0
 90
        4
176
     0
 62
     7
176
     0
 62
   257
176
     0
 90
        1
176
     0
 90
        1
176
     0
 40
1.0
176
     0
 90
        8
176
     2
 62
     7
176
     0
 40
1.0
176
     0
 90
        1
176
     0
 90
        6
176
     0
 90
        2
176
     0
 62
     7
176
     0
 90
        5
176
     0
 90
        0
176
     0
 90
        0
176
     0
290
     0
176
     0
 90
        1
176
     0
 40
0.0
176
     0
 90
        0
176
     0
290
     0
176
     0
290
     1
176
     0
290
     1
176
     0
290
     0
176
     0
290
     0
176
     0
290
     0
176
     0
290
     0
176
     0
290
     0
176
     0
290
     0
176
     0
 90
       50
176
     0
 40
0.0
176
     0
 40
1.0
176
     0
 90
        0
176
     0
 62
    18
420
        0
176
     0
 90
       50
176
     0
 90
        3
176
     0
 62
     5
420
      255
176
     0
290
     0
176
     0
 90
       50
176
     0
 90
       50
176
     0
 90
       50
176
     0
290
     0
176
     0
 90
       50
176
     0
 62
   256
176
     0
 40
1.0
176
     0
 90
        2
176
     0
  1
strokes_ogs.tif
176
     0
290
     0
176
     0
 40
1.0
176
     0
 40
1.0
176
     0
  0
VISUALSTYLE
  5
38
102
{ACAD_REACTORS
330
29
102
}
330
29
100
AcDbVisualStyle
  2
Facepattern
 70
    15
177
     3
291
     1
 70
    58
 90
        2
176
     1
 90
        2
176
     1
 90
        0
176
     1
 90
        0
176
     1
 40
0.6
176
     1
 40
30.0
176
     1
 62
     7
420
 16777215
176
     1
 90
        1
176
     1
 90
        4
176
     1
 62
     7
176
     1
 62
   257
176
     1
 90
        1
176
     1
 90
        1
176
     1
 40
1.0
176
     1
 90
        8
176
     1
 62
     7
176
     1
 40
1.0
176
     1
 90
        1
176
     1
 90
        6
176
     1
 90
        2
176
     1
 62
     7
176
     1
 90
        5
176
     1
 90
        0
176
     1
 90
        0
176
     1
290
     0
176
     1
 90
        1
176
     1
 40
0.0
176
     1
 90
        0
176
     1
290
     0
176
     1
290
     1
176
     1
290
     1
176
     1
290
     0
176
     1
290
     0
176
     1
290
     0
176
     1
290
     0
176
     1
290
     0
176
     1
290
     0
176
     1
 90
       50
176
     1
 40
0.0
176
     1
 40
1.0
176
     1
 90
        0
176
     1
 62
    18
420
        0
176
     1
 90
       50
176
     1
 90
        3
176
     1
 62
     5
420
      255
176
     1
290
     0
176
     1
 90
       50
176
     1
 90
       50
176
     1
 90
       50
176
     1
290
     0
176
     1
 90
       50
176
     1
 62
   256
176
     0
 40
1.0
176
     0
 90
        2
176
     1
  1
strokes_ogs.tif
176
     1
290
     0
176
     1
 40
1.0
176
     1
 40
1.0
176
     1
  0
VISUALSTYLE
  5
2A
102
{ACAD_REACTORS
330
29
102
}
330
29
100
AcDbVisualStyle
  2
Flat
 70
     0
177
     3
291
     1
 70
    58
 90
        2
176
     1
 90
        1
176
     1
 90
        1
176
     1
 90
        2
176
     1
 40
0.6
176
     1
 40
30.0
176
     1
 62
     7
420
 16777215
176
     1
 90
        0
176
     1
 90
        0
176
     1
 62
     7
176
     1
 62
   257
176
     1
 90
        1
176
     1
 90
        1
176
     1
 40
1.0
176
     1
 90
        8
176
     1
 62
     7
176
     1
 40
1.0
176
     1
 90
        1
176
     1
 90
        6
176
     1
 90
        2
176
     1
 62
     7
176
     1
 90
        5
176
     1
 90
        0
176
     1
 90
        0
176
     1
290
     0
176
     1
 90
       13
176
     1
 40
0.0
176
     1
 90
        0
176
     1
290
     0
176
     1
290
     1
176
     1
290
     1
176
     1
290
     0
176
     1
290
     0
176
     1
290
     0
176
     1
290
     0
176
     1
290
     0
176
     1
290
     0
176
     1
 90
       50
176
     1
 40
0.0
176
     1
 40
1.0
176
     1
 90
        0
176
     1
 62
    18
420
        0
176
     1
 90
       50
176
     1
 90
        3
176
     1
 62
     5
420
      255
176
     1
290
     0
176
     1
 90
       50
176
     1
 90
       50
176
     1
 90
       50
176
     1
290
     0
176
     1
 90
       50
176
     1
 62
   256
176
     0
 40
1.0
176
     0
 90
        2
176
     1
  1
strokes_ogs.tif
176
     1
290
     0
176
     1
 40
1.0
176
     1
 40
1.0
176
     1
  0
VISUALSTYLE
  5
2B
102
{ACAD_REACTORS
330
29
102
}
330
29
100
AcDbVisualStyle
  2
FlatWithEdges
 70
     1
177
     3
291
     1
 70
    58
 90
        2
176
     1
 90
        1
176
     1
 90
        1
176
     1
 90
        2
176
     1
 40
0.6
176
     1
 40
30.0
176
     1
 62
     7
420
 16777215
176
     1
 90
        1
176
     1
 90
        0
176
     1
 62
     7
176
     1
 62
   257
176
     1
 90
        1
176
     1
 90
        1
176
     1
 40
1.0
176
     1
 90
        0
176
     1
 62
   257
176
     1
 40
1.0
176
     1
 90
        1
176
     1
 90
        6
176
     1
 90
        2
176
     1
 62
     7
176
     1
 90
        5
176
     1
 90
        0
176
     1
 90
        0
176
     1
290
     0
176
     1
 90
       13
176
     1
 40
0.0
176
     1
 90
        0
176
     1
290
     0
176
     1
290
     1
176
     1
290
     1
176
     1
290
     0
176
     1
290
     0
176
     1
290
     0
176
     1
290
     0
176
     1
290
     0
176
     1
290
     0
176
     1
 90
       50
176
     1
 40
0.0
176
     1
 40
1.0
176
     1
 90
        0
176
     1
 62
    18
420
        0
176
     1
 90
       50
176
     1
 90
        3
176
     1
 62
     5
420
      255
176
     1
290
     0
176
     1
 90
       50
176
     1
 90
       50
176
     1
 90
       50
176
     1
290
     0
176
     1
 90
       50
176
     1
 62
   256
176
     0
 40
1.0
176
     0
 90
        2
176
     1
  1
strokes_ogs.tif
176
     1
290
     0
176
     1
 40
1.0
176
     1
 40
1.0
176
     1
  0
VISUALSTYLE
  5
2C
102
{ACAD_REACTORS
330
29
102
}
330
29
100
AcDbVisualStyle
  2
Gouraud
 70
     2
177
     3
291
     1
 70
    58
 90
        2
176
     1
 90
        2
176
     1
 90
        1
176
     1
 90
        2
176
     1
 40
0.6
176
     1
 40
30.0
176
     1
 62
     7
420
 16777215
176
     1
 90
        0
176
     1
 90
        0
176
     1
 62
     7
176
     1
 62
   257
176
     1
 90
        1
176
     1
 90
        1
176
     1
 40
1.0
176
     1
 90
        0
176
     1
 62
     7
176
     1
 40
1.0
176
     1
 90
        1
176
     1
 90
        6
176
     1
 90
        2
176
     1
 62
     7
176
     1
 90
        5
176
     1
 90
        0
176
     1
 90
        0
176
     1
290
     0
176
     1
 90
       13
176
     1
 40
0.0
176
     1
 90
        0
176
     1
290
     0
176
     1
290
     1
176
     1
290
     1
176
     1
290
     0
176
     1
290
     0
176
     1
290
     0
176
     1
290
     0
176
     1
290
     0
176
     1
290
     0
176
     1
 90
       50
176
     1
 40
0.0
176
     1
 40
1.0
176
     1
 90
        0
176
     1
 62
    18
420
        0
176
     1
 90
       50
176
     1
 90
        3
176
     1
 62
     5
420
      255
176
     1
290
     0
176
     1
 90
       50
176
     1
 90
       50
176
     1
 90
       50
176
     1
290
     0
176
     1
 90
       50
176
     1
 62
   256
176
     0
 40
1.0
176
     0
 90
        2
176
     1
  1
strokes_ogs.tif
176
     1
290
     0
176
     1
 40
1.0
176
     1
 40
1.0
176
     1
  0
VISUALSTYLE
  5
2D
102
{ACAD_REACTORS
330
29
102
}
330
29
100
AcDbVisualStyle
  2
GouraudWithEdges
 70
     3
177
     3
291
     1
 70
    58
 90
        2
176
     1
 90
        2
176
     1
 90
        1
176
     1
 90
        2
176
     1
 40
0.6
176
     1
 40
30.0
176
     1
 62
     7
420
 16777215
176
     1
 90
        1
176
     1
 90
        0
176
     1
 62
     7
176
     1
 62
   257
176
     1
 90
        1
176
     1
 90
        1
176
     1
 40
1.0
176
     1
 90
        0
176
     1
 62
   257
176
     1
 40
1.0
176
     1
 90
        1
176
     1
 90
        6
176
     1
 90
        2
176
     1
 62
     7
176
     1
 90
        5
176
     1
 90
        0
176
     1
 90
        0
176
     1
290
     0
176
     1
 90
       13
176
     1
 40
0.0
176
     1
 90
        0
176
     1
290
     0
176
     1
290
     1
176
     1
290
     1
176
     1
290
     0
176
     1
290
     0
176
     1
290
     0
176
     1
290
     0
176
     1
290
     0
176
     1
290
     0
176
     1
 90
       50
176
     1
 40
0.0
176
     1
 40
1.0
176
     1
 90
        0
176
     1
 62
    18
420
        0
176
     1
 90
       50
176
     1
 90
        3
176
     1
 62
     5
420
      255
176
     1
290
     0
176
     1
 90
       50
176
     1
 90
       50
176
     1
 90
       50
176
     1
290
     0
176
     1
 90
       50
176
     1
 62
   256
176
     0
 40
1.0
176
     0
 90
        2
176
     1
  1
strokes_ogs.tif
176
     1
290
     0
176
     1
 40
1.0
176
     1
 40
1.0
176
     1
  0
VISUALSTYLE
  5
31
102
{ACAD_REACTORS
330
29
102
}
330
29
100
AcDbVisualStyle
  2
Hidden
 70
     6
177
     3
291
     0
 70
    58
 90
        1
176
     1
 90
        2
176
     1
 90
        2
176
     1
 90
        0
176
     1
 40
0.6
176
     1
 40
30.0
176
     1
 62
     7
420
 16777215
176
     1
 90
        2
176
     1
 90
        2
176
     1
 62
     7
176
     1
 62
   257
176
     1
 90
        2
176
     1
 90
        1
176
     1
 40
40.0
176
     1
 90
        0
176
     1
 62
   257
176
     1
 40
1.0
176
     1
 90
        1
176
     1
 90
        6
176
     1
 90
        2
176
     1
 62
     7
176
     1
 90
        3
176
     1
 90
        0
176
     1
 90
        0
176
     1
290
     0
176
     1
 90
        1
176
     1
 40
0.0
176
     1
 90
        0
176
     1
290
     0
176
     1
290
     1
176
     1
290
     1
176
     1
290
     0
176
     1
290
     0
176
     1
290
     0
176
     1
290
     0
176
     1
290
     0
176
     1
290
     0
176
     1
 90
       50
176
     1
 40
0.0
176
     1
 40
1.0
176
     1
 90
        0
176
     1
 62
    18
420
        0
176
     1
 90
       50
176
     1
 90
        3
176
     1
 62
     5
420
      255
176
     1
290
     0
176
     1
 90
       50
176
     1
 90
       50
176
     1
 90
       50
176
     1
290
     0
176
     1
 90
       50
176
     1
 62
   256
176
     0
 40
1.0
176
     0
 90
        2
176
     1
  1
strokes_ogs.tif
176
     1
290
     0
176
     1
 40
1.0
176
     1
 40
1.0
176
     1
  0
VISUALSTYLE
  5
3F
102
{ACAD_REACTORS
330
29
102
}
330
29
100
AcDbVisualStyle
  2
JitterOff
 70
    20
177
     3
291
     1
 70
    58
 90
        2
176
     0
 90
        2
176
     0
 90
        0
176
     0
 90
        0
176
     0
 40
0.6
176
     0
 40
30.0
176
     0
 62
     7
420
 16777215
176
     0
 90
        1
176
     0
 90
        4
176
     0
 62
     7
176
     0
 62
   257
176
     0
 90
        1
176
     0
 90
        1
176
     0
 40
1.0
176
     0
 90
       10
176
     2
 62
     7
176
     0
 40
1.0
176
     0
 90
        1
176
     0
 90
        6
176
     0
 90
        2
176
     0
 62
     7
176
     0
 90
        5
176
     0
 90
        0
176
     0
 90
        0
176
     0
290
     0
176
     0
 90
        1
176
     0
 40
0.0
176
     0
 90
        0
176
     0
290
     0
176
     0
290
     1
176
     0
290
     1
176
     0
290
     0
176
     0
290
     0
176
     0
290
     0
176
     0
290
     0
176
     0
290
     0
176
     0
290
     0
176
     0
 90
       50
176
     0
 40
0.0
176
     0
 40
1.0
176
     0
 90
        0
176
     0
 62
    18
420
        0
176
     0
 90
       50
176
     0
 90
        3
176
     0
 62
     5
420
      255
176
     0
290
     0
176
     0
 90
       50
176
     0
 90
       50
176
     0
 90
       50
176
     0
290
     0
176
     0
 90
       50
176
     0
 62
   256
176
     0
 40
1.0
176
     0
 90
        2
176
     0
  1
strokes_ogs.tif
176
     0
290
     0
176
     0
 40
1.0
176
     0
 40
1.0
176
     0
  0
VISUALSTYLE
  5
37
102
{ACAD_REACTORS
330
29
102
}
330
29
100
AcDbVisualStyle
  2
Linepattern
 70
    14
177
     3
291
     1
 70
    58
 90
        2
176
     1
 90
        2
176
     1
 90
        0
176
     1
 90
        0
176
     1
 40
0.6
176
     1
 40
30.0
176
     1
 62
     7
420
 16777215
176
     1
 90
        1
176
     1
 90
        4
176
     1
 62
     7
176
     1
 62
   257
176
     1
 90
        7
176
     1
 90
        7
176
     1
 40
1.0
176
     1
 90
        8
176
     1
 62
     7
176
     1
 40
1.0
176
     1
 90
        1
176
     1
 90
        6
176
     1
 90
        2
176
     1
 62
     7
176
     1
 90
        5
176
     1
 90
        0
176
     1
 90
        0
176
     1
290
     0
176
     1
 90
        1
176
     1
 40
0.0
176
     1
 90
        0
176
     1
290
     0
176
     1
290
     1
176
     1
290
     1
176
     1
290
     0
176
     1
290
     0
176
     1
290
     0
176
     1
290
     0
176
     1
290
     0
176
     1
290
     0
176
     1
 90
       50
176
     1
 40
0.0
176
     1
 40
1.0
176
     1
 90
        0
176
     1
 62
    18
420
        0
176
     1
 90
       50
176
     1
 90
        3
176
     1
 62
     5
420
      255
176
     1
290
     0
176
     1
 90
       50
176
     1
 90
       50
176
     1
 90
       50
176
     1
290
     0
176
     1
 90
       50
176
     1
 62
   256
176
     0
 40
1.0
176
     0
 90
        2
176
     1
  1
strokes_ogs.tif
176
     1
290
     0
176
     1
 40
1.0
176
     1
 40
1.0
176
     1
  0
VISUALSTYLE
  5
40
102
{ACAD_REACTORS
330
29
102
}
330
29
100
AcDbVisualStyle
  2
OverhangOff
 70
    21
177
     3
291
     1
 70
    58
 90
        2
176
     0
 90
        2
176
     0
 90
        0
176
     0
 90
        0
176
     0
 40
0.6
176
     0
 40
30.0
176
     0
 62
     7
420
 16777215
176
     0
 90
        1
176
     0
 90
        4
176
     0
 62
     7
176
     0
 62
   257
176
     0
 90
        1
176
     0
 90
        1
176
     0
 40
1.0
176
     0
 90
        9
176
     2
 62
     7
176
     0
 40
1.0
176
     0
 90
        1
176
     0
 90
        6
176
     0
 90
        2
176
     0
 62
     7
176
     0
 90
        5
176
     0
 90
        0
176
     0
 90
        0
176
     0
290
     0
176
     0
 90
        1
176
     0
 40
0.0
176
     0
 90
        0
176
     0
290
     0
176
     0
290
     1
176
     0
290
     1
176
     0
290
     0
176
     0
290
     0
176
     0
290
     0
176
     0
290
     0
176
     0
290
     0
176
     0
290
     0
176
     0
 90
       50
176
     0
 40
0.0
176
     0
 40
1.0
176
     0
 90
        0
176
     0
 62
    18
420
        0
176
     0
 90
       50
176
     0
 90
        3
176
     0
 62
     5
420
      255
176
     0
290
     0
176
     0
 90
       50
176
     0
 90
       50
176
     0
 90
       50
176
     0
290
     0
176
     0
 90
       50
176
     0
 62
   256
176
     0
 40
1.0
176
     0
 90
        2
176
     0
  1
strokes_ogs.tif
176
     0
290
     0
176
     0
 40
1.0
176
     0
 40
1.0
176
     0
  0
VISUALSTYLE
  5
33
102
{ACAD_REACTORS
330
29
102
}
330
29
100
AcDbVisualStyle
  2
Realistic
 70
     8
177
     3
291
     0
 70
    58
 90
        2
176
     1
 90
        3
176
     1
 90
        0
176
     1
 90
        2
176
     1
 40
0.6
176
     1
 40
30.0
176
     1
 62
     7
420
 16777215
176
     1
 90
        0
176
     1
 90
        0
176
     1
 62
     7
176
     1
 62
   257
176
     1
 90
        1
176
     1
 90
        1
176
     1
 40
1.0
176
     1
 90
        8
176
     1
 62
   257
176
     1
 40
1.0
176
     1
 90
        1
176
     1
 90
        6
176
     1
 90
        2
176
     1
 62
     7
176
     1
 90
        3
176
     1
 90
        0
176
     1
 90
        0
176
     1
290
     0
176
     1
 90
       13
176
     1
 40
0.0
176
     1
 90
        0
176
     1
290
     0
176
     1
290
     1
176
     1
290
     1
176
     1
290
     0
176
     1
290
     0
176
     1
290
     0
176
     1
290
     0
176
     1
290
     0
176
     1
290
     0
176
     1
 90
       50
176
     1
 40
0.0
176
     1
 40
1.0
176
     1
 90
        0
176
     1
 62
    18
420
        0
176
     1
 90
       50
176
     1
 90
        3
176
     1
 62
     5
420
      255
176
     1
290
     0
176
     1
 90
       50
176
     1
 90
       50
176
     1
 90
       50
176
     1
290
     0
176
     1
 90
       50
176
     1
 62
   256
176
     0
 40
1.0
176
     0
 90
        2
176
     1
  1
strokes_ogs.tif
176
     1
290
     0
176
     1
 40
1.0
176
     1
 40
1.0
176
     1
  0
VISUALSTYLE
  5
3E
102
{ACAD_REACTORS
330
29
102
}
330
29
100
AcDbVisualStyle
  2
Shaded
 70
    27
177
     3
291
     0
 70
    58
 90
        2
176
     1
 90
        2
176
     1
 90
        1
176
     1
 90
        2
176
     1
 40
0.6
176
     1
 40
30.0
176
     1
 62
     7
420
 16777215
176
     1
 90
        0
176
     1
 90
        4
176
     1
 62
     7
176
     1
 62
   257
176
     1
 90
        1
176
     1
 90
        1
176
     1
 40
1.0
176
     1
 90
        8
176
     1
 62
   257
176
     1
 40
1.0
176
     1
 90
        1
176
     1
 90
        6
176
     1
 90
        2
176
     1
 62
     8
420
  7895160
176
     1
 90
        3
176
     1
 90
        0
176
     1
 90
        0
176
     1
290
     0
176
     1
 90
        5
176
     1
 40
0.0
176
     1
 90
        0
176
     1
290
     0
176
     1
290
     1
176
     1
290
     1
176
     1
290
     0
176
     1
290
     0
176
     1
290
     0
176
     1
290
     0
176
     1
290
     0
176
     1
290
     0
176
     1
 90
       50
176
     1
 40
0.0
176
     1
 40
1.0
176
     1
 90
        0
176
     1
 62
    18
420
        0
176
     1
 90
       50
176
     1
 90
        3
176
     1
 62
     5
420
      255
176
     1
290
     0
176
     1
 90
       50
176
     1
 90
       50
176
     1
 90
       50
176
     1
290
     0
176
     1
 90
       50
176
     1
 62
   256
176
     0
 40
1.0
176
     0
 90
        2
176
     1
  1
strokes_ogs.tif
176
     1
290
     0
176
     1
 40
1.0
176
     1
 40
1.0
176
     1
  0
VISUALSTYLE
  5
3D
102
{ACAD_REACTORS
330
29
102
}
330
29
100
AcDbVisualStyle
  2
Shaded with edges
 70
    26
177
     3
291
     0
 70
    58
 90
        2
176
     1
 90
        2
176
     1
 90
        1
176
     1
 90
        2
176
     1
 40
0.6
176
     1
 40
30.0
176
     1
 62
     7
420
 16777215
176
     1
 90
        1
176
     1
 90
       10
176
     1
 62
     7
176
     1
 62
   257
176
     1
 90
        2
176
     1
 90
        1
176
     1
 40
1.0
176
     1
 90
        8
176
     1
 62
   257
176
     1
 40
1.0
176
     1
 90
        1
176
     1
 90
        6
176
     1
 90
        2
176
     1
 62
     7
176
     1
 90
        3
176
     1
 90
        0
176
     1
 90
        0
176
     1
290
     0
176
     1
 90
        5
176
     1
 40
0.0
176
     1
 90
        0
176
     1
290
     0
176
     1
290
     1
176
     1
290
     1
176
     1
290
     0
176
     1
290
     0
176
     1
290
     0
176
     1
290
     0
176
     1
290
     0
176
     1
290
     0
176
     1
 90
       50
176
     1
 40
0.0
176
     1
 40
1.0
176
     1
 90
        0
176
     1
 62
    18
420
        0
176
     1
 90
       50
176
     1
 90
        3
176
     1
 62
     5
420
      255
176
     1
290
     0
176
     1
 90
       50
176
     1
 90
       50
176
     1
 90
       50
176
     1
290
     0
176
     1
 90
       50
176
     1
 62
   256
176
     0
 40
1.0
176
     0
 90
        2
176
     1
  1
strokes_ogs.tif
176
     1
290
     0
176
     1
 40
1.0
176
     1
 40
1.0
176
     1
  0
VISUALSTYLE
  5
3A
102
{ACAD_REACTORS
330
29
102
}
330
29
100
AcDbVisualStyle
  2
Shades of Gray
 70
    23
177
     3
291
     0
 70
    58
 90
        2
176
     1
 90
        2
176
     1
 90
        3
176
     1
 90
        0
176
     1
 40
0.6
176
     1
 40
30.0
176
     1
 62
     7
420
 16777215
176
     1
 90
        2
176
     1
 90
        2
176
     1
 62
     7
176
     1
 62
     7
176
     1
 90
        1
176
     1
 90
        1
176
     1
 40
40.0
176
     1
 90
        8
176
     1
 62
     7
176
     1
 40
1.0
176
     1
 90
        1
176
     1
 90
        6
176
     1
 90
        2
176
     1
 62
     7
176
     1
 90
        3
176
     1
 90
        0
176
     1
 90
        0
176
     1
290
     0
176
     1
 90
        1
176
     1
 40
0.0
176
     1
 90
        0
176
     1
290
     0
176
     1
290
     1
176
     1
290
     1
176
     1
290
     0
176
     1
290
     0
176
     1
290
     0
176
     1
290
     0
176
     1
290
     0
176
     1
290
     0
176
     1
 90
       50
176
     1
 40
0.0
176
     1
 40
1.0
176
     1
 90
        0
176
     1
 62
    18
420
        0
176
     1
 90
       50
176
     1
 90
        3
176
     1
 62
     5
420
      255
176
     1
290
     0
176
     1
 90
       50
176
     1
 90
       50
176
     1
 90
       50
176
     1
290
     0
176
     1
 90
       50
176
     1
 62
   256
176
     0
 40
1.0
176
     0
 90
        2
176
     1
  1
strokes_ogs.tif
176
     1
290
     0
176
     1
 40
1.0
176
     1
 40
1.0
176
     1
  0
VISUALSTYLE
  5
3B
102
{ACAD_REACTORS
330
29
102
}
330
29
100
AcDbVisualStyle
  2
Sketchy
 70
    24
177
     3
291
     0
 70
    58
 90
        1
176
     1
 90
        2
176
     1
 90
        2
176
     1
 90
        0
176
     1
 40
0.6
176
     1
 40
30.0
176
     1
 62
     7
420
 16777215
176
     1
 90
        2
176
     1
 90
        2
176
     1
 62
     7
176
     1
 62
     7
176
     1
 90
        1
176
     1
 90
        1
176
     1
 40
40.0
176
     1
 90
       11
176
     1
 62
     7
176
     1
 40
1.0
176
     1
 90
        1
176
     1
 90
        6
176
     1
 90
        2
176
     1
 62
     7
176
     1
 90
        6
176
     1
 90
        0
176
     1
 90
        0
176
     1
290
     0
176
     1
 90
        1
176
     1
 40
0.0
176
     1
 90
        0
176
     1
290
     0
176
     1
290
     1
176
     1
290
     1
176
     1
290
     0
176
     1
290
     0
176
     1
290
     0
176
     1
290
     0
176
     1
290
     0
176
     1
290
     0
176
     1
 90
       50
176
     1
 40
0.0
176
     1
 40
1.0
176
     1
 90
        0
176
     1
 62
    18
420
        0
176
     1
 90
       50
176
     1
 90
        3
176
     1
 62
     5
420
      255
176
     1
290
     0
176
     1
 90
       50
176
     1
 90
       50
176
     1
 90
       50
176
     1
290
     0
176
     1
 90
       50
176
     1
 62
   256
176
     0
 40
1.0
176
     0
 90
        2
176
     1
  1
strokes_ogs.tif
176
     1
290
     0
176
     1
 40
1.0
176
     1
 40
1.0
176
     1
  0
VISUALSTYLE
  5
36
102
{ACAD_REACTORS
330
29
102
}
330
29
100
AcDbVisualStyle
  2
Thicken
 70
    13
177
     3
291
     1
 70
    58
 90
        2
176
     1
 90
        2
176
     1
 90
        0
176
     1
 90
        0
176
     1
 40
0.6
176
     1
 40
30.0
176
     1
 62
     7
420
 16777215
176
     1
 90
        1
176
     1
 90
        4
176
     1
 62
     7
176
     1
 62
   257
176
     1
 90
        1
176
     1
 90
        1
176
     1
 40
1.0
176
     1
 90
       12
176
     1
 62
     7
176
     1
 40
1.0
176
     1
 90
        1
176
     1
 90
        6
176
     1
 90
        2
176
     1
 62
     7
176
     1
 90
        5
176
     1
 90
        0
176
     1
 90
        0
176
     1
290
     0
176
     1
 90
        1
176
     1
 40
0.0
176
     1
 90
        0
176
     1
290
     0
176
     1
290
     1
176
     1
290
     1
176
     1
290
     0
176
     1
290
     0
176
     1
290
     0
176
     1
290
     0
176
     1
290
     0
176
     1
290
     0
176
     1
 90
       50
176
     1
 40
0.0
176
     1
 40
1.0
176
     1
 90
        0
176
     1
 62
    18
420
        0
176
     1
 90
       50
176
     1
 90
        3
176
     1
 62
     5
420
      255
176
     1
290
     0
176
     1
 90
       50
176
     1
 90
       50
176
     1
 90
       50
176
     1
290
     0
176
     1
 90
       50
176
     1
 62
   256
176
     0
 40
1.0
176
     0
 90
        2
176
     1
  1
strokes_ogs.tif
176
     1
290
     0
176
     1
 40
1.0
176
     1
 40
1.0
176
     1
  0
VISUALSTYLE
  5
30
102
{ACAD_REACTORS
330
29
102
}
330
29
100
AcDbVisualStyle
  2
Wireframe
 70
     5
177
     3
291
     0
 70
    58
 90
        0
176
     1
 90
        2
176
     1
 90
        0
176
     1
 90
        0
176
     1
 40
0.6
176
     1
 40
30.0
176
     1
 62
     7
420
 16777215
176
     1
 90
        1
176
     1
 90
        4
176
     1
 62
     7
176
     1
 62
   257
176
     1
 90
        1
176
     1
 90
        1
176
     1
 40
1.0
176
     1
 90
        0
176
     1
 62
   257
176
     1
 40
1.0
176
     1
 90
        1
176
     1
 90
        6
176
     1
 90
        2
176
     1
 62
     7
176
     1
 90
        3
176
     1
 90
        0
176
     1
 90
        0
176
     1
290
     0
176
     1
 90
        1
176
     1
 40
0.0
176
     1
 90
        0
176
     1
290
     0
176
     1
290
     1
176
     1
290
     1
176
     1
290
     0
176
     1
290
     0
176
     1
290
     0
176
     1
290
     0
176
     1
290
     0
176
     1
290
     0
176
     1
 90
       50
176
     1
 40
0.0
176
     1
 40
1.0
176
     1
 90
        0
176
     1
 62
    18
420
        0
176
     1
 90
       50
176
     1
 90
        3
176
     1
 62
     5
420
      255
176
     1
290
     0
176
     1
 90
       50
176
     1
 90
       50
176
     1
 90
       50
176
     1
290
     0
176
     1
 90
       50
176
     1
 62
   256
176
     0
 40
1.0
176
     0
 90
        2
176
     1
  1
strokes_ogs.tif
176
     1
290
     0
176
     1
 40
1.0
176
     1
 40
1.0
176
     1
  0
VISUALSTYLE
  5
3C
102
{ACAD_REACTORS
330
29
102
}
330
29
100
AcDbVisualStyle
  2
X-Ray
 70
    25
177
     3
291
     0
 70
    58
 90
        2
176
     1
 90
        2
176
     1
 90
        1
176
     1
 90
        1
176
     1
 40
0.5
176
     1
 40
30.0
176
     1
 62
     7
420
 16777215
176
     1
 90
        1
176
     1
 90
        0
176
     1
 62
     7
176
     1
 62
   257
176
     1
 90
        1
176
     1
 90
        1
176
     1
 40
1.0
176
     1
 90
        8
176
     1
 62
     7
176
     1
 40
1.0
176
     1
 90
        1
176
     1
 90
        6
176
     1
 90
        2
176
     1
 62
     7
176
     1
 90
        3
176
     1
 90
        0
176
     1
 90
        0
176
     1
290
     0
176
     1
 90
       13
176
     1
 40
0.0
176
     1
 90
        0
176
     1
290
     0
176
     1
290
     1
176
     1
290
     1
176
     1
290
     0
176
     1
290
     0
176
     1
290
     0
176
     1
290
     0
176
     1
290
     0
176
     1
290
     0
176
     1
 90
       50
176
     1
 40
0.0
176
     1
 40
1.0
176
     1
 90
        0
176
     1
 62
    18
420
        0
176
     1
 90
       50
176
     1
 90
        3
176
     1
 62
     5
420
      255
176
     1
290
     0
176
     1
 90
       50
176
     1
 90
       50
176
     1
 90
       50
176
     1
290
     0
176
     1
 90
       50
176
     1
 62
   256
176
     0
 40
1.0
176
     0
 90
        2
176
     1
  1
strokes_ogs.tif
176
     1
290
     0
176
     1
 40
1.0
176
     1
 40
1.0
176
     1
  0
DICTIONARYVAR
  5
81
102
{ACAD_REACTORS
330
7C
102
}
330
7C
100
DictionaryVariables
280
     0
  1
1:1
  0
DICTIONARYVAR
  5
7E
102
{ACAD_REACTORS
330
7C
102
}
330
7C
100
DictionaryVariables
280
     0
  1
STANDARD
  0
DICTIONARYVAR
  5
7D
102
{ACAD_REACTORS
330
7C
102
}
330
7C
100
DictionaryVariables
280
     0
  1
STANDARD
  0
DICTIONARYVAR
  5
7F
102
{ACAD_REACTORS
330
7C
102
}
330
7C
100
DictionaryVariables
280
     0
  1
Imperial24
  0
DICTIONARYVAR
  5
80
102
{ACAD_REACTORS
330
7C
102
}
330
7C
100
DictionaryVariables
280
     0
  1
Imperial24
  0
XRECORD
  5
3CF
102
{ACAD_REACTORS
330
3CB
102
}
330
3CB
100
AcDbXrecord
280
     1
  1
BUILDING_ID
  1
Progetto per messa in tavola DXF, DWG
  1
FLOOR_ID
  1
694395
  0
XRECORD
  5
3CD
102
{ACAD_REACTORS
330
3CB
102
}
330
3CB
100
AcDbXrecord
280
     1
  1
-2001160
  1
Apparecchi idraulici
  0
XRECORD
  5
3CE
102
{ACAD_REACTORS
330
3CB
102
}
330
3CB
100
AcDbXrecord
280
     1
  1
790271
  1
Body
  0
XRECORD
  5
3CC
102
{ACAD_REACTORS
330
3CB
102
}
330
3CB
100
AcDbXrecord
280
     1
  1
859151
  1
Automatic flow rate regulator valve_Caleffi_121 DN15 : 1/2''
  0
DICTIONARY
  5
1A
330
19
100
AcDbDictionary
280
     1
281
     1
  3
BUMPTILE
360
1C
  3
DIFFUSETILE
360
1B
  3
OPACITYTILE
360
1F
  3
REFLECTIONTILE
360
1E
  3
REFRACTIONTILE
360
20
  3
SPECULARTILE
360
1D
  0
DICTIONARY
  5
12
330
11
100
AcDbDictionary
280
     1
281
     1
  3
BUMPTILE
360
14
  3
DIFFUSETILE
360
13
  3
OPACITYTILE
360
17
  3
REFLECTIONTILE
360
16
  3
REFRACTIONTILE
360
18
  3
SPECULARTILE
360
15
  0
DICTIONARY
  5
22
330
21
100
AcDbDictionary
280
     1
281
     1
  3
BUMPTILE
360
24
  3
DIFFUSETILE
360
23
  3
OPACITYTILE
360
27
  3
REFLECTIONTILE
360
26
  3
REFRACTIONTILE
360
28
  3
SPECULARTILE
360
25
  0
DICTIONARY
  5
3D2
330
65
100
AcDbDictionary
280
     1
281
     1
  3
ACAD_ROUNDTRIP_2008_TABLESTYLE_CELLSTYLEMAP
360
3D3
  0
XRECORD
  5
1C
102
{ACAD_REACTORS
330
1A
102
}
330
1A
100
AcDbXrecord
280
     1
270
     1
271
     1
  0
XRECORD
  5
1B
102
{ACAD_REACTORS
330
1A
102
}
330
1A
100
AcDbXrecord
280
     1
270
     1
271
     1
  0
XRECORD
  5
1F
102
{ACAD_REACTORS
330
1A
102
}
330
1A
100
AcDbXrecord
280
     1
270
     1
271
     1
  0
XRECORD
  5
1E
102
{ACAD_REACTORS
330
1A
102
}
330
1A
100
AcDbXrecord
280
     1
270
     1
271
     1
  0
XRECORD
  5
20
102
{ACAD_REACTORS
330
1A
102
}
330
1A
100
AcDbXrecord
280
     1
270
     1
271
     1
  0
XRECORD
  5
1D
102
{ACAD_REACTORS
330
1A
102
}
330
1A
100
AcDbXrecord
280
     1
270
     1
271
     1
  0
XRECORD
  5
14
102
{ACAD_REACTORS
330
12
102
}
330
12
100
AcDbXrecord
280
     1
270
     1
271
     1
  0
XRECORD
  5
13
102
{ACAD_REACTORS
330
12
102
}
330
12
100
AcDbXrecord
280
     1
270
     1
271
     1
  0
XRECORD
  5
17
102
{ACAD_REACTORS
330
12
102
}
330
12
100
AcDbXrecord
280
     1
270
     1
271
     1
  0
XRECORD
  5
16
102
{ACAD_REACTORS
330
12
102
}
330
12
100
AcDbXrecord
280
     1
270
     1
271
     1
  0
XRECORD
  5
18
102
{ACAD_REACTORS
330
12
102
}
330
12
100
AcDbXrecord
280
     1
270
     1
271
     1
  0
XRECORD
  5
15
102
{ACAD_REACTORS
330
12
102
}
330
12
100
AcDbXrecord
280
     1
270
     1
271
     1
  0
XRECORD
  5
24
102
{ACAD_REACTORS
330
22
102
}
330
22
100
AcDbXrecord
280
     1
270
     1
271
     1
  0
XRECORD
  5
23
102
{ACAD_REACTORS
330
22
102
}
330
22
100
AcDbXrecord
280
     1
270
     1
271
     1
  0
XRECORD
  5
27
102
{ACAD_REACTORS
330
22
102
}
330
22
100
AcDbXrecord
280
     1
270
     1
271
     1
  0
XRECORD
  5
26
102
{ACAD_REACTORS
330
22
102
}
330
22
100
AcDbXrecord
280
     1
270
     1
271
     1
  0
XRECORD
  5
28
102
{ACAD_REACTORS
330
22
102
}
330
22
100
AcDbXrecord
280
     1
270
     1
271
     1
  0
XRECORD
  5
25
102
{ACAD_REACTORS
330
22
102
}
330
22
100
AcDbXrecord
280
     1
270
     1
271
     1
  0
CELLSTYLEMAP
  5
3D3
102
{ACAD_REACTORS
330
3D2
102
}
330
3D2
100
AcDbCellStyleMap
 90
        3
300
CELLSTYLE
  1
TABLEFORMAT_BEGIN
 90
        5
170
     1
 91
        0
 92
    32768
 62
   257
 93
        1
300
CONTENTFORMAT
  1
CONTENTFORMAT_BEGIN
 90
        0
 91
        0
 92
      512
 93
        0
300

 40
0.0
140
1.0
 94
        5
 62
     0
340
55
144
0.25
309
CONTENTFORMAT_END
171
     0
 94
        0
309
TABLEFORMAT_END
  1
CELLSTYLE_BEGIN
 90
        1
 91
        1
300
_TITLE
309
CELLSTYLE_END
300
CELLSTYLE
  1
TABLEFORMAT_BEGIN
 90
        5
170
     1
 91
        0
 92
        0
 62
   257
 93
        1
300
CONTENTFORMAT
  1
CONTENTFORMAT_BEGIN
 90
        0
 91
        0
 92
      512
 93
        0
300

 40
0.0
140
1.0
 94
        5
 62
     0
340
55
144
0.18
309
CONTENTFORMAT_END
171
     0
 94
        0
309
TABLEFORMAT_END
  1
CELLSTYLE_BEGIN
 90
        2
 91
        1
300
_HEADER
309
CELLSTYLE_END
300
CELLSTYLE
  1
TABLEFORMAT_BEGIN
 90
        5
170
     1
 91
        0
 92
        0
 62
   257
 93
        1
300
CONTENTFORMAT
  1
CONTENTFORMAT_BEGIN
 90
        0
 91
        0
 92
      512
 93
        0
300

 40
0.0
140
1.0
 94
        2
 62
     0
340
55
144
0.18
309
CONTENTFORMAT_END
171
     0
 94
        0
309
TABLEFORMAT_END
  1
CELLSTYLE_BEGIN
 90
        3
 91
        2
300
_DATA
309
CELLSTYLE_END
  0
ENDSEC
  0
EOF
