  0
SECTION
  2
HEADER
  9
$ACADVER
  1
AC1027
  9
$ACADMAINTVER
 70
    20
  9
$DWGCODEPAGE
  3
ANSI_1252
  9
$REQUIREDVERSIONS
160
                 0
  9
$INSBASE
 10
0.0
 20
0.0
 30
0.0
  9
$EXTMIN
 10
710.6664074431847
 20
1597.245878730055
 30
-0.00000001
  9
$EXTMAX
 10
1416.114353943093
 20
2203.500000000044
 30
0.00000001
  9
$LIMMIN
 10
0.0
 20
0.0
  9
$LIMMAX
 10
12.0
 20
9.0
  9
$ORTHOMODE
 70
     0
  9
$REGENMODE
 70
     1
  9
$FILLMODE
 70
     1
  9
$QTEXTMODE
 70
     0
  9
$MIRRTEXT
 70
     0
  9
$LTSCALE
 40
1.0
  9
$ATTMODE
 70
     1
  9
$TEXTSIZE
 40
0.2
  9
$TRACEWID
 40
0.05
  9
$TEXTSTYLE
  7
Standard
  9
$CLAYER
  8
0
  9
$CELTYPE
  6
ByLayer
  9
$CECOLOR
 62
   256
  9
$CELTSCALE
 40
1.0
  9
$DISPSILH
 70
     0
  9
$DIMSCALE
 40
1.0
  9
$DIMASZ
 40
0.18
  9
$DIMEXO
 40
0.0625
  9
$DIMDLI
 40
0.38
  9
$DIMRND
 40
0.0
  9
$DIMDLE
 40
0.0
  9
$DIMEXE
 40
0.18
  9
$DIMTP
 40
0.0
  9
$DIMTM
 40
0.0
  9
$DIMTXT
 40
0.18
  9
$DIMCEN
 40
0.09
  9
$DIMTSZ
 40
0.0
  9
$DIMTOL
 70
     0
  9
$DIMLIM
 70
     0
  9
$DIMTIH
 70
     1
  9
$DIMTOH
 70
     1
  9
$DIMSE1
 70
     0
  9
$DIMSE2
 70
     0
  9
$DIMTAD
 70
     0
  9
$DIMZIN
 70
     0
  9
$DIMBLK
  1

  9
$DIMASO
 70
     1
  9
$DIMSHO
 70
     1
  9
$DIMPOST
  1

  9
$DIMAPOST
  1

  9
$DIMALT
 70
     0
  9
$DIMALTD
 70
     2
  9
$DIMALTF
 40
25.4
  9
$DIMLFAC
 40
1.0
  9
$DIMTOFL
 70
     0
  9
$DIMTVP
 40
0.0
  9
$DIMTIX
 70
     0
  9
$DIMSOXD
 70
     0
  9
$DIMSAH
 70
     0
  9
$DIMBLK1
  1

  9
$DIMBLK2
  1

  9
$DIMSTYLE
  2
Standard
  9
$DIMCLRD
 70
     0
  9
$DIMCLRE
 70
     0
  9
$DIMCLRT
 70
     0
  9
$DIMTFAC
 40
1.0
  9
$DIMGAP
 40
0.09
  9
$DIMJUST
 70
     0
  9
$DIMSD1
 70
     0
  9
$DIMSD2
 70
     0
  9
$DIMTOLJ
 70
     1
  9
$DIMTZIN
 70
     0
  9
$DIMALTZ
 70
     0
  9
$DIMALTTZ
 70
     0
  9
$DIMUPT
 70
     0
  9
$DIMDEC
 70
     4
  9
$DIMTDEC
 70
     4
  9
$DIMALTU
 70
     2
  9
$DIMALTTD
 70
     2
  9
$DIMTXSTY
  7
Standard
  9
$DIMAUNIT
 70
     0
  9
$DIMADEC
 70
     0
  9
$DIMALTRND
 40
0.0
  9
$DIMAZIN
 70
     0
  9
$DIMDSEP
 70
    46
  9
$DIMATFIT
 70
     3
  9
$DIMFRAC
 70
     0
  9
$DIMLDRBLK
  1

  9
$DIMLUNIT
 70
     2
  9
$DIMLWD
 70
    -2
  9
$DIMLWE
 70
    -2
  9
$DIMTMOVE
 70
     0
  9
$DIMFXL
 40
1.0
  9
$DIMFXLON
 70
     0
  9
$DIMJOGANG
 40
0.7853981633974483
  9
$DIMTFILL
 70
     0
  9
$DIMTFILLCLR
 70
     0
  9
$DIMARCSYM
 70
     0
  9
$DIMLTYPE
  6

  9
$DIMLTEX1
  6

  9
$DIMLTEX2
  6

  9
$DIMTXTDIRECTION
 70
     0
  9
$LUNITS
 70
     2
  9
$LUPREC
 70
     4
  9
$SKETCHINC
 40
0.1
  9
$FILLETRAD
 40
0.0
  9
$AUNITS
 70
     0
  9
$AUPREC
 70
     0
  9
$MENU
  1
.
  9
$ELEVATION
 40
0.0
  9
$PELEVATION
 40
0.0
  9
$THICKNESS
 40
0.0
  9
$LIMCHECK
 70
     0
  9
$CHAMFERA
 40
0.0
  9
$CHAMFERB
 40
0.0
  9
$CHAMFERC
 40
0.0
  9
$CHAMFERD
 40
0.0
  9
$SKPOLY
 70
     0
  9
$TDCREATE
 40
2457576.364965487
  9
$TDUCREATE
 40
2457576.281632153
  9
$TDUPDATE
 40
2457576.364965487
  9
$TDUUPDATE
 40
2457576.281632153
  9
$TDINDWG
 40
0.0000195486
  9
$TDUSRTIMER
 40
0.0000195486
  9
$USRTIMER
 70
     1
  9
$ANGBASE
 50
0.0
  9
$ANGDIR
 70
     0
  9
$PDMODE
 70
     0
  9
$PDSIZE
 40
0.0
  9
$PLINEWID
 40
0.0
  9
$SPLFRAME
 70
     0
  9
$SPLINETYPE
 70
     6
  9
$SPLINESEGS
 70
     8
  9
$HANDSEED
  5
22A
  9
$SURFTAB1
 70
     6
  9
$SURFTAB2
 70
     6
  9
$SURFTYPE
 70
     6
  9
$SURFU
 70
     6
  9
$SURFV
 70
     6
  9
$UCSBASE
  2

  9
$UCSNAME
  2

  9
$UCSORG
 10
0.0
 20
0.0
 30
0.0
  9
$UCSXDIR
 10
1.0
 20
0.0
 30
0.0
  9
$UCSYDIR
 10
0.0
 20
1.0
 30
0.0
  9
$UCSORTHOREF
  2

  9
$UCSORTHOVIEW
 70
     0
  9
$UCSORGTOP
 10
0.0
 20
0.0
 30
0.0
  9
$UCSORGBOTTOM
 10
0.0
 20
0.0
 30
0.0
  9
$UCSORGLEFT
 10
0.0
 20
0.0
 30
0.0
  9
$UCSORGRIGHT
 10
0.0
 20
0.0
 30
0.0
  9
$UCSORGFRONT
 10
0.0
 20
0.0
 30
0.0
  9
$UCSORGBACK
 10
0.0
 20
0.0
 30
0.0
  9
$PUCSBASE
  2

  9
$PUCSNAME
  2

  9
$PUCSORG
 10
0.0
 20
0.0
 30
0.0
  9
$PUCSXDIR
 10
1.0
 20
0.0
 30
0.0
  9
$PUCSYDIR
 10
0.0
 20
1.0
 30
0.0
  9
$PUCSORTHOREF
  2

  9
$PUCSORTHOVIEW
 70
     0
  9
$PUCSORGTOP
 10
0.0
 20
0.0
 30
0.0
  9
$PUCSORGBOTTOM
 10
0.0
 20
0.0
 30
0.0
  9
$PUCSORGLEFT
 10
0.0
 20
0.0
 30
0.0
  9
$PUCSORGRIGHT
 10
0.0
 20
0.0
 30
0.0
  9
$PUCSORGFRONT
 10
0.0
 20
0.0
 30
0.0
  9
$PUCSORGBACK
 10
0.0
 20
0.0
 30
0.0
  9
$USERI1
 70
     0
  9
$USERI2
 70
     0
  9
$USERI3
 70
     0
  9
$USERI4
 70
     0
  9
$USERI5
 70
     0
  9
$USERR1
 40
0.0
  9
$USERR2
 40
0.0
  9
$USERR3
 40
0.0
  9
$USERR4
 40
0.0
  9
$USERR5
 40
0.0
  9
$WORLDVIEW
 70
     1
  9
$SHADEDGE
 70
     3
  9
$SHADEDIF
 70
    70
  9
$TILEMODE
 70
     1
  9
$MAXACTVP
 70
    64
  9
$PINSBASE
 10
0.0
 20
0.0
 30
0.0
  9
$PLIMCHECK
 70
     0
  9
$PEXTMIN
 10
1.000000000000000E+20
 20
1.000000000000000E+20
 30
1.000000000000000E+20
  9
$PEXTMAX
 10
-1.000000000000000E+20
 20
-1.000000000000000E+20
 30
-1.000000000000000E+20
  9
$PLIMMIN
 10
0.0
 20
0.0
  9
$PLIMMAX
 10
12.0
 20
9.0
  9
$UNITMODE
 70
     0
  9
$VISRETAIN
 70
     1
  9
$PLINEGEN
 70
     0
  9
$PSLTSCALE
 70
     1
  9
$TREEDEPTH
 70
  3020
  9
$CMLSTYLE
  2
Standard
  9
$CMLJUST
 70
     0
  9
$CMLSCALE
 40
1.0
  9
$PROXYGRAPHICS
 70
     1
  9
$MEASUREMENT
 70
     1
  9
$CELWEIGHT
370
    -1
  9
$ENDCAPS
280
     0
  9
$JOINSTYLE
280
     0
  9
$LWDISPLAY
290
     0
  9
$INSUNITS
 70
     4
  9
$HYPERLINKBASE
  1

  9
$STYLESHEET
  1

  9
$XEDIT
290
     1
  9
$CEPSNTYPE
380
     0
  9
$PSTYLEMODE
290
     1
  9
$FINGERPRINTGUID
  2
{D6DCA305-FF5E-4E82-A5FC-677641C464BF}
  9
$VERSIONGUID
  2
{522FB7FE-B9C7-4256-9577-8E6C0F96AC40}
  9
$EXTNAMES
290
     1
  9
$PSVPSCALE
 40
0.0
  9
$OLESTARTUP
290
     0
  9
$SORTENTS
280
   127
  9
$INDEXCTL
280
     0
  9
$HIDETEXT
280
     1
  9
$XCLIPFRAME
280
     2
  9
$HALOGAP
280
     0
  9
$OBSCOLOR
 70
   257
  9
$OBSLTYPE
280
     0
  9
$INTERSECTIONDISPLAY
280
     0
  9
$INTERSECTIONCOLOR
 70
   257
  9
$DIMASSOC
280
     2
  9
$PROJECTNAME
  1

  9
$CAMERADISPLAY
290
     0
  9
$LENSLENGTH
 40
50.0
  9
$CAMERAHEIGHT
 40
0.0
  9
$STEPSPERSEC
 40
2.0
  9
$STEPSIZE
 40
6.0
  9
$3DDWFPREC
 40
2.0
  9
$PSOLWIDTH
 40
0.25
  9
$PSOLHEIGHT
 40
4.0
  9
$LOFTANG1
 40
1.570796326794896
  9
$LOFTANG2
 40
1.570796326794896
  9
$LOFTMAG1
 40
0.0
  9
$LOFTMAG2
 40
0.0
  9
$LOFTPARAM
 70
     7
  9
$LOFTNORMALS
280
     1
  9
$LATITUDE
 40
37.795
  9
$LONGITUDE
 40
-122.394
  9
$NORTHDIRECTION
 40
0.0
  9
$TIMEZONE
 70
 -8000
  9
$LIGHTGLYPHDISPLAY
280
     1
  9
$TILEMODELIGHTSYNCH
280
     1
  9
$CMATERIAL
347
11
  9
$SOLIDHIST
280
     0
  9
$SHOWHIST
280
     1
  9
$DWFFRAME
280
     2
  9
$DGNFRAME
280
     0
  9
$REALWORLDSCALE
290
     1
  9
$INTERFERECOLOR
 62
     1
  9
$INTERFEREOBJVS
345
33
  9
$INTERFEREVPVS
346
30
  9
$CSHADOW
280
     0
  9
$SHADOWPLANELOCATION
 40
0.0
  0
ENDSEC
  0
SECTION
  2
CLASSES
  0
CLASS
  1
ACDBDICTIONARYWDFLT
  2
AcDbDictionaryWithDefault
  3
ObjectDBX Classes
 90
        0
 91
        1
280
     0
281
     0
  0
CLASS
  1
MATERIAL
  2
AcDbMaterial
  3
ObjectDBX Classes
 90
     1153
 91
        3
280
     0
281
     0
  0
CLASS
  1
VISUALSTYLE
  2
AcDbVisualStyle
  3
ObjectDBX Classes
 90
     4095
 91
       24
280
     0
281
     0
  0
CLASS
  1
SCALE
  2
AcDbScale
  3
ObjectDBX Classes
 90
     1153
 91
       17
280
     0
281
     0
  0
CLASS
  1
TABLESTYLE
  2
AcDbTableStyle
  3
ObjectDBX Classes
 90
     4095
 91
        1
280
     0
281
     0
  0
CLASS
  1
MLEADERSTYLE
  2
AcDbMLeaderStyle
  3
ACDB_MLEADERSTYLE_CLASS
 90
     4095
 91
        1
280
     0
281
     0
  0
CLASS
  1
ACDBSECTIONVIEWSTYLE
  2
AcDbSectionViewStyle
  3
ObjectDBX Classes
 90
     1025
 91
        1
280
     0
281
     0
  0
CLASS
  1
ACDBDETAILVIEWSTYLE
  2
AcDbDetailViewStyle
  3
ObjectDBX Classes
 90
     1025
 91
        1
280
     0
281
     0
  0
CLASS
  1
RASTERVARIABLES
  2
AcDbRasterVariables
  3
ISM
 90
        0
 91
        1
280
     0
281
     0
  0
CLASS
  1
DICTIONARYVAR
  2
AcDbDictionaryVar
  3
ObjectDBX Classes
 90
        0
 91
        5
280
     0
281
     0
  0
CLASS
  1
CELLSTYLEMAP
  2
AcDbCellStyleMap
  3
ObjectDBX Classes
 90
     1152
 91
        2
280
     0
281
     0
  0
CLASS
  1
SORTENTSTABLE
  2
AcDbSortentsTable
  3
ObjectDBX Classes
 90
        0
 91
        1
280
     0
281
     0
  0
ENDSEC
  0
SECTION
  2
TABLES
  0
TABLE
  2
VPORT
  5
8
330
0
100
AcDbSymbolTable
 70
     1
  0
VPORT
  5
57
330
8
100
AcDbSymbolTableRecord
100
AcDbViewportTableRecord
  2
*Active
 70
     0
 10
0.0
 20
0.0
 11
1.0
 21
1.0
 12
1063.390380693139
 22
1900.372939365049
 13
0.0
 23
0.0
 14
1.0
 24
1.0
 15
0.0
 25
0.0
 16
0.0
 26
0.0
 36
1.0
 17
0.0
 27
0.0
 37
0.0
 40
606.2541212699884
 41
1.163617568524117
 42
50.0
 43
0.0
 44
0.0
 50
0.0
 51
0.0
 71
     0
 72
  1000
 73
     1
 74
     1
 75
     0
 76
     0
 77
     0
 78
     0
281
     0
 65
     1
110
0.0
120
0.0
130
0.0
111
1.0
121
0.0
131
0.0
112
0.0
122
1.0
132
0.0
 79
     0
146
0.0
 60
     3
 61
     5
292
     1
282
     1
141
0.0
142
0.0
 63
   250
421
  3355443
  0
ENDTAB
  0
TABLE
  2
LTYPE
  5
5
330
0
100
AcDbSymbolTable
 70
     3
  0
LTYPE
  5
5B
330
5
100
AcDbSymbolTableRecord
100
AcDbLinetypeTableRecord
  2
ByBlock
 70
     0
  3

 72
    65
 73
     0
 40
0.0
  0
LTYPE
  5
5C
330
5
100
AcDbSymbolTableRecord
100
AcDbLinetypeTableRecord
  2
ByLayer
 70
     0
  3

 72
    65
 73
     0
 40
0.0
  0
LTYPE
  5
5D
330
5
100
AcDbSymbolTableRecord
100
AcDbLinetypeTableRecord
  2
Continuous
 70
     0
  3
Solid line
 72
    65
 73
     0
 40
0.0
  0
LTYPE
  5
69
330
5
100
AcDbSymbolTableRecord
100
AcDbLinetypeTableRecord
  2
PHANTOM2
 70
     0
  3
___ _ _ ___ _ _ ___ _ _ ___ _ _
 72
    65
 73
     6
 40
1.25
 49
0.625
 74
     0
 49
-0.125
 74
     0
 49
0.125
 74
     0
 49
-0.125
 74
     0
 49
0.125
 74
     0
 49
-0.125
 74
     0
  0
LTYPE
  5
86
330
5
100
AcDbSymbolTableRecord
100
AcDbLinetypeTableRecord
  2
Nascosto 1_5 mm
 70
     0
  3

 72
    65
 73
     2
 40
2.2
 49
1.5
 74
     0
 49
-0.7000000000000001
 74
     0
  0
ENDTAB
  0
TABLE
  2
LAYER
  5
2
330
0
100
AcDbSymbolTable
 70
     4
  0
LAYER
  5
54
330
2
100
AcDbSymbolTableRecord
100
AcDbLayerTableRecord
  2
0
 70
     0
 62
     7
  6
Continuous
370
    -3
390
F
347
21
348
0
  0
LAYER
  5
85
330
2
100
AcDbSymbolTableRecord
100
AcDbLayerTableRecord
  2
P-SANR-FIXT
 70
     0
 62
     6
  6
Continuous
370
    18
390
F
347
21
348
0
  0
LAYER
  5
88
330
2
100
AcDbSymbolTableRecord
100
AcDbLayerTableRecord
  2
M-PIPE
 70
     0
 62
     3
  6
Continuous
370
    18
390
F
347
21
348
0
  0
ENDTAB
  0
TABLE
  2
STYLE
  5
3
330
0
100
AcDbSymbolTable
 70
     2
  0
STYLE
  5
55
330
3
100
AcDbSymbolTableRecord
100
AcDbTextStyleTableRecord
  2
Standard
 70
     0
 40
0.0
 41
1.0
 50
0.0
 71
     0
 42
0.2
  3
txt
  4

  0
STYLE
  5
5A
330
3
100
AcDbSymbolTableRecord
100
AcDbTextStyleTableRecord
  2
Annotative
 70
     0
 40
0.0
 41
1.0
 50
0.0
 71
     0
 42
0.2
  3
txt
  4

1001
AcadAnnotative
1000
AnnotativeData
1002
{
1070
     1
1070
     1
1002
}
  0
ENDTAB
  0
TABLE
  2
VIEW
  5
6
330
0
100
AcDbSymbolTable
 70
     0
  0
ENDTAB
  0
TABLE
  2
UCS
  5
7
330
0
100
AcDbSymbolTable
 70
     0
  0
ENDTAB
  0
TABLE
  2
APPID
  5
9
330
0
100
AcDbSymbolTable
 70
     3
  0
APPID
  5
56
330
9
100
AcDbSymbolTableRecord
100
AcDbRegAppTableRecord
  2
ACAD
 70
     0
  0
APPID
  5
5E
330
9
100
AcDbSymbolTableRecord
100
AcDbRegAppTableRecord
  2
AcadAnnotative
 70
     0
  0
APPID
  5
79
330
9
100
AcDbSymbolTableRecord
100
AcDbRegAppTableRecord
  2
REVIT
 70
     0
  0
ENDTAB
  0
TABLE
  2
DIMSTYLE
  5
A
330
0
100
AcDbSymbolTable
 70
     2
100
AcDbDimStyleTable
 71
     0
  0
DIMSTYLE
105
58
330
A
100
AcDbSymbolTableRecord
100
AcDbDimStyleTableRecord
  2
Standard
 70
     0
340
55
  0
DIMSTYLE
105
59
330
A
100
AcDbSymbolTableRecord
100
AcDbDimStyleTableRecord
  2
Annotative
 70
     0
340
55
1001
AcadAnnotative
1000
AnnotativeData
1002
{
1070
     1
1070
     1
1002
}
  0
ENDTAB
  0
TABLE
  2
BLOCK_RECORD
  5
1
330
0
100
AcDbSymbolTable
 70
     4
  0
BLOCK_RECORD
  5
71
102
{ACAD_XDICTIONARY
360
225
102
}
330
1
100
AcDbSymbolTableRecord
100
AcDbBlockTableRecord
  2
*Model_Space
340
74
 70
     0
280
     1
281
     0
  0
BLOCK_RECORD
  5
6D
330
1
100
AcDbSymbolTableRecord
100
AcDbBlockTableRecord
  2
*Paper_Space
340
70
 70
     0
280
     1
281
     0
  0
BLOCK_RECORD
  5
75
330
1
100
AcDbSymbolTableRecord
100
AcDbBlockTableRecord
  2
*Paper_Space0
340
78
 70
     0
280
     1
281
     0
  0
BLOCK_RECORD
  5
87
330
1
100
AcDbSymbolTableRecord
100
AcDbBlockTableRecord
  2
Automatic flow rate regulator valve_Caleffi_121 DN15 - DN65-938676-Est - Idraulica
340
0
102
{BLKREFS
331
140
102
}
 70
     0
280
     1
281
     0
  0
BLOCK_RECORD
  5
141
330
1
100
AcDbSymbolTableRecord
100
AcDbBlockTableRecord
  2
Automatic flow rate regulator valve_Caleffi_121 DN15 - 2__-935543-Est - Idraulica
340
0
102
{BLKREFS
331
1DE
102
}
 70
     0
280
     1
281
     0
  0
BLOCK_RECORD
  5
1DF
330
1
100
AcDbSymbolTableRecord
100
AcDbBlockTableRecord
  2
Automatic flow rate regulator valve_Caleffi_121 DN15 - 2__-V1-Est - Idraulica
340
0
102
{BLKREFS
331
21E
102
}
 70
     0
280
     1
281
     0
  0
ENDTAB
  0
ENDSEC
  0
SECTION
  2
BLOCKS
  0
BLOCK
  5
72
330
71
100
AcDbEntity
  8
0
100
AcDbBlockBegin
  2
*Model_Space
 70
     0
 10
0.0
 20
0.0
 30
0.0
  3
*Model_Space
  1

  0
ENDBLK
  5
73
330
71
100
AcDbEntity
  8
0
100
AcDbBlockEnd
  0
BLOCK
  5
6E
330
6D
100
AcDbEntity
 67
     1
  8
0
100
AcDbBlockBegin
  2
*Paper_Space
 70
     0
 10
0.0
 20
0.0
 30
0.0
  3
*Paper_Space
  1

  0
ENDBLK
  5
6F
330
6D
100
AcDbEntity
 67
     1
  8
0
100
AcDbBlockEnd
  0
BLOCK
  5
76
330
75
100
AcDbEntity
 67
     1
  8
0
100
AcDbBlockBegin
  2
*Paper_Space0
 70
     0
 10
0.0
 20
0.0
 30
0.0
  3
*Paper_Space0
  1

  0
ENDBLK
  5
77
330
75
100
AcDbEntity
 67
     1
  8
0
100
AcDbBlockEnd
  0
BLOCK
  5
13E
330
87
100
AcDbEntity
  8
0
100
AcDbBlockBegin
  2
Automatic flow rate regulator valve_Caleffi_121 DN15 - DN65-938676-Est - Idraulica
 70
     0
 10
0.0
 20
0.0
 30
0.0
  3
Automatic flow rate regulator valve_Caleffi_121 DN15 - DN65-938676-Est - Idraulica
  1

  0
ARC
  5
89
330
87
100
AcDbEntity
  8
M-PIPE
100
AcDbCircle
 10
858.6664074431697
 20
2000.000000000015
 30
0.0
 40
35.49999999999986
100
AcDbArc
 50
0.0000000000004548
 51
180.0000000000001
1001
REVIT
1002
{
1070
     3
1000
923159
1002
}
  0
ARC
  5
8A
330
87
100
AcDbEntity
  8
M-PIPE
100
AcDbCircle
 10
858.6664074431697
 20
2000.000000000015
 30
0.0
 40
35.5000000000001
100
AcDbArc
 50
180.0000000000001
 51
0.0000000000000509
1001
REVIT
1002
{
1070
     3
1000
923159
1002
}
  0
ARC
  5
8B
330
87
100
AcDbEntity
  8
M-PIPE
100
AcDbCircle
 10
858.6664074431698
 20
2000.000000000015
 30
0.0
 40
32.49999999999999
100
AcDbArc
 50
0.000000000000485
 51
180.0000000000001
1001
REVIT
1002
{
1070
     3
1000
923159
1002
}
  0
ARC
  5
8C
330
87
100
AcDbEntity
  8
M-PIPE
100
AcDbCircle
 10
858.6664074431698
 20
2000.000000000015
 30
0.0
 40
32.5
100
AcDbArc
 50
180.0
 51
0.0
1001
REVIT
1002
{
1070
     3
1000
923159
1002
}
  0
ARC
  5
8D
330
87
100
AcDbEntity
  8
M-PIPE
100
AcDbCircle
 10
772.6664074431698
 20
2000.000000000015
 30
0.0
 40
35.49999999999994
100
AcDbArc
 50
0.0000000000004644
 51
180.0000000000001
1001
REVIT
1002
{
1070
     3
1000
923159
1002
}
  0
ARC
  5
8E
330
87
100
AcDbEntity
  8
M-PIPE
100
AcDbCircle
 10
772.6664074431698
 20
2000.000000000015
 30
0.0
 40
35.49999999999999
100
AcDbArc
 50
180.0000000000001
 51
0.0000000000001018
1001
REVIT
1002
{
1070
     3
1000
923159
1002
}
  0
ARC
  5
8F
330
87
100
AcDbEntity
  8
M-PIPE
100
AcDbCircle
 10
772.66640744317
 20
2000.000000000015
 30
0.0
 40
32.50000000000009
100
AcDbArc
 50
0.0000000000004993
 51
180.0000000000001
1001
REVIT
1002
{
1070
     3
1000
923159
1002
}
  0
ARC
  5
90
330
87
100
AcDbEntity
  8
M-PIPE
100
AcDbCircle
 10
772.66640744317
 20
2000.000000000015
 30
0.0
 40
32.49999999999989
100
AcDbArc
 50
180.0
 51
0.0
1001
REVIT
1002
{
1070
     3
1000
923159
1002
}
  0
LINE
  5
91
330
87
100
AcDbEntity
  8
P-SANR-FIXT
100
AcDbLine
 10
793.6664074431861
 20
1913.999999999996
 30
0.0
 11
793.6664074431861
 21
1907.154700538336
 31
0.0
  0
LINE
  5
92
330
87
100
AcDbEntity
  8
P-SANR-FIXT
100
AcDbLine
 10
837.6664074431884
 20
1907.154700538336
 30
0.0
 11
837.6664074431884
 21
1913.999999999996
 31
0.0
  0
LINE
  5
93
330
87
100
AcDbEntity
  8
P-SANR-FIXT
100
AcDbLine
 10
835.6664074431861
 20
1905.999999999956
 30
0.0
 11
837.5694912138289
 21
1907.098745927227
 31
0.0
  0
LINE
  5
94
330
87
100
AcDbEntity
  8
P-SANR-FIXT
100
AcDbLine
 10
837.6198901195305
 20
1907.127843749001
 30
0.0
 11
837.6664074431884
 21
1907.154700538336
 31
0.0
  0
LINE
  5
95
330
87
100
AcDbEntity
  8
P-SANR-FIXT
100
AcDbLine
 10
793.666407443186
 20
1907.154700538336
 30
0.0
 11
793.7129247668438
 21
1907.127843749
 31
0.0
  0
LINE
  5
96
330
87
100
AcDbEntity
  8
P-SANR-FIXT
100
AcDbLine
 10
793.7633236725457
 20
1907.098745927226
 30
0.0
 11
795.6664074431865
 21
1905.999999999956
 31
0.0
  0
LINE
  5
97
330
87
100
AcDbEntity
  8
P-SANR-FIXT
100
AcDbLine
 10
797.7384680442471
 20
1905.999999999955
 30
0.0
 11
798.3458993674966
 21
1905.999999999955
 31
0.0
  0
LINE
  5
98
330
87
100
AcDbEntity
  8
P-SANR-FIXT
100
AcDbLine
 10
798.3458993674966
 20
1905.999999999955
 30
0.0
 11
798.9253500957403
 21
1905.999999999955
 31
0.0
  0
LINE
  5
99
330
87
100
AcDbEntity
  8
P-SANR-FIXT
100
AcDbLine
 10
814.4769684946288
 20
1905.999999999955
 30
0.0
 11
815.6664074431853
 21
1905.999999999955
 31
0.0
  0
LINE
  5
9A
330
87
100
AcDbEntity
  8
P-SANR-FIXT
100
AcDbLine
 10
815.6664074431853
 20
1905.999999999955
 30
0.0
 11
816.8558463917452
 21
1905.999999999955
 31
0.0
  0
LINE
  5
9B
330
87
100
AcDbEntity
  8
P-SANR-FIXT
100
AcDbLine
 10
832.4074647906721
 20
1905.999999999955
 30
0.0
 11
832.9869155188736
 21
1905.999999999955
 31
0.0
  0
LINE
  5
9C
330
87
100
AcDbEntity
  8
P-SANR-FIXT
100
AcDbLine
 10
832.9869155188736
 20
1905.999999999955
 30
0.0
 11
833.5943468420888
 21
1905.999999999955
 31
0.0
  0
LINE
  5
9D
330
87
100
AcDbEntity
  8
P-SANR-FIXT
100
AcDbLine
 10
835.6664074431847
 20
1905.999999999955
 30
0.0
 11
832.9869155188736
 21
1905.999999999955
 31
0.0
  0
LINE
  5
9E
330
87
100
AcDbEntity
  8
P-SANR-FIXT
100
AcDbLine
 10
832.9869155188736
 20
1905.999999999955
 30
0.0
 11
815.6664074431851
 21
1905.999999999955
 31
0.0
  0
LINE
  5
9F
330
87
100
AcDbEntity
  8
P-SANR-FIXT
100
AcDbLine
 10
815.6664074431851
 20
1905.999999999955
 30
0.0
 11
798.3458993674966
 21
1905.999999999955
 31
0.0
  0
LINE
  5
A0
330
87
100
AcDbEntity
  8
P-SANR-FIXT
100
AcDbLine
 10
798.3458993674966
 20
1905.999999999955
 30
0.0
 11
795.6664074431854
 21
1905.999999999955
 31
0.0
  0
LINE
  5
A1
330
87
100
AcDbEntity
  8
P-SANR-FIXT
100
AcDbLine
 10
793.7633236725447
 20
1913.999999999995
 30
0.0
 11
793.7768420712608
 21
1913.999999999995
 31
0.0
  0
LINE
  5
A2
330
87
100
AcDbEntity
  8
P-SANR-FIXT
100
AcDbLine
 10
802.9284750624153
 20
1913.999999999995
 30
0.0
 11
804.1608835480362
 21
1913.999999999995
 31
0.0
  0
LINE
  5
A3
330
87
100
AcDbEntity
  8
P-SANR-FIXT
100
AcDbLine
 10
805.6676471257915
 20
1913.999999999995
 30
0.0
 11
806.5012560533144
 21
1913.999999999995
 31
0.0
  0
LINE
  5
A4
330
87
100
AcDbEntity
  8
P-SANR-FIXT
100
AcDbLine
 10
824.8315588330568
 20
1913.999999999995
 30
0.0
 11
824.9919395701132
 21
1913.999999999995
 31
0.0
  0
LINE
  5
A5
330
87
100
AcDbEntity
  8
P-SANR-FIXT
100
AcDbLine
 10
825.6651677605779
 20
1913.999999999995
 30
0.0
 11
826.6664074431862
 21
1913.999999999995
 31
0.0
  0
LINE
  5
A6
330
87
100
AcDbEntity
  8
P-SANR-FIXT
100
AcDbLine
 10
827.1719313383334
 20
1913.999999999995
 30
0.0
 11
828.404339823956
 21
1913.999999999995
 31
0.0
  0
LINE
  5
A7
330
87
100
AcDbEntity
  8
P-SANR-FIXT
100
AcDbLine
 10
837.5559728151085
 20
1913.999999999995
 30
0.0
 11
837.5694912138277
 21
1913.999999999995
 31
0.0
  0
LINE
  5
A8
330
87
100
AcDbEntity
  8
P-SANR-FIXT
100
AcDbLine
 10
793.6664074431851
 20
1907.154700538336
 30
0.0
 11
793.7633236725445
 21
1907.154700538336
 31
0.0
  0
LINE
  5
A9
330
87
100
AcDbEntity
  8
P-SANR-FIXT
100
AcDbLine
 10
793.7633236725447
 20
1907.154700538335
 30
0.0
 11
793.7633236725447
 21
1913.999999999995
 31
0.0
  0
SPLINE
  5
AA
330
87
100
AcDbEntity
  8
P-SANR-FIXT
100
AcDbSpline
210
0.0
220
0.0
230
1.0
 70
     8
 71
     3
 72
     9
 73
     5
 74
     0
 42
0.000000001
 43
0.0000000001
 40
0.0
 40
0.0
 40
0.0
 40
0.0
 40
0.5
 40
1.0
 40
1.0
 40
1.0
 40
1.0
 10
793.7633236725447
 20
1907.154700538335
 30
0.0
 10
794.515951406818
 20
1906.779719615322
 30
0.0
 10
796.0323417569139
 20
1906.212288602579
 30
0.0
 10
797.571001870108
 20
1906.009919256402
 30
0.0
 10
798.3458993674796
 20
1905.999999999955
 30
0.0
  0
SPLINE
  5
AB
330
87
100
AcDbEntity
  8
P-SANR-FIXT
100
AcDbSpline
210
0.0
220
0.0
230
1.0
 70
     8
 71
     3
 72
     9
 73
     5
 74
     0
 42
0.000000001
 43
0.0000000001
 40
0.0
 40
0.0
 40
0.0
 40
0.0
 40
0.5
 40
1.0
 40
1.0
 40
1.0
 40
1.0
 10
798.3458993674796
 20
1905.999999999955
 30
0.0
 10
799.1207968648514
 20
1906.009919256402
 30
0.0
 10
800.6594569780457
 20
1906.212288602579
 30
0.0
 10
802.1758473281419
 20
1906.779719615322
 30
0.0
 10
802.9284750624155
 20
1907.154700538336
 30
0.0
  0
LINE
  5
AC
330
87
100
AcDbEntity
  8
P-SANR-FIXT
100
AcDbLine
 10
802.9284750624153
 20
1907.154700538336
 30
0.0
 11
802.9284750624153
 21
1913.999999999995
 31
0.0
  0
LINE
  5
AD
330
87
100
AcDbEntity
  8
P-SANR-FIXT
100
AcDbLine
 10
802.9284750624151
 20
1907.154700538336
 30
0.0
 11
806.5012560533142
 21
1907.154700538336
 31
0.0
  0
LINE
  5
AE
330
87
100
AcDbEntity
  8
P-SANR-FIXT
100
AcDbLine
 10
806.5012560533146
 20
1907.154700538336
 30
0.0
 11
806.5012560533146
 21
1913.999999999995
 31
0.0
  0
SPLINE
  5
AF
330
87
100
AcDbEntity
  8
P-SANR-FIXT
100
AcDbSpline
210
0.0
220
0.0
230
1.0
 70
     8
 71
     3
 72
     9
 73
     5
 74
     0
 42
0.000000001
 43
0.0000000001
 40
0.0
 40
0.0
 40
0.0
 40
0.0
 40
0.5
 40
1.0
 40
1.0
 40
1.0
 40
1.0
 10
806.5012560533146
 20
1907.154700538336
 30
0.0
 10
808.0065115218614
 20
1906.779719615323
 30
0.0
 10
811.0392922220531
 20
1906.21228860258
 30
0.0
 10
814.1166124484415
 20
1906.009919256402
 30
0.0
 10
815.6664074431848
 20
1905.999999999955
 30
0.0
  0
SPLINE
  5
B0
330
87
100
AcDbEntity
  8
P-SANR-FIXT
100
AcDbSpline
210
0.0
220
0.0
230
1.0
 70
     8
 71
     3
 72
     9
 73
     5
 74
     0
 42
0.000000001
 43
0.0000000001
 40
0.0
 40
0.0
 40
0.0
 40
0.0
 40
0.5
 40
1.0
 40
1.0
 40
1.0
 40
1.0
 10
815.6664074431848
 20
1905.999999999955
 30
0.0
 10
817.2162024379284
 20
1906.009919256402
 30
0.0
 10
820.2935226643173
 20
1906.21228860258
 30
0.0
 10
823.3263033645098
 20
1906.779719615323
 30
0.0
 10
824.8315588330568
 20
1907.154700538336
 30
0.0
  0
LINE
  5
B1
330
87
100
AcDbEntity
  8
P-SANR-FIXT
100
AcDbLine
 10
824.8315588330568
 20
1907.154700538336
 30
0.0
 11
824.8315588330568
 21
1913.999999999995
 31
0.0
  0
LINE
  5
B2
330
87
100
AcDbEntity
  8
P-SANR-FIXT
100
AcDbLine
 10
824.8315588330568
 20
1907.154700538336
 30
0.0
 11
828.4043398239559
 21
1907.154700538336
 31
0.0
  0
LINE
  5
B3
330
87
100
AcDbEntity
  8
P-SANR-FIXT
100
AcDbLine
 10
828.4043398239562
 20
1907.154700538336
 30
0.0
 11
828.4043398239562
 21
1913.999999999995
 31
0.0
  0
SPLINE
  5
B4
330
87
100
AcDbEntity
  8
P-SANR-FIXT
100
AcDbSpline
210
0.0
220
0.0
230
1.0
 70
     8
 71
     3
 72
     9
 73
     5
 74
     0
 42
0.000000001
 43
0.0000000001
 40
0.0
 40
0.0
 40
0.0
 40
0.0
 40
0.5
 40
1.0
 40
1.0
 40
1.0
 40
1.0
 10
828.4043398239562
 20
1907.154700538336
 30
0.0
 10
829.1569675582296
 20
1906.779719615323
 30
0.0
 10
830.6733579083257
 20
1906.21228860258
 30
0.0
 10
832.2120180215202
 20
1906.009919256403
 30
0.0
 10
832.9869155188919
 20
1905.999999999955
 30
0.0
  0
SPLINE
  5
B5
330
87
100
AcDbEntity
  8
P-SANR-FIXT
100
AcDbSpline
210
0.0
220
0.0
230
1.0
 70
     8
 71
     3
 72
     9
 73
     5
 74
     0
 42
0.000000001
 43
0.0000000001
 40
0.0
 40
0.0
 40
0.0
 40
0.0
 40
0.5
 40
1.0
 40
1.0
 40
1.0
 40
1.0
 10
832.9869155188919
 20
1905.999999999955
 30
0.0
 10
833.7618130162637
 20
1906.009919256403
 30
0.0
 10
835.300473129458
 20
1906.21228860258
 30
0.0
 10
836.8168634795541
 20
1906.779719615323
 30
0.0
 10
837.5694912138277
 20
1907.154700538336
 30
0.0
  0
LINE
  5
B6
330
87
100
AcDbEntity
  8
P-SANR-FIXT
100
AcDbLine
 10
837.5694912138277
 20
1907.154700538336
 30
0.0
 11
837.5694912138277
 21
1913.999999999995
 31
0.0
  0
LINE
  5
B7
330
87
100
AcDbEntity
  8
P-SANR-FIXT
100
AcDbLine
 10
837.5694912138277
 20
1907.154700538336
 30
0.0
 11
837.6664074431872
 21
1907.154700538336
 31
0.0
  0
LINE
  5
B8
330
87
100
AcDbEntity
  8
P-SANR-FIXT
100
AcDbLine
 10
786.7380330906388
 20
2203.500000000044
 30
0.0
 11
786.1664074431826
 21
2202.928374352588
 31
0.0
  0
LINE
  5
B9
330
87
100
AcDbEntity
  8
P-SANR-FIXT
100
AcDbLine
 10
845.1664074431899
 20
2202.928374352588
 30
0.0
 11
844.5947817957337
 21
2203.500000000044
 31
0.0
  0
LINE
  5
BA
330
87
100
AcDbEntity
  8
P-SANR-FIXT
100
AcDbLine
 10
786.1664074431826
 20
2202.928374352588
 30
0.0
 11
786.1664074431826
 21
2198.999999999996
 31
0.0
  0
LINE
  5
BB
330
87
100
AcDbEntity
  8
P-SANR-FIXT
100
AcDbLine
 10
845.1664074431899
 20
2198.999999999996
 30
0.0
 11
845.1664074431899
 21
2202.928374352588
 31
0.0
  0
LINE
  5
BC
330
87
100
AcDbEntity
  8
P-SANR-FIXT
100
AcDbLine
 10
786.1664074431826
 20
2198.999999999996
 30
0.0
 11
786.7838560214539
 21
2198.499999999993
 31
0.0
  0
LINE
  5
BD
330
87
100
AcDbEntity
  8
P-SANR-FIXT
100
AcDbLine
 10
844.5489588649188
 20
2198.499999999993
 30
0.0
 11
845.1664074431899
 21
2198.999999999996
 31
0.0
  0
LINE
  5
BE
330
87
100
AcDbEntity
  8
P-SANR-FIXT
100
AcDbLine
 10
844.5947817957325
 20
2203.500000000043
 30
0.0
 11
786.7380330906377
 21
2203.500000000043
 31
0.0
  0
LINE
  5
BF
330
87
100
AcDbEntity
  8
P-SANR-FIXT
100
AcDbLine
 10
786.1664074431813
 20
2202.928374352586
 30
0.0
 11
845.1664074431889
 21
2202.928374352586
 31
0.0
  0
LINE
  5
C0
330
87
100
AcDbEntity
  8
P-SANR-FIXT
100
AcDbLine
 10
786.1664074431813
 20
2198.999999999996
 30
0.0
 11
845.1664074431889
 21
2198.999999999996
 31
0.0
  0
LINE
  5
C1
330
87
100
AcDbEntity
  8
P-SANR-FIXT
100
AcDbLine
 10
786.1664074431761
 20
2198.499999999993
 30
0.0
 11
783.9836999772252
 21
2073.452773024511
 31
0.0
  0
LINE
  5
C2
330
87
100
AcDbEntity
  8
P-SANR-FIXT
100
AcDbLine
 10
847.3491149091472
 20
2073.452773024511
 30
0.0
 11
845.1664074431963
 21
2198.499999999993
 31
0.0
  0
LWPOLYLINE
  5
C3
330
87
100
AcDbEntity
  8
P-SANR-FIXT
100
AcDbPolyline
 90
       27
 70
   128
 43
0.0
 10
847.3491149091472
 20
2073.452773024511
 10
847.3566033172712
 20
2073.252926606742
 10
847.3720774606533
 20
2073.053539501247
 10
847.3955125839657
 20
2072.85493068486
 10
847.4268711960096
 20
2072.657417889321
 10
847.4661031296957
 20
2072.461317092968
 10
847.5131456222991
 20
2072.266942015243
 10
847.5679234158667
 20
2072.074603614804
 10
847.6303488776137
 20
2071.884609592065
 10
847.7003221401188
 20
2071.697263896931
 10
847.7777312610886
 20
2071.512866242548
 10
847.8624524024423
 20
2071.331711625828
 10
847.954350028427
 20
2071.154089855514
 10
848.0532771224444
 20
2070.980285088548
 10
848.1590754222482
 20
2070.810575375479
 10
848.2715756731268
 20
2070.645232215647
 10
848.3905978986783
 20
2070.484520122835
 10
848.5159516887318
 20
2070.328696202109
 10
848.6474365039637
 20
2070.178009738502
 10
848.7848419967182
 20
2070.03270179821
 10
848.9279483475186
 20
2069.89300484294
 10
849.0765266167315
 20
2069.75914235802
 10
849.230339110821
 20
2069.631328494871
 10
849.3891397626081
 20
2069.509767728408
 10
849.5526745249259
 20
2069.394654529926
 10
849.7206817770397
 20
2069.286173055986
 10
849.8483533849292
 20
2069.209908037775
  0
LWPOLYLINE
  5
C4
330
87
100
AcDbEntity
  8
P-SANR-FIXT
100
AcDbPolyline
 90
       27
 70
   128
 43
0.0
 10
781.4844615014433
 20
2069.209908037775
 10
781.655620664526
 20
2069.313345013001
 10
781.8225065427647
 20
2069.423543790651
 10
781.9848521543546
 20
2069.540328076189
 10
782.142397780949
 20
2069.663511039671
 10
782.2948913831533
 20
2069.792895614632
 10
782.4420890037343
 20
2069.928274813353
 10
782.5837551578995
 20
2070.069432057996
 10
782.7196632100227
 20
2070.21614152708
 10
782.8495957362126
 20
2070.368168516753
 10
782.9733448721452
 20
2070.525269816261
 10
783.0907126456008
 20
2070.687194097038
 10
783.2015112931793
 20
2070.853682314777
 10
783.3055635606803
 20
2071.024468123845
 10
783.4027029866726
 20
2071.19927830338
 10
783.4927741687964
 20
2071.377833194385
 10
783.5756330123745
 20
2071.559847147125
 10
783.6511469609328
 20
2071.745028978103
 10
783.7191952082624
 20
2071.933082435892
 10
783.7796688916836
 20
2072.123706675076
 10
783.8324712662037
 20
2072.316596737537
 10
783.8775178592871
 20
2072.511444040322
 10
783.9147366059941
 20
2072.707936869313
 10
783.9440679642698
 20
2072.905760877898
 10
783.9654650101977
 20
2073.104599589865
 10
783.9788935130693
 20
2073.304134905691
 10
783.9836999772252
 20
2073.452773024511
  0
LINE
  5
C5
330
87
100
AcDbEntity
  8
P-SANR-FIXT
100
AcDbLine
 10
781.4844615014433
 20
2069.209908037775
 30
0.0
 11
764.6664074431823
 21
2059.499999999992
 31
0.0
  0
LINE
  5
C6
330
87
100
AcDbEntity
  8
P-SANR-FIXT
100
AcDbLine
 10
866.6664074431903
 20
2059.499999999992
 30
0.0
 11
849.8483533849292
 21
2069.209908037775
 31
0.0
  0
LINE
  5
C7
330
87
100
AcDbEntity
  8
P-SANR-FIXT
100
AcDbLine
 10
760.8331523694958
 20
2059.499999999992
 30
0.0
 11
760.8331523694958
 21
2039.999999999996
 31
0.0
  0
LINE
  5
C8
330
87
100
AcDbEntity
  8
P-SANR-FIXT
100
AcDbLine
 10
870.3331523694957
 20
2039.999999999996
 30
0.0
 11
870.3331523694957
 21
2059.499999999992
 31
0.0
  0
LINE
  5
C9
330
87
100
AcDbEntity
  8
P-SANR-FIXT
100
AcDbLine
 10
786.1664074431748
 20
2198.499999999993
 30
0.0
 11
845.1664074431953
 21
2198.499999999993
 31
0.0
  0
LINE
  5
CA
330
87
100
AcDbEntity
  8
P-SANR-FIXT
100
AcDbLine
 10
759.3402894737232
 20
2059.499999999991
 30
0.0
 11
760.8331523694945
 21
2059.499999999991
 31
0.0
  0
LINE
  5
CB
330
87
100
AcDbEntity
  8
P-SANR-FIXT
100
AcDbLine
 10
760.8331523694945
 20
2059.499999999991
 30
0.0
 11
782.6192180181587
 21
2059.499999999991
 31
0.0
  0
LINE
  5
CC
330
87
100
AcDbEntity
  8
P-SANR-FIXT
100
AcDbLine
 10
782.6192180181593
 20
2059.499999999991
 30
0.0
 11
789.1039459549122
 21
2059.499999999991
 31
0.0
  0
LINE
  5
CD
330
87
100
AcDbEntity
  8
P-SANR-FIXT
100
AcDbLine
 10
789.1039459549118
 20
2059.499999999991
 30
0.0
 11
842.2081799145693
 21
2059.499999999991
 31
0.0
  0
LINE
  5
CE
330
87
100
AcDbEntity
  8
P-SANR-FIXT
100
AcDbLine
 10
842.2081799145699
 20
2059.499999999991
 30
0.0
 11
847.9473405678682
 21
2059.499999999991
 31
0.0
  0
LINE
  5
CF
330
87
100
AcDbEntity
  8
P-SANR-FIXT
100
AcDbLine
 10
847.9473405678682
 20
2059.499999999991
 30
0.0
 11
870.3331523694945
 21
2059.499999999991
 31
0.0
  0
LINE
  5
D0
330
87
100
AcDbEntity
  8
P-SANR-FIXT
100
AcDbLine
 10
870.3331523694945
 20
2059.499999999991
 30
0.0
 11
871.8260152652671
 21
2059.499999999991
 31
0.0
  0
LINE
  5
D1
330
87
100
AcDbEntity
  8
P-SANR-FIXT
100
AcDbLine
 10
863.409666253805
 20
2039.999999999995
 30
0.0
 11
862.5832673468648
 21
2039.999999999995
 31
0.0
  0
LINE
  5
D2
330
87
100
AcDbEntity
  8
P-SANR-FIXT
100
AcDbLine
 10
862.4430829418129
 20
2039.999999999995
 30
0.0
 11
859.7492919282201
 21
2039.999999999995
 31
0.0
  0
LINE
  5
D3
330
87
100
AcDbEntity
  8
P-SANR-FIXT
100
AcDbLine
 10
859.3863450102281
 20
2039.999999999995
 30
0.0
 11
858.3409367344014
 21
2039.999999999995
 31
0.0
  0
LINE
  5
D4
330
87
100
AcDbEntity
  8
P-SANR-FIXT
100
AcDbLine
 10
858.2912218802068
 20
2039.999999999995
 30
0.0
 11
855.4035658504313
 21
2039.999999999995
 31
0.0
  0
LINE
  5
D5
330
87
100
AcDbEntity
  8
P-SANR-FIXT
100
AcDbLine
 10
855.2360970231219
 20
2039.999999999995
 30
0.0
 11
847.9473405678684
 21
2039.999999999995
 31
0.0
  0
LINE
  5
D6
330
87
100
AcDbEntity
  8
P-SANR-FIXT
100
AcDbLine
 10
847.9473405678682
 20
2039.999999999995
 30
0.0
 11
842.2081799145701
 21
2039.999999999995
 31
0.0
  0
LINE
  5
D7
330
87
100
AcDbEntity
  8
P-SANR-FIXT
100
AcDbLine
 10
833.7894219399606
 20
2039.999999999995
 30
0.0
 11
833.661395817139
 21
2039.999999999995
 31
0.0
  0
LINE
  5
D8
330
87
100
AcDbEntity
  8
P-SANR-FIXT
100
AcDbLine
 10
824.9896156411875
 20
2039.999999999995
 30
0.0
 11
824.8584016320872
 21
2039.999999999995
 31
0.0
  0
LINE
  5
D9
330
87
100
AcDbEntity
  8
P-SANR-FIXT
100
AcDbLine
 10
819.3319810784663
 20
2039.999999999995
 30
0.0
 11
815.6664074431844
 21
2039.999999999995
 31
0.0
  0
LINE
  5
DA
330
87
100
AcDbEntity
  8
P-SANR-FIXT
100
AcDbLine
 10
815.665833404676
 20
2039.999999999995
 30
0.0
 11
811.9998003562688
 21
2039.999999999995
 31
0.0
  0
LINE
  5
DB
330
87
100
AcDbEntity
  8
P-SANR-FIXT
100
AcDbLine
 10
811.0532790778515
 20
2039.999999999995
 30
0.0
 11
810.5266317714715
 21
2039.999999999995
 31
0.0
  0
LINE
  5
DC
330
87
100
AcDbEntity
  8
P-SANR-FIXT
100
AcDbLine
 10
808.3475426537479
 20
2039.999999999995
 30
0.0
 11
806.4720707404491
 21
2039.999999999995
 31
0.0
  0
LINE
  5
DD
330
87
100
AcDbEntity
  8
P-SANR-FIXT
100
AcDbLine
 10
804.7294461664657
 20
2039.999999999995
 30
0.0
 11
801.9550641944331
 21
2039.999999999995
 31
0.0
  0
LINE
  5
DE
330
87
100
AcDbEntity
  8
P-SANR-FIXT
100
AcDbLine
 10
801.1653402086171
 20
2039.999999999995
 30
0.0
 11
797.6705872669029
 21
2039.999999999995
 31
0.0
  0
LINE
  5
DF
330
87
100
AcDbEntity
  8
P-SANR-FIXT
100
AcDbLine
 10
797.5340888014272
 20
2039.999999999995
 30
0.0
 11
794.2386097584916
 21
2039.999999999995
 31
0.0
  0
LINE
  5
E0
330
87
100
AcDbEntity
  8
P-SANR-FIXT
100
AcDbLine
 10
794.1980502143104
 20
2039.999999999995
 30
0.0
 11
790.9050657401516
 21
2039.999999999995
 31
0.0
  0
LINE
  5
E1
330
87
100
AcDbEntity
  8
P-SANR-FIXT
100
AcDbLine
 10
790.5660515219328
 20
2039.999999999995
 30
0.0
 11
789.1039459549123
 21
2039.999999999995
 31
0.0
  0
LINE
  5
E2
330
87
100
AcDbEntity
  8
P-SANR-FIXT
100
AcDbLine
 10
789.1039459549123
 20
2039.999999999995
 30
0.0
 11
782.8796877806999
 21
2039.999999999995
 31
0.0
  0
LINE
  5
E3
330
87
100
AcDbEntity
  8
P-SANR-FIXT
100
AcDbLine
 10
776.6364442222386
 20
2039.999999999995
 30
0.0
 11
775.9339792852463
 21
2039.999999999995
 31
0.0
  0
LINE
  5
E4
330
87
100
AcDbEntity
  8
P-SANR-FIXT
100
AcDbLine
 10
775.1734475718385
 20
2039.999999999995
 30
0.0
 11
774.4995617394148
 21
2039.999999999995
 31
0.0
  0
LINE
  5
E5
330
87
100
AcDbEntity
  8
P-SANR-FIXT
100
AcDbLine
 10
774.3827767828459
 20
2039.999999999995
 30
0.0
 11
773.0417865006182
 21
2039.999999999995
 31
0.0
  0
LINE
  5
E6
330
87
100
AcDbEntity
  8
P-SANR-FIXT
100
AcDbLine
 10
771.5822755120302
 20
2039.999999999995
 30
0.0
 11
770.6567377887028
 21
2039.999999999995
 31
0.0
  0
LINE
  5
E7
330
87
100
AcDbEntity
  8
P-SANR-FIXT
100
AcDbLine
 10
770.1426845960924
 20
2039.999999999995
 30
0.0
 11
769.1884841941897
 21
2039.999999999995
 31
0.0
  0
LINE
  5
E8
330
87
100
AcDbEntity
  8
P-SANR-FIXT
100
AcDbLine
 10
768.7443820137531
 20
2039.999999999995
 30
0.0
 11
760.8331523694945
 21
2039.999999999995
 31
0.0
  0
LINE
  5
E9
330
87
100
AcDbEntity
  8
P-SANR-FIXT
100
AcDbLine
 10
760.8331523694945
 20
2039.999999999995
 30
0.0
 11
759.3402894737232
 21
2039.999999999995
 31
0.0
  0
LINE
  5
EA
330
87
100
AcDbEntity
  8
P-SANR-FIXT
100
AcDbLine
 10
871.8260152652671
 20
2059.499999999991
 30
0.0
 11
871.8260152652671
 21
2039.999999999995
 31
0.0
  0
LINE
  5
EB
330
87
100
AcDbEntity
  8
P-SANR-FIXT
100
AcDbLine
 10
759.3402894737232
 20
2039.999999999995
 30
0.0
 11
759.3402894737232
 21
2059.499999999991
 31
0.0
  0
LINE
  5
EC
330
87
100
AcDbEntity
  8
P-SANR-FIXT
100
AcDbLine
 10
760.8331523694945
 20
2039.999999999995
 30
0.0
 11
760.8331523694945
 21
2059.499999999991
 31
0.0
  0
LINE
  5
ED
330
87
100
AcDbEntity
  8
P-SANR-FIXT
100
AcDbLine
 10
847.9473405678682
 20
2039.999999999995
 30
0.0
 11
847.9473405678682
 21
2059.499999999991
 31
0.0
  0
LINE
  5
EE
330
87
100
AcDbEntity
  8
P-SANR-FIXT
100
AcDbLine
 10
856.7920486641531
 20
1937.907245490746
 30
0.0
 11
875.4343973726067
 21
1963.045510253871
 31
0.0
  0
LWPOLYLINE
  5
EF
330
87
100
AcDbEntity
  8
P-SANR-FIXT
100
AcDbPolyline
 90
       24
 70
   128
 43
0.0
 10
856.7920486641531
 20
1937.907245490746
 10
856.3027903848377
 20
1937.274362399378
 10
855.7886148865192
 20
1936.661550659815
 10
855.2503447403099
 20
1936.069790640113
 10
854.688841063619
 20
1935.500029030069
 10
854.1050021425483
 20
1934.953177326715
 10
853.4997619948255
 20
1934.430110376123
 10
852.8740888755763
 20
1933.93166497383
 10
852.2289837283215
 20
1933.458638526152
 10
851.5654785836815
 20
1933.011787774498
 10
850.884634908348
 20
1932.591827584747
 10
850.1875419069619
 20
1932.199429803616
 10
849.4753147796206
 20
1931.835222183848
 10
848.7490929377942
 20
1931.499787379941
 10
848.0100381815104
 20
1931.193662016027
 10
847.2593328407231
 20
1930.917335827382
 10
846.4981778838348
 20
1930.671250876964
 10
845.727790996406
 20
1930.455800848197
 10
844.9494046331162
 20
1930.271330415168
 10
844.1642640460996
 20
1930.118134691218
 10
843.3736252928076
 20
1929.996458756823
 10
842.5787532265852
 20
1929.906497267525
 10
841.7809194731741
 20
1929.848394142515
 10
841.7007242305954
 20
1929.845771002359
  0
LINE
  5
F0
330
87
100
AcDbEntity
  8
P-SANR-FIXT
100
AcDbLine
 10
828.7988363057639
 20
1933.76732851234
 30
0.0
 11
828.8121949466443
 21
1933.757421844401
 31
0.0
  0
LINE
  5
F1
330
87
100
AcDbEntity
  8
P-SANR-FIXT
100
AcDbLine
 10
837.6664074431863
 20
1913.999999999996
 30
0.0
 11
838.6664074431863
 21
1914.999999999995
 31
0.0
  0
LINE
  5
F2
330
87
100
AcDbEntity
  8
P-SANR-FIXT
100
AcDbLine
 10
792.6664074431863
 20
1914.999999999995
 30
0.0
 11
793.6664074431863
 21
1913.999999999996
 31
0.0
  0
LINE
  5
F3
330
87
100
AcDbEntity
  8
P-SANR-FIXT
100
AcDbLine
 10
838.6664074431863
 20
1914.999999999995
 30
0.0
 11
838.6664074431863
 21
1925.226280066711
 31
0.0
  0
LINE
  5
F4
330
87
100
AcDbEntity
  8
P-SANR-FIXT
100
AcDbLine
 10
792.6664074431863
 20
1925.226280066711
 30
0.0
 11
792.6664074431863
 21
1914.999999999995
 31
0.0
  0
LWPOLYLINE
  5
F5
330
87
100
AcDbEntity
  8
P-SANR-FIXT
100
AcDbPolyline
 90
       37
 70
   128
 43
0.0
 10
792.6664074431863
 20
1925.226280066711
 10
792.6624079764912
 20
1925.426226737643
 10
792.6504159746993
 20
1925.625853536556
 10
792.6304506224555
 20
1925.824841103155
 10
792.6025438600644
 20
1926.022871099781
 10
792.5667403323926
 20
1926.219626720686
 10
792.5230973174464
 20
1926.414793198846
 10
792.4716846347402
 20
1926.608058309531
 10
792.4125845335985
 20
1926.799112869791
 10
792.3458915615758
 20
1926.987651233086
 10
792.2717124132008
 20
1927.173371778254
 10
792.1901657592862
 20
1927.35597739204
 10
792.1013820570829
 20
1927.535175944418
 10
792.0055033415746
 20
1927.710680755929
 10
791.9026829982533
 20
1927.882211056315
 10
791.7930855177347
 20
1928.049492433686
 10
791.6768862326078
 20
1928.212257273522
 10
791.5542710369408
 20
1928.370245186803
 10
791.4254360888906
 20
1928.523203426568
 10
791.2905874968908
 20
1928.670887292263
 10
791.1499409899222
 20
1928.813060521208
 10
791.0037215723928
 20
1928.949495666565
 10
790.8521631641791
 20
1929.079974461205
 10
790.6955082264036
 20
1929.204288166892
 10
790.5340073735486
 20
1929.322237908215
 10
790.367918972527
 20
1929.43363499075
 10
790.1975087293501
 20
1929.538301202927
 10
790.023049264055
 20
1929.636069101135
 10
789.8448196745699
 20
1929.726782277593
 10
789.6631050902177
 20
1929.810295610569
 10
789.4781962155697
 20
1929.886475496546
 10
789.2903888653802
 20
1929.955200063958
 10
789.099983491346
 20
1930.016359368156
 10
788.9072847014481
 20
1930.069855567301
 10
788.7126007726434
 20
1930.115603078887
 10
788.5162431576874
 20
1930.153528716653
 10
788.4164074431862
 20
1930.169710050032
  0
LWPOLYLINE
  5
F6
330
87
100
AcDbEntity
  8
P-SANR-FIXT
100
AcDbPolyline
 90
       37
 70
   128
 43
0.0
 10
842.9164074431863
 20
1930.169710050032
 10
842.7193228895593
 20
1930.135763832677
 10
842.5237534691842
 20
1930.093963488596
 10
842.3300120514143
 20
1930.044375889424
 10
842.1384085811887
 20
1929.987080364742
 10
841.9492495831867
 20
1929.922168575165
 10
841.7628376714532
 20
1929.849744365712
 10
841.5794710652811
 20
1929.769923599667
 10
841.3994431121244
 20
1929.682833973227
 10
841.2230418183041
 20
1929.588614811219
 10
841.0505493882604
 20
1929.4874168442
 10
840.8822417730844
 20
1929.379401967332
 10
840.7183882290567
 20
1929.264742981375
 10
840.5592508868945
 20
1929.143623316247
 10
840.4050843323977
 20
1929.016236737576
 10
840.2561351991662
 20
1928.882787036711
 10
840.1126417740394
 20
1928.743487704709
 10
839.974833615887
 20
1928.598561590782
 10
839.8429311883644
 20
1928.448240545799
 10
839.7171455072182
 20
1928.292765051365
 10
839.5976778027051
 20
1928.132383835104
 10
839.4847191976674
 20
1927.967353472749
 10
839.3784504017769
 20
1927.797937977675
 10
839.2790414224368
 20
1927.624408378535
 10
839.1866512928089
 20
1927.447042285669
 10
839.1014278173908
 20
1927.26612344699
 10
839.023507335564
 20
1927.081941294047
 10
838.9530145034767
 20
1926.894790478993
 10
838.8900620946227
 20
1926.704970403209
 10
838.834750819427
 20
1926.512784738324
 10
838.787169164131
 20
1926.318540940404
 10
838.7473932492328
 20
1926.122549758089
 10
838.7154867077112
 20
1925.925124735462
 10
838.6915005832262
 20
1925.726581710444
 10
838.6754732484606
 20
1925.527238309522
 10
838.6674303437304
 20
1925.327413439612
 10
838.6664074431863
 20
1925.226280066711
  0
LWPOLYLINE
  5
F7
330
87
100
AcDbEntity
  8
P-SANR-FIXT
100
AcDbPolyline
 90
       37
 70
   128
 43
0.0
 10
788.4164074431865
 20
1930.169710050032
 10
787.8251537823054
 20
1930.271548702098
 10
787.2384455211801
 20
1930.396949734339
 10
786.6572212678703
 20
1930.545712531855
 10
786.0824108571936
 20
1930.717599105902
 10
785.5149338631876
 20
1930.91233447463
 10
784.9556981279868
 20
1931.12960710299
 10
784.4055983094709
 20
1931.369069401126
 10
783.8655144500009
 20
1931.630338280444
 10
783.3363105685402
 20
1931.91299576647
 10
782.8188332784084
 20
1932.216589667525
 10
782.31391043288
 20
1932.54063429813
 10
781.8223498007975
 20
1932.884611256001
 10
781.3449377743111
 20
1933.247970251384
 10
780.8824381108205
 20
1933.6301299874
 10
780.4355907111264
 20
1934.030479089992
 10
780.0051104357458
 20
1934.448377086001
 10
779.5916859612882
 20
1934.883155427779
 10
779.1959786787206
 20
1935.334118562728
 10
778.8186216352817
 20
1935.800545046032
 10
778.4602185217425
 20
1936.281688694816
 10
778.1213427066297
 20
1936.776779781881
 10
777.8025363189575
 20
1937.285026267102
 10
777.5043093809381
 20
1937.805615064522
 10
777.2271389920537
 20
1938.337713343119
 10
776.9714685658002
 20
1938.880469859155
 10
776.7377071203194
 20
1939.433016317985
 10
776.5262286240572
 20
1939.994468763148
 10
776.3373713974954
 20
1940.563928990499
 10
776.1714375719086
 20
1941.140485985155
 10
776.0286926060205
 20
1941.723217378915
 10
775.9093648613259
 20
1942.311190925859
 10
775.8136452367611
 20
1942.90346599374
 10
775.7416868633062
 20
1943.499095068794
 10
775.6936048590087
 20
1944.097125271562
 10
775.6694761448183
 20
1944.696599881292
 10
775.6664074431862
 20
1944.999999999996
  0
LINE
  5
F8
330
87
100
AcDbEntity
  8
P-SANR-FIXT
100
AcDbLine
 10
775.6664074431862
 20
1962.999999999995
 30
0.0
 11
775.6664074431862
 21
1944.999999999996
 31
0.0
  0
LWPOLYLINE
  5
F9
330
87
100
AcDbEntity
  8
P-SANR-FIXT
100
AcDbPolyline
 90
       27
 70
   128
 43
0.0
 10
789.9244474442403
 20
2030.999999999996
 10
790.3403735769906
 20
2030.999999999996
 10
792.2451614848529
 20
2030.999999999996
 10
794.1874183899828
 20
2030.999999999996
 10
796.1640370956575
 20
2030.999999999996
 10
798.1718554336048
 20
2030.999999999996
 10
800.2076613227954
 20
2030.999999999996
 10
802.2681979080886
 20
2030.999999999996
 10
804.3501687705056
 20
2030.999999999996
 10
806.4502432007966
 20
2030.999999999996
 10
808.5650615278655
 20
2030.999999999996
 10
810.6912404935256
 20
2030.999999999996
 10
812.8253786649933
 20
2030.999999999996
 10
814.9640618764518
 20
2030.999999999996
 10
817.1038686909916
 20
2030.999999999996
 10
819.241375874177
 20
2030.999999999996
 10
821.3731638704917
 20
2030.999999999996
 10
823.4958222738995
 20
2030.999999999996
 10
825.6059552837642
 20
2030.999999999996
 10
827.7001871374078
 20
2030.999999999996
 10
829.77516751061
 20
2030.999999999996
 10
831.8275768774126
 20
2030.999999999996
 10
833.8541318206528
 20
2030.999999999996
 10
835.8515902847299
 20
2030.999999999996
 10
837.8167567622032
 20
2030.999999999996
 10
839.746487405922
 20
2030.999999999996
 10
841.4083674421018
 20
2030.999999999996
  0
LINE
  5
FA
330
87
100
AcDbEntity
  8
P-SANR-FIXT
100
AcDbLine
 10
920.6664074431863
 20
2060.999999999996
 30
0.0
 11
917.6664074431865
 21
2062.732050807564
 31
0.0
  0
LINE
  5
FB
330
87
100
AcDbEntity
  8
P-SANR-FIXT
100
AcDbLine
 10
917.6664074431865
 20
1937.267949192427
 30
0.0
 11
920.6664074431863
 21
1938.999999999996
 31
0.0
  0
LINE
  5
FC
330
87
100
AcDbEntity
  8
P-SANR-FIXT
100
AcDbLine
 10
917.6664074431865
 20
2091.499999999996
 30
0.0
 11
901.6664074431865
 21
2091.499999999996
 31
0.0
  0
LINE
  5
FD
330
87
100
AcDbEntity
  8
P-SANR-FIXT
100
AcDbLine
 10
901.6664074431865
 20
1908.499999999996
 30
0.0
 11
917.6664074431865
 21
1908.499999999996
 31
0.0
  0
LWPOLYLINE
  5
FE
330
87
100
AcDbEntity
  8
P-SANR-FIXT
100
AcDbPolyline
 90
       40
 70
   128
 43
0.0
 10
901.658408509796
 20
1953.399893341862
 10
901.6344245062123
 20
1953.799146939687
 10
901.594493801725
 20
1954.197122072885
 10
901.5386802769427
 20
1954.593182066138
 10
901.4670732215988
 20
1954.986693307946
 10
901.3797871917068
 20
1955.377026264267
 10
901.2769618262939
 20
1955.763556485637
 10
901.1587616240106
 20
1956.145665606157
 10
901.0253756799658
 20
1956.522742332747
 10
900.8770173832152
 20
1956.894183423082
 10
900.7139240753859
 20
1957.259394650655
 10
900.5363566709792
 20
1957.617791755411
 10
900.344599239963
 20
1957.968801378433
 10
900.1389585533205
 20
1958.311861979204
 10
899.9197635922831
 20
1958.646424733946
 10
899.6873650220292
 20
1958.97195441362
 10
899.4421346306955
 20
1959.28793024018
 10
899.1844647345955
 20
1959.59384671971
 10
898.9147675505956
 20
1959.889214451101
 10
898.6334745366582
 20
1960.173560908991
 10
898.3410357015994
 20
1960.446431199704
 10
898.0379188851722
 20
1960.707388788986
 10
897.7246090096212
 20
1960.956016200359
 10
897.4016073039111
 20
1961.191915683006
 10
897.0694305018678
 20
1961.414709848075
 10
896.7286100155142
 20
1961.624042272429
 10
896.3796910849238
 20
1961.819578068845
 10
896.0232319059535
 20
1962.001004421761
 10
895.6598027372493
 20
1962.168031087713
 10
895.289984987953
 20
1962.320390859668
 10
894.9143702875742
 20
1962.457839994491
 10
894.5335595395059
 20
1962.580158602888
 10
894.14816195971
 20
1962.687151001178
 10
893.7587941021005
 20
1962.778646024349
 10
893.3660788721889
 20
1962.85449729988
 10
892.9706445305679
 20
1962.914583481913
 10
892.5731236878295
 20
1962.958808445372
 10
892.1741522925222
 20
1962.987101439751
 10
891.774368613769
 20
1962.999417202295
 10
891.6664074431864
 20
1962.999999999996
  0
LWPOLYLINE
  5
FF
330
87
100
AcDbEntity
  8
P-SANR-FIXT
100
AcDbPolyline
 90
       39
 70
   128
 43
0.0
 10
891.6664074431864
 20
2036.999999999996
 10
892.0663007850528
 20
2037.007998933386
 10
892.4655543828782
 20
2037.031982936969
 10
892.8635295160757
 20
2037.071913641457
 10
893.2595895093291
 20
2037.12772716624
 10
893.6531007511371
 20
2037.199334221583
 10
894.0434337074579
 20
2037.286620251475
 10
894.4299639288276
 20
2037.389445616888
 10
894.8120730493474
 20
2037.507645819172
 10
895.1891497759374
 20
2037.641031763216
 10
895.5605908662729
 20
2037.789390059967
 10
895.9258020938467
 20
2037.952483367796
 10
896.2841991986012
 20
2038.130050772203
 10
896.6352088216238
 20
2038.321808203219
 10
896.9782694223953
 20
2038.527448889862
 10
897.3128321771367
 20
2038.746643850899
 10
897.6383618568105
 20
2038.979042421153
 10
897.9543376833712
 20
2039.224272812486
 10
898.2602541629011
 20
2039.481942708587
 10
898.5556218942919
 20
2039.751639892587
 10
898.8399683521818
 20
2040.032932906524
 10
899.112838642895
 20
2040.325371741583
 10
899.3737962321763
 20
2040.62848855801
 10
899.62242364355
 20
2040.941798433561
 10
899.8583231261964
 20
2041.264800139272
 10
900.0811172912655
 20
2041.596976941315
 10
900.2904497156198
 20
2041.937797427668
 10
900.4859855120358
 20
2042.286716358259
 10
900.6674118649513
 20
2042.643175537229
 10
900.834438530904
 20
2043.006604705933
 10
900.9867983028586
 20
2043.376422455229
 10
901.1242474376819
 20
2043.752037155608
 10
901.2465660460787
 20
2044.132847903677
 10
901.353558444369
 20
2044.518245483473
 10
901.4450534675395
 20
2044.907613341082
 10
901.520904743071
 20
2045.300328570994
 10
901.5809909251034
 20
2045.695762912615
 10
901.6252158885627
 20
2046.093283755353
 10
901.6535088829421
 20
2046.49225515066
  0
LINE
  5
100
330
87
100
AcDbEntity
  8
P-SANR-FIXT
100
AcDbLine
 10
891.6664074431864
 20
2036.999999999995
 30
0.0
 11
871.9092797734505
 21
2036.999999999995
 31
0.0
  0
LINE
  5
101
330
87
100
AcDbEntity
  8
P-SANR-FIXT
100
AcDbLine
 10
875.3329031872359
 20
1962.999999999997
 30
0.0
 11
891.6664074431864
 21
1962.999999999997
 31
0.0
  0
LINE
  5
102
330
87
100
AcDbEntity
  8
P-SANR-FIXT
100
AcDbLine
 10
759.4235539819057
 20
2036.999999999996
 30
0.0
 11
739.6664074431861
 21
2036.999999999996
 31
0.0
  0
LINE
  5
103
330
87
100
AcDbEntity
  8
P-SANR-FIXT
100
AcDbLine
 10
739.6664074431861
 20
1962.999999999995
 30
0.0
 11
775.6664074431862
 21
1962.999999999995
 31
0.0
  0
LWPOLYLINE
  5
104
330
87
100
AcDbEntity
  8
P-SANR-FIXT
100
AcDbPolyline
 90
       39
 70
   128
 43
0.0
 10
739.6664074431861
 20
1962.999999999996
 10
739.2665141013197
 20
1962.992001066605
 10
738.8672605034944
 20
1962.968017063022
 10
738.469285370297
 20
1962.928086358535
 10
738.0732253770437
 20
1962.872272833752
 10
737.6797141352356
 20
1962.800665778408
 10
737.2893811789148
 20
1962.713379748516
 10
736.902850957545
 20
1962.610554383103
 10
736.5207418370249
 20
1962.49235418082
 10
736.1436651104354
 20
1962.358968236775
 10
735.7722240200995
 20
1962.210609940024
 10
735.4070127925261
 20
1962.047516632195
 10
735.0486156877713
 20
1961.869949227789
 10
734.6976060647489
 20
1961.678191796772
 10
734.3545454639773
 20
1961.47255111013
 10
734.0199827092358
 20
1961.253356149092
 10
733.6944530295623
 20
1961.020957578839
 10
733.3784772030014
 20
1960.775727187505
 10
733.0725607234714
 20
1960.518057291405
 10
732.7771929920808
 20
1960.248360107405
 10
732.492846534191
 20
1959.967067093467
 10
732.2199762434776
 20
1959.674628258409
 10
731.9590186541965
 20
1959.371511441981
 10
731.7103912428225
 20
1959.05820156643
 10
731.4744917601761
 20
1958.73519986072
 10
731.2516975951072
 20
1958.403023058677
 10
731.0423651707528
 20
1958.062202572324
 10
730.8468293743366
 20
1957.713283641733
 10
730.6654030214211
 20
1957.356824462763
 10
730.4983763554686
 20
1956.993395294058
 10
730.3460165835139
 20
1956.623577544762
 10
730.2085674486908
 20
1956.247962844383
 10
730.086248840294
 20
1955.867152096315
 10
729.9792564420036
 20
1955.481754516519
 10
729.887761418833
 20
1955.09238665891
 10
729.8119101433017
 20
1954.699671428998
 10
729.7518239612693
 20
1954.304237087377
 10
729.7075989978098
 20
1953.906716244639
 10
729.6793060034302
 20
1953.507744849331
  0
LWPOLYLINE
  5
105
330
87
100
AcDbEntity
  8
P-SANR-FIXT
100
AcDbPolyline
 90
       40
 70
   128
 43
0.0
 10
729.6744063765763
 20
2046.60010665813
 10
729.69839038016
 20
2046.200853060304
 10
729.7383210846476
 20
2045.802877927107
 10
729.7941346094299
 20
2045.406817933853
 10
729.8657416647738
 20
2045.013306692045
 10
729.9530276946658
 20
2044.622973735724
 10
730.0558530600784
 20
2044.236443514355
 10
730.1740532623618
 20
2043.854334393834
 10
730.3074392064068
 20
2043.477257667245
 10
730.4557975031573
 20
2043.105816576909
 10
730.6188908109866
 20
2042.740605349336
 10
730.7964582153933
 20
2042.382208244581
 10
730.9882156464096
 20
2042.031198621558
 10
731.193856333052
 20
2041.688138020787
 10
731.4130512940894
 20
2041.353575266045
 10
731.6454498643434
 20
2041.028045586372
 10
731.890680255677
 20
2040.712069759811
 10
732.1483501517773
 20
2040.406153280281
 10
732.4180473357771
 20
2040.11078554889
 10
732.6993403497145
 20
2039.826439091001
 10
732.9917791847731
 20
2039.553568800287
 10
733.2948960012005
 20
2039.292611211006
 10
733.6082058767516
 20
2039.043983799632
 10
733.9312075824616
 20
2038.808084316986
 10
734.2633843845049
 20
2038.585290151917
 10
734.6042048708584
 20
2038.375957727562
 10
734.9531238014488
 20
2038.180421931147
 10
735.309582980419
 20
2037.998995578231
 10
735.6730121491237
 20
2037.831968912278
 10
736.0428298984196
 20
2037.679609140324
 10
736.4184445987985
 20
2037.5421600055
 10
736.7992553468667
 20
2037.419841397104
 10
737.1846529266625
 20
2037.312848998813
 10
737.5740207842722
 20
2037.221353975643
 10
737.9667360141838
 20
2037.145502700111
 10
738.3621703558048
 20
2037.085416518079
 10
738.7596911985433
 20
2037.04119155462
 10
739.1586625938506
 20
2037.01289856024
 10
739.5584462726036
 20
2037.000582797697
 10
739.6664074431861
 20
2036.999999999996
  0
LINE
  5
106
330
87
100
AcDbEntity
  8
P-SANR-FIXT
100
AcDbLine
 10
729.6664074431861
 20
2091.499999999996
 30
0.0
 11
713.6664074431863
 21
2091.499999999996
 31
0.0
  0
LINE
  5
107
330
87
100
AcDbEntity
  8
P-SANR-FIXT
100
AcDbLine
 10
713.6664074431863
 20
1908.499999999996
 30
0.0
 11
729.6664074431861
 21
1908.499999999996
 31
0.0
  0
LINE
  5
108
330
87
100
AcDbEntity
  8
P-SANR-FIXT
100
AcDbLine
 10
713.6664074431857
 20
2062.732050807564
 30
0.0
 11
710.6664074431862
 21
2060.999999999996
 31
0.0
  0
LINE
  5
109
330
87
100
AcDbEntity
  8
P-SANR-FIXT
100
AcDbLine
 10
710.6664074431862
 20
1938.999999999996
 30
0.0
 11
713.6664074431857
 21
1937.267949192427
 31
0.0
  0
LINE
  5
10A
330
87
100
AcDbEntity
  8
P-SANR-FIXT
100
AcDbLine
 10
760.9164168776719
 20
2039.999999999996
 30
0.0
 11
760.9164168776719
 21
2033.482598305453
 31
0.0
  0
LINE
  5
10B
330
87
100
AcDbEntity
  8
P-SANR-FIXT
100
AcDbLine
 10
870.4164168776722
 20
2033.482592356079
 30
0.0
 11
870.4164168776722
 21
2039.999999999996
 31
0.0
  0
LINE
  5
10C
330
87
100
AcDbEntity
  8
P-SANR-FIXT
100
AcDbLine
 10
837.666407443185
 20
1913.999999999995
 30
0.0
 11
837.5777715903055
 21
1913.999999999995
 31
0.0
  0
LINE
  5
10D
330
87
100
AcDbEntity
  8
P-SANR-FIXT
100
AcDbLine
 10
837.567155581565
 20
1913.999999999995
 30
0.0
 11
828.4177259076484
 21
1913.999999999995
 31
0.0
  0
LINE
  5
10E
330
87
100
AcDbEntity
  8
P-SANR-FIXT
100
AcDbLine
 10
828.408793231377
 20
1913.999999999995
 30
0.0
 11
827.1613758669358
 21
1913.999999999995
 31
0.0
  0
LINE
  5
10F
330
87
100
AcDbEntity
  8
P-SANR-FIXT
100
AcDbLine
 10
826.6737775086438
 20
1913.999999999995
 30
0.0
 11
824.8386330944903
 21
1913.999999999995
 31
0.0
  0
LINE
  5
110
330
87
100
AcDbEntity
  8
P-SANR-FIXT
100
AcDbLine
 10
824.7981906193409
 20
1913.999999999995
 30
0.0
 11
806.5346242670289
 21
1913.999999999995
 31
0.0
  0
LINE
  5
111
330
87
100
AcDbEntity
  8
P-SANR-FIXT
100
AcDbLine
 10
806.4941817918814
 20
1913.999999999995
 30
0.0
 11
804.6590373777277
 21
1913.999999999995
 31
0.0
  0
LINE
  5
112
330
87
100
AcDbEntity
  8
P-SANR-FIXT
100
AcDbLine
 10
804.1714390194339
 20
1913.999999999995
 30
0.0
 11
802.9240216549951
 21
1913.999999999995
 31
0.0
  0
LINE
  5
113
330
87
100
AcDbEntity
  8
P-SANR-FIXT
100
AcDbLine
 10
802.9150889787249
 20
1913.999999999995
 30
0.0
 11
793.7656593048047
 21
1913.999999999995
 31
0.0
  0
LINE
  5
114
330
87
100
AcDbEntity
  8
P-SANR-FIXT
100
AcDbLine
 10
793.7550432960664
 20
1913.999999999995
 30
0.0
 11
793.6664074431851
 21
1913.999999999995
 31
0.0
  0
LINE
  5
115
330
87
100
AcDbEntity
  8
P-SANR-FIXT
100
AcDbLine
 10
838.666407443185
 20
1914.999999999995
 30
0.0
 11
792.6664074431851
 21
1914.999999999995
 31
0.0
  0
SPLINE
  5
116
330
87
100
AcDbEntity
  8
P-SANR-FIXT
100
AcDbSpline
210
0.0
220
0.0
230
1.0
 70
     8
 71
     3
 72
     9
 73
     5
 74
     0
 42
0.000000001
 43
0.0000000001
 40
0.629264578464003
 40
0.629264578464003
 40
0.629264578464003
 40
0.629264578464003
 40
0.75
 40
1.0
 40
1.0
 40
1.0
 40
1.0
 10
777.3502121202414
 20
1964.829494815904
 30
0.0
 10
776.9980091909251
 20
1964.44253922913
 30
0.0
 10
776.0704480199677
 20
1963.430793715366
 30
0.0
 10
775.6664074431851
 20
1963.025632663972
 30
0.0
 10
775.6664074431851
 20
1962.999999999995
 30
0.0
  0
LINE
  5
117
330
87
100
AcDbEntity
  8
P-SANR-FIXT
100
AcDbLine
 10
846.7126113846004
 20
2033.418338680321
 30
0.0
 11
846.7126113846004
 21
2039.999999999995
 31
0.0
  0
LINE
  5
118
330
87
100
AcDbEntity
  8
P-SANR-FIXT
100
AcDbLine
 10
784.6202198410864
 20
2039.999999999995
 30
0.0
 11
784.6202198410864
 21
2033.418333528544
 31
0.0
  0
LINE
  5
119
330
87
100
AcDbEntity
  8
P-SANR-FIXT
100
AcDbLine
 10
767.1410173292662
 20
2039.999999999995
 30
0.0
 11
767.4156518117373
 21
2039.999999999995
 31
0.0
  0
LINE
  5
11A
330
87
100
AcDbEntity
  8
P-SANR-FIXT
100
AcDbLine
 10
768.7501941028523
 20
2039.999999999995
 30
0.0
 11
769.1813467449583
 21
2039.999999999995
 31
0.0
  0
LINE
  5
11B
330
87
100
AcDbEntity
  8
P-SANR-FIXT
100
AcDbLine
 10
770.1462877089711
 20
2039.999999999995
 30
0.0
 11
770.6516149724284
 21
2039.999999999995
 31
0.0
  0
LINE
  5
11C
330
87
100
AcDbEntity
  8
P-SANR-FIXT
100
AcDbLine
 10
771.5833068973929
 20
2039.999999999995
 30
0.0
 11
772.1569231810434
 21
2039.999999999995
 31
0.0
  0
LINE
  5
11D
330
87
100
AcDbEntity
  8
P-SANR-FIXT
100
AcDbLine
 10
773.6732102712911
 20
2039.999999999995
 30
0.0
 11
774.4949095952187
 21
2039.999999999995
 31
0.0
  0
LINE
  5
11E
330
87
100
AcDbEntity
  8
P-SANR-FIXT
100
AcDbLine
 10
775.1762437658089
 20
2039.999999999995
 30
0.0
 11
782.9042776685663
 21
2039.999999999995
 31
0.0
  0
LINE
  5
11F
330
87
100
AcDbEntity
  8
P-SANR-FIXT
100
AcDbLine
 10
842.4703121727802
 20
2039.999999999995
 30
0.0
 11
833.7875875672731
 21
2039.999999999995
 31
0.0
  0
LINE
  5
120
330
87
100
AcDbEntity
  8
P-SANR-FIXT
100
AcDbLine
 10
833.6563115054484
 20
2039.999999999995
 30
0.0
 11
829.3766693335689
 21
2039.999999999995
 31
0.0
  0
LINE
  5
121
330
87
100
AcDbEntity
  8
P-SANR-FIXT
100
AcDbLine
 10
829.3739328277482
 20
2039.999999999995
 30
0.0
 11
824.9905051538393
 21
2039.999999999995
 31
0.0
  0
LINE
  5
122
330
87
100
AcDbEntity
  8
P-SANR-FIXT
100
AcDbLine
 10
824.8604198656517
 20
2039.999999999995
 30
0.0
 11
820.27959080458
 21
2039.999999999995
 31
0.0
  0
LINE
  5
123
330
87
100
AcDbEntity
  8
P-SANR-FIXT
100
AcDbLine
 10
819.3291408447773
 20
2039.999999999995
 30
0.0
 11
815.6669908860997
 21
2039.999999999995
 31
0.0
  0
LINE
  5
124
330
87
100
AcDbEntity
  8
P-SANR-FIXT
100
AcDbLine
 10
815.6664173404122
 20
2039.999999999995
 30
0.0
 11
812.0036937921051
 21
2039.999999999995
 31
0.0
  0
LINE
  5
125
330
87
100
AcDbEntity
  8
P-SANR-FIXT
100
AcDbLine
 10
811.0537746089592
 20
2039.999999999995
 30
0.0
 11
808.3572320274551
 21
2039.999999999995
 31
0.0
  0
LINE
  5
126
330
87
100
AcDbEntity
  8
P-SANR-FIXT
100
AcDbLine
 10
806.4711088770526
 20
2039.999999999995
 30
0.0
 11
804.7432216746944
 21
2039.999999999995
 31
0.0
  0
LINE
  5
127
330
87
100
AcDbEntity
  8
P-SANR-FIXT
100
AcDbLine
 10
801.9545742055495
 20
2039.999999999995
 30
0.0
 11
797.676522086553
 21
2039.999999999995
 31
0.0
  0
LINE
  5
128
330
87
100
AcDbEntity
  8
P-SANR-FIXT
100
AcDbLine
 10
797.5365788915376
 20
2039.999999999995
 30
0.0
 11
794.2552077144077
 21
2039.999999999995
 31
0.0
  0
LINE
  5
129
330
87
100
AcDbEntity
  8
P-SANR-FIXT
100
AcDbLine
 10
853.9063883145299
 20
2039.999999999995
 30
0.0
 11
854.0192517299335
 21
2039.999999999995
 31
0.0
  0
LINE
  5
12A
330
87
100
AcDbEntity
  8
P-SANR-FIXT
100
AcDbLine
 10
854.2352959045539
 20
2039.999999999995
 30
0.0
 11
855.2346518114321
 21
2039.999999999995
 31
0.0
  0
LINE
  5
12B
330
87
100
AcDbEntity
  8
P-SANR-FIXT
100
AcDbLine
 10
855.4063494160514
 20
2039.999999999995
 30
0.0
 11
856.2553045551455
 21
2039.999999999995
 31
0.0
  0
LINE
  5
12C
330
87
100
AcDbEntity
  8
P-SANR-FIXT
100
AcDbLine
 10
857.2954461995772
 20
2039.999999999995
 30
0.0
 11
858.2928062447964
 21
2039.999999999995
 31
0.0
  0
LINE
  5
12D
330
87
100
AcDbEntity
  8
P-SANR-FIXT
100
AcDbLine
 10
858.3425525906189
 20
2039.999999999995
 30
0.0
 11
859.3888877846424
 21
2039.999999999995
 31
0.0
  0
LINE
  5
12E
330
87
100
AcDbEntity
  8
P-SANR-FIXT
100
AcDbLine
 10
859.7495211652619
 20
2039.999999999995
 30
0.0
 11
861.1865409373923
 21
2039.999999999995
 31
0.0
  0
LINE
  5
12F
330
87
100
AcDbEntity
  8
P-SANR-FIXT
100
AcDbLine
 10
861.4504866356158
 20
2039.999999999995
 30
0.0
 11
862.4469574635808
 21
2039.999999999995
 31
0.0
  0
LINE
  5
130
330
87
100
AcDbEntity
  8
P-SANR-FIXT
100
AcDbLine
 10
862.5826351759611
 20
2039.999999999995
 30
0.0
 11
870.416416877671
 21
2039.999999999995
 31
0.0
  0
LINE
  5
131
330
87
100
AcDbEntity
  8
P-SANR-FIXT
100
AcDbLine
 10
870.416416877671
 20
2039.999999999995
 30
0.0
 11
871.9092797734488
 21
2039.999999999995
 31
0.0
  0
LINE
  5
132
330
87
100
AcDbEntity
  8
P-SANR-FIXT
100
AcDbLine
 10
920.666407443185
 20
2060.999999999995
 30
0.0
 11
920.666407443185
 21
1938.999999999995
 31
0.0
  0
LINE
  5
133
330
87
100
AcDbEntity
  8
P-SANR-FIXT
100
AcDbLine
 10
917.6664074431851
 20
2091.499999999995
 30
0.0
 11
917.6664074431851
 21
1908.499999999995
 31
0.0
  0
LINE
  5
134
330
87
100
AcDbEntity
  8
P-SANR-FIXT
100
AcDbLine
 10
901.6664074431849
 20
2091.499999999995
 30
0.0
 11
901.6664074431849
 21
1908.499999999995
 31
0.0
  0
LWPOLYLINE
  5
135
330
87
100
AcDbEntity
  8
P-SANR-FIXT
100
AcDbPolyline
 90
        4
 70
   128
 43
0.0
 10
871.9092797734493
 20
2036.999999999994
 10
871.6320448672545
 20
2036.138245271923
 10
871.3677239335568
 20
2033.59312277481
 10
871.3362890774465
 20
2033.160388578382
  0
LWPOLYLINE
  5
136
330
87
100
AcDbEntity
  8
P-SANR-FIXT
100
AcDbPolyline
 90
        4
 70
   128
 43
0.0
 10
759.996544152707
 20
2033.160396044273
 10
759.9651098217927
 20
2033.59312277481
 10
759.7007888880974
 20
2036.138245271924
 10
759.4235539819046
 20
2036.999999999995
  0
LINE
  5
137
330
87
100
AcDbEntity
  8
P-SANR-FIXT
100
AcDbLine
 10
729.6664074431852
 20
2091.499999999995
 30
0.0
 11
729.6664074431852
 21
1908.499999999995
 31
0.0
  0
LINE
  5
138
330
87
100
AcDbEntity
  8
P-SANR-FIXT
100
AcDbLine
 10
713.6664074431851
 20
2091.499999999995
 30
0.0
 11
713.6664074431851
 21
1908.499999999995
 31
0.0
  0
LINE
  5
139
330
87
100
AcDbEntity
  8
P-SANR-FIXT
100
AcDbLine
 10
710.6664074431851
 20
2060.999999999995
 30
0.0
 11
710.6664074431851
 21
1938.999999999995
 31
0.0
  0
LINE
  5
13A
330
87
100
AcDbEntity
  8
P-SANR-FIXT
100
AcDbLine
 10
759.4235539819046
 20
2039.999999999995
 30
0.0
 11
759.4235539819046
 21
2036.999999999995
 31
0.0
  0
LINE
  5
13B
330
87
100
AcDbEntity
  8
P-SANR-FIXT
100
AcDbLine
 10
760.9164168776709
 20
2033.482598305452
 30
0.0
 11
760.9164168776709
 21
2039.999999999995
 31
0.0
  0
LINE
  5
13C
330
87
100
AcDbEntity
  8
P-SANR-FIXT
100
AcDbLine
 10
870.416416877671
 20
2033.482592356079
 30
0.0
 11
870.416416877671
 21
2039.999999999995
 31
0.0
  0
LINE
  5
13D
330
87
100
AcDbEntity
  8
P-SANR-FIXT
100
AcDbLine
 10
871.9092797734484
 20
2036.999999999994
 30
0.0
 11
871.9092797734488
 21
2039.999999999995
 31
0.0
  0
ENDBLK
  5
13F
330
87
100
AcDbEntity
  8
0
100
AcDbBlockEnd
  0
BLOCK
  5
1DC
330
141
100
AcDbEntity
  8
0
100
AcDbBlockBegin
  2
Automatic flow rate regulator valve_Caleffi_121 DN15 - 2__-935543-Est - Idraulica
 70
     0
 10
0.0
 20
0.0
 30
0.0
  3
Automatic flow rate regulator valve_Caleffi_121 DN15 - 2__-935543-Est - Idraulica
  1

  0
LINE
  5
142
330
141
100
AcDbEntity
  8
M-PIPE
100
AcDbLine
 10
827.1664074431715
 20
1626.245878730056
 30
0.0
 11
827.166407443172
 21
1603.245878730056
 31
0.0
1001
REVIT
1002
{
1070
     3
1000
923159
1002
}
  0
LINE
  5
143
330
141
100
AcDbEntity
  8
M-PIPE
100
AcDbLine
 10
890.1664074431721
 20
1603.245878730057
 30
0.0
 11
890.1664074431716
 21
1626.245878730057
 31
0.0
1001
REVIT
1002
{
1070
     3
1000
923159
1002
}
  0
LINE
  5
144
330
141
100
AcDbEntity
  8
M-PIPE
100
AcDbLine
 10
823.1664074431721
 20
1603.245878730055
 30
0.0
 11
823.1664074431719
 21
1598.977929537625
 31
0.0
1001
REVIT
1002
{
1070
     3
1000
923159
1002
}
  0
LINE
  5
145
330
141
100
AcDbEntity
  8
M-PIPE
100
AcDbLine
 10
894.166407443172
 20
1598.977929537626
 30
0.0
 11
894.166407443172
 21
1603.245878730057
 31
0.0
1001
REVIT
1002
{
1070
     3
1000
923159
1002
}
  0
LINE
  5
146
330
141
100
AcDbEntity
  8
M-PIPE
100
AcDbLine
 10
823.1664074431719
 20
1598.977929537625
 30
0.0
 11
826.1664074431719
 21
1597.245878730056
 31
0.0
1001
REVIT
1002
{
1070
     3
1000
923159
1002
}
  0
LINE
  5
147
330
141
100
AcDbEntity
  8
M-PIPE
100
AcDbLine
 10
891.1664074431721
 20
1597.245878730057
 30
0.0
 11
894.166407443172
 21
1598.977929537626
 31
0.0
1001
REVIT
1002
{
1070
     3
1000
923159
1002
}
  0
LWPOLYLINE
  5
148
330
141
100
AcDbEntity
  8
M-PIPE
100
AcDbPolyline
 90
       80
 70
   128
 43
0.0
 10
889.1664074431719
 20
1627.245878730057
 10
889.1420106963316
 20
1627.245878730057
 10
889.0688594854017
 20
1627.245878730057
 10
888.9470708367147
 20
1627.245878730057
 10
888.7768395861284
 20
1627.245878730057
 10
888.5584380673297
 20
1627.245878730057
 10
888.2922156761585
 20
1627.245878730057
 10
887.9785983116503
 20
1627.245878730057
 10
887.6180876946863
 20
1627.245878730057
 10
887.2112605653487
 20
1627.245878730057
 10
886.7587677602598
 20
1627.245878730057
 10
886.2613331713808
 20
1627.245878730057
 10
885.7197525879399
 20
1627.245878730057
 10
885.1348924233402
 20
1627.245878730057
 10
884.5076883290809
 20
1627.245878730057
 10
883.8391436979168
 20
1627.245878730057
 10
883.1303280586427
 20
1627.245878730057
 10
882.3823753650751
 20
1627.245878730057
 10
881.596482181969
 20
1627.245878730057
 10
880.7739057707694
 20
1627.245878730057
 10
879.9159620782603
 20
1627.245878730056
 10
879.0240236313318
 20
1627.245878730056
 10
878.0995173412286
 20
1627.245878730056
 10
877.1439222207973
 20
1627.245878730056
 10
876.1587670183816
 20
1627.245878730056
 10
875.14562777215
 20
1627.245878730056
 10
874.1061252887714
 20
1627.245878730056
 10
873.0419225504705
 20
1627.245878730056
 10
871.9547220546113
 20
1627.245878730056
 10
870.846263090063
 20
1627.245878730056
 10
869.7183189547102
 20
1627.245878730056
 10
868.5726941185542
 20
1627.245878730056
 10
867.4112213369463
 20
1627.245878730056
 10
866.235758718569
 20
1627.245878730056
 10
865.0481867528599
 20
1627.245878730056
 10
863.8504053016291
 20
1627.245878730056
 10
862.6443305596851
 20
1627.245878730056
 10
861.431891989333
 20
1627.245878730056
 10
860.2150292336457
 20
1627.245878730056
 10
858.9956890134486
 20
1627.245878730056
 10
857.7758220129823
 20
1627.245878730056
 10
856.5573797592225
 20
1627.245878730056
 10
855.3423114998553
 20
1627.245878730056
 10
854.132561084895
 20
1627.245878730056
 10
852.9300638569385
 20
1627.245878730056
 10
851.7367435550323
 20
1627.245878730056
 10
850.5545092370976
 20
1627.245878730056
 10
849.3852522258464
 20
1627.245878730056
 10
848.2308430830689
 20
1627.245878730056
 10
847.0931286171326
 20
1627.245878730056
 10
845.9739289284836
 20
1627.245878730056
 10
844.8750344978735
 20
1627.245878730056
 10
843.7982033219734
 20
1627.245878730056
 10
842.7451581009528
 20
1627.245878730056
 10
841.7175834825275
 20
1627.245878730056
 10
840.7171233668831
 20
1627.245878730056
 10
839.7453782767847
 20
1627.245878730056
 10
838.8039027970812
 20
1627.245878730056
 10
837.8942030877032
 20
1627.245878730056
 10
837.0177344741266
 20
1627.245878730056
 10
836.1758991191633
 20
1627.245878730056
 10
835.3700437797991
 20
1627.245878730056
 10
834.6014576526705
 20
1627.245878730056
 10
833.8713703116246
 20
1627.245878730056
 10
833.1809497406633
 20
1627.245878730056
 10
832.5313004654184
 20
1627.245878730056
 10
831.9234617861456
 20
1627.245878730056
 10
831.3584061150667
 20
1627.245878730056
 10
830.8370374207164
 20
1627.245878730056
 10
830.3601897817864
 20
1627.245878730056
 10
829.9286260527772
 20
1627.245878730056
 10
829.5430366435926
 20
1627.245878730056
 10
829.2040384150329
 20
1627.245878730056
 10
828.9121736919481
 20
1627.245878730056
 10
828.667909395634
 20
1627.245878730056
 10
828.4716362968577
 20
1627.245878730056
 10
828.3236683907077
 20
1627.245878730056
 10
828.2242423942692
 20
1627.245878730056
 10
828.1735173679271
 20
1627.245878730056
 10
828.1664074431711
 20
1627.245878730056
1001
REVIT
1002
{
1070
     3
1000
923159
1002
}
  0
LWPOLYLINE
  5
149
330
141
100
AcDbEntity
  8
M-PIPE
100
AcDbPolyline
 90
       41
 70
   128
 43
0.0
 10
889.1664074431719
 20
1627.245878730057
 10
889.2063967773584
 20
1627.245078836718
 10
889.2463221371411
 20
1627.242680436359
 10
889.2861196504608
 20
1627.238687365911
 10
889.3257256497861
 20
1627.233106013432
 10
889.3650767739668
 20
1627.225945307898
 10
889.4041100695991
 20
1627.217216704909
 10
889.4427630917359
 20
1627.206934168368
 10
889.4809740037882
 20
1627.195114148139
 10
889.518681676447
 20
1627.181775553735
 10
889.5558257854805
 20
1627.16693972406
 10
889.5923469082378
 20
1627.150630393277
 10
889.6281866187132
 20
1627.132873652836
 10
889.6632875810157
 20
1627.113697909734
 10
889.6975936410928
 20
1627.09313384107
 10
889.7310499165669
 20
1627.071214344967
 10
889.7636028845342
 20
1627.047974487941
 10
889.7952004671903
 20
1627.023451448808
 10
889.8257921151433
 20
1626.997684459198
 10
889.8553288882824
 20
1626.970714740798
 10
889.8837635340711
 20
1626.942585439404
 10
889.9110505631425
 20
1626.913341555898
 10
889.937146322071
 20
1626.883029874255
 10
889.9620090632081
 20
1626.8516988867
 10
889.9855990114728
 20
1626.819398716129
 10
890.0078784279797
 20
1626.786181035925
 10
890.0288116704153
 20
1626.752098987289
 10
890.0483652500568
 20
1626.71720709423
 10
890.0665078853483
 20
1626.681561176333
 10
890.0832105519437
 20
1626.645218259463
 10
890.098446529139
 20
1626.608236484533
 10
890.1121914426212
 20
1626.570675014496
 10
890.124423303461
 20
1626.532593939689
 10
890.13512254329
 20
1626.494054181709
 10
890.1442720456072
 20
1626.455117395948
 10
890.1518571731601
 20
1626.415845872957
 10
890.1578657913635
 20
1626.376302438795
 10
890.1622882877093
 20
1626.336550354521
 10
890.1651175871474
 20
1626.29665321499
 10
890.1663491634018
 20
1626.256674847115
 10
890.1664074431719
 20
1626.245878730057
1001
REVIT
1002
{
1070
     3
1000
923159
1002
}
  0
LWPOLYLINE
  5
14A
330
141
100
AcDbEntity
  8
M-PIPE
100
AcDbPolyline
 90
       41
 70
   128
 43
0.0
 10
827.1664074431711
 20
1626.245878730056
 10
827.1672073365103
 20
1626.285868064243
 10
827.1696057368686
 20
1626.325793424025
 10
827.1735988073173
 20
1626.365590937345
 10
827.1791801597956
 20
1626.40519693667
 10
827.1863408653301
 20
1626.444548060851
 10
827.1950694683193
 20
1626.483581356483
 10
827.2053520048604
 20
1626.52223437862
 10
827.2171720250888
 20
1626.560445290672
 10
827.2305106194933
 20
1626.598152963331
 10
827.2453464491684
 20
1626.635297072365
 10
827.2616557799512
 20
1626.671818195122
 10
827.2794125203919
 20
1626.707657905597
 10
827.2985882634936
 20
1626.7427588679
 10
827.3191523321576
 20
1626.777064927977
 10
827.3410718282615
 20
1626.810521203451
 10
827.3643116852868
 20
1626.843074171418
 10
827.3888347244204
 20
1626.874671754074
 10
827.4146017140303
 20
1626.905263402027
 10
827.4415714324304
 20
1626.934800175166
 10
827.4697007338241
 20
1626.963234820955
 10
827.4989446173298
 20
1626.990521850027
 10
827.5292562989726
 20
1627.016617608955
 10
827.5605872865277
 20
1627.041480350092
 10
827.5928874570988
 20
1627.065070298357
 10
827.626105137303
 20
1627.087349714864
 10
827.6601871859385
 20
1627.1082829573
 10
827.6950790789975
 20
1627.127836536941
 10
827.7307249968943
 20
1627.145979172232
 10
827.7670679137649
 20
1627.162681838828
 10
827.8040496886946
 20
1627.177917816023
 10
827.8416111587326
 20
1627.191662729505
 10
827.8796922335393
 20
1627.203894590345
 10
827.9182319915189
 20
1627.214593830174
 10
827.9571687772797
 20
1627.223743332491
 10
827.9964403002709
 20
1627.231328460044
 10
828.0359837344331
 20
1627.237337078248
 10
828.075735818707
 20
1627.241759574593
 10
828.1156329582376
 20
1627.244588874032
 10
828.155611326113
 20
1627.245820450286
 10
828.1664074431711
 20
1627.245878730056
1001
REVIT
1002
{
1070
     3
1000
923159
1002
}
  0
LWPOLYLINE
  5
14B
330
141
100
AcDbEntity
  8
M-PIPE
100
AcDbPolyline
 90
        3
 70
   128
 43
0.0
 10
828.1664074431711
 20
1627.245878730056
 10
828.1908041900114
 20
1627.245878730056
 10
828.2325218605288
 20
1627.245878730056
1001
REVIT
1002
{
1070
     3
1000
923159
1002
}
  0
LWPOLYLINE
  5
14C
330
141
100
AcDbEntity
  8
M-PIPE
100
AcDbPolyline
 90
        3
 70
   128
 43
0.0
 10
889.1085724920738
 20
1627.245878730057
 10
889.1592975184162
 20
1627.245878730057
 10
889.1664074431719
 20
1627.245878730057
1001
REVIT
1002
{
1070
     3
1000
923159
1002
}
  0
LINE
  5
14D
330
141
100
AcDbEntity
  8
M-PIPE
100
AcDbLine
 10
823.1664074431707
 20
1603.245878730055
 30
0.0
 11
894.1664074431706
 21
1603.245878730056
 31
0.0
1001
REVIT
1002
{
1070
     3
1000
923159
1002
}
  0
LINE
  5
14E
330
141
100
AcDbEntity
  8
M-PIPE
100
AcDbLine
 10
823.1664074431707
 20
1598.977929537624
 30
0.0
 11
894.1664074431708
 21
1598.977929537625
 31
0.0
1001
REVIT
1002
{
1070
     3
1000
923159
1002
}
  0
LINE
  5
14F
330
141
100
AcDbEntity
  8
M-PIPE
100
AcDbLine
 10
826.1664074431708
 20
1597.245878730055
 30
0.0
 11
891.1664074431708
 21
1597.245878730056
 31
0.0
1001
REVIT
1002
{
1070
     3
1000
923159
1002
}
  0
LINE
  5
150
330
141
100
AcDbEntity
  8
M-PIPE
100
AcDbLine
 10
852.1164074431672
 20
1650.245878730071
 30
0.0
 11
852.1164074431673
 21
1643.245878730056
 31
0.0
1001
REVIT
1002
{
1070
     3
1000
923159
1002
}
  0
LINE
  5
151
330
141
100
AcDbEntity
  8
M-PIPE
100
AcDbLine
 10
865.2164074431755
 20
1643.245878730056
 30
0.0
 11
865.2164074431755
 21
1650.245878730071
 31
0.0
1001
REVIT
1002
{
1070
     3
1000
923159
1002
}
  0
LINE
  5
152
330
141
100
AcDbEntity
  8
M-PIPE
100
AcDbLine
 10
850.6664074431713
 20
1643.245878730056
 30
0.0
 11
850.6664074431713
 21
1631.245878730056
 31
0.0
1001
REVIT
1002
{
1070
     3
1000
923159
1002
}
  0
LINE
  5
153
330
141
100
AcDbEntity
  8
M-PIPE
100
AcDbLine
 10
850.6664074431713
 20
1629.245878730056
 30
0.0
 11
850.6664074431714
 21
1627.245878730056
 31
0.0
1001
REVIT
1002
{
1070
     3
1000
923159
1002
}
  0
LINE
  5
154
330
141
100
AcDbEntity
  8
M-PIPE
100
AcDbLine
 10
866.6664074431716
 20
1627.245878730057
 30
0.0
 11
866.6664074431716
 21
1629.245878730056
 31
0.0
1001
REVIT
1002
{
1070
     3
1000
923159
1002
}
  0
LINE
  5
155
330
141
100
AcDbEntity
  8
M-PIPE
100
AcDbLine
 10
866.6664074431716
 20
1631.245878730056
 30
0.0
 11
866.6664074431716
 21
1643.245878730056
 31
0.0
1001
REVIT
1002
{
1070
     3
1000
923159
1002
}
  0
LINE
  5
156
330
141
100
AcDbEntity
  8
M-PIPE
100
AcDbLine
 10
852.6664074431712
 20
1631.245878730056
 30
0.0
 11
852.6664074431712
 21
1629.245878730056
 31
0.0
1001
REVIT
1002
{
1070
     3
1000
923159
1002
}
  0
LINE
  5
157
330
141
100
AcDbEntity
  8
M-PIPE
100
AcDbLine
 10
864.6664074431717
 20
1629.245878730056
 30
0.0
 11
864.6664074431717
 21
1631.245878730056
 31
0.0
1001
REVIT
1002
{
1070
     3
1000
923159
1002
}
  0
LINE
  5
158
330
141
100
AcDbEntity
  8
M-PIPE
100
AcDbLine
 10
850.66640744317
 20
1643.245878730056
 30
0.0
 11
866.6664074431704
 21
1643.245878730056
 31
0.0
1001
REVIT
1002
{
1070
     3
1000
923159
1002
}
  0
LINE
  5
159
330
141
100
AcDbEntity
  8
M-PIPE
100
AcDbLine
 10
850.6664074431702
 20
1631.245878730056
 30
0.0
 11
866.6664074431706
 21
1631.245878730056
 31
0.0
1001
REVIT
1002
{
1070
     3
1000
923159
1002
}
  0
LINE
  5
15A
330
141
100
AcDbEntity
  8
M-PIPE
100
AcDbLine
 10
866.6664074431706
 20
1629.245878730056
 30
0.0
 11
850.6664074431702
 21
1629.245878730056
 31
0.0
1001
REVIT
1002
{
1070
     3
1000
923159
1002
}
  0
LINE
  5
15B
330
141
100
AcDbEntity
  8
M-PIPE
100
AcDbLine
 10
741.1664074431715
 20
1626.245878730055
 30
0.0
 11
741.166407443172
 21
1603.245878730055
 31
0.0
1001
REVIT
1002
{
1070
     3
1000
923159
1002
}
  0
LINE
  5
15C
330
141
100
AcDbEntity
  8
M-PIPE
100
AcDbLine
 10
804.1664074431718
 20
1603.245878730056
 30
0.0
 11
804.1664074431713
 21
1626.245878730056
 31
0.0
1001
REVIT
1002
{
1070
     3
1000
923159
1002
}
  0
LINE
  5
15D
330
141
100
AcDbEntity
  8
M-PIPE
100
AcDbLine
 10
737.1664074431719
 20
1603.245878730055
 30
0.0
 11
737.1664074431719
 21
1598.977929537624
 31
0.0
1001
REVIT
1002
{
1070
     3
1000
923159
1002
}
  0
LINE
  5
15E
330
141
100
AcDbEntity
  8
M-PIPE
100
AcDbLine
 10
808.1664074431717
 20
1598.977929537625
 30
0.0
 11
808.1664074431719
 21
1603.245878730057
 31
0.0
1001
REVIT
1002
{
1070
     3
1000
923159
1002
}
  0
LINE
  5
15F
330
141
100
AcDbEntity
  8
M-PIPE
100
AcDbLine
 10
737.1664074431718
 20
1598.977929537624
 30
0.0
 11
740.1664074431717
 21
1597.245878730056
 31
0.0
1001
REVIT
1002
{
1070
     3
1000
923159
1002
}
  0
LINE
  5
160
330
141
100
AcDbEntity
  8
M-PIPE
100
AcDbLine
 10
805.166407443172
 20
1597.245878730056
 30
0.0
 11
808.1664074431719
 21
1598.977929537625
 31
0.0
1001
REVIT
1002
{
1070
     3
1000
923159
1002
}
  0
LWPOLYLINE
  5
161
330
141
100
AcDbEntity
  8
M-PIPE
100
AcDbPolyline
 90
       80
 70
   128
 43
0.0
 10
803.1664074431716
 20
1627.245878730057
 10
803.1420106963315
 20
1627.245878730056
 10
803.0688594854016
 20
1627.245878730056
 10
802.9470708367147
 20
1627.245878730056
 10
802.7768395861285
 20
1627.245878730056
 10
802.5584380673297
 20
1627.245878730056
 10
802.2922156761586
 20
1627.245878730056
 10
801.9785983116502
 20
1627.245878730056
 10
801.6180876946863
 20
1627.245878730056
 10
801.2112605653488
 20
1627.245878730056
 10
800.7587677602598
 20
1627.245878730056
 10
800.2613331713806
 20
1627.245878730056
 10
799.71975258794
 20
1627.245878730056
 10
799.1348924233401
 20
1627.245878730056
 10
798.507688329081
 20
1627.245878730056
 10
797.8391436979168
 20
1627.245878730056
 10
797.1303280586425
 20
1627.245878730056
 10
796.3823753650752
 20
1627.245878730056
 10
795.5964821819689
 20
1627.245878730056
 10
794.7739057707694
 20
1627.245878730056
 10
793.9159620782604
 20
1627.245878730056
 10
793.0240236313315
 20
1627.245878730056
 10
792.0995173412283
 20
1627.245878730056
 10
791.1439222207973
 20
1627.245878730056
 10
790.1587670183817
 20
1627.245878730056
 10
789.1456277721499
 20
1627.245878730056
 10
788.1061252887715
 20
1627.245878730056
 10
787.0419225504707
 20
1627.245878730056
 10
785.9547220546114
 20
1627.245878730056
 10
784.846263090063
 20
1627.245878730056
 10
783.7183189547101
 20
1627.245878730056
 10
782.5726941185543
 20
1627.245878730056
 10
781.4112213369464
 20
1627.245878730056
 10
780.235758718569
 20
1627.245878730056
 10
779.0481867528598
 20
1627.245878730056
 10
777.8504053016288
 20
1627.245878730056
 10
776.6443305596849
 20
1627.245878730056
 10
775.4318919893328
 20
1627.245878730056
 10
774.2150292336457
 20
1627.245878730056
 10
772.9956890134486
 20
1627.245878730056
 10
771.7758220129821
 20
1627.245878730056
 10
770.5573797592226
 20
1627.245878730056
 10
769.3423114998553
 20
1627.245878730056
 10
768.1325610848947
 20
1627.245878730056
 10
766.9300638569386
 20
1627.245878730056
 10
765.7367435550323
 20
1627.245878730056
 10
764.5545092370975
 20
1627.245878730056
 10
763.3852522258465
 20
1627.245878730056
 10
762.2308430830691
 20
1627.245878730056
 10
761.0931286171327
 20
1627.245878730056
 10
759.9739289284833
 20
1627.245878730056
 10
758.8750344978735
 20
1627.245878730056
 10
757.7982033219734
 20
1627.245878730056
 10
756.7451581009528
 20
1627.245878730056
 10
755.7175834825276
 20
1627.245878730056
 10
754.7171233668832
 20
1627.245878730056
 10
753.7453782767847
 20
1627.245878730056
 10
752.8039027970812
 20
1627.245878730056
 10
751.894203087703
 20
1627.245878730056
 10
751.0177344741265
 20
1627.245878730056
 10
750.175899119163
 20
1627.245878730056
 10
749.3700437797992
 20
1627.245878730056
 10
748.6014576526706
 20
1627.245878730056
 10
747.8713703116246
 20
1627.245878730056
 10
747.1809497406634
 20
1627.245878730056
 10
746.5313004654183
 20
1627.245878730056
 10
745.9234617861455
 20
1627.245878730056
 10
745.3584061150668
 20
1627.245878730056
 10
744.8370374207165
 20
1627.245878730056
 10
744.3601897817866
 20
1627.245878730056
 10
743.9286260527771
 20
1627.245878730056
 10
743.5430366435926
 20
1627.245878730056
 10
743.2040384150329
 20
1627.245878730056
 10
742.9121736919483
 20
1627.245878730056
 10
742.6679093956339
 20
1627.245878730056
 10
742.4716362968576
 20
1627.245878730056
 10
742.3236683907076
 20
1627.245878730056
 10
742.2242423942692
 20
1627.245878730056
 10
742.1735173679269
 20
1627.245878730056
 10
742.1664074431712
 20
1627.245878730056
1001
REVIT
1002
{
1070
     3
1000
923159
1002
}
  0
LWPOLYLINE
  5
162
330
141
100
AcDbEntity
  8
M-PIPE
100
AcDbPolyline
 90
       41
 70
   128
 43
0.0
 10
803.1664074431716
 20
1627.245878730057
 10
803.2063967773584
 20
1627.245078836718
 10
803.246322137141
 20
1627.242680436359
 10
803.2861196504606
 20
1627.238687365911
 10
803.3257256497861
 20
1627.233106013432
 10
803.3650767739668
 20
1627.225945307898
 10
803.4041100695988
 20
1627.217216704908
 10
803.442763091736
 20
1627.206934168367
 10
803.4809740037879
 20
1627.195114148139
 10
803.5186816764468
 20
1627.181775553734
 10
803.5558257854804
 20
1627.166939724059
 10
803.5923469082378
 20
1627.150630393276
 10
803.6281866187133
 20
1627.132873652836
 10
803.6632875810155
 20
1627.113697909734
 10
803.6975936410927
 20
1627.09313384107
 10
803.7310499165668
 20
1627.071214344966
 10
803.7636028845341
 20
1627.047974487941
 10
803.7952004671902
 20
1627.023451448808
 10
803.8257921151432
 20
1626.997684459198
 10
803.8553288882823
 20
1626.970714740798
 10
803.8837635340714
 20
1626.942585439404
 10
803.9110505631427
 20
1626.913341555898
 10
803.9371463220707
 20
1626.883029874255
 10
803.9620090632082
 20
1626.8516988867
 10
803.9855990114727
 20
1626.819398716129
 10
804.0078784279796
 20
1626.786181035924
 10
804.0288116704152
 20
1626.752098987289
 10
804.0483652500567
 20
1626.71720709423
 10
804.0665078853482
 20
1626.681561176333
 10
804.0832105519436
 20
1626.645218259463
 10
804.0984465291391
 20
1626.608236484533
 10
804.1121914426213
 20
1626.570675014495
 10
804.124423303461
 20
1626.532593939688
 10
804.1351225432901
 20
1626.494054181709
 10
804.1442720456071
 20
1626.455117395948
 10
804.1518571731604
 20
1626.415845872957
 10
804.1578657913634
 20
1626.376302438795
 10
804.1622882877094
 20
1626.336550354521
 10
804.1651175871475
 20
1626.29665321499
 10
804.1663491634016
 20
1626.256674847115
 10
804.1664074431718
 20
1626.245878730056
1001
REVIT
1002
{
1070
     3
1000
923159
1002
}
  0
LWPOLYLINE
  5
163
330
141
100
AcDbEntity
  8
M-PIPE
100
AcDbPolyline
 90
       41
 70
   128
 43
0.0
 10
741.1664074431712
 20
1626.245878730055
 10
741.1672073365101
 20
1626.285868064242
 10
741.1696057368686
 20
1626.325793424025
 10
741.1735988073172
 20
1626.365590937345
 10
741.1791801597956
 20
1626.405196936669
 10
741.18634086533
 20
1626.444548060851
 10
741.1950694683191
 20
1626.483581356483
 10
741.2053520048604
 20
1626.52223437862
 10
741.2171720250888
 20
1626.560445290672
 10
741.2305106194933
 20
1626.598152963331
 10
741.2453464491682
 20
1626.635297072364
 10
741.2616557799512
 20
1626.671818195122
 10
741.2794125203919
 20
1626.707657905597
 10
741.2985882634936
 20
1626.742758867899
 10
741.3191523321578
 20
1626.777064927977
 10
741.3410718282616
 20
1626.81052120345
 10
741.3643116852869
 20
1626.843074171418
 10
741.3888347244203
 20
1626.874671754074
 10
741.4146017140303
 20
1626.905263402027
 10
741.4415714324303
 20
1626.934800175166
 10
741.469700733824
 20
1626.963234820955
 10
741.4989446173298
 20
1626.990521850026
 10
741.5292562989726
 20
1627.016617608954
 10
741.5605872865277
 20
1627.041480350092
 10
741.5928874570987
 20
1627.065070298356
 10
741.6261051373029
 20
1627.087349714863
 10
741.6601871859384
 20
1627.108282957299
 10
741.6950790789974
 20
1627.12783653694
 10
741.7307249968944
 20
1627.145979172232
 10
741.767067913765
 20
1627.162681838827
 10
741.8040496886946
 20
1627.177917816023
 10
741.8416111587323
 20
1627.191662729505
 10
741.8796922335392
 20
1627.203894590345
 10
741.9182319915188
 20
1627.214593830174
 10
741.9571687772799
 20
1627.223743332491
 10
741.996440300271
 20
1627.231328460044
 10
742.035983734433
 20
1627.237337078247
 10
742.0757358187069
 20
1627.241759574593
 10
742.1156329582376
 20
1627.244588874031
 10
742.1556113261129
 20
1627.245820450285
 10
742.1664074431712
 20
1627.245878730056
1001
REVIT
1002
{
1070
     3
1000
923159
1002
}
  0
LWPOLYLINE
  5
164
330
141
100
AcDbEntity
  8
M-PIPE
100
AcDbPolyline
 90
        3
 70
   128
 43
0.0
 10
742.1664074431712
 20
1627.245878730056
 10
742.1908041900114
 20
1627.245878730056
 10
742.2325218605287
 20
1627.245878730056
1001
REVIT
1002
{
1070
     3
1000
923159
1002
}
  0
LWPOLYLINE
  5
165
330
141
100
AcDbEntity
  8
M-PIPE
100
AcDbPolyline
 90
        3
 70
   128
 43
0.0
 10
803.1085724920737
 20
1627.245878730057
 10
803.159297518416
 20
1627.245878730057
 10
803.1664074431716
 20
1627.245878730057
1001
REVIT
1002
{
1070
     3
1000
923159
1002
}
  0
LINE
  5
166
330
141
100
AcDbEntity
  8
M-PIPE
100
AcDbLine
 10
737.1664074431708
 20
1603.245878730055
 30
0.0
 11
808.1664074431706
 21
1603.245878730056
 31
0.0
1001
REVIT
1002
{
1070
     3
1000
923159
1002
}
  0
LINE
  5
167
330
141
100
AcDbEntity
  8
M-PIPE
100
AcDbLine
 10
737.1664074431708
 20
1598.977929537624
 30
0.0
 11
808.1664074431708
 21
1598.977929537625
 31
0.0
1001
REVIT
1002
{
1070
     3
1000
923159
1002
}
  0
LINE
  5
168
330
141
100
AcDbEntity
  8
M-PIPE
100
AcDbLine
 10
740.1664074431709
 20
1597.245878730055
 30
0.0
 11
805.1664074431709
 21
1597.245878730056
 31
0.0
1001
REVIT
1002
{
1070
     3
1000
923159
1002
}
  0
LINE
  5
169
330
141
100
AcDbEntity
  8
M-PIPE
100
AcDbLine
 10
766.1164074431671
 20
1650.245878730071
 30
0.0
 11
766.1164074431674
 21
1643.245878730056
 31
0.0
1001
REVIT
1002
{
1070
     3
1000
923159
1002
}
  0
LINE
  5
16A
330
141
100
AcDbEntity
  8
M-PIPE
100
AcDbLine
 10
779.2164074431755
 20
1643.245878730056
 30
0.0
 11
779.2164074431755
 21
1650.245878730071
 31
0.0
1001
REVIT
1002
{
1070
     3
1000
923159
1002
}
  0
LINE
  5
16B
330
141
100
AcDbEntity
  8
M-PIPE
100
AcDbLine
 10
764.6664074431712
 20
1643.245878730056
 30
0.0
 11
764.6664074431712
 21
1631.245878730056
 31
0.0
1001
REVIT
1002
{
1070
     3
1000
923159
1002
}
  0
LINE
  5
16C
330
141
100
AcDbEntity
  8
M-PIPE
100
AcDbLine
 10
764.6664074431712
 20
1629.245878730056
 30
0.0
 11
764.6664074431713
 21
1627.245878730056
 31
0.0
1001
REVIT
1002
{
1070
     3
1000
923159
1002
}
  0
LINE
  5
16D
330
141
100
AcDbEntity
  8
M-PIPE
100
AcDbLine
 10
780.6664074431717
 20
1627.245878730056
 30
0.0
 11
780.6664074431717
 21
1629.245878730056
 31
0.0
1001
REVIT
1002
{
1070
     3
1000
923159
1002
}
  0
LINE
  5
16E
330
141
100
AcDbEntity
  8
M-PIPE
100
AcDbLine
 10
780.6664074431717
 20
1631.245878730056
 30
0.0
 11
780.6664074431717
 21
1643.245878730056
 31
0.0
1001
REVIT
1002
{
1070
     3
1000
923159
1002
}
  0
LINE
  5
16F
330
141
100
AcDbEntity
  8
M-PIPE
100
AcDbLine
 10
766.6664074431714
 20
1631.245878730056
 30
0.0
 11
766.6664074431714
 21
1629.245878730056
 31
0.0
1001
REVIT
1002
{
1070
     3
1000
923159
1002
}
  0
LINE
  5
170
330
141
100
AcDbEntity
  8
M-PIPE
100
AcDbLine
 10
778.6664074431715
 20
1629.245878730056
 30
0.0
 11
778.6664074431715
 21
1631.245878730056
 31
0.0
1001
REVIT
1002
{
1070
     3
1000
923159
1002
}
  0
LINE
  5
171
330
141
100
AcDbEntity
  8
M-PIPE
100
AcDbLine
 10
764.6664074431702
 20
1643.245878730055
 30
0.0
 11
780.6664074431704
 21
1643.245878730055
 31
0.0
1001
REVIT
1002
{
1070
     3
1000
923159
1002
}
  0
LINE
  5
172
330
141
100
AcDbEntity
  8
M-PIPE
100
AcDbLine
 10
764.6664074431703
 20
1631.245878730055
 30
0.0
 11
780.6664074431705
 21
1631.245878730055
 31
0.0
1001
REVIT
1002
{
1070
     3
1000
923159
1002
}
  0
LINE
  5
173
330
141
100
AcDbEntity
  8
M-PIPE
100
AcDbLine
 10
780.6664074431705
 20
1629.245878730055
 30
0.0
 11
764.6664074431703
 21
1629.245878730055
 31
0.0
1001
REVIT
1002
{
1070
     3
1000
923159
1002
}
  0
ARC
  5
174
330
141
100
AcDbEntity
  8
P-SANR-FIXT
100
AcDbCircle
 10
815.666407443185
 20
1706.245878730071
 30
0.0
 40
28.92837435254737
100
AcDbArc
 50
0.0000000000000986
 51
180.0000000000001
  0
ARC
  5
175
330
141
100
AcDbEntity
  8
P-SANR-FIXT
100
AcDbCircle
 10
815.666407443185
 20
1706.245878730071
 30
0.0
 40
28.92837435254721
100
AcDbArc
 50
180.0000000000007
 51
0.0000000000002036
  0
ARC
  5
176
330
141
100
AcDbEntity
  8
P-SANR-FIXT
100
AcDbCircle
 10
815.666407443185
 20
1706.245878730071
 30
0.0
 40
29.50000000000375
100
AcDbArc
 50
0.0
 51
179.9999999999991
  0
ARC
  5
177
330
141
100
AcDbEntity
  8
P-SANR-FIXT
100
AcDbCircle
 10
815.666407443185
 20
1706.245878730071
 30
0.0
 40
29.5000000000034
100
AcDbArc
 50
180.0000000000001
 51
0.0000000000001527
  0
LINE
  5
178
330
141
100
AcDbEntity
  8
P-SANR-FIXT
100
AcDbLine
 10
850.1168329271372
 20
1768.24587873009
 30
0.0
 11
849.1664074432039
 21
1767.295453246156
 31
0.0
  0
LINE
  5
179
330
141
100
AcDbEntity
  8
P-SANR-FIXT
100
AcDbLine
 10
868.166407443164
 20
1767.295453246156
 30
0.0
 11
867.2159819592307
 21
1768.24587873009
 31
0.0
  0
LINE
  5
17A
330
141
100
AcDbEntity
  8
P-SANR-FIXT
100
AcDbLine
 10
849.1664074432039
 20
1767.295453246156
 30
0.0
 11
849.1664074432037
 21
1762.245878730039
 31
0.0
  0
LINE
  5
17B
330
141
100
AcDbEntity
  8
P-SANR-FIXT
100
AcDbLine
 10
868.1664074431639
 20
1762.245878730039
 30
0.0
 11
868.166407443164
 21
1767.295453246156
 31
0.0
  0
LINE
  5
17C
330
141
100
AcDbEntity
  8
P-SANR-FIXT
100
AcDbLine
 10
868.166407443163
 20
1762.245878730038
 30
0.0
 11
849.1664074432025
 21
1762.245878730038
 31
0.0
  0
LINE
  5
17D
330
141
100
AcDbEntity
  8
P-SANR-FIXT
100
AcDbLine
 10
850.116832927136
 20
1768.245878730089
 30
0.0
 11
867.2159819592295
 21
1768.245878730089
 31
0.0
  0
LINE
  5
17E
330
141
100
AcDbEntity
  8
P-SANR-FIXT
100
AcDbLine
 10
849.1664074432025
 20
1767.295453246155
 30
0.0
 11
868.166407443163
 21
1767.295453246155
 31
0.0
  0
LINE
  5
17F
330
141
100
AcDbEntity
  8
P-SANR-FIXT
100
AcDbLine
 10
764.1168329271411
 20
1768.245878730089
 30
0.0
 11
763.1664074432076
 21
1767.295453246156
 31
0.0
  0
LINE
  5
180
330
141
100
AcDbEntity
  8
P-SANR-FIXT
100
AcDbLine
 10
782.1664074431679
 20
1767.295453246156
 30
0.0
 11
781.2159819592346
 21
1768.245878730089
 31
0.0
  0
LINE
  5
181
330
141
100
AcDbEntity
  8
P-SANR-FIXT
100
AcDbLine
 10
763.1664074432076
 20
1767.295453246156
 30
0.0
 11
763.1664074432076
 21
1762.245878730038
 31
0.0
  0
LINE
  5
182
330
141
100
AcDbEntity
  8
P-SANR-FIXT
100
AcDbLine
 10
782.1664074431678
 20
1762.245878730038
 30
0.0
 11
782.1664074431679
 21
1767.295453246156
 31
0.0
  0
LINE
  5
183
330
141
100
AcDbEntity
  8
P-SANR-FIXT
100
AcDbLine
 10
782.1664074431669
 20
1762.245878730037
 30
0.0
 11
763.1664074432064
 21
1762.245878730037
 31
0.0
  0
LINE
  5
184
330
141
100
AcDbEntity
  8
P-SANR-FIXT
100
AcDbLine
 10
764.1168329271398
 20
1768.245878730088
 30
0.0
 11
781.2159819592334
 21
1768.245878730088
 31
0.0
  0
LINE
  5
185
330
141
100
AcDbEntity
  8
P-SANR-FIXT
100
AcDbLine
 10
763.1664074432064
 20
1767.295453246155
 30
0.0
 11
782.1664074431669
 21
1767.295453246155
 31
0.0
  0
ARC
  5
186
330
141
100
AcDbEntity
  8
P-SANR-FIXT
100
AcDbCircle
 10
815.666407443185
 20
1706.24587873007
 30
0.0
 40
51.00000000000386
100
AcDbArc
 50
0.0
 51
180.0
  0
ARC
  5
187
330
141
100
AcDbEntity
  8
P-SANR-FIXT
100
AcDbCircle
 10
815.666407443185
 20
1706.24587873007
 30
0.0
 40
51.00000000000392
100
AcDbArc
 50
180.0000000000004
 51
359.9999999999996
  0
LINE
  5
188
330
141
100
AcDbEntity
  8
P-SANR-FIXT
100
AcDbLine
 10
871.8260152652671
 20
1706.245878730072
 30
0.0
 11
870.3331523694947
 21
1748.995878730068
 31
0.0
  0
ARC
  5
189
330
141
100
AcDbEntity
  8
P-SANR-FIXT
100
AcDbCircle
 10
858.3331523694948
 20
1748.995878730073
 30
0.0
 40
11.99999999999989
100
AcDbArc
 50
359.9999999999763
 51
149.9380539879565
  0
ARC
  5
18A
330
141
100
AcDbEntity
  8
P-SANR-FIXT
100
AcDbCircle
 10
844.6286369641237
 20
1758.746924668805
 30
0.0
 40
5.000000000000005
100
AcDbArc
 50
241.0470388034111
 51
311.5857893014153
  0
ARC
  5
18B
330
141
100
AcDbEntity
  8
P-SANR-FIXT
100
AcDbCircle
 10
815.5831523694782
 20
1706.24587873006
 30
0.0
 40
54.99999999999998
100
AcDbArc
 50
61.04703880340885
 51
118.7795006086579
  0
ARC
  5
18C
330
141
100
AcDbEntity
  8
P-SANR-FIXT
100
AcDbCircle
 10
786.6967453717694
 20
1758.834617931174
 30
0.0
 40
5.00000000000001
100
AcDbArc
 50
215.3626276135331
 51
298.7795006086652
  0
ARC
  5
18D
330
141
100
AcDbEntity
  8
P-SANR-FIXT
100
AcDbCircle
 10
772.8331523694947
 20
1748.995878730072
 30
0.0
 40
11.99999999999996
100
AcDbArc
 50
35.36262761353197
 51
180.0000000000495
  0
LINE
  5
18E
330
141
100
AcDbEntity
  8
P-SANR-FIXT
100
AcDbLine
 10
760.8331523694947
 20
1748.995878730062
 30
0.0
 11
759.3402894737229
 21
1706.245878730073
 31
0.0
  0
LINE
  5
18F
330
141
100
AcDbEntity
  8
P-SANR-FIXT
100
AcDbLine
 10
759.3402894737229
 20
1706.245878730073
 30
0.0
 11
760.8331523694947
 21
1663.495878730091
 31
0.0
  0
ARC
  5
190
330
141
100
AcDbEntity
  8
P-SANR-FIXT
100
AcDbCircle
 10
772.8331523694947
 20
1663.495878730072
 30
0.0
 40
11.99999999999976
100
AcDbArc
 50
179.9999999999091
 51
324.6373723864662
  0
ARC
  5
191
330
141
100
AcDbEntity
  8
P-SANR-FIXT
100
AcDbCircle
 10
786.6967453717699
 20
1653.657139528971
 30
0.0
 40
4.99999999999979
100
AcDbArc
 50
61.2204993913393
 51
144.6373723864699
  0
ARC
  5
192
330
141
100
AcDbEntity
  8
P-SANR-FIXT
100
AcDbCircle
 10
815.5831523694782
 20
1706.245878730085
 30
0.0
 40
55.00000000000002
100
AcDbArc
 50
241.2204993913411
 51
298.9529611965902
  0
ARC
  5
193
330
141
100
AcDbEntity
  8
P-SANR-FIXT
100
AcDbCircle
 10
844.6286369641242
 20
1653.74483279134
 30
0.0
 40
5.000000000000191
100
AcDbArc
 50
48.41421069859229
 51
118.9529611965929
  0
ARC
  5
194
330
141
100
AcDbEntity
  8
P-SANR-FIXT
100
AcDbCircle
 10
858.3331523694948
 20
1663.495878730073
 30
0.0
 40
12.00000000000005
100
AcDbArc
 50
210.0619460120439
 51
359.9999999999833
  0
LINE
  5
195
330
141
100
AcDbEntity
  8
P-SANR-FIXT
100
AcDbLine
 10
870.3331523694947
 20
1663.49587873007
 30
0.0
 11
871.8260152652671
 21
1706.245878730072
 31
0.0
  0
LINE
  5
196
330
141
100
AcDbEntity
  8
P-SANR-FIXT
100
AcDbLine
 10
917.6664074431858
 20
1797.745878730072
 30
0.0
 11
901.6664074431856
 21
1797.745878730072
 31
0.0
  0
LINE
  5
197
330
141
100
AcDbEntity
  8
P-SANR-FIXT
100
AcDbLine
 10
901.6664074431867
 20
1614.745878730072
 30
0.0
 11
917.6664074431867
 21
1614.745878730072
 31
0.0
  0
LWPOLYLINE
  5
198
330
141
100
AcDbEntity
  8
P-SANR-FIXT
100
AcDbPolyline
 90
       39
 70
   128
 43
0.0
 10
891.6664074431862
 20
1743.245878730072
 10
892.0663007850526
 20
1743.253877663462
 10
892.465554382878
 20
1743.277861667046
 10
892.8635295160754
 20
1743.317792371533
 10
893.2595895093287
 20
1743.373605896315
 10
893.6531007511369
 20
1743.445212951659
 10
894.0434337074576
 20
1743.532498981551
 10
894.4299639288272
 20
1743.635324346964
 10
894.8120730493473
 20
1743.753524549247
 10
895.1891497759371
 20
1743.886910493293
 10
895.5605908662727
 20
1744.035268790043
 10
895.9258020938463
 20
1744.198362097872
 10
896.284199198601
 20
1744.375929502279
 10
896.6352088216236
 20
1744.567686933295
 10
896.9782694223949
 20
1744.773327619938
 10
897.3128321771365
 20
1744.992522580975
 10
897.6383618568101
 20
1745.224921151229
 10
897.9543376833708
 20
1745.470151542562
 10
898.2602541629008
 20
1745.727821438663
 10
898.5556218942917
 20
1745.997518622663
 10
898.8399683521814
 20
1746.2788116366
 10
899.1128386428947
 20
1746.571250471659
 10
899.3737962321759
 20
1746.874367288086
 10
899.6224236435498
 20
1747.187677163637
 10
899.8583231261962
 20
1747.510678869347
 10
900.0811172912651
 20
1747.84285567139
 10
900.2904497156196
 20
1748.183676157744
 10
900.4859855120356
 20
1748.532595088335
 10
900.6674118649511
 20
1748.889054267305
 10
900.8344385309037
 20
1749.252483436009
 10
900.9867983028584
 20
1749.622301185305
 10
901.1242474376816
 20
1749.997915885684
 10
901.2465660460783
 20
1750.378726633752
 10
901.3535584443687
 20
1750.764124213548
 10
901.4450534675393
 20
1751.153492071158
 10
901.5209047430706
 20
1751.546207301069
 10
901.5809909251029
 20
1751.94164164269
 10
901.6252158885624
 20
1752.339162485429
 10
901.6535088829419
 20
1752.738133880736
  0
LWPOLYLINE
  5
199
330
141
100
AcDbEntity
  8
P-SANR-FIXT
100
AcDbPolyline
 90
       40
 70
   128
 43
0.0
 10
901.658408509796
 20
1659.645772071938
 10
901.6344245062127
 20
1660.045025669763
 10
901.594493801725
 20
1660.443000802961
 10
901.5386802769425
 20
1660.839060796214
 10
901.4670732215988
 20
1661.232572038022
 10
901.3797871917068
 20
1661.622904994343
 10
901.2769618262939
 20
1662.009435215713
 10
901.1587616240106
 20
1662.391544336233
 10
901.0253756799656
 20
1662.768621062823
 10
900.8770173832152
 20
1663.140062153158
 10
900.7139240753858
 20
1663.505273380732
 10
900.5363566709792
 20
1663.863670485486
 10
900.3445992399628
 20
1664.214680108509
 10
900.1389585533205
 20
1664.55774070928
 10
899.9197635922831
 20
1664.892303464022
 10
899.6873650220292
 20
1665.217833143695
 10
899.4421346306955
 20
1665.533808970256
 10
899.1844647345953
 20
1665.839725449786
 10
898.9147675505954
 20
1666.135093181177
 10
898.633474536658
 20
1666.419439639067
 10
898.3410357015994
 20
1666.69230992978
 10
898.0379188851719
 20
1666.953267519061
 10
897.724609009621
 20
1667.201894930435
 10
897.4016073039107
 20
1667.437794413081
 10
897.0694305018676
 20
1667.660588578151
 10
896.7286100155142
 20
1667.869921002505
 10
896.3796910849238
 20
1668.065456798921
 10
896.0232319059535
 20
1668.246883151837
 10
895.6598027372493
 20
1668.413909817789
 10
895.2899849879532
 20
1668.566269589744
 10
894.9143702875742
 20
1668.703718724567
 10
894.5335595395059
 20
1668.826037332963
 10
894.1481619597102
 20
1668.933029731254
 10
893.7587941021005
 20
1669.024524754425
 10
893.3660788721889
 20
1669.100376029956
 10
892.9706445305679
 20
1669.160462211988
 10
892.5731236878295
 20
1669.204687175448
 10
892.1741522925222
 20
1669.232980169828
 10
891.774368613769
 20
1669.245295932371
 10
891.6664074431864
 20
1669.245878730072
  0
LINE
  5
19A
330
141
100
AcDbEntity
  8
P-SANR-FIXT
100
AcDbLine
 10
891.6664074431862
 20
1743.245878730071
 30
0.0
 11
870.6172113022596
 21
1743.245878730071
 31
0.0
  0
LINE
  5
19B
330
141
100
AcDbEntity
  8
P-SANR-FIXT
100
AcDbLine
 10
870.617211302251
 20
1669.245878730072
 30
0.0
 11
891.6664074431864
 21
1669.245878730072
 31
0.0
  0
LINE
  5
19C
330
141
100
AcDbEntity
  8
P-SANR-FIXT
100
AcDbLine
 10
713.6664074431857
 20
1768.97792953764
 30
0.0
 11
710.6664074431856
 21
1767.245878730071
 31
0.0
  0
LINE
  5
19D
330
141
100
AcDbEntity
  8
P-SANR-FIXT
100
AcDbLine
 10
710.6664074431862
 20
1645.245878730071
 30
0.0
 11
713.6664074431863
 21
1643.513827922502
 31
0.0
  0
LINE
  5
19E
330
141
100
AcDbEntity
  8
P-SANR-FIXT
100
AcDbLine
 10
920.6664074431861
 20
1767.245878730072
 30
0.0
 11
917.666407443186
 21
1768.977929537641
 31
0.0
  0
LINE
  5
19F
330
141
100
AcDbEntity
  8
P-SANR-FIXT
100
AcDbLine
 10
917.6664074431865
 20
1643.513827922503
 30
0.0
 11
920.6664074431866
 21
1645.245878730072
 31
0.0
  0
LINE
  5
1A0
330
141
100
AcDbEntity
  8
P-SANR-FIXT
100
AcDbLine
 10
760.6323579449187
 20
1743.245878730071
 30
0.0
 11
739.6664074431859
 21
1743.245878730071
 31
0.0
  0
LINE
  5
1A1
330
141
100
AcDbEntity
  8
P-SANR-FIXT
100
AcDbLine
 10
739.6664074431861
 20
1669.245878730071
 30
0.0
 11
760.632357944919
 21
1669.245878730071
 31
0.0
  0
LWPOLYLINE
  5
1A2
330
141
100
AcDbEntity
  8
P-SANR-FIXT
100
AcDbPolyline
 90
       40
 70
   128
 43
0.0
 10
729.6744063765761
 20
1752.845985388205
 10
729.6983903801597
 20
1752.446731790379
 10
729.7383210846472
 20
1752.048756657182
 10
729.7941346094297
 20
1751.652696663929
 10
729.8657416647734
 20
1751.25918542212
 10
729.9530276946655
 20
1750.8688524658
 10
730.0558530600782
 20
1750.48232224443
 10
730.1740532623614
 20
1750.10021312391
 10
730.3074392064066
 20
1749.72313639732
 10
730.4557975031571
 20
1749.351695306985
 10
730.6188908109862
 20
1748.986484079411
 10
730.796458215393
 20
1748.628086974656
 10
730.9882156464095
 20
1748.277077351634
 10
731.1938563330516
 20
1747.934016750862
 10
731.4130512940892
 20
1747.599453996121
 10
731.6454498643429
 20
1747.273924316447
 10
731.8906802556767
 20
1746.957948489886
 10
732.1483501517768
 20
1746.652032010356
 10
732.4180473357769
 20
1746.356664278966
 10
732.6993403497144
 20
1746.072317821076
 10
732.9917791847727
 20
1745.799447530363
 10
733.2948960012002
 20
1745.538489941082
 10
733.6082058767514
 20
1745.289862529707
 10
733.9312075824614
 20
1745.053963047061
 10
734.2633843845046
 20
1744.831168881992
 10
734.6042048708582
 20
1744.621836457638
 10
734.9531238014487
 20
1744.426300661222
 10
735.3095829804187
 20
1744.244874308306
 10
735.6730121491231
 20
1744.077847642354
 10
736.0428298984191
 20
1743.925487870399
 10
736.4184445987982
 20
1743.788038735576
 10
736.7992553468665
 20
1743.665720127179
 10
737.1846529266621
 20
1743.558727728889
 10
737.5740207842718
 20
1743.467232705718
 10
737.9667360141836
 20
1743.391381430187
 10
738.3621703558045
 20
1743.331295248154
 10
738.7596911985428
 20
1743.287070284695
 10
739.1586625938503
 20
1743.258777290315
 10
739.5584462726034
 20
1743.246461527772
 10
739.666407443186
 20
1743.245878730071
  0
LWPOLYLINE
  5
1A3
330
141
100
AcDbEntity
  8
P-SANR-FIXT
100
AcDbPolyline
 90
       39
 70
   128
 43
0.0
 10
739.6664074431861
 20
1669.245878730071
 10
739.2665141013197
 20
1669.23787979668
 10
738.8672605034944
 20
1669.213895793097
 10
738.469285370297
 20
1669.17396508861
 10
738.0732253770438
 20
1669.118151563827
 10
737.6797141352356
 20
1669.046544508483
 10
737.2893811789149
 20
1668.959258478591
 10
736.902850957545
 20
1668.856433113179
 10
736.5207418370251
 20
1668.738232910896
 10
736.1436651104354
 20
1668.60484696685
 10
735.7722240200996
 20
1668.4564886701
 10
735.4070127925263
 20
1668.293395362271
 10
735.0486156877713
 20
1668.115827957864
 10
734.6976060647489
 20
1667.924070526847
 10
734.3545454639771
 20
1667.718429840205
 10
734.0199827092357
 20
1667.499234879168
 10
733.694453029562
 20
1667.266836308914
 10
733.3784772030013
 20
1667.02160591758
 10
733.0725607234714
 20
1666.76393602148
 10
732.7771929920804
 20
1666.49423883748
 10
732.4928465341908
 20
1666.212945823543
 10
732.2199762434775
 20
1665.920506988484
 10
731.9590186541963
 20
1665.617390172057
 10
731.7103912428223
 20
1665.304080296505
 10
731.474491760176
 20
1664.981078590795
 10
731.2516975951069
 20
1664.648901788752
 10
731.0423651707528
 20
1664.308081302399
 10
730.8468293743366
 20
1663.959162371808
 10
730.665403021421
 20
1663.602703192838
 10
730.4983763554685
 20
1663.239274024134
 10
730.3460165835139
 20
1662.869456274838
 10
730.2085674486907
 20
1662.493841574459
 10
730.0862488402938
 20
1662.113030826391
 10
729.9792564420036
 20
1661.727633246595
 10
729.8877614188329
 20
1661.338265388985
 10
729.8119101433014
 20
1660.945550159073
 10
729.7518239612693
 20
1660.550115817452
 10
729.7075989978098
 20
1660.152594974714
 10
729.6793060034302
 20
1659.753623579407
  0
LINE
  5
1A4
330
141
100
AcDbEntity
  8
P-SANR-FIXT
100
AcDbLine
 10
729.6664074431856
 20
1797.745878730071
 30
0.0
 11
713.6664074431855
 21
1797.745878730071
 31
0.0
  0
LINE
  5
1A5
330
141
100
AcDbEntity
  8
P-SANR-FIXT
100
AcDbLine
 10
713.6664074431864
 20
1614.745878730071
 30
0.0
 11
729.6664074431864
 21
1614.745878730071
 31
0.0
  0
LINE
  5
1A6
330
141
100
AcDbEntity
  8
P-SANR-FIXT
100
AcDbLine
 10
849.6664074431858
 20
1762.245878730039
 30
0.0
 11
849.6664074431858
 21
1757.282776609815
 31
0.0
  0
LINE
  5
1A7
330
141
100
AcDbEntity
  8
P-SANR-FIXT
100
AcDbLine
 10
849.6664074431864
 20
1655.208980850332
 30
0.0
 11
849.6664074431864
 21
1650.245878730071
 31
0.0
  0
LINE
  5
1A8
330
141
100
AcDbEntity
  8
P-SANR-FIXT
100
AcDbLine
 10
867.6664074431865
 20
1650.245878730071
 30
0.0
 11
867.6664074431865
 21
1655.88267228686
 31
0.0
  0
LINE
  5
1A9
330
141
100
AcDbEntity
  8
P-SANR-FIXT
100
AcDbLine
 10
867.6664074431858
 20
1756.609085173274
 30
0.0
 11
867.6664074431858
 21
1762.245878730039
 31
0.0
  0
LINE
  5
1AA
330
141
100
AcDbEntity
  8
P-SANR-FIXT
100
AcDbLine
 10
763.6664074431857
 20
1762.245878730038
 30
0.0
 11
763.6664074431857
 21
1756.703113743159
 31
0.0
  0
LINE
  5
1AB
330
141
100
AcDbEntity
  8
P-SANR-FIXT
100
AcDbLine
 10
763.6664074431863
 20
1655.788643716987
 30
0.0
 11
763.6664074431863
 21
1650.245878730071
 31
0.0
  0
LINE
  5
1AC
330
141
100
AcDbEntity
  8
P-SANR-FIXT
100
AcDbLine
 10
781.6664074431863
 20
1650.245878730071
 30
0.0
 11
781.6664074431863
 21
1655.313442074457
 31
0.0
  0
LINE
  5
1AD
330
141
100
AcDbEntity
  8
P-SANR-FIXT
100
AcDbLine
 10
781.6664074431858
 20
1757.178315385696
 30
0.0
 11
781.6664074431858
 21
1762.245878730038
 31
0.0
  0
LINE
  5
1AE
330
141
100
AcDbEntity
  8
P-SANR-FIXT
100
AcDbLine
 10
917.6664074431849
 20
1706.245878730072
 30
0.0
 11
917.6664074431846
 21
1797.745878730071
 31
0.0
  0
LINE
  5
1AF
330
141
100
AcDbEntity
  8
P-SANR-FIXT
100
AcDbLine
 10
917.6664074431853
 20
1614.745878730071
 30
0.0
 11
917.6664074431849
 21
1706.245878730071
 31
0.0
  0
LINE
  5
1B0
330
141
100
AcDbEntity
  8
P-SANR-FIXT
100
AcDbLine
 10
901.6664074431846
 20
1797.745878730071
 30
0.0
 11
901.6664074431849
 21
1706.245878730072
 31
0.0
  0
LINE
  5
1B1
330
141
100
AcDbEntity
  8
P-SANR-FIXT
100
AcDbLine
 10
901.6664074431849
 20
1706.245878730071
 30
0.0
 11
901.6664074431854
 21
1614.745878730071
 31
0.0
  0
LINE
  5
1B2
330
141
100
AcDbEntity
  8
P-SANR-FIXT
100
AcDbLine
 10
710.6664074431847
 20
1767.24587873007
 30
0.0
 11
710.666407443185
 21
1706.24587873007
 31
0.0
  0
LINE
  5
1B3
330
141
100
AcDbEntity
  8
P-SANR-FIXT
100
AcDbLine
 10
710.666407443185
 20
1706.24587873007
 30
0.0
 11
710.6664074431853
 21
1645.24587873007
 31
0.0
  0
ARC
  5
1B4
330
141
100
AcDbEntity
  8
P-SANR-FIXT
100
AcDbCircle
 10
772.9164168776711
 20
1663.49587873007
 30
0.0
 40
11.9999999999999
100
AcDbArc
 50
249.6847523893438
 51
251.8650701937194
  0
ARC
  5
1B5
330
141
100
AcDbEntity
  8
P-SANR-FIXT
100
AcDbCircle
 10
772.9164168776711
 20
1663.49587873007
 30
0.0
 40
12.00000000000005
100
AcDbArc
 50
256.6532276282818
 51
259.1211185281206
  0
ARC
  5
1B6
330
141
100
AcDbEntity
  8
P-SANR-FIXT
100
AcDbCircle
 10
772.9164168776711
 20
1663.49587873007
 30
0.0
 40
11.99999999999995
100
AcDbArc
 50
263.6217028672211
 51
326.6358243069693
  0
ARC
  5
1B7
330
141
100
AcDbEntity
  8
P-SANR-FIXT
100
AcDbCircle
 10
815.666407443185
 20
1706.24587873007
 30
0.0
 40
54.99999999999994
100
AcDbArc
 50
273.8184471579608
 51
298.8691515641148
  0
ARC
  5
1B8
330
141
100
AcDbEntity
  8
P-SANR-FIXT
100
AcDbCircle
 10
815.666407443185
 20
1706.24587873007
 30
0.0
 40
54.99999999999999
100
AcDbArc
 50
254.7262629199156
 51
266.1815734627428
  0
ARC
  5
1B9
330
141
100
AcDbEntity
  8
P-SANR-FIXT
100
AcDbCircle
 10
815.666407443185
 20
1706.24587873007
 30
0.0
 40
55.00000000000012
100
AcDbArc
 50
250.753483440622
 51
250.9078260723066
  0
LINE
  5
1BA
330
141
100
AcDbEntity
  8
P-SANR-FIXT
100
AcDbLine
 10
794.2552077144081
 20
1655.58464575875
 30
0.0
 11
794.2136640512475
 21
1655.602223639234
 31
0.0
  0
ARC
  5
1BB
330
141
100
AcDbEntity
  8
P-SANR-FIXT
100
AcDbCircle
 10
815.666407443185
 20
1706.24587873007
 30
0.0
 40
55.0000000000001
100
AcDbArc
 50
242.9966604567768
 51
243.6718026564825
  0
ARC
  5
1BC
330
141
100
AcDbEntity
  8
P-SANR-FIXT
100
AcDbCircle
 10
858.4164168776712
 20
1663.495878730059
 30
0.0
 40
11.9999999999999
100
AcDbArc
 50
254.6243069781342
 51
255.4728372286239
  0
ARC
  5
1BD
330
141
100
AcDbEntity
  8
P-SANR-FIXT
100
AcDbCircle
 10
858.4164168776712
 20
1663.495878730059
 30
0.0
 40
11.99999999999998
100
AcDbArc
 50
269.409792264813
 51
269.6473217808388
  0
ARC
  5
1BE
330
141
100
AcDbEntity
  8
P-SANR-FIXT
100
AcDbCircle
 10
858.4164168776712
 20
1663.495878730059
 30
0.0
 40
11.9999999999999
100
AcDbArc
 50
274.6483039016142
 51
276.3782697829076
  0
ARC
  5
1BF
330
141
100
AcDbEntity
  8
P-SANR-FIXT
100
AcDbCircle
 10
858.4164168776712
 20
1663.495878730059
 30
0.0
 40
12.00000000000002
100
AcDbArc
 50
283.3467473010027
 51
284.6455820760911
  0
ARC
  5
1C0
330
141
100
AcDbEntity
  8
P-SANR-FIXT
100
AcDbCircle
 10
858.4164168776712
 20
1663.495878730059
 30
0.0
 40
12.00000000000003
100
AcDbArc
 50
289.6259607557576
 51
290.3152248190973
  0
ARC
  5
1C1
330
141
100
AcDbEntity
  8
P-SANR-FIXT
100
AcDbCircle
 10
858.4164168776712
 20
1663.495878730059
 30
0.0
 40
12.00000000000006
100
AcDbArc
 50
294.6409274298444
 51
304.5585545672641
  0
ARC
  5
1C2
330
141
100
AcDbEntity
  8
P-SANR-FIXT
100
AcDbCircle
 10
858.4164168776712
 20
1663.495878730059
 30
0.0
 40
11.99999999999997
100
AcDbArc
 50
309.5717124324763
 51
0.0000000000412539
  0
LINE
  5
1C3
330
141
100
AcDbEntity
  8
P-SANR-FIXT
100
AcDbLine
 10
870.4164168776712
 20
1663.495878730068
 30
0.0
 11
871.9092797734486
 21
1706.245878730058
 31
0.0
  0
LINE
  5
1C4
330
141
100
AcDbEntity
  8
P-SANR-FIXT
100
AcDbLine
 10
871.9092797734486
 20
1706.245878730058
 30
0.0
 11
870.4164168776824
 21
1748.995878730038
 31
0.0
  0
ARC
  5
1C5
330
141
100
AcDbEntity
  8
P-SANR-FIXT
100
AcDbCircle
 10
858.4164168776824
 20
1748.995878730059
 30
0.0
 40
11.99999999999988
100
AcDbArc
 50
359.9999999999014
 51
50.42828756756486
  0
ARC
  5
1C6
330
141
100
AcDbEntity
  8
P-SANR-FIXT
100
AcDbCircle
 10
858.4164168776824
 20
1748.995878730059
 30
0.0
 40
11.99999999999999
100
AcDbArc
 50
55.44144543277827
 51
65.35907257019008
  0
ARC
  5
1C7
330
141
100
AcDbEntity
  8
P-SANR-FIXT
100
AcDbCircle
 10
858.4164168776824
 20
1748.995878730059
 30
0.0
 40
11.99999999999989
100
AcDbArc
 50
69.68477518084232
 51
70.37403924427612
  0
ARC
  5
1C8
330
141
100
AcDbEntity
  8
P-SANR-FIXT
100
AcDbCircle
 10
858.4164168776824
 20
1748.995878730059
 30
0.0
 40
11.9999999999999
100
AcDbArc
 50
75.35441792394562
 51
76.65325269893587
  0
ARC
  5
1C9
330
141
100
AcDbEntity
  8
P-SANR-FIXT
100
AcDbCircle
 10
858.4164168776824
 20
1748.995878730059
 30
0.0
 40
12.00000000000002
100
AcDbArc
 50
83.62173021703032
 51
85.35169609842203
  0
ARC
  5
1CA
330
141
100
AcDbEntity
  8
P-SANR-FIXT
100
AcDbCircle
 10
858.4164168776824
 20
1748.995878730059
 30
0.0
 40
11.99999999999996
100
AcDbArc
 50
90.35267821919935
 51
90.5902077351242
  0
ARC
  5
1CB
330
141
100
AcDbEntity
  8
P-SANR-FIXT
100
AcDbCircle
 10
858.4164168776824
 20
1748.995878730059
 30
0.0
 40
12.00000000000011
100
AcDbArc
 50
104.5271627713119
 51
105.3756930219105
  0
ARC
  5
1CC
330
141
100
AcDbEntity
  8
P-SANR-FIXT
100
AcDbCircle
 10
815.666407443185
 20
1706.24587873007
 30
0.0
 40
54.99999999999984
100
AcDbArc
 50
116.3282562184782
 51
117.0034436957432
  0
LINE
  5
1CD
330
141
100
AcDbEntity
  8
P-SANR-FIXT
100
AcDbLine
 10
794.2134112596008
 20
1756.889426737168
 30
0.0
 11
794.2552077144186
 21
1756.907111701396
 31
0.0
  0
ARC
  5
1CE
330
141
100
AcDbEntity
  8
P-SANR-FIXT
100
AcDbCircle
 10
815.666407443185
 20
1706.24587873007
 30
0.0
 40
55.0
100
AcDbArc
 50
109.0921739276808
 51
109.2473597354882
  0
ARC
  5
1CF
330
141
100
AcDbEntity
  8
P-SANR-FIXT
100
AcDbCircle
 10
815.666407443185
 20
1706.24587873007
 30
0.0
 40
55.00000000000003
100
AcDbArc
 50
93.81842653724328
 51
105.2737370800715
  0
ARC
  5
1D0
330
141
100
AcDbEntity
  8
P-SANR-FIXT
100
AcDbCircle
 10
815.666407443185
 20
1706.24587873007
 30
0.0
 40
55.00000000000005
100
AcDbArc
 50
61.13120359378185
 51
86.18155284202437
  0
ARC
  5
1D1
330
141
100
AcDbEntity
  8
P-SANR-FIXT
100
AcDbCircle
 10
772.9164168776824
 20
1748.99587873007
 30
0.0
 40
11.99999999999994
100
AcDbArc
 50
33.36417569292672
 51
96.37829713277209
  0
ARC
  5
1D2
330
141
100
AcDbEntity
  8
P-SANR-FIXT
100
AcDbCircle
 10
772.9164168776824
 20
1748.99587873007
 30
0.0
 40
12.00000000000015
100
AcDbArc
 50
100.8788814719156
 51
103.3467723717073
  0
ARC
  5
1D3
330
141
100
AcDbEntity
  8
P-SANR-FIXT
100
AcDbCircle
 10
772.9164168776824
 20
1748.99587873007
 30
0.0
 40
12.00000000000015
100
AcDbArc
 50
108.1349298063145
 51
110.315247610642
  0
LINE
  5
1D4
330
141
100
AcDbEntity
  8
P-SANR-FIXT
100
AcDbLine
 10
920.6664074431847
 20
1767.245878730071
 30
0.0
 11
920.666407443185
 21
1706.245878730072
 31
0.0
  0
LINE
  5
1D5
330
141
100
AcDbEntity
  8
P-SANR-FIXT
100
AcDbLine
 10
920.666407443185
 20
1706.245878730072
 30
0.0
 11
920.6664074431854
 21
1645.245878730071
 31
0.0
  0
LINE
  5
1D6
330
141
100
AcDbEntity
  8
P-SANR-FIXT
100
AcDbLine
 10
729.6664074431845
 20
1797.74587873007
 30
0.0
 11
729.6664074431848
 21
1706.245878730071
 31
0.0
  0
LINE
  5
1D7
330
141
100
AcDbEntity
  8
P-SANR-FIXT
100
AcDbLine
 10
729.6664074431848
 20
1706.24587873007
 30
0.0
 11
729.6664074431853
 21
1614.74587873007
 31
0.0
  0
LINE
  5
1D8
330
141
100
AcDbEntity
  8
P-SANR-FIXT
100
AcDbLine
 10
713.6664074431847
 20
1797.74587873007
 30
0.0
 11
713.6664074431849
 21
1706.245878730071
 31
0.0
  0
LINE
  5
1D9
330
141
100
AcDbEntity
  8
P-SANR-FIXT
100
AcDbLine
 10
713.6664074431849
 20
1706.24587873007
 30
0.0
 11
713.6664074431855
 21
1614.74587873007
 31
0.0
  0
LINE
  5
1DA
330
141
100
AcDbEntity
  8
P-SANR-FIXT
100
AcDbLine
 10
867.6664074431853
 20
1650.245878730071
 30
0.0
 11
849.6664074431851
 21
1650.245878730071
 31
0.0
  0
LINE
  5
1DB
330
141
100
AcDbEntity
  8
P-SANR-FIXT
100
AcDbLine
 10
781.6664074431852
 20
1650.24587873007
 30
0.0
 11
763.6664074431853
 21
1650.24587873007
 31
0.0
  0
ENDBLK
  5
1DD
330
141
100
AcDbEntity
  8
0
100
AcDbBlockEnd
  0
BLOCK
  5
21C
330
1DF
100
AcDbEntity
  8
0
100
AcDbBlockBegin
  2
Automatic flow rate regulator valve_Caleffi_121 DN15 - 2__-V1-Est - Idraulica
 70
     0
 10
0.0
 20
0.0
 30
0.0
  3
Automatic flow rate regulator valve_Caleffi_121 DN15 - 2__-V1-Est - Idraulica
  1

  0
LINE
  5
1E0
330
1DF
100
AcDbEntity
  8
M-PIPE
100
AcDbLine
 10
1410.114353943094
 20
2031.482558850031
 30
0.0
 11
1393.011249980509
 21
2031.482558850032
 31
0.0
1001
REVIT
1002
{
1070
     3
1000
923159
1002
}
  0
LINE
  5
1E1
330
1DF
100
AcDbEntity
  8
M-PIPE
100
AcDbLine
 10
1393.011249980525
 20
1968.482558850031
 30
0.0
 11
1410.114353943093
 21
1968.482558850031
 31
0.0
1001
REVIT
1002
{
1070
     3
1000
923159
1002
}
  0
LINE
  5
1E2
330
1DF
100
AcDbEntity
  8
M-PIPE
100
AcDbLine
 10
1414.382303135525
 20
2035.482558850031
 30
0.0
 11
1410.114353943094
 21
2035.482558850031
 31
0.0
1001
REVIT
1002
{
1070
     3
1000
923159
1002
}
  0
LINE
  5
1E3
330
1DF
100
AcDbEntity
  8
M-PIPE
100
AcDbLine
 10
1410.114353943093
 20
1964.482558850031
 30
0.0
 11
1414.382303135524
 21
1964.482558850031
 31
0.0
1001
REVIT
1002
{
1070
     3
1000
923159
1002
}
  0
LINE
  5
1E4
330
1DF
100
AcDbEntity
  8
M-PIPE
100
AcDbLine
 10
1416.114353943093
 20
2032.482558850031
 30
0.0
 11
1414.382303135525
 21
2035.482558850031
 31
0.0
1001
REVIT
1002
{
1070
     3
1000
923159
1002
}
  0
LINE
  5
1E5
330
1DF
100
AcDbEntity
  8
M-PIPE
100
AcDbLine
 10
1414.382303135524
 20
1964.482558850031
 30
0.0
 11
1416.114353943093
 21
1967.482558850031
 31
0.0
1001
REVIT
1002
{
1070
     3
1000
923159
1002
}
  0
LINE
  5
1E6
330
1DF
100
AcDbEntity
  8
M-PIPE
100
AcDbLine
 10
1410.114353943092
 20
1999.98255885003
 30
0.0
 11
1410.114353943092
 21
2035.482558850031
 31
0.0
1001
REVIT
1002
{
1070
     3
1000
923159
1002
}
  0
LINE
  5
1E7
330
1DF
100
AcDbEntity
  8
M-PIPE
100
AcDbLine
 10
1410.114353943091
 20
1964.48255885003
 30
0.0
 11
1410.114353943092
 21
1999.98255885003
 31
0.0
1001
REVIT
1002
{
1070
     3
1000
923159
1002
}
  0
LINE
  5
1E8
330
1DF
100
AcDbEntity
  8
M-PIPE
100
AcDbLine
 10
1414.382303135523
 20
1999.98255885003
 30
0.0
 11
1414.382303135523
 21
2035.482558850031
 31
0.0
1001
REVIT
1002
{
1070
     3
1000
923159
1002
}
  0
LINE
  5
1E9
330
1DF
100
AcDbEntity
  8
M-PIPE
100
AcDbLine
 10
1414.382303135522
 20
1964.48255885003
 30
0.0
 11
1414.382303135523
 21
1999.98255885003
 31
0.0
1001
REVIT
1002
{
1070
     3
1000
923159
1002
}
  0
LINE
  5
1EA
330
1DF
100
AcDbEntity
  8
M-PIPE
100
AcDbLine
 10
1416.114353943092
 20
1999.98255885003
 30
0.0
 11
1416.114353943092
 21
2032.482558850031
 31
0.0
1001
REVIT
1002
{
1070
     3
1000
923159
1002
}
  0
LINE
  5
1EB
330
1DF
100
AcDbEntity
  8
M-PIPE
100
AcDbLine
 10
1416.114353943092
 20
1967.48255885003
 30
0.0
 11
1416.114353943092
 21
1999.98255885003
 31
0.0
1001
REVIT
1002
{
1070
     3
1000
923159
1002
}
  0
LINE
  5
1EC
330
1DF
100
AcDbEntity
  8
P-SANR-FIXT
100
AcDbLine
 10
1307.114353943077
 20
1905.982558849971
 30
0.0
 11
1297.114353943077
 21
1905.982558849971
 31
0.0
  0
LINE
  5
1ED
330
1DF
100
AcDbEntity
  8
P-SANR-FIXT
100
AcDbLine
 10
1297.114353943077
 20
1905.982558849971
 30
0.0
 11
1287.114353943077
 21
1905.982558849971
 31
0.0
  0
LINE
  5
1EE
330
1DF
100
AcDbEntity
  8
P-SANR-FIXT
100
AcDbLine
 10
1296.076292009372
 20
1905.982558849971
 30
0.0
 11
1297.114353943077
 21
1905.982558849971
 31
0.0
  0
LINE
  5
1EF
330
1DF
100
AcDbEntity
  8
P-SANR-FIXT
100
AcDbLine
 10
1297.114353943077
 20
1905.982558849971
 30
0.0
 11
1298.135980282652
 21
1905.982558849971
 31
0.0
  0
LINE
  5
1F0
330
1DF
100
AcDbEntity
  8
P-SANR-FIXT
100
AcDbLine
 10
1316.092727604008
 20
1905.982558849971
 30
0.0
 11
1317.114353943077
 21
1905.982558849971
 31
0.0
  0
LINE
  5
1F1
330
1DF
100
AcDbEntity
  8
P-SANR-FIXT
100
AcDbLine
 10
1317.114353943076
 20
1905.982558849971
 30
0.0
 11
1318.152415876314
 21
1905.982558849971
 31
0.0
  0
LINE
  5
1F2
330
1DF
100
AcDbEntity
  8
P-SANR-FIXT
100
AcDbLine
 10
1327.114353943077
 20
1905.982558849971
 30
0.0
 11
1317.114353943077
 21
1905.982558849971
 31
0.0
  0
LINE
  5
1F3
330
1DF
100
AcDbEntity
  8
P-SANR-FIXT
100
AcDbLine
 10
1317.114353943077
 20
1905.982558849971
 30
0.0
 11
1307.114353943077
 21
1905.982558849971
 31
0.0
  0
LINE
  5
1F4
330
1DF
100
AcDbEntity
  8
P-SANR-FIXT
100
AcDbLine
 10
1305.051607876226
 20
1908.57262028827
 30
0.0
 11
1305.051607876226
 21
1907.13725938835
 31
0.0
  0
LINE
  5
1F5
330
1DF
100
AcDbEntity
  8
P-SANR-FIXT
100
AcDbLine
 10
1305.051607876226
 20
1907.137259388351
 30
0.0
 11
1307.114353943077
 21
1907.137259388351
 31
0.0
  0
LINE
  5
1F6
330
1DF
100
AcDbEntity
  8
P-SANR-FIXT
100
AcDbLine
 10
1307.114353943077
 20
1907.137259388351
 30
0.0
 11
1309.177100009928
 21
1907.137259388351
 31
0.0
  0
LINE
  5
1F7
330
1DF
100
AcDbEntity
  8
P-SANR-FIXT
100
AcDbLine
 10
1309.177100009928
 20
1907.13725938835
 30
0.0
 11
1309.177100009928
 21
1908.57262028827
 31
0.0
  0
SPLINE
  5
1F8
330
1DF
100
AcDbEntity
  8
P-SANR-FIXT
100
AcDbSpline
210
0.0
220
0.0
230
1.0
 70
     8
 71
     3
 72
     9
 73
     5
 74
     0
 42
0.000000001
 43
0.0000000001
 40
0.0
 40
0.0
 40
0.0
 40
0.0
 40
0.5
 40
1.0
 40
1.0
 40
1.0
 40
1.0
 10
1309.177100009928
 20
1907.13725938835
 30
0.0
 10
1310.480689484875
 20
1906.762278465338
 30
0.0
 10
1313.107154615348
 20
1906.194847452594
 30
0.0
 10
1315.772192106981
 20
1905.992478106418
 30
0.0
 10
1317.114353943086
 20
1905.982558849971
 30
0.0
  0
SPLINE
  5
1F9
330
1DF
100
AcDbEntity
  8
P-SANR-FIXT
100
AcDbSpline
210
0.0
220
0.0
230
1.0
 70
     8
 71
     3
 72
     9
 73
     5
 74
     0
 42
0.000000001
 43
0.0000000001
 40
0.0
 40
0.0
 40
0.0
 40
0.0
 40
0.5
 40
1.0
 40
1.0
 40
1.0
 40
1.0
 10
1317.114353943086
 20
1905.982558849971
 30
0.0
 10
1318.456515779192
 20
1905.992478106418
 30
0.0
 10
1321.121553270825
 20
1906.194847452595
 30
0.0
 10
1323.748018401299
 20
1906.762278465338
 30
0.0
 10
1325.051607876246
 20
1907.137259388351
 30
0.0
  0
LINE
  5
1FA
330
1DF
100
AcDbEntity
  8
P-SANR-FIXT
100
AcDbLine
 10
1325.051607876246
 20
1907.137259388351
 30
0.0
 11
1325.051607876246
 21
1910.32677892262
 31
0.0
  0
LINE
  5
1FB
330
1DF
100
AcDbEntity
  8
P-SANR-FIXT
100
AcDbLine
 10
1325.051607876246
 20
1907.137259388351
 30
0.0
 11
1327.114353943097
 21
1907.137259388351
 31
0.0
  0
LINE
  5
1FC
330
1DF
100
AcDbEntity
  8
P-SANR-FIXT
100
AcDbLine
 10
1327.114353943097
 20
1907.137259388351
 30
0.0
 11
1327.114353943097
 21
1910.784078716028
 31
0.0
  0
SPLINE
  5
1FD
330
1DF
100
AcDbEntity
  8
P-SANR-FIXT
100
AcDbSpline
210
0.0
220
0.0
230
1.0
 70
    24
 71
     3
 72
     9
 73
     5
 74
     0
 42
0.000000001
 43
0.0000000001
 40
0.0
 40
0.0
 40
0.0
 40
0.0
 40
0.5
 40
1.0
 40
1.0
 40
1.0
 40
1.0
 10
1327.114353943097
 20
1907.137259388351
 30
0.0
 10
1327.114353943097
 20
1906.762278465339
 30
0.0
 10
1327.114353943097
 20
1906.194847452596
 30
0.0
 10
1327.114353943097
 20
1905.992478106418
 30
0.0
 10
1327.114353943098
 20
1905.982558849971
 30
0.0
  0
SPLINE
  5
1FE
330
1DF
100
AcDbEntity
  8
P-SANR-FIXT
100
AcDbSpline
210
0.0
220
0.0
230
1.0
 70
    24
 71
     3
 72
     9
 73
     5
 74
     0
 42
0.000000001
 43
0.0000000001
 40
0.0
 40
0.0
 40
0.0
 40
0.0
 40
0.5
 40
1.0
 40
1.0
 40
1.0
 40
1.0
 10
1287.114353943058
 20
1905.982558849971
 30
0.0
 10
1287.114353943058
 20
1905.992478106418
 30
0.0
 10
1287.114353943058
 20
1906.194847452594
 30
0.0
 10
1287.114353943058
 20
1906.762278465337
 30
0.0
 10
1287.114353943058
 20
1907.13725938835
 30
0.0
  0
LINE
  5
1FF
330
1DF
100
AcDbEntity
  8
P-SANR-FIXT
100
AcDbLine
 10
1287.114353943058
 20
1907.13725938835
 30
0.0
 11
1287.114353943058
 21
1910.784078716028
 31
0.0
  0
LINE
  5
200
330
1DF
100
AcDbEntity
  8
P-SANR-FIXT
100
AcDbLine
 10
1287.114353943058
 20
1907.137259388351
 30
0.0
 11
1289.177100009909
 21
1907.137259388351
 31
0.0
  0
LINE
  5
201
330
1DF
100
AcDbEntity
  8
P-SANR-FIXT
100
AcDbLine
 10
1289.177100009909
 20
1907.13725938835
 30
0.0
 11
1289.177100009909
 21
1910.326778922619
 31
0.0
  0
SPLINE
  5
202
330
1DF
100
AcDbEntity
  8
P-SANR-FIXT
100
AcDbSpline
210
0.0
220
0.0
230
1.0
 70
     8
 71
     3
 72
     9
 73
     5
 74
     0
 42
0.000000001
 43
0.0000000001
 40
0.0
 40
0.0
 40
0.0
 40
0.0
 40
0.5
 40
1.0
 40
1.0
 40
1.0
 40
1.0
 10
1289.177100009909
 20
1907.13725938835
 30
0.0
 10
1290.480689484856
 20
1906.762278465337
 30
0.0
 10
1293.10715461533
 20
1906.194847452594
 30
0.0
 10
1295.772192106962
 20
1905.992478106417
 30
0.0
 10
1297.114353943068
 20
1905.982558849971
 30
0.0
  0
SPLINE
  5
203
330
1DF
100
AcDbEntity
  8
P-SANR-FIXT
100
AcDbSpline
210
0.0
220
0.0
230
1.0
 70
     8
 71
     3
 72
     9
 73
     5
 74
     0
 42
0.000000001
 43
0.0000000001
 40
0.0
 40
0.0
 40
0.0
 40
0.0
 40
0.5
 40
1.0
 40
1.0
 40
1.0
 40
1.0
 10
1297.114353943068
 20
1905.982558849971
 30
0.0
 10
1298.456515779174
 20
1905.992478106417
 30
0.0
 10
1301.121553270806
 20
1906.194847452594
 30
0.0
 10
1303.748018401279
 20
1906.762278465337
 30
0.0
 10
1305.051607876226
 20
1907.13725938835
 30
0.0
  0
LINE
  5
204
330
1DF
100
AcDbEntity
  8
P-SANR-FIXT
100
AcDbLine
 10
1278.185979590531
 20
2203.482558850059
 30
0.0
 11
1277.614353943075
 21
2202.910933202603
 31
0.0
  0
LINE
  5
205
330
1DF
100
AcDbEntity
  8
P-SANR-FIXT
100
AcDbLine
 10
1336.614353943082
 20
2202.910933202603
 30
0.0
 11
1336.042728295626
 21
2203.482558850059
 31
0.0
  0
LINE
  5
206
330
1DF
100
AcDbEntity
  8
P-SANR-FIXT
100
AcDbLine
 10
1277.614353943075
 20
2202.910933202603
 30
0.0
 11
1277.614353943075
 21
2198.982558850012
 31
0.0
  0
LINE
  5
207
330
1DF
100
AcDbEntity
  8
P-SANR-FIXT
100
AcDbLine
 10
1336.614353943082
 20
2198.982558850012
 30
0.0
 11
1336.614353943082
 21
2202.910933202603
 31
0.0
  0
LINE
  5
208
330
1DF
100
AcDbEntity
  8
P-SANR-FIXT
100
AcDbLine
 10
1277.614353943075
 20
2198.982558850012
 30
0.0
 11
1278.231802521346
 21
2198.482558850009
 31
0.0
  0
LINE
  5
209
330
1DF
100
AcDbEntity
  8
P-SANR-FIXT
100
AcDbLine
 10
1335.996905364811
 20
2198.482558850009
 30
0.0
 11
1336.614353943082
 21
2198.982558850012
 31
0.0
  0
LINE
  5
20A
330
1DF
100
AcDbEntity
  8
P-SANR-FIXT
100
AcDbLine
 10
1307.114353943077
 20
2203.482558850058
 30
0.0
 11
1278.185979590529
 21
2203.482558850058
 31
0.0
  0
LINE
  5
20B
330
1DF
100
AcDbEntity
  8
P-SANR-FIXT
100
AcDbLine
 10
1336.042728295624
 20
2203.482558850058
 30
0.0
 11
1307.114353943077
 21
2203.482558850058
 31
0.0
  0
LINE
  5
20C
330
1DF
100
AcDbEntity
  8
P-SANR-FIXT
100
AcDbLine
 10
1277.614353943073
 20
2202.910933202602
 30
0.0
 11
1307.114353943076
 21
2202.910933202602
 31
0.0
  0
LINE
  5
20D
330
1DF
100
AcDbEntity
  8
P-SANR-FIXT
100
AcDbLine
 10
1307.114353943077
 20
2202.910933202602
 30
0.0
 11
1336.614353943081
 21
2202.910933202602
 31
0.0
  0
LINE
  5
20E
330
1DF
100
AcDbEntity
  8
P-SANR-FIXT
100
AcDbLine
 10
1277.614353943073
 20
2198.982558850011
 30
0.0
 11
1307.114353943076
 21
2198.982558850011
 31
0.0
  0
LINE
  5
20F
330
1DF
100
AcDbEntity
  8
P-SANR-FIXT
100
AcDbLine
 10
1307.114353943077
 20
2198.982558850011
 30
0.0
 11
1336.614353943081
 21
2198.982558850011
 31
0.0
  0
LINE
  5
210
330
1DF
100
AcDbEntity
  8
P-SANR-FIXT
100
AcDbLine
 10
1277.614353943068
 20
2198.482558850009
 30
0.0
 11
1275.649110748316
 21
2085.893851627565
 31
0.0
  0
LINE
  5
211
330
1DF
100
AcDbEntity
  8
P-SANR-FIXT
100
AcDbLine
 10
1338.57959713784
 20
2085.893851627564
 30
0.0
 11
1336.614353943089
 21
2198.482558850009
 31
0.0
  0
LINE
  5
212
330
1DF
100
AcDbEntity
  8
P-SANR-FIXT
100
AcDbLine
 10
1277.614353943067
 20
2198.482558850008
 30
0.0
 11
1307.114353943076
 21
2198.482558850008
 31
0.0
  0
LINE
  5
213
330
1DF
100
AcDbEntity
  8
P-SANR-FIXT
100
AcDbLine
 10
1307.114353943077
 20
2198.482558850008
 30
0.0
 11
1336.614353943087
 21
2198.482558850008
 31
0.0
  0
ARC
  5
214
330
1DF
100
AcDbEntity
  8
P-SANR-FIXT
100
AcDbCircle
 10
1307.114353943076
 20
1999.982558850011
 30
0.0
 40
62.73205080756884
100
AcDbArc
 50
90.0
 51
269.9999999999994
  0
ARC
  5
215
330
1DF
100
AcDbEntity
  8
P-SANR-FIXT
100
AcDbCircle
 10
1307.114353943076
 20
1999.982558850011
 30
0.0
 40
62.73205080756895
100
AcDbArc
 50
269.9999999999993
 51
89.99999999999948
  0
ARC
  5
216
330
1DF
100
AcDbEntity
  8
P-SANR-FIXT
100
AcDbCircle
 10
1307.114353943076
 20
1999.982558850011
 30
0.0
 40
60.99999999999977
100
AcDbArc
 50
90.00000000000021
 51
270.0000000000001
  0
ARC
  5
217
330
1DF
100
AcDbEntity
  8
P-SANR-FIXT
100
AcDbCircle
 10
1307.114353943076
 20
1999.982558850011
 30
0.0
 40
31.75000000000037
100
AcDbArc
 50
90.00000000000081
 51
270.0000000000001
  0
ARC
  5
218
330
1DF
100
AcDbEntity
  8
P-SANR-FIXT
100
AcDbCircle
 10
1307.114353943076
 20
1999.982558850011
 30
0.0
 40
61.0
100
AcDbArc
 50
270.0000000000001
 51
90.00000000000021
  0
ARC
  5
219
330
1DF
100
AcDbEntity
  8
P-SANR-FIXT
100
AcDbCircle
 10
1307.114353943076
 20
1999.982558850011
 30
0.0
 40
31.75000000000023
100
AcDbArc
 50
269.9999999999997
 51
89.9999999999992
  0
ARC
  5
21A
330
1DF
100
AcDbEntity
  8
P-SANR-FIXT
100
AcDbCircle
 10
1307.114353943076
 20
1999.982558850011
 30
0.0
 40
91.50000000000028
100
AcDbArc
 50
90.00000000000035
 51
270.0
  0
ARC
  5
21B
330
1DF
100
AcDbEntity
  8
P-SANR-FIXT
100
AcDbCircle
 10
1307.114353943076
 20
1999.982558850011
 30
0.0
 40
91.50000000000027
100
AcDbArc
 50
270.0
 51
90.00000000000007
  0
ENDBLK
  5
21D
330
1DF
100
AcDbEntity
  8
0
100
AcDbBlockEnd
  0
ENDSEC
  0
SECTION
  2
ENTITIES
  0
INSERT
  5
140
330
71
100
AcDbEntity
  8
P-SANR-FIXT
100
AcDbBlockReference
  2
Automatic flow rate regulator valve_Caleffi_121 DN15 - DN65-938676-Est - Idraulica
 10
0.0
 20
0.0
 30
0.0
1001
REVIT
1002
{
1070
     1
1000
863131
1002
}
1002
{
1070
     5
1000
938676
1002
}
1002
{
1070
     2
1000
-2001160
1002
}
  0
INSERT
  5
1DE
330
71
100
AcDbEntity
  8
P-SANR-FIXT
100
AcDbBlockReference
  2
Automatic flow rate regulator valve_Caleffi_121 DN15 - 2__-935543-Est - Idraulica
 10
0.0
 20
0.0
 30
0.0
1001
REVIT
1002
{
1070
     1
1000
863152
1002
}
1002
{
1070
     5
1000
935543
1002
}
1002
{
1070
     2
1000
-2001160
1002
}
  0
INSERT
  5
21E
330
71
100
AcDbEntity
  8
P-SANR-FIXT
100
AcDbBlockReference
  2
Automatic flow rate regulator valve_Caleffi_121 DN15 - 2__-V1-Est - Idraulica
 10
0.0
 20
0.0
 30
0.0
1001
REVIT
1002
{
1070
     1
1000
863172
1002
}
1002
{
1070
     5
1000
935543
1002
}
1002
{
1070
     2
1000
-2001160
1002
}
  0
ENDSEC
  0
SECTION
  2
OBJECTS
  0
DICTIONARY
  5
C
330
0
100
AcDbDictionary
281
     1
  3
ACAD_CIP_PREVIOUS_PRODUCT_INFO
350
7A
  3
ACAD_COLOR
350
63
  3
ACAD_DETAILVIEWSTYLE
350
6B
  3
ACAD_GROUP
350
D
  3
ACAD_IMAGE_VARS
350
7B
  3
ACAD_LAYOUT
350
62
  3
ACAD_MATERIAL
350
10
  3
ACAD_MLEADERSTYLE
350
66
  3
ACAD_MLINESTYLE
350
5F
  3
ACAD_PLOTSETTINGS
350
61
  3
ACAD_PLOTSTYLENAME
350
E
  3
ACAD_SCALELIST
350
42
  3
ACAD_SECTIONVIEWSTYLE
350
68
  3
ACAD_TABLESTYLE
350
64
  3
ACAD_VISUALSTYLE
350
29
  3
ACDB_RECOMPOSE_DATA
350
229
  3
AcDbVariableDictionary
350
7C
  3
REVIT_DICTIONARY
350
220
  0
DICTIONARY
  5
225
330
71
100
AcDbDictionary
280
     1
281
     1
  3
ACAD_SORTENTS
360
226
  0
XRECORD
  5
7A
102
{ACAD_REACTORS
330
C
102
}
330
C
100
AcDbXrecord
280
     1
300
RVT
300
2013
300
RVT2013
  0
DICTIONARY
  5
63
102
{ACAD_REACTORS
330
C
102
}
330
C
100
AcDbDictionary
281
     1
  0
DICTIONARY
  5
6B
102
{ACAD_REACTORS
330
C
102
}
330
C
100
AcDbDictionary
281
     1
  3
Imperial24
350
6C
  0
DICTIONARY
  5
D
102
{ACAD_REACTORS
330
C
102
}
330
C
100
AcDbDictionary
281
     1
  0
RASTERVARIABLES
  5
7B
102
{ACAD_REACTORS
330
C
102
}
330
C
100
AcDbRasterVariables
 90
        0
 70
     0
 71
     1
 72
     1
  0
DICTIONARY
  5
62
102
{ACAD_REACTORS
330
C
102
}
330
C
100
AcDbDictionary
281
     1
  3
Layout1
350
70
  3
Layout2
350
78
  3
Model
350
74
  0
DICTIONARY
  5
10
102
{ACAD_REACTORS
330
C
102
}
330
C
100
AcDbDictionary
281
     1
  3
ByBlock
350
19
  3
ByLayer
350
11
  3
Global
350
21
  0
DICTIONARY
  5
66
102
{ACAD_REACTORS
330
C
102
}
330
C
100
AcDbDictionary
281
     1
  3
Standard
350
67
  0
DICTIONARY
  5
5F
102
{ACAD_REACTORS
330
C
102
}
330
C
100
AcDbDictionary
281
     1
  3
Standard
350
60
  0
DICTIONARY
  5
61
102
{ACAD_REACTORS
330
C
102
}
330
C
100
AcDbDictionary
281
     1
  0
ACDBDICTIONARYWDFLT
  5
E
102
{ACAD_REACTORS
330
C
102
}
330
C
100
AcDbDictionary
281
     1
  3
Normal
350
F
100
AcDbDictionaryWithDefault
340
F
  0
DICTIONARY
  5
42
102
{ACAD_REACTORS
330
C
102
}
330
C
100
AcDbDictionary
281
     1
  3
A0
350
43
  3
A1
350
44
  3
A2
350
45
  3
A3
350
46
  3
A4
350
47
  3
A5
350
48
  3
A6
350
49
  3
A7
350
4A
  3
A8
350
4B
  3
A9
350
4C
  3
B0
350
4D
  3
B1
350
4E
  3
B2
350
4F
  3
B3
350
50
  3
B4
350
51
  3
B5
350
52
  3
B6
350
53
  0
DICTIONARY
  5
68
102
{ACAD_REACTORS
330
C
102
}
330
C
100
AcDbDictionary
281
     1
  3
Imperial24
350
6A
  0
DICTIONARY
  5
64
102
{ACAD_REACTORS
330
C
102
}
330
C
100
AcDbDictionary
281
     1
  3
Standard
350
65
  0
DICTIONARY
  5
29
102
{ACAD_REACTORS
330
C
102
}
330
C
100
AcDbDictionary
281
     1
  3
2dWireframe
350
2F
  3
Basic
350
2E
  3
Brighten
350
35
  3
ColorChange
350
39
  3
Conceptual
350
32
  3
Dim
350
34
  3
EdgeColorOff
350
41
  3
Facepattern
350
38
  3
Flat
350
2A
  3
FlatWithEdges
350
2B
  3
Gouraud
350
2C
  3
GouraudWithEdges
350
2D
  3
Hidden
350
31
  3
JitterOff
350
3F
  3
Linepattern
350
37
  3
OverhangOff
350
40
  3
Realistic
350
33
  3
Shaded
350
3E
  3
Shaded with edges
350
3D
  3
Shades of Gray
350
3A
  3
Sketchy
350
3B
  3
Thicken
350
36
  3
Wireframe
350
30
  3
X-Ray
350
3C
  0
XRECORD
  5
229
102
{ACAD_REACTORS
330
C
102
}
330
C
100
AcDbXrecord
280
     1
 90
        1
330
65
  0
DICTIONARY
  5
7C
102
{ACAD_REACTORS
330
C
102
}
330
C
100
AcDbDictionary
281
     1
  3
CANNOSCALE
350
81
  3
CMLEADERSTYLE
350
7E
  3
CTABLESTYLE
350
7D
  3
CVIEWDETAILSTYLE
350
7F
  3
CVIEWSECTIONSTYLE
350
80
  0
DICTIONARY
  5
220
102
{ACAD_REACTORS
330
C
102
}
330
C
100
AcDbDictionary
281
     1
  3
DRAWING_TOOL
350
224
  3
REVIT_CATEGORY_MAPPING
350
222
  3
REVIT_SUB_CATEGORY_MAPPING
350
223
  3
REVIT_TYPE_MAPPING
350
221
  0
SORTENTSTABLE
  5
226
102
{ACAD_REACTORS
330
225
102
}
330
225
100
AcDbSortentsTable
330
71
  0
ACDBDETAILVIEWSTYLE
  5
6C
102
{ACAD_REACTORS
330
6B
102
}
330
6B
100
AcDbModelDocViewStyle
 70
     0
  3
Imperial24
290
     1
100
AcDbDetailViewStyle
 70
     0
 71
     0
 90
        3
 71
     1
340
55
 62
   256
 40
0.24
340
0
 62
   256
 40
0.24
300

 40
0.36
280
     3
 71
     2
340
5D
 90
       25
 62
   256
 71
     3
340
55
 62
   256
 40
0.24
 90
        1
 40
0.75
 90
        1
300
%<\AcVar ViewType \f "%tc1">% %<\AcVar ViewDetailId>%\PSCALA %<\AcVar ViewScale \f "%sn">%
 71
     4
340
5D
 90
       25
 62
   256
340
5D
 90
       25
 62
   256
280
     0
  0
LAYOUT
  5
70
102
{ACAD_REACTORS
330
62
102
}
330
62
100
AcDbPlotSettings
  1

  2

  4

  6

 40
0.0
 41
0.0
 42
0.0
 43
0.0
 44
0.0
 45
0.0
 46
0.0
 47
0.0
 48
0.0
 49
0.0
140
0.0
141
0.0
142
1.0
143
1.0
 70
   688
 72
     0
 73
     0
 74
     5
  7

 75
    16
147
1.0
 76
     0
 77
     2
 78
   300
148
0.0
149
0.0
100
AcDbLayout
  1
Layout1
 70
     1
 71
     1
 10
0.0
 20
0.0
 11
12.0
 21
9.0
 12
0.0
 22
0.0
 32
0.0
 14
0.0
 24
0.0
 34
0.0
 15
0.0
 25
0.0
 35
0.0
146
0.0
 13
0.0
 23
0.0
 33
0.0
 16
1.0
 26
0.0
 36
0.0
 17
0.0
 27
1.0
 37
0.0
 76
     0
330
6D
  0
LAYOUT
  5
78
102
{ACAD_REACTORS
330
62
102
}
330
62
100
AcDbPlotSettings
  1

  2

  4

  6

 40
0.0
 41
0.0
 42
0.0
 43
0.0
 44
0.0
 45
0.0
 46
0.0
 47
0.0
 48
0.0
 49
0.0
140
0.0
141
0.0
142
1.0
143
1.0
 70
   688
 72
     0
 73
     0
 74
     5
  7

 75
    16
147
1.0
 76
     0
 77
     2
 78
   300
148
0.0
149
0.0
100
AcDbLayout
  1
Layout2
 70
     1
 71
     2
 10
0.0
 20
0.0
 11
12.0
 21
9.0
 12
0.0
 22
0.0
 32
0.0
 14
0.0
 24
0.0
 34
0.0
 15
0.0
 25
0.0
 35
0.0
146
0.0
 13
0.0
 23
0.0
 33
0.0
 16
1.0
 26
0.0
 36
0.0
 17
0.0
 27
1.0
 37
0.0
 76
     0
330
75
  0
LAYOUT
  5
74
102
{ACAD_REACTORS
330
62
102
}
330
62
100
AcDbPlotSettings
  1

  2

  4

  6

 40
0.0
 41
0.0
 42
0.0
 43
0.0
 44
0.0
 45
0.0
 46
0.0
 47
0.0
 48
0.0
 49
0.0
140
0.0
141
0.0
142
1.0
143
1.0
 70
  1712
 72
     0
 73
     0
 74
     0
  7

 75
     0
147
1.0
 76
     0
 77
     2
 78
   300
148
0.0
149
0.0
100
AcDbLayout
  1
Model
 70
     1
 71
     0
 10
0.0
 20
0.0
 11
12.0
 21
9.0
 12
0.0
 22
0.0
 32
0.0
 14
0.0
 24
0.0
 34
0.0
 15
0.0
 25
0.0
 35
0.0
146
0.0
 13
0.0
 23
0.0
 33
0.0
 16
1.0
 26
0.0
 36
0.0
 17
0.0
 27
1.0
 37
0.0
 76
     0
330
71
  0
MATERIAL
  5
19
102
{ACAD_XDICTIONARY
360
1A
102
}
102
{ACAD_REACTORS
330
10
102
}
330
10
100
AcDbMaterial
  1
ByBlock
 72
     0
 43
0.0208333333333333
 43
0.0
 43
0.0
 43
0.0
 43
0.0
 43
0.0208333333333333
 43
0.0
 43
0.0
 43
0.0
 43
0.0
 43
1.0
 43
0.0
 43
0.0
 43
0.0
 43
0.0
 43
1.0
 77
     0
 47
0.0208333333333333
 47
0.0
 47
0.0
 47
0.0
 47
0.0
 47
0.0208333333333333
 47
0.0
 47
0.0
 47
0.0
 47
0.0
 47
1.0
 47
0.0
 47
0.0
 47
0.0
 47
0.0
 47
1.0
171
     0
 49
0.0208333333333333
 49
0.0
 49
0.0
 49
0.0
 49
0.0
 49
0.0208333333333333
 49
0.0
 49
0.0
 49
0.0
 49
0.0
 49
1.0
 49
0.0
 49
0.0
 49
0.0
 49
0.0
 49
1.0
175
     0
142
0.0208333333333333
142
0.0
142
0.0
142
0.0
142
0.0
142
0.0208333333333333
142
0.0
142
0.0
142
0.0
142
0.0
142
1.0
142
0.0
142
0.0
142
0.0
142
0.0
142
1.0
179
     0
144
0.0208333333333333
144
0.0
144
0.0
144
0.0
144
0.0
144
0.0208333333333333
144
0.0
144
0.0
144
0.0
144
0.0
144
1.0
144
0.0
144
0.0
144
0.0
144
0.0
144
1.0
147
0.0208333333333333
147
0.0
147
0.0
147
0.0
147
0.0
147
0.0208333333333333
147
0.0
147
0.0
147
0.0
147
0.0
147
1.0
147
0.0
147
0.0
147
0.0
147
0.0
147
1.0
  0
MATERIAL
  5
11
102
{ACAD_XDICTIONARY
360
12
102
}
102
{ACAD_REACTORS
330
10
102
}
330
10
100
AcDbMaterial
  1
ByLayer
 72
     0
 43
0.0208333333333333
 43
0.0
 43
0.0
 43
0.0
 43
0.0
 43
0.0208333333333333
 43
0.0
 43
0.0
 43
0.0
 43
0.0
 43
1.0
 43
0.0
 43
0.0
 43
0.0
 43
0.0
 43
1.0
 77
     0
 47
0.0208333333333333
 47
0.0
 47
0.0
 47
0.0
 47
0.0
 47
0.0208333333333333
 47
0.0
 47
0.0
 47
0.0
 47
0.0
 47
1.0
 47
0.0
 47
0.0
 47
0.0
 47
0.0
 47
1.0
171
     0
 49
0.0208333333333333
 49
0.0
 49
0.0
 49
0.0
 49
0.0
 49
0.0208333333333333
 49
0.0
 49
0.0
 49
0.0
 49
0.0
 49
1.0
 49
0.0
 49
0.0
 49
0.0
 49
0.0
 49
1.0
175
     0
142
0.0208333333333333
142
0.0
142
0.0
142
0.0
142
0.0
142
0.0208333333333333
142
0.0
142
0.0
142
0.0
142
0.0
142
1.0
142
0.0
142
0.0
142
0.0
142
0.0
142
1.0
179
     0
144
0.0208333333333333
144
0.0
144
0.0
144
0.0
144
0.0
144
0.0208333333333333
144
0.0
144
0.0
144
0.0
144
0.0
144
1.0
144
0.0
144
0.0
144
0.0
144
0.0
144
1.0
147
0.0208333333333333
147
0.0
147
0.0
147
0.0
147
0.0
147
0.0208333333333333
147
0.0
147
0.0
147
0.0
147
0.0
147
1.0
147
0.0
147
0.0
147
0.0
147
0.0
147
1.0
  0
MATERIAL
  5
21
102
{ACAD_XDICTIONARY
360
22
102
}
102
{ACAD_REACTORS
330
10
102
}
330
10
100
AcDbMaterial
  1
Global
 72
     0
 43
0.0208333333333333
 43
0.0
 43
0.0
 43
0.0
 43
0.0
 43
0.0208333333333333
 43
0.0
 43
0.0
 43
0.0
 43
0.0
 43
1.0
 43
0.0
 43
0.0
 43
0.0
 43
0.0
 43
1.0
 77
     0
 47
0.0208333333333333
 47
0.0
 47
0.0
 47
0.0
 47
0.0
 47
0.0208333333333333
 47
0.0
 47
0.0
 47
0.0
 47
0.0
 47
1.0
 47
0.0
 47
0.0
 47
0.0
 47
0.0
 47
1.0
171
     0
 49
0.0208333333333333
 49
0.0
 49
0.0
 49
0.0
 49
0.0
 49
0.0208333333333333
 49
0.0
 49
0.0
 49
0.0
 49
0.0
 49
1.0
 49
0.0
 49
0.0
 49
0.0
 49
0.0
 49
1.0
175
     0
142
0.0208333333333333
142
0.0
142
0.0
142
0.0
142
0.0
142
0.0208333333333333
142
0.0
142
0.0
142
0.0
142
0.0
142
1.0
142
0.0
142
0.0
142
0.0
142
0.0
142
1.0
179
     0
144
0.0208333333333333
144
0.0
144
0.0
144
0.0
144
0.0
144
0.0208333333333333
144
0.0
144
0.0
144
0.0
144
0.0
144
1.0
144
0.0
144
0.0
144
0.0
144
0.0
144
1.0
147
0.0208333333333333
147
0.0
147
0.0
147
0.0
147
0.0
147
0.0208333333333333
147
0.0
147
0.0
147
0.0
147
0.0
147
1.0
147
0.0
147
0.0
147
0.0
147
0.0
147
1.0
  0
MLEADERSTYLE
  5
67
102
{ACAD_REACTORS
330
66
102
}
330
66
100
AcDbMLeaderStyle
179
     2
170
     2
171
     1
172
     0
 90
        2
 40
0.0
 41
0.0
173
     1
 91
-1056964608
340
5B
 92
       -2
290
     1
 42
0.09
291
     1
 43
0.36
  3
Standard
 44
0.18
300

342
55
174
     1
178
     6
175
     1
176
     0
 93
-1056964608
 45
0.18
292
     0
297
     0
 46
0.18
 94
-1056964608
 47
1.0
 49
1.0
140
1.0
293
     1
141
0.0
294
     1
177
     0
142
1.0
295
     1
296
     0
143
0.125
271
     0
272
     9
273
     9
298
     1
  0
MLINESTYLE
  5
60
102
{ACAD_REACTORS
330
5F
102
}
330
5F
100
AcDbMlineStyle
  2
STANDARD
 70
     0
  3

 62
   256
 51
90.0
 52
90.0
 71
     2
 49
0.5
 62
   256
  6
BYLAYER
 49
-0.5
 62
   256
  6
BYLAYER
  0
ACDBPLACEHOLDER
  5
F
102
{ACAD_REACTORS
330
E
102
}
330
E
  0
SCALE
  5
43
102
{ACAD_REACTORS
330
42
102
}
330
42
100
AcDbScale
 70
     0
300
1:1
140
1.0
141
1.0
290
     1
  0
SCALE
  5
44
102
{ACAD_REACTORS
330
42
102
}
330
42
100
AcDbScale
 70
     0
300
1/128" = 1'-0"
140
0.0078125
141
12.0
290
     0
  0
SCALE
  5
45
102
{ACAD_REACTORS
330
42
102
}
330
42
100
AcDbScale
 70
     0
300
1/64" = 1'-0"
140
0.015625
141
12.0
290
     0
  0
SCALE
  5
46
102
{ACAD_REACTORS
330
42
102
}
330
42
100
AcDbScale
 70
     0
300
1/32" = 1'-0"
140
0.03125
141
12.0
290
     0
  0
SCALE
  5
47
102
{ACAD_REACTORS
330
42
102
}
330
42
100
AcDbScale
 70
     0
300
1/16" = 1'-0"
140
0.0625
141
12.0
290
     0
  0
SCALE
  5
48
102
{ACAD_REACTORS
330
42
102
}
330
42
100
AcDbScale
 70
     0
300
3/32" = 1'-0"
140
0.09375
141
12.0
290
     0
  0
SCALE
  5
49
102
{ACAD_REACTORS
330
42
102
}
330
42
100
AcDbScale
 70
     0
300
1/8" = 1'-0"
140
0.125
141
12.0
290
     0
  0
SCALE
  5
4A
102
{ACAD_REACTORS
330
42
102
}
330
42
100
AcDbScale
 70
     0
300
3/16" = 1'-0"
140
0.1875
141
12.0
290
     0
  0
SCALE
  5
4B
102
{ACAD_REACTORS
330
42
102
}
330
42
100
AcDbScale
 70
     0
300
1/4" = 1'-0"
140
0.25
141
12.0
290
     0
  0
SCALE
  5
4C
102
{ACAD_REACTORS
330
42
102
}
330
42
100
AcDbScale
 70
     0
300
3/8" = 1'-0"
140
0.375
141
12.0
290
     0
  0
SCALE
  5
4D
102
{ACAD_REACTORS
330
42
102
}
330
42
100
AcDbScale
 70
     0
300
1/2" = 1'-0"
140
0.5
141
12.0
290
     0
  0
SCALE
  5
4E
102
{ACAD_REACTORS
330
42
102
}
330
42
100
AcDbScale
 70
     0
300
3/4" = 1'-0"
140
0.75
141
12.0
290
     0
  0
SCALE
  5
4F
102
{ACAD_REACTORS
330
42
102
}
330
42
100
AcDbScale
 70
     0
300
1" = 1'-0"
140
1.0
141
12.0
290
     0
  0
SCALE
  5
50
102
{ACAD_REACTORS
330
42
102
}
330
42
100
AcDbScale
 70
     0
300
1-1/2" = 1'-0"
140
1.5
141
12.0
290
     0
  0
SCALE
  5
51
102
{ACAD_REACTORS
330
42
102
}
330
42
100
AcDbScale
 70
     0
300
3" = 1'-0"
140
3.0
141
12.0
290
     0
  0
SCALE
  5
52
102
{ACAD_REACTORS
330
42
102
}
330
42
100
AcDbScale
 70
     0
300
6" = 1'-0"
140
6.0
141
12.0
290
     0
  0
SCALE
  5
53
102
{ACAD_REACTORS
330
42
102
}
330
42
100
AcDbScale
 70
     0
300
1'-0" = 1'-0"
140
12.0
141
12.0
290
     0
  0
ACDBSECTIONVIEWSTYLE
  5
6A
102
{ACAD_REACTORS
330
68
102
}
330
68
100
AcDbModelDocViewStyle
 70
     0
  3
Imperial24
290
     1
100
AcDbSectionViewStyle
 70
     0
 71
     0
 90
       78
 71
     1
340
55
 62
   256
 40
0.24
340
0
340
0
 62
   256
 40
0.24
300
I, O, Q, S, X, Z
 40
0.48
 90
        3
 40
0.18
 90
        1
 71
     2
340
69
 90
       25
 62
   256
340
5D
 90
       50
 62
   256
 40
0.24
 40
0.0
 40
0.24
 71
     3
340
55
 62
   256
 40
0.24
 90
        1
 40
0.75
 90
        1
300
%<\AcVar ViewType \f "%tc1">% %<\AcVar ViewSectionStartId>%-%<\AcVar ViewSectionEndId>%\PSCALA %<\AcVar ViewScale \f "%sn">%
 71
     4
 62
   256
 62
   257
300
ANSI31
 40
1.0
 90
        0
290
     0
290
     0
 90
        6
 40
0.0
 40
1.570796326794896
 40
0.2617993877991494
 40
1.308996938995747
 40
-0.2617993877991494
 40
1.832595714594046
  0
TABLESTYLE
  5
65
102
{ACAD_XDICTIONARY
360
227
102
}
102
{ACAD_REACTORS
330
64
102
}
330
64
100
AcDbTableStyle
280
     0
  3
Standard
 70
     0
 71
     0
 40
0.06
 41
0.06
280
     0
281
     0
  7
Standard
140
0.18
170
     2
 62
     0
 63
     7
283
     0
 90
      512
 91
        0
  1

274
    -2
284
     1
 64
     0
275
    -2
285
     1
 65
     0
276
    -2
286
     1
 66
     0
277
    -2
287
     1
 67
     0
278
    -2
288
     1
 68
     0
279
    -2
289
     1
 69
     0
  7
Standard
140
0.25
170
     5
 62
     0
 63
     7
283
     0
 90
      512
 91
        0
  1

274
    -2
284
     1
 64
     0
275
    -2
285
     1
 65
     0
276
    -2
286
     1
 66
     0
277
    -2
287
     1
 67
     0
278
    -2
288
     1
 68
     0
279
    -2
289
     1
 69
     0
  7
Standard
140
0.18
170
     5
 62
     0
 63
     7
283
     0
 90
      512
 91
        0
  1

274
    -2
284
     1
 64
     0
275
    -2
285
     1
 65
     0
276
    -2
286
     1
 66
     0
277
    -2
287
     1
 67
     0
278
    -2
288
     1
 68
     0
279
    -2
289
     1
 69
     0
  0
VISUALSTYLE
  5
2F
102
{ACAD_REACTORS
330
29
102
}
330
29
100
AcDbVisualStyle
  2
2dWireframe
 70
     4
177
     3
291
     0
 70
    58
 90
        0
176
     1
 90
        2
176
     1
 90
        0
176
     1
 90
        0
176
     1
 40
0.6
176
     1
 40
30.0
176
     1
 62
     7
420
 16777215
176
     1
 90
        1
176
     1
 90
        4
176
     1
 62
     7
176
     1
 62
   257
176
     1
 90
        1
176
     1
 90
        1
176
     1
 40
1.0
176
     1
 90
        0
176
     1
 62
   257
176
     1
 40
1.0
176
     1
 90
        1
176
     1
 90
        6
176
     1
 90
        2
176
     1
 62
     7
176
     1
 90
        5
176
     1
 90
        0
176
     1
 90
        0
176
     1
290
     0
176
     1
 90
        1
176
     1
 40
0.0
176
     1
 90
        0
176
     1
290
     1
176
     1
290
     1
176
     1
290
     0
176
     1
290
     0
176
     1
290
     0
176
     1
290
     0
176
     1
290
     0
176
     1
290
     0
176
     1
290
     0
176
     1
 90
       50
176
     1
 40
0.0
176
     1
 40
1.0
176
     1
 90
        0
176
     1
 62
    18
420
        0
176
     1
 90
       50
176
     1
 90
        3
176
     1
 62
     5
420
      255
176
     1
290
     0
176
     1
 90
       50
176
     1
 90
       50
176
     1
 90
       50
176
     1
290
     0
176
     1
 90
       50
176
     1
 62
   256
176
     0
 40
1.0
176
     0
 90
        2
176
     1
  1
strokes_ogs.tif
176
     1
290
     0
176
     1
 40
1.0
176
     1
 40
1.0
176
     1
  0
VISUALSTYLE
  5
2E
102
{ACAD_REACTORS
330
29
102
}
330
29
100
AcDbVisualStyle
  2
Basic
 70
     7
177
     3
291
     1
 70
    58
 90
        1
176
     1
 90
        0
176
     1
 90
        1
176
     1
 90
        0
176
     1
 40
0.6
176
     1
 40
30.0
176
     1
 62
     7
420
 16777215
176
     1
 90
        0
176
     1
 90
        4
176
     1
 62
     7
176
     1
 62
   257
176
     1
 90
        1
176
     1
 90
        1
176
     1
 40
1.0
176
     1
 90
        8
176
     1
 62
     7
176
     1
 40
1.0
176
     1
 90
        1
176
     1
 90
        6
176
     1
 90
        2
176
     1
 62
     7
176
     1
 90
        5
176
     1
 90
        0
176
     1
 90
        0
176
     1
290
     0
176
     1
 90
        1
176
     1
 40
0.0
176
     1
 90
        0
176
     1
290
     0
176
     1
290
     1
176
     1
290
     1
176
     1
290
     0
176
     1
290
     0
176
     1
290
     0
176
     1
290
     0
176
     1
290
     0
176
     1
290
     0
176
     1
 90
       50
176
     1
 40
0.0
176
     1
 40
1.0
176
     1
 90
        0
176
     1
 62
    18
420
        0
176
     1
 90
       50
176
     1
 90
        3
176
     1
 62
     5
420
      255
176
     1
290
     0
176
     1
 90
       50
176
     1
 90
       50
176
     1
 90
       50
176
     1
290
     0
176
     1
 90
       50
176
     1
 62
   256
176
     0
 40
1.0
176
     0
 90
        2
176
     1
  1
strokes_ogs.tif
176
     1
290
     0
176
     1
 40
1.0
176
     1
 40
1.0
176
     1
  0
VISUALSTYLE
  5
35
102
{ACAD_REACTORS
330
29
102
}
330
29
100
AcDbVisualStyle
  2
Brighten
 70
    12
177
     3
291
     1
 70
    58
 90
        2
176
     1
 90
        2
176
     1
 90
        0
176
     1
 90
        0
176
     1
 40
0.6
176
     1
 40
30.0
176
     1
 62
     7
420
 16777215
176
     1
 90
        1
176
     1
 90
        4
176
     1
 62
     7
176
     1
 62
   257
176
     1
 90
        1
176
     1
 90
        1
176
     1
 40
1.0
176
     1
 90
        8
176
     1
 62
     7
176
     1
 40
1.0
176
     1
 90
        1
176
     1
 90
        6
176
     1
 90
        2
176
     1
 62
     7
176
     1
 90
        5
176
     1
 90
        0
176
     1
 90
        0
176
     1
290
     0
176
     1
 90
        1
176
     1
 40
50.0
176
     1
 90
        0
176
     1
290
     0
176
     1
290
     1
176
     1
290
     1
176
     1
290
     0
176
     1
290
     0
176
     1
290
     0
176
     1
290
     0
176
     1
290
     0
176
     1
290
     0
176
     1
 90
       50
176
     1
 40
0.0
176
     1
 40
1.0
176
     1
 90
        0
176
     1
 62
    18
420
        0
176
     1
 90
       50
176
     1
 90
        3
176
     1
 62
     5
420
      255
176
     1
290
     0
176
     1
 90
       50
176
     1
 90
       50
176
     1
 90
       50
176
     1
290
     0
176
     1
 90
       50
176
     1
 62
   256
176
     0
 40
1.0
176
     0
 90
        2
176
     1
  1
strokes_ogs.tif
176
     1
290
     0
176
     1
 40
1.0
176
     1
 40
1.0
176
     1
  0
VISUALSTYLE
  5
39
102
{ACAD_REACTORS
330
29
102
}
330
29
100
AcDbVisualStyle
  2
ColorChange
 70
    16
177
     3
291
     1
 70
    58
 90
        2
176
     1
 90
        2
176
     1
 90
        3
176
     1
 90
        0
176
     1
 40
0.6
176
     1
 40
30.0
176
     1
 62
     8
420
  8421504
176
     1
 90
        1
176
     1
 90
        4
176
     1
 62
     7
176
     1
 62
   257
176
     1
 90
        1
176
     1
 90
        1
176
     1
 40
1.0
176
     1
 90
        8
176
     1
 62
     8
420
  8421504
176
     1
 40
1.0
176
     1
 90
        1
176
     1
 90
        6
176
     1
 90
        2
176
     1
 62
     7
176
     1
 90
        5
176
     1
 90
        0
176
     1
 90
        0
176
     1
290
     0
176
     1
 90
        1
176
     1
 40
0.0
176
     1
 90
        0
176
     1
290
     0
176
     1
290
     1
176
     1
290
     1
176
     1
290
     0
176
     1
290
     0
176
     1
290
     0
176
     1
290
     0
176
     1
290
     0
176
     1
290
     0
176
     1
 90
       50
176
     1
 40
0.0
176
     1
 40
1.0
176
     1
 90
        0
176
     1
 62
    18
420
        0
176
     1
 90
       50
176
     1
 90
        3
176
     1
 62
     5
420
      255
176
     1
290
     0
176
     1
 90
       50
176
     1
 90
       50
176
     1
 90
       50
176
     1
290
     0
176
     1
 90
       50
176
     1
 62
   256
176
     0
 40
1.0
176
     0
 90
        2
176
     1
  1
strokes_ogs.tif
176
     1
290
     0
176
     1
 40
1.0
176
     1
 40
1.0
176
     1
  0
VISUALSTYLE
  5
32
102
{ACAD_REACTORS
330
29
102
}
330
29
100
AcDbVisualStyle
  2
Conceptual
 70
     9
177
     3
291
     0
 70
    58
 90
        3
176
     1
 90
        2
176
     1
 90
        0
176
     1
 90
        0
176
     1
 40
0.6
176
     1
 40
30.0
176
     1
 62
     7
420
 16777215
176
     1
 90
        2
176
     1
 90
        2
176
     1
 62
     7
176
     1
 62
   257
176
     1
 90
        1
176
     1
 90
        1
176
     1
 40
179.0
176
     1
 90
        8
176
     1
 62
     7
176
     1
 40
1.0
176
     1
 90
        1
176
     1
 90
        6
176
     1
 90
        2
176
     1
 62
     7
176
     1
 90
        3
176
     1
 90
        0
176
     1
 90
        0
176
     1
290
     0
176
     1
 90
        1
176
     1
 40
0.0
176
     1
 90
        0
176
     1
290
     0
176
     1
290
     1
176
     1
290
     1
176
     1
290
     0
176
     1
290
     0
176
     1
290
     0
176
     1
290
     0
176
     1
290
     0
176
     1
290
     0
176
     1
 90
       50
176
     1
 40
0.0
176
     1
 40
1.0
176
     1
 90
        0
176
     1
 62
    18
420
        0
176
     1
 90
       50
176
     1
 90
        3
176
     1
 62
     5
420
      255
176
     1
290
     0
176
     1
 90
       50
176
     1
 90
       50
176
     1
 90
       50
176
     1
290
     0
176
     1
 90
       50
176
     1
 62
   256
176
     0
 40
1.0
176
     0
 90
        2
176
     1
  1
strokes_ogs.tif
176
     1
290
     0
176
     1
 40
1.0
176
     1
 40
1.0
176
     1
  0
VISUALSTYLE
  5
34
102
{ACAD_REACTORS
330
29
102
}
330
29
100
AcDbVisualStyle
  2
Dim
 70
    11
177
     3
291
     1
 70
    58
 90
        2
176
     1
 90
        2
176
     1
 90
        0
176
     1
 90
        0
176
     1
 40
0.6
176
     1
 40
30.0
176
     1
 62
     7
420
 16777215
176
     1
 90
        1
176
     1
 90
        4
176
     1
 62
     7
176
     1
 62
   257
176
     1
 90
        1
176
     1
 90
        1
176
     1
 40
1.0
176
     1
 90
        8
176
     1
 62
     7
176
     1
 40
1.0
176
     1
 90
        1
176
     1
 90
        6
176
     1
 90
        2
176
     1
 62
     7
176
     1
 90
        5
176
     1
 90
        0
176
     1
 90
        0
176
     1
290
     0
176
     1
 90
        1
176
     1
 40
-50.0
176
     1
 90
        0
176
     1
290
     0
176
     1
290
     1
176
     1
290
     1
176
     1
290
     0
176
     1
290
     0
176
     1
290
     0
176
     1
290
     0
176
     1
290
     0
176
     1
290
     0
176
     1
 90
       50
176
     1
 40
0.0
176
     1
 40
1.0
176
     1
 90
        0
176
     1
 62
    18
420
        0
176
     1
 90
       50
176
     1
 90
        3
176
     1
 62
     5
420
      255
176
     1
290
     0
176
     1
 90
       50
176
     1
 90
       50
176
     1
 90
       50
176
     1
290
     0
176
     1
 90
       50
176
     1
 62
   256
176
     0
 40
1.0
176
     0
 90
        2
176
     1
  1
strokes_ogs.tif
176
     1
290
     0
176
     1
 40
1.0
176
     1
 40
1.0
176
     1
  0
VISUALSTYLE
  5
41
102
{ACAD_REACTORS
330
29
102
}
330
29
100
AcDbVisualStyle
  2
EdgeColorOff
 70
    22
177
     3
291
     1
 70
    58
 90
        2
176
     0
 90
        2
176
     0
 90
        0
176
     0
 90
        0
176
     0
 40
0.6
176
     0
 40
30.0
176
     0
 62
     7
420
 16777215
176
     0
 90
        1
176
     0
 90
        4
176
     0
 62
     7
176
     0
 62
   257
176
     0
 90
        1
176
     0
 90
        1
176
     0
 40
1.0
176
     0
 90
        8
176
     2
 62
     7
176
     0
 40
1.0
176
     0
 90
        1
176
     0
 90
        6
176
     0
 90
        2
176
     0
 62
     7
176
     0
 90
        5
176
     0
 90
        0
176
     0
 90
        0
176
     0
290
     0
176
     0
 90
        1
176
     0
 40
0.0
176
     0
 90
        0
176
     0
290
     0
176
     0
290
     1
176
     0
290
     1
176
     0
290
     0
176
     0
290
     0
176
     0
290
     0
176
     0
290
     0
176
     0
290
     0
176
     0
290
     0
176
     0
 90
       50
176
     0
 40
0.0
176
     0
 40
1.0
176
     0
 90
        0
176
     0
 62
    18
420
        0
176
     0
 90
       50
176
     0
 90
        3
176
     0
 62
     5
420
      255
176
     0
290
     0
176
     0
 90
       50
176
     0
 90
       50
176
     0
 90
       50
176
     0
290
     0
176
     0
 90
       50
176
     0
 62
   256
176
     0
 40
1.0
176
     0
 90
        2
176
     0
  1
strokes_ogs.tif
176
     0
290
     0
176
     0
 40
1.0
176
     0
 40
1.0
176
     0
  0
VISUALSTYLE
  5
38
102
{ACAD_REACTORS
330
29
102
}
330
29
100
AcDbVisualStyle
  2
Facepattern
 70
    15
177
     3
291
     1
 70
    58
 90
        2
176
     1
 90
        2
176
     1
 90
        0
176
     1
 90
        0
176
     1
 40
0.6
176
     1
 40
30.0
176
     1
 62
     7
420
 16777215
176
     1
 90
        1
176
     1
 90
        4
176
     1
 62
     7
176
     1
 62
   257
176
     1
 90
        1
176
     1
 90
        1
176
     1
 40
1.0
176
     1
 90
        8
176
     1
 62
     7
176
     1
 40
1.0
176
     1
 90
        1
176
     1
 90
        6
176
     1
 90
        2
176
     1
 62
     7
176
     1
 90
        5
176
     1
 90
        0
176
     1
 90
        0
176
     1
290
     0
176
     1
 90
        1
176
     1
 40
0.0
176
     1
 90
        0
176
     1
290
     0
176
     1
290
     1
176
     1
290
     1
176
     1
290
     0
176
     1
290
     0
176
     1
290
     0
176
     1
290
     0
176
     1
290
     0
176
     1
290
     0
176
     1
 90
       50
176
     1
 40
0.0
176
     1
 40
1.0
176
     1
 90
        0
176
     1
 62
    18
420
        0
176
     1
 90
       50
176
     1
 90
        3
176
     1
 62
     5
420
      255
176
     1
290
     0
176
     1
 90
       50
176
     1
 90
       50
176
     1
 90
       50
176
     1
290
     0
176
     1
 90
       50
176
     1
 62
   256
176
     0
 40
1.0
176
     0
 90
        2
176
     1
  1
strokes_ogs.tif
176
     1
290
     0
176
     1
 40
1.0
176
     1
 40
1.0
176
     1
  0
VISUALSTYLE
  5
2A
102
{ACAD_REACTORS
330
29
102
}
330
29
100
AcDbVisualStyle
  2
Flat
 70
     0
177
     3
291
     1
 70
    58
 90
        2
176
     1
 90
        1
176
     1
 90
        1
176
     1
 90
        2
176
     1
 40
0.6
176
     1
 40
30.0
176
     1
 62
     7
420
 16777215
176
     1
 90
        0
176
     1
 90
        0
176
     1
 62
     7
176
     1
 62
   257
176
     1
 90
        1
176
     1
 90
        1
176
     1
 40
1.0
176
     1
 90
        8
176
     1
 62
     7
176
     1
 40
1.0
176
     1
 90
        1
176
     1
 90
        6
176
     1
 90
        2
176
     1
 62
     7
176
     1
 90
        5
176
     1
 90
        0
176
     1
 90
        0
176
     1
290
     0
176
     1
 90
       13
176
     1
 40
0.0
176
     1
 90
        0
176
     1
290
     0
176
     1
290
     1
176
     1
290
     1
176
     1
290
     0
176
     1
290
     0
176
     1
290
     0
176
     1
290
     0
176
     1
290
     0
176
     1
290
     0
176
     1
 90
       50
176
     1
 40
0.0
176
     1
 40
1.0
176
     1
 90
        0
176
     1
 62
    18
420
        0
176
     1
 90
       50
176
     1
 90
        3
176
     1
 62
     5
420
      255
176
     1
290
     0
176
     1
 90
       50
176
     1
 90
       50
176
     1
 90
       50
176
     1
290
     0
176
     1
 90
       50
176
     1
 62
   256
176
     0
 40
1.0
176
     0
 90
        2
176
     1
  1
strokes_ogs.tif
176
     1
290
     0
176
     1
 40
1.0
176
     1
 40
1.0
176
     1
  0
VISUALSTYLE
  5
2B
102
{ACAD_REACTORS
330
29
102
}
330
29
100
AcDbVisualStyle
  2
FlatWithEdges
 70
     1
177
     3
291
     1
 70
    58
 90
        2
176
     1
 90
        1
176
     1
 90
        1
176
     1
 90
        2
176
     1
 40
0.6
176
     1
 40
30.0
176
     1
 62
     7
420
 16777215
176
     1
 90
        1
176
     1
 90
        0
176
     1
 62
     7
176
     1
 62
   257
176
     1
 90
        1
176
     1
 90
        1
176
     1
 40
1.0
176
     1
 90
        0
176
     1
 62
   257
176
     1
 40
1.0
176
     1
 90
        1
176
     1
 90
        6
176
     1
 90
        2
176
     1
 62
     7
176
     1
 90
        5
176
     1
 90
        0
176
     1
 90
        0
176
     1
290
     0
176
     1
 90
       13
176
     1
 40
0.0
176
     1
 90
        0
176
     1
290
     0
176
     1
290
     1
176
     1
290
     1
176
     1
290
     0
176
     1
290
     0
176
     1
290
     0
176
     1
290
     0
176
     1
290
     0
176
     1
290
     0
176
     1
 90
       50
176
     1
 40
0.0
176
     1
 40
1.0
176
     1
 90
        0
176
     1
 62
    18
420
        0
176
     1
 90
       50
176
     1
 90
        3
176
     1
 62
     5
420
      255
176
     1
290
     0
176
     1
 90
       50
176
     1
 90
       50
176
     1
 90
       50
176
     1
290
     0
176
     1
 90
       50
176
     1
 62
   256
176
     0
 40
1.0
176
     0
 90
        2
176
     1
  1
strokes_ogs.tif
176
     1
290
     0
176
     1
 40
1.0
176
     1
 40
1.0
176
     1
  0
VISUALSTYLE
  5
2C
102
{ACAD_REACTORS
330
29
102
}
330
29
100
AcDbVisualStyle
  2
Gouraud
 70
     2
177
     3
291
     1
 70
    58
 90
        2
176
     1
 90
        2
176
     1
 90
        1
176
     1
 90
        2
176
     1
 40
0.6
176
     1
 40
30.0
176
     1
 62
     7
420
 16777215
176
     1
 90
        0
176
     1
 90
        0
176
     1
 62
     7
176
     1
 62
   257
176
     1
 90
        1
176
     1
 90
        1
176
     1
 40
1.0
176
     1
 90
        0
176
     1
 62
     7
176
     1
 40
1.0
176
     1
 90
        1
176
     1
 90
        6
176
     1
 90
        2
176
     1
 62
     7
176
     1
 90
        5
176
     1
 90
        0
176
     1
 90
        0
176
     1
290
     0
176
     1
 90
       13
176
     1
 40
0.0
176
     1
 90
        0
176
     1
290
     0
176
     1
290
     1
176
     1
290
     1
176
     1
290
     0
176
     1
290
     0
176
     1
290
     0
176
     1
290
     0
176
     1
290
     0
176
     1
290
     0
176
     1
 90
       50
176
     1
 40
0.0
176
     1
 40
1.0
176
     1
 90
        0
176
     1
 62
    18
420
        0
176
     1
 90
       50
176
     1
 90
        3
176
     1
 62
     5
420
      255
176
     1
290
     0
176
     1
 90
       50
176
     1
 90
       50
176
     1
 90
       50
176
     1
290
     0
176
     1
 90
       50
176
     1
 62
   256
176
     0
 40
1.0
176
     0
 90
        2
176
     1
  1
strokes_ogs.tif
176
     1
290
     0
176
     1
 40
1.0
176
     1
 40
1.0
176
     1
  0
VISUALSTYLE
  5
2D
102
{ACAD_REACTORS
330
29
102
}
330
29
100
AcDbVisualStyle
  2
GouraudWithEdges
 70
     3
177
     3
291
     1
 70
    58
 90
        2
176
     1
 90
        2
176
     1
 90
        1
176
     1
 90
        2
176
     1
 40
0.6
176
     1
 40
30.0
176
     1
 62
     7
420
 16777215
176
     1
 90
        1
176
     1
 90
        0
176
     1
 62
     7
176
     1
 62
   257
176
     1
 90
        1
176
     1
 90
        1
176
     1
 40
1.0
176
     1
 90
        0
176
     1
 62
   257
176
     1
 40
1.0
176
     1
 90
        1
176
     1
 90
        6
176
     1
 90
        2
176
     1
 62
     7
176
     1
 90
        5
176
     1
 90
        0
176
     1
 90
        0
176
     1
290
     0
176
     1
 90
       13
176
     1
 40
0.0
176
     1
 90
        0
176
     1
290
     0
176
     1
290
     1
176
     1
290
     1
176
     1
290
     0
176
     1
290
     0
176
     1
290
     0
176
     1
290
     0
176
     1
290
     0
176
     1
290
     0
176
     1
 90
       50
176
     1
 40
0.0
176
     1
 40
1.0
176
     1
 90
        0
176
     1
 62
    18
420
        0
176
     1
 90
       50
176
     1
 90
        3
176
     1
 62
     5
420
      255
176
     1
290
     0
176
     1
 90
       50
176
     1
 90
       50
176
     1
 90
       50
176
     1
290
     0
176
     1
 90
       50
176
     1
 62
   256
176
     0
 40
1.0
176
     0
 90
        2
176
     1
  1
strokes_ogs.tif
176
     1
290
     0
176
     1
 40
1.0
176
     1
 40
1.0
176
     1
  0
VISUALSTYLE
  5
31
102
{ACAD_REACTORS
330
29
102
}
330
29
100
AcDbVisualStyle
  2
Hidden
 70
     6
177
     3
291
     0
 70
    58
 90
        1
176
     1
 90
        2
176
     1
 90
        2
176
     1
 90
        0
176
     1
 40
0.6
176
     1
 40
30.0
176
     1
 62
     7
420
 16777215
176
     1
 90
        2
176
     1
 90
        2
176
     1
 62
     7
176
     1
 62
   257
176
     1
 90
        2
176
     1
 90
        1
176
     1
 40
40.0
176
     1
 90
        0
176
     1
 62
   257
176
     1
 40
1.0
176
     1
 90
        1
176
     1
 90
        6
176
     1
 90
        2
176
     1
 62
     7
176
     1
 90
        3
176
     1
 90
        0
176
     1
 90
        0
176
     1
290
     0
176
     1
 90
        1
176
     1
 40
0.0
176
     1
 90
        0
176
     1
290
     0
176
     1
290
     1
176
     1
290
     1
176
     1
290
     0
176
     1
290
     0
176
     1
290
     0
176
     1
290
     0
176
     1
290
     0
176
     1
290
     0
176
     1
 90
       50
176
     1
 40
0.0
176
     1
 40
1.0
176
     1
 90
        0
176
     1
 62
    18
420
        0
176
     1
 90
       50
176
     1
 90
        3
176
     1
 62
     5
420
      255
176
     1
290
     0
176
     1
 90
       50
176
     1
 90
       50
176
     1
 90
       50
176
     1
290
     0
176
     1
 90
       50
176
     1
 62
   256
176
     0
 40
1.0
176
     0
 90
        2
176
     1
  1
strokes_ogs.tif
176
     1
290
     0
176
     1
 40
1.0
176
     1
 40
1.0
176
     1
  0
VISUALSTYLE
  5
3F
102
{ACAD_REACTORS
330
29
102
}
330
29
100
AcDbVisualStyle
  2
JitterOff
 70
    20
177
     3
291
     1
 70
    58
 90
        2
176
     0
 90
        2
176
     0
 90
        0
176
     0
 90
        0
176
     0
 40
0.6
176
     0
 40
30.0
176
     0
 62
     7
420
 16777215
176
     0
 90
        1
176
     0
 90
        4
176
     0
 62
     7
176
     0
 62
   257
176
     0
 90
        1
176
     0
 90
        1
176
     0
 40
1.0
176
     0
 90
       10
176
     2
 62
     7
176
     0
 40
1.0
176
     0
 90
        1
176
     0
 90
        6
176
     0
 90
        2
176
     0
 62
     7
176
     0
 90
        5
176
     0
 90
        0
176
     0
 90
        0
176
     0
290
     0
176
     0
 90
        1
176
     0
 40
0.0
176
     0
 90
        0
176
     0
290
     0
176
     0
290
     1
176
     0
290
     1
176
     0
290
     0
176
     0
290
     0
176
     0
290
     0
176
     0
290
     0
176
     0
290
     0
176
     0
290
     0
176
     0
 90
       50
176
     0
 40
0.0
176
     0
 40
1.0
176
     0
 90
        0
176
     0
 62
    18
420
        0
176
     0
 90
       50
176
     0
 90
        3
176
     0
 62
     5
420
      255
176
     0
290
     0
176
     0
 90
       50
176
     0
 90
       50
176
     0
 90
       50
176
     0
290
     0
176
     0
 90
       50
176
     0
 62
   256
176
     0
 40
1.0
176
     0
 90
        2
176
     0
  1
strokes_ogs.tif
176
     0
290
     0
176
     0
 40
1.0
176
     0
 40
1.0
176
     0
  0
VISUALSTYLE
  5
37
102
{ACAD_REACTORS
330
29
102
}
330
29
100
AcDbVisualStyle
  2
Linepattern
 70
    14
177
     3
291
     1
 70
    58
 90
        2
176
     1
 90
        2
176
     1
 90
        0
176
     1
 90
        0
176
     1
 40
0.6
176
     1
 40
30.0
176
     1
 62
     7
420
 16777215
176
     1
 90
        1
176
     1
 90
        4
176
     1
 62
     7
176
     1
 62
   257
176
     1
 90
        7
176
     1
 90
        7
176
     1
 40
1.0
176
     1
 90
        8
176
     1
 62
     7
176
     1
 40
1.0
176
     1
 90
        1
176
     1
 90
        6
176
     1
 90
        2
176
     1
 62
     7
176
     1
 90
        5
176
     1
 90
        0
176
     1
 90
        0
176
     1
290
     0
176
     1
 90
        1
176
     1
 40
0.0
176
     1
 90
        0
176
     1
290
     0
176
     1
290
     1
176
     1
290
     1
176
     1
290
     0
176
     1
290
     0
176
     1
290
     0
176
     1
290
     0
176
     1
290
     0
176
     1
290
     0
176
     1
 90
       50
176
     1
 40
0.0
176
     1
 40
1.0
176
     1
 90
        0
176
     1
 62
    18
420
        0
176
     1
 90
       50
176
     1
 90
        3
176
     1
 62
     5
420
      255
176
     1
290
     0
176
     1
 90
       50
176
     1
 90
       50
176
     1
 90
       50
176
     1
290
     0
176
     1
 90
       50
176
     1
 62
   256
176
     0
 40
1.0
176
     0
 90
        2
176
     1
  1
strokes_ogs.tif
176
     1
290
     0
176
     1
 40
1.0
176
     1
 40
1.0
176
     1
  0
VISUALSTYLE
  5
40
102
{ACAD_REACTORS
330
29
102
}
330
29
100
AcDbVisualStyle
  2
OverhangOff
 70
    21
177
     3
291
     1
 70
    58
 90
        2
176
     0
 90
        2
176
     0
 90
        0
176
     0
 90
        0
176
     0
 40
0.6
176
     0
 40
30.0
176
     0
 62
     7
420
 16777215
176
     0
 90
        1
176
     0
 90
        4
176
     0
 62
     7
176
     0
 62
   257
176
     0
 90
        1
176
     0
 90
        1
176
     0
 40
1.0
176
     0
 90
        9
176
     2
 62
     7
176
     0
 40
1.0
176
     0
 90
        1
176
     0
 90
        6
176
     0
 90
        2
176
     0
 62
     7
176
     0
 90
        5
176
     0
 90
        0
176
     0
 90
        0
176
     0
290
     0
176
     0
 90
        1
176
     0
 40
0.0
176
     0
 90
        0
176
     0
290
     0
176
     0
290
     1
176
     0
290
     1
176
     0
290
     0
176
     0
290
     0
176
     0
290
     0
176
     0
290
     0
176
     0
290
     0
176
     0
290
     0
176
     0
 90
       50
176
     0
 40
0.0
176
     0
 40
1.0
176
     0
 90
        0
176
     0
 62
    18
420
        0
176
     0
 90
       50
176
     0
 90
        3
176
     0
 62
     5
420
      255
176
     0
290
     0
176
     0
 90
       50
176
     0
 90
       50
176
     0
 90
       50
176
     0
290
     0
176
     0
 90
       50
176
     0
 62
   256
176
     0
 40
1.0
176
     0
 90
        2
176
     0
  1
strokes_ogs.tif
176
     0
290
     0
176
     0
 40
1.0
176
     0
 40
1.0
176
     0
  0
VISUALSTYLE
  5
33
102
{ACAD_REACTORS
330
29
102
}
330
29
100
AcDbVisualStyle
  2
Realistic
 70
     8
177
     3
291
     0
 70
    58
 90
        2
176
     1
 90
        3
176
     1
 90
        0
176
     1
 90
        2
176
     1
 40
0.6
176
     1
 40
30.0
176
     1
 62
     7
420
 16777215
176
     1
 90
        0
176
     1
 90
        0
176
     1
 62
     7
176
     1
 62
   257
176
     1
 90
        1
176
     1
 90
        1
176
     1
 40
1.0
176
     1
 90
        8
176
     1
 62
   257
176
     1
 40
1.0
176
     1
 90
        1
176
     1
 90
        6
176
     1
 90
        2
176
     1
 62
     7
176
     1
 90
        3
176
     1
 90
        0
176
     1
 90
        0
176
     1
290
     0
176
     1
 90
       13
176
     1
 40
0.0
176
     1
 90
        0
176
     1
290
     0
176
     1
290
     1
176
     1
290
     1
176
     1
290
     0
176
     1
290
     0
176
     1
290
     0
176
     1
290
     0
176
     1
290
     0
176
     1
290
     0
176
     1
 90
       50
176
     1
 40
0.0
176
     1
 40
1.0
176
     1
 90
        0
176
     1
 62
    18
420
        0
176
     1
 90
       50
176
     1
 90
        3
176
     1
 62
     5
420
      255
176
     1
290
     0
176
     1
 90
       50
176
     1
 90
       50
176
     1
 90
       50
176
     1
290
     0
176
     1
 90
       50
176
     1
 62
   256
176
     0
 40
1.0
176
     0
 90
        2
176
     1
  1
strokes_ogs.tif
176
     1
290
     0
176
     1
 40
1.0
176
     1
 40
1.0
176
     1
  0
VISUALSTYLE
  5
3E
102
{ACAD_REACTORS
330
29
102
}
330
29
100
AcDbVisualStyle
  2
Shaded
 70
    27
177
     3
291
     0
 70
    58
 90
        2
176
     1
 90
        2
176
     1
 90
        1
176
     1
 90
        2
176
     1
 40
0.6
176
     1
 40
30.0
176
     1
 62
     7
420
 16777215
176
     1
 90
        0
176
     1
 90
        4
176
     1
 62
     7
176
     1
 62
   257
176
     1
 90
        1
176
     1
 90
        1
176
     1
 40
1.0
176
     1
 90
        8
176
     1
 62
   257
176
     1
 40
1.0
176
     1
 90
        1
176
     1
 90
        6
176
     1
 90
        2
176
     1
 62
     8
420
  7895160
176
     1
 90
        3
176
     1
 90
        0
176
     1
 90
        0
176
     1
290
     0
176
     1
 90
        5
176
     1
 40
0.0
176
     1
 90
        0
176
     1
290
     0
176
     1
290
     1
176
     1
290
     1
176
     1
290
     0
176
     1
290
     0
176
     1
290
     0
176
     1
290
     0
176
     1
290
     0
176
     1
290
     0
176
     1
 90
       50
176
     1
 40
0.0
176
     1
 40
1.0
176
     1
 90
        0
176
     1
 62
    18
420
        0
176
     1
 90
       50
176
     1
 90
        3
176
     1
 62
     5
420
      255
176
     1
290
     0
176
     1
 90
       50
176
     1
 90
       50
176
     1
 90
       50
176
     1
290
     0
176
     1
 90
       50
176
     1
 62
   256
176
     0
 40
1.0
176
     0
 90
        2
176
     1
  1
strokes_ogs.tif
176
     1
290
     0
176
     1
 40
1.0
176
     1
 40
1.0
176
     1
  0
VISUALSTYLE
  5
3D
102
{ACAD_REACTORS
330
29
102
}
330
29
100
AcDbVisualStyle
  2
Shaded with edges
 70
    26
177
     3
291
     0
 70
    58
 90
        2
176
     1
 90
        2
176
     1
 90
        1
176
     1
 90
        2
176
     1
 40
0.6
176
     1
 40
30.0
176
     1
 62
     7
420
 16777215
176
     1
 90
        1
176
     1
 90
       10
176
     1
 62
     7
176
     1
 62
   257
176
     1
 90
        2
176
     1
 90
        1
176
     1
 40
1.0
176
     1
 90
        8
176
     1
 62
   257
176
     1
 40
1.0
176
     1
 90
        1
176
     1
 90
        6
176
     1
 90
        2
176
     1
 62
     7
176
     1
 90
        3
176
     1
 90
        0
176
     1
 90
        0
176
     1
290
     0
176
     1
 90
        5
176
     1
 40
0.0
176
     1
 90
        0
176
     1
290
     0
176
     1
290
     1
176
     1
290
     1
176
     1
290
     0
176
     1
290
     0
176
     1
290
     0
176
     1
290
     0
176
     1
290
     0
176
     1
290
     0
176
     1
 90
       50
176
     1
 40
0.0
176
     1
 40
1.0
176
     1
 90
        0
176
     1
 62
    18
420
        0
176
     1
 90
       50
176
     1
 90
        3
176
     1
 62
     5
420
      255
176
     1
290
     0
176
     1
 90
       50
176
     1
 90
       50
176
     1
 90
       50
176
     1
290
     0
176
     1
 90
       50
176
     1
 62
   256
176
     0
 40
1.0
176
     0
 90
        2
176
     1
  1
strokes_ogs.tif
176
     1
290
     0
176
     1
 40
1.0
176
     1
 40
1.0
176
     1
  0
VISUALSTYLE
  5
3A
102
{ACAD_REACTORS
330
29
102
}
330
29
100
AcDbVisualStyle
  2
Shades of Gray
 70
    23
177
     3
291
     0
 70
    58
 90
        2
176
     1
 90
        2
176
     1
 90
        3
176
     1
 90
        0
176
     1
 40
0.6
176
     1
 40
30.0
176
     1
 62
     7
420
 16777215
176
     1
 90
        2
176
     1
 90
        2
176
     1
 62
     7
176
     1
 62
     7
176
     1
 90
        1
176
     1
 90
        1
176
     1
 40
40.0
176
     1
 90
        8
176
     1
 62
     7
176
     1
 40
1.0
176
     1
 90
        1
176
     1
 90
        6
176
     1
 90
        2
176
     1
 62
     7
176
     1
 90
        3
176
     1
 90
        0
176
     1
 90
        0
176
     1
290
     0
176
     1
 90
        1
176
     1
 40
0.0
176
     1
 90
        0
176
     1
290
     0
176
     1
290
     1
176
     1
290
     1
176
     1
290
     0
176
     1
290
     0
176
     1
290
     0
176
     1
290
     0
176
     1
290
     0
176
     1
290
     0
176
     1
 90
       50
176
     1
 40
0.0
176
     1
 40
1.0
176
     1
 90
        0
176
     1
 62
    18
420
        0
176
     1
 90
       50
176
     1
 90
        3
176
     1
 62
     5
420
      255
176
     1
290
     0
176
     1
 90
       50
176
     1
 90
       50
176
     1
 90
       50
176
     1
290
     0
176
     1
 90
       50
176
     1
 62
   256
176
     0
 40
1.0
176
     0
 90
        2
176
     1
  1
strokes_ogs.tif
176
     1
290
     0
176
     1
 40
1.0
176
     1
 40
1.0
176
     1
  0
VISUALSTYLE
  5
3B
102
{ACAD_REACTORS
330
29
102
}
330
29
100
AcDbVisualStyle
  2
Sketchy
 70
    24
177
     3
291
     0
 70
    58
 90
        1
176
     1
 90
        2
176
     1
 90
        2
176
     1
 90
        0
176
     1
 40
0.6
176
     1
 40
30.0
176
     1
 62
     7
420
 16777215
176
     1
 90
        2
176
     1
 90
        2
176
     1
 62
     7
176
     1
 62
     7
176
     1
 90
        1
176
     1
 90
        1
176
     1
 40
40.0
176
     1
 90
       11
176
     1
 62
     7
176
     1
 40
1.0
176
     1
 90
        1
176
     1
 90
        6
176
     1
 90
        2
176
     1
 62
     7
176
     1
 90
        6
176
     1
 90
        0
176
     1
 90
        0
176
     1
290
     0
176
     1
 90
        1
176
     1
 40
0.0
176
     1
 90
        0
176
     1
290
     0
176
     1
290
     1
176
     1
290
     1
176
     1
290
     0
176
     1
290
     0
176
     1
290
     0
176
     1
290
     0
176
     1
290
     0
176
     1
290
     0
176
     1
 90
       50
176
     1
 40
0.0
176
     1
 40
1.0
176
     1
 90
        0
176
     1
 62
    18
420
        0
176
     1
 90
       50
176
     1
 90
        3
176
     1
 62
     5
420
      255
176
     1
290
     0
176
     1
 90
       50
176
     1
 90
       50
176
     1
 90
       50
176
     1
290
     0
176
     1
 90
       50
176
     1
 62
   256
176
     0
 40
1.0
176
     0
 90
        2
176
     1
  1
strokes_ogs.tif
176
     1
290
     0
176
     1
 40
1.0
176
     1
 40
1.0
176
     1
  0
VISUALSTYLE
  5
36
102
{ACAD_REACTORS
330
29
102
}
330
29
100
AcDbVisualStyle
  2
Thicken
 70
    13
177
     3
291
     1
 70
    58
 90
        2
176
     1
 90
        2
176
     1
 90
        0
176
     1
 90
        0
176
     1
 40
0.6
176
     1
 40
30.0
176
     1
 62
     7
420
 16777215
176
     1
 90
        1
176
     1
 90
        4
176
     1
 62
     7
176
     1
 62
   257
176
     1
 90
        1
176
     1
 90
        1
176
     1
 40
1.0
176
     1
 90
       12
176
     1
 62
     7
176
     1
 40
1.0
176
     1
 90
        1
176
     1
 90
        6
176
     1
 90
        2
176
     1
 62
     7
176
     1
 90
        5
176
     1
 90
        0
176
     1
 90
        0
176
     1
290
     0
176
     1
 90
        1
176
     1
 40
0.0
176
     1
 90
        0
176
     1
290
     0
176
     1
290
     1
176
     1
290
     1
176
     1
290
     0
176
     1
290
     0
176
     1
290
     0
176
     1
290
     0
176
     1
290
     0
176
     1
290
     0
176
     1
 90
       50
176
     1
 40
0.0
176
     1
 40
1.0
176
     1
 90
        0
176
     1
 62
    18
420
        0
176
     1
 90
       50
176
     1
 90
        3
176
     1
 62
     5
420
      255
176
     1
290
     0
176
     1
 90
       50
176
     1
 90
       50
176
     1
 90
       50
176
     1
290
     0
176
     1
 90
       50
176
     1
 62
   256
176
     0
 40
1.0
176
     0
 90
        2
176
     1
  1
strokes_ogs.tif
176
     1
290
     0
176
     1
 40
1.0
176
     1
 40
1.0
176
     1
  0
VISUALSTYLE
  5
30
102
{ACAD_REACTORS
330
29
102
}
330
29
100
AcDbVisualStyle
  2
Wireframe
 70
     5
177
     3
291
     0
 70
    58
 90
        0
176
     1
 90
        2
176
     1
 90
        0
176
     1
 90
        0
176
     1
 40
0.6
176
     1
 40
30.0
176
     1
 62
     7
420
 16777215
176
     1
 90
        1
176
     1
 90
        4
176
     1
 62
     7
176
     1
 62
   257
176
     1
 90
        1
176
     1
 90
        1
176
     1
 40
1.0
176
     1
 90
        0
176
     1
 62
   257
176
     1
 40
1.0
176
     1
 90
        1
176
     1
 90
        6
176
     1
 90
        2
176
     1
 62
     7
176
     1
 90
        3
176
     1
 90
        0
176
     1
 90
        0
176
     1
290
     0
176
     1
 90
        1
176
     1
 40
0.0
176
     1
 90
        0
176
     1
290
     0
176
     1
290
     1
176
     1
290
     1
176
     1
290
     0
176
     1
290
     0
176
     1
290
     0
176
     1
290
     0
176
     1
290
     0
176
     1
290
     0
176
     1
 90
       50
176
     1
 40
0.0
176
     1
 40
1.0
176
     1
 90
        0
176
     1
 62
    18
420
        0
176
     1
 90
       50
176
     1
 90
        3
176
     1
 62
     5
420
      255
176
     1
290
     0
176
     1
 90
       50
176
     1
 90
       50
176
     1
 90
       50
176
     1
290
     0
176
     1
 90
       50
176
     1
 62
   256
176
     0
 40
1.0
176
     0
 90
        2
176
     1
  1
strokes_ogs.tif
176
     1
290
     0
176
     1
 40
1.0
176
     1
 40
1.0
176
     1
  0
VISUALSTYLE
  5
3C
102
{ACAD_REACTORS
330
29
102
}
330
29
100
AcDbVisualStyle
  2
X-Ray
 70
    25
177
     3
291
     0
 70
    58
 90
        2
176
     1
 90
        2
176
     1
 90
        1
176
     1
 90
        1
176
     1
 40
0.5
176
     1
 40
30.0
176
     1
 62
     7
420
 16777215
176
     1
 90
        1
176
     1
 90
        0
176
     1
 62
     7
176
     1
 62
   257
176
     1
 90
        1
176
     1
 90
        1
176
     1
 40
1.0
176
     1
 90
        8
176
     1
 62
     7
176
     1
 40
1.0
176
     1
 90
        1
176
     1
 90
        6
176
     1
 90
        2
176
     1
 62
     7
176
     1
 90
        3
176
     1
 90
        0
176
     1
 90
        0
176
     1
290
     0
176
     1
 90
       13
176
     1
 40
0.0
176
     1
 90
        0
176
     1
290
     0
176
     1
290
     1
176
     1
290
     1
176
     1
290
     0
176
     1
290
     0
176
     1
290
     0
176
     1
290
     0
176
     1
290
     0
176
     1
290
     0
176
     1
 90
       50
176
     1
 40
0.0
176
     1
 40
1.0
176
     1
 90
        0
176
     1
 62
    18
420
        0
176
     1
 90
       50
176
     1
 90
        3
176
     1
 62
     5
420
      255
176
     1
290
     0
176
     1
 90
       50
176
     1
 90
       50
176
     1
 90
       50
176
     1
290
     0
176
     1
 90
       50
176
     1
 62
   256
176
     0
 40
1.0
176
     0
 90
        2
176
     1
  1
strokes_ogs.tif
176
     1
290
     0
176
     1
 40
1.0
176
     1
 40
1.0
176
     1
  0
DICTIONARYVAR
  5
81
102
{ACAD_REACTORS
330
7C
102
}
330
7C
100
DictionaryVariables
280
     0
  1
1:1
  0
DICTIONARYVAR
  5
7E
102
{ACAD_REACTORS
330
7C
102
}
330
7C
100
DictionaryVariables
280
     0
  1
STANDARD
  0
DICTIONARYVAR
  5
7D
102
{ACAD_REACTORS
330
7C
102
}
330
7C
100
DictionaryVariables
280
     0
  1
STANDARD
  0
DICTIONARYVAR
  5
7F
102
{ACAD_REACTORS
330
7C
102
}
330
7C
100
DictionaryVariables
280
     0
  1
Imperial24
  0
DICTIONARYVAR
  5
80
102
{ACAD_REACTORS
330
7C
102
}
330
7C
100
DictionaryVariables
280
     0
  1
Imperial24
  0
XRECORD
  5
224
102
{ACAD_REACTORS
330
220
102
}
330
220
100
AcDbXrecord
280
     1
  1
BUILDING_ID
  1
Progetto per messa in tavola DXF, DWG
  1
FLOOR_ID
  1
694395
  0
XRECORD
  5
222
102
{ACAD_REACTORS
330
220
102
}
330
220
100
AcDbXrecord
280
     1
  1
-2001160
  1
Apparecchi idraulici
  0
XRECORD
  5
223
102
{ACAD_REACTORS
330
220
102
}
330
220
100
AcDbXrecord
280
     1
  1
923159
  1
Pressure gauge
  0
XRECORD
  5
221
102
{ACAD_REACTORS
330
220
102
}
330
220
100
AcDbXrecord
280
     1
  1
935543
  1
Automatic flow rate regulator valve_Caleffi_121 DN15 : 2''
  1
938676
  1
Automatic flow rate regulator valve_Caleffi_121 DN15 : DN65
  0
DICTIONARY
  5
1A
330
19
100
AcDbDictionary
280
     1
281
     1
  3
BUMPTILE
360
1C
  3
DIFFUSETILE
360
1B
  3
OPACITYTILE
360
1F
  3
REFLECTIONTILE
360
1E
  3
REFRACTIONTILE
360
20
  3
SPECULARTILE
360
1D
  0
DICTIONARY
  5
12
330
11
100
AcDbDictionary
280
     1
281
     1
  3
BUMPTILE
360
14
  3
DIFFUSETILE
360
13
  3
OPACITYTILE
360
17
  3
REFLECTIONTILE
360
16
  3
REFRACTIONTILE
360
18
  3
SPECULARTILE
360
15
  0
DICTIONARY
  5
22
330
21
100
AcDbDictionary
280
     1
281
     1
  3
BUMPTILE
360
24
  3
DIFFUSETILE
360
23
  3
OPACITYTILE
360
27
  3
REFLECTIONTILE
360
26
  3
REFRACTIONTILE
360
28
  3
SPECULARTILE
360
25
  0
DICTIONARY
  5
227
330
65
100
AcDbDictionary
280
     1
281
     1
  3
ACAD_ROUNDTRIP_2008_TABLESTYLE_CELLSTYLEMAP
360
228
  0
XRECORD
  5
1C
102
{ACAD_REACTORS
330
1A
102
}
330
1A
100
AcDbXrecord
280
     1
270
     1
271
     1
  0
XRECORD
  5
1B
102
{ACAD_REACTORS
330
1A
102
}
330
1A
100
AcDbXrecord
280
     1
270
     1
271
     1
  0
XRECORD
  5
1F
102
{ACAD_REACTORS
330
1A
102
}
330
1A
100
AcDbXrecord
280
     1
270
     1
271
     1
  0
XRECORD
  5
1E
102
{ACAD_REACTORS
330
1A
102
}
330
1A
100
AcDbXrecord
280
     1
270
     1
271
     1
  0
XRECORD
  5
20
102
{ACAD_REACTORS
330
1A
102
}
330
1A
100
AcDbXrecord
280
     1
270
     1
271
     1
  0
XRECORD
  5
1D
102
{ACAD_REACTORS
330
1A
102
}
330
1A
100
AcDbXrecord
280
     1
270
     1
271
     1
  0
XRECORD
  5
14
102
{ACAD_REACTORS
330
12
102
}
330
12
100
AcDbXrecord
280
     1
270
     1
271
     1
  0
XRECORD
  5
13
102
{ACAD_REACTORS
330
12
102
}
330
12
100
AcDbXrecord
280
     1
270
     1
271
     1
  0
XRECORD
  5
17
102
{ACAD_REACTORS
330
12
102
}
330
12
100
AcDbXrecord
280
     1
270
     1
271
     1
  0
XRECORD
  5
16
102
{ACAD_REACTORS
330
12
102
}
330
12
100
AcDbXrecord
280
     1
270
     1
271
     1
  0
XRECORD
  5
18
102
{ACAD_REACTORS
330
12
102
}
330
12
100
AcDbXrecord
280
     1
270
     1
271
     1
  0
XRECORD
  5
15
102
{ACAD_REACTORS
330
12
102
}
330
12
100
AcDbXrecord
280
     1
270
     1
271
     1
  0
XRECORD
  5
24
102
{ACAD_REACTORS
330
22
102
}
330
22
100
AcDbXrecord
280
     1
270
     1
271
     1
  0
XRECORD
  5
23
102
{ACAD_REACTORS
330
22
102
}
330
22
100
AcDbXrecord
280
     1
270
     1
271
     1
  0
XRECORD
  5
27
102
{ACAD_REACTORS
330
22
102
}
330
22
100
AcDbXrecord
280
     1
270
     1
271
     1
  0
XRECORD
  5
26
102
{ACAD_REACTORS
330
22
102
}
330
22
100
AcDbXrecord
280
     1
270
     1
271
     1
  0
XRECORD
  5
28
102
{ACAD_REACTORS
330
22
102
}
330
22
100
AcDbXrecord
280
     1
270
     1
271
     1
  0
XRECORD
  5
25
102
{ACAD_REACTORS
330
22
102
}
330
22
100
AcDbXrecord
280
     1
270
     1
271
     1
  0
CELLSTYLEMAP
  5
228
102
{ACAD_REACTORS
330
227
102
}
330
227
100
AcDbCellStyleMap
 90
        3
300
CELLSTYLE
  1
TABLEFORMAT_BEGIN
 90
        5
170
     1
 91
        0
 92
    32768
 62
   257
 93
        1
300
CONTENTFORMAT
  1
CONTENTFORMAT_BEGIN
 90
        0
 91
        0
 92
      512
 93
        0
300

 40
0.0
140
1.0
 94
        5
 62
     0
340
55
144
0.25
309
CONTENTFORMAT_END
171
     0
 94
        0
309
TABLEFORMAT_END
  1
CELLSTYLE_BEGIN
 90
        1
 91
        1
300
_TITLE
309
CELLSTYLE_END
300
CELLSTYLE
  1
TABLEFORMAT_BEGIN
 90
        5
170
     1
 91
        0
 92
        0
 62
   257
 93
        1
300
CONTENTFORMAT
  1
CONTENTFORMAT_BEGIN
 90
        0
 91
        0
 92
      512
 93
        0
300

 40
0.0
140
1.0
 94
        5
 62
     0
340
55
144
0.18
309
CONTENTFORMAT_END
171
     0
 94
        0
309
TABLEFORMAT_END
  1
CELLSTYLE_BEGIN
 90
        2
 91
        1
300
_HEADER
309
CELLSTYLE_END
300
CELLSTYLE
  1
TABLEFORMAT_BEGIN
 90
        5
170
     1
 91
        0
 92
        0
 62
   257
 93
        1
300
CONTENTFORMAT
  1
CONTENTFORMAT_BEGIN
 90
        0
 91
        0
 92
      512
 93
        0
300

 40
0.0
140
1.0
 94
        2
 62
     0
340
55
144
0.18
309
CONTENTFORMAT_END
171
     0
 94
        0
309
TABLEFORMAT_END
  1
CELLSTYLE_BEGIN
 90
        3
 91
        2
300
_DATA
309
CELLSTYLE_END
  0
ENDSEC
  0
EOF
