  0
SECTION
  2
HEADER
  9
$ACADVER
  1
AC1027
  9
$ACADMAINTVER
 70
    20
  9
$DWGCODEPAGE
  3
ANSI_1252
  9
$REQUIREDVERSIONS
160
                 0
  9
$INSBASE
 10
0.0
 20
0.0
 30
0.0
  9
$EXTMIN
 10
678.6664074431694
 20
1644.245878730053
 30
-0.00000001
  9
$EXTMAX
 10
1369.114353943096
 20
2203.500000000044
 30
0.00000001
  9
$LIMMIN
 10
0.0
 20
0.0
  9
$LIMMAX
 10
12.0
 20
9.0
  9
$ORTHOMODE
 70
     0
  9
$REGENMODE
 70
     1
  9
$FILLMODE
 70
     1
  9
$QTEXTMODE
 70
     0
  9
$MIRRTEXT
 70
     0
  9
$LTSCALE
 40
1.0
  9
$ATTMODE
 70
     1
  9
$TEXTSIZE
 40
0.2
  9
$TRACEWID
 40
0.05
  9
$TEXTSTYLE
  7
Standard
  9
$CLAYER
  8
0
  9
$CELTYPE
  6
ByLayer
  9
$CECOLOR
 62
   256
  9
$CELTSCALE
 40
1.0
  9
$DISPSILH
 70
     0
  9
$DIMSCALE
 40
1.0
  9
$DIMASZ
 40
0.18
  9
$DIMEXO
 40
0.0625
  9
$DIMDLI
 40
0.38
  9
$DIMRND
 40
0.0
  9
$DIMDLE
 40
0.0
  9
$DIMEXE
 40
0.18
  9
$DIMTP
 40
0.0
  9
$DIMTM
 40
0.0
  9
$DIMTXT
 40
0.18
  9
$DIMCEN
 40
0.09
  9
$DIMTSZ
 40
0.0
  9
$DIMTOL
 70
     0
  9
$DIMLIM
 70
     0
  9
$DIMTIH
 70
     1
  9
$DIMTOH
 70
     1
  9
$DIMSE1
 70
     0
  9
$DIMSE2
 70
     0
  9
$DIMTAD
 70
     0
  9
$DIMZIN
 70
     0
  9
$DIMBLK
  1

  9
$DIMASO
 70
     1
  9
$DIMSHO
 70
     1
  9
$DIMPOST
  1

  9
$DIMAPOST
  1

  9
$DIMALT
 70
     0
  9
$DIMALTD
 70
     2
  9
$DIMALTF
 40
25.4
  9
$DIMLFAC
 40
1.0
  9
$DIMTOFL
 70
     0
  9
$DIMTVP
 40
0.0
  9
$DIMTIX
 70
     0
  9
$DIMSOXD
 70
     0
  9
$DIMSAH
 70
     0
  9
$DIMBLK1
  1

  9
$DIMBLK2
  1

  9
$DIMSTYLE
  2
Standard
  9
$DIMCLRD
 70
     0
  9
$DIMCLRE
 70
     0
  9
$DIMCLRT
 70
     0
  9
$DIMTFAC
 40
1.0
  9
$DIMGAP
 40
0.09
  9
$DIMJUST
 70
     0
  9
$DIMSD1
 70
     0
  9
$DIMSD2
 70
     0
  9
$DIMTOLJ
 70
     1
  9
$DIMTZIN
 70
     0
  9
$DIMALTZ
 70
     0
  9
$DIMALTTZ
 70
     0
  9
$DIMUPT
 70
     0
  9
$DIMDEC
 70
     4
  9
$DIMTDEC
 70
     4
  9
$DIMALTU
 70
     2
  9
$DIMALTTD
 70
     2
  9
$DIMTXSTY
  7
Standard
  9
$DIMAUNIT
 70
     0
  9
$DIMADEC
 70
     0
  9
$DIMALTRND
 40
0.0
  9
$DIMAZIN
 70
     0
  9
$DIMDSEP
 70
    46
  9
$DIMATFIT
 70
     3
  9
$DIMFRAC
 70
     0
  9
$DIMLDRBLK
  1

  9
$DIMLUNIT
 70
     2
  9
$DIMLWD
 70
    -2
  9
$DIMLWE
 70
    -2
  9
$DIMTMOVE
 70
     0
  9
$DIMFXL
 40
1.0
  9
$DIMFXLON
 70
     0
  9
$DIMJOGANG
 40
0.7853981633974483
  9
$DIMTFILL
 70
     0
  9
$DIMTFILLCLR
 70
     0
  9
$DIMARCSYM
 70
     0
  9
$DIMLTYPE
  6

  9
$DIMLTEX1
  6

  9
$DIMLTEX2
  6

  9
$DIMTXTDIRECTION
 70
     0
  9
$LUNITS
 70
     2
  9
$LUPREC
 70
     4
  9
$SKETCHINC
 40
0.1
  9
$FILLETRAD
 40
0.0
  9
$AUNITS
 70
     0
  9
$AUPREC
 70
     0
  9
$MENU
  1
.
  9
$ELEVATION
 40
0.0
  9
$PELEVATION
 40
0.0
  9
$THICKNESS
 40
0.0
  9
$LIMCHECK
 70
     0
  9
$CHAMFERA
 40
0.0
  9
$CHAMFERB
 40
0.0
  9
$CHAMFERC
 40
0.0
  9
$CHAMFERD
 40
0.0
  9
$SKPOLY
 70
     0
  9
$TDCREATE
 40
2457576.360368600
  9
$TDUCREATE
 40
2457576.277035266
  9
$TDUPDATE
 40
2457576.360368600
  9
$TDUUPDATE
 40
2457576.277035266
  9
$TDINDWG
 40
0.0000191667
  9
$TDUSRTIMER
 40
0.0000191667
  9
$USRTIMER
 70
     1
  9
$ANGBASE
 50
0.0
  9
$ANGDIR
 70
     0
  9
$PDMODE
 70
     0
  9
$PDSIZE
 40
0.0
  9
$PLINEWID
 40
0.0
  9
$SPLFRAME
 70
     0
  9
$SPLINETYPE
 70
     6
  9
$SPLINESEGS
 70
     8
  9
$HANDSEED
  5
394
  9
$SURFTAB1
 70
     6
  9
$SURFTAB2
 70
     6
  9
$SURFTYPE
 70
     6
  9
$SURFU
 70
     6
  9
$SURFV
 70
     6
  9
$UCSBASE
  2

  9
$UCSNAME
  2

  9
$UCSORG
 10
0.0
 20
0.0
 30
0.0
  9
$UCSXDIR
 10
1.0
 20
0.0
 30
0.0
  9
$UCSYDIR
 10
0.0
 20
1.0
 30
0.0
  9
$UCSORTHOREF
  2

  9
$UCSORTHOVIEW
 70
     0
  9
$UCSORGTOP
 10
0.0
 20
0.0
 30
0.0
  9
$UCSORGBOTTOM
 10
0.0
 20
0.0
 30
0.0
  9
$UCSORGLEFT
 10
0.0
 20
0.0
 30
0.0
  9
$UCSORGRIGHT
 10
0.0
 20
0.0
 30
0.0
  9
$UCSORGFRONT
 10
0.0
 20
0.0
 30
0.0
  9
$UCSORGBACK
 10
0.0
 20
0.0
 30
0.0
  9
$PUCSBASE
  2

  9
$PUCSNAME
  2

  9
$PUCSORG
 10
0.0
 20
0.0
 30
0.0
  9
$PUCSXDIR
 10
1.0
 20
0.0
 30
0.0
  9
$PUCSYDIR
 10
0.0
 20
1.0
 30
0.0
  9
$PUCSORTHOREF
  2

  9
$PUCSORTHOVIEW
 70
     0
  9
$PUCSORGTOP
 10
0.0
 20
0.0
 30
0.0
  9
$PUCSORGBOTTOM
 10
0.0
 20
0.0
 30
0.0
  9
$PUCSORGLEFT
 10
0.0
 20
0.0
 30
0.0
  9
$PUCSORGRIGHT
 10
0.0
 20
0.0
 30
0.0
  9
$PUCSORGFRONT
 10
0.0
 20
0.0
 30
0.0
  9
$PUCSORGBACK
 10
0.0
 20
0.0
 30
0.0
  9
$USERI1
 70
     0
  9
$USERI2
 70
     0
  9
$USERI3
 70
     0
  9
$USERI4
 70
     0
  9
$USERI5
 70
     0
  9
$USERR1
 40
0.0
  9
$USERR2
 40
0.0
  9
$USERR3
 40
0.0
  9
$USERR4
 40
0.0
  9
$USERR5
 40
0.0
  9
$WORLDVIEW
 70
     1
  9
$SHADEDGE
 70
     3
  9
$SHADEDIF
 70
    70
  9
$TILEMODE
 70
     1
  9
$MAXACTVP
 70
    64
  9
$PINSBASE
 10
0.0
 20
0.0
 30
0.0
  9
$PLIMCHECK
 70
     0
  9
$PEXTMIN
 10
1.000000000000000E+20
 20
1.000000000000000E+20
 30
1.000000000000000E+20
  9
$PEXTMAX
 10
-1.000000000000000E+20
 20
-1.000000000000000E+20
 30
-1.000000000000000E+20
  9
$PLIMMIN
 10
0.0
 20
0.0
  9
$PLIMMAX
 10
12.0
 20
9.0
  9
$UNITMODE
 70
     0
  9
$VISRETAIN
 70
     1
  9
$PLINEGEN
 70
     0
  9
$PSLTSCALE
 70
     1
  9
$TREEDEPTH
 70
  3020
  9
$CMLSTYLE
  2
Standard
  9
$CMLJUST
 70
     0
  9
$CMLSCALE
 40
1.0
  9
$PROXYGRAPHICS
 70
     1
  9
$MEASUREMENT
 70
     1
  9
$CELWEIGHT
370
    -1
  9
$ENDCAPS
280
     0
  9
$JOINSTYLE
280
     0
  9
$LWDISPLAY
290
     0
  9
$INSUNITS
 70
     4
  9
$HYPERLINKBASE
  1

  9
$STYLESHEET
  1

  9
$XEDIT
290
     1
  9
$CEPSNTYPE
380
     0
  9
$PSTYLEMODE
290
     1
  9
$FINGERPRINTGUID
  2
{0B906474-D1CF-441F-92B7-60D271CDBEF3}
  9
$VERSIONGUID
  2
{9F9D3828-97B8-4641-BEAE-1D4032C0A97F}
  9
$EXTNAMES
290
     1
  9
$PSVPSCALE
 40
0.0
  9
$OLESTARTUP
290
     0
  9
$SORTENTS
280
   127
  9
$INDEXCTL
280
     0
  9
$HIDETEXT
280
     1
  9
$XCLIPFRAME
280
     2
  9
$HALOGAP
280
     0
  9
$OBSCOLOR
 70
   257
  9
$OBSLTYPE
280
     0
  9
$INTERSECTIONDISPLAY
280
     0
  9
$INTERSECTIONCOLOR
 70
   257
  9
$DIMASSOC
280
     2
  9
$PROJECTNAME
  1

  9
$CAMERADISPLAY
290
     0
  9
$LENSLENGTH
 40
50.0
  9
$CAMERAHEIGHT
 40
0.0
  9
$STEPSPERSEC
 40
2.0
  9
$STEPSIZE
 40
6.0
  9
$3DDWFPREC
 40
2.0
  9
$PSOLWIDTH
 40
0.25
  9
$PSOLHEIGHT
 40
4.0
  9
$LOFTANG1
 40
1.570796326794896
  9
$LOFTANG2
 40
1.570796326794896
  9
$LOFTMAG1
 40
0.0
  9
$LOFTMAG2
 40
0.0
  9
$LOFTPARAM
 70
     7
  9
$LOFTNORMALS
280
     1
  9
$LATITUDE
 40
37.795
  9
$LONGITUDE
 40
-122.394
  9
$NORTHDIRECTION
 40
0.0
  9
$TIMEZONE
 70
 -8000
  9
$LIGHTGLYPHDISPLAY
280
     1
  9
$TILEMODELIGHTSYNCH
280
     1
  9
$CMATERIAL
347
11
  9
$SOLIDHIST
280
     0
  9
$SHOWHIST
280
     1
  9
$DWFFRAME
280
     2
  9
$DGNFRAME
280
     0
  9
$REALWORLDSCALE
290
     1
  9
$INTERFERECOLOR
 62
     1
  9
$INTERFEREOBJVS
345
33
  9
$INTERFEREVPVS
346
30
  9
$CSHADOW
280
     0
  9
$SHADOWPLANELOCATION
 40
0.0
  0
ENDSEC
  0
SECTION
  2
CLASSES
  0
CLASS
  1
ACDBDICTIONARYWDFLT
  2
AcDbDictionaryWithDefault
  3
ObjectDBX Classes
 90
        0
 91
        1
280
     0
281
     0
  0
CLASS
  1
MATERIAL
  2
AcDbMaterial
  3
ObjectDBX Classes
 90
     1153
 91
        3
280
     0
281
     0
  0
CLASS
  1
VISUALSTYLE
  2
AcDbVisualStyle
  3
ObjectDBX Classes
 90
     4095
 91
       24
280
     0
281
     0
  0
CLASS
  1
SCALE
  2
AcDbScale
  3
ObjectDBX Classes
 90
     1153
 91
       17
280
     0
281
     0
  0
CLASS
  1
TABLESTYLE
  2
AcDbTableStyle
  3
ObjectDBX Classes
 90
     4095
 91
        1
280
     0
281
     0
  0
CLASS
  1
MLEADERSTYLE
  2
AcDbMLeaderStyle
  3
ACDB_MLEADERSTYLE_CLASS
 90
     4095
 91
        1
280
     0
281
     0
  0
CLASS
  1
ACDBSECTIONVIEWSTYLE
  2
AcDbSectionViewStyle
  3
ObjectDBX Classes
 90
     1025
 91
        1
280
     0
281
     0
  0
CLASS
  1
ACDBDETAILVIEWSTYLE
  2
AcDbDetailViewStyle
  3
ObjectDBX Classes
 90
     1025
 91
        1
280
     0
281
     0
  0
CLASS
  1
RASTERVARIABLES
  2
AcDbRasterVariables
  3
ISM
 90
        0
 91
        1
280
     0
281
     0
  0
CLASS
  1
DICTIONARYVAR
  2
AcDbDictionaryVar
  3
ObjectDBX Classes
 90
        0
 91
        5
280
     0
281
     0
  0
CLASS
  1
CELLSTYLEMAP
  2
AcDbCellStyleMap
  3
ObjectDBX Classes
 90
     1152
 91
        2
280
     0
281
     0
  0
CLASS
  1
SORTENTSTABLE
  2
AcDbSortentsTable
  3
ObjectDBX Classes
 90
        0
 91
        1
280
     0
281
     0
  0
ENDSEC
  0
SECTION
  2
TABLES
  0
TABLE
  2
VPORT
  5
8
330
0
100
AcDbSymbolTable
 70
     1
  0
VPORT
  5
57
330
8
100
AcDbSymbolTableRecord
100
AcDbViewportTableRecord
  2
*Active
 70
     0
 10
0.0
 20
0.0
 11
1.0
 21
1.0
 12
1023.890380693133
 22
1923.872939365048
 13
0.0
 23
0.0
 14
1.0
 24
1.0
 15
0.0
 25
0.0
 16
0.0
 26
0.0
 36
1.0
 17
0.0
 27
0.0
 37
0.0
 40
559.2541212699909
 41
1.234587140693774
 42
50.0
 43
0.0
 44
0.0
 50
0.0
 51
0.0
 71
     0
 72
  1000
 73
     1
 74
     1
 75
     0
 76
     0
 77
     0
 78
     0
281
     0
 65
     1
110
0.0
120
0.0
130
0.0
111
1.0
121
0.0
131
0.0
112
0.0
122
1.0
132
0.0
 79
     0
146
0.0
 60
     3
 61
     5
292
     1
282
     1
141
0.0
142
0.0
 63
   250
421
  3355443
  0
ENDTAB
  0
TABLE
  2
LTYPE
  5
5
330
0
100
AcDbSymbolTable
 70
     3
  0
LTYPE
  5
5B
330
5
100
AcDbSymbolTableRecord
100
AcDbLinetypeTableRecord
  2
ByBlock
 70
     0
  3

 72
    65
 73
     0
 40
0.0
  0
LTYPE
  5
5C
330
5
100
AcDbSymbolTableRecord
100
AcDbLinetypeTableRecord
  2
ByLayer
 70
     0
  3

 72
    65
 73
     0
 40
0.0
  0
LTYPE
  5
5D
330
5
100
AcDbSymbolTableRecord
100
AcDbLinetypeTableRecord
  2
Continuous
 70
     0
  3
Solid line
 72
    65
 73
     0
 40
0.0
  0
LTYPE
  5
69
330
5
100
AcDbSymbolTableRecord
100
AcDbLinetypeTableRecord
  2
PHANTOM2
 70
     0
  3
___ _ _ ___ _ _ ___ _ _ ___ _ _
 72
    65
 73
     6
 40
1.25
 49
0.625
 74
     0
 49
-0.125
 74
     0
 49
0.125
 74
     0
 49
-0.125
 74
     0
 49
0.125
 74
     0
 49
-0.125
 74
     0
  0
LTYPE
  5
86
330
5
100
AcDbSymbolTableRecord
100
AcDbLinetypeTableRecord
  2
Nascosto 1_5 mm
 70
     0
  3

 72
    65
 73
     2
 40
2.2
 49
1.5
 74
     0
 49
-0.7000000000000001
 74
     0
  0
ENDTAB
  0
TABLE
  2
LAYER
  5
2
330
0
100
AcDbSymbolTable
 70
     3
  0
LAYER
  5
54
330
2
100
AcDbSymbolTableRecord
100
AcDbLayerTableRecord
  2
0
 70
     0
 62
     7
  6
Continuous
370
    -3
390
F
347
21
348
0
  0
LAYER
  5
85
330
2
100
AcDbSymbolTableRecord
100
AcDbLayerTableRecord
  2
P-SANR-FIXT
 70
     0
 62
     6
  6
Continuous
370
    18
390
F
347
21
348
0
  0
ENDTAB
  0
TABLE
  2
STYLE
  5
3
330
0
100
AcDbSymbolTable
 70
     2
  0
STYLE
  5
55
330
3
100
AcDbSymbolTableRecord
100
AcDbTextStyleTableRecord
  2
Standard
 70
     0
 40
0.0
 41
1.0
 50
0.0
 71
     0
 42
0.2
  3
txt
  4

  0
STYLE
  5
5A
330
3
100
AcDbSymbolTableRecord
100
AcDbTextStyleTableRecord
  2
Annotative
 70
     0
 40
0.0
 41
1.0
 50
0.0
 71
     0
 42
0.2
  3
txt
  4

1001
AcadAnnotative
1000
AnnotativeData
1002
{
1070
     1
1070
     1
1002
}
  0
ENDTAB
  0
TABLE
  2
VIEW
  5
6
330
0
100
AcDbSymbolTable
 70
     0
  0
ENDTAB
  0
TABLE
  2
UCS
  5
7
330
0
100
AcDbSymbolTable
 70
     0
  0
ENDTAB
  0
TABLE
  2
APPID
  5
9
330
0
100
AcDbSymbolTable
 70
     3
  0
APPID
  5
56
330
9
100
AcDbSymbolTableRecord
100
AcDbRegAppTableRecord
  2
ACAD
 70
     0
  0
APPID
  5
5E
330
9
100
AcDbSymbolTableRecord
100
AcDbRegAppTableRecord
  2
AcadAnnotative
 70
     0
  0
APPID
  5
79
330
9
100
AcDbSymbolTableRecord
100
AcDbRegAppTableRecord
  2
REVIT
 70
     0
  0
ENDTAB
  0
TABLE
  2
DIMSTYLE
  5
A
330
0
100
AcDbSymbolTable
 70
     2
100
AcDbDimStyleTable
 71
     0
  0
DIMSTYLE
105
58
330
A
100
AcDbSymbolTableRecord
100
AcDbDimStyleTableRecord
  2
Standard
 70
     0
340
55
  0
DIMSTYLE
105
59
330
A
100
AcDbSymbolTableRecord
100
AcDbDimStyleTableRecord
  2
Annotative
 70
     0
340
55
1001
AcadAnnotative
1000
AnnotativeData
1002
{
1070
     1
1070
     1
1002
}
  0
ENDTAB
  0
TABLE
  2
BLOCK_RECORD
  5
1
330
0
100
AcDbSymbolTable
 70
     4
  0
BLOCK_RECORD
  5
71
102
{ACAD_XDICTIONARY
360
38F
102
}
330
1
100
AcDbSymbolTableRecord
100
AcDbBlockTableRecord
  2
*Model_Space
340
74
 70
     0
280
     1
281
     0
  0
BLOCK_RECORD
  5
6D
330
1
100
AcDbSymbolTableRecord
100
AcDbBlockTableRecord
  2
*Paper_Space
340
70
 70
     0
280
     1
281
     0
  0
BLOCK_RECORD
  5
75
330
1
100
AcDbSymbolTableRecord
100
AcDbBlockTableRecord
  2
*Paper_Space0
340
78
 70
     0
280
     1
281
     0
  0
BLOCK_RECORD
  5
87
330
1
100
AcDbSymbolTableRecord
100
AcDbBlockTableRecord
  2
Automatic flow rate regulator valve_Caleffi_121 DN15 - 2__-935543-Est - Idraulica
340
0
102
{BLKREFS
331
1B5
102
}
 70
     0
280
     1
281
     0
  0
BLOCK_RECORD
  5
1B6
330
1
100
AcDbSymbolTableRecord
100
AcDbBlockTableRecord
  2
Automatic flow rate regulator valve_Caleffi_121 DN15 - 2__-V1-Est - Idraulica
340
0
102
{BLKREFS
331
287
102
}
 70
     0
280
     1
281
     0
  0
BLOCK_RECORD
  5
288
330
1
100
AcDbSymbolTableRecord
100
AcDbBlockTableRecord
  2
Automatic flow rate regulator valve_Caleffi_121 DN15 - 2__-V2-Est - Idraulica
340
0
102
{BLKREFS
331
389
102
}
 70
     0
280
     1
281
     0
  0
ENDTAB
  0
ENDSEC
  0
SECTION
  2
BLOCKS
  0
BLOCK
  5
72
330
71
100
AcDbEntity
  8
0
100
AcDbBlockBegin
  2
*Model_Space
 70
     0
 10
0.0
 20
0.0
 30
0.0
  3
*Model_Space
  1

  0
ENDBLK
  5
73
330
71
100
AcDbEntity
  8
0
100
AcDbBlockEnd
  0
BLOCK
  5
6E
330
6D
100
AcDbEntity
 67
     1
  8
0
100
AcDbBlockBegin
  2
*Paper_Space
 70
     0
 10
0.0
 20
0.0
 30
0.0
  3
*Paper_Space
  1

  0
ENDBLK
  5
6F
330
6D
100
AcDbEntity
 67
     1
  8
0
100
AcDbBlockEnd
  0
BLOCK
  5
76
330
75
100
AcDbEntity
 67
     1
  8
0
100
AcDbBlockBegin
  2
*Paper_Space0
 70
     0
 10
0.0
 20
0.0
 30
0.0
  3
*Paper_Space0
  1

  0
ENDBLK
  5
77
330
75
100
AcDbEntity
 67
     1
  8
0
100
AcDbBlockEnd
  0
BLOCK
  5
1B3
330
87
100
AcDbEntity
  8
0
100
AcDbBlockBegin
  2
Automatic flow rate regulator valve_Caleffi_121 DN15 - 2__-935543-Est - Idraulica
 70
     0
 10
0.0
 20
0.0
 30
0.0
  3
Automatic flow rate regulator valve_Caleffi_121 DN15 - 2__-935543-Est - Idraulica
  1

  0
LINE
  5
88
330
87
100
AcDbEntity
  8
P-SANR-FIXT
100
AcDbLine
 10
793.666407443192
 20
1913.999999999996
 30
0.0
 11
793.666407443192
 21
1907.154700538333
 31
0.0
  0
LINE
  5
89
330
87
100
AcDbEntity
  8
P-SANR-FIXT
100
AcDbLine
 10
837.6664074431829
 20
1907.154700538333
 30
0.0
 11
837.6664074431829
 21
1913.999999999996
 31
0.0
  0
LINE
  5
8A
330
87
100
AcDbEntity
  8
P-SANR-FIXT
100
AcDbLine
 10
835.6664074431861
 20
1905.999999999956
 30
0.0
 11
837.5694912138222
 21
1907.098745927223
 31
0.0
  0
LINE
  5
8B
330
87
100
AcDbEntity
  8
P-SANR-FIXT
100
AcDbLine
 10
837.619890119525
 20
1907.127843748997
 30
0.0
 11
837.6664074431827
 21
1907.154700538334
 31
0.0
  0
LINE
  5
8C
330
87
100
AcDbEntity
  8
P-SANR-FIXT
100
AcDbLine
 10
793.6664074431917
 20
1907.154700538333
 30
0.0
 11
793.7129247668498
 21
1907.127843748997
 31
0.0
  0
LINE
  5
8D
330
87
100
AcDbEntity
  8
P-SANR-FIXT
100
AcDbLine
 10
793.7633236725528
 20
1907.098745927222
 30
0.0
 11
795.6664074431868
 21
1905.999999999956
 31
0.0
  0
LINE
  5
8E
330
87
100
AcDbEntity
  8
P-SANR-FIXT
100
AcDbLine
 10
797.7384680442506
 20
1905.999999999955
 30
0.0
 11
798.3458993674966
 21
1905.999999999955
 31
0.0
  0
LINE
  5
8F
330
87
100
AcDbEntity
  8
P-SANR-FIXT
100
AcDbLine
 10
798.3458993674965
 20
1905.999999999955
 30
0.0
 11
798.9253500957402
 21
1905.999999999955
 31
0.0
  0
LINE
  5
90
330
87
100
AcDbEntity
  8
P-SANR-FIXT
100
AcDbLine
 10
814.4769684946295
 20
1905.999999999955
 30
0.0
 11
815.6664074431853
 21
1905.999999999955
 31
0.0
  0
LINE
  5
91
330
87
100
AcDbEntity
  8
P-SANR-FIXT
100
AcDbLine
 10
815.6664074431853
 20
1905.999999999955
 30
0.0
 11
816.8558463917452
 21
1905.999999999955
 31
0.0
  0
LINE
  5
92
330
87
100
AcDbEntity
  8
P-SANR-FIXT
100
AcDbLine
 10
832.4074647906689
 20
1905.999999999955
 30
0.0
 11
832.9869155188736
 21
1905.999999999955
 31
0.0
  0
LINE
  5
93
330
87
100
AcDbEntity
  8
P-SANR-FIXT
100
AcDbLine
 10
832.9869155188736
 20
1905.999999999955
 30
0.0
 11
833.5943468420888
 21
1905.999999999955
 31
0.0
  0
LINE
  5
94
330
87
100
AcDbEntity
  8
P-SANR-FIXT
100
AcDbLine
 10
835.6664074431849
 20
1905.999999999955
 30
0.0
 11
832.9869155188736
 21
1905.999999999955
 31
0.0
  0
LINE
  5
95
330
87
100
AcDbEntity
  8
P-SANR-FIXT
100
AcDbLine
 10
832.9869155188736
 20
1905.999999999955
 30
0.0
 11
815.6664074431851
 21
1905.999999999955
 31
0.0
  0
LINE
  5
96
330
87
100
AcDbEntity
  8
P-SANR-FIXT
100
AcDbLine
 10
815.6664074431851
 20
1905.999999999955
 30
0.0
 11
798.3458993674966
 21
1905.999999999955
 31
0.0
  0
LINE
  5
97
330
87
100
AcDbEntity
  8
P-SANR-FIXT
100
AcDbLine
 10
798.3458993674966
 20
1905.999999999955
 30
0.0
 11
795.6664074431853
 21
1905.999999999955
 31
0.0
  0
LINE
  5
98
330
87
100
AcDbEntity
  8
P-SANR-FIXT
100
AcDbLine
 10
793.7633236725514
 20
1913.999999999995
 30
0.0
 11
793.7768420712608
 21
1913.999999999995
 31
0.0
  0
LINE
  5
99
330
87
100
AcDbEntity
  8
P-SANR-FIXT
100
AcDbLine
 10
802.9284750624084
 20
1913.999999999995
 30
0.0
 11
804.1608835480362
 21
1913.999999999995
 31
0.0
  0
LINE
  5
9A
330
87
100
AcDbEntity
  8
P-SANR-FIXT
100
AcDbLine
 10
805.6676471257915
 20
1913.999999999995
 30
0.0
 11
806.5012560533281
 21
1913.999999999995
 31
0.0
  0
LINE
  5
9B
330
87
100
AcDbEntity
  8
P-SANR-FIXT
100
AcDbLine
 10
824.8315588330429
 20
1913.999999999995
 30
0.0
 11
824.9919395701134
 21
1913.999999999995
 31
0.0
  0
LINE
  5
9C
330
87
100
AcDbEntity
  8
P-SANR-FIXT
100
AcDbLine
 10
825.6651677605781
 20
1913.999999999995
 30
0.0
 11
826.6664074431831
 21
1913.999999999995
 31
0.0
  0
LINE
  5
9D
330
87
100
AcDbEntity
  8
P-SANR-FIXT
100
AcDbLine
 10
827.1719313383334
 20
1913.999999999995
 30
0.0
 11
828.4043398239628
 21
1913.999999999995
 31
0.0
  0
LINE
  5
9E
330
87
100
AcDbEntity
  8
P-SANR-FIXT
100
AcDbLine
 10
837.555972815109
 20
1913.999999999995
 30
0.0
 11
837.5694912138207
 21
1913.999999999995
 31
0.0
  0
LINE
  5
9F
330
87
100
AcDbEntity
  8
P-SANR-FIXT
100
AcDbLine
 10
793.6664074431907
 20
1907.154700538332
 30
0.0
 11
793.7633236725513
 21
1907.154700538332
 31
0.0
  0
LINE
  5
A0
330
87
100
AcDbEntity
  8
P-SANR-FIXT
100
AcDbLine
 10
793.7633236725514
 20
1907.154700538332
 30
0.0
 11
793.7633236725514
 21
1913.999999999995
 31
0.0
  0
SPLINE
  5
A1
330
87
100
AcDbEntity
  8
P-SANR-FIXT
100
AcDbSpline
210
0.0
220
0.0
230
1.0
 70
     8
 71
     3
 72
     9
 73
     5
 74
     0
 42
0.000000001
 43
0.0000000001
 40
0.0
 40
0.0
 40
0.0
 40
0.0
 40
0.5
 40
1.0
 40
1.0
 40
1.0
 40
1.0
 10
793.7633236725514
 20
1907.154700538332
 30
0.0
 10
794.5159514068237
 20
1906.77971961532
 30
0.0
 10
796.0323417569173
 20
1906.212288602578
 30
0.0
 10
797.5710018701091
 20
1906.009919256402
 30
0.0
 10
798.3458993674795
 20
1905.999999999955
 30
0.0
  0
SPLINE
  5
A2
330
87
100
AcDbEntity
  8
P-SANR-FIXT
100
AcDbSpline
210
0.0
220
0.0
230
1.0
 70
     8
 71
     3
 72
     9
 73
     5
 74
     0
 42
0.000000001
 43
0.0000000001
 40
0.0
 40
0.0
 40
0.0
 40
0.0
 40
0.5
 40
1.0
 40
1.0
 40
1.0
 40
1.0
 10
798.3458993674795
 20
1905.999999999955
 30
0.0
 10
799.1207968648502
 20
1906.009919256402
 30
0.0
 10
800.6594569780421
 20
1906.212288602579
 30
0.0
 10
802.175847328136
 20
1906.77971961532
 30
0.0
 10
802.9284750624086
 20
1907.154700538332
 30
0.0
  0
LINE
  5
A3
330
87
100
AcDbEntity
  8
P-SANR-FIXT
100
AcDbLine
 10
802.9284750624084
 20
1907.154700538332
 30
0.0
 11
802.9284750624084
 21
1913.999999999995
 31
0.0
  0
LINE
  5
A4
330
87
100
AcDbEntity
  8
P-SANR-FIXT
100
AcDbLine
 10
802.9284750624082
 20
1907.154700538332
 30
0.0
 11
806.5012560533277
 21
1907.154700538332
 31
0.0
  0
LINE
  5
A5
330
87
100
AcDbEntity
  8
P-SANR-FIXT
100
AcDbLine
 10
806.5012560533283
 20
1907.154700538332
 30
0.0
 11
806.5012560533283
 21
1913.999999999995
 31
0.0
  0
SPLINE
  5
A6
330
87
100
AcDbEntity
  8
P-SANR-FIXT
100
AcDbSpline
210
0.0
220
0.0
230
1.0
 70
     8
 71
     3
 72
     9
 73
     5
 74
     0
 42
0.000000001
 43
0.0000000001
 40
0.0
 40
0.0
 40
0.0
 40
0.0
 40
0.5
 40
1.0
 40
1.0
 40
1.0
 40
1.0
 10
806.5012560533283
 20
1907.154700538332
 30
0.0
 10
808.0065115218728
 20
1906.77971961532
 30
0.0
 10
811.0392922220603
 20
1906.212288602579
 30
0.0
 10
814.116612448444
 20
1906.009919256402
 30
0.0
 10
815.6664074431848
 20
1905.999999999955
 30
0.0
  0
SPLINE
  5
A7
330
87
100
AcDbEntity
  8
P-SANR-FIXT
100
AcDbSpline
210
0.0
220
0.0
230
1.0
 70
     8
 71
     3
 72
     9
 73
     5
 74
     0
 42
0.000000001
 43
0.0000000001
 40
0.0
 40
0.0
 40
0.0
 40
0.0
 40
0.5
 40
1.0
 40
1.0
 40
1.0
 40
1.0
 10
815.6664074431848
 20
1905.999999999955
 30
0.0
 10
817.2162024379259
 20
1906.009919256402
 30
0.0
 10
820.2935226643102
 20
1906.212288602579
 30
0.0
 10
823.3263033644981
 20
1906.779719615321
 30
0.0
 10
824.8315588330429
 20
1907.154700538333
 30
0.0
  0
LINE
  5
A8
330
87
100
AcDbEntity
  8
P-SANR-FIXT
100
AcDbLine
 10
824.8315588330429
 20
1907.154700538333
 30
0.0
 11
824.8315588330429
 21
1913.999999999995
 31
0.0
  0
LINE
  5
A9
330
87
100
AcDbEntity
  8
P-SANR-FIXT
100
AcDbLine
 10
824.8315588330429
 20
1907.154700538332
 30
0.0
 11
828.4043398239626
 21
1907.154700538332
 31
0.0
  0
LINE
  5
AA
330
87
100
AcDbEntity
  8
P-SANR-FIXT
100
AcDbLine
 10
828.4043398239628
 20
1907.154700538333
 30
0.0
 11
828.4043398239628
 21
1913.999999999995
 31
0.0
  0
SPLINE
  5
AB
330
87
100
AcDbEntity
  8
P-SANR-FIXT
100
AcDbSpline
210
0.0
220
0.0
230
1.0
 70
     8
 71
     3
 72
     9
 73
     5
 74
     0
 42
0.000000001
 43
0.0000000001
 40
0.0
 40
0.0
 40
0.0
 40
0.0
 40
0.5
 40
1.0
 40
1.0
 40
1.0
 40
1.0
 10
828.4043398239628
 20
1907.154700538333
 30
0.0
 10
829.1569675582353
 20
1906.779719615321
 30
0.0
 10
830.6733579083292
 20
1906.21228860258
 30
0.0
 10
832.2120180215215
 20
1906.009919256403
 30
0.0
 10
832.9869155188919
 20
1905.999999999955
 30
0.0
  0
SPLINE
  5
AC
330
87
100
AcDbEntity
  8
P-SANR-FIXT
100
AcDbSpline
210
0.0
220
0.0
230
1.0
 70
     8
 71
     3
 72
     9
 73
     5
 74
     0
 42
0.000000001
 43
0.0000000001
 40
0.0
 40
0.0
 40
0.0
 40
0.0
 40
0.5
 40
1.0
 40
1.0
 40
1.0
 40
1.0
 10
832.9869155188919
 20
1905.999999999955
 30
0.0
 10
833.7618130162624
 20
1906.009919256403
 30
0.0
 10
835.3004731294543
 20
1906.21228860258
 30
0.0
 10
836.8168634795482
 20
1906.779719615321
 30
0.0
 10
837.5694912138207
 20
1907.154700538333
 30
0.0
  0
LINE
  5
AD
330
87
100
AcDbEntity
  8
P-SANR-FIXT
100
AcDbLine
 10
837.5694912138207
 20
1907.154700538333
 30
0.0
 11
837.5694912138207
 21
1913.999999999995
 31
0.0
  0
LINE
  5
AE
330
87
100
AcDbEntity
  8
P-SANR-FIXT
100
AcDbLine
 10
837.5694912138207
 20
1907.154700538332
 30
0.0
 11
837.6664074431815
 21
1907.154700538332
 31
0.0
  0
ARC
  5
AF
330
87
100
AcDbEntity
  8
P-SANR-FIXT
100
AcDbCircle
 10
858.6664074431828
 20
1999.999999999995
 30
0.0
 40
8.549574516046845
100
AcDbArc
 50
180.0
 51
0.0
  0
ARC
  5
B0
330
87
100
AcDbEntity
  8
P-SANR-FIXT
100
AcDbCircle
 10
858.6664074431828
 20
1999.999999999995
 30
0.0
 40
8.549574516046732
100
AcDbArc
 50
0.0
 51
180.0
  0
ARC
  5
B1
330
87
100
AcDbEntity
  8
P-SANR-FIXT
100
AcDbCircle
 10
858.6664074431828
 20
1999.999999999995
 30
0.0
 40
9.499999999980218
100
AcDbArc
 50
180.0
 51
0.0
  0
ARC
  5
B2
330
87
100
AcDbEntity
  8
P-SANR-FIXT
100
AcDbCircle
 10
858.6664074431828
 20
1999.999999999995
 30
0.0
 40
9.499999999980104
100
AcDbArc
 50
0.0
 51
180.0
  0
ARC
  5
B3
330
87
100
AcDbEntity
  8
P-SANR-FIXT
100
AcDbCircle
 10
772.6664074431866
 20
1999.999999999995
 30
0.0
 40
8.549574516046732
100
AcDbArc
 50
180.0
 51
0.0
  0
ARC
  5
B4
330
87
100
AcDbEntity
  8
P-SANR-FIXT
100
AcDbCircle
 10
772.6664074431866
 20
1999.999999999995
 30
0.0
 40
8.549574516046845
100
AcDbArc
 50
0.0
 51
180.0
  0
ARC
  5
B5
330
87
100
AcDbEntity
  8
P-SANR-FIXT
100
AcDbCircle
 10
772.6664074431866
 20
1999.999999999995
 30
0.0
 40
9.499999999980104
100
AcDbArc
 50
180.0
 51
0.0
  0
ARC
  5
B6
330
87
100
AcDbEntity
  8
P-SANR-FIXT
100
AcDbCircle
 10
772.6664074431866
 20
1999.999999999995
 30
0.0
 40
9.499999999980104
100
AcDbArc
 50
0.0
 51
180.0
  0
LINE
  5
B7
330
87
100
AcDbEntity
  8
P-SANR-FIXT
100
AcDbLine
 10
706.0664074431437
 20
1968.499999999994
 30
0.0
 11
723.6664074431885
 21
1968.499999999994
 31
0.0
  0
LINE
  5
B8
330
87
100
AcDbEntity
  8
P-SANR-FIXT
100
AcDbLine
 10
723.6664074431885
 20
2031.499999999996
 30
0.0
 11
706.0664074431437
 21
2031.499999999996
 31
0.0
  0
LINE
  5
B9
330
87
100
AcDbEntity
  8
P-SANR-FIXT
100
AcDbLine
 10
706.0664074431436
 20
2029.999999999997
 30
0.0
 11
680.1664074431711
 21
2029.999999999997
 31
0.0
  0
LINE
  5
BA
330
87
100
AcDbEntity
  8
P-SANR-FIXT
100
AcDbLine
 10
680.1664074431711
 20
1969.999999999995
 30
0.0
 11
706.0664074431436
 21
1969.999999999995
 31
0.0
  0
LINE
  5
BB
330
87
100
AcDbEntity
  8
P-SANR-FIXT
100
AcDbLine
 10
680.1664074431711
 20
2029.999999999997
 30
0.0
 11
678.6664074431708
 21
2028.499999999997
 31
0.0
  0
LINE
  5
BC
330
87
100
AcDbEntity
  8
P-SANR-FIXT
100
AcDbLine
 10
678.6664074431708
 20
1971.499999999995
 30
0.0
 11
680.1664074431711
 21
1969.999999999995
 31
0.0
  0
LINE
  5
BD
330
87
100
AcDbEntity
  8
P-SANR-FIXT
100
AcDbLine
 10
706.0664074431421
 20
2020.354076111611
 30
0.0
 11
706.0664074431421
 21
2024.040831633749
 31
0.0
  0
LINE
  5
BE
330
87
100
AcDbEntity
  8
P-SANR-FIXT
100
AcDbLine
 10
706.0664074431421
 20
2024.040831633749
 30
0.0
 11
706.0664074431421
 21
2027.716385975339
 31
0.0
  0
LINE
  5
BF
330
87
100
AcDbEntity
  8
P-SANR-FIXT
100
AcDbLine
 10
706.0664074431421
 20
2011.480502970959
 30
0.0
 11
706.0664074431421
 21
2020.354076111611
 31
0.0
  0
LINE
  5
C0
330
87
100
AcDbEntity
  8
P-SANR-FIXT
100
AcDbLine
 10
706.0664074431423
 20
2031.391940316898
 30
0.0
 11
706.0664074431423
 21
2031.499999999995
 31
0.0
  0
LINE
  5
C1
330
87
100
AcDbEntity
  8
P-SANR-FIXT
100
AcDbLine
 10
706.0664074431421
 20
2027.716385975339
 30
0.0
 11
706.0664074431423
 21
2031.391940316898
 31
0.0
  0
LINE
  5
C2
330
87
100
AcDbEntity
  8
P-SANR-FIXT
100
AcDbLine
 10
706.0664074431423
 20
1968.499999999994
 30
0.0
 11
706.0664074431423
 21
1968.608059683091
 31
0.0
  0
LINE
  5
C3
330
87
100
AcDbEntity
  8
P-SANR-FIXT
100
AcDbLine
 10
706.0664074431423
 20
1968.608059683091
 30
0.0
 11
706.0664074431421
 21
1972.28361402465
 31
0.0
  0
LINE
  5
C4
330
87
100
AcDbEntity
  8
P-SANR-FIXT
100
AcDbLine
 10
706.0664074431421
 20
1975.959168366239
 30
0.0
 11
706.0664074431421
 21
1979.645923888378
 31
0.0
  0
LINE
  5
C5
330
87
100
AcDbEntity
  8
P-SANR-FIXT
100
AcDbLine
 10
706.0664074431421
 20
1979.645923888378
 30
0.0
 11
706.0664074431421
 21
1988.519497029031
 31
0.0
  0
LINE
  5
C6
330
87
100
AcDbEntity
  8
P-SANR-FIXT
100
AcDbLine
 10
706.0664074431421
 20
1972.28361402465
 30
0.0
 11
706.0664074431421
 21
1975.959168366239
 31
0.0
  0
LINE
  5
C7
330
87
100
AcDbEntity
  8
P-SANR-FIXT
100
AcDbLine
 10
706.0664074431421
 20
1997.393070169713
 30
0.0
 11
706.0664074431421
 21
2002.606929830275
 31
0.0
  0
LINE
  5
C8
330
87
100
AcDbEntity
  8
P-SANR-FIXT
100
AcDbLine
 10
706.0664074431421
 20
2002.606929830275
 30
0.0
 11
706.0664074431421
 21
2011.480502970959
 31
0.0
  0
LINE
  5
C9
330
87
100
AcDbEntity
  8
P-SANR-FIXT
100
AcDbLine
 10
706.0664074431421
 20
1988.519497029031
 30
0.0
 11
706.0664074431421
 21
1997.393070169713
 31
0.0
  0
LINE
  5
CA
330
87
100
AcDbEntity
  8
P-SANR-FIXT
100
AcDbLine
 10
706.0664074431421
 20
2002.606929830275
 30
0.0
 11
723.666407443187
 21
2002.606929830275
 31
0.0
  0
LINE
  5
CB
330
87
100
AcDbEntity
  8
P-SANR-FIXT
100
AcDbLine
 10
706.0664074431421
 20
1997.393070169713
 30
0.0
 11
723.666407443187
 21
1997.393070169713
 31
0.0
  0
LINE
  5
CC
330
87
100
AcDbEntity
  8
P-SANR-FIXT
100
AcDbLine
 10
706.0664074431421
 20
1979.645923888378
 30
0.0
 11
723.666407443187
 21
1979.645923888378
 31
0.0
  0
LINE
  5
CD
330
87
100
AcDbEntity
  8
P-SANR-FIXT
100
AcDbLine
 10
706.0664074431421
 20
1975.959168366239
 30
0.0
 11
723.666407443187
 21
1975.959168366239
 31
0.0
  0
LINE
  5
CE
330
87
100
AcDbEntity
  8
P-SANR-FIXT
100
AcDbLine
 10
706.0664074431423
 20
1968.608059683091
 30
0.0
 11
723.6664074431871
 21
1968.608059683091
 31
0.0
  0
LINE
  5
CF
330
87
100
AcDbEntity
  8
P-SANR-FIXT
100
AcDbLine
 10
706.0664074431423
 20
2031.391940316898
 30
0.0
 11
723.6664074431871
 21
2031.391940316898
 31
0.0
  0
LINE
  5
D0
330
87
100
AcDbEntity
  8
P-SANR-FIXT
100
AcDbLine
 10
706.0664074431421
 20
2024.040831633749
 30
0.0
 11
723.666407443187
 21
2024.040831633749
 31
0.0
  0
LINE
  5
D1
330
87
100
AcDbEntity
  8
P-SANR-FIXT
100
AcDbLine
 10
723.666407443187
 20
2020.354076111611
 30
0.0
 11
706.0664074431421
 21
2020.354076111611
 31
0.0
  0
LINE
  5
D2
330
87
100
AcDbEntity
  8
P-SANR-FIXT
100
AcDbLine
 10
678.6664074431696
 20
1971.499999999994
 30
0.0
 11
678.6664074431696
 21
2028.499999999996
 31
0.0
  0
LINE
  5
D3
330
87
100
AcDbEntity
  8
P-SANR-FIXT
100
AcDbLine
 10
680.1664074431697
 20
2029.999999999996
 30
0.0
 11
680.1664074431697
 21
1969.999999999994
 31
0.0
  0
LINE
  5
D4
330
87
100
AcDbEntity
  8
P-SANR-FIXT
100
AcDbLine
 10
725.1097831161655
 20
1956.000000000005
 30
0.0
 11
751.2230317702027
 21
1956.000000000005
 31
0.0
  0
LINE
  5
D5
330
87
100
AcDbEntity
  8
P-SANR-FIXT
100
AcDbLine
 10
751.2230317702027
 20
2043.999999999989
 30
0.0
 11
725.1097831161655
 21
2043.999999999989
 31
0.0
  0
LINE
  5
D6
330
87
100
AcDbEntity
  8
P-SANR-FIXT
100
AcDbLine
 10
751.2230317702029
 20
1956.000000000005
 30
0.0
 11
752.6664074431888
 21
1958.500000000025
 31
0.0
  0
LINE
  5
D7
330
87
100
AcDbEntity
  8
P-SANR-FIXT
100
AcDbLine
 10
752.6664074431888
 20
2041.499999999967
 30
0.0
 11
751.2230317701988
 21
2043.999999999995
 31
0.0
  0
LINE
  5
D8
330
87
100
AcDbEntity
  8
P-SANR-FIXT
100
AcDbLine
 10
723.6664074431891
 20
1958.500000000008
 30
0.0
 11
725.1097831161686
 21
1955.999999999999
 31
0.0
  0
LINE
  5
D9
330
87
100
AcDbEntity
  8
P-SANR-FIXT
100
AcDbLine
 10
725.1097831161659
 20
2043.999999999989
 30
0.0
 11
723.6664074431891
 21
2041.499999999984
 31
0.0
  0
LINE
  5
DA
330
87
100
AcDbEntity
  8
P-SANR-FIXT
100
AcDbLine
 10
723.6664074431878
 20
1958.500000000007
 30
0.0
 11
723.6664074431877
 21
1964.059945742951
 31
0.0
  0
LINE
  5
DB
330
87
100
AcDbEntity
  8
P-SANR-FIXT
100
AcDbLine
 10
723.6664074431877
 20
1964.059945742951
 30
0.0
 11
723.6664074431875
 21
1999.999999999994
 31
0.0
  0
LINE
  5
DC
330
87
100
AcDbEntity
  8
P-SANR-FIXT
100
AcDbLine
 10
723.6664074431875
 20
1999.999999999994
 30
0.0
 11
723.6664074431877
 21
2035.940054257039
 31
0.0
  0
LINE
  5
DD
330
87
100
AcDbEntity
  8
P-SANR-FIXT
100
AcDbLine
 10
723.6664074431877
 20
2035.940054257038
 30
0.0
 11
723.6664074431878
 21
2041.499999999983
 31
0.0
  0
LINE
  5
DE
330
87
100
AcDbEntity
  8
P-SANR-FIXT
100
AcDbLine
 10
752.6664074431875
 20
2041.499999999966
 30
0.0
 11
752.6664074431874
 21
2035.940054257023
 31
0.0
  0
LINE
  5
DF
330
87
100
AcDbEntity
  8
P-SANR-FIXT
100
AcDbLine
 10
752.6664074431874
 20
2035.940054257023
 30
0.0
 11
752.6664074431872
 21
1999.999999999994
 31
0.0
  0
LINE
  5
E0
330
87
100
AcDbEntity
  8
P-SANR-FIXT
100
AcDbLine
 10
752.6664074431872
 20
1999.999999999994
 30
0.0
 11
752.6664074431874
 21
1964.059945742966
 31
0.0
  0
LINE
  5
E1
330
87
100
AcDbEntity
  8
P-SANR-FIXT
100
AcDbLine
 10
752.6664074431874
 20
1964.059945742966
 30
0.0
 11
752.6664074431875
 21
1958.500000000025
 31
0.0
  0
LINE
  5
E2
330
87
100
AcDbEntity
  8
P-SANR-FIXT
100
AcDbLine
 10
725.1097831161877
 20
2014.620191517239
 30
0.0
 11
751.2230317701773
 21
2014.620191517239
 31
0.0
  0
LINE
  5
E3
330
87
100
AcDbEntity
  8
P-SANR-FIXT
100
AcDbLine
 10
751.223031770201
 20
2014.620191517239
 30
0.0
 11
751.2230317702012
 21
2028.629958498407
 31
0.0
  0
LINE
  5
E4
330
87
100
AcDbEntity
  8
P-SANR-FIXT
100
AcDbLine
 10
725.109783116164
 20
2028.629958498408
 30
0.0
 11
725.1097831161639
 21
2014.620191517239
 31
0.0
  0
SPLINE
  5
E5
330
87
100
AcDbEntity
  8
P-SANR-FIXT
100
AcDbSpline
210
0.0
220
0.0
230
1.0
 70
     8
 71
     3
 72
     9
 73
     5
 74
     0
 42
0.000000001
 43
0.0000000001
 40
0.0
 40
0.0
 40
0.0
 40
0.0
 40
0.5
 40
1.0
 40
1.0
 40
1.0
 40
1.0
 10
725.1097831161877
 20
2014.620191517239
 30
0.0
 10
724.6362723423295
 20
2012.20602275492
 30
0.0
 10
723.9221989563044
 20
2007.355155406393
 30
0.0
 10
723.6740218936626
 20
2002.45922841009
 30
0.0
 10
723.6664074431875
 20
1999.999999999994
 30
0.0
  0
SPLINE
  5
E6
330
87
100
AcDbEntity
  8
P-SANR-FIXT
100
AcDbSpline
210
0.0
220
0.0
230
1.0
 70
     8
 71
     3
 72
     9
 73
     5
 74
     0
 42
0.000000001
 43
0.0000000001
 40
0.0
 40
0.0
 40
0.0
 40
0.0
 40
0.5
 40
1.0
 40
1.0
 40
1.0
 40
1.0
 10
723.6664074431875
 20
1999.999999999994
 30
0.0
 10
723.6740218936626
 20
1997.5407715899
 30
0.0
 10
723.9221989563041
 20
1992.644844593598
 30
0.0
 10
724.6362723423292
 20
1987.793977245071
 30
0.0
 10
725.1097831161874
 20
1985.379808482752
 30
0.0
  0
LINE
  5
E7
330
87
100
AcDbEntity
  8
P-SANR-FIXT
100
AcDbLine
 10
725.1097831161874
 20
1985.379808482752
 30
0.0
 11
751.2230317701776
 21
1985.379808482752
 31
0.0
  0
SPLINE
  5
E8
330
87
100
AcDbEntity
  8
P-SANR-FIXT
100
AcDbSpline
210
0.0
220
0.0
230
1.0
 70
     8
 71
     3
 72
     9
 73
     5
 74
     0
 42
0.000000001
 43
0.0000000001
 40
0.0
 40
0.0
 40
0.0
 40
0.0
 40
0.5
 40
1.0
 40
1.0
 40
1.0
 40
1.0
 10
751.2230317701776
 20
1985.379808482752
 30
0.0
 10
751.6965425440341
 20
1987.793977245071
 30
0.0
 10
752.4106159300591
 20
1992.644844593598
 30
0.0
 10
752.6587929927074
 20
1997.5407715899
 30
0.0
 10
752.6664074431872
 20
1999.999999999994
 30
0.0
  0
SPLINE
  5
E9
330
87
100
AcDbEntity
  8
P-SANR-FIXT
100
AcDbSpline
210
0.0
220
0.0
230
1.0
 70
     8
 71
     3
 72
     9
 73
     5
 74
     0
 42
0.000000001
 43
0.0000000001
 40
0.0
 40
0.0
 40
0.0
 40
0.0
 40
0.5
 40
1.0
 40
1.0
 40
1.0
 40
1.0
 10
752.6664074431872
 20
1999.999999999994
 30
0.0
 10
752.6587929927074
 20
2002.45922841009
 30
0.0
 10
752.4106159300589
 20
2007.355155406392
 30
0.0
 10
751.6965425440339
 20
2012.206022754919
 30
0.0
 10
751.2230317701773
 20
2014.620191517239
 30
0.0
  0
LINE
  5
EA
330
87
100
AcDbEntity
  8
P-SANR-FIXT
100
AcDbLine
 10
725.1097831161639
 20
1985.379808482752
 30
0.0
 11
725.109783116164
 21
1971.370041501578
 31
0.0
  0
LINE
  5
EB
330
87
100
AcDbEntity
  8
P-SANR-FIXT
100
AcDbLine
 10
725.1097831161827
 20
1971.370041501578
 30
0.0
 11
751.2230317701823
 21
1971.370041501578
 31
0.0
  0
LINE
  5
EC
330
87
100
AcDbEntity
  8
P-SANR-FIXT
100
AcDbLine
 10
751.2230317702012
 20
1971.370041501578
 30
0.0
 11
751.223031770201
 21
1985.379808482752
 31
0.0
  0
SPLINE
  5
ED
330
87
100
AcDbEntity
  8
P-SANR-FIXT
100
AcDbSpline
210
0.0
220
0.0
230
1.0
 70
     8
 71
     3
 72
     9
 73
     5
 74
     0
 42
0.000000001
 43
0.0000000001
 40
0.0
 40
0.0
 40
0.0
 40
0.0
 40
0.5
 40
1.0
 40
1.0
 40
1.0
 40
1.0
 10
725.1097831161827
 20
1971.370041501578
 30
0.0
 10
724.6362723423201
 20
1970.162957120415
 30
0.0
 10
723.9221989562915
 20
1967.737523446146
 30
0.0
 10
723.6740218936567
 20
1965.289559947989
 30
0.0
 10
723.6664074431877
 20
1964.059945742939
 30
0.0
  0
SPLINE
  5
EE
330
87
100
AcDbEntity
  8
P-SANR-FIXT
100
AcDbSpline
210
0.0
220
0.0
230
1.0
 70
     8
 71
     3
 72
     9
 73
     5
 74
     0
 42
0.000000001
 43
0.0000000001
 40
0.0
 40
0.0
 40
0.0
 40
0.0
 40
0.5
 40
1.0
 40
1.0
 40
1.0
 40
1.0
 10
723.6664074431877
 20
1964.059945742939
 30
0.0
 10
723.6740218936565
 20
1962.830331537894
 30
0.0
 10
723.9221989562889
 20
1960.38236803975
 30
0.0
 10
724.6362723423104
 20
1957.956934365494
 30
0.0
 10
725.1097831161683
 20
1956.749849984337
 30
0.0
  0
LINE
  5
EF
330
87
100
AcDbEntity
  8
P-SANR-FIXT
100
AcDbLine
 10
725.1097831161683
 20
1956.749849984337
 30
0.0
 11
751.2230317701972
 21
1956.749849984337
 31
0.0
  0
SPLINE
  5
F0
330
87
100
AcDbEntity
  8
P-SANR-FIXT
100
AcDbSpline
210
0.0
220
0.0
230
1.0
 70
     8
 71
     3
 72
     9
 73
     5
 74
     0
 42
0.000000001
 43
0.0000000001
 40
0.0
 40
0.0
 40
0.0
 40
0.0
 40
0.5
 40
1.0
 40
1.0
 40
1.0
 40
1.0
 10
751.2230317701972
 20
1956.749849984337
 30
0.0
 10
751.6965425440535
 20
1957.956934365494
 30
0.0
 10
752.4106159300747
 20
1960.38236803975
 30
0.0
 10
752.6587929927136
 20
1962.830331537895
 30
0.0
 10
752.6664074431875
 20
1964.059945742939
 30
0.0
  0
SPLINE
  5
F1
330
87
100
AcDbEntity
  8
P-SANR-FIXT
100
AcDbSpline
210
0.0
220
0.0
230
1.0
 70
     8
 71
     3
 72
     9
 73
     5
 74
     0
 42
0.000000001
 43
0.0000000001
 40
0.0
 40
0.0
 40
0.0
 40
0.0
 40
0.5
 40
1.0
 40
1.0
 40
1.0
 40
1.0
 10
752.6664074431874
 20
1964.059945742939
 30
0.0
 10
752.6587929927134
 20
1965.289559947989
 30
0.0
 10
752.410615930072
 20
1967.737523446146
 30
0.0
 10
751.6965425440434
 20
1970.162957120415
 30
0.0
 10
751.2230317701823
 20
1971.370041501578
 30
0.0
  0
LINE
  5
F2
330
87
100
AcDbEntity
  8
P-SANR-FIXT
100
AcDbLine
 10
725.1097831161642
 20
1956.749849984337
 30
0.0
 11
725.1097831161642
 21
1956.000000000004
 31
0.0
  0
LINE
  5
F3
330
87
100
AcDbEntity
  8
P-SANR-FIXT
100
AcDbLine
 10
751.2230317702013
 20
1956.000000000004
 30
0.0
 11
751.2230317702013
 21
1956.749849984337
 31
0.0
  0
LINE
  5
F4
330
87
100
AcDbEntity
  8
P-SANR-FIXT
100
AcDbLine
 10
725.1097831161642
 20
2043.999999999988
 30
0.0
 11
725.1097831161642
 21
2043.250150015656
 31
0.0
  0
LINE
  5
F5
330
87
100
AcDbEntity
  8
P-SANR-FIXT
100
AcDbLine
 10
725.1097831161692
 20
2043.250150015656
 30
0.0
 11
751.2230317701961
 21
2043.250150015656
 31
0.0
  0
LINE
  5
F6
330
87
100
AcDbEntity
  8
P-SANR-FIXT
100
AcDbLine
 10
751.2230317702013
 20
2043.250150015656
 30
0.0
 11
751.2230317702013
 21
2043.999999999988
 31
0.0
  0
SPLINE
  5
F7
330
87
100
AcDbEntity
  8
P-SANR-FIXT
100
AcDbSpline
210
0.0
220
0.0
230
1.0
 70
     8
 71
     3
 72
     9
 73
     5
 74
     0
 42
0.000000001
 43
0.0000000001
 40
0.0
 40
0.0
 40
0.0
 40
0.0
 40
0.5
 40
1.0
 40
1.0
 40
1.0
 40
1.0
 10
725.1097831161692
 20
2043.250150015656
 30
0.0
 10
724.6362723423106
 20
2042.043065634499
 30
0.0
 10
723.9221989562884
 20
2039.617631960241
 30
0.0
 10
723.6740218936562
 20
2037.169668462095
 30
0.0
 10
723.6664074431877
 20
2035.940054257051
 30
0.0
  0
SPLINE
  5
F8
330
87
100
AcDbEntity
  8
P-SANR-FIXT
100
AcDbSpline
210
0.0
220
0.0
230
1.0
 70
     8
 71
     3
 72
     9
 73
     5
 74
     0
 42
0.000000001
 43
0.0000000001
 40
0.0
 40
0.0
 40
0.0
 40
0.0
 40
0.5
 40
1.0
 40
1.0
 40
1.0
 40
1.0
 10
723.6664074431877
 20
2035.940054257051
 30
0.0
 10
723.6740218936563
 20
2034.710440052
 30
0.0
 10
723.9221989562911
 20
2032.262476553841
 30
0.0
 10
724.6362723423202
 20
2029.837042879571
 30
0.0
 10
725.1097831161835
 20
2028.629958498408
 30
0.0
  0
LINE
  5
F9
330
87
100
AcDbEntity
  8
P-SANR-FIXT
100
AcDbLine
 10
751.2230317701817
 20
2028.629958498408
 30
0.0
 11
725.1097831161835
 21
2028.629958498408
 31
0.0
  0
SPLINE
  5
FA
330
87
100
AcDbEntity
  8
P-SANR-FIXT
100
AcDbSpline
210
0.0
220
0.0
230
1.0
 70
     8
 71
     3
 72
     9
 73
     5
 74
     0
 42
0.000000001
 43
0.0000000001
 40
0.0
 40
0.0
 40
0.0
 40
0.0
 40
0.5
 40
1.0
 40
1.0
 40
1.0
 40
1.0
 10
751.2230317701817
 20
2028.629958498408
 30
0.0
 10
751.6965425440433
 20
2029.837042879571
 30
0.0
 10
752.4106159300725
 20
2032.262476553841
 30
0.0
 10
752.6587929927138
 20
2034.710440052
 30
0.0
 10
752.6664074431874
 20
2035.940054257051
 30
0.0
  0
SPLINE
  5
FB
330
87
100
AcDbEntity
  8
P-SANR-FIXT
100
AcDbSpline
210
0.0
220
0.0
230
1.0
 70
     8
 71
     3
 72
     9
 73
     5
 74
     0
 42
0.000000001
 43
0.0000000001
 40
0.0
 40
0.0
 40
0.0
 40
0.0
 40
0.5
 40
1.0
 40
1.0
 40
1.0
 40
1.0
 10
752.6664074431874
 20
2035.940054257051
 30
0.0
 10
752.6587929927139
 20
2037.169668462095
 30
0.0
 10
752.4106159300751
 20
2039.617631960241
 30
0.0
 10
751.6965425440531
 20
2042.043065634499
 30
0.0
 10
751.2230317701961
 20
2043.250150015656
 30
0.0
  0
LINE
  5
FC
330
87
100
AcDbEntity
  8
P-SANR-FIXT
100
AcDbLine
 10
886.1097831161711
 20
1956.000000000005
 30
0.0
 11
912.2230317702085
 21
1956.000000000005
 31
0.0
  0
LINE
  5
FD
330
87
100
AcDbEntity
  8
P-SANR-FIXT
100
AcDbLine
 10
912.2230317702085
 20
2043.999999999988
 30
0.0
 11
886.1097831161711
 21
2043.999999999988
 31
0.0
  0
LINE
  5
FE
330
87
100
AcDbEntity
  8
P-SANR-FIXT
100
AcDbLine
 10
884.6664074431849
 20
1958.500000000025
 30
0.0
 11
886.1097831161744
 21
1955.999999999999
 31
0.0
  0
LINE
  5
FF
330
87
100
AcDbEntity
  8
P-SANR-FIXT
100
AcDbLine
 10
886.1097831161716
 20
2043.999999999988
 30
0.0
 11
884.6664074431849
 21
2041.499999999967
 31
0.0
  0
LINE
  5
100
330
87
100
AcDbEntity
  8
P-SANR-FIXT
100
AcDbLine
 10
912.2230317702088
 20
1956.000000000005
 30
0.0
 11
913.6664074431847
 21
1958.500000000008
 31
0.0
  0
LINE
  5
101
330
87
100
AcDbEntity
  8
P-SANR-FIXT
100
AcDbLine
 10
913.6664074431847
 20
2041.499999999984
 30
0.0
 11
912.2230317702046
 21
2043.999999999995
 31
0.0
  0
LINE
  5
102
330
87
100
AcDbEntity
  8
P-SANR-FIXT
100
AcDbLine
 10
913.6664074431832
 20
2041.499999999983
 30
0.0
 11
913.6664074431829
 21
2035.940054257038
 31
0.0
  0
LINE
  5
103
330
87
100
AcDbEntity
  8
P-SANR-FIXT
100
AcDbLine
 10
913.6664074431829
 20
2035.940054257038
 30
0.0
 11
913.6664074431829
 21
1999.999999999994
 31
0.0
  0
LINE
  5
104
330
87
100
AcDbEntity
  8
P-SANR-FIXT
100
AcDbLine
 10
913.6664074431829
 20
1999.999999999994
 30
0.0
 11
913.6664074431829
 21
1964.059945742951
 31
0.0
  0
LINE
  5
105
330
87
100
AcDbEntity
  8
P-SANR-FIXT
100
AcDbLine
 10
913.6664074431829
 20
1964.059945742951
 30
0.0
 11
913.6664074431832
 21
1958.500000000007
 31
0.0
  0
LINE
  5
106
330
87
100
AcDbEntity
  8
P-SANR-FIXT
100
AcDbLine
 10
884.6664074431833
 20
1958.500000000024
 30
0.0
 11
884.6664074431831
 21
1964.059945742966
 31
0.0
  0
LINE
  5
107
330
87
100
AcDbEntity
  8
P-SANR-FIXT
100
AcDbLine
 10
884.6664074431831
 20
1964.059945742966
 30
0.0
 11
884.666407443183
 21
1999.999999999994
 31
0.0
  0
LINE
  5
108
330
87
100
AcDbEntity
  8
P-SANR-FIXT
100
AcDbLine
 10
884.666407443183
 20
1999.999999999994
 30
0.0
 11
884.6664074431831
 21
2035.940054257023
 31
0.0
  0
LINE
  5
109
330
87
100
AcDbEntity
  8
P-SANR-FIXT
100
AcDbLine
 10
884.6664074431831
 20
2035.940054257023
 30
0.0
 11
884.6664074431833
 21
2041.499999999965
 31
0.0
  0
LINE
  5
10A
330
87
100
AcDbEntity
  8
P-SANR-FIXT
100
AcDbLine
 10
912.2230317701871
 20
2028.629958498408
 30
0.0
 11
886.1097831161888
 21
2028.629958498408
 31
0.0
  0
LINE
  5
10B
330
87
100
AcDbEntity
  8
P-SANR-FIXT
100
AcDbLine
 10
886.1097831161695
 20
2028.629958498408
 30
0.0
 11
886.1097831161695
 21
2014.62019151724
 31
0.0
  0
LINE
  5
10C
330
87
100
AcDbEntity
  8
P-SANR-FIXT
100
AcDbLine
 10
912.2230317702065
 20
2014.620191517239
 30
0.0
 11
912.2230317702067
 21
2028.629958498408
 31
0.0
  0
LINE
  5
10D
330
87
100
AcDbEntity
  8
P-SANR-FIXT
100
AcDbLine
 10
886.1097831161933
 20
2014.62019151724
 30
0.0
 11
912.2230317701827
 21
2014.62019151724
 31
0.0
  0
SPLINE
  5
10E
330
87
100
AcDbEntity
  8
P-SANR-FIXT
100
AcDbSpline
210
0.0
220
0.0
230
1.0
 70
     8
 71
     3
 72
     9
 73
     5
 74
     0
 42
0.000000001
 43
0.0000000001
 40
0.0
 40
0.0
 40
0.0
 40
0.0
 40
0.5
 40
1.0
 40
1.0
 40
1.0
 40
1.0
 10
886.1097831161933
 20
2014.62019151724
 30
0.0
 10
885.6362723423366
 20
2012.20602275492
 30
0.0
 10
884.9221989563115
 20
2007.355155406392
 30
0.0
 10
884.6740218936631
 20
2002.459228410089
 30
0.0
 10
884.666407443183
 20
1999.999999999994
 30
0.0
  0
SPLINE
  5
10F
330
87
100
AcDbEntity
  8
P-SANR-FIXT
100
AcDbSpline
210
0.0
220
0.0
230
1.0
 70
     8
 71
     3
 72
     9
 73
     5
 74
     0
 42
0.000000001
 43
0.0000000001
 40
0.0
 40
0.0
 40
0.0
 40
0.0
 40
0.5
 40
1.0
 40
1.0
 40
1.0
 40
1.0
 10
884.666407443183
 20
1999.999999999994
 30
0.0
 10
884.6740218936631
 20
1997.5407715899
 30
0.0
 10
884.9221989563114
 20
1992.644844593598
 30
0.0
 10
885.6362723423362
 20
1987.793977245071
 30
0.0
 10
886.1097831161927
 20
1985.379808482752
 30
0.0
  0
SPLINE
  5
110
330
87
100
AcDbEntity
  8
P-SANR-FIXT
100
AcDbSpline
210
0.0
220
0.0
230
1.0
 70
     8
 71
     3
 72
     9
 73
     5
 74
     0
 42
0.000000001
 43
0.0000000001
 40
0.0
 40
0.0
 40
0.0
 40
0.0
 40
0.5
 40
1.0
 40
1.0
 40
1.0
 40
1.0
 10
912.2230317701829
 20
1985.379808482752
 30
0.0
 10
912.6965425440413
 20
1987.793977245071
 30
0.0
 10
913.4106159300662
 20
1992.644844593598
 30
0.0
 10
913.6587929927078
 20
1997.5407715899
 30
0.0
 10
913.6664074431829
 20
1999.999999999994
 30
0.0
  0
SPLINE
  5
111
330
87
100
AcDbEntity
  8
P-SANR-FIXT
100
AcDbSpline
210
0.0
220
0.0
230
1.0
 70
     8
 71
     3
 72
     9
 73
     5
 74
     0
 42
0.000000001
 43
0.0000000001
 40
0.0
 40
0.0
 40
0.0
 40
0.0
 40
0.5
 40
1.0
 40
1.0
 40
1.0
 40
1.0
 10
913.6664074431829
 20
1999.999999999994
 30
0.0
 10
913.6587929927078
 20
2002.45922841009
 30
0.0
 10
913.410615930066
 20
2007.355155406393
 30
0.0
 10
912.696542544041
 20
2012.20602275492
 30
0.0
 10
912.2230317701827
 20
2014.62019151724
 30
0.0
  0
LINE
  5
112
330
87
100
AcDbEntity
  8
P-SANR-FIXT
100
AcDbLine
 10
886.1097831161927
 20
1985.379808482752
 30
0.0
 11
912.2230317701829
 21
1985.379808482752
 31
0.0
  0
LINE
  5
113
330
87
100
AcDbEntity
  8
P-SANR-FIXT
100
AcDbLine
 10
886.1097831161695
 20
1985.379808482752
 30
0.0
 11
886.1097831161695
 21
1971.370041501578
 31
0.0
  0
LINE
  5
114
330
87
100
AcDbEntity
  8
P-SANR-FIXT
100
AcDbLine
 10
912.2230317702067
 20
1971.370041501578
 30
0.0
 11
912.2230317702065
 21
1985.379808482752
 31
0.0
  0
LINE
  5
115
330
87
100
AcDbEntity
  8
P-SANR-FIXT
100
AcDbLine
 10
886.1097831161881
 20
1971.370041501577
 30
0.0
 11
912.223031770188
 21
1971.370041501577
 31
0.0
  0
SPLINE
  5
116
330
87
100
AcDbEntity
  8
P-SANR-FIXT
100
AcDbSpline
210
0.0
220
0.0
230
1.0
 70
     8
 71
     3
 72
     9
 73
     5
 74
     0
 42
0.000000001
 43
0.0000000001
 40
0.0
 40
0.0
 40
0.0
 40
0.0
 40
0.5
 40
1.0
 40
1.0
 40
1.0
 40
1.0
 10
886.1097831161881
 20
1971.370041501577
 30
0.0
 10
885.6362723423272
 20
1970.162957120415
 30
0.0
 10
884.9221989562986
 20
1967.737523446146
 30
0.0
 10
884.6740218936572
 20
1965.289559947989
 30
0.0
 10
884.6664074431831
 20
1964.059945742938
 30
0.0
  0
SPLINE
  5
117
330
87
100
AcDbEntity
  8
P-SANR-FIXT
100
AcDbSpline
210
0.0
220
0.0
230
1.0
 70
     8
 71
     3
 72
     9
 73
     5
 74
     0
 42
0.000000001
 43
0.0000000001
 40
0.0
 40
0.0
 40
0.0
 40
0.0
 40
0.5
 40
1.0
 40
1.0
 40
1.0
 40
1.0
 10
884.6664074431831
 20
1964.059945742938
 30
0.0
 10
884.674021893657
 20
1962.830331537894
 30
0.0
 10
884.9221989562957
 20
1960.38236803975
 30
0.0
 10
885.6362723423174
 20
1957.956934365494
 30
0.0
 10
886.1097831161737
 20
1956.749849984337
 30
0.0
  0
SPLINE
  5
118
330
87
100
AcDbEntity
  8
P-SANR-FIXT
100
AcDbSpline
210
0.0
220
0.0
230
1.0
 70
     8
 71
     3
 72
     9
 73
     5
 74
     0
 42
0.000000001
 43
0.0000000001
 40
0.0
 40
0.0
 40
0.0
 40
0.0
 40
0.5
 40
1.0
 40
1.0
 40
1.0
 40
1.0
 10
912.2230317702026
 20
1956.749849984337
 30
0.0
 10
912.6965425440607
 20
1957.956934365494
 30
0.0
 10
913.4106159300818
 20
1960.38236803975
 30
0.0
 10
913.6587929927141
 20
1962.830331537894
 30
0.0
 10
913.6664074431829
 20
1964.059945742938
 30
0.0
  0
SPLINE
  5
119
330
87
100
AcDbEntity
  8
P-SANR-FIXT
100
AcDbSpline
210
0.0
220
0.0
230
1.0
 70
     8
 71
     3
 72
     9
 73
     5
 74
     0
 42
0.000000001
 43
0.0000000001
 40
0.0
 40
0.0
 40
0.0
 40
0.0
 40
0.5
 40
1.0
 40
1.0
 40
1.0
 40
1.0
 10
913.6664074431829
 20
1964.059945742938
 30
0.0
 10
913.658792992714
 20
1965.289559947989
 30
0.0
 10
913.4106159300792
 20
1967.737523446146
 30
0.0
 10
912.6965425440506
 20
1970.162957120415
 30
0.0
 10
912.223031770188
 20
1971.370041501577
 30
0.0
  0
LINE
  5
11A
330
87
100
AcDbEntity
  8
P-SANR-FIXT
100
AcDbLine
 10
886.1097831161737
 20
1956.749849984337
 30
0.0
 11
912.2230317702026
 21
1956.749849984337
 31
0.0
  0
LINE
  5
11B
330
87
100
AcDbEntity
  8
P-SANR-FIXT
100
AcDbLine
 10
886.1097831161696
 20
1956.749849984337
 30
0.0
 11
886.1097831161696
 21
1956.000000000004
 31
0.0
  0
LINE
  5
11C
330
87
100
AcDbEntity
  8
P-SANR-FIXT
100
AcDbLine
 10
912.2230317702069
 20
1956.000000000004
 30
0.0
 11
912.2230317702069
 21
1956.749849984337
 31
0.0
  0
LINE
  5
11D
330
87
100
AcDbEntity
  8
P-SANR-FIXT
100
AcDbLine
 10
886.1097831161696
 20
2043.999999999988
 30
0.0
 11
886.1097831161696
 21
2043.250150015656
 31
0.0
  0
LINE
  5
11E
330
87
100
AcDbEntity
  8
P-SANR-FIXT
100
AcDbLine
 10
912.2230317702069
 20
2043.250150015656
 30
0.0
 11
912.2230317702069
 21
2043.999999999988
 31
0.0
  0
SPLINE
  5
11F
330
87
100
AcDbEntity
  8
P-SANR-FIXT
100
AcDbSpline
210
0.0
220
0.0
230
1.0
 70
     8
 71
     3
 72
     9
 73
     5
 74
     0
 42
0.000000001
 43
0.0000000001
 40
0.0
 40
0.0
 40
0.0
 40
0.0
 40
0.5
 40
1.0
 40
1.0
 40
1.0
 40
1.0
 10
912.2230317701871
 20
2028.629958498408
 30
0.0
 10
912.6965425440506
 20
2029.837042879571
 30
0.0
 10
913.4106159300797
 20
2032.262476553841
 30
0.0
 10
913.6587929927141
 20
2034.710440051999
 30
0.0
 10
913.6664074431829
 20
2035.94005425705
 30
0.0
  0
SPLINE
  5
120
330
87
100
AcDbEntity
  8
P-SANR-FIXT
100
AcDbSpline
210
0.0
220
0.0
230
1.0
 70
     8
 71
     3
 72
     9
 73
     5
 74
     0
 42
0.000000001
 43
0.0000000001
 40
0.0
 40
0.0
 40
0.0
 40
0.0
 40
0.5
 40
1.0
 40
1.0
 40
1.0
 40
1.0
 10
913.6664074431829
 20
2035.94005425705
 30
0.0
 10
913.6587929927143
 20
2037.169668462095
 30
0.0
 10
913.4106159300822
 20
2039.617631960241
 30
0.0
 10
912.6965425440602
 20
2042.043065634499
 30
0.0
 10
912.2230317702017
 20
2043.250150015656
 30
0.0
  0
LINE
  5
121
330
87
100
AcDbEntity
  8
P-SANR-FIXT
100
AcDbLine
 10
886.1097831161748
 20
2043.250150015656
 30
0.0
 11
912.2230317702017
 21
2043.250150015656
 31
0.0
  0
SPLINE
  5
122
330
87
100
AcDbEntity
  8
P-SANR-FIXT
100
AcDbSpline
210
0.0
220
0.0
230
1.0
 70
     8
 71
     3
 72
     9
 73
     5
 74
     0
 42
0.000000001
 43
0.0000000001
 40
0.0
 40
0.0
 40
0.0
 40
0.0
 40
0.5
 40
1.0
 40
1.0
 40
1.0
 40
1.0
 10
886.1097831161748
 20
2043.250150015656
 30
0.0
 10
885.6362723423178
 20
2042.043065634499
 30
0.0
 10
884.9221989562956
 20
2039.617631960241
 30
0.0
 10
884.6740218936568
 20
2037.169668462095
 30
0.0
 10
884.6664074431831
 20
2035.94005425705
 30
0.0
  0
SPLINE
  5
123
330
87
100
AcDbEntity
  8
P-SANR-FIXT
100
AcDbSpline
210
0.0
220
0.0
230
1.0
 70
     8
 71
     3
 72
     9
 73
     5
 74
     0
 42
0.000000001
 43
0.0000000001
 40
0.0
 40
0.0
 40
0.0
 40
0.0
 40
0.5
 40
1.0
 40
1.0
 40
1.0
 40
1.0
 10
884.6664074431831
 20
2035.94005425705
 30
0.0
 10
884.6740218936568
 20
2034.710440051999
 30
0.0
 10
884.9221989562982
 20
2032.262476553841
 30
0.0
 10
885.6362723423274
 20
2029.837042879571
 30
0.0
 10
886.1097831161888
 20
2028.629958498408
 30
0.0
  0
LINE
  5
124
330
87
100
AcDbEntity
  8
P-SANR-FIXT
100
AcDbLine
 10
957.1664074432019
 20
2029.999999999997
 30
0.0
 11
931.2664074432301
 21
2029.999999999997
 31
0.0
  0
LINE
  5
125
330
87
100
AcDbEntity
  8
P-SANR-FIXT
100
AcDbLine
 10
931.2664074432301
 20
1969.999999999995
 30
0.0
 11
957.1664074432019
 21
1969.999999999995
 31
0.0
  0
LINE
  5
126
330
87
100
AcDbEntity
  8
P-SANR-FIXT
100
AcDbLine
 10
958.6664074432022
 20
2028.499999999997
 30
0.0
 11
957.1664074432019
 21
2029.999999999997
 31
0.0
  0
LINE
  5
127
330
87
100
AcDbEntity
  8
P-SANR-FIXT
100
AcDbLine
 10
957.1664074432019
 20
1969.999999999995
 30
0.0
 11
958.6664074432022
 21
1971.499999999995
 31
0.0
  0
LINE
  5
128
330
87
100
AcDbEntity
  8
P-SANR-FIXT
100
AcDbLine
 10
913.6664074431847
 20
1968.499999999994
 30
0.0
 11
931.2664074432301
 21
1968.499999999994
 31
0.0
  0
LINE
  5
129
330
87
100
AcDbEntity
  8
P-SANR-FIXT
100
AcDbLine
 10
931.2664074432301
 20
2031.499999999996
 30
0.0
 11
913.6664074431847
 21
2031.499999999996
 31
0.0
  0
LINE
  5
12A
330
87
100
AcDbEntity
  8
P-SANR-FIXT
100
AcDbLine
 10
957.1664074432005
 20
1969.999999999994
 30
0.0
 11
957.1664074432005
 21
2029.999999999996
 31
0.0
  0
LINE
  5
12B
330
87
100
AcDbEntity
  8
P-SANR-FIXT
100
AcDbLine
 10
958.6664074432006
 20
2028.499999999996
 30
0.0
 11
958.6664074432006
 21
1971.499999999994
 31
0.0
  0
LINE
  5
12C
330
87
100
AcDbEntity
  8
P-SANR-FIXT
100
AcDbLine
 10
931.2664074432285
 20
2002.606929830275
 30
0.0
 11
931.2664074432285
 21
1997.393070169714
 31
0.0
  0
LINE
  5
12D
330
87
100
AcDbEntity
  8
P-SANR-FIXT
100
AcDbLine
 10
931.2664074432285
 20
1997.393070169713
 30
0.0
 11
931.2664074432285
 21
1988.519497029031
 31
0.0
  0
LINE
  5
12E
330
87
100
AcDbEntity
  8
P-SANR-FIXT
100
AcDbLine
 10
931.2664074432285
 20
2011.480502970959
 30
0.0
 11
931.2664074432285
 21
2002.606929830275
 31
0.0
  0
LINE
  5
12F
330
87
100
AcDbEntity
  8
P-SANR-FIXT
100
AcDbLine
 10
931.2664074432285
 20
1979.645923888378
 30
0.0
 11
931.2664074432285
 21
1975.959168366239
 31
0.0
  0
LINE
  5
130
330
87
100
AcDbEntity
  8
P-SANR-FIXT
100
AcDbLine
 10
931.2664074432285
 20
1975.959168366239
 30
0.0
 11
931.2664074432285
 21
1972.28361402465
 31
0.0
  0
LINE
  5
131
330
87
100
AcDbEntity
  8
P-SANR-FIXT
100
AcDbLine
 10
931.2664074432285
 20
1988.519497029031
 30
0.0
 11
931.2664074432285
 21
1979.645923888378
 31
0.0
  0
LINE
  5
132
330
87
100
AcDbEntity
  8
P-SANR-FIXT
100
AcDbLine
 10
931.2664074432287
 20
1968.608059683091
 30
0.0
 11
931.2664074432287
 21
1968.499999999994
 31
0.0
  0
LINE
  5
133
330
87
100
AcDbEntity
  8
P-SANR-FIXT
100
AcDbLine
 10
931.2664074432285
 20
1972.28361402465
 30
0.0
 11
931.2664074432287
 21
1968.608059683091
 31
0.0
  0
LINE
  5
134
330
87
100
AcDbEntity
  8
P-SANR-FIXT
100
AcDbLine
 10
931.2664074432287
 20
2031.499999999995
 30
0.0
 11
931.2664074432287
 21
2031.391940316898
 31
0.0
  0
LINE
  5
135
330
87
100
AcDbEntity
  8
P-SANR-FIXT
100
AcDbLine
 10
931.2664074432287
 20
2031.391940316898
 30
0.0
 11
931.2664074432285
 21
2027.716385975339
 31
0.0
  0
LINE
  5
136
330
87
100
AcDbEntity
  8
P-SANR-FIXT
100
AcDbLine
 10
931.2664074432285
 20
2024.040831633749
 30
0.0
 11
931.2664074432285
 21
2020.354076111611
 31
0.0
  0
LINE
  5
137
330
87
100
AcDbEntity
  8
P-SANR-FIXT
100
AcDbLine
 10
931.2664074432285
 20
2020.354076111611
 30
0.0
 11
931.2664074432285
 21
2011.480502970959
 31
0.0
  0
LINE
  5
138
330
87
100
AcDbEntity
  8
P-SANR-FIXT
100
AcDbLine
 10
931.2664074432285
 20
2027.716385975339
 30
0.0
 11
931.2664074432285
 21
2024.040831633749
 31
0.0
  0
LINE
  5
139
330
87
100
AcDbEntity
  8
P-SANR-FIXT
100
AcDbLine
 10
931.2664074432285
 20
2020.354076111611
 30
0.0
 11
913.6664074431829
 21
2020.354076111611
 31
0.0
  0
LINE
  5
13A
330
87
100
AcDbEntity
  8
P-SANR-FIXT
100
AcDbLine
 10
913.6664074431829
 20
2002.606929830275
 30
0.0
 11
931.2664074432285
 21
2002.606929830275
 31
0.0
  0
LINE
  5
13B
330
87
100
AcDbEntity
  8
P-SANR-FIXT
100
AcDbLine
 10
913.6664074431829
 20
1997.393070169713
 30
0.0
 11
931.2664074432285
 21
1997.393070169713
 31
0.0
  0
LINE
  5
13C
330
87
100
AcDbEntity
  8
P-SANR-FIXT
100
AcDbLine
 10
913.6664074431829
 20
1979.645923888378
 30
0.0
 11
931.2664074432285
 21
1979.645923888378
 31
0.0
  0
LINE
  5
13D
330
87
100
AcDbEntity
  8
P-SANR-FIXT
100
AcDbLine
 10
913.6664074431829
 20
1975.959168366239
 30
0.0
 11
931.2664074432285
 21
1975.959168366239
 31
0.0
  0
LINE
  5
13E
330
87
100
AcDbEntity
  8
P-SANR-FIXT
100
AcDbLine
 10
913.6664074431829
 20
1968.608059683091
 30
0.0
 11
931.2664074432287
 21
1968.608059683091
 31
0.0
  0
LINE
  5
13F
330
87
100
AcDbEntity
  8
P-SANR-FIXT
100
AcDbLine
 10
913.6664074431829
 20
2031.391940316898
 30
0.0
 11
931.2664074432287
 21
2031.391940316898
 31
0.0
  0
LINE
  5
140
330
87
100
AcDbEntity
  8
P-SANR-FIXT
100
AcDbLine
 10
913.6664074431829
 20
2024.040831633749
 30
0.0
 11
931.2664074432285
 21
2024.040831633749
 31
0.0
  0
LINE
  5
141
330
87
100
AcDbEntity
  8
P-SANR-FIXT
100
AcDbLine
 10
760.9164074431681
 20
2059.499999999993
 30
0.0
 11
760.9164074431681
 21
2039.999999999996
 31
0.0
  0
LINE
  5
142
330
87
100
AcDbEntity
  8
P-SANR-FIXT
100
AcDbLine
 10
870.4164074431682
 20
2039.999999999996
 30
0.0
 11
870.4164074431682
 21
2059.499999999993
 31
0.0
  0
LINE
  5
143
330
87
100
AcDbEntity
  8
P-SANR-FIXT
100
AcDbLine
 10
786.166407443185
 20
2198.499999999995
 30
0.0
 11
783.9836999772342
 21
2073.452773024514
 31
0.0
  0
LINE
  5
144
330
87
100
AcDbEntity
  8
P-SANR-FIXT
100
AcDbLine
 10
847.3491149091389
 20
2073.452773024514
 30
0.0
 11
845.166407443188
 21
2198.499999999995
 31
0.0
  0
LWPOLYLINE
  5
145
330
87
100
AcDbEntity
  8
P-SANR-FIXT
100
AcDbPolyline
 90
       27
 70
   128
 43
0.0
 10
847.3491149091389
 20
2073.452773024514
 10
847.3566033172627
 20
2073.252926606746
 10
847.372077460645
 20
2073.053539501251
 10
847.3955125839571
 20
2072.854930684864
 10
847.4268711960013
 20
2072.657417889325
 10
847.4661031296873
 20
2072.461317092971
 10
847.5131456222905
 20
2072.266942015246
 10
847.5679234158581
 20
2072.074603614808
 10
847.6303488776053
 20
2071.884609592069
 10
847.7003221401103
 20
2071.697263896934
 10
847.7777312610802
 20
2071.512866242551
 10
847.862452402434
 20
2071.331711625832
 10
847.9543500284183
 20
2071.154089855518
 10
848.053277122436
 20
2070.980285088551
 10
848.1590754222395
 20
2070.810575375483
 10
848.2715756731183
 20
2070.64523221565
 10
848.3905978986697
 20
2070.484520122839
 10
848.5159516887231
 20
2070.328696202113
 10
848.6474365039553
 20
2070.178009738505
 10
848.7848419967097
 20
2070.032701798213
 10
848.9279483475101
 20
2069.893004842944
 10
849.076526616723
 20
2069.759142358024
 10
849.2303391108126
 20
2069.631328494875
 10
849.3891397625997
 20
2069.509767728412
 10
849.5526745249174
 20
2069.394654529929
 10
849.7206817770313
 20
2069.28617305599
 10
849.848353384921
 20
2069.209908037779
  0
LWPOLYLINE
  5
146
330
87
100
AcDbEntity
  8
P-SANR-FIXT
100
AcDbPolyline
 90
       27
 70
   128
 43
0.0
 10
781.4844615014522
 20
2069.209908037779
 10
781.6556206645349
 20
2069.313345013005
 10
781.8225065427736
 20
2069.423543790655
 10
781.9848521543634
 20
2069.540328076193
 10
782.1423977809578
 20
2069.663511039674
 10
782.2948913831623
 20
2069.792895614635
 10
782.4420890037433
 20
2069.928274813356
 10
782.5837551579085
 20
2070.069432057999
 10
782.7196632100316
 20
2070.216141527084
 10
782.8495957362218
 20
2070.368168516757
 10
782.973344872154
 20
2070.525269816265
 10
783.0907126456097
 20
2070.687194097042
 10
783.2015112931883
 20
2070.853682314781
 10
783.3055635606894
 20
2071.024468123849
 10
783.4027029866817
 20
2071.199278303383
 10
783.4927741688052
 20
2071.377833194389
 10
783.5756330123834
 20
2071.559847147129
 10
783.6511469609416
 20
2071.745028978106
 10
783.7191952082713
 20
2071.933082435896
 10
783.7796688916927
 20
2072.12370667508
 10
783.8324712662125
 20
2072.316596737541
 10
783.8775178592958
 20
2072.511444040326
 10
783.9147366060029
 20
2072.707936869316
 10
783.9440679642787
 20
2072.905760877902
 10
783.9654650102069
 20
2073.104599589869
 10
783.9788935130784
 20
2073.304134905694
 10
783.9836999772342
 20
2073.452773024514
  0
LINE
  5
147
330
87
100
AcDbEntity
  8
P-SANR-FIXT
100
AcDbLine
 10
781.4844615014522
 20
2069.209908037779
 30
0.0
 11
764.6664074431861
 21
2059.499999999993
 31
0.0
  0
LINE
  5
148
330
87
100
AcDbEntity
  8
P-SANR-FIXT
100
AcDbLine
 10
866.6664074431869
 20
2059.499999999993
 30
0.0
 11
849.848353384921
 21
2069.209908037779
 31
0.0
  0
LINE
  5
149
330
87
100
AcDbEntity
  8
P-SANR-FIXT
100
AcDbLine
 10
759.4235445474006
 20
2059.499999999991
 30
0.0
 11
760.9164074431669
 21
2059.499999999991
 31
0.0
  0
LINE
  5
14A
330
87
100
AcDbEntity
  8
P-SANR-FIXT
100
AcDbLine
 10
760.9164074431669
 20
2059.499999999991
 30
0.0
 11
783.302219244792
 21
2059.499999999991
 31
0.0
  0
LINE
  5
14B
330
87
100
AcDbEntity
  8
P-SANR-FIXT
100
AcDbLine
 10
783.302219244792
 20
2059.499999999991
 30
0.0
 11
789.041379898091
 21
2059.499999999991
 31
0.0
  0
LINE
  5
14C
330
87
100
AcDbEntity
  8
P-SANR-FIXT
100
AcDbLine
 10
789.041379898091
 20
2059.499999999991
 30
0.0
 11
842.1456138577482
 21
2059.499999999991
 31
0.0
  0
LINE
  5
14D
330
87
100
AcDbEntity
  8
P-SANR-FIXT
100
AcDbLine
 10
842.1456138577486
 20
2059.499999999991
 30
0.0
 11
848.6303417945014
 21
2059.499999999991
 31
0.0
  0
LINE
  5
14E
330
87
100
AcDbEntity
  8
P-SANR-FIXT
100
AcDbLine
 10
848.6303417945014
 20
2059.499999999991
 30
0.0
 11
870.416407443167
 21
2059.499999999991
 31
0.0
  0
LINE
  5
14F
330
87
100
AcDbEntity
  8
P-SANR-FIXT
100
AcDbLine
 10
870.416407443167
 20
2059.499999999991
 30
0.0
 11
871.9092703389447
 21
2059.499999999991
 31
0.0
  0
LINE
  5
150
330
87
100
AcDbEntity
  8
P-SANR-FIXT
100
AcDbLine
 10
871.9092703389447
 20
2039.999999999995
 30
0.0
 11
870.416407443167
 21
2039.999999999995
 31
0.0
  0
LINE
  5
151
330
87
100
AcDbEntity
  8
P-SANR-FIXT
100
AcDbLine
 10
870.416407443167
 20
2039.999999999995
 30
0.0
 11
848.6303417945014
 21
2039.999999999995
 31
0.0
  0
LINE
  5
152
330
87
100
AcDbEntity
  8
P-SANR-FIXT
100
AcDbLine
 10
848.6303417945014
 20
2039.999999999995
 30
0.0
 11
842.1456138577488
 21
2039.999999999995
 31
0.0
  0
LINE
  5
153
330
87
100
AcDbEntity
  8
P-SANR-FIXT
100
AcDbLine
 10
842.1456138577488
 20
2039.999999999995
 30
0.0
 11
789.0413798980912
 21
2039.999999999995
 31
0.0
  0
LINE
  5
154
330
87
100
AcDbEntity
  8
P-SANR-FIXT
100
AcDbLine
 10
789.041379898091
 20
2039.999999999995
 30
0.0
 11
783.302219244792
 21
2039.999999999995
 31
0.0
  0
LINE
  5
155
330
87
100
AcDbEntity
  8
P-SANR-FIXT
100
AcDbLine
 10
783.302219244792
 20
2039.999999999995
 30
0.0
 11
760.9164074431669
 21
2039.999999999995
 31
0.0
  0
LINE
  5
156
330
87
100
AcDbEntity
  8
P-SANR-FIXT
100
AcDbLine
 10
760.9164074431669
 20
2039.999999999995
 30
0.0
 11
759.4235445474006
 21
2039.999999999995
 31
0.0
  0
LINE
  5
157
330
87
100
AcDbEntity
  8
P-SANR-FIXT
100
AcDbLine
 10
759.4235445474006
 20
2059.499999999991
 30
0.0
 11
759.4235445474006
 21
2039.999999999995
 31
0.0
  0
LINE
  5
158
330
87
100
AcDbEntity
  8
P-SANR-FIXT
100
AcDbLine
 10
783.302219244792
 20
2039.999999999995
 30
0.0
 11
783.302219244792
 21
2059.499999999991
 31
0.0
  0
LINE
  5
159
330
87
100
AcDbEntity
  8
P-SANR-FIXT
100
AcDbLine
 10
870.416407443167
 20
2039.999999999995
 30
0.0
 11
870.416407443167
 21
2059.499999999991
 31
0.0
  0
LINE
  5
15A
330
87
100
AcDbEntity
  8
P-SANR-FIXT
100
AcDbLine
 10
871.9092703389447
 20
2039.999999999995
 30
0.0
 11
871.9092703389447
 21
2059.499999999991
 31
0.0
  0
LINE
  5
15B
330
87
100
AcDbEntity
  8
P-SANR-FIXT
100
AcDbLine
 10
786.1664074431835
 20
2198.499999999993
 30
0.0
 11
845.1664074431867
 21
2198.499999999993
 31
0.0
  0
LINE
  5
15C
330
87
100
AcDbEntity
  8
P-SANR-FIXT
100
AcDbLine
 10
786.7670951759094
 20
2203.500000000044
 30
0.0
 11
786.1664074431912
 21
2202.899312267326
 31
0.0
  0
LINE
  5
15D
330
87
100
AcDbEntity
  8
P-SANR-FIXT
100
AcDbLine
 10
845.1664074431818
 20
2202.899312267326
 30
0.0
 11
844.5657197104639
 21
2203.500000000044
 31
0.0
  0
LINE
  5
15E
330
87
100
AcDbEntity
  8
P-SANR-FIXT
100
AcDbLine
 10
786.1664074431912
 20
2202.899312267326
 30
0.0
 11
786.1664074431912
 21
2198.999999999998
 31
0.0
  0
LINE
  5
15F
330
87
100
AcDbEntity
  8
P-SANR-FIXT
100
AcDbLine
 10
845.1664074431818
 20
2198.999999999998
 30
0.0
 11
845.1664074431818
 21
2202.899312267326
 31
0.0
  0
LINE
  5
160
330
87
100
AcDbEntity
  8
P-SANR-FIXT
100
AcDbLine
 10
786.1664074431912
 20
2198.999999999998
 30
0.0
 11
786.7838560214632
 21
2198.499999999995
 31
0.0
  0
LINE
  5
161
330
87
100
AcDbEntity
  8
P-SANR-FIXT
100
AcDbLine
 10
844.5489588649099
 20
2198.499999999995
 30
0.0
 11
845.1664074431818
 21
2198.999999999998
 31
0.0
  0
LINE
  5
162
330
87
100
AcDbEntity
  8
P-SANR-FIXT
100
AcDbLine
 10
844.5657197104621
 20
2203.500000000043
 30
0.0
 11
786.767095175908
 21
2203.500000000043
 31
0.0
  0
LINE
  5
163
330
87
100
AcDbEntity
  8
P-SANR-FIXT
100
AcDbLine
 10
786.1664074431899
 20
2202.899312267325
 30
0.0
 11
845.1664074431803
 21
2202.899312267325
 31
0.0
  0
LINE
  5
164
330
87
100
AcDbEntity
  8
P-SANR-FIXT
100
AcDbLine
 10
786.1664074431899
 20
2198.999999999997
 30
0.0
 11
845.1664074431803
 21
2198.999999999997
 31
0.0
  0
LINE
  5
165
330
87
100
AcDbEntity
  8
P-SANR-FIXT
100
AcDbLine
 10
775.6664074431864
 20
1966.999999999995
 30
0.0
 11
775.6664074431864
 21
1942.999999999996
 31
0.0
  0
LINE
  5
166
330
87
100
AcDbEntity
  8
P-SANR-FIXT
100
AcDbLine
 10
879.5960880453998
 20
2032.999999999996
 30
0.0
 11
871.909270338946
 21
2032.999999999996
 31
0.0
  0
LINE
  5
167
330
87
100
AcDbEntity
  8
P-SANR-FIXT
100
AcDbLine
 10
759.4235445474026
 20
2032.999999999996
 30
0.0
 11
757.7367268409733
 21
2032.999999999996
 31
0.0
  0
LINE
  5
168
330
87
100
AcDbEntity
  8
P-SANR-FIXT
100
AcDbLine
 10
757.7367268409733
 20
1966.999999999995
 30
0.0
 11
775.6664074431864
 21
1966.999999999995
 31
0.0
  0
LINE
  5
169
330
87
100
AcDbEntity
  8
P-SANR-FIXT
100
AcDbLine
 10
876.389135429869
 20
1966.999999999995
 30
0.0
 11
879.5960880453998
 21
1966.999999999995
 31
0.0
  0
LINE
  5
16A
330
87
100
AcDbEntity
  8
P-SANR-FIXT
100
AcDbLine
 10
756.0046760334044
 20
2033.999999999996
 30
0.0
 11
753.6664074431866
 21
2038.049999999996
 31
0.0
  0
LINE
  5
16B
330
87
100
AcDbEntity
  8
P-SANR-FIXT
100
AcDbLine
 10
753.6664074431866
 20
1961.949999999995
 30
0.0
 11
756.0046760334044
 21
1965.999999999995
 31
0.0
  0
LINE
  5
16C
330
87
100
AcDbEntity
  8
P-SANR-FIXT
100
AcDbLine
 10
753.6664074431866
 20
2038.049999999996
 30
0.0
 11
752.6664074431888
 21
2038.049999999996
 31
0.0
  0
LINE
  5
16D
330
87
100
AcDbEntity
  8
P-SANR-FIXT
100
AcDbLine
 10
752.6664074431888
 20
1961.949999999995
 30
0.0
 11
753.6664074431866
 21
1961.949999999995
 31
0.0
  0
LINE
  5
16E
330
87
100
AcDbEntity
  8
P-SANR-FIXT
100
AcDbLine
 10
837.6664074431865
 20
1913.999999999996
 30
0.0
 11
838.6664074431864
 21
1914.999999999996
 31
0.0
  0
LINE
  5
16F
330
87
100
AcDbEntity
  8
P-SANR-FIXT
100
AcDbLine
 10
792.6664074431865
 20
1914.999999999996
 30
0.0
 11
793.6664074431866
 21
1913.999999999996
 31
0.0
  0
LWPOLYLINE
  5
170
330
87
100
AcDbEntity
  8
P-SANR-FIXT
100
AcDbPolyline
 90
       39
 70
   128
 43
0.0
 10
787.9441852209644
 20
1930.020077232054
 10
787.4257044524254
 20
1930.059340971619
 10
786.9092085440024
 20
1930.119307005102
 10
786.3955237789688
 20
1930.199879399642
 10
785.8854719433687
 20
1930.300929256597
 10
785.3798690113339
 20
1930.42229491775
 10
784.879523839699
 20
1930.563782223934
 10
784.3852368740044
 20
1930.725164825641
 10
783.8977988679528
 20
1930.906184545136
 10
783.4179896183727
 20
1931.106551789482
 10
782.9465767177095
 20
1931.325946013831
 10
782.4843143260416
 20
1931.564016234226
 10
782.0319419645849
 20
1931.8203815891
 10
781.5901833326168
 20
1932.094631948573
 10
781.1597451497118
 20
1932.386328570574
 10
780.7413160251402
 20
1932.695004802733
 10
780.3355653562418
 20
1933.020166828926
 10
779.9431422575306
 20
1933.361294459275
 10
779.5646745222528
 20
1933.717841962342
 10
779.2007676180489
 20
1934.08923893818
 10
778.8520037183364
 20
1934.474891230857
 10
778.5189407709558
 20
1934.874181878971
 10
778.2021116055735
 20
1935.286472102664
 10
777.9020230812672
 20
1935.711102325528
 10
777.6191552756605
 20
1936.147393229789
 10
777.3539607169005
 20
1936.59464684307
 10
777.106863659709
 20
1937.052147655
 10
776.878259406667
 20
1937.519163761875
 10
776.6685136758122
 20
1937.994948037548
 10
776.4779620155713
 20
1938.478739328674
 10
776.3069092679515
 20
1938.969763672389
 10
776.1556290808597
 20
1939.467235534491
 10
776.0243634703241
 20
1939.970359066121
 10
775.9133224333193
 20
1940.478329376957
 10
775.8226836118174
 20
1940.990333822861
 10
775.7525920085972
 20
1941.505553305944
 10
775.7031597552721
 20
1942.023163584938
 10
775.6744659329023
 20
1942.542336593816
 10
775.6664074431864
 20
1942.999999999996
  0
LWPOLYLINE
  5
171
330
87
100
AcDbEntity
  8
P-SANR-FIXT
100
AcDbPolyline
 90
       29
 70
   128
 43
0.0
 10
854.4841708636445
 20
1937.58331579856
 10
854.2581083186878
 20
1937.115064077413
 10
854.0135015250942
 20
1936.656226998356
 10
853.7507418015543
 20
1936.207538602836
 10
853.4702495075727
 20
1935.76971669657
 10
853.1724733709847
 20
1935.343461701211
 10
852.8578897700869
 20
1934.929455533822
 10
852.527001971533
 20
1934.528360515956
 10
852.1803393252151
 20
1934.140818314077
 10
851.8184564174163
 20
1933.767448913037
 10
851.4419321835918
 20
1933.408849624231
 10
851.051368982195
 20
1933.065594130023
 10
850.6473916310319
 20
1932.73823156598
 10
850.2306464076875
 20
1932.427285642371
 10
849.801800015618
 20
1932.133253806342
 10
849.3615385175688
 20
1931.856606446107
 10
848.910566238019
 20
1931.597786138429
 10
848.4496046364133
 20
1931.357206940585
 10
847.9793911529817
 20
1931.135253727974
 10
847.5006780289904
 20
1930.932281578387
 10
847.0142311033178
 20
1930.748615203965
 10
846.5208285872755
 20
1930.584548431728
 10
846.0212598196349
 20
1930.440343733511
 10
845.516324003856
 20
1930.316231806071
 10
845.0068289295298
 20
1930.212411202014
 10
844.4935896800885
 20
1930.129048012161
 10
843.9774273288465
 20
1930.066275599832
 10
843.4591676254566
 20
1930.024194387495
 10
843.3886296654087
 20
1930.020077232054
  0
LINE
  5
172
330
87
100
AcDbEntity
  8
P-SANR-FIXT
100
AcDbLine
 10
838.666407443187
 20
1914.999999999996
 30
0.0
 11
838.666407443187
 21
1925.027799244384
 31
0.0
  0
LINE
  5
173
330
87
100
AcDbEntity
  8
P-SANR-FIXT
100
AcDbLine
 10
792.6664074431863
 20
1925.027799244384
 30
0.0
 11
792.6664074431863
 21
1914.999999999996
 31
0.0
  0
LWPOLYLINE
  5
174
330
87
100
AcDbEntity
  8
P-SANR-FIXT
100
AcDbPolyline
 90
       39
 70
   128
 43
0.0
 10
792.6664074431865
 20
1925.027799244384
 10
792.6624079764915
 20
1925.227745915317
 10
792.6504159746996
 20
1925.42737271423
 10
792.6304506224559
 20
1925.626360280829
 10
792.6025438600646
 20
1925.824390277455
 10
792.5667403323928
 20
1926.02114589836
 10
792.5230973174466
 20
1926.21631237652
 10
792.4716846347402
 20
1926.409577487205
 10
792.4125845335987
 20
1926.600632047465
 10
792.3458915615761
 20
1926.78917041076
 10
792.2717124132009
 20
1926.974890955927
 10
792.1901657592862
 20
1927.157496569714
 10
792.1013820570829
 20
1927.336695122092
 10
792.0055033415747
 20
1927.512199933603
 10
791.9026829982535
 20
1927.683730233989
 10
791.7930855177348
 20
1927.85101161136
 10
791.676886232608
 20
1928.013776451196
 10
791.5542710369412
 20
1928.171764364477
 10
791.4254360888909
 20
1928.324722604241
 10
791.2905874968911
 20
1928.472406469937
 10
791.1499409899223
 20
1928.614579698882
 10
791.003721572393
 20
1928.751014844239
 10
790.8521631641794
 20
1928.881493638879
 10
790.6955082264038
 20
1929.005807344566
 10
790.5340073735487
 20
1929.123757085889
 10
790.3679189725271
 20
1929.235154168424
 10
790.1975087293505
 20
1929.339820380601
 10
790.0230492640553
 20
1929.437588278809
 10
789.8448196745699
 20
1929.528301455267
 10
789.663105090218
 20
1929.611814788243
 10
789.47819621557
 20
1929.68799467422
 10
789.2903888653805
 20
1929.756719241632
 10
789.0999834913464
 20
1929.81787854583
 10
788.9072847014484
 20
1929.871374744976
 10
788.7126007726436
 20
1929.917122256561
 10
788.5162431576876
 20
1929.955047894327
 10
788.3185259868772
 20
1929.985090985343
 10
788.119765565508
 20
1930.007203467073
 10
787.9441852209643
 20
1930.020077232054
  0
LWPOLYLINE
  5
175
330
87
100
AcDbEntity
  8
P-SANR-FIXT
100
AcDbPolyline
 90
       39
 70
   128
 43
0.0
 10
843.3886296654087
 20
1930.020077232054
 10
843.1892139852013
 20
1930.00497579376
 10
842.9905617127309
 20
1929.981911934728
 10
842.7929906492567
 20
1929.950922552212
 10
842.5968168663336
 20
1929.912057222615
 10
842.4023542001663
 20
1929.865378122171
 10
842.2099137495374
 20
1929.810959927485
 10
842.0198033781165
 20
1929.748889696059
 10
841.8323272219428
 20
1929.679266727023
 10
841.6477852028734
 20
1929.602202402274
 10
841.4664725487723
 20
1929.517820008294
 10
841.2886793212077
 20
1929.426254538911
 10
841.1146899514166
 20
1929.327652479344
 10
840.9447827852753
 20
1929.222171571854
 10
840.7792296380041
 20
1929.109980563393
 10
840.6182953593226
 20
1928.991258935639
 10
840.4622374097462
 20
1928.866196617872
 10
840.3113054487034
 20
1928.734993683123
 10
840.1657409351352
 20
1928.597860028098
 10
840.0257767412105
 20
1928.45501503739
 10
839.8916367797825
 20
1928.306687232515
 10
839.7635356461748
 20
1928.153113906317
 10
839.6416782748739
 20
1927.994540743358
 10
839.526259611679
 20
1927.831221426872
 10
839.4174643018304
 20
1927.663417232925
 10
839.315466394615
 20
1927.491396612433
 10
839.220429064926
 20
1927.31543476169
 10
839.1325043522176
 20
1927.135813182123
 10
839.0518329172735
 20
1926.952819229941
 10
838.9785438171807
 20
1926.766745656431
 10
838.9127542988653
 20
1926.577890139618
 10
838.8545696115224
 20
1926.38655480804
 10
838.8040828382395
 20
1926.193045757413
 10
838.7613747470837
 20
1925.997672560938
 10
838.7265136618907
 20
1925.800747774051
 10
838.6995553529599
 20
1925.602586434404
 10
838.680542947835
 20
1925.403505557868
 10
838.6695068623081
 20
1925.203823631377
 10
838.6664074431864
 20
1925.027799244384
  0
LINE
  5
176
330
87
100
AcDbEntity
  8
P-SANR-FIXT
100
AcDbLine
 10
884.6664074431847
 20
2038.049999999996
 30
0.0
 11
883.6664074431867
 21
2038.049999999996
 31
0.0
  0
LINE
  5
177
330
87
100
AcDbEntity
  8
P-SANR-FIXT
100
AcDbLine
 10
883.6664074431867
 20
1961.949999999995
 30
0.0
 11
884.6664074431847
 21
1961.949999999995
 31
0.0
  0
LINE
  5
178
330
87
100
AcDbEntity
  8
P-SANR-FIXT
100
AcDbLine
 10
883.6664074431867
 20
2038.049999999996
 30
0.0
 11
881.3281388529688
 21
2033.999999999996
 31
0.0
  0
LINE
  5
179
330
87
100
AcDbEntity
  8
P-SANR-FIXT
100
AcDbLine
 10
881.3281388529688
 20
1965.999999999996
 30
0.0
 11
883.6664074431867
 21
1961.949999999996
 31
0.0
  0
LWPOLYLINE
  5
17A
330
87
100
AcDbEntity
  8
P-SANR-FIXT
100
AcDbPolyline
 90
       28
 70
   128
 43
0.0
 10
881.3281388529688
 20
1965.999999999996
 10
881.2867640628782
 20
1966.068463665229
 10
881.2426845518182
 20
1966.135218016525
 10
881.1959708376029
 20
1966.200156261161
 10
881.1466976522103
 20
1966.263174511798
 10
881.0949438222261
 20
1966.32417195268
 10
881.0407921427374
 20
1966.383051000912
 10
880.9843292448803
 20
1966.439717462579
 10
880.9256454572462
 20
1966.494080683428
 10
880.8648346613772
 20
1966.546053693903
 10
880.8019941415739
 20
1966.595553348277
 10
880.7372244292631
 20
1966.642500457659
 10
880.6706291421676
 20
1966.68681991669
 10
880.6023148185404
 20
1966.728440823691
 10
880.5323907467267
 20
1966.767296594088
 10
880.4609687903244
 20
1966.803325066937
 10
880.3881632092284
 20
1966.836468604368
 10
880.3140904768374
 20
1966.866674183792
 10
880.2388690937217
 20
1966.893893482724
 10
880.1626193980482
 20
1966.918082956092
 10
880.0854633730637
 20
1966.9392039059
 10
880.0075244519497
 20
1966.957222543133
 10
879.9289273203536
 20
1966.972110041816
 10
879.8497977169194
 20
1966.983842585126
 10
879.7702622321324
 20
1966.992401403498
 10
879.6904481058021
 20
1966.997772804647
 10
879.6104830235043
 20
1966.999948195477
 10
879.5960880453998
 20
1966.999999999996
  0
LWPOLYLINE
  5
17B
330
87
100
AcDbEntity
  8
P-SANR-FIXT
100
AcDbPolyline
 90
       28
 70
   128
 43
0.0
 10
879.5960880453998
 20
2032.999999999996
 10
879.676066713773
 20
2033.001599786674
 10
879.7559174333382
 20
2033.00639658739
 10
879.8355124599778
 20
2033.014382728288
 10
879.9147244586285
 20
2033.025545433245
 10
879.9934267069899
 20
2033.039866844314
 10
880.071493298254
 20
2033.057324050291
 10
880.1487993425281
 20
2033.077889123374
 10
880.2252211666319
 20
2033.101529163831
 10
880.30063651195
 20
2033.12820635264
 10
880.3749247300171
 20
2033.15787801199
 10
880.4479669755318
 20
2033.190496673556
 10
880.5196463964827
 20
2033.226010154438
 10
880.5898483210871
 20
2033.264361640641
 10
880.6584604412417
 20
2033.305489777969
 10
880.7253729921898
 20
2033.349328770177
 10
880.7904789281247
 20
2033.395808484227
 10
880.8536740934368
 20
2033.444854562494
 10
880.9148573893429
 20
2033.496388541714
 10
880.973930935621
 20
2033.550327978514
 10
881.0308002271987
 20
2033.606586581302
 10
881.0853742853417
 20
2033.665074348313
 10
881.1375658031977
 20
2033.725697711599
 10
881.1872912854724
 20
2033.788359686709
 10
881.2344711820017
 20
2033.852960027851
 10
881.2790300150156
 20
2033.919395388259
 10
881.3208964998864
 20
2033.987559485531
 10
881.3281388529688
 20
2033.999999999996
  0
LWPOLYLINE
  5
17C
330
87
100
AcDbEntity
  8
P-SANR-FIXT
100
AcDbPolyline
 90
       28
 70
   128
 43
0.0
 10
757.7367268409733
 20
1966.999999999995
 10
757.6567481726002
 20
1966.998400213318
 10
757.576897453035
 20
1966.993603412601
 10
757.4973024263955
 20
1966.985617271703
 10
757.418090427745
 20
1966.974454566747
 10
757.3393881793832
 20
1966.960133155678
 10
757.2613215881191
 20
1966.9426759497
 10
757.1840155438451
 20
1966.922110876617
 10
757.1075937197412
 20
1966.89847083616
 10
757.0321783744232
 20
1966.871793647351
 10
756.9578901563561
 20
1966.842121988001
 10
756.8848479108413
 20
1966.809503326436
 10
756.8131684898904
 20
1966.773989845554
 10
756.7429665652859
 20
1966.735638359351
 10
756.6743544451317
 20
1966.694510222022
 10
756.6074418941833
 20
1966.650671229815
 10
756.5423359582484
 20
1966.604191515764
 10
756.4791407929363
 20
1966.555145437497
 10
756.4179574970303
 20
1966.503611458277
 10
756.3588839507522
 20
1966.449672021477
 10
756.3020146591743
 20
1966.39341341869
 10
756.2474406010318
 20
1966.334925651678
 10
756.1952490831754
 20
1966.274302288393
 10
756.1455236009006
 20
1966.211640313282
 10
756.0983437043713
 20
1966.14703997214
 10
756.0537848713575
 20
1966.080604611732
 10
756.0119183864867
 20
1966.012440514461
 10
756.0046760334044
 20
1965.999999999995
  0
LWPOLYLINE
  5
17D
330
87
100
AcDbEntity
  8
P-SANR-FIXT
100
AcDbPolyline
 90
       28
 70
   128
 43
0.0
 10
756.0046760334044
 20
2033.999999999996
 10
756.0460508234948
 20
2033.931536334764
 10
756.090130334555
 20
2033.864781983468
 10
756.1368440487703
 20
2033.799843738832
 10
756.1861172341628
 20
2033.736825488194
 10
756.2378710641474
 20
2033.675828047312
 10
756.2920227436356
 20
2033.61694899908
 10
756.3484856414929
 20
2033.560282537414
 10
756.4071694291268
 20
2033.505919316564
 10
756.4679802249959
 20
2033.453946306089
 10
756.5308207447991
 20
2033.404446651715
 10
756.59559045711
 20
2033.357499542333
 10
756.6621857442055
 20
2033.313180083302
 10
756.7305000678327
 20
2033.271559176302
 10
756.8004241396465
 20
2033.232703405905
 10
756.8718460960488
 20
2033.196674933055
 10
756.9446516771447
 20
2033.163531395624
 10
757.0187244095357
 20
2033.1333258162
 10
757.0939457926514
 20
2033.106106517269
 10
757.170195488325
 20
2033.0819170439
 10
757.2473515133094
 20
2033.060796094092
 10
757.3252904344237
 20
2033.042777456859
 10
757.4038875660197
 20
2033.027889958176
 10
757.4830171694538
 20
2033.016157414866
 10
757.5625526542406
 20
2033.007598596494
 10
757.6423667805711
 20
2033.002227195346
 10
757.7223318628689
 20
2033.000051804516
 10
757.7367268409733
 20
2032.999999999996
  0
LINE
  5
17E
330
87
100
AcDbEntity
  8
P-SANR-FIXT
100
AcDbLine
 10
854.4841708636445
 20
1937.58331579856
 30
0.0
 11
876.3891354298701
 21
1966.999999999995
 31
0.0
  0
LINE
  5
17F
330
87
100
AcDbEntity
  8
P-SANR-FIXT
100
AcDbLine
 10
760.9164074431681
 20
2039.999999999996
 30
0.0
 11
760.9164074431681
 21
2030.999999999996
 31
0.0
  0
LINE
  5
180
330
87
100
AcDbEntity
  8
P-SANR-FIXT
100
AcDbLine
 10
870.4164074431682
 20
2030.999999999996
 30
0.0
 11
870.4164074431682
 21
2039.999999999996
 31
0.0
  0
LINE
  5
181
330
87
100
AcDbEntity
  8
P-SANR-FIXT
100
AcDbLine
 10
760.9164074431681
 20
2030.999999999996
 30
0.0
 11
760.9164074431681
 21
2023.999999999996
 31
0.0
  0
LINE
  5
182
330
87
100
AcDbEntity
  8
P-SANR-FIXT
100
AcDbLine
 10
870.4164074431682
 20
2023.999999999996
 30
0.0
 11
870.4164074431682
 21
2030.999999999996
 31
0.0
  0
SPLINE
  5
183
330
87
100
AcDbEntity
  8
P-SANR-FIXT
100
AcDbSpline
210
0.0
220
0.0
230
1.0
 70
     8
 71
     3
 72
    22
 73
    18
 74
     0
 42
0.000000001
 43
0.0000000001
 40
0.0
 40
0.0
 40
0.0
 40
0.0
 40
0.1
 40
0.15
 40
0.2
 40
0.25
 40
0.3
 40
0.35
 40
0.4
 40
0.475
 40
0.55
 40
0.5875
 40
0.625
 40
0.7
 40
0.775
 40
0.85
 40
1.0
 40
1.0
 40
1.0
 40
1.0
 10
853.9758587605124
 20
1942.999999999995
 30
0.0
 10
853.7068691327418
 20
1943.71826885171
 30
0.0
 10
853.2846759917712
 20
1944.868409329414
 30
0.0
 10
852.7225438387182
 20
1946.55042855042
 30
0.0
 10
852.3087023033475
 20
1947.880143890603
 30
0.0
 10
851.913081531948
 20
1949.302253625636
 30
0.0
 10
851.5419690749563
 20
1950.811509562398
 30
0.0
 10
851.1974902601744
 20
1952.376218562632
 30
0.0
 10
850.8242798308424
 20
1954.220984758555
 30
0.0
 10
850.457224302378
 20
1956.384277727683
 30
0.0
 10
850.1842276469471
 20
1958.485819069366
 30
0.0
 10
849.9965092469187
 20
1960.173188672012
 30
0.0
 10
849.8270100332318
 20
1961.858774985464
 30
0.0
 10
849.6715107712773
 20
1963.998034981175
 30
0.0
 10
849.5511806331974
 20
1966.582293566501
 30
0.0
 10
849.4518320693991
 20
1970.018118413467
 30
0.0
 10
849.4692918147732
 20
1972.608470214744
 30
0.0
 10
849.5201617933483
 20
1974.33974596215
 30
0.0
  0
SPLINE
  5
184
330
87
100
AcDbEntity
  8
P-SANR-FIXT
100
AcDbSpline
210
0.0
220
0.0
230
1.0
 70
     8
 71
     3
 72
    10
 73
     6
 74
     0
 42
0.000000001
 43
0.0000000001
 40
0.0
 40
0.0
 40
0.0
 40
0.0
 40
0.3333333333333333
 40
0.6666666666666666
 40
1.0
 40
1.0
 40
1.0
 40
1.0
 10
781.4692052581127
 20
1974.33974596215
 30
0.0
 10
780.3575118724103
 20
1972.830324826992
 30
0.0
 10
778.3233448458234
 20
1970.271546816415
 30
0.0
 10
776.1841591776675
 20
1967.608512093058
 30
0.0
 10
775.6664074431849
 20
1967.026698112579
 30
0.0
 10
775.6664074431849
 20
1966.999999999994
 30
0.0
  0
SPLINE
  5
185
330
87
100
AcDbEntity
  8
P-SANR-FIXT
100
AcDbSpline
210
0.0
220
0.0
230
1.0
 70
     8
 71
     3
 72
    25
 73
    21
 74
     0
 42
0.000000001
 43
0.0000000001
 40
0.0
 40
0.0
 40
0.0
 40
0.0
 40
0.0714285714285714
 40
0.1428571428571428
 40
0.2142857142857143
 40
0.25
 40
0.2857142857142857
 40
0.3571428571428571
 40
0.4285714285714286
 40
0.5
 40
0.5357142857142857
 40
0.5714285714285714
 40
0.625
 40
0.6785714285714287
 40
0.7053571428571429
 40
0.7321428571428572
 40
0.7857142857142857
 40
0.8392857142857142
 40
0.8928571428571427
 40
1.0
 40
1.0
 40
1.0
 40
1.0
 10
850.6664074431844
 20
1982.999999999995
 30
0.0
 10
850.2221703842801
 20
1983.887402322703
 30
0.0
 10
849.3739890440023
 20
1985.717348554948
 30
0.0
 10
848.2747320595635
 20
1988.613798259105
 30
0.0
 10
847.4821086188956
 20
1991.188517654132
 30
0.0
 10
846.9641254982869
 20
1993.320815559332
 30
0.0
 10
846.5629103003243
 20
1995.464259907926
 30
0.0
 10
846.267117962326
 20
1998.24519618977
 30
0.0
 10
846.2352918292605
 20
2001.598115385021
 30
0.0
 10
846.540963571932
 20
2004.343647667298
 30
0.0
 10
846.9443796234662
 20
2006.520941000205
 30
0.0
 10
847.3629486504
 20
2008.371366553238
 30
0.0
 10
847.9584498571293
 20
2010.425181816239
 30
0.0
 10
848.6311954519701
 20
2012.293357595853
 30
0.0
 10
849.20122996702
 20
2013.736622288456
 30
0.0
 10
849.785796111054
 20
2015.143338565581
 30
0.0
 10
850.5747897594442
 20
2016.846454494536
 30
0.0
 10
851.5625667826393
 20
2018.792141105792
 30
0.0
 10
852.884057681746
 20
2021.247615802302
 30
0.0
 10
853.8915120404052
 20
2022.939274079319
 30
0.0
 10
854.5508516336317
 20
2023.999999999995
 30
0.0
  0
LINE
  5
186
330
87
100
AcDbEntity
  8
P-SANR-FIXT
100
AcDbLine
 10
841.4663683759171
 20
2023.999999999995
 30
0.0
 11
841.4663683759171
 21
2030.999999999995
 31
0.0
  0
LINE
  5
187
330
87
100
AcDbEntity
  8
P-SANR-FIXT
100
AcDbLine
 10
789.8664465104392
 20
2030.999999999995
 30
0.0
 11
789.8664465104392
 21
2023.999999999995
 31
0.0
  0
SPLINE
  5
188
330
87
100
AcDbEntity
  8
P-SANR-FIXT
100
AcDbSpline
210
0.0
220
0.0
230
1.0
 70
     8
 71
     3
 72
    26
 73
    22
 74
     0
 42
0.000000001
 43
0.0000000001
 40
0.0
 40
0.0
 40
0.0
 40
0.0
 40
0.1428571428571428
 40
0.2142857142857143
 40
0.25
 40
0.2857142857142857
 40
0.3214285714285714
 40
0.3571428571428571
 40
0.3928571428571428
 40
0.4285714285714286
 40
0.4642857142857144
 40
0.5
 40
0.5714285714285714
 40
0.625
 40
0.6785714285714287
 40
0.7053571428571429
 40
0.7321428571428572
 40
0.7857142857142857
 40
0.8392857142857142
 40
0.8928571428571427
 40
1.0
 40
1.0
 40
1.0
 40
1.0
 10
776.7819632527383
 20
2023.999999999995
 30
0.0
 10
777.6610827103736
 20
2022.585698772427
 30
0.0
 10
779.0024155053638
 20
2020.287541928075
 30
0.0
 10
780.5417019748349
 20
2017.288058591685
 30
0.0
 10
781.3900771756114
 20
2015.485722429009
 30
0.0
 10
781.9897973408598
 20
2014.09430179143
 30
0.0
 10
782.5608271989449
 20
2012.657491476224
 30
0.0
 10
783.1056396775964
 20
2011.175136952153
 30
0.0
 10
783.6027982529821
 20
2009.654579422916
 30
0.0
 10
784.0290756230889
 20
2008.107560585923
 30
0.0
 10
784.3885881594283
 20
2006.520724428801
 30
0.0
 10
784.7917664850085
 20
2004.344154184909
 30
0.0
 10
785.0669464839183
 20
2001.869591043679
 30
0.0
 10
785.0820371607506
 20
1999.09278690757
 30
0.0
 10
784.9326190201193
 20
1996.98499258279
 30
0.0
 10
784.724415274665
 20
1995.337000114982
 30
0.0
 10
784.458898115253
 20
1993.723083057355
 30
0.0
 10
783.9937879950444
 20
1991.715405679492
 30
0.0
 10
783.296082350323
 20
1989.379572726286
 30
0.0
 10
782.2622772506565
 20
1986.419600898157
 30
0.0
 10
781.3327630315417
 20
1984.331103484057
 30
0.0
 10
780.6664074431851
 20
1982.999999999995
 30
0.0
  0
LWPOLYLINE
  5
189
330
87
100
AcDbEntity
  8
P-SANR-FIXT
100
AcDbPolyline
 90
        5
 70
   128
 43
0.0
 10
871.9092703389444
 20
2032.999999999995
 10
871.6927380212672
 20
2032.412214338314
 10
871.4839026308514
 20
2030.669606508602
 10
871.2900860417688
 20
2027.831770364269
 10
871.1183322548965
 20
2023.999999999995
  0
SPLINE
  5
18A
330
87
100
AcDbEntity
  8
P-SANR-FIXT
100
AcDbSpline
210
0.0
220
0.0
230
1.0
 70
     8
 71
     3
 72
    24
 73
    20
 74
     0
 42
0.000000001
 43
0.0000000001
 40
0.0
 40
0.0
 40
0.0
 40
0.0
 40
0.0714285714285714
 40
0.1428571428571428
 40
0.2142857142857143
 40
0.25
 40
0.2857142857142857
 40
0.3571428571428571
 40
0.3928571428571428
 40
0.4285714285714286
 40
0.5
 40
0.5357142857142857
 40
0.5714285714285714
 40
0.625
 40
0.6785714285714287
 40
0.7053571428571429
 40
0.7321428571428572
 40
0.7857142857142857
 40
1.0
 40
1.0
 40
1.0
 40
1.0
 10
849.552620403988
 20
1974.787551560696
 30
0.0
 10
850.5308422018526
 20
1974.978091044751
 30
0.0
 10
852.4947998511406
 20
1975.281627353746
 30
0.0
 10
855.4325751014721
 20
1975.472077967456
 30
0.0
 10
857.9506785844422
 20
1975.436946233848
 30
0.0
 10
859.9515686116461
 20
1975.267991381156
 30
0.0
 10
861.8744854307315
 20
1974.986041790723
 30
0.0
 10
863.749250406758
 20
1974.52313903481
 30
0.0
 10
865.5387474632481
 20
1973.936821881462
 30
0.0
 10
867.2082516606865
 20
1973.297728530977
 30
0.0
 10
868.7217758037435
 20
1972.551041552808
 30
0.0
 10
870.0959843171734
 20
1971.763226735988
 30
0.0
 10
871.2016084467872
 20
1971.08915932102
 30
0.0
 10
872.3257259362602
 20
1970.328586713613
 30
0.0
 10
873.2331935145424
 20
1969.64549354753
 30
0.0
 10
873.8747282217344
 20
1969.146375967357
 30
0.0
 10
874.4613371395987
 20
1968.682523066652
 30
0.0
 10
875.8346901882083
 20
1967.524322819915
 30
0.0
 10
876.3894238778879
 20
1966.999999999994
 30
0.0
 10
876.3891354298676
 20
1966.999999999994
 30
0.0
  0
LWPOLYLINE
  5
18B
330
87
100
AcDbEntity
  8
P-SANR-FIXT
100
AcDbPolyline
 90
        5
 70
   128
 43
0.0
 10
760.2144826314432
 20
2023.999999999995
 10
760.0427288445721
 20
2027.831770364269
 10
759.848912255491
 20
2030.669606508602
 10
759.640076865077
 20
2032.412214338314
 10
759.4235445474014
 20
2032.999999999995
  0
LINE
  5
18C
330
87
100
AcDbEntity
  8
P-SANR-FIXT
100
AcDbLine
 10
753.666407443185
 20
2038.049999999995
 30
0.0
 11
753.666407443185
 21
1961.949999999995
 31
0.0
  0
SPLINE
  5
18D
330
87
100
AcDbEntity
  8
P-SANR-FIXT
100
AcDbSpline
210
0.0
220
0.0
230
1.0
 70
     8
 71
     3
 72
    25
 73
    21
 74
     0
 42
0.000000001
 43
0.0000000001
 40
0.0
 40
0.0
 40
0.0
 40
0.0
 40
0.125
 40
0.1875
 40
0.25
 40
0.3125
 40
0.375
 40
0.4375
 40
0.46875
 40
0.5
 40
0.53125
 40
0.5625
 40
0.625
 40
0.6875
 40
0.71875
 40
0.75
 40
0.78125
 40
0.8125
 40
0.875
 40
1.0
 40
1.0
 40
1.0
 40
1.0
 10
781.4692052581131
 20
1974.33974596215
 30
0.0
 10
781.5945797662757
 20
1974.497070378566
 30
0.0
 10
781.7661273895631
 20
1974.73952628305
 30
0.0
 10
781.96295077958
 20
1975.076303051104
 30
0.0
 10
782.0923719278157
 20
1975.335427137529
 30
0.0
 10
782.2125687101499
 20
1975.60243025239
 30
0.0
 10
782.3219723593799
 20
1975.877260885878
 30
0.0
 10
782.3929902289562
 20
1976.111236488548
 30
0.0
 10
782.4331996114133
 20
1976.300916905296
 30
0.0
 10
782.45244036031
 20
1976.443623908626
 30
0.0
 10
782.4644085175734
 20
1976.589015379327
 30
0.0
 10
782.4751265764874
 20
1976.788086821673
 30
0.0
 10
782.4716512206451
 20
1977.042167679407
 30
0.0
 10
782.4355967126332
 20
1977.294987970942
 30
0.0
 10
782.3808755489356
 20
1977.4912432609
 30
0.0
 10
782.324638175346
 20
1977.633508767108
 30
0.0
 10
782.2542999333202
 20
1977.7716438434
 30
0.0
 10
782.1453353134195
 20
1977.953190878094
 30
0.0
 10
781.9124755628189
 20
1978.261915397219
 30
0.0
 10
781.6413113788337
 20
1978.511125522762
 30
0.0
 10
781.4286458539202
 20
1978.669872981073
 30
0.0
  0
SPLINE
  5
18E
330
87
100
AcDbEntity
  8
P-SANR-FIXT
100
AcDbSpline
210
0.0
220
0.0
230
1.0
 70
     8
 71
     3
 72
     9
 73
     5
 74
     0
 42
0.000000001
 43
0.0000000001
 40
0.0
 40
0.0
 40
0.0
 40
0.0
 40
0.5
 40
1.0
 40
1.0
 40
1.0
 40
1.0
 10
849.520161793348
 20
1974.33974596215
 30
0.0
 10
849.5219980700598
 20
1974.414570327241
 30
0.0
 10
849.5292526985691
 20
1974.564129000901
 30
0.0
 10
849.5436469566897
 20
1974.713207088741
 30
0.0
 10
849.552620403988
 20
1974.787551560696
 30
0.0
  0
SPLINE
  5
18F
330
87
100
AcDbEntity
  8
P-SANR-FIXT
100
AcDbSpline
210
0.0
220
0.0
230
1.0
 70
     8
 71
     3
 72
    25
 73
    21
 74
     0
 42
0.000000001
 43
0.0000000001
 40
0.0
 40
0.0
 40
0.0
 40
0.0
 40
0.125
 40
0.1875
 40
0.21875
 40
0.25
 40
0.28125
 40
0.3125
 40
0.375
 40
0.4375
 40
0.46875
 40
0.5
 40
0.53125
 40
0.5625
 40
0.625
 40
0.6875
 40
0.75
 40
0.8125
 40
0.875
 40
1.0
 40
1.0
 40
1.0
 40
1.0
 10
849.9041690324498
 20
1978.669872981073
 30
0.0
 10
849.7132816275144
 20
1978.531562654149
 30
0.0
 10
849.4658142569413
 20
1978.314059477724
 30
0.0
 10
849.2449717816988
 20
1978.043828788694
 30
0.0
 10
849.1383297348544
 20
1977.884704332108
 30
0.0
 10
849.0676784818109
 20
1977.763463739552
 30
0.0
 10
849.0081842840462
 20
1977.638661026949
 30
0.0
 10
848.9447168686334
 20
1977.466682468451
 30
0.0
 10
848.891323728851
 20
1977.244961214861
 30
0.0
 10
848.8654073906415
 20
1977.021013537315
 30
0.0
 10
848.8571222467097
 20
1976.844355179393
 30
0.0
 10
848.8551578309962
 20
1976.71458483658
 30
0.0
 10
848.8600087851267
 20
1976.58637544781
 30
0.0
 10
848.8790066427366
 20
1976.415084082018
 30
0.0
 10
848.9211641732994
 20
1976.20237799086
 30
0.0
 10
848.9937872014326
 20
1975.951083347968
 30
0.0
 10
849.0775654941527
 20
1975.706487937386
 30
0.0
 10
849.1712167850403
 20
1975.468772974507
 30
0.0
 10
849.3189885569297
 20
1975.158492932489
 30
0.0
 10
849.4528444904426
 20
1974.933870556828
 30
0.0
 10
849.552620403988
 20
1974.787551560696
 30
0.0
  0
SPLINE
  5
190
330
87
100
AcDbEntity
  8
P-SANR-FIXT
100
AcDbSpline
210
0.0
220
0.0
230
1.0
 70
     8
 71
     3
 72
    21
 73
    17
 74
     0
 42
0.000000001
 43
0.0000000001
 40
0.0
 40
0.0
 40
0.0
 40
0.0
 40
0.1
 40
0.15
 40
0.2
 40
0.3
 40
0.35
 40
0.4
 40
0.475
 40
0.55
 40
0.5875
 40
0.625
 40
0.7
 40
0.775
 40
0.85
 40
1.0
 40
1.0
 40
1.0
 40
1.0
 10
781.4286458539202
 20
1978.669872981073
 30
0.0
 10
781.2805330628013
 20
1978.7709883914
 30
0.0
 10
781.0782496203168
 20
1978.932115240617
 30
0.0
 10
780.8484304973774
 20
1979.16695950323
 30
0.0
 10
780.6448844093895
 20
1979.413836773268
 30
0.0
 10
780.4826781989468
 20
1979.688042037355
 30
0.0
 10
780.3595925991328
 20
1979.979486659567
 30
0.0
 10
780.2725213387631
 20
1980.236672482782
 30
0.0
 10
780.2062065883881
 20
1980.538701855232
 30
0.0
 10
780.1792496805628
 20
1980.832358211182
 30
0.0
 10
780.1743791645225
 20
1981.067296125299
 30
0.0
 10
780.1798468769194
 20
1981.301198168678
 30
0.0
 10
780.2120669088687
 20
1981.598115356464
 30
0.0
 10
780.2829236263581
 20
1981.954512298037
 30
0.0
 10
780.4114606335031
 20
1982.42242294906
 30
0.0
 10
780.5527257853981
 20
1982.770168153575
 30
0.0
 10
780.6664074431853
 20
1982.999999999995
 30
0.0
  0
SPLINE
  5
191
330
87
100
AcDbEntity
  8
P-SANR-FIXT
100
AcDbSpline
210
0.0
220
0.0
230
1.0
 70
     8
 71
     3
 72
    20
 73
    16
 74
     0
 42
0.000000001
 43
0.0000000001
 40
0.0
 40
0.0
 40
0.0
 40
0.0
 40
0.2
 40
0.3
 40
0.35
 40
0.4
 40
0.475
 40
0.55
 40
0.5875
 40
0.625
 40
0.7
 40
0.775
 40
0.8125
 40
0.85
 40
1.0
 40
1.0
 40
1.0
 40
1.0
 10
850.6664074431846
 20
1982.999999999995
 30
0.0
 10
850.8179829869009
 20
1982.693557538102
 30
0.0
 10
850.9911071898656
 20
1982.230356965866
 30
0.0
 10
851.1078287485673
 20
1981.677438160413
 30
0.0
 10
851.1471646041799
 20
1981.360529505904
 30
0.0
 10
851.1611891743758
 20
1981.086581488388
 30
0.0
 10
851.1520656130018
 20
1980.773333048693
 30
0.0
 10
851.1143946716167
 20
1980.481814424653
 30
0.0
 10
851.0621637938942
 20
1980.255649461044
 30
0.0
 10
850.9943251523388
 20
1980.034864786295
 30
0.0
 10
850.8849076501164
 20
1979.7594276819
 30
0.0
 10
850.7391920797664
 20
1979.498551198429
 30
0.0
 10
850.5992197459004
 20
1979.305969509796
 30
0.0
 10
850.3667098430739
 20
1979.029104797042
 30
0.0
 10
850.1263382191277
 20
1978.821546096563
 30
0.0
 10
849.9041690324498
 20
1978.669872981073
 30
0.0
  0
LINE
  5
192
330
87
100
AcDbEntity
  8
P-SANR-FIXT
100
AcDbLine
 10
837.666407443185
 20
1913.999999999995
 30
0.0
 11
837.5777715903002
 21
1913.999999999995
 31
0.0
  0
LINE
  5
193
330
87
100
AcDbEntity
  8
P-SANR-FIXT
100
AcDbLine
 10
837.5671555815648
 20
1913.999999999995
 30
0.0
 11
828.4177259076482
 21
1913.999999999995
 31
0.0
  0
LINE
  5
194
330
87
100
AcDbEntity
  8
P-SANR-FIXT
100
AcDbLine
 10
828.4087932313834
 20
1913.999999999995
 30
0.0
 11
827.1613758669358
 21
1913.999999999995
 31
0.0
  0
LINE
  5
195
330
87
100
AcDbEntity
  8
P-SANR-FIXT
100
AcDbLine
 10
826.6737775086408
 20
1913.999999999995
 30
0.0
 11
824.8386330944766
 21
1913.999999999995
 31
0.0
  0
LINE
  5
196
330
87
100
AcDbEntity
  8
P-SANR-FIXT
100
AcDbLine
 10
824.7981906193407
 20
1913.999999999995
 30
0.0
 11
806.5346242670292
 21
1913.999999999995
 31
0.0
  0
LINE
  5
197
330
87
100
AcDbEntity
  8
P-SANR-FIXT
100
AcDbLine
 10
806.4941817918949
 20
1913.999999999995
 30
0.0
 11
804.6590373777306
 21
1913.999999999995
 31
0.0
  0
LINE
  5
198
330
87
100
AcDbEntity
  8
P-SANR-FIXT
100
AcDbLine
 10
804.1714390194343
 20
1913.999999999995
 30
0.0
 11
802.9240216549885
 21
1913.999999999995
 31
0.0
  0
LINE
  5
199
330
87
100
AcDbEntity
  8
P-SANR-FIXT
100
AcDbLine
 10
802.9150889787247
 20
1913.999999999995
 30
0.0
 11
793.7656593048049
 21
1913.999999999995
 31
0.0
  0
LINE
  5
19A
330
87
100
AcDbEntity
  8
P-SANR-FIXT
100
AcDbLine
 10
793.7550432960716
 20
1913.999999999995
 30
0.0
 11
793.6664074431852
 21
1913.999999999995
 31
0.0
  0
SPLINE
  5
19B
330
87
100
AcDbEntity
  8
P-SANR-FIXT
100
AcDbSpline
210
0.0
220
0.0
230
1.0
 70
     8
 71
     3
 72
    21
 73
    17
 74
     0
 42
0.000000001
 43
0.0000000001
 40
0.0
 40
0.0
 40
0.0
 40
0.0
 40
0.1666666666666666
 40
0.25
 40
0.2916666666666666
 40
0.3333333333333333
 40
0.375
 40
0.4166666666666666
 40
0.5
 40
0.5833333333333333
 40
0.625
 40
0.6666666666666666
 40
0.7083333333333333
 40
0.75
 40
0.8333333333333332
 40
1.0
 40
1.0
 40
1.0
 40
1.0
 10
854.4841708636431
 20
1937.583315798559
 30
0.0
 10
854.5231806141938
 20
1937.668424692849
 30
0.0
 10
854.5769700932028
 20
1937.85450946227
 30
0.0
 10
854.6280061118473
 20
1938.177483027327
 30
0.0
 10
854.65273781034
 20
1938.393638597593
 30
0.0
 10
854.6680946876428
 20
1938.570217362181
 30
0.0
 10
854.6822370398642
 20
1938.767743020798
 30
0.0
 10
854.6996940637168
 20
1939.062865424321
 30
0.0
 10
854.7118615926825
 20
1939.478880020217
 30
0.0
 10
854.6985163934817
 20
1939.934183024001
 30
0.0
 10
854.6669655472227
 20
1940.306993458326
 30
0.0
 10
854.6315677200833
 20
1940.58528741258
 30
0.0
 10
854.5853012709708
 20
1940.864756177258
 30
0.0
 10
854.5109566716616
 20
1941.24758858123
 30
0.0
 10
854.3456108851977
 20
1941.938416744171
 30
0.0
 10
854.1415666591099
 20
1942.566844582932
 30
0.0
 10
853.9758587605122
 20
1942.999999999995
 30
0.0
  0
LINE
  5
19C
330
87
100
AcDbEntity
  8
P-SANR-FIXT
100
AcDbLine
 10
838.6664074431854
 20
1914.999999999995
 30
0.0
 11
792.6664074431848
 21
1914.999999999995
 31
0.0
  0
LINE
  5
19D
330
87
100
AcDbEntity
  8
P-SANR-FIXT
100
AcDbLine
 10
883.6664074431851
 20
2038.049999999995
 30
0.0
 11
883.6664074431851
 21
1961.949999999995
 31
0.0
  0
LINE
  5
19E
330
87
100
AcDbEntity
  8
P-SANR-FIXT
100
AcDbLine
 10
759.4235445474006
 20
2039.999999999995
 30
0.0
 11
760.9164074431669
 21
2039.999999999995
 31
0.0
  0
LINE
  5
19F
330
87
100
AcDbEntity
  8
P-SANR-FIXT
100
AcDbLine
 10
760.9164074431669
 20
2039.999999999995
 30
0.0
 11
783.302219244792
 21
2039.999999999995
 31
0.0
  0
LINE
  5
1A0
330
87
100
AcDbEntity
  8
P-SANR-FIXT
100
AcDbLine
 10
783.302219244792
 20
2039.999999999995
 30
0.0
 11
789.041379898091
 21
2039.999999999995
 31
0.0
  0
LINE
  5
1A1
330
87
100
AcDbEntity
  8
P-SANR-FIXT
100
AcDbLine
 10
789.041379898091
 20
2039.999999999995
 30
0.0
 11
842.1456138577482
 21
2039.999999999995
 31
0.0
  0
LINE
  5
1A2
330
87
100
AcDbEntity
  8
P-SANR-FIXT
100
AcDbLine
 10
842.1456138577486
 20
2039.999999999995
 30
0.0
 11
848.6303417945014
 21
2039.999999999995
 31
0.0
  0
LINE
  5
1A3
330
87
100
AcDbEntity
  8
P-SANR-FIXT
100
AcDbLine
 10
848.6303417945014
 20
2039.999999999995
 30
0.0
 11
870.416407443167
 21
2039.999999999995
 31
0.0
  0
LINE
  5
1A4
330
87
100
AcDbEntity
  8
P-SANR-FIXT
100
AcDbLine
 10
870.416407443167
 20
2039.999999999995
 30
0.0
 11
871.9092703389447
 21
2039.999999999995
 31
0.0
  0
LINE
  5
1A5
330
87
100
AcDbEntity
  8
P-SANR-FIXT
100
AcDbLine
 10
848.6303417945014
 20
2030.999999999995
 30
0.0
 11
842.1456138577488
 21
2030.999999999995
 31
0.0
  0
LINE
  5
1A6
330
87
100
AcDbEntity
  8
P-SANR-FIXT
100
AcDbLine
 10
842.1456138577488
 20
2030.999999999995
 30
0.0
 11
789.0413798980912
 21
2030.999999999995
 31
0.0
  0
LINE
  5
1A7
330
87
100
AcDbEntity
  8
P-SANR-FIXT
100
AcDbLine
 10
789.041379898091
 20
2030.999999999995
 30
0.0
 11
783.302219244792
 21
2030.999999999995
 31
0.0
  0
LINE
  5
1A8
330
87
100
AcDbEntity
  8
P-SANR-FIXT
100
AcDbLine
 10
759.4235445474006
 20
2039.999999999995
 30
0.0
 11
759.4235445474014
 21
2032.999999999995
 31
0.0
  0
LINE
  5
1A9
330
87
100
AcDbEntity
  8
P-SANR-FIXT
100
AcDbLine
 10
783.302219244792
 20
2030.999999999995
 30
0.0
 11
783.302219244792
 21
2039.999999999995
 31
0.0
  0
LINE
  5
1AA
330
87
100
AcDbEntity
  8
P-SANR-FIXT
100
AcDbLine
 10
870.416407443167
 20
2030.999999999995
 30
0.0
 11
870.416407443167
 21
2039.999999999995
 31
0.0
  0
LINE
  5
1AB
330
87
100
AcDbEntity
  8
P-SANR-FIXT
100
AcDbLine
 10
870.416407443167
 20
2030.999999999995
 30
0.0
 11
870.416407443167
 21
2023.999999999995
 31
0.0
  0
LINE
  5
1AC
330
87
100
AcDbEntity
  8
P-SANR-FIXT
100
AcDbLine
 10
871.9092703389451
 20
2032.999999999995
 30
0.0
 11
871.9092703389447
 21
2039.999999999995
 31
0.0
  0
LINE
  5
1AD
330
87
100
AcDbEntity
  8
P-SANR-FIXT
100
AcDbLine
 10
870.416407443167
 20
2023.999999999995
 30
0.0
 11
846.4833306910891
 21
2023.999999999995
 31
0.0
  0
LINE
  5
1AE
330
87
100
AcDbEntity
  8
P-SANR-FIXT
100
AcDbLine
 10
846.4833306910984
 20
2023.999999999995
 30
0.0
 11
841.4663683759176
 21
2023.999999999995
 31
0.0
  0
LINE
  5
1AF
330
87
100
AcDbEntity
  8
P-SANR-FIXT
100
AcDbLine
 10
870.416407443167
 20
2023.999999999995
 30
0.0
 11
871.1183322548965
 21
2023.999999999995
 31
0.0
  0
LINE
  5
1B0
330
87
100
AcDbEntity
  8
P-SANR-FIXT
100
AcDbLine
 10
784.8494841952446
 20
2023.999999999995
 30
0.0
 11
760.9164074431669
 21
2023.999999999995
 31
0.0
  0
LINE
  5
1B1
330
87
100
AcDbEntity
  8
P-SANR-FIXT
100
AcDbLine
 10
760.2144826314432
 20
2023.999999999995
 30
0.0
 11
760.9164074431669
 21
2023.999999999995
 31
0.0
  0
LINE
  5
1B2
330
87
100
AcDbEntity
  8
P-SANR-FIXT
100
AcDbLine
 10
789.8664465104396
 20
2023.999999999995
 30
0.0
 11
784.8494841952606
 21
2023.999999999995
 31
0.0
  0
ENDBLK
  5
1B4
330
87
100
AcDbEntity
  8
0
100
AcDbBlockEnd
  0
BLOCK
  5
285
330
1B6
100
AcDbEntity
  8
0
100
AcDbBlockBegin
  2
Automatic flow rate regulator valve_Caleffi_121 DN15 - 2__-V1-Est - Idraulica
 70
     0
 10
0.0
 20
0.0
 30
0.0
  3
Automatic flow rate regulator valve_Caleffi_121 DN15 - 2__-V1-Est - Idraulica
  1

  0
LINE
  5
1B7
330
1B6
100
AcDbEntity
  8
P-SANR-FIXT
100
AcDbLine
 10
849.1664074432046
 20
1645.196304213987
 30
0.0
 11
850.1168329271383
 21
1644.245878730053
 31
0.0
  0
LINE
  5
1B8
330
1B6
100
AcDbEntity
  8
P-SANR-FIXT
100
AcDbLine
 10
867.2159819592316
 20
1644.245878730053
 30
0.0
 11
868.1664074431651
 21
1645.196304213987
 31
0.0
  0
LINE
  5
1B9
330
1B6
100
AcDbEntity
  8
P-SANR-FIXT
100
AcDbLine
 10
849.1664074432046
 20
1650.245878730105
 30
0.0
 11
849.1664074432046
 21
1645.196304213987
 31
0.0
  0
LINE
  5
1BA
330
1B6
100
AcDbEntity
  8
P-SANR-FIXT
100
AcDbLine
 10
868.1664074431651
 20
1645.196304213987
 30
0.0
 11
868.1664074431651
 21
1650.245878730104
 31
0.0
  0
LINE
  5
1BB
330
1B6
100
AcDbEntity
  8
P-SANR-FIXT
100
AcDbLine
 10
867.2159819592302
 20
1644.245878730053
 30
0.0
 11
850.1168329271365
 21
1644.245878730053
 31
0.0
  0
LINE
  5
1BC
330
1B6
100
AcDbEntity
  8
P-SANR-FIXT
100
AcDbLine
 10
868.1664074431633
 20
1645.196304213986
 30
0.0
 11
849.1664074432032
 21
1645.196304213986
 31
0.0
  0
LINE
  5
1BD
330
1B6
100
AcDbEntity
  8
P-SANR-FIXT
100
AcDbLine
 10
849.1664074432032
 20
1650.245878730103
 30
0.0
 11
868.1664074431633
 21
1650.245878730103
 31
0.0
  0
LINE
  5
1BE
330
1B6
100
AcDbEntity
  8
P-SANR-FIXT
100
AcDbLine
 10
763.1664074432084
 20
1645.196304213986
 30
0.0
 11
764.116832927142
 21
1644.245878730053
 31
0.0
  0
LINE
  5
1BF
330
1B6
100
AcDbEntity
  8
P-SANR-FIXT
100
AcDbLine
 10
781.2159819592352
 20
1644.245878730053
 30
0.0
 11
782.1664074431688
 21
1645.196304213986
 31
0.0
  0
LINE
  5
1C0
330
1B6
100
AcDbEntity
  8
P-SANR-FIXT
100
AcDbLine
 10
763.1664074432084
 20
1650.245878730104
 30
0.0
 11
763.1664074432084
 21
1645.196304213986
 31
0.0
  0
LINE
  5
1C1
330
1B6
100
AcDbEntity
  8
P-SANR-FIXT
100
AcDbLine
 10
782.1664074431688
 20
1645.196304213986
 30
0.0
 11
782.1664074431688
 21
1650.245878730104
 31
0.0
  0
LINE
  5
1C2
330
1B6
100
AcDbEntity
  8
P-SANR-FIXT
100
AcDbLine
 10
781.215981959234
 20
1644.245878730053
 30
0.0
 11
764.1168329271404
 21
1644.245878730053
 31
0.0
  0
LINE
  5
1C3
330
1B6
100
AcDbEntity
  8
P-SANR-FIXT
100
AcDbLine
 10
782.1664074431672
 20
1645.196304213986
 30
0.0
 11
763.166407443207
 21
1645.196304213986
 31
0.0
  0
LINE
  5
1C4
330
1B6
100
AcDbEntity
  8
P-SANR-FIXT
100
AcDbLine
 10
763.166407443207
 20
1650.245878730103
 30
0.0
 11
782.1664074431672
 21
1650.245878730103
 31
0.0
  0
LINE
  5
1C5
330
1B6
100
AcDbEntity
  8
P-SANR-FIXT
100
AcDbLine
 10
850.1168329271395
 20
1768.245878730123
 30
0.0
 11
849.1664074432062
 21
1767.295453246189
 31
0.0
  0
LINE
  5
1C6
330
1B6
100
AcDbEntity
  8
P-SANR-FIXT
100
AcDbLine
 10
868.1664074431665
 20
1767.295453246189
 30
0.0
 11
867.215981959233
 21
1768.245878730123
 31
0.0
  0
LINE
  5
1C7
330
1B6
100
AcDbEntity
  8
P-SANR-FIXT
100
AcDbLine
 10
849.1664074432062
 20
1767.295453246189
 30
0.0
 11
849.166407443206
 21
1762.245878730072
 31
0.0
  0
LINE
  5
1C8
330
1B6
100
AcDbEntity
  8
P-SANR-FIXT
100
AcDbLine
 10
868.1664074431663
 20
1762.245878730072
 30
0.0
 11
868.1664074431665
 21
1767.295453246189
 31
0.0
  0
LINE
  5
1C9
330
1B6
100
AcDbEntity
  8
P-SANR-FIXT
100
AcDbLine
 10
868.1664074431648
 20
1762.245878730071
 30
0.0
 11
849.1664074432046
 21
1762.245878730071
 31
0.0
  0
LINE
  5
1CA
330
1B6
100
AcDbEntity
  8
P-SANR-FIXT
100
AcDbLine
 10
850.1168329271379
 20
1768.245878730122
 30
0.0
 11
867.2159819592314
 21
1768.245878730122
 31
0.0
  0
LINE
  5
1CB
330
1B6
100
AcDbEntity
  8
P-SANR-FIXT
100
AcDbLine
 10
849.1664074432046
 20
1767.295453246189
 30
0.0
 11
868.1664074431648
 21
1767.295453246189
 31
0.0
  0
LINE
  5
1CC
330
1B6
100
AcDbEntity
  8
P-SANR-FIXT
100
AcDbLine
 10
764.1168329271414
 20
1768.245878730089
 30
0.0
 11
763.1664074432079
 21
1767.295453246156
 31
0.0
  0
LINE
  5
1CD
330
1B6
100
AcDbEntity
  8
P-SANR-FIXT
100
AcDbLine
 10
782.1664074431684
 20
1767.295453246156
 30
0.0
 11
781.2159819592348
 21
1768.245878730089
 31
0.0
  0
LINE
  5
1CE
330
1B6
100
AcDbEntity
  8
P-SANR-FIXT
100
AcDbLine
 10
763.1664074432079
 20
1767.295453246156
 30
0.0
 11
763.1664074432079
 21
1762.245878730038
 31
0.0
  0
LINE
  5
1CF
330
1B6
100
AcDbEntity
  8
P-SANR-FIXT
100
AcDbLine
 10
782.1664074431681
 20
1762.245878730038
 30
0.0
 11
782.1664074431684
 21
1767.295453246156
 31
0.0
  0
LINE
  5
1D0
330
1B6
100
AcDbEntity
  8
P-SANR-FIXT
100
AcDbLine
 10
782.1664074431667
 20
1762.245878730037
 30
0.0
 11
763.1664074432064
 21
1762.245878730037
 31
0.0
  0
LINE
  5
1D1
330
1B6
100
AcDbEntity
  8
P-SANR-FIXT
100
AcDbLine
 10
764.1168329271398
 20
1768.245878730088
 30
0.0
 11
781.2159819592334
 21
1768.245878730088
 31
0.0
  0
LINE
  5
1D2
330
1B6
100
AcDbEntity
  8
P-SANR-FIXT
100
AcDbLine
 10
763.1664074432064
 20
1767.295453246155
 30
0.0
 11
782.1664074431667
 21
1767.295453246155
 31
0.0
  0
LINE
  5
1D3
330
1B6
100
AcDbEntity
  8
P-SANR-FIXT
100
AcDbLine
 10
706.0664074431437
 20
1674.745878730027
 30
0.0
 11
723.6664074431887
 21
1674.745878730027
 31
0.0
  0
LINE
  5
1D4
330
1B6
100
AcDbEntity
  8
P-SANR-FIXT
100
AcDbLine
 10
723.6664074431885
 20
1737.745878730029
 30
0.0
 11
706.0664074431436
 21
1737.745878730028
 31
0.0
  0
LINE
  5
1D5
330
1B6
100
AcDbEntity
  8
P-SANR-FIXT
100
AcDbLine
 10
706.0664074431436
 20
1736.245878730072
 30
0.0
 11
680.1664074431707
 21
1736.245878730072
 31
0.0
  0
LINE
  5
1D6
330
1B6
100
AcDbEntity
  8
P-SANR-FIXT
100
AcDbLine
 10
680.1664074431711
 20
1676.24587873007
 30
0.0
 11
706.0664074431437
 21
1676.24587873007
 31
0.0
  0
LINE
  5
1D7
330
1B6
100
AcDbEntity
  8
P-SANR-FIXT
100
AcDbLine
 10
680.1664074431707
 20
1736.245878730072
 30
0.0
 11
678.6664074431707
 21
1734.745878730072
 31
0.0
  0
LINE
  5
1D8
330
1B6
100
AcDbEntity
  8
P-SANR-FIXT
100
AcDbLine
 10
678.6664074431711
 20
1677.74587873007
 30
0.0
 11
680.1664074431711
 21
1676.24587873007
 31
0.0
  0
LINE
  5
1D9
330
1B6
100
AcDbEntity
  8
P-SANR-FIXT
100
AcDbLine
 10
706.0664074431423
 20
1682.205047096271
 30
0.0
 11
706.0664074431423
 21
1685.891802618409
 31
0.0
  0
LINE
  5
1DA
330
1B6
100
AcDbEntity
  8
P-SANR-FIXT
100
AcDbLine
 10
706.0664074431423
 20
1685.89180261841
 30
0.0
 11
706.0664074431421
 21
1694.765375759115
 31
0.0
  0
LINE
  5
1DB
330
1B6
100
AcDbEntity
  8
P-SANR-FIXT
100
AcDbLine
 10
706.0664074431423
 20
1678.529492754704
 30
0.0
 11
706.0664074431423
 21
1682.205047096272
 31
0.0
  0
LINE
  5
1DC
330
1B6
100
AcDbEntity
  8
P-SANR-FIXT
100
AcDbLine
 10
706.0664074431421
 20
1703.638948899745
 30
0.0
 11
706.0664074431421
 21
1708.852808560307
 31
0.0
  0
LINE
  5
1DD
330
1B6
100
AcDbEntity
  8
P-SANR-FIXT
100
AcDbLine
 10
706.0664074431421
 20
1708.852808560308
 30
0.0
 11
706.0664074431421
 21
1717.726381701013
 31
0.0
  0
LINE
  5
1DE
330
1B6
100
AcDbEntity
  8
P-SANR-FIXT
100
AcDbLine
 10
706.0664074431421
 20
1694.765375759115
 30
0.0
 11
706.0664074431421
 21
1703.638948899746
 31
0.0
  0
LINE
  5
1DF
330
1B6
100
AcDbEntity
  8
P-SANR-FIXT
100
AcDbLine
 10
706.0664074431421
 20
1726.599954841643
 30
0.0
 11
706.0664074431421
 21
1730.286710363781
 31
0.0
  0
LINE
  5
1E0
330
1B6
100
AcDbEntity
  8
P-SANR-FIXT
100
AcDbLine
 10
706.0664074431421
 20
1730.286710363782
 30
0.0
 11
706.0664074431421
 21
1733.962264705362
 31
0.0
  0
LINE
  5
1E1
330
1B6
100
AcDbEntity
  8
P-SANR-FIXT
100
AcDbLine
 10
706.0664074431421
 20
1717.726381701013
 30
0.0
 11
706.0664074431421
 21
1726.599954841644
 31
0.0
  0
LINE
  5
1E2
330
1B6
100
AcDbEntity
  8
P-SANR-FIXT
100
AcDbLine
 10
706.0664074431421
 20
1737.63781904693
 30
0.0
 11
706.0664074431421
 21
1737.745878730027
 31
0.0
  0
LINE
  5
1E3
330
1B6
100
AcDbEntity
  8
P-SANR-FIXT
100
AcDbLine
 10
706.0664074431421
 20
1733.962264705362
 30
0.0
 11
706.0664074431421
 21
1737.63781904693
 31
0.0
  0
LINE
  5
1E4
330
1B6
100
AcDbEntity
  8
P-SANR-FIXT
100
AcDbLine
 10
706.0664074431423
 20
1674.745878730026
 30
0.0
 11
706.0664074431423
 21
1674.853938413123
 31
0.0
  0
LINE
  5
1E5
330
1B6
100
AcDbEntity
  8
P-SANR-FIXT
100
AcDbLine
 10
706.0664074431423
 20
1674.853938413123
 30
0.0
 11
706.0664074431423
 21
1678.529492754704
 31
0.0
  0
LINE
  5
1E6
330
1B6
100
AcDbEntity
  8
P-SANR-FIXT
100
AcDbLine
 10
706.0664074431423
 20
1674.853938413123
 30
0.0
 11
723.6664074431871
 21
1674.853938413123
 31
0.0
  0
LINE
  5
1E7
330
1B6
100
AcDbEntity
  8
P-SANR-FIXT
100
AcDbLine
 10
706.0664074431421
 20
1737.63781904693
 30
0.0
 11
723.6664074431869
 21
1737.637819046931
 31
0.0
  0
LINE
  5
1E8
330
1B6
100
AcDbEntity
  8
P-SANR-FIXT
100
AcDbLine
 10
706.0664074431421
 20
1730.286710363782
 30
0.0
 11
723.6664074431869
 21
1730.286710363782
 31
0.0
  0
LINE
  5
1E9
330
1B6
100
AcDbEntity
  8
P-SANR-FIXT
100
AcDbLine
 10
706.0664074431421
 20
1726.599954841643
 30
0.0
 11
723.6664074431869
 21
1726.599954841644
 31
0.0
  0
LINE
  5
1EA
330
1B6
100
AcDbEntity
  8
P-SANR-FIXT
100
AcDbLine
 10
706.0664074431421
 20
1708.852808560308
 30
0.0
 11
723.666407443187
 21
1708.852808560308
 31
0.0
  0
LINE
  5
1EB
330
1B6
100
AcDbEntity
  8
P-SANR-FIXT
100
AcDbLine
 10
706.0664074431421
 20
1703.638948899745
 30
0.0
 11
723.666407443187
 21
1703.638948899746
 31
0.0
  0
LINE
  5
1EC
330
1B6
100
AcDbEntity
  8
P-SANR-FIXT
100
AcDbLine
 10
706.0664074431423
 20
1685.89180261841
 30
0.0
 11
723.6664074431871
 21
1685.89180261841
 31
0.0
  0
LINE
  5
1ED
330
1B6
100
AcDbEntity
  8
P-SANR-FIXT
100
AcDbLine
 10
723.6664074431871
 20
1682.205047096272
 30
0.0
 11
706.0664074431423
 21
1682.205047096271
 31
0.0
  0
LINE
  5
1EE
330
1B6
100
AcDbEntity
  8
P-SANR-FIXT
100
AcDbLine
 10
678.6664074431695
 20
1706.24587873007
 30
0.0
 11
678.6664074431694
 21
1734.745878730071
 31
0.0
  0
LINE
  5
1EF
330
1B6
100
AcDbEntity
  8
P-SANR-FIXT
100
AcDbLine
 10
678.6664074431696
 20
1677.745878730069
 30
0.0
 11
678.6664074431695
 21
1706.24587873007
 31
0.0
  0
LINE
  5
1F0
330
1B6
100
AcDbEntity
  8
P-SANR-FIXT
100
AcDbLine
 10
680.1664074431695
 20
1736.245878730071
 30
0.0
 11
680.1664074431696
 21
1706.24587873007
 31
0.0
  0
LINE
  5
1F1
330
1B6
100
AcDbEntity
  8
P-SANR-FIXT
100
AcDbLine
 10
680.1664074431696
 20
1706.24587873007
 30
0.0
 11
680.1664074431697
 21
1676.245878730069
 31
0.0
  0
LINE
  5
1F2
330
1B6
100
AcDbEntity
  8
P-SANR-FIXT
100
AcDbLine
 10
723.6664074431877
 20
1706.24587873007
 30
0.0
 11
723.6664074431875
 21
1726.995878730064
 31
0.0
  0
LINE
  5
1F3
330
1B6
100
AcDbEntity
  8
P-SANR-FIXT
100
AcDbLine
 10
723.6664074431875
 20
1726.995878730064
 30
0.0
 11
723.6664074431875
 21
1747.745878730058
 31
0.0
  0
LINE
  5
1F4
330
1B6
100
AcDbEntity
  8
P-SANR-FIXT
100
AcDbLine
 10
723.6664074431878
 20
1664.745878730082
 30
0.0
 11
723.6664074431878
 21
1685.495878730076
 31
0.0
  0
LINE
  5
1F5
330
1B6
100
AcDbEntity
  8
P-SANR-FIXT
100
AcDbLine
 10
723.6664074431878
 20
1685.495878730075
 30
0.0
 11
723.6664074431877
 21
1706.24587873007
 31
0.0
  0
LINE
  5
1F6
330
1B6
100
AcDbEntity
  8
P-SANR-FIXT
100
AcDbLine
 10
752.6664074431874
 20
1747.745878730041
 30
0.0
 11
752.6664074431874
 21
1726.995878730056
 31
0.0
  0
LINE
  5
1F7
330
1B6
100
AcDbEntity
  8
P-SANR-FIXT
100
AcDbLine
 10
752.6664074431874
 20
1726.995878730056
 30
0.0
 11
752.6664074431875
 21
1706.245878730071
 31
0.0
  0
LINE
  5
1F8
330
1B6
100
AcDbEntity
  8
P-SANR-FIXT
100
AcDbLine
 10
752.6664074431875
 20
1706.24587873007
 30
0.0
 11
752.6664074431876
 21
1685.495878730084
 31
0.0
  0
LINE
  5
1F9
330
1B6
100
AcDbEntity
  8
P-SANR-FIXT
100
AcDbLine
 10
752.6664074431876
 20
1685.495878730084
 30
0.0
 11
752.6664074431876
 21
1664.7458787301
 31
0.0
  0
LINE
  5
1FA
330
1B6
100
AcDbEntity
  8
P-SANR-FIXT
100
AcDbLine
 10
725.109783116188
 20
1664.745878730046
 30
0.0
 11
751.2230317701774
 21
1664.745878730046
 31
0.0
  0
LINE
  5
1FB
330
1B6
100
AcDbEntity
  8
P-SANR-FIXT
100
AcDbLine
 10
751.2230317702013
 20
1664.745878730046
 30
0.0
 11
751.2230317702013
 21
1672.834421467906
 31
0.0
  0
LINE
  5
1FC
330
1B6
100
AcDbEntity
  8
P-SANR-FIXT
100
AcDbLine
 10
725.1097831161642
 20
1672.834421467906
 30
0.0
 11
725.1097831161642
 21
1664.745878730046
 31
0.0
  0
SPLINE
  5
1FD
330
1B6
100
AcDbEntity
  8
P-SANR-FIXT
100
AcDbSpline
210
0.0
220
0.0
230
1.0
 70
    24
 71
     3
 72
     9
 73
     5
 74
     0
 42
0.000000001
 43
0.0000000001
 40
0.0
 40
0.0
 40
0.0
 40
0.0
 40
0.5
 40
1.0
 40
1.0
 40
1.0
 40
1.0
 10
725.109783116188
 20
1664.745878730046
 30
0.0
 10
724.6362723423296
 20
1664.745878730046
 30
0.0
 10
723.9221989563047
 20
1664.745878730046
 30
0.0
 10
723.6740218936629
 20
1664.745878730046
 30
0.0
 10
723.6664074431878
 20
1664.745878730046
 30
0.0
  0
SPLINE
  5
1FE
330
1B6
100
AcDbEntity
  8
P-SANR-FIXT
100
AcDbSpline
210
0.0
220
0.0
230
1.0
 70
    24
 71
     3
 72
     9
 73
     5
 74
     0
 42
0.000000001
 43
0.0000000001
 40
0.0
 40
0.0
 40
0.0
 40
0.0
 40
0.5
 40
1.0
 40
1.0
 40
1.0
 40
1.0
 10
752.6664074431876
 20
1664.745878730046
 30
0.0
 10
752.6587929927075
 20
1664.745878730046
 30
0.0
 10
752.4106159300592
 20
1664.745878730046
 30
0.0
 10
751.6965425440341
 20
1664.745878730046
 30
0.0
 10
751.2230317701774
 20
1664.745878730046
 30
0.0
  0
SPLINE
  5
1FF
330
1B6
100
AcDbEntity
  8
P-SANR-FIXT
100
AcDbSpline
210
0.0
220
0.0
230
1.0
 70
    24
 71
     3
 72
     9
 73
     5
 74
     0
 42
0.000000001
 43
0.0000000001
 40
0.0
 40
0.0
 40
0.0
 40
0.0
 40
0.5
 40
1.0
 40
1.0
 40
1.0
 40
1.0
 10
723.6664074431875
 20
1747.745878730007
 30
0.0
 10
723.6740218936376
 20
1747.745878730007
 30
0.0
 10
723.9221989562464
 20
1747.745878730007
 30
0.0
 10
724.6362723422728
 20
1747.745878730007
 30
0.0
 10
725.1097831161405
 20
1747.745878730007
 30
0.0
  0
LINE
  5
200
330
1B6
100
AcDbEntity
  8
P-SANR-FIXT
100
AcDbLine
 10
725.1097831161405
 20
1747.745878730007
 30
0.0
 11
751.2230317702244
 21
1747.745878730007
 31
0.0
  0
SPLINE
  5
201
330
1B6
100
AcDbEntity
  8
P-SANR-FIXT
100
AcDbSpline
210
0.0
220
0.0
230
1.0
 70
    24
 71
     3
 72
     9
 73
     5
 74
     0
 42
0.000000001
 43
0.0000000001
 40
0.0
 40
0.0
 40
0.0
 40
0.0
 40
0.5
 40
1.0
 40
1.0
 40
1.0
 40
1.0
 10
751.2230317702244
 20
1747.745878730007
 30
0.0
 10
751.6965425440904
 20
1747.745878730007
 30
0.0
 10
752.4106159301169
 20
1747.745878730007
 30
0.0
 10
752.6587929927322
 20
1747.745878730007
 30
0.0
 10
752.6664074431874
 20
1747.745878730007
 30
0.0
  0
LINE
  5
202
330
1B6
100
AcDbEntity
  8
P-SANR-FIXT
100
AcDbLine
 10
725.1097831161639
 20
1747.745878730007
 30
0.0
 11
725.1097831161639
 21
1739.657335992146
 31
0.0
  0
LINE
  5
203
330
1B6
100
AcDbEntity
  8
P-SANR-FIXT
100
AcDbLine
 10
725.1097831161452
 20
1739.657335992146
 30
0.0
 11
751.2230317702197
 21
1739.657335992146
 31
0.0
  0
LINE
  5
204
330
1B6
100
AcDbEntity
  8
P-SANR-FIXT
100
AcDbLine
 10
751.223031770201
 20
1739.657335992146
 30
0.0
 11
751.223031770201
 21
1747.745878730007
 31
0.0
  0
SPLINE
  5
205
330
1B6
100
AcDbEntity
  8
P-SANR-FIXT
100
AcDbSpline
210
0.0
220
0.0
230
1.0
 70
     8
 71
     3
 72
     9
 73
     5
 74
     0
 42
0.000000001
 43
0.0000000001
 40
0.0
 40
0.0
 40
0.0
 40
0.0
 40
0.5
 40
1.0
 40
1.0
 40
1.0
 40
1.0
 10
725.1097831161452
 20
1739.657335992146
 30
0.0
 10
724.636272342282
 20
1737.56660451496
 30
0.0
 10
723.9221989562593
 20
1733.365630160758
 30
0.0
 10
723.6740218936437
 20
1729.125633006895
 30
0.0
 10
723.6664074431875
 20
1726.995878730049
 30
0.0
  0
SPLINE
  5
206
330
1B6
100
AcDbEntity
  8
P-SANR-FIXT
100
AcDbSpline
210
0.0
220
0.0
230
1.0
 70
     8
 71
     3
 72
     9
 73
     5
 74
     0
 42
0.000000001
 43
0.0000000001
 40
0.0
 40
0.0
 40
0.0
 40
0.0
 40
0.5
 40
1.0
 40
1.0
 40
1.0
 40
1.0
 10
723.6664074431875
 20
1726.995878730049
 30
0.0
 10
723.6740218936438
 20
1724.866124453192
 30
0.0
 10
723.9221989562621
 20
1720.626127299307
 30
0.0
 10
724.636272342292
 20
1716.425152945082
 30
0.0
 10
725.1097831161599
 20
1714.334421467886
 30
0.0
  0
LINE
  5
207
330
1B6
100
AcDbEntity
  8
P-SANR-FIXT
100
AcDbLine
 10
725.1097831161599
 20
1714.334421467886
 30
0.0
 11
751.2230317702052
 21
1714.334421467886
 31
0.0
  0
SPLINE
  5
208
330
1B6
100
AcDbEntity
  8
P-SANR-FIXT
100
AcDbSpline
210
0.0
220
0.0
230
1.0
 70
     8
 71
     3
 72
     9
 73
     5
 74
     0
 42
0.000000001
 43
0.0000000001
 40
0.0
 40
0.0
 40
0.0
 40
0.0
 40
0.5
 40
1.0
 40
1.0
 40
1.0
 40
1.0
 10
751.2230317702052
 20
1714.334421467886
 30
0.0
 10
751.6965425440716
 20
1716.425152945083
 30
0.0
 10
752.4106159301013
 20
1720.626127299307
 30
0.0
 10
752.6587929927261
 20
1724.866124453192
 30
0.0
 10
752.6664074431874
 20
1726.995878730049
 30
0.0
  0
SPLINE
  5
209
330
1B6
100
AcDbEntity
  8
P-SANR-FIXT
100
AcDbSpline
210
0.0
220
0.0
230
1.0
 70
     8
 71
     3
 72
     9
 73
     5
 74
     0
 42
0.000000001
 43
0.0000000001
 40
0.0
 40
0.0
 40
0.0
 40
0.0
 40
0.5
 40
1.0
 40
1.0
 40
1.0
 40
1.0
 10
752.6664074431874
 20
1726.995878730049
 30
0.0
 10
752.6587929927262
 20
1729.125633006895
 30
0.0
 10
752.4106159301039
 20
1733.365630160757
 30
0.0
 10
751.6965425440812
 20
1737.56660451496
 30
0.0
 10
751.2230317702197
 20
1739.657335992146
 30
0.0
  0
LINE
  5
20A
330
1B6
100
AcDbEntity
  8
P-SANR-FIXT
100
AcDbLine
 10
725.109783116164
 20
1714.334421467885
 30
0.0
 11
725.109783116164
 21
1706.24587873007
 31
0.0
  0
LINE
  5
20B
330
1B6
100
AcDbEntity
  8
P-SANR-FIXT
100
AcDbLine
 10
725.109783116164
 20
1706.24587873007
 30
0.0
 11
725.109783116164
 21
1698.157335992166
 31
0.0
  0
LINE
  5
20C
330
1B6
100
AcDbEntity
  8
P-SANR-FIXT
100
AcDbLine
 10
725.1097831161692
 20
1698.157335992166
 30
0.0
 11
751.223031770196
 21
1698.157335992166
 31
0.0
  0
LINE
  5
20D
330
1B6
100
AcDbEntity
  8
P-SANR-FIXT
100
AcDbLine
 10
751.2230317702012
 20
1698.157335992166
 30
0.0
 11
751.2230317702012
 21
1706.24587873007
 31
0.0
  0
LINE
  5
20E
330
1B6
100
AcDbEntity
  8
P-SANR-FIXT
100
AcDbLine
 10
751.2230317702012
 20
1706.24587873007
 30
0.0
 11
751.2230317702012
 21
1714.334421467885
 31
0.0
  0
SPLINE
  5
20F
330
1B6
100
AcDbEntity
  8
P-SANR-FIXT
100
AcDbSpline
210
0.0
220
0.0
230
1.0
 70
     8
 71
     3
 72
     9
 73
     5
 74
     0
 42
0.000000001
 43
0.0000000001
 40
0.0
 40
0.0
 40
0.0
 40
0.0
 40
0.5
 40
1.0
 40
1.0
 40
1.0
 40
1.0
 10
725.1097831161692
 20
1698.157335992167
 30
0.0
 10
724.6362723423106
 20
1696.06660451498
 30
0.0
 10
723.9221989562884
 20
1691.865630160777
 30
0.0
 10
723.6740218936563
 20
1687.625633006915
 30
0.0
 10
723.6664074431878
 20
1685.495878730069
 30
0.0
  0
SPLINE
  5
210
330
1B6
100
AcDbEntity
  8
P-SANR-FIXT
100
AcDbSpline
210
0.0
220
0.0
230
1.0
 70
     8
 71
     3
 72
     9
 73
     5
 74
     0
 42
0.000000001
 43
0.0000000001
 40
0.0
 40
0.0
 40
0.0
 40
0.0
 40
0.5
 40
1.0
 40
1.0
 40
1.0
 40
1.0
 10
723.6664074431878
 20
1685.495878730069
 30
0.0
 10
723.6740218936566
 20
1683.366124453212
 30
0.0
 10
723.9221989562913
 20
1679.126127299328
 30
0.0
 10
724.6362723423203
 20
1674.925152945103
 30
0.0
 10
725.1097831161835
 20
1672.834421467906
 30
0.0
  0
LINE
  5
211
330
1B6
100
AcDbEntity
  8
P-SANR-FIXT
100
AcDbLine
 10
751.2230317701818
 20
1672.834421467906
 30
0.0
 11
725.1097831161835
 21
1672.834421467906
 31
0.0
  0
SPLINE
  5
212
330
1B6
100
AcDbEntity
  8
P-SANR-FIXT
100
AcDbSpline
210
0.0
220
0.0
230
1.0
 70
     8
 71
     3
 72
     9
 73
     5
 74
     0
 42
0.000000001
 43
0.0000000001
 40
0.0
 40
0.0
 40
0.0
 40
0.0
 40
0.5
 40
1.0
 40
1.0
 40
1.0
 40
1.0
 10
751.2230317701818
 20
1672.834421467906
 30
0.0
 10
751.6965425440433
 20
1674.925152945104
 30
0.0
 10
752.4106159300726
 20
1679.126127299328
 30
0.0
 10
752.6587929927138
 20
1683.366124453212
 30
0.0
 10
752.6664074431876
 20
1685.495878730069
 30
0.0
  0
SPLINE
  5
213
330
1B6
100
AcDbEntity
  8
P-SANR-FIXT
100
AcDbSpline
210
0.0
220
0.0
230
1.0
 70
     8
 71
     3
 72
     9
 73
     5
 74
     0
 42
0.000000001
 43
0.0000000001
 40
0.0
 40
0.0
 40
0.0
 40
0.0
 40
0.5
 40
1.0
 40
1.0
 40
1.0
 40
1.0
 10
752.6664074431876
 20
1685.495878730069
 30
0.0
 10
752.658792992714
 20
1687.625633006915
 30
0.0
 10
752.4106159300751
 20
1691.865630160777
 30
0.0
 10
751.6965425440529
 20
1696.06660451498
 30
0.0
 10
751.223031770196
 20
1698.157335992167
 30
0.0
  0
LINE
  5
214
330
1B6
100
AcDbEntity
  8
P-SANR-FIXT
100
AcDbLine
 10
913.6664074431829
 20
1747.745878730059
 30
0.0
 11
913.6664074431829
 21
1726.995878730065
 31
0.0
  0
LINE
  5
215
330
1B6
100
AcDbEntity
  8
P-SANR-FIXT
100
AcDbLine
 10
913.6664074431829
 20
1726.995878730065
 30
0.0
 11
913.6664074431829
 21
1706.245878730072
 31
0.0
  0
LINE
  5
216
330
1B6
100
AcDbEntity
  8
P-SANR-FIXT
100
AcDbLine
 10
913.6664074431829
 20
1706.24587873007
 30
0.0
 11
913.6664074431832
 21
1685.495878730076
 31
0.0
  0
LINE
  5
217
330
1B6
100
AcDbEntity
  8
P-SANR-FIXT
100
AcDbLine
 10
913.6664074431832
 20
1685.495878730076
 30
0.0
 11
913.6664074431832
 21
1664.745878730083
 31
0.0
  0
LINE
  5
218
330
1B6
100
AcDbEntity
  8
P-SANR-FIXT
100
AcDbLine
 10
884.6664074431831
 20
1706.245878730071
 30
0.0
 11
884.666407443183
 21
1726.995878730056
 31
0.0
  0
LINE
  5
219
330
1B6
100
AcDbEntity
  8
P-SANR-FIXT
100
AcDbLine
 10
884.666407443183
 20
1726.995878730056
 30
0.0
 11
884.666407443183
 21
1747.745878730041
 31
0.0
  0
LINE
  5
21A
330
1B6
100
AcDbEntity
  8
P-SANR-FIXT
100
AcDbLine
 10
884.6664074431833
 20
1664.7458787301
 30
0.0
 11
884.6664074431833
 21
1685.495878730085
 31
0.0
  0
LINE
  5
21B
330
1B6
100
AcDbEntity
  8
P-SANR-FIXT
100
AcDbLine
 10
884.6664074431833
 20
1685.495878730085
 30
0.0
 11
884.6664074431831
 21
1706.24587873007
 31
0.0
  0
LINE
  5
21C
330
1B6
100
AcDbEntity
  8
P-SANR-FIXT
100
AcDbLine
 10
912.2230317701873
 20
1672.834421467907
 30
0.0
 11
886.109783116189
 21
1672.834421467907
 31
0.0
  0
LINE
  5
21D
330
1B6
100
AcDbEntity
  8
P-SANR-FIXT
100
AcDbLine
 10
886.1097831161696
 20
1672.834421467907
 30
0.0
 11
886.1097831161696
 21
1664.745878730047
 31
0.0
  0
LINE
  5
21E
330
1B6
100
AcDbEntity
  8
P-SANR-FIXT
100
AcDbLine
 10
912.2230317702069
 20
1664.745878730047
 30
0.0
 11
912.2230317702069
 21
1672.834421467907
 31
0.0
  0
LINE
  5
21F
330
1B6
100
AcDbEntity
  8
P-SANR-FIXT
100
AcDbLine
 10
886.1097831161934
 20
1664.745878730047
 30
0.0
 11
912.2230317701829
 21
1664.745878730047
 31
0.0
  0
SPLINE
  5
220
330
1B6
100
AcDbEntity
  8
P-SANR-FIXT
100
AcDbSpline
210
0.0
220
0.0
230
1.0
 70
    24
 71
     3
 72
     9
 73
     5
 74
     0
 42
0.000000001
 43
0.0000000001
 40
0.0
 40
0.0
 40
0.0
 40
0.0
 40
0.5
 40
1.0
 40
1.0
 40
1.0
 40
1.0
 10
886.1097831161934
 20
1664.745878730047
 30
0.0
 10
885.6362723423368
 20
1664.745878730047
 30
0.0
 10
884.9221989563115
 20
1664.745878730047
 30
0.0
 10
884.6740218936634
 20
1664.745878730047
 30
0.0
 10
884.6664074431833
 20
1664.745878730047
 30
0.0
  0
SPLINE
  5
221
330
1B6
100
AcDbEntity
  8
P-SANR-FIXT
100
AcDbSpline
210
0.0
220
0.0
230
1.0
 70
    24
 71
     3
 72
     9
 73
     5
 74
     0
 42
0.000000001
 43
0.0000000001
 40
0.0
 40
0.0
 40
0.0
 40
0.0
 40
0.5
 40
1.0
 40
1.0
 40
1.0
 40
1.0
 10
913.6664074431832
 20
1664.745878730047
 30
0.0
 10
913.6587929927081
 20
1664.745878730047
 30
0.0
 10
913.4106159300664
 20
1664.745878730047
 30
0.0
 10
912.6965425440413
 20
1664.745878730047
 30
0.0
 10
912.2230317701829
 20
1664.745878730047
 30
0.0
  0
SPLINE
  5
222
330
1B6
100
AcDbEntity
  8
P-SANR-FIXT
100
AcDbSpline
210
0.0
220
0.0
230
1.0
 70
    24
 71
     3
 72
     9
 73
     5
 74
     0
 42
0.000000001
 43
0.0000000001
 40
0.0
 40
0.0
 40
0.0
 40
0.0
 40
0.5
 40
1.0
 40
1.0
 40
1.0
 40
1.0
 10
884.666407443183
 20
1747.745878730008
 30
0.0
 10
884.674021893638
 20
1747.745878730007
 30
0.0
 10
884.9221989562536
 20
1747.745878730007
 30
0.0
 10
885.6362723422799
 20
1747.745878730007
 30
0.0
 10
886.1097831161458
 20
1747.745878730007
 30
0.0
  0
SPLINE
  5
223
330
1B6
100
AcDbEntity
  8
P-SANR-FIXT
100
AcDbSpline
210
0.0
220
0.0
230
1.0
 70
    24
 71
     3
 72
     9
 73
     5
 74
     0
 42
0.000000001
 43
0.0000000001
 40
0.0
 40
0.0
 40
0.0
 40
0.0
 40
0.5
 40
1.0
 40
1.0
 40
1.0
 40
1.0
 10
912.22303177023
 20
1747.745878730007
 30
0.0
 10
912.6965425440976
 20
1747.745878730007
 30
0.0
 10
913.4106159301239
 20
1747.745878730007
 30
0.0
 10
913.6587929927328
 20
1747.745878730007
 30
0.0
 10
913.6664074431829
 20
1747.745878730008
 30
0.0
  0
LINE
  5
224
330
1B6
100
AcDbEntity
  8
P-SANR-FIXT
100
AcDbLine
 10
886.1097831161458
 20
1747.745878730007
 30
0.0
 11
912.22303177023
 21
1747.745878730007
 31
0.0
  0
LINE
  5
225
330
1B6
100
AcDbEntity
  8
P-SANR-FIXT
100
AcDbLine
 10
886.1097831161695
 20
1747.745878730007
 30
0.0
 11
886.1097831161695
 21
1739.657335992147
 31
0.0
  0
LINE
  5
226
330
1B6
100
AcDbEntity
  8
P-SANR-FIXT
100
AcDbLine
 10
912.2230317702065
 20
1739.657335992147
 30
0.0
 11
912.2230317702065
 21
1747.745878730007
 31
0.0
  0
LINE
  5
227
330
1B6
100
AcDbEntity
  8
P-SANR-FIXT
100
AcDbLine
 10
886.1097831161508
 20
1739.657335992147
 30
0.0
 11
912.2230317702252
 21
1739.657335992147
 31
0.0
  0
SPLINE
  5
228
330
1B6
100
AcDbEntity
  8
P-SANR-FIXT
100
AcDbSpline
210
0.0
220
0.0
230
1.0
 70
     8
 71
     3
 72
     9
 73
     5
 74
     0
 42
0.000000001
 43
0.0000000001
 40
0.0
 40
0.0
 40
0.0
 40
0.0
 40
0.5
 40
1.0
 40
1.0
 40
1.0
 40
1.0
 10
886.1097831161508
 20
1739.657335992147
 30
0.0
 10
885.6362723422892
 20
1737.566604514961
 30
0.0
 10
884.9221989562664
 20
1733.365630160758
 30
0.0
 10
884.6740218936442
 20
1729.125633006896
 30
0.0
 10
884.666407443183
 20
1726.99587873005
 30
0.0
  0
SPLINE
  5
229
330
1B6
100
AcDbEntity
  8
P-SANR-FIXT
100
AcDbSpline
210
0.0
220
0.0
230
1.0
 70
     8
 71
     3
 72
     9
 73
     5
 74
     0
 42
0.000000001
 43
0.0000000001
 40
0.0
 40
0.0
 40
0.0
 40
0.0
 40
0.5
 40
1.0
 40
1.0
 40
1.0
 40
1.0
 10
884.666407443183
 20
1726.99587873005
 30
0.0
 10
884.6740218936442
 20
1724.866124453192
 30
0.0
 10
884.9221989562693
 20
1720.626127299308
 30
0.0
 10
885.6362723422991
 20
1716.425152945083
 30
0.0
 10
886.1097831161654
 20
1714.334421467886
 30
0.0
  0
SPLINE
  5
22A
330
1B6
100
AcDbEntity
  8
P-SANR-FIXT
100
AcDbSpline
210
0.0
220
0.0
230
1.0
 70
     8
 71
     3
 72
     9
 73
     5
 74
     0
 42
0.000000001
 43
0.0000000001
 40
0.0
 40
0.0
 40
0.0
 40
0.0
 40
0.5
 40
1.0
 40
1.0
 40
1.0
 40
1.0
 10
912.2230317702108
 20
1714.334421467886
 30
0.0
 10
912.6965425440786
 20
1716.425152945083
 30
0.0
 10
913.4106159301085
 20
1720.626127299307
 30
0.0
 10
913.6587929927268
 20
1724.866124453192
 30
0.0
 10
913.6664074431829
 20
1726.99587873005
 30
0.0
  0
SPLINE
  5
22B
330
1B6
100
AcDbEntity
  8
P-SANR-FIXT
100
AcDbSpline
210
0.0
220
0.0
230
1.0
 70
     8
 71
     3
 72
     9
 73
     5
 74
     0
 42
0.000000001
 43
0.0000000001
 40
0.0
 40
0.0
 40
0.0
 40
0.0
 40
0.5
 40
1.0
 40
1.0
 40
1.0
 40
1.0
 10
913.6664074431829
 20
1726.99587873005
 30
0.0
 10
913.6587929927268
 20
1729.125633006896
 30
0.0
 10
913.4106159301111
 20
1733.365630160758
 30
0.0
 10
912.6965425440884
 20
1737.566604514961
 30
0.0
 10
912.2230317702252
 20
1739.657335992147
 30
0.0
  0
LINE
  5
22C
330
1B6
100
AcDbEntity
  8
P-SANR-FIXT
100
AcDbLine
 10
886.1097831161654
 20
1714.334421467886
 30
0.0
 11
912.2230317702108
 21
1714.334421467886
 31
0.0
  0
LINE
  5
22D
330
1B6
100
AcDbEntity
  8
P-SANR-FIXT
100
AcDbLine
 10
886.1097831161695
 20
1714.334421467886
 30
0.0
 11
886.1097831161695
 21
1706.245878730071
 31
0.0
  0
LINE
  5
22E
330
1B6
100
AcDbEntity
  8
P-SANR-FIXT
100
AcDbLine
 10
886.1097831161695
 20
1706.24587873007
 30
0.0
 11
886.1097831161695
 21
1698.157335992167
 31
0.0
  0
LINE
  5
22F
330
1B6
100
AcDbEntity
  8
P-SANR-FIXT
100
AcDbLine
 10
912.2230317702067
 20
1698.157335992167
 30
0.0
 11
912.2230317702067
 21
1706.24587873007
 31
0.0
  0
LINE
  5
230
330
1B6
100
AcDbEntity
  8
P-SANR-FIXT
100
AcDbLine
 10
912.2230317702067
 20
1706.24587873007
 30
0.0
 11
912.2230317702067
 21
1714.334421467886
 31
0.0
  0
SPLINE
  5
231
330
1B6
100
AcDbEntity
  8
P-SANR-FIXT
100
AcDbSpline
210
0.0
220
0.0
230
1.0
 70
     8
 71
     3
 72
     9
 73
     5
 74
     0
 42
0.000000001
 43
0.0000000001
 40
0.0
 40
0.0
 40
0.0
 40
0.0
 40
0.5
 40
1.0
 40
1.0
 40
1.0
 40
1.0
 10
912.2230317701873
 20
1672.834421467907
 30
0.0
 10
912.6965425440506
 20
1674.925152945104
 30
0.0
 10
913.4106159300797
 20
1679.126127299329
 30
0.0
 10
913.6587929927143
 20
1683.366124453213
 30
0.0
 10
913.6664074431832
 20
1685.49587873007
 30
0.0
  0
SPLINE
  5
232
330
1B6
100
AcDbEntity
  8
P-SANR-FIXT
100
AcDbSpline
210
0.0
220
0.0
230
1.0
 70
     8
 71
     3
 72
     9
 73
     5
 74
     0
 42
0.000000001
 43
0.0000000001
 40
0.0
 40
0.0
 40
0.0
 40
0.0
 40
0.5
 40
1.0
 40
1.0
 40
1.0
 40
1.0
 10
913.6664074431832
 20
1685.49587873007
 30
0.0
 10
913.6587929927143
 20
1687.625633006916
 30
0.0
 10
913.4106159300822
 20
1691.865630160778
 30
0.0
 10
912.69654254406
 20
1696.066604514981
 30
0.0
 10
912.2230317702015
 20
1698.157335992167
 30
0.0
  0
LINE
  5
233
330
1B6
100
AcDbEntity
  8
P-SANR-FIXT
100
AcDbLine
 10
886.1097831161746
 20
1698.157335992167
 30
0.0
 11
912.2230317702015
 21
1698.157335992167
 31
0.0
  0
SPLINE
  5
234
330
1B6
100
AcDbEntity
  8
P-SANR-FIXT
100
AcDbSpline
210
0.0
220
0.0
230
1.0
 70
     8
 71
     3
 72
     9
 73
     5
 74
     0
 42
0.000000001
 43
0.0000000001
 40
0.0
 40
0.0
 40
0.0
 40
0.0
 40
0.5
 40
1.0
 40
1.0
 40
1.0
 40
1.0
 10
886.1097831161746
 20
1698.157335992167
 30
0.0
 10
885.6362723423178
 20
1696.066604514981
 30
0.0
 10
884.9221989562956
 20
1691.865630160778
 30
0.0
 10
884.6740218936568
 20
1687.625633006916
 30
0.0
 10
884.6664074431833
 20
1685.49587873007
 30
0.0
  0
SPLINE
  5
235
330
1B6
100
AcDbEntity
  8
P-SANR-FIXT
100
AcDbSpline
210
0.0
220
0.0
230
1.0
 70
     8
 71
     3
 72
     9
 73
     5
 74
     0
 42
0.000000001
 43
0.0000000001
 40
0.0
 40
0.0
 40
0.0
 40
0.0
 40
0.5
 40
1.0
 40
1.0
 40
1.0
 40
1.0
 10
884.6664074431833
 20
1685.49587873007
 30
0.0
 10
884.674021893657
 20
1683.366124453213
 30
0.0
 10
884.9221989562984
 20
1679.126127299329
 30
0.0
 10
885.6362723423275
 20
1674.925152945104
 30
0.0
 10
886.109783116189
 20
1672.834421467907
 30
0.0
  0
LINE
  5
236
330
1B6
100
AcDbEntity
  8
P-SANR-FIXT
100
AcDbLine
 10
957.1664074432019
 20
1736.245878730073
 30
0.0
 11
931.2664074432301
 21
1736.245878730073
 31
0.0
  0
LINE
  5
237
330
1B6
100
AcDbEntity
  8
P-SANR-FIXT
100
AcDbLine
 10
931.2664074432303
 20
1676.245878730071
 30
0.0
 11
957.1664074432021
 21
1676.245878730071
 31
0.0
  0
LINE
  5
238
330
1B6
100
AcDbEntity
  8
P-SANR-FIXT
100
AcDbLine
 10
958.666407443202
 20
1734.745878730073
 30
0.0
 11
957.1664074432019
 21
1736.245878730073
 31
0.0
  0
LINE
  5
239
330
1B6
100
AcDbEntity
  8
P-SANR-FIXT
100
AcDbLine
 10
957.1664074432021
 20
1676.245878730071
 30
0.0
 11
958.6664074432022
 21
1677.745878730071
 31
0.0
  0
LINE
  5
23A
330
1B6
100
AcDbEntity
  8
P-SANR-FIXT
100
AcDbLine
 10
913.6664074431848
 20
1674.745878730028
 30
0.0
 11
931.2664074432303
 21
1674.745878730028
 31
0.0
  0
LINE
  5
23B
330
1B6
100
AcDbEntity
  8
P-SANR-FIXT
100
AcDbLine
 10
931.2664074432301
 20
1737.745878730029
 30
0.0
 11
913.6664074431845
 21
1737.745878730029
 31
0.0
  0
LINE
  5
23C
330
1B6
100
AcDbEntity
  8
P-SANR-FIXT
100
AcDbLine
 10
957.1664074432003
 20
1706.245878730071
 30
0.0
 11
957.1664074432002
 21
1736.245878730072
 31
0.0
  0
LINE
  5
23D
330
1B6
100
AcDbEntity
  8
P-SANR-FIXT
100
AcDbLine
 10
957.1664074432005
 20
1676.24587873007
 30
0.0
 11
957.1664074432003
 21
1706.245878730071
 31
0.0
  0
LINE
  5
23E
330
1B6
100
AcDbEntity
  8
P-SANR-FIXT
100
AcDbLine
 10
958.6664074432002
 20
1734.745878730072
 30
0.0
 11
958.6664074432004
 21
1706.245878730072
 31
0.0
  0
LINE
  5
23F
330
1B6
100
AcDbEntity
  8
P-SANR-FIXT
100
AcDbLine
 10
958.6664074432004
 20
1706.245878730071
 30
0.0
 11
958.6664074432006
 21
1677.74587873007
 31
0.0
  0
LINE
  5
240
330
1B6
100
AcDbEntity
  8
P-SANR-FIXT
100
AcDbLine
 10
931.2664074432285
 20
1674.853938413124
 30
0.0
 11
931.2664074432285
 21
1674.745878730027
 31
0.0
  0
LINE
  5
241
330
1B6
100
AcDbEntity
  8
P-SANR-FIXT
100
AcDbLine
 10
931.2664074432285
 20
1678.529492754705
 30
0.0
 11
931.2664074432285
 21
1674.853938413124
 31
0.0
  0
LINE
  5
242
330
1B6
100
AcDbEntity
  8
P-SANR-FIXT
100
AcDbLine
 10
931.2664074432282
 20
1737.745878730028
 30
0.0
 11
931.2664074432282
 21
1737.637819046931
 31
0.0
  0
LINE
  5
243
330
1B6
100
AcDbEntity
  8
P-SANR-FIXT
100
AcDbLine
 10
931.2664074432282
 20
1737.637819046931
 30
0.0
 11
931.2664074432282
 21
1733.962264705363
 31
0.0
  0
LINE
  5
244
330
1B6
100
AcDbEntity
  8
P-SANR-FIXT
100
AcDbLine
 10
931.2664074432282
 20
1730.286710363782
 30
0.0
 11
931.2664074432282
 21
1726.599954841645
 31
0.0
  0
LINE
  5
245
330
1B6
100
AcDbEntity
  8
P-SANR-FIXT
100
AcDbLine
 10
931.2664074432282
 20
1726.599954841645
 30
0.0
 11
931.2664074432284
 21
1717.726381701013
 31
0.0
  0
LINE
  5
246
330
1B6
100
AcDbEntity
  8
P-SANR-FIXT
100
AcDbLine
 10
931.2664074432282
 20
1733.962264705363
 30
0.0
 11
931.2664074432282
 21
1730.286710363782
 31
0.0
  0
LINE
  5
247
330
1B6
100
AcDbEntity
  8
P-SANR-FIXT
100
AcDbLine
 10
931.2664074432284
 20
1708.852808560308
 30
0.0
 11
931.2664074432284
 21
1703.638948899747
 31
0.0
  0
LINE
  5
248
330
1B6
100
AcDbEntity
  8
P-SANR-FIXT
100
AcDbLine
 10
931.2664074432284
 20
1703.638948899747
 30
0.0
 11
931.2664074432284
 21
1694.765375759116
 31
0.0
  0
LINE
  5
249
330
1B6
100
AcDbEntity
  8
P-SANR-FIXT
100
AcDbLine
 10
931.2664074432284
 20
1717.726381701013
 30
0.0
 11
931.2664074432284
 21
1708.852808560308
 31
0.0
  0
LINE
  5
24A
330
1B6
100
AcDbEntity
  8
P-SANR-FIXT
100
AcDbLine
 10
931.2664074432285
 20
1685.89180261841
 30
0.0
 11
931.2664074432285
 21
1682.205047096273
 31
0.0
  0
LINE
  5
24B
330
1B6
100
AcDbEntity
  8
P-SANR-FIXT
100
AcDbLine
 10
931.2664074432285
 20
1682.205047096273
 30
0.0
 11
931.2664074432285
 21
1678.529492754705
 31
0.0
  0
LINE
  5
24C
330
1B6
100
AcDbEntity
  8
P-SANR-FIXT
100
AcDbLine
 10
931.2664074432284
 20
1694.765375759116
 30
0.0
 11
931.2664074432285
 21
1685.89180261841
 31
0.0
  0
LINE
  5
24D
330
1B6
100
AcDbEntity
  8
P-SANR-FIXT
100
AcDbLine
 10
931.2664074432285
 20
1682.205047096273
 30
0.0
 11
913.6664074431829
 21
1682.205047096272
 31
0.0
  0
LINE
  5
24E
330
1B6
100
AcDbEntity
  8
P-SANR-FIXT
100
AcDbLine
 10
913.6664074431829
 20
1674.853938413124
 30
0.0
 11
931.2664074432285
 21
1674.853938413124
 31
0.0
  0
LINE
  5
24F
330
1B6
100
AcDbEntity
  8
P-SANR-FIXT
100
AcDbLine
 10
913.6664074431827
 20
1737.637819046931
 30
0.0
 11
931.2664074432282
 21
1737.637819046931
 31
0.0
  0
LINE
  5
250
330
1B6
100
AcDbEntity
  8
P-SANR-FIXT
100
AcDbLine
 10
913.6664074431827
 20
1730.286710363782
 30
0.0
 11
931.2664074432282
 21
1730.286710363782
 31
0.0
  0
LINE
  5
251
330
1B6
100
AcDbEntity
  8
P-SANR-FIXT
100
AcDbLine
 10
913.6664074431827
 20
1726.599954841644
 30
0.0
 11
931.2664074432282
 21
1726.599954841645
 31
0.0
  0
LINE
  5
252
330
1B6
100
AcDbEntity
  8
P-SANR-FIXT
100
AcDbLine
 10
913.6664074431829
 20
1708.852808560308
 30
0.0
 11
931.2664074432284
 21
1708.852808560308
 31
0.0
  0
LINE
  5
253
330
1B6
100
AcDbEntity
  8
P-SANR-FIXT
100
AcDbLine
 10
913.6664074431829
 20
1703.638948899746
 30
0.0
 11
931.2664074432284
 21
1703.638948899747
 31
0.0
  0
LINE
  5
254
330
1B6
100
AcDbEntity
  8
P-SANR-FIXT
100
AcDbLine
 10
913.6664074431829
 20
1685.89180261841
 30
0.0
 11
931.2664074432285
 21
1685.89180261841
 31
0.0
  0
LINE
  5
255
330
1B6
100
AcDbEntity
  8
P-SANR-FIXT
100
AcDbLine
 10
759.4235445474005
 20
1706.245878730093
 30
0.0
 11
760.9164074431673
 21
1663.495878730102
 31
0.0
  0
ARC
  5
256
330
1B6
100
AcDbEntity
  8
P-SANR-FIXT
100
AcDbCircle
 10
772.9164074431673
 20
1663.495878730093
 30
0.0
 40
12.00000000000005
100
AcDbArc
 50
179.9999999999552
 51
329.9380539879461
  0
ARC
  5
257
330
1B6
100
AcDbEntity
  8
P-SANR-FIXT
100
AcDbCircle
 10
786.620922848537
 20
1653.744832791359
 30
0.0
 40
4.999999999999948
100
AcDbArc
 50
61.04703880340284
 51
131.5857893014115
  0
ARC
  5
258
330
1B6
100
AcDbEntity
  8
P-SANR-FIXT
100
AcDbCircle
 10
815.6664074431894
 20
1706.2458787301
 30
0.0
 40
55.00000000000012
100
AcDbArc
 50
241.0470388034011
 51
298.7795006086501
  0
ARC
  5
259
330
1B6
100
AcDbEntity
  8
P-SANR-FIXT
100
AcDbCircle
 10
844.5528144408912
 20
1653.657139528982
 30
0.0
 40
5.00000000000009
100
AcDbArc
 50
35.36262761352914
 51
118.7795006086583
  0
ARC
  5
25A
330
1B6
100
AcDbEntity
  8
P-SANR-FIXT
100
AcDbCircle
 10
858.416407443167
 20
1663.495878730081
 30
0.0
 40
11.99999999999995
100
AcDbArc
 50
215.3626276135236
 51
0.0000000000423395
  0
LINE
  5
25B
330
1B6
100
AcDbEntity
  8
P-SANR-FIXT
100
AcDbLine
 10
870.4164074431671
 20
1663.495878730091
 30
0.0
 11
871.9092703389447
 21
1706.245878730082
 31
0.0
  0
LINE
  5
25C
330
1B6
100
AcDbEntity
  8
P-SANR-FIXT
100
AcDbLine
 10
871.9092703389447
 20
1706.245878730082
 30
0.0
 11
870.4164074431785
 21
1748.995878730061
 31
0.0
  0
ARC
  5
25D
330
1B6
100
AcDbEntity
  8
P-SANR-FIXT
100
AcDbCircle
 10
858.4164074431784
 20
1748.995878730082
 30
0.0
 40
12.00000000000005
100
AcDbArc
 50
359.9999999999017
 51
144.6373723864581
  0
ARC
  5
25E
330
1B6
100
AcDbEntity
  8
P-SANR-FIXT
100
AcDbCircle
 10
844.5528144409045
 20
1758.834617931185
 30
0.0
 40
4.999999999999841
100
AcDbArc
 50
241.2204993913293
 51
324.6373723864632
  0
ARC
  5
25F
330
1B6
100
AcDbEntity
  8
P-SANR-FIXT
100
AcDbCircle
 10
815.6664074431894
 20
1706.245878730075
 30
0.0
 40
54.99999999999994
100
AcDbArc
 50
61.22049939133398
 51
118.9529611965829
  0
ARC
  5
260
330
1B6
100
AcDbEntity
  8
P-SANR-FIXT
100
AcDbCircle
 10
786.6209228485501
 20
1758.746924668823
 30
0.0
 40
5.000000000000071
100
AcDbArc
 50
228.4142106985829
 51
298.9529611965866
  0
ARC
  5
261
330
1B6
100
AcDbEntity
  8
P-SANR-FIXT
100
AcDbCircle
 10
772.9164074431783
 20
1748.995878730093
 30
0.0
 40
12.00000000000008
100
AcDbArc
 50
30.06194601203826
 51
179.9999999999913
  0
LINE
  5
262
330
1B6
100
AcDbEntity
  8
P-SANR-FIXT
100
AcDbLine
 10
760.9164074431783
 20
1748.995878730094
 30
0.0
 11
759.4235445474005
 21
1706.245878730093
 31
0.0
  0
ARC
  5
263
330
1B6
100
AcDbEntity
  8
P-SANR-FIXT
100
AcDbCircle
 10
815.666407443185
 20
1706.24587873007
 30
0.0
 40
51.00000000000019
100
AcDbArc
 50
0.0000000000008874
 51
180.0000000000004
  0
ARC
  5
264
330
1B6
100
AcDbEntity
  8
P-SANR-FIXT
100
AcDbCircle
 10
815.666407443185
 20
1706.24587873007
 30
0.0
 40
51.00000000000009
100
AcDbArc
 50
180.0000000000003
 51
0.0000000000000509
  0
ARC
  5
265
330
1B6
100
AcDbEntity
  8
P-SANR-FIXT
100
AcDbCircle
 10
815.666407443185
 20
1706.245878730071
 30
0.0
 40
28.89931226727718
100
AcDbArc
 50
0.0000000000001081
 51
180.0000000000001
  0
ARC
  5
266
330
1B6
100
AcDbEntity
  8
P-SANR-FIXT
100
AcDbCircle
 10
815.666407443185
 20
1706.245878730071
 30
0.0
 40
28.89931226727697
100
AcDbArc
 50
180.0000000000007
 51
0.0000000000002036
  0
ARC
  5
267
330
1B6
100
AcDbEntity
  8
P-SANR-FIXT
100
AcDbCircle
 10
815.666407443185
 20
1706.245878730071
 30
0.0
 40
29.49999999999511
100
AcDbArc
 50
0.0
 51
179.9999999999991
  0
ARC
  5
268
330
1B6
100
AcDbEntity
  8
P-SANR-FIXT
100
AcDbCircle
 10
815.666407443185
 20
1706.245878730071
 30
0.0
 40
29.49999999999499
100
AcDbArc
 50
180.0000000000001
 51
0.0000000000001018
  0
LINE
  5
269
330
1B6
100
AcDbEntity
  8
P-SANR-FIXT
100
AcDbLine
 10
879.5960880453996
 20
1739.245878730072
 30
0.0
 11
870.756884945723
 21
1739.245878730072
 31
0.0
  0
LINE
  5
26A
330
1B6
100
AcDbEntity
  8
P-SANR-FIXT
100
AcDbLine
 10
760.5759299406331
 20
1739.245878730072
 30
0.0
 11
757.7367268409732
 21
1739.245878730072
 31
0.0
  0
LINE
  5
26B
330
1B6
100
AcDbEntity
  8
P-SANR-FIXT
100
AcDbLine
 10
757.7367268409736
 20
1673.245878730071
 30
0.0
 11
760.5759299406265
 21
1673.245878730071
 31
0.0
  0
LINE
  5
26C
330
1B6
100
AcDbEntity
  8
P-SANR-FIXT
100
AcDbLine
 10
870.7568849457141
 20
1673.245878730071
 30
0.0
 11
879.5960880454
 21
1673.245878730072
 31
0.0
  0
LINE
  5
26D
330
1B6
100
AcDbEntity
  8
P-SANR-FIXT
100
AcDbLine
 10
756.0046760334044
 20
1740.245878730072
 30
0.0
 11
753.6664074431863
 21
1744.295878730072
 31
0.0
  0
LINE
  5
26E
330
1B6
100
AcDbEntity
  8
P-SANR-FIXT
100
AcDbLine
 10
753.6664074431866
 20
1668.195878730071
 30
0.0
 11
756.0046760334047
 21
1672.245878730071
 31
0.0
  0
LINE
  5
26F
330
1B6
100
AcDbEntity
  8
P-SANR-FIXT
100
AcDbLine
 10
753.6664074431863
 20
1744.295878730072
 30
0.0
 11
752.6664074431887
 21
1744.295878730072
 31
0.0
  0
LINE
  5
270
330
1B6
100
AcDbEntity
  8
P-SANR-FIXT
100
AcDbLine
 10
752.6664074431891
 20
1668.19587873007
 30
0.0
 11
753.6664074431866
 21
1668.19587873007
 31
0.0
  0
LINE
  5
271
330
1B6
100
AcDbEntity
  8
P-SANR-FIXT
100
AcDbLine
 10
849.666407443186
 20
1762.245878730072
 30
0.0
 11
849.666407443186
 21
1757.198013089224
 31
0.0
  0
LINE
  5
272
330
1B6
100
AcDbEntity
  8
P-SANR-FIXT
100
AcDbLine
 10
849.6664074431867
 20
1655.293744370931
 30
0.0
 11
849.6664074431867
 21
1650.245878730105
 31
0.0
  0
LINE
  5
273
330
1B6
100
AcDbEntity
  8
P-SANR-FIXT
100
AcDbLine
 10
867.6664074431867
 20
1650.245878730104
 30
0.0
 11
867.6664074431867
 21
1655.888657280012
 31
0.0
  0
LINE
  5
274
330
1B6
100
AcDbEntity
  8
P-SANR-FIXT
100
AcDbLine
 10
867.6664074431862
 20
1756.603100180167
 30
0.0
 11
867.6664074431862
 21
1762.245878730072
 31
0.0
  0
LINE
  5
275
330
1B6
100
AcDbEntity
  8
P-SANR-FIXT
100
AcDbLine
 10
763.6664074431863
 20
1762.245878730038
 30
0.0
 11
763.6664074431863
 21
1756.634644781224
 31
0.0
  0
LINE
  5
276
330
1B6
100
AcDbEntity
  8
P-SANR-FIXT
100
AcDbLine
 10
763.6664074431867
 20
1655.857112678948
 30
0.0
 11
763.6664074431867
 21
1650.245878730104
 31
0.0
  0
LINE
  5
277
330
1B6
100
AcDbEntity
  8
P-SANR-FIXT
100
AcDbLine
 10
781.6664074431867
 20
1650.245878730104
 30
0.0
 11
781.6664074431867
 21
1655.29965723705
 31
0.0
  0
LINE
  5
278
330
1B6
100
AcDbEntity
  8
P-SANR-FIXT
100
AcDbLine
 10
781.666407443186
 20
1757.19210022315
 30
0.0
 11
781.666407443186
 21
1762.245878730038
 31
0.0
  0
LINE
  5
279
330
1B6
100
AcDbEntity
  8
P-SANR-FIXT
100
AcDbLine
 10
884.6664074431847
 20
1744.295878730073
 30
0.0
 11
883.6664074431865
 21
1744.295878730073
 31
0.0
  0
LINE
  5
27A
330
1B6
100
AcDbEntity
  8
P-SANR-FIXT
100
AcDbLine
 10
883.6664074431869
 20
1668.195878730071
 30
0.0
 11
884.6664074431851
 21
1668.195878730071
 31
0.0
  0
LINE
  5
27B
330
1B6
100
AcDbEntity
  8
P-SANR-FIXT
100
AcDbLine
 10
883.6664074431865
 20
1744.295878730072
 30
0.0
 11
881.3281388529686
 21
1740.245878730072
 31
0.0
  0
LINE
  5
27C
330
1B6
100
AcDbEntity
  8
P-SANR-FIXT
100
AcDbLine
 10
881.3281388529688
 20
1672.245878730072
 30
0.0
 11
883.6664074431869
 21
1668.195878730072
 31
0.0
  0
LWPOLYLINE
  5
27D
330
1B6
100
AcDbEntity
  8
P-SANR-FIXT
100
AcDbPolyline
 90
       28
 70
   128
 43
0.0
 10
879.5960880453996
 20
1739.245878730072
 10
879.676066713773
 20
1739.24747851675
 10
879.7559174333379
 20
1739.252275317466
 10
879.8355124599776
 20
1739.260261458364
 10
879.9147244586281
 20
1739.27142416332
 10
879.9934267069899
 20
1739.285745574389
 10
880.071493298254
 20
1739.303202780368
 10
880.1487993425281
 20
1739.32376785345
 10
880.2252211666319
 20
1739.347407893907
 10
880.3006365119498
 20
1739.374085082716
 10
880.3749247300171
 20
1739.403756742066
 10
880.4479669755318
 20
1739.436375403632
 10
880.5196463964827
 20
1739.471888884513
 10
880.5898483210871
 20
1739.510240370717
 10
880.6584604412416
 20
1739.551368508045
 10
880.7253729921896
 20
1739.595207500252
 10
880.7904789281243
 20
1739.641687214303
 10
880.8536740934366
 20
1739.69073329257
 10
880.9148573893425
 20
1739.74226727179
 10
880.973930935621
 20
1739.79620670859
 10
881.0308002271987
 20
1739.852465311377
 10
881.0853742853414
 20
1739.910953078389
 10
881.1375658031977
 20
1739.971576441674
 10
881.1872912854724
 20
1740.034238416785
 10
881.2344711820017
 20
1740.098838757927
 10
881.2790300150155
 20
1740.165274118335
 10
881.3208964998862
 20
1740.233438215606
 10
881.3281388529686
 20
1740.245878730072
  0
LWPOLYLINE
  5
27E
330
1B6
100
AcDbEntity
  8
P-SANR-FIXT
100
AcDbPolyline
 90
       28
 70
   128
 43
0.0
 10
881.3281388529688
 20
1672.245878730072
 10
881.2867640628784
 20
1672.314342395305
 10
881.2426845518182
 20
1672.381096746601
 10
881.1959708376029
 20
1672.446034991236
 10
881.1466976522105
 20
1672.509053241874
 10
881.0949438222261
 20
1672.570050682756
 10
881.0407921427376
 20
1672.628929730988
 10
880.9843292448805
 20
1672.685596192654
 10
880.9256454572464
 20
1672.739959413504
 10
880.8648346613773
 20
1672.79193242398
 10
880.8019941415741
 20
1672.841432078353
 10
880.7372244292634
 20
1672.888379187735
 10
880.6706291421679
 20
1672.932698646766
 10
880.6023148185404
 20
1672.974319553767
 10
880.5323907467267
 20
1673.013175324163
 10
880.4609687903246
 20
1673.049203797013
 10
880.3881632092286
 20
1673.082347334445
 10
880.3140904768376
 20
1673.112552913868
 10
880.2388690937219
 20
1673.1397722128
 10
880.1626193980482
 20
1673.163961686168
 10
880.0854633730638
 20
1673.185082635976
 10
880.0075244519499
 20
1673.20310127321
 10
879.9289273203536
 20
1673.217988771892
 10
879.8497977169194
 20
1673.229721315203
 10
879.7702622321326
 20
1673.238280133574
 10
879.6904481058023
 20
1673.243651534722
 10
879.6104830235043
 20
1673.245826925553
 10
879.5960880454
 20
1673.245878730072
  0
LWPOLYLINE
  5
27F
330
1B6
100
AcDbEntity
  8
P-SANR-FIXT
100
AcDbPolyline
 90
       28
 70
   128
 43
0.0
 10
756.0046760334044
 20
1740.245878730072
 10
756.0460508234948
 20
1740.177415064838
 10
756.090130334555
 20
1740.110660713543
 10
756.1368440487702
 20
1740.045722468907
 10
756.1861172341628
 20
1739.982704218269
 10
756.2378710641471
 20
1739.921706777388
 10
756.2920227436356
 20
1739.862827729155
 10
756.3484856414929
 20
1739.806161267489
 10
756.4071694291267
 20
1739.75179804664
 10
756.4679802249957
 20
1739.699825036164
 10
756.530820744799
 20
1739.650325381791
 10
756.59559045711
 20
1739.603378272408
 10
756.6621857442055
 20
1739.559058813377
 10
756.7305000678326
 20
1739.517437906377
 10
756.8004241396464
 20
1739.47858213598
 10
756.8718460960485
 20
1739.44255366313
 10
756.9446516771446
 20
1739.409410125699
 10
757.0187244095357
 20
1739.379204546275
 10
757.0939457926513
 20
1739.351985247344
 10
757.170195488325
 20
1739.327795773976
 10
757.2473515133093
 20
1739.306674824167
 10
757.3252904344234
 20
1739.288656186934
 10
757.4038875660196
 20
1739.273768688251
 10
757.4830171694538
 20
1739.262036144941
 10
757.5625526542405
 20
1739.25347732657
 10
757.6423667805707
 20
1739.248105925421
 10
757.7223318628689
 20
1739.245930534591
 10
757.7367268409732
 20
1739.245878730072
  0
LWPOLYLINE
  5
280
330
1B6
100
AcDbEntity
  8
P-SANR-FIXT
100
AcDbPolyline
 90
       28
 70
   128
 43
0.0
 10
757.7367268409736
 20
1673.245878730071
 10
757.6567481726002
 20
1673.244278943393
 10
757.5768974530352
 20
1673.239482142676
 10
757.4973024263955
 20
1673.231496001779
 10
757.4180904277451
 20
1673.220333296822
 10
757.3393881793833
 20
1673.206011885753
 10
757.2613215881192
 20
1673.188554679775
 10
757.1840155438454
 20
1673.167989606692
 10
757.1075937197413
 20
1673.144349566236
 10
757.0321783744235
 20
1673.117672377427
 10
756.9578901563562
 20
1673.088000718077
 10
756.8848479108416
 20
1673.055382056511
 10
756.8131684898904
 20
1673.019868575629
 10
756.7429665652861
 20
1672.981517089426
 10
756.6743544451319
 20
1672.940388952098
 10
756.6074418941834
 20
1672.89654995989
 10
756.5423359582488
 20
1672.850070245839
 10
756.4791407929366
 20
1672.801024167573
 10
756.4179574970307
 20
1672.749490188353
 10
756.3588839507525
 20
1672.695550751553
 10
756.3020146591744
 20
1672.639292148765
 10
756.2474406010318
 20
1672.580804381754
 10
756.1952490831755
 20
1672.520181018468
 10
756.1455236009009
 20
1672.457519043358
 10
756.0983437043715
 20
1672.392918702216
 10
756.0537848713578
 20
1672.326483341807
 10
756.0119183864868
 20
1672.258319244537
 10
756.0046760334047
 20
1672.245878730071
  0
LINE
  5
281
330
1B6
100
AcDbEntity
  8
P-SANR-FIXT
100
AcDbLine
 10
753.666407443185
 20
1744.295878730071
 30
0.0
 11
753.666407443185
 21
1706.24587873007
 31
0.0
  0
LINE
  5
282
330
1B6
100
AcDbEntity
  8
P-SANR-FIXT
100
AcDbLine
 10
753.666407443185
 20
1706.24587873007
 30
0.0
 11
753.6664074431852
 21
1668.19587873007
 31
0.0
  0
LINE
  5
283
330
1B6
100
AcDbEntity
  8
P-SANR-FIXT
100
AcDbLine
 10
883.6664074431849
 20
1744.295878730071
 30
0.0
 11
883.6664074431851
 21
1706.245878730071
 31
0.0
  0
LINE
  5
284
330
1B6
100
AcDbEntity
  8
P-SANR-FIXT
100
AcDbLine
 10
883.6664074431851
 20
1706.245878730071
 30
0.0
 11
883.6664074431851
 21
1668.19587873007
 31
0.0
  0
ENDBLK
  5
286
330
1B6
100
AcDbEntity
  8
0
100
AcDbBlockEnd
  0
BLOCK
  5
387
330
288
100
AcDbEntity
  8
0
100
AcDbBlockBegin
  2
Automatic flow rate regulator valve_Caleffi_121 DN15 - 2__-V2-Est - Idraulica
 70
     0
 10
0.0
 20
0.0
 30
0.0
  3
Automatic flow rate regulator valve_Caleffi_121 DN15 - 2__-V2-Est - Idraulica
  1

  0
LINE
  5
289
330
288
100
AcDbEntity
  8
P-SANR-FIXT
100
AcDbLine
 10
1307.114353943077
 20
1905.982558849971
 30
0.0
 11
1297.114353943077
 21
1905.982558849971
 31
0.0
  0
LINE
  5
28A
330
288
100
AcDbEntity
  8
P-SANR-FIXT
100
AcDbLine
 10
1297.114353943077
 20
1905.982558849971
 30
0.0
 11
1287.114353943077
 21
1905.982558849971
 31
0.0
  0
LINE
  5
28B
330
288
100
AcDbEntity
  8
P-SANR-FIXT
100
AcDbLine
 10
1296.076292009375
 20
1905.982558849971
 30
0.0
 11
1297.114353943077
 21
1905.982558849971
 31
0.0
  0
LINE
  5
28C
330
288
100
AcDbEntity
  8
P-SANR-FIXT
100
AcDbLine
 10
1297.114353943077
 20
1905.982558849971
 30
0.0
 11
1298.135980282652
 21
1905.982558849971
 31
0.0
  0
LINE
  5
28D
330
288
100
AcDbEntity
  8
P-SANR-FIXT
100
AcDbLine
 10
1316.092727604007
 20
1905.982558849971
 30
0.0
 11
1317.114353943077
 21
1905.982558849971
 31
0.0
  0
LINE
  5
28E
330
288
100
AcDbEntity
  8
P-SANR-FIXT
100
AcDbLine
 10
1317.114353943077
 20
1905.982558849971
 30
0.0
 11
1318.152415876314
 21
1905.982558849971
 31
0.0
  0
LINE
  5
28F
330
288
100
AcDbEntity
  8
P-SANR-FIXT
100
AcDbLine
 10
1327.114353943077
 20
1905.982558849971
 30
0.0
 11
1317.114353943077
 21
1905.982558849971
 31
0.0
  0
LINE
  5
290
330
288
100
AcDbEntity
  8
P-SANR-FIXT
100
AcDbLine
 10
1317.114353943077
 20
1905.982558849971
 30
0.0
 11
1307.114353943077
 21
1905.982558849971
 31
0.0
  0
LINE
  5
291
330
288
100
AcDbEntity
  8
P-SANR-FIXT
100
AcDbLine
 10
1305.387492916452
 20
1913.982558850011
 30
0.0
 11
1308.841214969701
 21
1913.982558850011
 31
0.0
  0
LINE
  5
292
330
288
100
AcDbEntity
  8
P-SANR-FIXT
100
AcDbLine
 10
1325.888370456121
 20
1913.982558850011
 30
0.0
 11
1326.166912826331
 21
1913.982558850011
 31
0.0
  0
LINE
  5
293
330
288
100
AcDbEntity
  8
P-SANR-FIXT
100
AcDbLine
 10
1287.678178019028
 20
1913.982558850011
 30
0.0
 11
1288.340337430033
 21
1913.982558850011
 31
0.0
  0
LINE
  5
294
330
288
100
AcDbEntity
  8
P-SANR-FIXT
100
AcDbLine
 10
1305.051607876214
 20
1913.982558850011
 30
0.0
 11
1305.051607876214
 21
1907.137259388347
 31
0.0
  0
LINE
  5
295
330
288
100
AcDbEntity
  8
P-SANR-FIXT
100
AcDbLine
 10
1305.051607876214
 20
1907.137259388348
 30
0.0
 11
1307.114353943077
 21
1907.137259388348
 31
0.0
  0
LINE
  5
296
330
288
100
AcDbEntity
  8
P-SANR-FIXT
100
AcDbLine
 10
1307.114353943077
 20
1907.137259388348
 30
0.0
 11
1309.17710000994
 21
1907.137259388348
 31
0.0
  0
LINE
  5
297
330
288
100
AcDbEntity
  8
P-SANR-FIXT
100
AcDbLine
 10
1309.17710000994
 20
1907.137259388347
 30
0.0
 11
1309.17710000994
 21
1913.982558850011
 31
0.0
  0
SPLINE
  5
298
330
288
100
AcDbEntity
  8
P-SANR-FIXT
100
AcDbSpline
210
0.0
220
0.0
230
1.0
 70
     8
 71
     3
 72
     9
 73
     5
 74
     0
 42
0.000000001
 43
0.0000000001
 40
0.0
 40
0.0
 40
0.0
 40
0.0
 40
0.5
 40
1.0
 40
1.0
 40
1.0
 40
1.0
 10
1309.17710000994
 20
1907.137259388347
 30
0.0
 10
1310.480689484885
 20
1906.762278465335
 30
0.0
 10
1313.107154615354
 20
1906.194847452594
 30
0.0
 10
1315.772192106983
 20
1905.992478106418
 30
0.0
 10
1317.114353943086
 20
1905.982558849971
 30
0.0
  0
SPLINE
  5
299
330
288
100
AcDbEntity
  8
P-SANR-FIXT
100
AcDbSpline
210
0.0
220
0.0
230
1.0
 70
     8
 71
     3
 72
     9
 73
     5
 74
     0
 42
0.000000001
 43
0.0000000001
 40
0.0
 40
0.0
 40
0.0
 40
0.0
 40
0.5
 40
1.0
 40
1.0
 40
1.0
 40
1.0
 10
1317.114353943086
 20
1905.982558849971
 30
0.0
 10
1318.45651577919
 20
1905.992478106418
 30
0.0
 10
1321.121553270819
 20
1906.194847452594
 30
0.0
 10
1323.748018401289
 20
1906.762278465336
 30
0.0
 10
1325.051607876234
 20
1907.137259388348
 30
0.0
  0
LINE
  5
29A
330
288
100
AcDbEntity
  8
P-SANR-FIXT
100
AcDbLine
 10
1325.051607876234
 20
1907.137259388348
 30
0.0
 11
1325.051607876234
 21
1913.982558850011
 31
0.0
  0
LINE
  5
29B
330
288
100
AcDbEntity
  8
P-SANR-FIXT
100
AcDbLine
 10
1325.051607876234
 20
1907.137259388348
 30
0.0
 11
1327.114353943097
 21
1907.137259388348
 31
0.0
  0
LINE
  5
29C
330
288
100
AcDbEntity
  8
P-SANR-FIXT
100
AcDbLine
 10
1327.114353943097
 20
1907.137259388348
 30
0.0
 11
1327.114353943097
 21
1913.982558850011
 31
0.0
  0
SPLINE
  5
29D
330
288
100
AcDbEntity
  8
P-SANR-FIXT
100
AcDbSpline
210
0.0
220
0.0
230
1.0
 70
    24
 71
     3
 72
     9
 73
     5
 74
     0
 42
0.000000001
 43
0.0000000001
 40
0.0
 40
0.0
 40
0.0
 40
0.0
 40
0.5
 40
1.0
 40
1.0
 40
1.0
 40
1.0
 10
1327.114353943097
 20
1907.137259388348
 30
0.0
 10
1327.114353943097
 20
1906.762278465336
 30
0.0
 10
1327.114353943097
 20
1906.194847452595
 30
0.0
 10
1327.114353943097
 20
1905.992478106418
 30
0.0
 10
1327.114353943097
 20
1905.982558849971
 30
0.0
  0
SPLINE
  5
29E
330
288
100
AcDbEntity
  8
P-SANR-FIXT
100
AcDbSpline
210
0.0
220
0.0
230
1.0
 70
    24
 71
     3
 72
     9
 73
     5
 74
     0
 42
0.000000001
 43
0.0000000001
 40
0.0
 40
0.0
 40
0.0
 40
0.0
 40
0.5
 40
1.0
 40
1.0
 40
1.0
 40
1.0
 10
1287.114353943058
 20
1905.982558849971
 30
0.0
 10
1287.114353943058
 20
1905.992478106418
 30
0.0
 10
1287.114353943058
 20
1906.194847452594
 30
0.0
 10
1287.114353943058
 20
1906.762278465335
 30
0.0
 10
1287.114353943058
 20
1907.137259388347
 30
0.0
  0
LINE
  5
29F
330
288
100
AcDbEntity
  8
P-SANR-FIXT
100
AcDbLine
 10
1287.114353943058
 20
1907.137259388347
 30
0.0
 11
1287.114353943058
 21
1913.982558850011
 31
0.0
  0
LINE
  5
2A0
330
288
100
AcDbEntity
  8
P-SANR-FIXT
100
AcDbLine
 10
1287.114353943058
 20
1907.137259388348
 30
0.0
 11
1289.177100009921
 21
1907.137259388348
 31
0.0
  0
LINE
  5
2A1
330
288
100
AcDbEntity
  8
P-SANR-FIXT
100
AcDbLine
 10
1289.177100009921
 20
1907.137259388347
 30
0.0
 11
1289.177100009921
 21
1913.982558850011
 31
0.0
  0
SPLINE
  5
2A2
330
288
100
AcDbEntity
  8
P-SANR-FIXT
100
AcDbSpline
210
0.0
220
0.0
230
1.0
 70
     8
 71
     3
 72
     9
 73
     5
 74
     0
 42
0.000000001
 43
0.0000000001
 40
0.0
 40
0.0
 40
0.0
 40
0.0
 40
0.5
 40
1.0
 40
1.0
 40
1.0
 40
1.0
 10
1289.177100009921
 20
1907.137259388347
 30
0.0
 10
1290.480689484866
 20
1906.762278465335
 30
0.0
 10
1293.107154615336
 20
1906.194847452594
 30
0.0
 10
1295.772192106964
 20
1905.992478106417
 30
0.0
 10
1297.114353943068
 20
1905.982558849971
 30
0.0
  0
SPLINE
  5
2A3
330
288
100
AcDbEntity
  8
P-SANR-FIXT
100
AcDbSpline
210
0.0
220
0.0
230
1.0
 70
     8
 71
     3
 72
     9
 73
     5
 74
     0
 42
0.000000001
 43
0.0000000001
 40
0.0
 40
0.0
 40
0.0
 40
0.0
 40
0.5
 40
1.0
 40
1.0
 40
1.0
 40
1.0
 10
1297.114353943068
 20
1905.982558849971
 30
0.0
 10
1298.456515779171
 20
1905.992478106417
 30
0.0
 10
1301.121553270799
 20
1906.194847452594
 30
0.0
 10
1303.748018401269
 20
1906.762278465335
 30
0.0
 10
1305.051607876214
 20
1907.137259388347
 30
0.0
  0
LINE
  5
2A4
330
288
100
AcDbEntity
  8
P-SANR-FIXT
100
AcDbLine
 10
1368.163928459163
 20
1990.482558850031
 30
0.0
 11
1369.114353943096
 21
1991.432984333965
 31
0.0
  0
LINE
  5
2A5
330
288
100
AcDbEntity
  8
P-SANR-FIXT
100
AcDbLine
 10
1369.114353943096
 20
2008.532133366058
 30
0.0
 11
1368.163928459163
 21
2009.482558849992
 31
0.0
  0
LINE
  5
2A6
330
288
100
AcDbEntity
  8
P-SANR-FIXT
100
AcDbLine
 10
1363.114353943046
 20
1990.482558850031
 30
0.0
 11
1368.163928459163
 21
1990.482558850031
 31
0.0
  0
LINE
  5
2A7
330
288
100
AcDbEntity
  8
P-SANR-FIXT
100
AcDbLine
 10
1368.163928459163
 20
2009.482558849992
 30
0.0
 11
1363.114353943046
 21
2009.482558849992
 31
0.0
  0
LINE
  5
2A8
330
288
100
AcDbEntity
  8
P-SANR-FIXT
100
AcDbLine
 10
1369.114353943094
 20
1999.982558850011
 30
0.0
 11
1369.114353943094
 21
1991.432984333964
 31
0.0
  0
LINE
  5
2A9
330
288
100
AcDbEntity
  8
P-SANR-FIXT
100
AcDbLine
 10
1369.114353943094
 20
2008.532133366057
 30
0.0
 11
1369.114353943094
 21
1999.982558850011
 31
0.0
  0
LINE
  5
2AA
330
288
100
AcDbEntity
  8
P-SANR-FIXT
100
AcDbLine
 10
1368.163928459161
 20
1999.982558850011
 30
0.0
 11
1368.163928459161
 21
1990.48255885003
 31
0.0
  0
LINE
  5
2AB
330
288
100
AcDbEntity
  8
P-SANR-FIXT
100
AcDbLine
 10
1368.163928459161
 20
2009.482558849991
 30
0.0
 11
1368.163928459161
 21
1999.982558850011
 31
0.0
  0
LINE
  5
2AC
330
288
100
AcDbEntity
  8
P-SANR-FIXT
100
AcDbLine
 10
1363.114353943044
 20
1990.48255885003
 30
0.0
 11
1363.114353943044
 21
1999.982558850011
 31
0.0
  0
LINE
  5
2AD
330
288
100
AcDbEntity
  8
P-SANR-FIXT
100
AcDbLine
 10
1363.114353943044
 20
1999.982558850011
 30
0.0
 11
1363.114353943044
 21
2009.482558849991
 31
0.0
  0
LINE
  5
2AE
330
288
100
AcDbEntity
  8
P-SANR-FIXT
100
AcDbLine
 10
1245.114353943061
 20
1991.432984333965
 30
0.0
 11
1246.064779426994
 21
1990.482558850031
 31
0.0
  0
LINE
  5
2AF
330
288
100
AcDbEntity
  8
P-SANR-FIXT
100
AcDbLine
 10
1246.064779426994
 20
2009.482558849992
 30
0.0
 11
1245.114353943061
 21
2008.532133366058
 31
0.0
  0
LINE
  5
2B0
330
288
100
AcDbEntity
  8
P-SANR-FIXT
100
AcDbLine
 10
1246.064779426994
 20
1990.482558850031
 30
0.0
 11
1251.114353943111
 21
1990.482558850031
 31
0.0
  0
LINE
  5
2B1
330
288
100
AcDbEntity
  8
P-SANR-FIXT
100
AcDbLine
 10
1251.114353943111
 20
2009.482558849992
 30
0.0
 11
1246.064779426994
 21
2009.482558849992
 31
0.0
  0
LINE
  5
2B2
330
288
100
AcDbEntity
  8
P-SANR-FIXT
100
AcDbLine
 10
1251.114353943109
 20
1999.982558850011
 30
0.0
 11
1251.114353943109
 21
1990.48255885003
 31
0.0
  0
LINE
  5
2B3
330
288
100
AcDbEntity
  8
P-SANR-FIXT
100
AcDbLine
 10
1251.114353943109
 20
2009.482558849991
 30
0.0
 11
1251.114353943109
 21
1999.982558850011
 31
0.0
  0
LINE
  5
2B4
330
288
100
AcDbEntity
  8
P-SANR-FIXT
100
AcDbLine
 10
1245.114353943059
 20
1991.432984333964
 30
0.0
 11
1245.114353943059
 21
1999.982558850011
 31
0.0
  0
LINE
  5
2B5
330
288
100
AcDbEntity
  8
P-SANR-FIXT
100
AcDbLine
 10
1245.114353943059
 20
1999.982558850011
 30
0.0
 11
1245.114353943059
 21
2008.532133366057
 31
0.0
  0
LINE
  5
2B6
330
288
100
AcDbEntity
  8
P-SANR-FIXT
100
AcDbLine
 10
1246.064779426992
 20
1990.48255885003
 30
0.0
 11
1246.064779426992
 21
1999.982558850011
 31
0.0
  0
LINE
  5
2B7
330
288
100
AcDbEntity
  8
P-SANR-FIXT
100
AcDbLine
 10
1246.064779426992
 20
1999.982558850011
 30
0.0
 11
1246.064779426992
 21
2009.482558849991
 31
0.0
  0
ARC
  5
2B8
330
288
100
AcDbEntity
  8
P-SANR-FIXT
100
AcDbCircle
 10
1307.11435394312
 20
1999.98255885001
 30
0.0
 40
31.50000000000069
100
AcDbArc
 50
40.25279016201024
 51
49.74720983798807
  0
LINE
  5
2B9
330
288
100
AcDbEntity
  8
P-SANR-FIXT
100
AcDbLine
 10
1327.468430054737
 20
2024.023390483765
 30
0.0
 11
1318.594856914031
 21
2027.698944825355
 31
0.0
  0
ARC
  5
2BA
330
288
100
AcDbEntity
  8
P-SANR-FIXT
100
AcDbCircle
 10
1307.114353943076
 20
1999.982558850011
 30
0.0
 40
30.00000000000113
100
AcDbArc
 50
62.49999999999944
 51
62.99061504761855
  0
ARC
  5
2BB
330
288
100
AcDbEntity
  8
P-SANR-FIXT
100
AcDbCircle
 10
1307.114353943076
 20
1999.982558850011
 30
0.0
 40
30.00000000000114
100
AcDbArc
 50
57.49999999999979
 51
58.4795399523848
  0
ARC
  5
2BC
330
288
100
AcDbEntity
  8
P-SANR-FIXT
100
AcDbCircle
 10
1307.114353943076
 20
1999.982558850011
 30
0.0
 40
30.00000000000129
100
AcDbArc
 50
52.49999999999943
 51
53.96764919519043
  0
ARC
  5
2BD
330
288
100
AcDbEntity
  8
P-SANR-FIXT
100
AcDbCircle
 10
1307.114353943076
 20
1999.982558850011
 30
0.0
 40
30.00000000000138
100
AcDbArc
 50
40.54409418887941
 51
49.45590581112089
  0
ARC
  5
2BE
330
288
100
AcDbEntity
  8
P-SANR-FIXT
100
AcDbCircle
 10
1307.114353943076
 20
1999.982558850011
 30
0.0
 40
30.00000000000134
100
AcDbArc
 50
36.03235080481049
 51
37.49999999999964
  0
ARC
  5
2BF
330
288
100
AcDbEntity
  8
P-SANR-FIXT
100
AcDbCircle
 10
1307.114353943076
 20
1999.982558850011
 30
0.0
 40
30.00000000000123
100
AcDbArc
 50
31.52046004761562
 51
32.49999999999988
  0
ARC
  5
2C0
330
288
100
AcDbEntity
  8
P-SANR-FIXT
100
AcDbCircle
 10
1307.114353943076
 20
1999.982558850011
 30
0.0
 40
30.00000000000119
100
AcDbArc
 50
27.00938495238196
 51
27.49999999999991
  0
LINE
  5
2C1
330
288
100
AcDbEntity
  8
P-SANR-FIXT
100
AcDbLine
 10
1334.830739918442
 20
2011.463061820975
 30
0.0
 11
1331.155185576874
 21
2020.336634961627
 31
0.0
  0
ARC
  5
2C2
330
288
100
AcDbEntity
  8
P-SANR-FIXT
100
AcDbCircle
 10
1307.11435394312
 20
1999.98255885001
 30
0.0
 40
31.50000000000055
100
AcDbArc
 50
85.25279016201031
 51
94.74720983798846
  0
LINE
  5
2C3
330
288
100
AcDbEntity
  8
P-SANR-FIXT
100
AcDbLine
 10
1304.507424112838
 20
2031.374499166914
 30
0.0
 11
1295.633850972134
 21
2027.698944825324
 31
0.0
  0
ARC
  5
2C4
330
288
100
AcDbEntity
  8
P-SANR-FIXT
100
AcDbCircle
 10
1307.114353943076
 20
1999.982558850011
 30
0.0
 40
30.00000000000116
100
AcDbArc
 50
108.0060850624842
 51
108.7500000000002
  0
ARC
  5
2C5
330
288
100
AcDbEntity
  8
P-SANR-FIXT
100
AcDbCircle
 10
1307.114353943076
 20
1999.982558850011
 30
0.0
 40
30.00000000000114
100
AcDbArc
 50
97.50000000000037
 51
105.0000000000006
  0
ARC
  5
2C6
330
288
100
AcDbEntity
  8
P-SANR-FIXT
100
AcDbCircle
 10
1307.114353943076
 20
1999.982558850011
 30
0.0
 40
30.00000000000089
100
AcDbArc
 50
93.75000000000012
 51
94.50180546059408
  0
ARC
  5
2C7
330
288
100
AcDbEntity
  8
P-SANR-FIXT
100
AcDbCircle
 10
1307.114353943076
 20
1999.982558850011
 30
0.0
 40
30.00000000000098
100
AcDbArc
 50
84.37499999999911
 51
85.49739553729876
  0
ARC
  5
2C8
330
288
100
AcDbEntity
  8
P-SANR-FIXT
100
AcDbCircle
 10
1307.114353943076
 20
1999.982558850011
 30
0.0
 40
30.00000000000093
100
AcDbArc
 50
76.48361445845662
 51
80.98995125854171
  0
ARC
  5
2C9
330
288
100
AcDbEntity
  8
P-SANR-FIXT
100
AcDbCircle
 10
1307.114353943076
 20
1999.982558850011
 30
0.0
 40
30.00000000000107
100
AcDbArc
 50
71.98462442160035
 51
73.12499999999932
  0
LINE
  5
2CA
330
288
100
AcDbEntity
  8
P-SANR-FIXT
100
AcDbLine
 10
1318.594856914031
 20
2027.698944825355
 30
0.0
 11
1309.721283773401
 21
2031.374499166914
 31
0.0
  0
ARC
  5
2CB
330
288
100
AcDbEntity
  8
P-SANR-FIXT
100
AcDbCircle
 10
1307.11435394312
 20
1999.98255885001
 30
0.0
 40
31.50000000000066
100
AcDbArc
 50
130.2527901620104
 51
139.7472098379885
  0
LINE
  5
2CC
330
288
100
AcDbEntity
  8
P-SANR-FIXT
100
AcDbLine
 10
1283.073522309364
 20
2020.336634961627
 30
0.0
 11
1279.397967967784
 21
2011.463061820944
 31
0.0
  0
ARC
  5
2CD
330
288
100
AcDbEntity
  8
P-SANR-FIXT
100
AcDbCircle
 10
1307.114353943076
 20
1999.982558850011
 30
0.0
 40
30.00000000000092
100
AcDbArc
 50
152.5000000000002
 51
152.9906150476183
  0
ARC
  5
2CE
330
288
100
AcDbEntity
  8
P-SANR-FIXT
100
AcDbCircle
 10
1307.114353943076
 20
1999.982558850011
 30
0.0
 40
30.00000000000095
100
AcDbArc
 50
147.5000000000004
 51
148.4795399523843
  0
ARC
  5
2CF
330
288
100
AcDbEntity
  8
P-SANR-FIXT
100
AcDbCircle
 10
1307.114353943076
 20
1999.982558850011
 30
0.0
 40
30.0000000000011
100
AcDbArc
 50
142.5000000000001
 51
143.9676491951905
  0
ARC
  5
2D0
330
288
100
AcDbEntity
  8
P-SANR-FIXT
100
AcDbCircle
 10
1307.114353943076
 20
1999.982558850011
 30
0.0
 40
30.00000000000104
100
AcDbArc
 50
130.5440941888806
 51
139.4559058111206
  0
ARC
  5
2D1
330
288
100
AcDbEntity
  8
P-SANR-FIXT
100
AcDbCircle
 10
1307.114353943076
 20
1999.982558850011
 30
0.0
 40
30.00000000000115
100
AcDbArc
 50
126.032350804811
 51
127.5000000000002
  0
ARC
  5
2D2
330
288
100
AcDbEntity
  8
P-SANR-FIXT
100
AcDbCircle
 10
1307.114353943076
 20
1999.982558850011
 30
0.0
 40
30.00000000000104
100
AcDbArc
 50
121.5204600476161
 51
122.5000000000004
  0
ARC
  5
2D3
330
288
100
AcDbEntity
  8
P-SANR-FIXT
100
AcDbCircle
 10
1307.114353943076
 20
1999.982558850011
 30
0.0
 40
30.00000000000119
100
AcDbArc
 50
117.0093849523824
 51
117.5000000000005
  0
LINE
  5
2D4
330
288
100
AcDbEntity
  8
P-SANR-FIXT
100
AcDbLine
 10
1295.633850972134
 20
2027.698944825324
 30
0.0
 11
1286.760277831503
 21
2024.023390483765
 31
0.0
  0
ARC
  5
2D5
330
288
100
AcDbEntity
  8
P-SANR-FIXT
100
AcDbCircle
 10
1307.11435394312
 20
1999.98255885001
 30
0.0
 40
31.5000000000008
100
AcDbArc
 50
175.2527901620103
 51
184.7472098379881
  0
LINE
  5
2D6
330
288
100
AcDbEntity
  8
P-SANR-FIXT
100
AcDbLine
 10
1275.722413626216
 20
1997.375629019729
 30
0.0
 11
1279.397967967784
 21
1988.502055879077
 31
0.0
  0
ARC
  5
2D7
330
288
100
AcDbEntity
  8
P-SANR-FIXT
100
AcDbCircle
 10
1307.114353943076
 20
1999.982558850011
 30
0.0
 40
30.00000000000112
100
AcDbArc
 50
197.5000000000004
 51
198.0069184471808
  0
ARC
  5
2D8
330
288
100
AcDbEntity
  8
P-SANR-FIXT
100
AcDbCircle
 10
1307.114353943076
 20
1999.982558850011
 30
0.0
 40
30.00000000000091
100
AcDbArc
 50
192.5000000000002
 51
193.5090494664936
  0
ARC
  5
2D9
330
288
100
AcDbEntity
  8
P-SANR-FIXT
100
AcDbCircle
 10
1307.114353943076
 20
1999.982558850011
 30
0.0
 40
30.00000000000092
100
AcDbArc
 50
187.5000000000009
 51
189.0078128831371
  0
ARC
  5
2DA
330
288
100
AcDbEntity
  8
P-SANR-FIXT
100
AcDbCircle
 10
1307.114353943076
 20
1999.982558850011
 30
0.0
 40
30.00000000000109
100
AcDbArc
 50
175.495570748416
 51
184.5044292515844
  0
ARC
  5
2DB
330
288
100
AcDbEntity
  8
P-SANR-FIXT
100
AcDbCircle
 10
1307.114353943076
 20
1999.982558850011
 30
0.0
 40
30.00000000000105
100
AcDbArc
 50
170.9921871168633
 51
172.5000000000009
  0
ARC
  5
2DC
330
288
100
AcDbEntity
  8
P-SANR-FIXT
100
AcDbCircle
 10
1307.114353943076
 20
1999.982558850011
 30
0.0
 40
30.00000000000096
100
AcDbArc
 50
166.4909505335063
 51
167.5000000000008
  0
ARC
  5
2DD
330
288
100
AcDbEntity
  8
P-SANR-FIXT
100
AcDbCircle
 10
1307.114353943076
 20
1999.982558850011
 30
0.0
 40
30.0000000000008
100
AcDbArc
 50
161.9930815528197
 51
162.5000000000005
  0
LINE
  5
2DE
330
288
100
AcDbEntity
  8
P-SANR-FIXT
100
AcDbLine
 10
1279.397967967784
 20
2011.463061820944
 30
0.0
 11
1275.722413626216
 21
2002.589488680291
 31
0.0
  0
ARC
  5
2DF
330
288
100
AcDbEntity
  8
P-SANR-FIXT
100
AcDbCircle
 10
1307.11435394312
 20
1999.98255885001
 30
0.0
 40
31.50000000000063
100
AcDbArc
 50
220.2527901620106
 51
229.747209837989
  0
LINE
  5
2E0
330
288
100
AcDbEntity
  8
P-SANR-FIXT
100
AcDbLine
 10
1286.760277831503
 20
1975.941727216255
 30
0.0
 11
1295.633850972134
 21
1972.266172874696
 31
0.0
  0
ARC
  5
2E1
330
288
100
AcDbEntity
  8
P-SANR-FIXT
100
AcDbCircle
 10
1307.114353943076
 20
1999.982558850011
 30
0.0
 40
30.00000000000083
100
AcDbArc
 50
242.5
 51
242.9906150476175
  0
ARC
  5
2E2
330
288
100
AcDbEntity
  8
P-SANR-FIXT
100
AcDbCircle
 10
1307.114353943076
 20
1999.982558850011
 30
0.0
 40
30.0000000000008
100
AcDbArc
 50
237.5000000000004
 51
238.4795399523832
  0
ARC
  5
2E3
330
288
100
AcDbEntity
  8
P-SANR-FIXT
100
AcDbCircle
 10
1307.114353943076
 20
1999.982558850011
 30
0.0
 40
30.00000000000073
100
AcDbArc
 50
232.5000000000008
 51
233.9676491951895
  0
ARC
  5
2E4
330
288
100
AcDbEntity
  8
P-SANR-FIXT
100
AcDbCircle
 10
1307.114353943076
 20
1999.982558850011
 30
0.0
 40
30.00000000000089
100
AcDbArc
 50
220.5440941888801
 51
229.4559058111204
  0
ARC
  5
2E5
330
288
100
AcDbEntity
  8
P-SANR-FIXT
100
AcDbCircle
 10
1307.114353943076
 20
1999.982558850011
 30
0.0
 40
30.00000000000098
100
AcDbArc
 50
216.0323508048101
 51
217.5000000000002
  0
ARC
  5
2E6
330
288
100
AcDbEntity
  8
P-SANR-FIXT
100
AcDbCircle
 10
1307.114353943076
 20
1999.982558850011
 30
0.0
 40
30.00000000000085
100
AcDbArc
 50
211.5204600476157
 51
212.5000000000005
  0
ARC
  5
2E7
330
288
100
AcDbEntity
  8
P-SANR-FIXT
100
AcDbCircle
 10
1307.114353943076
 20
1999.982558850011
 30
0.0
 40
30.00000000000099
100
AcDbArc
 50
207.0093849523821
 51
207.5000000000006
  0
LINE
  5
2E8
330
288
100
AcDbEntity
  8
P-SANR-FIXT
100
AcDbLine
 10
1279.397967967784
 20
1988.502055879077
 30
0.0
 11
1283.073522309365
 21
1979.628482738393
 31
0.0
  0
ARC
  5
2E9
330
288
100
AcDbEntity
  8
P-SANR-FIXT
100
AcDbCircle
 10
1307.11435394312
 20
1999.98255885001
 30
0.0
 40
31.50000000000054
100
AcDbArc
 50
265.2527901620103
 51
274.7472098379889
  0
LINE
  5
2EA
330
288
100
AcDbEntity
  8
P-SANR-FIXT
100
AcDbLine
 10
1309.721283773401
 20
1968.590618533107
 30
0.0
 11
1318.594856914031
 21
1972.266172874666
 31
0.0
  0
ARC
  5
2EB
330
288
100
AcDbEntity
  8
P-SANR-FIXT
100
AcDbCircle
 10
1307.114353943076
 20
1999.982558850011
 30
0.0
 40
30.00000000000094
100
AcDbArc
 50
288.0060850624837
 51
288.7499999999998
  0
ARC
  5
2EC
330
288
100
AcDbEntity
  8
P-SANR-FIXT
100
AcDbCircle
 10
1307.114353943076
 20
1999.982558850011
 30
0.0
 40
30.00000000000092
100
AcDbArc
 50
277.5000000000005
 51
285.0000000000004
  0
ARC
  5
2ED
330
288
100
AcDbEntity
  8
P-SANR-FIXT
100
AcDbCircle
 10
1307.114353943076
 20
1999.982558850011
 30
0.0
 40
30.00000000000108
100
AcDbArc
 50
273.7499999999998
 51
274.5018054605928
  0
ARC
  5
2EE
330
288
100
AcDbEntity
  8
P-SANR-FIXT
100
AcDbCircle
 10
1307.114353943076
 20
1999.982558850011
 30
0.0
 40
30.00000000000076
100
AcDbArc
 50
264.375
 51
265.497395537298
  0
ARC
  5
2EF
330
288
100
AcDbEntity
  8
P-SANR-FIXT
100
AcDbCircle
 10
1307.114353943076
 20
1999.982558850011
 30
0.0
 40
30.00000000000078
100
AcDbArc
 50
256.4836144584561
 51
260.9899512585404
  0
ARC
  5
2F0
330
288
100
AcDbEntity
  8
P-SANR-FIXT
100
AcDbCircle
 10
1307.114353943076
 20
1999.982558850011
 30
0.0
 40
30.00000000000087
100
AcDbArc
 50
251.9846244215991
 51
253.1250000000003
  0
LINE
  5
2F1
330
288
100
AcDbEntity
  8
P-SANR-FIXT
100
AcDbLine
 10
1295.633850972134
 20
1972.266172874696
 30
0.0
 11
1304.507424112839
 21
1968.590618533106
 31
0.0
  0
ARC
  5
2F2
330
288
100
AcDbEntity
  8
P-SANR-FIXT
100
AcDbCircle
 10
1307.11435394312
 20
1999.98255885001
 30
0.0
 40
31.50000000000063
100
AcDbArc
 50
310.2527901620107
 51
319.7472098379888
  0
LINE
  5
2F3
330
288
100
AcDbEntity
  8
P-SANR-FIXT
100
AcDbLine
 10
1331.155185576874
 20
1979.628482738393
 30
0.0
 11
1334.830739918443
 21
1988.502055879046
 31
0.0
  0
ARC
  5
2F4
330
288
100
AcDbEntity
  8
P-SANR-FIXT
100
AcDbCircle
 10
1307.114353943076
 20
1999.982558850011
 30
0.0
 40
30.00000000000113
100
AcDbArc
 50
332.4999999999993
 51
332.9906150476176
  0
ARC
  5
2F5
330
288
100
AcDbEntity
  8
P-SANR-FIXT
100
AcDbCircle
 10
1307.114353943076
 20
1999.982558850011
 30
0.0
 40
30.00000000000126
100
AcDbArc
 50
327.4999999999995
 51
328.4795399523841
  0
ARC
  5
2F6
330
288
100
AcDbEntity
  8
P-SANR-FIXT
100
AcDbCircle
 10
1307.114353943076
 20
1999.982558850011
 30
0.0
 40
30.00000000000115
100
AcDbArc
 50
322.4999999999992
 51
323.9676491951901
  0
ARC
  5
2F7
330
288
100
AcDbEntity
  8
P-SANR-FIXT
100
AcDbCircle
 10
1307.114353943076
 20
1999.982558850011
 30
0.0
 40
30.00000000000107
100
AcDbArc
 50
310.5440941888792
 51
319.4559058111203
  0
ARC
  5
2F8
330
288
100
AcDbEntity
  8
P-SANR-FIXT
100
AcDbCircle
 10
1307.114353943076
 20
1999.982558850011
 30
0.0
 40
30.00000000000115
100
AcDbArc
 50
306.0323508048096
 51
307.4999999999996
  0
ARC
  5
2F9
330
288
100
AcDbEntity
  8
P-SANR-FIXT
100
AcDbCircle
 10
1307.114353943076
 20
1999.982558850011
 30
0.0
 40
30.00000000000104
100
AcDbArc
 50
301.5204600476149
 51
302.4999999999999
  0
ARC
  5
2FA
330
288
100
AcDbEntity
  8
P-SANR-FIXT
100
AcDbCircle
 10
1307.114353943076
 20
1999.982558850011
 30
0.0
 40
30.00000000000078
100
AcDbArc
 50
297.0093849523813
 51
297.4999999999995
  0
LINE
  5
2FB
330
288
100
AcDbEntity
  8
P-SANR-FIXT
100
AcDbLine
 10
1318.594856914031
 20
1972.266172874666
 30
0.0
 11
1327.468430054737
 21
1975.941727216255
 31
0.0
  0
ARC
  5
2FC
330
288
100
AcDbEntity
  8
P-SANR-FIXT
100
AcDbCircle
 10
1307.11435394312
 20
1999.98255885001
 30
0.0
 40
31.50000000000054
100
AcDbArc
 50
355.2527901620108
 51
4.747209837988434
  0
LINE
  5
2FD
330
288
100
AcDbEntity
  8
P-SANR-FIXT
100
AcDbLine
 10
1338.506294260023
 20
2002.589488680291
 30
0.0
 11
1334.830739918442
 21
2011.463061820975
 31
0.0
  0
ARC
  5
2FE
330
288
100
AcDbEntity
  8
P-SANR-FIXT
100
AcDbCircle
 10
1307.114353943076
 20
1999.982558850011
 30
0.0
 40
30.00000000000134
100
AcDbArc
 50
17.49999999999949
 51
18.00691844718064
  0
ARC
  5
2FF
330
288
100
AcDbEntity
  8
P-SANR-FIXT
100
AcDbCircle
 10
1307.114353943076
 20
1999.982558850011
 30
0.0
 40
30.00000000000119
100
AcDbArc
 50
12.49999999999905
 51
13.50904946649396
  0
ARC
  5
300
330
288
100
AcDbEntity
  8
P-SANR-FIXT
100
AcDbCircle
 10
1307.114353943076
 20
1999.982558850011
 30
0.0
 40
30.00000000000111
100
AcDbArc
 50
7.499999999999399
 51
9.007812883137436
  0
ARC
  5
301
330
288
100
AcDbEntity
  8
P-SANR-FIXT
100
AcDbCircle
 10
1307.114353943076
 20
1999.982558850011
 30
0.0
 40
30.00000000000134
100
AcDbArc
 50
355.4955707484153
 51
4.504429251584824
  0
ARC
  5
302
330
288
100
AcDbEntity
  8
P-SANR-FIXT
100
AcDbCircle
 10
1307.114353943076
 20
1999.982558850011
 30
0.0
 40
30.00000000000111
100
AcDbArc
 50
350.9921871168622
 51
352.4999999999993
  0
ARC
  5
303
330
288
100
AcDbEntity
  8
P-SANR-FIXT
100
AcDbCircle
 10
1307.114353943076
 20
1999.982558850011
 30
0.0
 40
30.00000000000128
100
AcDbArc
 50
346.4909505335061
 51
347.4999999999994
  0
ARC
  5
304
330
288
100
AcDbEntity
  8
P-SANR-FIXT
100
AcDbCircle
 10
1307.114353943076
 20
1999.982558850011
 30
0.0
 40
30.00000000000102
100
AcDbArc
 50
341.9930815528188
 51
342.4999999999995
  0
LINE
  5
305
330
288
100
AcDbEntity
  8
P-SANR-FIXT
100
AcDbLine
 10
1334.830739918443
 20
1988.502055879046
 30
0.0
 11
1338.506294260023
 21
1997.375629019729
 31
0.0
  0
ARC
  5
306
330
288
100
AcDbEntity
  8
P-SANR-FIXT
100
AcDbCircle
 10
1307.114353943076
 20
1999.982558850011
 30
0.0
 40
28.50000000000068
100
AcDbArc
 50
90.0
 51
269.9999999999997
  0
ARC
  5
307
330
288
100
AcDbEntity
  8
P-SANR-FIXT
100
AcDbCircle
 10
1307.114353943076
 20
1999.982558850011
 30
0.0
 40
28.50000000000091
100
AcDbArc
 50
269.9999999999997
 51
89.99999999999955
  0
ARC
  5
308
330
288
100
AcDbEntity
  8
P-SANR-FIXT
100
AcDbCircle
 10
1307.114353943076
 20
1999.982558850011
 30
0.0
 40
30.00000000000128
100
AcDbArc
 50
90.00000000000087
 51
270.0000000000001
  0
ARC
  5
309
330
288
100
AcDbEntity
  8
P-SANR-FIXT
100
AcDbCircle
 10
1307.114353943076
 20
1999.982558850011
 30
0.0
 40
30.00000000000114
100
AcDbArc
 50
269.9999999999997
 51
90.0
  0
ARC
  5
30A
330
288
100
AcDbEntity
  8
P-SANR-FIXT
100
AcDbCircle
 10
1307.114353943076
 20
1999.982558850011
 30
0.0
 40
41.49999999998772
100
AcDbArc
 50
90.00000000000031
 51
120.0
  0
ARC
  5
30B
330
288
100
AcDbEntity
  8
P-SANR-FIXT
100
AcDbCircle
 10
1307.114353943076
 20
1999.982558850011
 30
0.0
 40
41.49999999998781
100
AcDbArc
 50
119.9999999999995
 51
179.9999999999997
  0
ARC
  5
30C
330
288
100
AcDbEntity
  8
P-SANR-FIXT
100
AcDbCircle
 10
1307.114353943076
 20
1999.982558850011
 30
0.0
 40
41.49999999998772
100
AcDbArc
 50
179.9999999999997
 51
239.9999999999992
  0
ARC
  5
30D
330
288
100
AcDbEntity
  8
P-SANR-FIXT
100
AcDbCircle
 10
1307.114353943076
 20
1999.982558850011
 30
0.0
 40
41.49999999998785
100
AcDbArc
 50
239.9999999999993
 51
269.9999999999997
  0
ARC
  5
30E
330
288
100
AcDbEntity
  8
P-SANR-FIXT
100
AcDbCircle
 10
1307.114353943076
 20
1999.982558850011
 30
0.0
 40
41.49999999998783
100
AcDbArc
 50
269.9999999999995
 51
299.9999999999989
  0
ARC
  5
30F
330
288
100
AcDbEntity
  8
P-SANR-FIXT
100
AcDbCircle
 10
1307.114353943076
 20
1999.982558850011
 30
0.0
 40
41.49999999998798
100
AcDbArc
 50
299.9999999999984
 51
359.999999999998
  0
ARC
  5
310
330
288
100
AcDbEntity
  8
P-SANR-FIXT
100
AcDbCircle
 10
1307.114353943076
 20
1999.982558850011
 30
0.0
 40
41.49999999998795
100
AcDbArc
 50
359.9999999999984
 51
59.99999999999901
  0
ARC
  5
311
330
288
100
AcDbEntity
  8
P-SANR-FIXT
100
AcDbCircle
 10
1307.114353943076
 20
1999.982558850011
 30
0.0
 40
41.49999999998759
100
AcDbArc
 50
59.9999999999984
 51
89.99999999999905
  0
ARC
  5
312
330
288
100
AcDbEntity
  8
P-SANR-FIXT
100
AcDbCircle
 10
1307.11435394312
 20
1999.982558850011
 30
0.0
 40
43.99999999999181
100
AcDbArc
 50
19.40704338247233
 51
40.59295661751957
  0
SPLINE
  5
313
330
288
100
AcDbEntity
  8
P-SANR-FIXT
100
AcDbSpline
210
0.0
220
0.0
230
1.0
 70
    24
 71
     3
 72
     9
 73
     5
 74
     0
 42
0.000000001
 43
0.0000000001
 40
0.0
 40
0.0
 40
0.0
 40
0.0
 40
0.5
 40
1.0
 40
1.0
 40
1.0
 40
1.0
 10
1348.614353943101
 20
2014.602750367255
 30
0.0
 10
1348.6143539431
 20
2012.188581604935
 30
0.0
 10
1348.6143539431
 20
2007.337714256408
 30
0.0
 10
1348.6143539431
 20
2002.441787260106
 30
0.0
 10
1348.6143539431
 20
1999.98255885001
 30
0.0
  0
SPLINE
  5
314
330
288
100
AcDbEntity
  8
P-SANR-FIXT
100
AcDbSpline
210
0.0
220
0.0
230
1.0
 70
    24
 71
     3
 72
     9
 73
     5
 74
     0
 42
0.000000001
 43
0.0000000001
 40
0.0
 40
0.0
 40
0.0
 40
0.0
 40
0.5
 40
1.0
 40
1.0
 40
1.0
 40
1.0
 10
1348.6143539431
 20
1999.98255885001
 30
0.0
 10
1348.6143539431
 20
1997.523330439916
 30
0.0
 10
1348.6143539431
 20
1992.627403443614
 30
0.0
 10
1348.6143539431
 20
1987.776536095087
 30
0.0
 10
1348.6143539431
 20
1985.362367332767
 30
0.0
  0
ARC
  5
315
330
288
100
AcDbEntity
  8
P-SANR-FIXT
100
AcDbCircle
 10
1307.11435394312
 20
1999.982558850011
 30
0.0
 40
43.99999999999175
100
AcDbArc
 50
319.4070433824688
 51
340.5929566175266
  0
SPLINE
  5
316
330
288
100
AcDbEntity
  8
P-SANR-FIXT
100
AcDbSpline
210
0.0
220
0.0
230
1.0
 70
    24
 71
     3
 72
     9
 73
     5
 74
     0
 42
0.000000001
 43
0.0000000001
 40
0.0
 40
0.0
 40
0.0
 40
0.0
 40
0.5
 40
1.0
 40
1.0
 40
1.0
 40
1.0
 10
1340.525811205234
 20
1971.352600351593
 30
0.0
 10
1338.435079728038
 20
1970.145515970431
 30
0.0
 10
1334.234105373815
 20
1967.720082296162
 30
0.0
 10
1329.994108219933
 20
1965.272118798005
 30
0.0
 10
1327.864353943077
 20
1964.042504592954
 30
0.0
  0
SPLINE
  5
317
330
288
100
AcDbEntity
  8
P-SANR-FIXT
100
AcDbSpline
210
0.0
220
0.0
230
1.0
 70
    24
 71
     3
 72
     9
 73
     5
 74
     0
 42
0.000000001
 43
0.0000000001
 40
0.0
 40
0.0
 40
0.0
 40
0.0
 40
0.5
 40
1.0
 40
1.0
 40
1.0
 40
1.0
 10
1327.864353943077
 20
1964.042504592954
 30
0.0
 10
1325.734599666232
 20
1962.81289038791
 30
0.0
 10
1321.494602512373
 20
1960.364926889766
 30
0.0
 10
1317.293628158172
 20
1957.939493215509
 30
0.0
 10
1315.202896680986
 20
1956.732408834353
 30
0.0
  0
ARC
  5
318
330
288
100
AcDbEntity
  8
P-SANR-FIXT
100
AcDbCircle
 10
1307.11435394312
 20
1999.982558850011
 30
0.0
 40
43.99999999999161
100
AcDbArc
 50
269.999999999944
 51
280.5929566175315
  0
ARC
  5
319
330
288
100
AcDbEntity
  8
P-SANR-FIXT
100
AcDbCircle
 10
1307.11435394312
 20
1999.982558850011
 30
0.0
 40
43.99999999999135
100
AcDbArc
 50
259.4070433824684
 51
269.9999999999434
  0
SPLINE
  5
31A
330
288
100
AcDbEntity
  8
P-SANR-FIXT
100
AcDbSpline
210
0.0
220
0.0
230
1.0
 70
    24
 71
     3
 72
     9
 73
     5
 74
     0
 42
0.000000001
 43
0.0000000001
 40
0.0
 40
0.0
 40
0.0
 40
0.0
 40
0.5
 40
1.0
 40
1.0
 40
1.0
 40
1.0
 10
1299.025811205253
 20
1956.732408834353
 30
0.0
 10
1296.935079728056
 20
1957.939493215516
 30
0.0
 10
1292.734105373835
 20
1960.364926889784
 30
0.0
 10
1288.494108219953
 20
1962.812890387941
 30
0.0
 10
1286.364353943096
 20
1964.042504592992
 30
0.0
  0
SPLINE
  5
31B
330
288
100
AcDbEntity
  8
P-SANR-FIXT
100
AcDbSpline
210
0.0
220
0.0
230
1.0
 70
    24
 71
     3
 72
     9
 73
     5
 74
     0
 42
0.000000001
 43
0.0000000001
 40
0.0
 40
0.0
 40
0.0
 40
0.0
 40
0.5
 40
1.0
 40
1.0
 40
1.0
 40
1.0
 10
1286.364353943096
 20
1964.042504592992
 30
0.0
 10
1284.234599666251
 20
1965.272118798037
 30
0.0
 10
1279.99460251239
 20
1967.720082296181
 30
0.0
 10
1275.79362815819
 20
1970.145515970438
 30
0.0
 10
1273.702896681005
 20
1971.352600351594
 30
0.0
  0
ARC
  5
31C
330
288
100
AcDbEntity
  8
P-SANR-FIXT
100
AcDbCircle
 10
1307.11435394312
 20
1999.982558850011
 30
0.0
 40
43.99999999999156
100
AcDbArc
 50
199.4070433824738
 51
220.5929566175311
  0
SPLINE
  5
31D
330
288
100
AcDbEntity
  8
P-SANR-FIXT
100
AcDbSpline
210
0.0
220
0.0
230
1.0
 70
    24
 71
     3
 72
     9
 73
     5
 74
     0
 42
0.000000001
 43
0.0000000001
 40
0.0
 40
0.0
 40
0.0
 40
0.0
 40
0.5
 40
1.0
 40
1.0
 40
1.0
 40
1.0
 10
1265.614353943139
 20
1985.362367332768
 30
0.0
 10
1265.614353943139
 20
1987.776536095086
 30
0.0
 10
1265.614353943139
 20
1992.627403443612
 30
0.0
 10
1265.614353943139
 20
1997.523330439915
 30
0.0
 10
1265.614353943139
 20
1999.982558850011
 30
0.0
  0
SPLINE
  5
31E
330
288
100
AcDbEntity
  8
P-SANR-FIXT
100
AcDbSpline
210
0.0
220
0.0
230
1.0
 70
    24
 71
     3
 72
     9
 73
     5
 74
     0
 42
0.000000001
 43
0.0000000001
 40
0.0
 40
0.0
 40
0.0
 40
0.0
 40
0.5
 40
1.0
 40
1.0
 40
1.0
 40
1.0
 10
1265.614353943139
 20
1999.982558850011
 30
0.0
 10
1265.614353943139
 20
2002.441787260107
 30
0.0
 10
1265.614353943139
 20
2007.337714256411
 30
0.0
 10
1265.614353943139
 20
2012.188581604938
 30
0.0
 10
1265.61435394314
 20
2014.602750367257
 30
0.0
  0
ARC
  5
31F
330
288
100
AcDbEntity
  8
P-SANR-FIXT
100
AcDbCircle
 10
1307.11435394312
 20
1999.982558850011
 30
0.0
 40
43.99999999999163
100
AcDbArc
 50
139.4070433824778
 51
160.592956617525
  0
SPLINE
  5
320
330
288
100
AcDbEntity
  8
P-SANR-FIXT
100
AcDbSpline
210
0.0
220
0.0
230
1.0
 70
    24
 71
     3
 72
     9
 73
     5
 74
     0
 42
0.000000001
 43
0.0000000001
 40
0.0
 40
0.0
 40
0.0
 40
0.0
 40
0.5
 40
1.0
 40
1.0
 40
1.0
 40
1.0
 10
1273.702896681
 20
2028.612517348424
 30
0.0
 10
1275.793628158187
 20
2029.819601729581
 30
0.0
 10
1279.994602512389
 20
2032.245035403839
 30
0.0
 10
1284.234599666251
 20
2034.692998901984
 30
0.0
 10
1286.364353943097
 20
2035.922613107029
 30
0.0
  0
SPLINE
  5
321
330
288
100
AcDbEntity
  8
P-SANR-FIXT
100
AcDbSpline
210
0.0
220
0.0
230
1.0
 70
    24
 71
     3
 72
     9
 73
     5
 74
     0
 42
0.000000001
 43
0.0000000001
 40
0.0
 40
0.0
 40
0.0
 40
0.0
 40
0.5
 40
1.0
 40
1.0
 40
1.0
 40
1.0
 10
1286.364353943097
 20
2035.922613107029
 30
0.0
 10
1288.494108219955
 20
2037.152227312081
 30
0.0
 10
1292.73410537384
 20
2039.600190810239
 30
0.0
 10
1296.935079728064
 20
2042.025624484509
 30
0.0
 10
1299.025811205261
 20
2043.232708865672
 30
0.0
  0
ARC
  5
322
330
288
100
AcDbEntity
  8
P-SANR-FIXT
100
AcDbCircle
 10
1307.11435394312
 20
1999.982558850011
 30
0.0
 40
43.99999999999194
100
AcDbArc
 50
90.00000000005595
 51
100.5929566175197
  0
ARC
  5
323
330
288
100
AcDbEntity
  8
P-SANR-FIXT
100
AcDbCircle
 10
1307.11435394312
 20
1999.982558850011
 30
0.0
 40
43.99999999999226
100
AcDbArc
 50
79.40704338247694
 51
90.00000000005595
  0
SPLINE
  5
324
330
288
100
AcDbEntity
  8
P-SANR-FIXT
100
AcDbSpline
210
0.0
220
0.0
230
1.0
 70
    24
 71
     3
 72
     9
 73
     5
 74
     0
 42
0.000000001
 43
0.0000000001
 40
0.0
 40
0.0
 40
0.0
 40
0.0
 40
0.5
 40
1.0
 40
1.0
 40
1.0
 40
1.0
 10
1315.20289668098
 20
2043.232708865672
 30
0.0
 10
1317.293628158167
 20
2042.025624484514
 30
0.0
 10
1321.494602512369
 20
2039.600190810257
 30
0.0
 10
1325.734599666231
 20
2037.152227312111
 30
0.0
 10
1327.864353943077
 20
2035.922613107066
 30
0.0
  0
SPLINE
  5
325
330
288
100
AcDbEntity
  8
P-SANR-FIXT
100
AcDbSpline
210
0.0
220
0.0
230
1.0
 70
    24
 71
     3
 72
     9
 73
     5
 74
     0
 42
0.000000001
 43
0.0000000001
 40
0.0
 40
0.0
 40
0.0
 40
0.0
 40
0.5
 40
1.0
 40
1.0
 40
1.0
 40
1.0
 10
1327.864353943077
 20
2035.922613107066
 30
0.0
 10
1329.994108219934
 20
2034.692998902015
 30
0.0
 10
1334.234105373818
 20
2032.245035403857
 30
0.0
 10
1338.435079728043
 20
2029.819601729586
 30
0.0
 10
1340.52581120524
 20
2028.612517348424
 30
0.0
  0
LINE
  5
326
330
288
100
AcDbEntity
  8
P-SANR-FIXT
100
AcDbLine
 10
1361.864353943057
 20
2039.982558850012
 30
0.0
 11
1361.864353943057
 21
2059.482558850008
 31
0.0
  0
LINE
  5
327
330
288
100
AcDbEntity
  8
P-SANR-FIXT
100
AcDbLine
 10
1362.11435394305
 20
2039.982558850012
 30
0.0
 11
1362.11435394305
 21
2059.482558850008
 31
0.0
  0
LINE
  5
328
330
288
100
AcDbEntity
  8
P-SANR-FIXT
100
AcDbLine
 10
1252.114353943075
 20
2059.482558850008
 30
0.0
 11
1252.114353943075
 21
2039.982558850012
 31
0.0
  0
LINE
  5
329
330
288
100
AcDbEntity
  8
P-SANR-FIXT
100
AcDbLine
 10
1252.364353943056
 20
2059.482558850008
 30
0.0
 11
1252.364353943056
 21
2039.982558850012
 31
0.0
  0
LINE
  5
32A
330
288
100
AcDbEntity
  8
P-SANR-FIXT
100
AcDbLine
 10
1277.614353943077
 20
2198.48255885001
 30
0.0
 11
1275.431646477126
 21
2073.43533187453
 31
0.0
  0
LINE
  5
32B
330
288
100
AcDbEntity
  8
P-SANR-FIXT
100
AcDbLine
 10
1338.797061409031
 20
2073.43533187453
 30
0.0
 11
1336.614353943081
 21
2198.48255885001
 31
0.0
  0
LWPOLYLINE
  5
32C
330
288
100
AcDbEntity
  8
P-SANR-FIXT
100
AcDbPolyline
 90
       27
 70
   128
 43
0.0
 10
1272.932408001345
 20
2069.192466887794
 10
1273.103567164427
 20
2069.29590386302
 10
1273.270453042666
 20
2069.40610264067
 10
1273.432798654256
 20
2069.522886926208
 10
1273.59034428085
 20
2069.64606988969
 10
1273.742837883055
 20
2069.775454464651
 10
1273.890035503635
 20
2069.910833663372
 10
1274.031701657801
 20
2070.051990908015
 10
1274.167609709924
 20
2070.198700377099
 10
1274.297542236114
 20
2070.350727366772
 10
1274.421291372046
 20
2070.507828666281
 10
1274.538659145502
 20
2070.669752947058
 10
1274.649457793081
 20
2070.836241164796
 10
1274.753510060582
 20
2071.007026973864
 10
1274.850649486574
 20
2071.181837153399
 10
1274.940720668698
 20
2071.360392044404
 10
1275.023579512276
 20
2071.542405997144
 10
1275.099093460834
 20
2071.727587828122
 10
1275.167141708164
 20
2071.915641285911
 10
1275.227615391585
 20
2072.106265525095
 10
1275.280417766105
 20
2072.299155587557
 10
1275.325464359188
 20
2072.494002890342
 10
1275.362683105895
 20
2072.690495719332
 10
1275.392014464171
 20
2072.888319727917
 10
1275.413411510099
 20
2073.087158439884
 10
1275.426840012971
 20
2073.28669375571
 10
1275.431646477126
 20
2073.43533187453
  0
LWPOLYLINE
  5
32D
330
288
100
AcDbEntity
  8
P-SANR-FIXT
100
AcDbPolyline
 90
       27
 70
   128
 43
0.0
 10
1338.797061409031
 20
2073.43533187453
 10
1338.804549817155
 20
2073.235485456761
 10
1338.820023960537
 20
2073.036098351266
 10
1338.843459083849
 20
2072.83748953488
 10
1338.874817695894
 20
2072.639976739341
 10
1338.914049629579
 20
2072.443875942987
 10
1338.961092122183
 20
2072.249500865262
 10
1339.01586991575
 20
2072.057162464824
 10
1339.078295377498
 20
2071.867168442085
 10
1339.148268640003
 20
2071.67982274695
 10
1339.225677760972
 20
2071.495425092567
 10
1339.310398902326
 20
2071.314270475848
 10
1339.402296528311
 20
2071.136648705534
 10
1339.501223622328
 20
2070.962843938567
 10
1339.607021922132
 20
2070.793134225498
 10
1339.719522173011
 20
2070.627791065666
 10
1339.838544398562
 20
2070.467078972854
 10
1339.963898188616
 20
2070.311255052128
 10
1340.095383003848
 20
2070.160568588522
 10
1340.232788496602
 20
2070.015260648229
 10
1340.375894847402
 20
2069.875563692959
 10
1340.524473116615
 20
2069.74170120804
 10
1340.678285610705
 20
2069.613887344891
 10
1340.837086262492
 20
2069.492326578428
 10
1341.00062102481
 20
2069.377213379945
 10
1341.168628276924
 20
2069.268731906006
 10
1341.296299884813
 20
2069.192466887794
  0
LINE
  5
32E
330
288
100
AcDbEntity
  8
P-SANR-FIXT
100
AcDbLine
 10
1272.932408001345
 20
2069.192466887794
 30
0.0
 11
1256.114353943079
 21
2059.482558850008
 31
0.0
  0
LINE
  5
32F
330
288
100
AcDbEntity
  8
P-SANR-FIXT
100
AcDbLine
 10
1358.114353943079
 20
2059.482558850008
 30
0.0
 11
1341.296299884813
 21
2069.192466887794
 31
0.0
  0
LINE
  5
330
330
288
100
AcDbEntity
  8
P-SANR-FIXT
100
AcDbLine
 10
1307.114353943053
 20
2059.482558850008
 30
0.0
 11
1349.864353943045
 21
2059.482558850008
 31
0.0
  0
LINE
  5
331
330
288
100
AcDbEntity
  8
P-SANR-FIXT
100
AcDbLine
 10
1349.864353943045
 20
2059.482558850008
 30
0.0
 11
1361.864351418207
 21
2059.482558850008
 31
0.0
  0
LINE
  5
332
330
288
100
AcDbEntity
  8
P-SANR-FIXT
100
AcDbLine
 10
1361.879134051791
 20
2059.482558850008
 30
0.0
 11
1362.114353943048
 21
2059.482558850008
 31
0.0
  0
LINE
  5
333
330
288
100
AcDbEntity
  8
P-SANR-FIXT
100
AcDbLine
 10
1252.114353943073
 20
2059.482558850008
 30
0.0
 11
1252.34957383432
 21
2059.482558850008
 31
0.0
  0
LINE
  5
334
330
288
100
AcDbEntity
  8
P-SANR-FIXT
100
AcDbLine
 10
1252.364356467902
 20
2059.482558850008
 30
0.0
 11
1264.364353943052
 21
2059.482558850008
 31
0.0
  0
LINE
  5
335
330
288
100
AcDbEntity
  8
P-SANR-FIXT
100
AcDbLine
 10
1264.364353943052
 20
2059.482558850008
 30
0.0
 11
1307.114353943053
 21
2059.482558850008
 31
0.0
  0
LINE
  5
336
330
288
100
AcDbEntity
  8
P-SANR-FIXT
100
AcDbLine
 10
1293.396386245915
 20
2039.982558850011
 30
0.0
 11
1264.364353943052
 21
2039.982558850011
 31
0.0
  0
LINE
  5
337
330
288
100
AcDbEntity
  8
P-SANR-FIXT
100
AcDbLine
 10
1264.364353943052
 20
2039.982558850011
 30
0.0
 11
1252.364356467902
 21
2039.982558850011
 31
0.0
  0
LINE
  5
338
330
288
100
AcDbEntity
  8
P-SANR-FIXT
100
AcDbLine
 10
1252.34957383432
 20
2039.982558850011
 30
0.0
 11
1252.114353943073
 21
2039.982558850011
 31
0.0
  0
LINE
  5
339
330
288
100
AcDbEntity
  8
P-SANR-FIXT
100
AcDbLine
 10
1362.114353943048
 20
2039.982558850011
 30
0.0
 11
1361.879134051791
 21
2039.982558850011
 31
0.0
  0
LINE
  5
33A
330
288
100
AcDbEntity
  8
P-SANR-FIXT
100
AcDbLine
 10
1361.864351418207
 20
2039.982558850011
 30
0.0
 11
1349.864353943045
 21
2039.982558850011
 31
0.0
  0
LINE
  5
33B
330
288
100
AcDbEntity
  8
P-SANR-FIXT
100
AcDbLine
 10
1349.864353943045
 20
2039.982558850011
 30
0.0
 11
1320.832321640324
 21
2039.982558850011
 31
0.0
  0
LINE
  5
33C
330
288
100
AcDbEntity
  8
P-SANR-FIXT
100
AcDbLine
 10
1307.114353943053
 20
2059.482558850008
 30
0.0
 11
1307.114353943053
 21
2043.982558850004
 31
0.0
  0
LINE
  5
33D
330
288
100
AcDbEntity
  8
P-SANR-FIXT
100
AcDbLine
 10
1349.864353943045
 20
2039.982558850011
 30
0.0
 11
1349.864353943045
 21
2059.482558850008
 31
0.0
  0
LINE
  5
33E
330
288
100
AcDbEntity
  8
P-SANR-FIXT
100
AcDbLine
 10
1264.364353943052
 20
2039.982558850011
 30
0.0
 11
1264.364353943052
 21
2059.482558850008
 31
0.0
  0
LINE
  5
33F
330
288
100
AcDbEntity
  8
P-SANR-FIXT
100
AcDbLine
 10
1277.614353943075
 20
2198.482558850009
 30
0.0
 11
1307.114353943076
 21
2198.482558850009
 31
0.0
  0
LINE
  5
340
330
288
100
AcDbEntity
  8
P-SANR-FIXT
100
AcDbLine
 10
1307.114353943077
 20
2198.482558850009
 30
0.0
 11
1336.614353943078
 21
2198.482558850009
 31
0.0
  0
LINE
  5
341
330
288
100
AcDbEntity
  8
P-SANR-FIXT
100
AcDbLine
 10
1278.215041675802
 20
2203.48255885006
 30
0.0
 11
1277.614353943084
 21
2202.881871117342
 31
0.0
  0
LINE
  5
342
330
288
100
AcDbEntity
  8
P-SANR-FIXT
100
AcDbLine
 10
1336.614353943074
 20
2202.881871117342
 30
0.0
 11
1336.013666210356
 21
2203.48255885006
 31
0.0
  0
LINE
  5
343
330
288
100
AcDbEntity
  8
P-SANR-FIXT
100
AcDbLine
 10
1277.614353943084
 20
2202.881871117342
 30
0.0
 11
1277.614353943084
 21
2198.982558850014
 31
0.0
  0
LINE
  5
344
330
288
100
AcDbEntity
  8
P-SANR-FIXT
100
AcDbLine
 10
1336.614353943074
 20
2198.982558850014
 30
0.0
 11
1336.614353943074
 21
2202.881871117342
 31
0.0
  0
LINE
  5
345
330
288
100
AcDbEntity
  8
P-SANR-FIXT
100
AcDbLine
 10
1277.614353943084
 20
2198.982558850014
 30
0.0
 11
1278.231802521355
 21
2198.48255885001
 31
0.0
  0
LINE
  5
346
330
288
100
AcDbEntity
  8
P-SANR-FIXT
100
AcDbLine
 10
1335.996905364803
 20
2198.482558850011
 30
0.0
 11
1336.614353943074
 21
2198.982558850014
 31
0.0
  0
LINE
  5
347
330
288
100
AcDbEntity
  8
P-SANR-FIXT
100
AcDbLine
 10
1307.114353943077
 20
2203.482558850058
 30
0.0
 11
1278.2150416758
 21
2203.482558850058
 31
0.0
  0
LINE
  5
348
330
288
100
AcDbEntity
  8
P-SANR-FIXT
100
AcDbLine
 10
1336.013666210354
 20
2203.482558850058
 30
0.0
 11
1307.114353943077
 21
2203.482558850058
 31
0.0
  0
LINE
  5
349
330
288
100
AcDbEntity
  8
P-SANR-FIXT
100
AcDbLine
 10
1277.614353943082
 20
2202.881871117341
 30
0.0
 11
1307.114353943076
 21
2202.881871117341
 31
0.0
  0
LINE
  5
34A
330
288
100
AcDbEntity
  8
P-SANR-FIXT
100
AcDbLine
 10
1307.114353943077
 20
2202.881871117341
 30
0.0
 11
1336.614353943072
 21
2202.881871117341
 31
0.0
  0
LINE
  5
34B
330
288
100
AcDbEntity
  8
P-SANR-FIXT
100
AcDbLine
 10
1277.614353943082
 20
2198.982558850012
 30
0.0
 11
1307.114353943076
 21
2198.982558850012
 31
0.0
  0
LINE
  5
34C
330
288
100
AcDbEntity
  8
P-SANR-FIXT
100
AcDbLine
 10
1307.114353943077
 20
2198.982558850012
 30
0.0
 11
1336.614353943072
 21
2198.982558850012
 31
0.0
  0
LINE
  5
34D
330
288
100
AcDbEntity
  8
P-SANR-FIXT
100
AcDbLine
 10
1267.114353943079
 20
1974.322304812167
 30
0.0
 11
1267.114353943079
 21
1942.982558850011
 31
0.0
  0
LINE
  5
34E
330
288
100
AcDbEntity
  8
P-SANR-FIXT
100
AcDbLine
 10
1347.114353943079
 20
1942.982558850011
 30
0.0
 11
1347.114353943079
 21
1974.322304812167
 31
0.0
  0
LINE
  5
34F
330
288
100
AcDbEntity
  8
P-SANR-FIXT
100
AcDbLine
 10
1262.114353943079
 20
2023.982558850012
 30
0.0
 11
1262.114353943079
 21
2008.975421364942
 31
0.0
  0
LINE
  5
350
330
288
100
AcDbEntity
  8
P-SANR-FIXT
100
AcDbLine
 10
1262.114353943079
 20
1990.989696335081
 30
0.0
 11
1262.114353943079
 21
1982.982558850012
 31
0.0
  0
LINE
  5
351
330
288
100
AcDbEntity
  8
P-SANR-FIXT
100
AcDbLine
 10
1352.114353943079
 20
1982.982558850012
 30
0.0
 11
1352.114353943079
 21
1990.989696335081
 31
0.0
  0
LINE
  5
352
330
288
100
AcDbEntity
  8
P-SANR-FIXT
100
AcDbLine
 10
1352.114353943079
 20
2008.975421364942
 30
0.0
 11
1352.114353943079
 21
2023.982558850012
 31
0.0
  0
LWPOLYLINE
  5
353
330
288
100
AcDbEntity
  8
P-SANR-FIXT
100
AcDbPolyline
 90
       28
 70
   128
 43
0.0
 10
1267.114353943079
 20
1974.322304812167
 10
1267.110354476384
 20
1974.5222514831
 10
1267.098362474592
 20
1974.721878282013
 10
1267.078397122348
 20
1974.920865848612
 10
1267.050490359957
 20
1975.118895845238
 10
1267.014686832285
 20
1975.315651466143
 10
1266.971043817339
 20
1975.510817944303
 10
1266.919631134633
 20
1975.704083054988
 10
1266.860531033491
 20
1975.895137615248
 10
1266.793838061469
 20
1976.083675978543
 10
1266.719658913094
 20
1976.26939652371
 10
1266.638112259179
 20
1976.452002137497
 10
1266.549328556975
 20
1976.631200689874
 10
1266.453449841467
 20
1976.806705501386
 10
1266.350629498146
 20
1976.978235801771
 10
1266.241032017627
 20
1977.145517179142
 10
1266.1248327325
 20
1977.308282018979
 10
1266.002217536834
 20
1977.46626993226
 10
1265.873382588783
 20
1977.619228172024
 10
1265.738533996783
 20
1977.76691203772
 10
1265.597887489815
 20
1977.909085266665
 10
1265.451668072285
 20
1978.045520412021
 10
1265.300109664072
 20
1978.175999206662
 10
1265.143454726296
 20
1978.300312912349
 10
1264.981953873441
 20
1978.418262653672
 10
1264.81586547242
 20
1978.529659736206
 10
1264.645455229242
 20
1978.634325948384
 10
1264.614353943079
 20
1978.652431831089
  0
LWPOLYLINE
  5
354
330
288
100
AcDbEntity
  8
P-SANR-FIXT
100
AcDbPolyline
 90
       28
 70
   128
 43
0.0
 10
1349.614353943079
 20
1978.652431831089
 10
1349.443194779996
 20
1978.548994855863
 10
1349.276308901758
 20
1978.438796078213
 10
1349.113963290168
 20
1978.322011792675
 10
1348.956417663573
 20
1978.198828829194
 10
1348.803924061369
 20
1978.069444254232
 10
1348.656726440788
 20
1977.934065055511
 10
1348.515060286623
 20
1977.792907810869
 10
1348.379152234499
 20
1977.646198341784
 10
1348.249219708309
 20
1977.494171352111
 10
1348.125470572377
 20
1977.337070052602
 10
1348.008102798921
 20
1977.175145771826
 10
1347.897304151343
 20
1977.008657554087
 10
1347.793251883842
 20
1976.837871745019
 10
1347.69611245785
 20
1976.663061565484
 10
1347.606041275726
 20
1976.484506674479
 10
1347.523182432148
 20
1976.302492721739
 10
1347.447668483589
 20
1976.117310890761
 10
1347.37962023626
 20
1975.929257432972
 10
1347.319146552839
 20
1975.738633193788
 10
1347.266344178319
 20
1975.545743131327
 10
1347.221297585235
 20
1975.350895828542
 10
1347.184078838528
 20
1975.154402999551
 10
1347.154747480252
 20
1974.956578990966
 10
1347.133350434324
 20
1974.757740278999
 10
1347.119921931453
 20
1974.558204963173
 10
1347.114483454378
 20
1974.358292257428
 10
1347.114353943079
 20
1974.322304812167
  0
LWPOLYLINE
  5
355
330
288
100
AcDbEntity
  8
P-SANR-FIXT
100
AcDbPolyline
 90
       28
 70
   128
 43
0.0
 10
1264.614353943079
 20
1978.652431831089
 10
1264.443194779996
 20
1978.755868806316
 10
1264.276308901757
 20
1978.866067583966
 10
1264.113963290167
 20
1978.982851869504
 10
1263.956417663573
 20
1979.106034832985
 10
1263.803924061369
 20
1979.235419407946
 10
1263.656726440788
 20
1979.370798606667
 10
1263.515060286623
 20
1979.51195585131
 10
1263.3791522345
 20
1979.658665320395
 10
1263.249219708309
 20
1979.810692310068
 10
1263.125470572377
 20
1979.967793609576
 10
1263.008102798921
 20
1980.129717890353
 10
1262.897304151343
 20
1980.296206108092
 10
1262.793251883842
 20
1980.466991917159
 10
1262.69611245785
 20
1980.641802096695
 10
1262.606041275726
 20
1980.8203569877
 10
1262.523182432148
 20
1981.00237094044
 10
1262.447668483589
 20
1981.187552771417
 10
1262.37962023626
 20
1981.375606229207
 10
1262.319146552839
 20
1981.566230468391
 10
1262.266344178318
 20
1981.759120530852
 10
1262.221297585235
 20
1981.953967833637
 10
1262.184078838528
 20
1982.150460662628
 10
1262.154747480252
 20
1982.348284671213
 10
1262.133350434324
 20
1982.54712338318
 10
1262.119921931453
 20
1982.746658699005
 10
1262.114483454378
 20
1982.94657140475
 10
1262.114353943079
 20
1982.982558850012
  0
LWPOLYLINE
  5
356
330
288
100
AcDbEntity
  8
P-SANR-FIXT
100
AcDbPolyline
 90
       28
 70
   128
 43
0.0
 10
1352.114353943079
 20
1982.982558850012
 10
1352.110354476384
 20
1982.782612179078
 10
1352.098362474592
 20
1982.582985380165
 10
1352.078397122348
 20
1982.383997813567
 10
1352.050490359957
 20
1982.18596781694
 10
1352.014686832285
 20
1981.989212196036
 10
1351.971043817339
 20
1981.794045717876
 10
1351.919631134633
 20
1981.600780607191
 10
1351.860531033491
 20
1981.409726046931
 10
1351.793838061469
 20
1981.221187683636
 10
1351.719658913093
 20
1981.035467138468
 10
1351.638112259179
 20
1980.852861524682
 10
1351.549328556975
 20
1980.673662972304
 10
1351.453449841467
 20
1980.498158160793
 10
1351.350629498146
 20
1980.326627860407
 10
1351.241032017627
 20
1980.159346483036
 10
1351.1248327325
 20
1979.9965816432
 10
1351.002217536834
 20
1979.838593729919
 10
1350.873382588783
 20
1979.685635490154
 10
1350.738533996783
 20
1979.537951624459
 10
1350.597887489815
 20
1979.395778395514
 10
1350.451668072285
 20
1979.259343250157
 10
1350.300109664071
 20
1979.128864455517
 10
1350.143454726296
 20
1979.00455074983
 10
1349.981953873441
 20
1978.886601008506
 10
1349.81586547242
 20
1978.775203925972
 10
1349.645455229243
 20
1978.670537713795
 10
1349.614353943079
 20
1978.652431831089
  0
LINE
  5
357
330
288
100
AcDbEntity
  8
P-SANR-FIXT
100
AcDbLine
 10
1284.114353943079
 20
1914.982558850011
 30
0.0
 11
1285.114353943079
 21
1913.982558850012
 31
0.0
  0
LINE
  5
358
330
288
100
AcDbEntity
  8
P-SANR-FIXT
100
AcDbLine
 10
1329.114353943079
 20
1913.982558850012
 30
0.0
 11
1330.114353943079
 21
1914.982558850011
 31
0.0
  0
LWPOLYLINE
  5
359
330
288
100
AcDbEntity
  8
P-SANR-FIXT
100
AcDbPolyline
 90
       39
 70
   128
 43
0.0
 10
1279.392131720857
 20
1930.00263608207
 10
1278.873650952317
 20
1930.041899821635
 10
1278.357155043895
 20
1930.101865855118
 10
1277.843470278861
 20
1930.182438249658
 10
1277.333418443261
 20
1930.283488106612
 10
1276.827815511226
 20
1930.404853767766
 10
1276.327470339591
 20
1930.54634107395
 10
1275.833183373897
 20
1930.707723675657
 10
1275.345745367845
 20
1930.888743395151
 10
1274.865936118265
 20
1931.089110639497
 10
1274.394523217602
 20
1931.308504863847
 10
1273.932260825934
 20
1931.546575084242
 10
1273.479888464477
 20
1931.802940439116
 10
1273.038129832509
 20
1932.077190798589
 10
1272.607691649604
 20
1932.36888742059
 10
1272.189262525033
 20
1932.677563652748
 10
1271.783511856134
 20
1933.002725678942
 10
1271.391088757423
 20
1933.343853309291
 10
1271.012621022145
 20
1933.700400812357
 10
1270.648714117941
 20
1934.071797788196
 10
1270.299950218229
 20
1934.457450080872
 10
1269.966887270848
 20
1934.856740728987
 10
1269.650058105466
 20
1935.26903095268
 10
1269.34996958116
 20
1935.693661175543
 10
1269.067101775553
 20
1936.129952079804
 10
1268.801907216793
 20
1936.577205693086
 10
1268.554810159601
 20
1937.034706505016
 10
1268.326205906559
 20
1937.501722611891
 10
1268.116460175704
 20
1937.977506887564
 10
1267.925908515464
 20
1938.461298178689
 10
1267.754855767844
 20
1938.952322522405
 10
1267.603575580752
 20
1939.449794384506
 10
1267.472309970216
 20
1939.952917916137
 10
1267.361268933212
 20
1940.460888226972
 10
1267.27063011171
 20
1940.972892672877
 10
1267.20053850849
 20
1941.488112155959
 10
1267.151106255165
 20
1942.005722434954
 10
1267.122412432795
 20
1942.524895443831
 10
1267.114353943079
 20
1942.982558850011
  0
LWPOLYLINE
  5
35A
330
288
100
AcDbEntity
  8
P-SANR-FIXT
100
AcDbPolyline
 90
       39
 70
   128
 43
0.0
 10
1347.114353943079
 20
1942.982558850011
 10
1347.103955329671
 20
1942.462697505585
 10
1347.072776125013
 20
1941.943667828412
 10
1347.020866209179
 20
1941.426300155255
 10
1346.948308626962
 20
1940.911422164026
 10
1346.855219455015
 20
1940.399857549675
 10
1346.741747616155
 20
1939.892424706458
 10
1346.608074641119
 20
1939.389935418678
 10
1346.454414378151
 20
1938.893193562002
 10
1346.281012650892
 20
1938.402993817435
 10
1346.088146865116
 20
1937.920120399999
 10
1345.876125564938
 20
1937.445345804153
 10
1345.645287939209
 20
1936.979429567972
 10
1345.396003278888
 20
1936.523117058043
 10
1345.128670386253
 20
1936.07713827704
 10
1344.843716936904
 20
1935.642206695876
 10
1344.541598795575
 20
1935.2190181123
 10
1344.222799286841
 20
1934.808249537771
 10
1343.88782842191
 20
1934.410558114382
 10
1343.53722208271
 20
1934.026580063574
 10
1343.171541164592
 20
1933.656929668318
 10
1342.791370679016
 20
1933.30219829039
 10
1342.39731881766
 20
1932.962953424325
 10
1341.990015979444
 20
1932.639737789538
 10
1341.570113762021
 20
1932.333068462098
 10
1341.138283919365
 20
1932.043436047509
 10
1340.695217287105
 20
1931.771303895848
 10
1340.241622677337
 20
1931.517107360507
 10
1339.778225744676
 20
1931.281253101717
 10
1339.30576782536
 20
1931.064118435978
 10
1338.825004751275
 20
1930.866050732437
 10
1338.336705640783
 20
1930.687366857168
 10
1337.841651668294
 20
1930.528352666252
 10
1337.34063481456
 20
1930.389262548474
 10
1336.834456599667
 20
1930.270319018352
 10
1336.323926800782
 20
1930.171712360162
 10
1335.809862156675
 20
1930.09360032352
 10
1335.293085061115
 20
1930.036107871022
 10
1334.836576165301
 20
1930.00263608207
  0
LINE
  5
35B
330
288
100
AcDbEntity
  8
P-SANR-FIXT
100
AcDbLine
 10
1363.114353943046
 20
2008.982558850012
 30
0.0
 11
1348.6143539431
 21
2008.982558850012
 31
0.0
  0
LINE
  5
35C
330
288
100
AcDbEntity
  8
P-SANR-FIXT
100
AcDbLine
 10
1265.614353943141
 20
2008.982558850012
 30
0.0
 11
1251.114353943111
 21
2008.982558850012
 31
0.0
  0
LINE
  5
35D
330
288
100
AcDbEntity
  8
P-SANR-FIXT
100
AcDbLine
 10
1251.114353943111
 20
1990.982558850011
 30
0.0
 11
1265.614353943139
 21
1990.982558850011
 31
0.0
  0
LINE
  5
35E
330
288
100
AcDbEntity
  8
P-SANR-FIXT
100
AcDbLine
 10
1348.614353943102
 20
1990.982558850011
 30
0.0
 11
1363.114353943046
 21
1990.982558850011
 31
0.0
  0
LINE
  5
35F
330
288
100
AcDbEntity
  8
P-SANR-FIXT
100
AcDbLine
 10
1284.114353943079
 20
1925.0103580944
 30
0.0
 11
1284.114353943079
 21
1914.982558850011
 31
0.0
  0
LINE
  5
360
330
288
100
AcDbEntity
  8
P-SANR-FIXT
100
AcDbLine
 10
1330.114353943079
 20
1914.982558850011
 30
0.0
 11
1330.114353943079
 21
1925.0103580944
 31
0.0
  0
LWPOLYLINE
  5
361
330
288
100
AcDbEntity
  8
P-SANR-FIXT
100
AcDbPolyline
 90
       39
 70
   128
 43
0.0
 10
1284.114353943079
 20
1925.0103580944
 10
1284.110354476384
 20
1925.210304765333
 10
1284.098362474592
 20
1925.409931564246
 10
1284.078397122348
 20
1925.608919130845
 10
1284.050490359957
 20
1925.806949127471
 10
1284.014686832285
 20
1926.003704748375
 10
1283.971043817339
 20
1926.198871226536
 10
1283.919631134633
 20
1926.39213633722
 10
1283.860531033491
 20
1926.583190897481
 10
1283.793838061469
 20
1926.771729260775
 10
1283.719658913093
 20
1926.957449805943
 10
1283.638112259179
 20
1927.14005541973
 10
1283.549328556975
 20
1927.319253972108
 10
1283.453449841467
 20
1927.494758783619
 10
1283.350629498146
 20
1927.666289084004
 10
1283.241032017627
 20
1927.833570461375
 10
1283.1248327325
 20
1927.996335301212
 10
1283.002217536833
 20
1928.154323214492
 10
1282.873382588783
 20
1928.307281454258
 10
1282.738533996783
 20
1928.454965319953
 10
1282.597887489815
 20
1928.597138548898
 10
1282.451668072285
 20
1928.733573694254
 10
1282.300109664072
 20
1928.864052488895
 10
1282.143454726296
 20
1928.988366194582
 10
1281.981953873441
 20
1929.106315935905
 10
1281.81586547242
 20
1929.21771301844
 10
1281.645455229243
 20
1929.322379230617
 10
1281.470995763948
 20
1929.420147128825
 10
1281.292766174462
 20
1929.510860305282
 10
1281.11105159011
 20
1929.594373638259
 10
1280.926142715462
 20
1929.670553524237
 10
1280.738335365273
 20
1929.739278091648
 10
1280.547929991239
 20
1929.800437395846
 10
1280.355231201341
 20
1929.853933594991
 10
1280.160547272536
 20
1929.899681106576
 10
1279.96418965758
 20
1929.937606744342
 10
1279.76647248677
 20
1929.967649835359
 10
1279.5677120654
 20
1929.989762317088
 10
1279.392131720857
 20
1930.00263608207
  0
LWPOLYLINE
  5
362
330
288
100
AcDbEntity
  8
P-SANR-FIXT
100
AcDbPolyline
 90
       39
 70
   128
 43
0.0
 10
1334.836576165301
 20
1930.00263608207
 10
1334.637160485094
 20
1929.987534643776
 10
1334.438508212623
 20
1929.964470784744
 10
1334.240937149149
 20
1929.933481402228
 10
1334.044763366226
 20
1929.89461607263
 10
1333.850300700059
 20
1929.847936972187
 10
1333.65786024943
 20
1929.793518777501
 10
1333.467749878009
 20
1929.731448546075
 10
1333.280273721835
 20
1929.661825577038
 10
1333.095731702766
 20
1929.58476125229
 10
1332.914419048665
 20
1929.50037885831
 10
1332.7366258211
 20
1929.408813388927
 10
1332.562636451309
 20
1929.31021132936
 10
1332.392729285167
 20
1929.20473042187
 10
1332.227176137896
 20
1929.092539413408
 10
1332.066241859215
 20
1928.973817785655
 10
1331.910183909639
 20
1928.848755467889
 10
1331.759251948596
 20
1928.717552533139
 10
1331.613687435028
 20
1928.580418878113
 10
1331.473723241103
 20
1928.437573887406
 10
1331.339583279675
 20
1928.28924608253
 10
1331.211482146067
 20
1928.135672756333
 10
1331.089624774766
 20
1927.977099593373
 10
1330.974206111571
 20
1927.813780276888
 10
1330.865410801723
 20
1927.645976082941
 10
1330.763412894507
 20
1927.473955462448
 10
1330.668375564818
 20
1927.297993611706
 10
1330.58045085211
 20
1927.118372032139
 10
1330.499779417166
 20
1926.935378079957
 10
1330.426490317073
 20
1926.749304506447
 10
1330.360700798758
 20
1926.560448989634
 10
1330.302516111415
 20
1926.369113658056
 10
1330.252029338132
 20
1926.175604607429
 10
1330.209321246976
 20
1925.980231410953
 10
1330.174460161783
 20
1925.783306624067
 10
1330.147501852852
 20
1925.58514528442
 10
1330.128489447727
 20
1925.386064407884
 10
1330.1174533622
 20
1925.186382481392
 10
1330.114353943079
 20
1925.0103580944
  0
LINE
  5
363
330
288
100
AcDbEntity
  8
P-SANR-FIXT
100
AcDbLine
 10
1361.864353943057
 20
2030.982558850012
 30
0.0
 11
1361.864353943057
 21
2039.982558850012
 31
0.0
  0
LINE
  5
364
330
288
100
AcDbEntity
  8
P-SANR-FIXT
100
AcDbLine
 10
1362.11435394305
 20
2030.982558850012
 30
0.0
 11
1362.11435394305
 21
2039.982558850012
 31
0.0
  0
LINE
  5
365
330
288
100
AcDbEntity
  8
P-SANR-FIXT
100
AcDbLine
 10
1252.114353943075
 20
2039.982558850012
 30
0.0
 11
1252.114353943075
 21
2030.982558850012
 31
0.0
  0
LINE
  5
366
330
288
100
AcDbEntity
  8
P-SANR-FIXT
100
AcDbLine
 10
1252.364353943056
 20
2039.982558850012
 30
0.0
 11
1252.364353943056
 21
2030.982558850012
 31
0.0
  0
LINE
  5
367
330
288
100
AcDbEntity
  8
P-SANR-FIXT
100
AcDbLine
 10
1361.864353943057
 20
2023.982558850012
 30
0.0
 11
1361.864353943057
 21
2030.982558850012
 31
0.0
  0
LINE
  5
368
330
288
100
AcDbEntity
  8
P-SANR-FIXT
100
AcDbLine
 10
1252.364353943056
 20
2030.982558850012
 30
0.0
 11
1252.364353943056
 21
2023.982558850012
 31
0.0
  0
LINE
  5
369
330
288
100
AcDbEntity
  8
P-SANR-FIXT
100
AcDbLine
 10
1307.114353943077
 20
1913.982558850011
 30
0.0
 11
1305.050434649878
 21
1913.982558850011
 31
0.0
  0
LINE
  5
36A
330
288
100
AcDbEntity
  8
P-SANR-FIXT
100
AcDbLine
 10
1305.026955806826
 20
1913.982558850011
 30
0.0
 11
1289.186613499342
 21
1913.982558850011
 31
0.0
  0
LINE
  5
36B
330
288
100
AcDbEntity
  8
P-SANR-FIXT
100
AcDbLine
 10
1289.170161915904
 20
1913.982558850011
 30
0.0
 11
1288.356270327287
 21
1913.982558850011
 31
0.0
  0
LINE
  5
36C
330
288
100
AcDbEntity
  8
P-SANR-FIXT
100
AcDbLine
 10
1288.048378274055
 20
1913.982558850011
 30
0.0
 11
1287.274849111027
 21
1913.982558850011
 31
0.0
  0
LINE
  5
36D
330
288
100
AcDbEntity
  8
P-SANR-FIXT
100
AcDbLine
 10
1287.099096362331
 20
1913.982558850011
 30
0.0
 11
1285.114353943077
 21
1913.982558850011
 31
0.0
  0
LINE
  5
36E
330
288
100
AcDbEntity
  8
P-SANR-FIXT
100
AcDbLine
 10
1329.114353943077
 20
1913.982558850011
 30
0.0
 11
1327.129611523824
 21
1913.982558850011
 31
0.0
  0
LINE
  5
36F
330
288
100
AcDbEntity
  8
P-SANR-FIXT
100
AcDbLine
 10
1326.953858775114
 20
1913.982558850011
 30
0.0
 11
1326.1803296121
 21
1913.982558850011
 31
0.0
  0
LINE
  5
370
330
288
100
AcDbEntity
  8
P-SANR-FIXT
100
AcDbLine
 10
1325.872437558867
 20
1913.982558850011
 30
0.0
 11
1325.058545970251
 21
1913.982558850011
 31
0.0
  0
LINE
  5
371
330
288
100
AcDbEntity
  8
P-SANR-FIXT
100
AcDbLine
 10
1325.042094386811
 20
1913.982558850011
 30
0.0
 11
1309.20175207933
 21
1913.982558850011
 31
0.0
  0
LINE
  5
372
330
288
100
AcDbEntity
  8
P-SANR-FIXT
100
AcDbLine
 10
1309.178273236277
 20
1913.982558850011
 30
0.0
 11
1307.114353943077
 21
1913.982558850011
 31
0.0
  0
LINE
  5
373
330
288
100
AcDbEntity
  8
P-SANR-FIXT
100
AcDbLine
 10
1307.114353943077
 20
1914.982558850011
 30
0.0
 11
1284.114353943077
 21
1914.982558850011
 31
0.0
  0
LINE
  5
374
330
288
100
AcDbEntity
  8
P-SANR-FIXT
100
AcDbLine
 10
1330.114353943077
 20
1914.982558850011
 30
0.0
 11
1307.114353943077
 21
1914.982558850011
 31
0.0
  0
LINE
  5
375
330
288
100
AcDbEntity
  8
P-SANR-FIXT
100
AcDbLine
 10
1320.832321640324
 20
2039.982558850011
 30
0.0
 11
1349.864353943045
 21
2039.982558850011
 31
0.0
  0
LINE
  5
376
330
288
100
AcDbEntity
  8
P-SANR-FIXT
100
AcDbLine
 10
1349.864353943045
 20
2039.982558850011
 30
0.0
 11
1361.864351418207
 21
2039.982558850011
 31
0.0
  0
LINE
  5
377
330
288
100
AcDbEntity
  8
P-SANR-FIXT
100
AcDbLine
 10
1361.879134051791
 20
2039.982558850011
 30
0.0
 11
1362.114353943048
 21
2039.982558850011
 31
0.0
  0
LINE
  5
378
330
288
100
AcDbEntity
  8
P-SANR-FIXT
100
AcDbLine
 10
1252.114353943073
 20
2039.982558850011
 30
0.0
 11
1252.34957383432
 21
2039.982558850011
 31
0.0
  0
LINE
  5
379
330
288
100
AcDbEntity
  8
P-SANR-FIXT
100
AcDbLine
 10
1252.364356467902
 20
2039.982558850011
 30
0.0
 11
1264.364353943052
 21
2039.982558850011
 31
0.0
  0
LINE
  5
37A
330
288
100
AcDbEntity
  8
P-SANR-FIXT
100
AcDbLine
 10
1264.364353943052
 20
2039.982558850011
 30
0.0
 11
1293.396386245915
 21
2039.982558850011
 31
0.0
  0
LINE
  5
37B
330
288
100
AcDbEntity
  8
P-SANR-FIXT
100
AcDbLine
 10
1252.34957383432
 20
2030.98255885001
 30
0.0
 11
1252.114353943073
 21
2030.98255885001
 31
0.0
  0
LINE
  5
37C
330
288
100
AcDbEntity
  8
P-SANR-FIXT
100
AcDbLine
 10
1362.114353943048
 20
2030.98255885001
 30
0.0
 11
1361.879134051791
 21
2030.98255885001
 31
0.0
  0
LINE
  5
37D
330
288
100
AcDbEntity
  8
P-SANR-FIXT
100
AcDbLine
 10
1349.864353943045
 20
2030.98255885001
 30
0.0
 11
1349.864353943045
 21
2039.982558850011
 31
0.0
  0
LINE
  5
37E
330
288
100
AcDbEntity
  8
P-SANR-FIXT
100
AcDbLine
 10
1264.364353943052
 20
2030.98255885001
 30
0.0
 11
1264.364353943052
 21
2039.982558850011
 31
0.0
  0
LINE
  5
37F
330
288
100
AcDbEntity
  8
P-SANR-FIXT
100
AcDbLine
 10
1264.364353943052
 20
2030.98255885001
 30
0.0
 11
1264.364353943052
 21
2023.98255885001
 31
0.0
  0
LINE
  5
380
330
288
100
AcDbEntity
  8
P-SANR-FIXT
100
AcDbLine
 10
1264.364353943052
 20
2023.98255885001
 30
0.0
 11
1252.372969596603
 21
2023.98255885001
 31
0.0
  0
LINE
  5
381
330
288
100
AcDbEntity
  8
P-SANR-FIXT
100
AcDbLine
 10
1264.364353943052
 20
2023.98255885001
 30
0.0
 11
1270.2906633716
 21
2023.98255885001
 31
0.0
  0
LINE
  5
382
330
288
100
AcDbEntity
  8
P-SANR-FIXT
100
AcDbLine
 10
1252.372969596603
 20
2023.98255885001
 30
0.0
 11
1252.381096434647
 21
2023.98255885001
 31
0.0
  0
LINE
  5
383
330
288
100
AcDbEntity
  8
P-SANR-FIXT
100
AcDbLine
 10
1361.847611451459
 20
2023.98255885001
 30
0.0
 11
1361.855738289503
 21
2023.98255885001
 31
0.0
  0
LINE
  5
384
330
288
100
AcDbEntity
  8
P-SANR-FIXT
100
AcDbLine
 10
1361.855738289504
 20
2023.98255885001
 30
0.0
 11
1349.864353943045
 21
2023.98255885001
 31
0.0
  0
LINE
  5
385
330
288
100
AcDbEntity
  8
P-SANR-FIXT
100
AcDbLine
 10
1343.938044514618
 20
2023.98255885001
 30
0.0
 11
1349.864353943045
 21
2023.98255885001
 31
0.0
  0
LINE
  5
386
330
288
100
AcDbEntity
  8
P-SANR-FIXT
100
AcDbLine
 10
1349.864353943045
 20
2023.98255885001
 30
0.0
 11
1349.864353943045
 21
2030.98255885001
 31
0.0
  0
ENDBLK
  5
388
330
288
100
AcDbEntity
  8
0
100
AcDbBlockEnd
  0
ENDSEC
  0
SECTION
  2
ENTITIES
  0
INSERT
  5
1B5
330
71
100
AcDbEntity
  8
P-SANR-FIXT
100
AcDbBlockReference
  2
Automatic flow rate regulator valve_Caleffi_121 DN15 - 2__-935543-Est - Idraulica
 10
0.0
 20
0.0
 30
0.0
1001
REVIT
1002
{
1070
     1
1000
863131
1002
}
1002
{
1070
     5
1000
935543
1002
}
1002
{
1070
     2
1000
-2001160
1002
}
  0
INSERT
  5
287
330
71
100
AcDbEntity
  8
P-SANR-FIXT
100
AcDbBlockReference
  2
Automatic flow rate regulator valve_Caleffi_121 DN15 - 2__-V1-Est - Idraulica
 10
0.0
 20
0.0
 30
0.0
1001
REVIT
1002
{
1070
     1
1000
863152
1002
}
1002
{
1070
     5
1000
935543
1002
}
1002
{
1070
     2
1000
-2001160
1002
}
  0
INSERT
  5
389
330
71
100
AcDbEntity
  8
P-SANR-FIXT
100
AcDbBlockReference
  2
Automatic flow rate regulator valve_Caleffi_121 DN15 - 2__-V2-Est - Idraulica
 10
0.0
 20
0.0
 30
0.0
1001
REVIT
1002
{
1070
     1
1000
863172
1002
}
1002
{
1070
     5
1000
935543
1002
}
1002
{
1070
     2
1000
-2001160
1002
}
  0
ENDSEC
  0
SECTION
  2
OBJECTS
  0
DICTIONARY
  5
C
330
0
100
AcDbDictionary
281
     1
  3
ACAD_CIP_PREVIOUS_PRODUCT_INFO
350
7A
  3
ACAD_COLOR
350
63
  3
ACAD_DETAILVIEWSTYLE
350
6B
  3
ACAD_GROUP
350
D
  3
ACAD_IMAGE_VARS
350
7B
  3
ACAD_LAYOUT
350
62
  3
ACAD_MATERIAL
350
10
  3
ACAD_MLEADERSTYLE
350
66
  3
ACAD_MLINESTYLE
350
5F
  3
ACAD_PLOTSETTINGS
350
61
  3
ACAD_PLOTSTYLENAME
350
E
  3
ACAD_SCALELIST
350
42
  3
ACAD_SECTIONVIEWSTYLE
350
68
  3
ACAD_TABLESTYLE
350
64
  3
ACAD_VISUALSTYLE
350
29
  3
ACDB_RECOMPOSE_DATA
350
393
  3
AcDbVariableDictionary
350
7C
  3
REVIT_DICTIONARY
350
38B
  0
DICTIONARY
  5
38F
330
71
100
AcDbDictionary
280
     1
281
     1
  3
ACAD_SORTENTS
360
390
  0
XRECORD
  5
7A
102
{ACAD_REACTORS
330
C
102
}
330
C
100
AcDbXrecord
280
     1
300
RVT
300
2013
300
RVT2013
  0
DICTIONARY
  5
63
102
{ACAD_REACTORS
330
C
102
}
330
C
100
AcDbDictionary
281
     1
  0
DICTIONARY
  5
6B
102
{ACAD_REACTORS
330
C
102
}
330
C
100
AcDbDictionary
281
     1
  3
Imperial24
350
6C
  0
DICTIONARY
  5
D
102
{ACAD_REACTORS
330
C
102
}
330
C
100
AcDbDictionary
281
     1
  0
RASTERVARIABLES
  5
7B
102
{ACAD_REACTORS
330
C
102
}
330
C
100
AcDbRasterVariables
 90
        0
 70
     0
 71
     1
 72
     1
  0
DICTIONARY
  5
62
102
{ACAD_REACTORS
330
C
102
}
330
C
100
AcDbDictionary
281
     1
  3
Layout1
350
70
  3
Layout2
350
78
  3
Model
350
74
  0
DICTIONARY
  5
10
102
{ACAD_REACTORS
330
C
102
}
330
C
100
AcDbDictionary
281
     1
  3
ByBlock
350
19
  3
ByLayer
350
11
  3
Global
350
21
  0
DICTIONARY
  5
66
102
{ACAD_REACTORS
330
C
102
}
330
C
100
AcDbDictionary
281
     1
  3
Standard
350
67
  0
DICTIONARY
  5
5F
102
{ACAD_REACTORS
330
C
102
}
330
C
100
AcDbDictionary
281
     1
  3
Standard
350
60
  0
DICTIONARY
  5
61
102
{ACAD_REACTORS
330
C
102
}
330
C
100
AcDbDictionary
281
     1
  0
ACDBDICTIONARYWDFLT
  5
E
102
{ACAD_REACTORS
330
C
102
}
330
C
100
AcDbDictionary
281
     1
  3
Normal
350
F
100
AcDbDictionaryWithDefault
340
F
  0
DICTIONARY
  5
42
102
{ACAD_REACTORS
330
C
102
}
330
C
100
AcDbDictionary
281
     1
  3
A0
350
43
  3
A1
350
44
  3
A2
350
45
  3
A3
350
46
  3
A4
350
47
  3
A5
350
48
  3
A6
350
49
  3
A7
350
4A
  3
A8
350
4B
  3
A9
350
4C
  3
B0
350
4D
  3
B1
350
4E
  3
B2
350
4F
  3
B3
350
50
  3
B4
350
51
  3
B5
350
52
  3
B6
350
53
  0
DICTIONARY
  5
68
102
{ACAD_REACTORS
330
C
102
}
330
C
100
AcDbDictionary
281
     1
  3
Imperial24
350
6A
  0
DICTIONARY
  5
64
102
{ACAD_REACTORS
330
C
102
}
330
C
100
AcDbDictionary
281
     1
  3
Standard
350
65
  0
DICTIONARY
  5
29
102
{ACAD_REACTORS
330
C
102
}
330
C
100
AcDbDictionary
281
     1
  3
2dWireframe
350
2F
  3
Basic
350
2E
  3
Brighten
350
35
  3
ColorChange
350
39
  3
Conceptual
350
32
  3
Dim
350
34
  3
EdgeColorOff
350
41
  3
Facepattern
350
38
  3
Flat
350
2A
  3
FlatWithEdges
350
2B
  3
Gouraud
350
2C
  3
GouraudWithEdges
350
2D
  3
Hidden
350
31
  3
JitterOff
350
3F
  3
Linepattern
350
37
  3
OverhangOff
350
40
  3
Realistic
350
33
  3
Shaded
350
3E
  3
Shaded with edges
350
3D
  3
Shades of Gray
350
3A
  3
Sketchy
350
3B
  3
Thicken
350
36
  3
Wireframe
350
30
  3
X-Ray
350
3C
  0
XRECORD
  5
393
102
{ACAD_REACTORS
330
C
102
}
330
C
100
AcDbXrecord
280
     1
 90
        1
330
65
  0
DICTIONARY
  5
7C
102
{ACAD_REACTORS
330
C
102
}
330
C
100
AcDbDictionary
281
     1
  3
CANNOSCALE
350
81
  3
CMLEADERSTYLE
350
7E
  3
CTABLESTYLE
350
7D
  3
CVIEWDETAILSTYLE
350
7F
  3
CVIEWSECTIONSTYLE
350
80
  0
DICTIONARY
  5
38B
102
{ACAD_REACTORS
330
C
102
}
330
C
100
AcDbDictionary
281
     1
  3
DRAWING_TOOL
350
38E
  3
REVIT_CATEGORY_MAPPING
350
38D
  3
REVIT_TYPE_MAPPING
350
38C
  0
SORTENTSTABLE
  5
390
102
{ACAD_REACTORS
330
38F
102
}
330
38F
100
AcDbSortentsTable
330
71
  0
ACDBDETAILVIEWSTYLE
  5
6C
102
{ACAD_REACTORS
330
6B
102
}
330
6B
100
AcDbModelDocViewStyle
 70
     0
  3
Imperial24
290
     1
100
AcDbDetailViewStyle
 70
     0
 71
     0
 90
        3
 71
     1
340
55
 62
   256
 40
0.24
340
0
 62
   256
 40
0.24
300

 40
0.36
280
     3
 71
     2
340
5D
 90
       25
 62
   256
 71
     3
340
55
 62
   256
 40
0.24
 90
        1
 40
0.75
 90
        1
300
%<\AcVar ViewType \f "%tc1">% %<\AcVar ViewDetailId>%\PSCALA %<\AcVar ViewScale \f "%sn">%
 71
     4
340
5D
 90
       25
 62
   256
340
5D
 90
       25
 62
   256
280
     0
  0
LAYOUT
  5
70
102
{ACAD_REACTORS
330
62
102
}
330
62
100
AcDbPlotSettings
  1

  2

  4

  6

 40
0.0
 41
0.0
 42
0.0
 43
0.0
 44
0.0
 45
0.0
 46
0.0
 47
0.0
 48
0.0
 49
0.0
140
0.0
141
0.0
142
1.0
143
1.0
 70
   688
 72
     0
 73
     0
 74
     5
  7

 75
    16
147
1.0
 76
     0
 77
     2
 78
   300
148
0.0
149
0.0
100
AcDbLayout
  1
Layout1
 70
     1
 71
     1
 10
0.0
 20
0.0
 11
12.0
 21
9.0
 12
0.0
 22
0.0
 32
0.0
 14
0.0
 24
0.0
 34
0.0
 15
0.0
 25
0.0
 35
0.0
146
0.0
 13
0.0
 23
0.0
 33
0.0
 16
1.0
 26
0.0
 36
0.0
 17
0.0
 27
1.0
 37
0.0
 76
     0
330
6D
  0
LAYOUT
  5
78
102
{ACAD_REACTORS
330
62
102
}
330
62
100
AcDbPlotSettings
  1

  2

  4

  6

 40
0.0
 41
0.0
 42
0.0
 43
0.0
 44
0.0
 45
0.0
 46
0.0
 47
0.0
 48
0.0
 49
0.0
140
0.0
141
0.0
142
1.0
143
1.0
 70
   688
 72
     0
 73
     0
 74
     5
  7

 75
    16
147
1.0
 76
     0
 77
     2
 78
   300
148
0.0
149
0.0
100
AcDbLayout
  1
Layout2
 70
     1
 71
     2
 10
0.0
 20
0.0
 11
12.0
 21
9.0
 12
0.0
 22
0.0
 32
0.0
 14
0.0
 24
0.0
 34
0.0
 15
0.0
 25
0.0
 35
0.0
146
0.0
 13
0.0
 23
0.0
 33
0.0
 16
1.0
 26
0.0
 36
0.0
 17
0.0
 27
1.0
 37
0.0
 76
     0
330
75
  0
LAYOUT
  5
74
102
{ACAD_REACTORS
330
62
102
}
330
62
100
AcDbPlotSettings
  1

  2

  4

  6

 40
0.0
 41
0.0
 42
0.0
 43
0.0
 44
0.0
 45
0.0
 46
0.0
 47
0.0
 48
0.0
 49
0.0
140
0.0
141
0.0
142
1.0
143
1.0
 70
  1712
 72
     0
 73
     0
 74
     0
  7

 75
     0
147
1.0
 76
     0
 77
     2
 78
   300
148
0.0
149
0.0
100
AcDbLayout
  1
Model
 70
     1
 71
     0
 10
0.0
 20
0.0
 11
12.0
 21
9.0
 12
0.0
 22
0.0
 32
0.0
 14
0.0
 24
0.0
 34
0.0
 15
0.0
 25
0.0
 35
0.0
146
0.0
 13
0.0
 23
0.0
 33
0.0
 16
1.0
 26
0.0
 36
0.0
 17
0.0
 27
1.0
 37
0.0
 76
     0
330
71
  0
MATERIAL
  5
19
102
{ACAD_XDICTIONARY
360
1A
102
}
102
{ACAD_REACTORS
330
10
102
}
330
10
100
AcDbMaterial
  1
ByBlock
 72
     0
 43
0.0208333333333333
 43
0.0
 43
0.0
 43
0.0
 43
0.0
 43
0.0208333333333333
 43
0.0
 43
0.0
 43
0.0
 43
0.0
 43
1.0
 43
0.0
 43
0.0
 43
0.0
 43
0.0
 43
1.0
 77
     0
 47
0.0208333333333333
 47
0.0
 47
0.0
 47
0.0
 47
0.0
 47
0.0208333333333333
 47
0.0
 47
0.0
 47
0.0
 47
0.0
 47
1.0
 47
0.0
 47
0.0
 47
0.0
 47
0.0
 47
1.0
171
     0
 49
0.0208333333333333
 49
0.0
 49
0.0
 49
0.0
 49
0.0
 49
0.0208333333333333
 49
0.0
 49
0.0
 49
0.0
 49
0.0
 49
1.0
 49
0.0
 49
0.0
 49
0.0
 49
0.0
 49
1.0
175
     0
142
0.0208333333333333
142
0.0
142
0.0
142
0.0
142
0.0
142
0.0208333333333333
142
0.0
142
0.0
142
0.0
142
0.0
142
1.0
142
0.0
142
0.0
142
0.0
142
0.0
142
1.0
179
     0
144
0.0208333333333333
144
0.0
144
0.0
144
0.0
144
0.0
144
0.0208333333333333
144
0.0
144
0.0
144
0.0
144
0.0
144
1.0
144
0.0
144
0.0
144
0.0
144
0.0
144
1.0
147
0.0208333333333333
147
0.0
147
0.0
147
0.0
147
0.0
147
0.0208333333333333
147
0.0
147
0.0
147
0.0
147
0.0
147
1.0
147
0.0
147
0.0
147
0.0
147
0.0
147
1.0
  0
MATERIAL
  5
11
102
{ACAD_XDICTIONARY
360
12
102
}
102
{ACAD_REACTORS
330
10
102
}
330
10
100
AcDbMaterial
  1
ByLayer
 72
     0
 43
0.0208333333333333
 43
0.0
 43
0.0
 43
0.0
 43
0.0
 43
0.0208333333333333
 43
0.0
 43
0.0
 43
0.0
 43
0.0
 43
1.0
 43
0.0
 43
0.0
 43
0.0
 43
0.0
 43
1.0
 77
     0
 47
0.0208333333333333
 47
0.0
 47
0.0
 47
0.0
 47
0.0
 47
0.0208333333333333
 47
0.0
 47
0.0
 47
0.0
 47
0.0
 47
1.0
 47
0.0
 47
0.0
 47
0.0
 47
0.0
 47
1.0
171
     0
 49
0.0208333333333333
 49
0.0
 49
0.0
 49
0.0
 49
0.0
 49
0.0208333333333333
 49
0.0
 49
0.0
 49
0.0
 49
0.0
 49
1.0
 49
0.0
 49
0.0
 49
0.0
 49
0.0
 49
1.0
175
     0
142
0.0208333333333333
142
0.0
142
0.0
142
0.0
142
0.0
142
0.0208333333333333
142
0.0
142
0.0
142
0.0
142
0.0
142
1.0
142
0.0
142
0.0
142
0.0
142
0.0
142
1.0
179
     0
144
0.0208333333333333
144
0.0
144
0.0
144
0.0
144
0.0
144
0.0208333333333333
144
0.0
144
0.0
144
0.0
144
0.0
144
1.0
144
0.0
144
0.0
144
0.0
144
0.0
144
1.0
147
0.0208333333333333
147
0.0
147
0.0
147
0.0
147
0.0
147
0.0208333333333333
147
0.0
147
0.0
147
0.0
147
0.0
147
1.0
147
0.0
147
0.0
147
0.0
147
0.0
147
1.0
  0
MATERIAL
  5
21
102
{ACAD_XDICTIONARY
360
22
102
}
102
{ACAD_REACTORS
330
10
102
}
330
10
100
AcDbMaterial
  1
Global
 72
     0
 43
0.0208333333333333
 43
0.0
 43
0.0
 43
0.0
 43
0.0
 43
0.0208333333333333
 43
0.0
 43
0.0
 43
0.0
 43
0.0
 43
1.0
 43
0.0
 43
0.0
 43
0.0
 43
0.0
 43
1.0
 77
     0
 47
0.0208333333333333
 47
0.0
 47
0.0
 47
0.0
 47
0.0
 47
0.0208333333333333
 47
0.0
 47
0.0
 47
0.0
 47
0.0
 47
1.0
 47
0.0
 47
0.0
 47
0.0
 47
0.0
 47
1.0
171
     0
 49
0.0208333333333333
 49
0.0
 49
0.0
 49
0.0
 49
0.0
 49
0.0208333333333333
 49
0.0
 49
0.0
 49
0.0
 49
0.0
 49
1.0
 49
0.0
 49
0.0
 49
0.0
 49
0.0
 49
1.0
175
     0
142
0.0208333333333333
142
0.0
142
0.0
142
0.0
142
0.0
142
0.0208333333333333
142
0.0
142
0.0
142
0.0
142
0.0
142
1.0
142
0.0
142
0.0
142
0.0
142
0.0
142
1.0
179
     0
144
0.0208333333333333
144
0.0
144
0.0
144
0.0
144
0.0
144
0.0208333333333333
144
0.0
144
0.0
144
0.0
144
0.0
144
1.0
144
0.0
144
0.0
144
0.0
144
0.0
144
1.0
147
0.0208333333333333
147
0.0
147
0.0
147
0.0
147
0.0
147
0.0208333333333333
147
0.0
147
0.0
147
0.0
147
0.0
147
1.0
147
0.0
147
0.0
147
0.0
147
0.0
147
1.0
  0
MLEADERSTYLE
  5
67
102
{ACAD_REACTORS
330
66
102
}
330
66
100
AcDbMLeaderStyle
179
     2
170
     2
171
     1
172
     0
 90
        2
 40
0.0
 41
0.0
173
     1
 91
-1056964608
340
5B
 92
       -2
290
     1
 42
0.09
291
     1
 43
0.36
  3
Standard
 44
0.18
300

342
55
174
     1
178
     6
175
     1
176
     0
 93
-1056964608
 45
0.18
292
     0
297
     0
 46
0.18
 94
-1056964608
 47
1.0
 49
1.0
140
1.0
293
     1
141
0.0
294
     1
177
     0
142
1.0
295
     1
296
     0
143
0.125
271
     0
272
     9
273
     9
298
     1
  0
MLINESTYLE
  5
60
102
{ACAD_REACTORS
330
5F
102
}
330
5F
100
AcDbMlineStyle
  2
STANDARD
 70
     0
  3

 62
   256
 51
90.0
 52
90.0
 71
     2
 49
0.5
 62
   256
  6
BYLAYER
 49
-0.5
 62
   256
  6
BYLAYER
  0
ACDBPLACEHOLDER
  5
F
102
{ACAD_REACTORS
330
E
102
}
330
E
  0
SCALE
  5
43
102
{ACAD_REACTORS
330
42
102
}
330
42
100
AcDbScale
 70
     0
300
1:1
140
1.0
141
1.0
290
     1
  0
SCALE
  5
44
102
{ACAD_REACTORS
330
42
102
}
330
42
100
AcDbScale
 70
     0
300
1/128" = 1'-0"
140
0.0078125
141
12.0
290
     0
  0
SCALE
  5
45
102
{ACAD_REACTORS
330
42
102
}
330
42
100
AcDbScale
 70
     0
300
1/64" = 1'-0"
140
0.015625
141
12.0
290
     0
  0
SCALE
  5
46
102
{ACAD_REACTORS
330
42
102
}
330
42
100
AcDbScale
 70
     0
300
1/32" = 1'-0"
140
0.03125
141
12.0
290
     0
  0
SCALE
  5
47
102
{ACAD_REACTORS
330
42
102
}
330
42
100
AcDbScale
 70
     0
300
1/16" = 1'-0"
140
0.0625
141
12.0
290
     0
  0
SCALE
  5
48
102
{ACAD_REACTORS
330
42
102
}
330
42
100
AcDbScale
 70
     0
300
3/32" = 1'-0"
140
0.09375
141
12.0
290
     0
  0
SCALE
  5
49
102
{ACAD_REACTORS
330
42
102
}
330
42
100
AcDbScale
 70
     0
300
1/8" = 1'-0"
140
0.125
141
12.0
290
     0
  0
SCALE
  5
4A
102
{ACAD_REACTORS
330
42
102
}
330
42
100
AcDbScale
 70
     0
300
3/16" = 1'-0"
140
0.1875
141
12.0
290
     0
  0
SCALE
  5
4B
102
{ACAD_REACTORS
330
42
102
}
330
42
100
AcDbScale
 70
     0
300
1/4" = 1'-0"
140
0.25
141
12.0
290
     0
  0
SCALE
  5
4C
102
{ACAD_REACTORS
330
42
102
}
330
42
100
AcDbScale
 70
     0
300
3/8" = 1'-0"
140
0.375
141
12.0
290
     0
  0
SCALE
  5
4D
102
{ACAD_REACTORS
330
42
102
}
330
42
100
AcDbScale
 70
     0
300
1/2" = 1'-0"
140
0.5
141
12.0
290
     0
  0
SCALE
  5
4E
102
{ACAD_REACTORS
330
42
102
}
330
42
100
AcDbScale
 70
     0
300
3/4" = 1'-0"
140
0.75
141
12.0
290
     0
  0
SCALE
  5
4F
102
{ACAD_REACTORS
330
42
102
}
330
42
100
AcDbScale
 70
     0
300
1" = 1'-0"
140
1.0
141
12.0
290
     0
  0
SCALE
  5
50
102
{ACAD_REACTORS
330
42
102
}
330
42
100
AcDbScale
 70
     0
300
1-1/2" = 1'-0"
140
1.5
141
12.0
290
     0
  0
SCALE
  5
51
102
{ACAD_REACTORS
330
42
102
}
330
42
100
AcDbScale
 70
     0
300
3" = 1'-0"
140
3.0
141
12.0
290
     0
  0
SCALE
  5
52
102
{ACAD_REACTORS
330
42
102
}
330
42
100
AcDbScale
 70
     0
300
6" = 1'-0"
140
6.0
141
12.0
290
     0
  0
SCALE
  5
53
102
{ACAD_REACTORS
330
42
102
}
330
42
100
AcDbScale
 70
     0
300
1'-0" = 1'-0"
140
12.0
141
12.0
290
     0
  0
ACDBSECTIONVIEWSTYLE
  5
6A
102
{ACAD_REACTORS
330
68
102
}
330
68
100
AcDbModelDocViewStyle
 70
     0
  3
Imperial24
290
     1
100
AcDbSectionViewStyle
 70
     0
 71
     0
 90
       78
 71
     1
340
55
 62
   256
 40
0.24
340
0
340
0
 62
   256
 40
0.24
300
I, O, Q, S, X, Z
 40
0.48
 90
        3
 40
0.18
 90
        1
 71
     2
340
69
 90
       25
 62
   256
340
5D
 90
       50
 62
   256
 40
0.24
 40
0.0
 40
0.24
 71
     3
340
55
 62
   256
 40
0.24
 90
        1
 40
0.75
 90
        1
300
%<\AcVar ViewType \f "%tc1">% %<\AcVar ViewSectionStartId>%-%<\AcVar ViewSectionEndId>%\PSCALA %<\AcVar ViewScale \f "%sn">%
 71
     4
 62
   256
 62
   257
300
ANSI31
 40
1.0
 90
        0
290
     0
290
     0
 90
        6
 40
0.0
 40
1.570796326794896
 40
0.2617993877991494
 40
1.308996938995747
 40
-0.2617993877991494
 40
1.832595714594046
  0
TABLESTYLE
  5
65
102
{ACAD_XDICTIONARY
360
391
102
}
102
{ACAD_REACTORS
330
64
102
}
330
64
100
AcDbTableStyle
280
     0
  3
Standard
 70
     0
 71
     0
 40
0.06
 41
0.06
280
     0
281
     0
  7
Standard
140
0.18
170
     2
 62
     0
 63
     7
283
     0
 90
      512
 91
        0
  1

274
    -2
284
     1
 64
     0
275
    -2
285
     1
 65
     0
276
    -2
286
     1
 66
     0
277
    -2
287
     1
 67
     0
278
    -2
288
     1
 68
     0
279
    -2
289
     1
 69
     0
  7
Standard
140
0.25
170
     5
 62
     0
 63
     7
283
     0
 90
      512
 91
        0
  1

274
    -2
284
     1
 64
     0
275
    -2
285
     1
 65
     0
276
    -2
286
     1
 66
     0
277
    -2
287
     1
 67
     0
278
    -2
288
     1
 68
     0
279
    -2
289
     1
 69
     0
  7
Standard
140
0.18
170
     5
 62
     0
 63
     7
283
     0
 90
      512
 91
        0
  1

274
    -2
284
     1
 64
     0
275
    -2
285
     1
 65
     0
276
    -2
286
     1
 66
     0
277
    -2
287
     1
 67
     0
278
    -2
288
     1
 68
     0
279
    -2
289
     1
 69
     0
  0
VISUALSTYLE
  5
2F
102
{ACAD_REACTORS
330
29
102
}
330
29
100
AcDbVisualStyle
  2
2dWireframe
 70
     4
177
     3
291
     0
 70
    58
 90
        0
176
     1
 90
        2
176
     1
 90
        0
176
     1
 90
        0
176
     1
 40
0.6
176
     1
 40
30.0
176
     1
 62
     7
420
 16777215
176
     1
 90
        1
176
     1
 90
        4
176
     1
 62
     7
176
     1
 62
   257
176
     1
 90
        1
176
     1
 90
        1
176
     1
 40
1.0
176
     1
 90
        0
176
     1
 62
   257
176
     1
 40
1.0
176
     1
 90
        1
176
     1
 90
        6
176
     1
 90
        2
176
     1
 62
     7
176
     1
 90
        5
176
     1
 90
        0
176
     1
 90
        0
176
     1
290
     0
176
     1
 90
        1
176
     1
 40
0.0
176
     1
 90
        0
176
     1
290
     1
176
     1
290
     1
176
     1
290
     0
176
     1
290
     0
176
     1
290
     0
176
     1
290
     0
176
     1
290
     0
176
     1
290
     0
176
     1
290
     0
176
     1
 90
       50
176
     1
 40
0.0
176
     1
 40
1.0
176
     1
 90
        0
176
     1
 62
    18
420
        0
176
     1
 90
       50
176
     1
 90
        3
176
     1
 62
     5
420
      255
176
     1
290
     0
176
     1
 90
       50
176
     1
 90
       50
176
     1
 90
       50
176
     1
290
     0
176
     1
 90
       50
176
     1
 62
   256
176
     0
 40
1.0
176
     0
 90
        2
176
     1
  1
strokes_ogs.tif
176
     1
290
     0
176
     1
 40
1.0
176
     1
 40
1.0
176
     1
  0
VISUALSTYLE
  5
2E
102
{ACAD_REACTORS
330
29
102
}
330
29
100
AcDbVisualStyle
  2
Basic
 70
     7
177
     3
291
     1
 70
    58
 90
        1
176
     1
 90
        0
176
     1
 90
        1
176
     1
 90
        0
176
     1
 40
0.6
176
     1
 40
30.0
176
     1
 62
     7
420
 16777215
176
     1
 90
        0
176
     1
 90
        4
176
     1
 62
     7
176
     1
 62
   257
176
     1
 90
        1
176
     1
 90
        1
176
     1
 40
1.0
176
     1
 90
        8
176
     1
 62
     7
176
     1
 40
1.0
176
     1
 90
        1
176
     1
 90
        6
176
     1
 90
        2
176
     1
 62
     7
176
     1
 90
        5
176
     1
 90
        0
176
     1
 90
        0
176
     1
290
     0
176
     1
 90
        1
176
     1
 40
0.0
176
     1
 90
        0
176
     1
290
     0
176
     1
290
     1
176
     1
290
     1
176
     1
290
     0
176
     1
290
     0
176
     1
290
     0
176
     1
290
     0
176
     1
290
     0
176
     1
290
     0
176
     1
 90
       50
176
     1
 40
0.0
176
     1
 40
1.0
176
     1
 90
        0
176
     1
 62
    18
420
        0
176
     1
 90
       50
176
     1
 90
        3
176
     1
 62
     5
420
      255
176
     1
290
     0
176
     1
 90
       50
176
     1
 90
       50
176
     1
 90
       50
176
     1
290
     0
176
     1
 90
       50
176
     1
 62
   256
176
     0
 40
1.0
176
     0
 90
        2
176
     1
  1
strokes_ogs.tif
176
     1
290
     0
176
     1
 40
1.0
176
     1
 40
1.0
176
     1
  0
VISUALSTYLE
  5
35
102
{ACAD_REACTORS
330
29
102
}
330
29
100
AcDbVisualStyle
  2
Brighten
 70
    12
177
     3
291
     1
 70
    58
 90
        2
176
     1
 90
        2
176
     1
 90
        0
176
     1
 90
        0
176
     1
 40
0.6
176
     1
 40
30.0
176
     1
 62
     7
420
 16777215
176
     1
 90
        1
176
     1
 90
        4
176
     1
 62
     7
176
     1
 62
   257
176
     1
 90
        1
176
     1
 90
        1
176
     1
 40
1.0
176
     1
 90
        8
176
     1
 62
     7
176
     1
 40
1.0
176
     1
 90
        1
176
     1
 90
        6
176
     1
 90
        2
176
     1
 62
     7
176
     1
 90
        5
176
     1
 90
        0
176
     1
 90
        0
176
     1
290
     0
176
     1
 90
        1
176
     1
 40
50.0
176
     1
 90
        0
176
     1
290
     0
176
     1
290
     1
176
     1
290
     1
176
     1
290
     0
176
     1
290
     0
176
     1
290
     0
176
     1
290
     0
176
     1
290
     0
176
     1
290
     0
176
     1
 90
       50
176
     1
 40
0.0
176
     1
 40
1.0
176
     1
 90
        0
176
     1
 62
    18
420
        0
176
     1
 90
       50
176
     1
 90
        3
176
     1
 62
     5
420
      255
176
     1
290
     0
176
     1
 90
       50
176
     1
 90
       50
176
     1
 90
       50
176
     1
290
     0
176
     1
 90
       50
176
     1
 62
   256
176
     0
 40
1.0
176
     0
 90
        2
176
     1
  1
strokes_ogs.tif
176
     1
290
     0
176
     1
 40
1.0
176
     1
 40
1.0
176
     1
  0
VISUALSTYLE
  5
39
102
{ACAD_REACTORS
330
29
102
}
330
29
100
AcDbVisualStyle
  2
ColorChange
 70
    16
177
     3
291
     1
 70
    58
 90
        2
176
     1
 90
        2
176
     1
 90
        3
176
     1
 90
        0
176
     1
 40
0.6
176
     1
 40
30.0
176
     1
 62
     8
420
  8421504
176
     1
 90
        1
176
     1
 90
        4
176
     1
 62
     7
176
     1
 62
   257
176
     1
 90
        1
176
     1
 90
        1
176
     1
 40
1.0
176
     1
 90
        8
176
     1
 62
     8
420
  8421504
176
     1
 40
1.0
176
     1
 90
        1
176
     1
 90
        6
176
     1
 90
        2
176
     1
 62
     7
176
     1
 90
        5
176
     1
 90
        0
176
     1
 90
        0
176
     1
290
     0
176
     1
 90
        1
176
     1
 40
0.0
176
     1
 90
        0
176
     1
290
     0
176
     1
290
     1
176
     1
290
     1
176
     1
290
     0
176
     1
290
     0
176
     1
290
     0
176
     1
290
     0
176
     1
290
     0
176
     1
290
     0
176
     1
 90
       50
176
     1
 40
0.0
176
     1
 40
1.0
176
     1
 90
        0
176
     1
 62
    18
420
        0
176
     1
 90
       50
176
     1
 90
        3
176
     1
 62
     5
420
      255
176
     1
290
     0
176
     1
 90
       50
176
     1
 90
       50
176
     1
 90
       50
176
     1
290
     0
176
     1
 90
       50
176
     1
 62
   256
176
     0
 40
1.0
176
     0
 90
        2
176
     1
  1
strokes_ogs.tif
176
     1
290
     0
176
     1
 40
1.0
176
     1
 40
1.0
176
     1
  0
VISUALSTYLE
  5
32
102
{ACAD_REACTORS
330
29
102
}
330
29
100
AcDbVisualStyle
  2
Conceptual
 70
     9
177
     3
291
     0
 70
    58
 90
        3
176
     1
 90
        2
176
     1
 90
        0
176
     1
 90
        0
176
     1
 40
0.6
176
     1
 40
30.0
176
     1
 62
     7
420
 16777215
176
     1
 90
        2
176
     1
 90
        2
176
     1
 62
     7
176
     1
 62
   257
176
     1
 90
        1
176
     1
 90
        1
176
     1
 40
179.0
176
     1
 90
        8
176
     1
 62
     7
176
     1
 40
1.0
176
     1
 90
        1
176
     1
 90
        6
176
     1
 90
        2
176
     1
 62
     7
176
     1
 90
        3
176
     1
 90
        0
176
     1
 90
        0
176
     1
290
     0
176
     1
 90
        1
176
     1
 40
0.0
176
     1
 90
        0
176
     1
290
     0
176
     1
290
     1
176
     1
290
     1
176
     1
290
     0
176
     1
290
     0
176
     1
290
     0
176
     1
290
     0
176
     1
290
     0
176
     1
290
     0
176
     1
 90
       50
176
     1
 40
0.0
176
     1
 40
1.0
176
     1
 90
        0
176
     1
 62
    18
420
        0
176
     1
 90
       50
176
     1
 90
        3
176
     1
 62
     5
420
      255
176
     1
290
     0
176
     1
 90
       50
176
     1
 90
       50
176
     1
 90
       50
176
     1
290
     0
176
     1
 90
       50
176
     1
 62
   256
176
     0
 40
1.0
176
     0
 90
        2
176
     1
  1
strokes_ogs.tif
176
     1
290
     0
176
     1
 40
1.0
176
     1
 40
1.0
176
     1
  0
VISUALSTYLE
  5
34
102
{ACAD_REACTORS
330
29
102
}
330
29
100
AcDbVisualStyle
  2
Dim
 70
    11
177
     3
291
     1
 70
    58
 90
        2
176
     1
 90
        2
176
     1
 90
        0
176
     1
 90
        0
176
     1
 40
0.6
176
     1
 40
30.0
176
     1
 62
     7
420
 16777215
176
     1
 90
        1
176
     1
 90
        4
176
     1
 62
     7
176
     1
 62
   257
176
     1
 90
        1
176
     1
 90
        1
176
     1
 40
1.0
176
     1
 90
        8
176
     1
 62
     7
176
     1
 40
1.0
176
     1
 90
        1
176
     1
 90
        6
176
     1
 90
        2
176
     1
 62
     7
176
     1
 90
        5
176
     1
 90
        0
176
     1
 90
        0
176
     1
290
     0
176
     1
 90
        1
176
     1
 40
-50.0
176
     1
 90
        0
176
     1
290
     0
176
     1
290
     1
176
     1
290
     1
176
     1
290
     0
176
     1
290
     0
176
     1
290
     0
176
     1
290
     0
176
     1
290
     0
176
     1
290
     0
176
     1
 90
       50
176
     1
 40
0.0
176
     1
 40
1.0
176
     1
 90
        0
176
     1
 62
    18
420
        0
176
     1
 90
       50
176
     1
 90
        3
176
     1
 62
     5
420
      255
176
     1
290
     0
176
     1
 90
       50
176
     1
 90
       50
176
     1
 90
       50
176
     1
290
     0
176
     1
 90
       50
176
     1
 62
   256
176
     0
 40
1.0
176
     0
 90
        2
176
     1
  1
strokes_ogs.tif
176
     1
290
     0
176
     1
 40
1.0
176
     1
 40
1.0
176
     1
  0
VISUALSTYLE
  5
41
102
{ACAD_REACTORS
330
29
102
}
330
29
100
AcDbVisualStyle
  2
EdgeColorOff
 70
    22
177
     3
291
     1
 70
    58
 90
        2
176
     0
 90
        2
176
     0
 90
        0
176
     0
 90
        0
176
     0
 40
0.6
176
     0
 40
30.0
176
     0
 62
     7
420
 16777215
176
     0
 90
        1
176
     0
 90
        4
176
     0
 62
     7
176
     0
 62
   257
176
     0
 90
        1
176
     0
 90
        1
176
     0
 40
1.0
176
     0
 90
        8
176
     2
 62
     7
176
     0
 40
1.0
176
     0
 90
        1
176
     0
 90
        6
176
     0
 90
        2
176
     0
 62
     7
176
     0
 90
        5
176
     0
 90
        0
176
     0
 90
        0
176
     0
290
     0
176
     0
 90
        1
176
     0
 40
0.0
176
     0
 90
        0
176
     0
290
     0
176
     0
290
     1
176
     0
290
     1
176
     0
290
     0
176
     0
290
     0
176
     0
290
     0
176
     0
290
     0
176
     0
290
     0
176
     0
290
     0
176
     0
 90
       50
176
     0
 40
0.0
176
     0
 40
1.0
176
     0
 90
        0
176
     0
 62
    18
420
        0
176
     0
 90
       50
176
     0
 90
        3
176
     0
 62
     5
420
      255
176
     0
290
     0
176
     0
 90
       50
176
     0
 90
       50
176
     0
 90
       50
176
     0
290
     0
176
     0
 90
       50
176
     0
 62
   256
176
     0
 40
1.0
176
     0
 90
        2
176
     0
  1
strokes_ogs.tif
176
     0
290
     0
176
     0
 40
1.0
176
     0
 40
1.0
176
     0
  0
VISUALSTYLE
  5
38
102
{ACAD_REACTORS
330
29
102
}
330
29
100
AcDbVisualStyle
  2
Facepattern
 70
    15
177
     3
291
     1
 70
    58
 90
        2
176
     1
 90
        2
176
     1
 90
        0
176
     1
 90
        0
176
     1
 40
0.6
176
     1
 40
30.0
176
     1
 62
     7
420
 16777215
176
     1
 90
        1
176
     1
 90
        4
176
     1
 62
     7
176
     1
 62
   257
176
     1
 90
        1
176
     1
 90
        1
176
     1
 40
1.0
176
     1
 90
        8
176
     1
 62
     7
176
     1
 40
1.0
176
     1
 90
        1
176
     1
 90
        6
176
     1
 90
        2
176
     1
 62
     7
176
     1
 90
        5
176
     1
 90
        0
176
     1
 90
        0
176
     1
290
     0
176
     1
 90
        1
176
     1
 40
0.0
176
     1
 90
        0
176
     1
290
     0
176
     1
290
     1
176
     1
290
     1
176
     1
290
     0
176
     1
290
     0
176
     1
290
     0
176
     1
290
     0
176
     1
290
     0
176
     1
290
     0
176
     1
 90
       50
176
     1
 40
0.0
176
     1
 40
1.0
176
     1
 90
        0
176
     1
 62
    18
420
        0
176
     1
 90
       50
176
     1
 90
        3
176
     1
 62
     5
420
      255
176
     1
290
     0
176
     1
 90
       50
176
     1
 90
       50
176
     1
 90
       50
176
     1
290
     0
176
     1
 90
       50
176
     1
 62
   256
176
     0
 40
1.0
176
     0
 90
        2
176
     1
  1
strokes_ogs.tif
176
     1
290
     0
176
     1
 40
1.0
176
     1
 40
1.0
176
     1
  0
VISUALSTYLE
  5
2A
102
{ACAD_REACTORS
330
29
102
}
330
29
100
AcDbVisualStyle
  2
Flat
 70
     0
177
     3
291
     1
 70
    58
 90
        2
176
     1
 90
        1
176
     1
 90
        1
176
     1
 90
        2
176
     1
 40
0.6
176
     1
 40
30.0
176
     1
 62
     7
420
 16777215
176
     1
 90
        0
176
     1
 90
        0
176
     1
 62
     7
176
     1
 62
   257
176
     1
 90
        1
176
     1
 90
        1
176
     1
 40
1.0
176
     1
 90
        8
176
     1
 62
     7
176
     1
 40
1.0
176
     1
 90
        1
176
     1
 90
        6
176
     1
 90
        2
176
     1
 62
     7
176
     1
 90
        5
176
     1
 90
        0
176
     1
 90
        0
176
     1
290
     0
176
     1
 90
       13
176
     1
 40
0.0
176
     1
 90
        0
176
     1
290
     0
176
     1
290
     1
176
     1
290
     1
176
     1
290
     0
176
     1
290
     0
176
     1
290
     0
176
     1
290
     0
176
     1
290
     0
176
     1
290
     0
176
     1
 90
       50
176
     1
 40
0.0
176
     1
 40
1.0
176
     1
 90
        0
176
     1
 62
    18
420
        0
176
     1
 90
       50
176
     1
 90
        3
176
     1
 62
     5
420
      255
176
     1
290
     0
176
     1
 90
       50
176
     1
 90
       50
176
     1
 90
       50
176
     1
290
     0
176
     1
 90
       50
176
     1
 62
   256
176
     0
 40
1.0
176
     0
 90
        2
176
     1
  1
strokes_ogs.tif
176
     1
290
     0
176
     1
 40
1.0
176
     1
 40
1.0
176
     1
  0
VISUALSTYLE
  5
2B
102
{ACAD_REACTORS
330
29
102
}
330
29
100
AcDbVisualStyle
  2
FlatWithEdges
 70
     1
177
     3
291
     1
 70
    58
 90
        2
176
     1
 90
        1
176
     1
 90
        1
176
     1
 90
        2
176
     1
 40
0.6
176
     1
 40
30.0
176
     1
 62
     7
420
 16777215
176
     1
 90
        1
176
     1
 90
        0
176
     1
 62
     7
176
     1
 62
   257
176
     1
 90
        1
176
     1
 90
        1
176
     1
 40
1.0
176
     1
 90
        0
176
     1
 62
   257
176
     1
 40
1.0
176
     1
 90
        1
176
     1
 90
        6
176
     1
 90
        2
176
     1
 62
     7
176
     1
 90
        5
176
     1
 90
        0
176
     1
 90
        0
176
     1
290
     0
176
     1
 90
       13
176
     1
 40
0.0
176
     1
 90
        0
176
     1
290
     0
176
     1
290
     1
176
     1
290
     1
176
     1
290
     0
176
     1
290
     0
176
     1
290
     0
176
     1
290
     0
176
     1
290
     0
176
     1
290
     0
176
     1
 90
       50
176
     1
 40
0.0
176
     1
 40
1.0
176
     1
 90
        0
176
     1
 62
    18
420
        0
176
     1
 90
       50
176
     1
 90
        3
176
     1
 62
     5
420
      255
176
     1
290
     0
176
     1
 90
       50
176
     1
 90
       50
176
     1
 90
       50
176
     1
290
     0
176
     1
 90
       50
176
     1
 62
   256
176
     0
 40
1.0
176
     0
 90
        2
176
     1
  1
strokes_ogs.tif
176
     1
290
     0
176
     1
 40
1.0
176
     1
 40
1.0
176
     1
  0
VISUALSTYLE
  5
2C
102
{ACAD_REACTORS
330
29
102
}
330
29
100
AcDbVisualStyle
  2
Gouraud
 70
     2
177
     3
291
     1
 70
    58
 90
        2
176
     1
 90
        2
176
     1
 90
        1
176
     1
 90
        2
176
     1
 40
0.6
176
     1
 40
30.0
176
     1
 62
     7
420
 16777215
176
     1
 90
        0
176
     1
 90
        0
176
     1
 62
     7
176
     1
 62
   257
176
     1
 90
        1
176
     1
 90
        1
176
     1
 40
1.0
176
     1
 90
        0
176
     1
 62
     7
176
     1
 40
1.0
176
     1
 90
        1
176
     1
 90
        6
176
     1
 90
        2
176
     1
 62
     7
176
     1
 90
        5
176
     1
 90
        0
176
     1
 90
        0
176
     1
290
     0
176
     1
 90
       13
176
     1
 40
0.0
176
     1
 90
        0
176
     1
290
     0
176
     1
290
     1
176
     1
290
     1
176
     1
290
     0
176
     1
290
     0
176
     1
290
     0
176
     1
290
     0
176
     1
290
     0
176
     1
290
     0
176
     1
 90
       50
176
     1
 40
0.0
176
     1
 40
1.0
176
     1
 90
        0
176
     1
 62
    18
420
        0
176
     1
 90
       50
176
     1
 90
        3
176
     1
 62
     5
420
      255
176
     1
290
     0
176
     1
 90
       50
176
     1
 90
       50
176
     1
 90
       50
176
     1
290
     0
176
     1
 90
       50
176
     1
 62
   256
176
     0
 40
1.0
176
     0
 90
        2
176
     1
  1
strokes_ogs.tif
176
     1
290
     0
176
     1
 40
1.0
176
     1
 40
1.0
176
     1
  0
VISUALSTYLE
  5
2D
102
{ACAD_REACTORS
330
29
102
}
330
29
100
AcDbVisualStyle
  2
GouraudWithEdges
 70
     3
177
     3
291
     1
 70
    58
 90
        2
176
     1
 90
        2
176
     1
 90
        1
176
     1
 90
        2
176
     1
 40
0.6
176
     1
 40
30.0
176
     1
 62
     7
420
 16777215
176
     1
 90
        1
176
     1
 90
        0
176
     1
 62
     7
176
     1
 62
   257
176
     1
 90
        1
176
     1
 90
        1
176
     1
 40
1.0
176
     1
 90
        0
176
     1
 62
   257
176
     1
 40
1.0
176
     1
 90
        1
176
     1
 90
        6
176
     1
 90
        2
176
     1
 62
     7
176
     1
 90
        5
176
     1
 90
        0
176
     1
 90
        0
176
     1
290
     0
176
     1
 90
       13
176
     1
 40
0.0
176
     1
 90
        0
176
     1
290
     0
176
     1
290
     1
176
     1
290
     1
176
     1
290
     0
176
     1
290
     0
176
     1
290
     0
176
     1
290
     0
176
     1
290
     0
176
     1
290
     0
176
     1
 90
       50
176
     1
 40
0.0
176
     1
 40
1.0
176
     1
 90
        0
176
     1
 62
    18
420
        0
176
     1
 90
       50
176
     1
 90
        3
176
     1
 62
     5
420
      255
176
     1
290
     0
176
     1
 90
       50
176
     1
 90
       50
176
     1
 90
       50
176
     1
290
     0
176
     1
 90
       50
176
     1
 62
   256
176
     0
 40
1.0
176
     0
 90
        2
176
     1
  1
strokes_ogs.tif
176
     1
290
     0
176
     1
 40
1.0
176
     1
 40
1.0
176
     1
  0
VISUALSTYLE
  5
31
102
{ACAD_REACTORS
330
29
102
}
330
29
100
AcDbVisualStyle
  2
Hidden
 70
     6
177
     3
291
     0
 70
    58
 90
        1
176
     1
 90
        2
176
     1
 90
        2
176
     1
 90
        0
176
     1
 40
0.6
176
     1
 40
30.0
176
     1
 62
     7
420
 16777215
176
     1
 90
        2
176
     1
 90
        2
176
     1
 62
     7
176
     1
 62
   257
176
     1
 90
        2
176
     1
 90
        1
176
     1
 40
40.0
176
     1
 90
        0
176
     1
 62
   257
176
     1
 40
1.0
176
     1
 90
        1
176
     1
 90
        6
176
     1
 90
        2
176
     1
 62
     7
176
     1
 90
        3
176
     1
 90
        0
176
     1
 90
        0
176
     1
290
     0
176
     1
 90
        1
176
     1
 40
0.0
176
     1
 90
        0
176
     1
290
     0
176
     1
290
     1
176
     1
290
     1
176
     1
290
     0
176
     1
290
     0
176
     1
290
     0
176
     1
290
     0
176
     1
290
     0
176
     1
290
     0
176
     1
 90
       50
176
     1
 40
0.0
176
     1
 40
1.0
176
     1
 90
        0
176
     1
 62
    18
420
        0
176
     1
 90
       50
176
     1
 90
        3
176
     1
 62
     5
420
      255
176
     1
290
     0
176
     1
 90
       50
176
     1
 90
       50
176
     1
 90
       50
176
     1
290
     0
176
     1
 90
       50
176
     1
 62
   256
176
     0
 40
1.0
176
     0
 90
        2
176
     1
  1
strokes_ogs.tif
176
     1
290
     0
176
     1
 40
1.0
176
     1
 40
1.0
176
     1
  0
VISUALSTYLE
  5
3F
102
{ACAD_REACTORS
330
29
102
}
330
29
100
AcDbVisualStyle
  2
JitterOff
 70
    20
177
     3
291
     1
 70
    58
 90
        2
176
     0
 90
        2
176
     0
 90
        0
176
     0
 90
        0
176
     0
 40
0.6
176
     0
 40
30.0
176
     0
 62
     7
420
 16777215
176
     0
 90
        1
176
     0
 90
        4
176
     0
 62
     7
176
     0
 62
   257
176
     0
 90
        1
176
     0
 90
        1
176
     0
 40
1.0
176
     0
 90
       10
176
     2
 62
     7
176
     0
 40
1.0
176
     0
 90
        1
176
     0
 90
        6
176
     0
 90
        2
176
     0
 62
     7
176
     0
 90
        5
176
     0
 90
        0
176
     0
 90
        0
176
     0
290
     0
176
     0
 90
        1
176
     0
 40
0.0
176
     0
 90
        0
176
     0
290
     0
176
     0
290
     1
176
     0
290
     1
176
     0
290
     0
176
     0
290
     0
176
     0
290
     0
176
     0
290
     0
176
     0
290
     0
176
     0
290
     0
176
     0
 90
       50
176
     0
 40
0.0
176
     0
 40
1.0
176
     0
 90
        0
176
     0
 62
    18
420
        0
176
     0
 90
       50
176
     0
 90
        3
176
     0
 62
     5
420
      255
176
     0
290
     0
176
     0
 90
       50
176
     0
 90
       50
176
     0
 90
       50
176
     0
290
     0
176
     0
 90
       50
176
     0
 62
   256
176
     0
 40
1.0
176
     0
 90
        2
176
     0
  1
strokes_ogs.tif
176
     0
290
     0
176
     0
 40
1.0
176
     0
 40
1.0
176
     0
  0
VISUALSTYLE
  5
37
102
{ACAD_REACTORS
330
29
102
}
330
29
100
AcDbVisualStyle
  2
Linepattern
 70
    14
177
     3
291
     1
 70
    58
 90
        2
176
     1
 90
        2
176
     1
 90
        0
176
     1
 90
        0
176
     1
 40
0.6
176
     1
 40
30.0
176
     1
 62
     7
420
 16777215
176
     1
 90
        1
176
     1
 90
        4
176
     1
 62
     7
176
     1
 62
   257
176
     1
 90
        7
176
     1
 90
        7
176
     1
 40
1.0
176
     1
 90
        8
176
     1
 62
     7
176
     1
 40
1.0
176
     1
 90
        1
176
     1
 90
        6
176
     1
 90
        2
176
     1
 62
     7
176
     1
 90
        5
176
     1
 90
        0
176
     1
 90
        0
176
     1
290
     0
176
     1
 90
        1
176
     1
 40
0.0
176
     1
 90
        0
176
     1
290
     0
176
     1
290
     1
176
     1
290
     1
176
     1
290
     0
176
     1
290
     0
176
     1
290
     0
176
     1
290
     0
176
     1
290
     0
176
     1
290
     0
176
     1
 90
       50
176
     1
 40
0.0
176
     1
 40
1.0
176
     1
 90
        0
176
     1
 62
    18
420
        0
176
     1
 90
       50
176
     1
 90
        3
176
     1
 62
     5
420
      255
176
     1
290
     0
176
     1
 90
       50
176
     1
 90
       50
176
     1
 90
       50
176
     1
290
     0
176
     1
 90
       50
176
     1
 62
   256
176
     0
 40
1.0
176
     0
 90
        2
176
     1
  1
strokes_ogs.tif
176
     1
290
     0
176
     1
 40
1.0
176
     1
 40
1.0
176
     1
  0
VISUALSTYLE
  5
40
102
{ACAD_REACTORS
330
29
102
}
330
29
100
AcDbVisualStyle
  2
OverhangOff
 70
    21
177
     3
291
     1
 70
    58
 90
        2
176
     0
 90
        2
176
     0
 90
        0
176
     0
 90
        0
176
     0
 40
0.6
176
     0
 40
30.0
176
     0
 62
     7
420
 16777215
176
     0
 90
        1
176
     0
 90
        4
176
     0
 62
     7
176
     0
 62
   257
176
     0
 90
        1
176
     0
 90
        1
176
     0
 40
1.0
176
     0
 90
        9
176
     2
 62
     7
176
     0
 40
1.0
176
     0
 90
        1
176
     0
 90
        6
176
     0
 90
        2
176
     0
 62
     7
176
     0
 90
        5
176
     0
 90
        0
176
     0
 90
        0
176
     0
290
     0
176
     0
 90
        1
176
     0
 40
0.0
176
     0
 90
        0
176
     0
290
     0
176
     0
290
     1
176
     0
290
     1
176
     0
290
     0
176
     0
290
     0
176
     0
290
     0
176
     0
290
     0
176
     0
290
     0
176
     0
290
     0
176
     0
 90
       50
176
     0
 40
0.0
176
     0
 40
1.0
176
     0
 90
        0
176
     0
 62
    18
420
        0
176
     0
 90
       50
176
     0
 90
        3
176
     0
 62
     5
420
      255
176
     0
290
     0
176
     0
 90
       50
176
     0
 90
       50
176
     0
 90
       50
176
     0
290
     0
176
     0
 90
       50
176
     0
 62
   256
176
     0
 40
1.0
176
     0
 90
        2
176
     0
  1
strokes_ogs.tif
176
     0
290
     0
176
     0
 40
1.0
176
     0
 40
1.0
176
     0
  0
VISUALSTYLE
  5
33
102
{ACAD_REACTORS
330
29
102
}
330
29
100
AcDbVisualStyle
  2
Realistic
 70
     8
177
     3
291
     0
 70
    58
 90
        2
176
     1
 90
        3
176
     1
 90
        0
176
     1
 90
        2
176
     1
 40
0.6
176
     1
 40
30.0
176
     1
 62
     7
420
 16777215
176
     1
 90
        0
176
     1
 90
        0
176
     1
 62
     7
176
     1
 62
   257
176
     1
 90
        1
176
     1
 90
        1
176
     1
 40
1.0
176
     1
 90
        8
176
     1
 62
   257
176
     1
 40
1.0
176
     1
 90
        1
176
     1
 90
        6
176
     1
 90
        2
176
     1
 62
     7
176
     1
 90
        3
176
     1
 90
        0
176
     1
 90
        0
176
     1
290
     0
176
     1
 90
       13
176
     1
 40
0.0
176
     1
 90
        0
176
     1
290
     0
176
     1
290
     1
176
     1
290
     1
176
     1
290
     0
176
     1
290
     0
176
     1
290
     0
176
     1
290
     0
176
     1
290
     0
176
     1
290
     0
176
     1
 90
       50
176
     1
 40
0.0
176
     1
 40
1.0
176
     1
 90
        0
176
     1
 62
    18
420
        0
176
     1
 90
       50
176
     1
 90
        3
176
     1
 62
     5
420
      255
176
     1
290
     0
176
     1
 90
       50
176
     1
 90
       50
176
     1
 90
       50
176
     1
290
     0
176
     1
 90
       50
176
     1
 62
   256
176
     0
 40
1.0
176
     0
 90
        2
176
     1
  1
strokes_ogs.tif
176
     1
290
     0
176
     1
 40
1.0
176
     1
 40
1.0
176
     1
  0
VISUALSTYLE
  5
3E
102
{ACAD_REACTORS
330
29
102
}
330
29
100
AcDbVisualStyle
  2
Shaded
 70
    27
177
     3
291
     0
 70
    58
 90
        2
176
     1
 90
        2
176
     1
 90
        1
176
     1
 90
        2
176
     1
 40
0.6
176
     1
 40
30.0
176
     1
 62
     7
420
 16777215
176
     1
 90
        0
176
     1
 90
        4
176
     1
 62
     7
176
     1
 62
   257
176
     1
 90
        1
176
     1
 90
        1
176
     1
 40
1.0
176
     1
 90
        8
176
     1
 62
   257
176
     1
 40
1.0
176
     1
 90
        1
176
     1
 90
        6
176
     1
 90
        2
176
     1
 62
     8
420
  7895160
176
     1
 90
        3
176
     1
 90
        0
176
     1
 90
        0
176
     1
290
     0
176
     1
 90
        5
176
     1
 40
0.0
176
     1
 90
        0
176
     1
290
     0
176
     1
290
     1
176
     1
290
     1
176
     1
290
     0
176
     1
290
     0
176
     1
290
     0
176
     1
290
     0
176
     1
290
     0
176
     1
290
     0
176
     1
 90
       50
176
     1
 40
0.0
176
     1
 40
1.0
176
     1
 90
        0
176
     1
 62
    18
420
        0
176
     1
 90
       50
176
     1
 90
        3
176
     1
 62
     5
420
      255
176
     1
290
     0
176
     1
 90
       50
176
     1
 90
       50
176
     1
 90
       50
176
     1
290
     0
176
     1
 90
       50
176
     1
 62
   256
176
     0
 40
1.0
176
     0
 90
        2
176
     1
  1
strokes_ogs.tif
176
     1
290
     0
176
     1
 40
1.0
176
     1
 40
1.0
176
     1
  0
VISUALSTYLE
  5
3D
102
{ACAD_REACTORS
330
29
102
}
330
29
100
AcDbVisualStyle
  2
Shaded with edges
 70
    26
177
     3
291
     0
 70
    58
 90
        2
176
     1
 90
        2
176
     1
 90
        1
176
     1
 90
        2
176
     1
 40
0.6
176
     1
 40
30.0
176
     1
 62
     7
420
 16777215
176
     1
 90
        1
176
     1
 90
       10
176
     1
 62
     7
176
     1
 62
   257
176
     1
 90
        2
176
     1
 90
        1
176
     1
 40
1.0
176
     1
 90
        8
176
     1
 62
   257
176
     1
 40
1.0
176
     1
 90
        1
176
     1
 90
        6
176
     1
 90
        2
176
     1
 62
     7
176
     1
 90
        3
176
     1
 90
        0
176
     1
 90
        0
176
     1
290
     0
176
     1
 90
        5
176
     1
 40
0.0
176
     1
 90
        0
176
     1
290
     0
176
     1
290
     1
176
     1
290
     1
176
     1
290
     0
176
     1
290
     0
176
     1
290
     0
176
     1
290
     0
176
     1
290
     0
176
     1
290
     0
176
     1
 90
       50
176
     1
 40
0.0
176
     1
 40
1.0
176
     1
 90
        0
176
     1
 62
    18
420
        0
176
     1
 90
       50
176
     1
 90
        3
176
     1
 62
     5
420
      255
176
     1
290
     0
176
     1
 90
       50
176
     1
 90
       50
176
     1
 90
       50
176
     1
290
     0
176
     1
 90
       50
176
     1
 62
   256
176
     0
 40
1.0
176
     0
 90
        2
176
     1
  1
strokes_ogs.tif
176
     1
290
     0
176
     1
 40
1.0
176
     1
 40
1.0
176
     1
  0
VISUALSTYLE
  5
3A
102
{ACAD_REACTORS
330
29
102
}
330
29
100
AcDbVisualStyle
  2
Shades of Gray
 70
    23
177
     3
291
     0
 70
    58
 90
        2
176
     1
 90
        2
176
     1
 90
        3
176
     1
 90
        0
176
     1
 40
0.6
176
     1
 40
30.0
176
     1
 62
     7
420
 16777215
176
     1
 90
        2
176
     1
 90
        2
176
     1
 62
     7
176
     1
 62
     7
176
     1
 90
        1
176
     1
 90
        1
176
     1
 40
40.0
176
     1
 90
        8
176
     1
 62
     7
176
     1
 40
1.0
176
     1
 90
        1
176
     1
 90
        6
176
     1
 90
        2
176
     1
 62
     7
176
     1
 90
        3
176
     1
 90
        0
176
     1
 90
        0
176
     1
290
     0
176
     1
 90
        1
176
     1
 40
0.0
176
     1
 90
        0
176
     1
290
     0
176
     1
290
     1
176
     1
290
     1
176
     1
290
     0
176
     1
290
     0
176
     1
290
     0
176
     1
290
     0
176
     1
290
     0
176
     1
290
     0
176
     1
 90
       50
176
     1
 40
0.0
176
     1
 40
1.0
176
     1
 90
        0
176
     1
 62
    18
420
        0
176
     1
 90
       50
176
     1
 90
        3
176
     1
 62
     5
420
      255
176
     1
290
     0
176
     1
 90
       50
176
     1
 90
       50
176
     1
 90
       50
176
     1
290
     0
176
     1
 90
       50
176
     1
 62
   256
176
     0
 40
1.0
176
     0
 90
        2
176
     1
  1
strokes_ogs.tif
176
     1
290
     0
176
     1
 40
1.0
176
     1
 40
1.0
176
     1
  0
VISUALSTYLE
  5
3B
102
{ACAD_REACTORS
330
29
102
}
330
29
100
AcDbVisualStyle
  2
Sketchy
 70
    24
177
     3
291
     0
 70
    58
 90
        1
176
     1
 90
        2
176
     1
 90
        2
176
     1
 90
        0
176
     1
 40
0.6
176
     1
 40
30.0
176
     1
 62
     7
420
 16777215
176
     1
 90
        2
176
     1
 90
        2
176
     1
 62
     7
176
     1
 62
     7
176
     1
 90
        1
176
     1
 90
        1
176
     1
 40
40.0
176
     1
 90
       11
176
     1
 62
     7
176
     1
 40
1.0
176
     1
 90
        1
176
     1
 90
        6
176
     1
 90
        2
176
     1
 62
     7
176
     1
 90
        6
176
     1
 90
        0
176
     1
 90
        0
176
     1
290
     0
176
     1
 90
        1
176
     1
 40
0.0
176
     1
 90
        0
176
     1
290
     0
176
     1
290
     1
176
     1
290
     1
176
     1
290
     0
176
     1
290
     0
176
     1
290
     0
176
     1
290
     0
176
     1
290
     0
176
     1
290
     0
176
     1
 90
       50
176
     1
 40
0.0
176
     1
 40
1.0
176
     1
 90
        0
176
     1
 62
    18
420
        0
176
     1
 90
       50
176
     1
 90
        3
176
     1
 62
     5
420
      255
176
     1
290
     0
176
     1
 90
       50
176
     1
 90
       50
176
     1
 90
       50
176
     1
290
     0
176
     1
 90
       50
176
     1
 62
   256
176
     0
 40
1.0
176
     0
 90
        2
176
     1
  1
strokes_ogs.tif
176
     1
290
     0
176
     1
 40
1.0
176
     1
 40
1.0
176
     1
  0
VISUALSTYLE
  5
36
102
{ACAD_REACTORS
330
29
102
}
330
29
100
AcDbVisualStyle
  2
Thicken
 70
    13
177
     3
291
     1
 70
    58
 90
        2
176
     1
 90
        2
176
     1
 90
        0
176
     1
 90
        0
176
     1
 40
0.6
176
     1
 40
30.0
176
     1
 62
     7
420
 16777215
176
     1
 90
        1
176
     1
 90
        4
176
     1
 62
     7
176
     1
 62
   257
176
     1
 90
        1
176
     1
 90
        1
176
     1
 40
1.0
176
     1
 90
       12
176
     1
 62
     7
176
     1
 40
1.0
176
     1
 90
        1
176
     1
 90
        6
176
     1
 90
        2
176
     1
 62
     7
176
     1
 90
        5
176
     1
 90
        0
176
     1
 90
        0
176
     1
290
     0
176
     1
 90
        1
176
     1
 40
0.0
176
     1
 90
        0
176
     1
290
     0
176
     1
290
     1
176
     1
290
     1
176
     1
290
     0
176
     1
290
     0
176
     1
290
     0
176
     1
290
     0
176
     1
290
     0
176
     1
290
     0
176
     1
 90
       50
176
     1
 40
0.0
176
     1
 40
1.0
176
     1
 90
        0
176
     1
 62
    18
420
        0
176
     1
 90
       50
176
     1
 90
        3
176
     1
 62
     5
420
      255
176
     1
290
     0
176
     1
 90
       50
176
     1
 90
       50
176
     1
 90
       50
176
     1
290
     0
176
     1
 90
       50
176
     1
 62
   256
176
     0
 40
1.0
176
     0
 90
        2
176
     1
  1
strokes_ogs.tif
176
     1
290
     0
176
     1
 40
1.0
176
     1
 40
1.0
176
     1
  0
VISUALSTYLE
  5
30
102
{ACAD_REACTORS
330
29
102
}
330
29
100
AcDbVisualStyle
  2
Wireframe
 70
     5
177
     3
291
     0
 70
    58
 90
        0
176
     1
 90
        2
176
     1
 90
        0
176
     1
 90
        0
176
     1
 40
0.6
176
     1
 40
30.0
176
     1
 62
     7
420
 16777215
176
     1
 90
        1
176
     1
 90
        4
176
     1
 62
     7
176
     1
 62
   257
176
     1
 90
        1
176
     1
 90
        1
176
     1
 40
1.0
176
     1
 90
        0
176
     1
 62
   257
176
     1
 40
1.0
176
     1
 90
        1
176
     1
 90
        6
176
     1
 90
        2
176
     1
 62
     7
176
     1
 90
        3
176
     1
 90
        0
176
     1
 90
        0
176
     1
290
     0
176
     1
 90
        1
176
     1
 40
0.0
176
     1
 90
        0
176
     1
290
     0
176
     1
290
     1
176
     1
290
     1
176
     1
290
     0
176
     1
290
     0
176
     1
290
     0
176
     1
290
     0
176
     1
290
     0
176
     1
290
     0
176
     1
 90
       50
176
     1
 40
0.0
176
     1
 40
1.0
176
     1
 90
        0
176
     1
 62
    18
420
        0
176
     1
 90
       50
176
     1
 90
        3
176
     1
 62
     5
420
      255
176
     1
290
     0
176
     1
 90
       50
176
     1
 90
       50
176
     1
 90
       50
176
     1
290
     0
176
     1
 90
       50
176
     1
 62
   256
176
     0
 40
1.0
176
     0
 90
        2
176
     1
  1
strokes_ogs.tif
176
     1
290
     0
176
     1
 40
1.0
176
     1
 40
1.0
176
     1
  0
VISUALSTYLE
  5
3C
102
{ACAD_REACTORS
330
29
102
}
330
29
100
AcDbVisualStyle
  2
X-Ray
 70
    25
177
     3
291
     0
 70
    58
 90
        2
176
     1
 90
        2
176
     1
 90
        1
176
     1
 90
        1
176
     1
 40
0.5
176
     1
 40
30.0
176
     1
 62
     7
420
 16777215
176
     1
 90
        1
176
     1
 90
        0
176
     1
 62
     7
176
     1
 62
   257
176
     1
 90
        1
176
     1
 90
        1
176
     1
 40
1.0
176
     1
 90
        8
176
     1
 62
     7
176
     1
 40
1.0
176
     1
 90
        1
176
     1
 90
        6
176
     1
 90
        2
176
     1
 62
     7
176
     1
 90
        3
176
     1
 90
        0
176
     1
 90
        0
176
     1
290
     0
176
     1
 90
       13
176
     1
 40
0.0
176
     1
 90
        0
176
     1
290
     0
176
     1
290
     1
176
     1
290
     1
176
     1
290
     0
176
     1
290
     0
176
     1
290
     0
176
     1
290
     0
176
     1
290
     0
176
     1
290
     0
176
     1
 90
       50
176
     1
 40
0.0
176
     1
 40
1.0
176
     1
 90
        0
176
     1
 62
    18
420
        0
176
     1
 90
       50
176
     1
 90
        3
176
     1
 62
     5
420
      255
176
     1
290
     0
176
     1
 90
       50
176
     1
 90
       50
176
     1
 90
       50
176
     1
290
     0
176
     1
 90
       50
176
     1
 62
   256
176
     0
 40
1.0
176
     0
 90
        2
176
     1
  1
strokes_ogs.tif
176
     1
290
     0
176
     1
 40
1.0
176
     1
 40
1.0
176
     1
  0
DICTIONARYVAR
  5
81
102
{ACAD_REACTORS
330
7C
102
}
330
7C
100
DictionaryVariables
280
     0
  1
1:1
  0
DICTIONARYVAR
  5
7E
102
{ACAD_REACTORS
330
7C
102
}
330
7C
100
DictionaryVariables
280
     0
  1
STANDARD
  0
DICTIONARYVAR
  5
7D
102
{ACAD_REACTORS
330
7C
102
}
330
7C
100
DictionaryVariables
280
     0
  1
STANDARD
  0
DICTIONARYVAR
  5
7F
102
{ACAD_REACTORS
330
7C
102
}
330
7C
100
DictionaryVariables
280
     0
  1
Imperial24
  0
DICTIONARYVAR
  5
80
102
{ACAD_REACTORS
330
7C
102
}
330
7C
100
DictionaryVariables
280
     0
  1
Imperial24
  0
XRECORD
  5
38E
102
{ACAD_REACTORS
330
38B
102
}
330
38B
100
AcDbXrecord
280
     1
  1
BUILDING_ID
  1
Progetto per messa in tavola DXF, DWG
  1
FLOOR_ID
  1
694395
  0
XRECORD
  5
38D
102
{ACAD_REACTORS
330
38B
102
}
330
38B
100
AcDbXrecord
280
     1
  1
-2001160
  1
Apparecchi idraulici
  0
XRECORD
  5
38C
102
{ACAD_REACTORS
330
38B
102
}
330
38B
100
AcDbXrecord
280
     1
  1
935543
  1
Automatic flow rate regulator valve_Caleffi_121 DN15 : 2''
  0
DICTIONARY
  5
1A
330
19
100
AcDbDictionary
280
     1
281
     1
  3
BUMPTILE
360
1C
  3
DIFFUSETILE
360
1B
  3
OPACITYTILE
360
1F
  3
REFLECTIONTILE
360
1E
  3
REFRACTIONTILE
360
20
  3
SPECULARTILE
360
1D
  0
DICTIONARY
  5
12
330
11
100
AcDbDictionary
280
     1
281
     1
  3
BUMPTILE
360
14
  3
DIFFUSETILE
360
13
  3
OPACITYTILE
360
17
  3
REFLECTIONTILE
360
16
  3
REFRACTIONTILE
360
18
  3
SPECULARTILE
360
15
  0
DICTIONARY
  5
22
330
21
100
AcDbDictionary
280
     1
281
     1
  3
BUMPTILE
360
24
  3
DIFFUSETILE
360
23
  3
OPACITYTILE
360
27
  3
REFLECTIONTILE
360
26
  3
REFRACTIONTILE
360
28
  3
SPECULARTILE
360
25
  0
DICTIONARY
  5
391
330
65
100
AcDbDictionary
280
     1
281
     1
  3
ACAD_ROUNDTRIP_2008_TABLESTYLE_CELLSTYLEMAP
360
392
  0
XRECORD
  5
1C
102
{ACAD_REACTORS
330
1A
102
}
330
1A
100
AcDbXrecord
280
     1
270
     1
271
     1
  0
XRECORD
  5
1B
102
{ACAD_REACTORS
330
1A
102
}
330
1A
100
AcDbXrecord
280
     1
270
     1
271
     1
  0
XRECORD
  5
1F
102
{ACAD_REACTORS
330
1A
102
}
330
1A
100
AcDbXrecord
280
     1
270
     1
271
     1
  0
XRECORD
  5
1E
102
{ACAD_REACTORS
330
1A
102
}
330
1A
100
AcDbXrecord
280
     1
270
     1
271
     1
  0
XRECORD
  5
20
102
{ACAD_REACTORS
330
1A
102
}
330
1A
100
AcDbXrecord
280
     1
270
     1
271
     1
  0
XRECORD
  5
1D
102
{ACAD_REACTORS
330
1A
102
}
330
1A
100
AcDbXrecord
280
     1
270
     1
271
     1
  0
XRECORD
  5
14
102
{ACAD_REACTORS
330
12
102
}
330
12
100
AcDbXrecord
280
     1
270
     1
271
     1
  0
XRECORD
  5
13
102
{ACAD_REACTORS
330
12
102
}
330
12
100
AcDbXrecord
280
     1
270
     1
271
     1
  0
XRECORD
  5
17
102
{ACAD_REACTORS
330
12
102
}
330
12
100
AcDbXrecord
280
     1
270
     1
271
     1
  0
XRECORD
  5
16
102
{ACAD_REACTORS
330
12
102
}
330
12
100
AcDbXrecord
280
     1
270
     1
271
     1
  0
XRECORD
  5
18
102
{ACAD_REACTORS
330
12
102
}
330
12
100
AcDbXrecord
280
     1
270
     1
271
     1
  0
XRECORD
  5
15
102
{ACAD_REACTORS
330
12
102
}
330
12
100
AcDbXrecord
280
     1
270
     1
271
     1
  0
XRECORD
  5
24
102
{ACAD_REACTORS
330
22
102
}
330
22
100
AcDbXrecord
280
     1
270
     1
271
     1
  0
XRECORD
  5
23
102
{ACAD_REACTORS
330
22
102
}
330
22
100
AcDbXrecord
280
     1
270
     1
271
     1
  0
XRECORD
  5
27
102
{ACAD_REACTORS
330
22
102
}
330
22
100
AcDbXrecord
280
     1
270
     1
271
     1
  0
XRECORD
  5
26
102
{ACAD_REACTORS
330
22
102
}
330
22
100
AcDbXrecord
280
     1
270
     1
271
     1
  0
XRECORD
  5
28
102
{ACAD_REACTORS
330
22
102
}
330
22
100
AcDbXrecord
280
     1
270
     1
271
     1
  0
XRECORD
  5
25
102
{ACAD_REACTORS
330
22
102
}
330
22
100
AcDbXrecord
280
     1
270
     1
271
     1
  0
CELLSTYLEMAP
  5
392
102
{ACAD_REACTORS
330
391
102
}
330
391
100
AcDbCellStyleMap
 90
        3
300
CELLSTYLE
  1
TABLEFORMAT_BEGIN
 90
        5
170
     1
 91
        0
 92
    32768
 62
   257
 93
        1
300
CONTENTFORMAT
  1
CONTENTFORMAT_BEGIN
 90
        0
 91
        0
 92
      512
 93
        0
300

 40
0.0
140
1.0
 94
        5
 62
     0
340
55
144
0.25
309
CONTENTFORMAT_END
171
     0
 94
        0
309
TABLEFORMAT_END
  1
CELLSTYLE_BEGIN
 90
        1
 91
        1
300
_TITLE
309
CELLSTYLE_END
300
CELLSTYLE
  1
TABLEFORMAT_BEGIN
 90
        5
170
     1
 91
        0
 92
        0
 62
   257
 93
        1
300
CONTENTFORMAT
  1
CONTENTFORMAT_BEGIN
 90
        0
 91
        0
 92
      512
 93
        0
300

 40
0.0
140
1.0
 94
        5
 62
     0
340
55
144
0.18
309
CONTENTFORMAT_END
171
     0
 94
        0
309
TABLEFORMAT_END
  1
CELLSTYLE_BEGIN
 90
        2
 91
        1
300
_HEADER
309
CELLSTYLE_END
300
CELLSTYLE
  1
TABLEFORMAT_BEGIN
 90
        5
170
     1
 91
        0
 92
        0
 62
   257
 93
        1
300
CONTENTFORMAT
  1
CONTENTFORMAT_BEGIN
 90
        0
 91
        0
 92
      512
 93
        0
300

 40
0.0
140
1.0
 94
        2
 62
     0
340
55
144
0.18
309
CONTENTFORMAT_END
171
     0
 94
        0
309
TABLEFORMAT_END
  1
CELLSTYLE_BEGIN
 90
        3
 91
        2
300
_DATA
309
CELLSTYLE_END
  0
ENDSEC
  0
EOF
