  0
SECTION
  2
HEADER
  9
$ACADVER
  1
AC1027
  9
$ACADMAINTVER
 70
    20
  9
$DWGCODEPAGE
  3
ANSI_1252
  9
$REQUIREDVERSIONS
160
                 0
  9
$INSBASE
 10
0.0
 20
0.0
 30
0.0
  9
$EXTMIN
 10
688.6664074431489
 20
1644.245878730053
 30
-0.00000001
  9
$EXTMAX
 10
1369.114353943096
 20
2200.500000000044
 30
0.00000001
  9
$LIMMIN
 10
0.0
 20
0.0
  9
$LIMMAX
 10
12.0
 20
9.0
  9
$ORTHOMODE
 70
     0
  9
$REGENMODE
 70
     1
  9
$FILLMODE
 70
     1
  9
$QTEXTMODE
 70
     0
  9
$MIRRTEXT
 70
     0
  9
$LTSCALE
 40
1.0
  9
$ATTMODE
 70
     1
  9
$TEXTSIZE
 40
0.2
  9
$TRACEWID
 40
0.05
  9
$TEXTSTYLE
  7
Standard
  9
$CLAYER
  8
0
  9
$CELTYPE
  6
ByLayer
  9
$CECOLOR
 62
   256
  9
$CELTSCALE
 40
1.0
  9
$DISPSILH
 70
     0
  9
$DIMSCALE
 40
1.0
  9
$DIMASZ
 40
0.18
  9
$DIMEXO
 40
0.0625
  9
$DIMDLI
 40
0.38
  9
$DIMRND
 40
0.0
  9
$DIMDLE
 40
0.0
  9
$DIMEXE
 40
0.18
  9
$DIMTP
 40
0.0
  9
$DIMTM
 40
0.0
  9
$DIMTXT
 40
0.18
  9
$DIMCEN
 40
0.09
  9
$DIMTSZ
 40
0.0
  9
$DIMTOL
 70
     0
  9
$DIMLIM
 70
     0
  9
$DIMTIH
 70
     1
  9
$DIMTOH
 70
     1
  9
$DIMSE1
 70
     0
  9
$DIMSE2
 70
     0
  9
$DIMTAD
 70
     0
  9
$DIMZIN
 70
     0
  9
$DIMBLK
  1

  9
$DIMASO
 70
     1
  9
$DIMSHO
 70
     1
  9
$DIMPOST
  1

  9
$DIMAPOST
  1

  9
$DIMALT
 70
     0
  9
$DIMALTD
 70
     2
  9
$DIMALTF
 40
25.4
  9
$DIMLFAC
 40
1.0
  9
$DIMTOFL
 70
     0
  9
$DIMTVP
 40
0.0
  9
$DIMTIX
 70
     0
  9
$DIMSOXD
 70
     0
  9
$DIMSAH
 70
     0
  9
$DIMBLK1
  1

  9
$DIMBLK2
  1

  9
$DIMSTYLE
  2
Standard
  9
$DIMCLRD
 70
     0
  9
$DIMCLRE
 70
     0
  9
$DIMCLRT
 70
     0
  9
$DIMTFAC
 40
1.0
  9
$DIMGAP
 40
0.09
  9
$DIMJUST
 70
     0
  9
$DIMSD1
 70
     0
  9
$DIMSD2
 70
     0
  9
$DIMTOLJ
 70
     1
  9
$DIMTZIN
 70
     0
  9
$DIMALTZ
 70
     0
  9
$DIMALTTZ
 70
     0
  9
$DIMUPT
 70
     0
  9
$DIMDEC
 70
     4
  9
$DIMTDEC
 70
     4
  9
$DIMALTU
 70
     2
  9
$DIMALTTD
 70
     2
  9
$DIMTXSTY
  7
Standard
  9
$DIMAUNIT
 70
     0
  9
$DIMADEC
 70
     0
  9
$DIMALTRND
 40
0.0
  9
$DIMAZIN
 70
     0
  9
$DIMDSEP
 70
    46
  9
$DIMATFIT
 70
     3
  9
$DIMFRAC
 70
     0
  9
$DIMLDRBLK
  1

  9
$DIMLUNIT
 70
     2
  9
$DIMLWD
 70
    -2
  9
$DIMLWE
 70
    -2
  9
$DIMTMOVE
 70
     0
  9
$DIMFXL
 40
1.0
  9
$DIMFXLON
 70
     0
  9
$DIMJOGANG
 40
0.7853981633974483
  9
$DIMTFILL
 70
     0
  9
$DIMTFILLCLR
 70
     0
  9
$DIMARCSYM
 70
     0
  9
$DIMLTYPE
  6

  9
$DIMLTEX1
  6

  9
$DIMLTEX2
  6

  9
$DIMTXTDIRECTION
 70
     0
  9
$LUNITS
 70
     2
  9
$LUPREC
 70
     4
  9
$SKETCHINC
 40
0.1
  9
$FILLETRAD
 40
0.0
  9
$AUNITS
 70
     0
  9
$AUPREC
 70
     0
  9
$MENU
  1
.
  9
$ELEVATION
 40
0.0
  9
$PELEVATION
 40
0.0
  9
$THICKNESS
 40
0.0
  9
$LIMCHECK
 70
     0
  9
$CHAMFERA
 40
0.0
  9
$CHAMFERB
 40
0.0
  9
$CHAMFERC
 40
0.0
  9
$CHAMFERD
 40
0.0
  9
$SKPOLY
 70
     0
  9
$TDCREATE
 40
2457576.354640938
  9
$TDUCREATE
 40
2457576.271307605
  9
$TDUPDATE
 40
2457576.354640938
  9
$TDUUPDATE
 40
2457576.271307605
  9
$TDINDWG
 40
0.0000206829
  9
$TDUSRTIMER
 40
0.0000206829
  9
$USRTIMER
 70
     1
  9
$ANGBASE
 50
0.0
  9
$ANGDIR
 70
     0
  9
$PDMODE
 70
     0
  9
$PDSIZE
 40
0.0
  9
$PLINEWID
 40
0.0
  9
$SPLFRAME
 70
     0
  9
$SPLINETYPE
 70
     6
  9
$SPLINESEGS
 70
     8
  9
$HANDSEED
  5
31E
  9
$SURFTAB1
 70
     6
  9
$SURFTAB2
 70
     6
  9
$SURFTYPE
 70
     6
  9
$SURFU
 70
     6
  9
$SURFV
 70
     6
  9
$UCSBASE
  2

  9
$UCSNAME
  2

  9
$UCSORG
 10
0.0
 20
0.0
 30
0.0
  9
$UCSXDIR
 10
1.0
 20
0.0
 30
0.0
  9
$UCSYDIR
 10
0.0
 20
1.0
 30
0.0
  9
$UCSORTHOREF
  2

  9
$UCSORTHOVIEW
 70
     0
  9
$UCSORGTOP
 10
0.0
 20
0.0
 30
0.0
  9
$UCSORGBOTTOM
 10
0.0
 20
0.0
 30
0.0
  9
$UCSORGLEFT
 10
0.0
 20
0.0
 30
0.0
  9
$UCSORGRIGHT
 10
0.0
 20
0.0
 30
0.0
  9
$UCSORGFRONT
 10
0.0
 20
0.0
 30
0.0
  9
$UCSORGBACK
 10
0.0
 20
0.0
 30
0.0
  9
$PUCSBASE
  2

  9
$PUCSNAME
  2

  9
$PUCSORG
 10
0.0
 20
0.0
 30
0.0
  9
$PUCSXDIR
 10
1.0
 20
0.0
 30
0.0
  9
$PUCSYDIR
 10
0.0
 20
1.0
 30
0.0
  9
$PUCSORTHOREF
  2

  9
$PUCSORTHOVIEW
 70
     0
  9
$PUCSORGTOP
 10
0.0
 20
0.0
 30
0.0
  9
$PUCSORGBOTTOM
 10
0.0
 20
0.0
 30
0.0
  9
$PUCSORGLEFT
 10
0.0
 20
0.0
 30
0.0
  9
$PUCSORGRIGHT
 10
0.0
 20
0.0
 30
0.0
  9
$PUCSORGFRONT
 10
0.0
 20
0.0
 30
0.0
  9
$PUCSORGBACK
 10
0.0
 20
0.0
 30
0.0
  9
$USERI1
 70
     0
  9
$USERI2
 70
     0
  9
$USERI3
 70
     0
  9
$USERI4
 70
     0
  9
$USERI5
 70
     0
  9
$USERR1
 40
0.0
  9
$USERR2
 40
0.0
  9
$USERR3
 40
0.0
  9
$USERR4
 40
0.0
  9
$USERR5
 40
0.0
  9
$WORLDVIEW
 70
     1
  9
$SHADEDGE
 70
     3
  9
$SHADEDIF
 70
    70
  9
$TILEMODE
 70
     1
  9
$MAXACTVP
 70
    64
  9
$PINSBASE
 10
0.0
 20
0.0
 30
0.0
  9
$PLIMCHECK
 70
     0
  9
$PEXTMIN
 10
1.000000000000000E+20
 20
1.000000000000000E+20
 30
1.000000000000000E+20
  9
$PEXTMAX
 10
-1.000000000000000E+20
 20
-1.000000000000000E+20
 30
-1.000000000000000E+20
  9
$PLIMMIN
 10
0.0
 20
0.0
  9
$PLIMMAX
 10
12.0
 20
9.0
  9
$UNITMODE
 70
     0
  9
$VISRETAIN
 70
     1
  9
$PLINEGEN
 70
     0
  9
$PSLTSCALE
 70
     1
  9
$TREEDEPTH
 70
  3020
  9
$CMLSTYLE
  2
Standard
  9
$CMLJUST
 70
     0
  9
$CMLSCALE
 40
1.0
  9
$PROXYGRAPHICS
 70
     1
  9
$MEASUREMENT
 70
     1
  9
$CELWEIGHT
370
    -1
  9
$ENDCAPS
280
     0
  9
$JOINSTYLE
280
     0
  9
$LWDISPLAY
290
     0
  9
$INSUNITS
 70
     4
  9
$HYPERLINKBASE
  1

  9
$STYLESHEET
  1

  9
$XEDIT
290
     1
  9
$CEPSNTYPE
380
     0
  9
$PSTYLEMODE
290
     1
  9
$FINGERPRINTGUID
  2
{EFF43868-9EC6-46B3-A996-7F890EC245EC}
  9
$VERSIONGUID
  2
{8C8B569E-E6CC-45CE-AA4D-31D4F49C5438}
  9
$EXTNAMES
290
     1
  9
$PSVPSCALE
 40
0.0
  9
$OLESTARTUP
290
     0
  9
$SORTENTS
280
   127
  9
$INDEXCTL
280
     0
  9
$HIDETEXT
280
     1
  9
$XCLIPFRAME
280
     2
  9
$HALOGAP
280
     0
  9
$OBSCOLOR
 70
   257
  9
$OBSLTYPE
280
     0
  9
$INTERSECTIONDISPLAY
280
     0
  9
$INTERSECTIONCOLOR
 70
   257
  9
$DIMASSOC
280
     2
  9
$PROJECTNAME
  1

  9
$CAMERADISPLAY
290
     0
  9
$LENSLENGTH
 40
50.0
  9
$CAMERAHEIGHT
 40
0.0
  9
$STEPSPERSEC
 40
2.0
  9
$STEPSIZE
 40
6.0
  9
$3DDWFPREC
 40
2.0
  9
$PSOLWIDTH
 40
0.25
  9
$PSOLHEIGHT
 40
4.0
  9
$LOFTANG1
 40
1.570796326794896
  9
$LOFTANG2
 40
1.570796326794896
  9
$LOFTMAG1
 40
0.0
  9
$LOFTMAG2
 40
0.0
  9
$LOFTPARAM
 70
     7
  9
$LOFTNORMALS
280
     1
  9
$LATITUDE
 40
37.795
  9
$LONGITUDE
 40
-122.394
  9
$NORTHDIRECTION
 40
0.0
  9
$TIMEZONE
 70
 -8000
  9
$LIGHTGLYPHDISPLAY
280
     1
  9
$TILEMODELIGHTSYNCH
280
     1
  9
$CMATERIAL
347
11
  9
$SOLIDHIST
280
     0
  9
$SHOWHIST
280
     1
  9
$DWFFRAME
280
     2
  9
$DGNFRAME
280
     0
  9
$REALWORLDSCALE
290
     1
  9
$INTERFERECOLOR
 62
     1
  9
$INTERFEREOBJVS
345
33
  9
$INTERFEREVPVS
346
30
  9
$CSHADOW
280
     0
  9
$SHADOWPLANELOCATION
 40
0.0
  0
ENDSEC
  0
SECTION
  2
CLASSES
  0
CLASS
  1
ACDBDICTIONARYWDFLT
  2
AcDbDictionaryWithDefault
  3
ObjectDBX Classes
 90
        0
 91
        1
280
     0
281
     0
  0
CLASS
  1
MATERIAL
  2
AcDbMaterial
  3
ObjectDBX Classes
 90
     1153
 91
        3
280
     0
281
     0
  0
CLASS
  1
VISUALSTYLE
  2
AcDbVisualStyle
  3
ObjectDBX Classes
 90
     4095
 91
       24
280
     0
281
     0
  0
CLASS
  1
SCALE
  2
AcDbScale
  3
ObjectDBX Classes
 90
     1153
 91
       17
280
     0
281
     0
  0
CLASS
  1
TABLESTYLE
  2
AcDbTableStyle
  3
ObjectDBX Classes
 90
     4095
 91
        1
280
     0
281
     0
  0
CLASS
  1
MLEADERSTYLE
  2
AcDbMLeaderStyle
  3
ACDB_MLEADERSTYLE_CLASS
 90
     4095
 91
        1
280
     0
281
     0
  0
CLASS
  1
ACDBSECTIONVIEWSTYLE
  2
AcDbSectionViewStyle
  3
ObjectDBX Classes
 90
     1025
 91
        1
280
     0
281
     0
  0
CLASS
  1
ACDBDETAILVIEWSTYLE
  2
AcDbDetailViewStyle
  3
ObjectDBX Classes
 90
     1025
 91
        1
280
     0
281
     0
  0
CLASS
  1
RASTERVARIABLES
  2
AcDbRasterVariables
  3
ISM
 90
        0
 91
        1
280
     0
281
     0
  0
CLASS
  1
DICTIONARYVAR
  2
AcDbDictionaryVar
  3
ObjectDBX Classes
 90
        0
 91
        5
280
     0
281
     0
  0
CLASS
  1
CELLSTYLEMAP
  2
AcDbCellStyleMap
  3
ObjectDBX Classes
 90
     1152
 91
        2
280
     0
281
     0
  0
CLASS
  1
SORTENTSTABLE
  2
AcDbSortentsTable
  3
ObjectDBX Classes
 90
        0
 91
        1
280
     0
281
     0
  0
ENDSEC
  0
SECTION
  2
TABLES
  0
TABLE
  2
VPORT
  5
8
330
0
100
AcDbSymbolTable
 70
     1
  0
VPORT
  5
57
330
8
100
AcDbSymbolTableRecord
100
AcDbViewportTableRecord
  2
*Active
 70
     0
 10
0.0
 20
0.0
 11
1.0
 21
1.0
 12
1028.890380693123
 22
1922.372939365048
 13
0.0
 23
0.0
 14
1.0
 24
1.0
 15
0.0
 25
0.0
 16
0.0
 26
0.0
 36
1.0
 17
0.0
 27
0.0
 37
0.0
 40
556.2541212699909
 41
1.22326814396702
 42
50.0
 43
0.0
 44
0.0
 50
0.0
 51
0.0
 71
     0
 72
  1000
 73
     1
 74
     1
 75
     0
 76
     0
 77
     0
 78
     0
281
     0
 65
     1
110
0.0
120
0.0
130
0.0
111
1.0
121
0.0
131
0.0
112
0.0
122
1.0
132
0.0
 79
     0
146
0.0
 60
     3
 61
     5
292
     1
282
     1
141
0.0
142
0.0
 63
   250
421
  3355443
  0
ENDTAB
  0
TABLE
  2
LTYPE
  5
5
330
0
100
AcDbSymbolTable
 70
     3
  0
LTYPE
  5
5B
330
5
100
AcDbSymbolTableRecord
100
AcDbLinetypeTableRecord
  2
ByBlock
 70
     0
  3

 72
    65
 73
     0
 40
0.0
  0
LTYPE
  5
5C
330
5
100
AcDbSymbolTableRecord
100
AcDbLinetypeTableRecord
  2
ByLayer
 70
     0
  3

 72
    65
 73
     0
 40
0.0
  0
LTYPE
  5
5D
330
5
100
AcDbSymbolTableRecord
100
AcDbLinetypeTableRecord
  2
Continuous
 70
     0
  3
Solid line
 72
    65
 73
     0
 40
0.0
  0
LTYPE
  5
69
330
5
100
AcDbSymbolTableRecord
100
AcDbLinetypeTableRecord
  2
PHANTOM2
 70
     0
  3
___ _ _ ___ _ _ ___ _ _ ___ _ _
 72
    65
 73
     6
 40
1.25
 49
0.625
 74
     0
 49
-0.125
 74
     0
 49
0.125
 74
     0
 49
-0.125
 74
     0
 49
0.125
 74
     0
 49
-0.125
 74
     0
  0
LTYPE
  5
86
330
5
100
AcDbSymbolTableRecord
100
AcDbLinetypeTableRecord
  2
Nascosto 1_5 mm
 70
     0
  3

 72
    65
 73
     2
 40
2.2
 49
1.5
 74
     0
 49
-0.7000000000000001
 74
     0
  0
ENDTAB
  0
TABLE
  2
LAYER
  5
2
330
0
100
AcDbSymbolTable
 70
     3
  0
LAYER
  5
54
330
2
100
AcDbSymbolTableRecord
100
AcDbLayerTableRecord
  2
0
 70
     0
 62
     7
  6
Continuous
370
    -3
390
F
347
21
348
0
  0
LAYER
  5
85
330
2
100
AcDbSymbolTableRecord
100
AcDbLayerTableRecord
  2
P-SANR-FIXT
 70
     0
 62
     6
  6
Continuous
370
    18
390
F
347
21
348
0
  0
ENDTAB
  0
TABLE
  2
STYLE
  5
3
330
0
100
AcDbSymbolTable
 70
     2
  0
STYLE
  5
55
330
3
100
AcDbSymbolTableRecord
100
AcDbTextStyleTableRecord
  2
Standard
 70
     0
 40
0.0
 41
1.0
 50
0.0
 71
     0
 42
0.2
  3
txt
  4

  0
STYLE
  5
5A
330
3
100
AcDbSymbolTableRecord
100
AcDbTextStyleTableRecord
  2
Annotative
 70
     0
 40
0.0
 41
1.0
 50
0.0
 71
     0
 42
0.2
  3
txt
  4

1001
AcadAnnotative
1000
AnnotativeData
1002
{
1070
     1
1070
     1
1002
}
  0
ENDTAB
  0
TABLE
  2
VIEW
  5
6
330
0
100
AcDbSymbolTable
 70
     0
  0
ENDTAB
  0
TABLE
  2
UCS
  5
7
330
0
100
AcDbSymbolTable
 70
     0
  0
ENDTAB
  0
TABLE
  2
APPID
  5
9
330
0
100
AcDbSymbolTable
 70
     3
  0
APPID
  5
56
330
9
100
AcDbSymbolTableRecord
100
AcDbRegAppTableRecord
  2
ACAD
 70
     0
  0
APPID
  5
5E
330
9
100
AcDbSymbolTableRecord
100
AcDbRegAppTableRecord
  2
AcadAnnotative
 70
     0
  0
APPID
  5
79
330
9
100
AcDbSymbolTableRecord
100
AcDbRegAppTableRecord
  2
REVIT
 70
     0
  0
ENDTAB
  0
TABLE
  2
DIMSTYLE
  5
A
330
0
100
AcDbSymbolTable
 70
     2
100
AcDbDimStyleTable
 71
     0
  0
DIMSTYLE
105
58
330
A
100
AcDbSymbolTableRecord
100
AcDbDimStyleTableRecord
  2
Standard
 70
     0
340
55
  0
DIMSTYLE
105
59
330
A
100
AcDbSymbolTableRecord
100
AcDbDimStyleTableRecord
  2
Annotative
 70
     0
340
55
1001
AcadAnnotative
1000
AnnotativeData
1002
{
1070
     1
1070
     1
1002
}
  0
ENDTAB
  0
TABLE
  2
BLOCK_RECORD
  5
1
330
0
100
AcDbSymbolTable
 70
     4
  0
BLOCK_RECORD
  5
71
102
{ACAD_XDICTIONARY
360
319
102
}
330
1
100
AcDbSymbolTableRecord
100
AcDbBlockTableRecord
  2
*Model_Space
340
74
 70
     0
280
     1
281
     0
  0
BLOCK_RECORD
  5
6D
330
1
100
AcDbSymbolTableRecord
100
AcDbBlockTableRecord
  2
*Paper_Space
340
70
 70
     0
280
     1
281
     0
  0
BLOCK_RECORD
  5
75
330
1
100
AcDbSymbolTableRecord
100
AcDbBlockTableRecord
  2
*Paper_Space0
340
78
 70
     0
280
     1
281
     0
  0
BLOCK_RECORD
  5
87
330
1
100
AcDbSymbolTableRecord
100
AcDbBlockTableRecord
  2
Automatic flow rate regulator valve_Caleffi_121 DN15 - 1 1_2__-928896-Est - Idraulica
340
0
102
{BLKREFS
331
1B0
102
}
 70
     0
280
     1
281
     0
  0
BLOCK_RECORD
  5
1B1
330
1
100
AcDbSymbolTableRecord
100
AcDbBlockTableRecord
  2
Automatic flow rate regulator valve_Caleffi_121 DN15 - 1 1_2__-V1-Est - Idraulica
340
0
102
{BLKREFS
331
25E
102
}
 70
     0
280
     1
281
     0
  0
BLOCK_RECORD
  5
25F
330
1
100
AcDbSymbolTableRecord
100
AcDbBlockTableRecord
  2
Automatic flow rate regulator valve_Caleffi_121 DN15 - 1 1_2__-V2-Est - Idraulica
340
0
102
{BLKREFS
331
313
102
}
 70
     0
280
     1
281
     0
  0
ENDTAB
  0
ENDSEC
  0
SECTION
  2
BLOCKS
  0
BLOCK
  5
72
330
71
100
AcDbEntity
  8
0
100
AcDbBlockBegin
  2
*Model_Space
 70
     0
 10
0.0
 20
0.0
 30
0.0
  3
*Model_Space
  1

  0
ENDBLK
  5
73
330
71
100
AcDbEntity
  8
0
100
AcDbBlockEnd
  0
BLOCK
  5
6E
330
6D
100
AcDbEntity
 67
     1
  8
0
100
AcDbBlockBegin
  2
*Paper_Space
 70
     0
 10
0.0
 20
0.0
 30
0.0
  3
*Paper_Space
  1

  0
ENDBLK
  5
6F
330
6D
100
AcDbEntity
 67
     1
  8
0
100
AcDbBlockEnd
  0
BLOCK
  5
76
330
75
100
AcDbEntity
 67
     1
  8
0
100
AcDbBlockBegin
  2
*Paper_Space0
 70
     0
 10
0.0
 20
0.0
 30
0.0
  3
*Paper_Space0
  1

  0
ENDBLK
  5
77
330
75
100
AcDbEntity
 67
     1
  8
0
100
AcDbBlockEnd
  0
BLOCK
  5
1AE
330
87
100
AcDbEntity
  8
0
100
AcDbBlockBegin
  2
Automatic flow rate regulator valve_Caleffi_121 DN15 - 1 1_2__-928896-Est - Idraulica
 70
     0
 10
0.0
 20
0.0
 30
0.0
  3
Automatic flow rate regulator valve_Caleffi_121 DN15 - 1 1_2__-928896-Est - Idraulica
  1

  0
LINE
  5
88
330
87
100
AcDbEntity
  8
P-SANR-FIXT
100
AcDbLine
 10
793.6664074431868
 20
1910.999999999996
 30
0.0
 11
793.6664074431868
 21
1904.154700538336
 31
0.0
  0
LINE
  5
89
330
87
100
AcDbEntity
  8
P-SANR-FIXT
100
AcDbLine
 10
837.666407443188
 20
1904.154700538336
 30
0.0
 11
837.666407443188
 21
1910.999999999996
 31
0.0
  0
LINE
  5
8A
330
87
100
AcDbEntity
  8
P-SANR-FIXT
100
AcDbLine
 10
835.6664074431863
 20
1902.999999999956
 30
0.0
 11
837.5694912138282
 21
1904.098745927227
 31
0.0
  0
LINE
  5
8B
330
87
100
AcDbEntity
  8
P-SANR-FIXT
100
AcDbLine
 10
837.6198901195305
 20
1904.127843749001
 30
0.0
 11
837.6664074431879
 21
1904.154700538336
 31
0.0
  0
LINE
  5
8C
330
87
100
AcDbEntity
  8
P-SANR-FIXT
100
AcDbLine
 10
793.6664074431866
 20
1904.154700538335
 30
0.0
 11
793.7129247668447
 21
1904.127843748999
 31
0.0
  0
LINE
  5
8D
330
87
100
AcDbEntity
  8
P-SANR-FIXT
100
AcDbLine
 10
793.7633236725464
 20
1904.098745927226
 30
0.0
 11
795.6664074431865
 21
1902.999999999956
 31
0.0
  0
LINE
  5
8E
330
87
100
AcDbEntity
  8
P-SANR-FIXT
100
AcDbLine
 10
797.7384680442457
 20
1902.999999999956
 30
0.0
 11
798.3458993674966
 21
1902.999999999956
 31
0.0
  0
LINE
  5
8F
330
87
100
AcDbEntity
  8
P-SANR-FIXT
100
AcDbLine
 10
798.3458993674965
 20
1902.999999999956
 30
0.0
 11
798.9253500957403
 21
1902.999999999956
 31
0.0
  0
LINE
  5
90
330
87
100
AcDbEntity
  8
P-SANR-FIXT
100
AcDbLine
 10
814.4769684946282
 20
1902.999999999956
 30
0.0
 11
815.6664074431853
 21
1902.999999999956
 31
0.0
  0
LINE
  5
91
330
87
100
AcDbEntity
  8
P-SANR-FIXT
100
AcDbLine
 10
815.6664074431853
 20
1902.999999999956
 30
0.0
 11
816.8558463917452
 21
1902.999999999956
 31
0.0
  0
LINE
  5
92
330
87
100
AcDbEntity
  8
P-SANR-FIXT
100
AcDbLine
 10
832.4074647906734
 20
1902.999999999956
 30
0.0
 11
832.9869155188738
 21
1902.999999999956
 31
0.0
  0
LINE
  5
93
330
87
100
AcDbEntity
  8
P-SANR-FIXT
100
AcDbLine
 10
832.9869155188738
 20
1902.999999999956
 30
0.0
 11
833.5943468420889
 21
1902.999999999956
 31
0.0
  0
LINE
  5
94
330
87
100
AcDbEntity
  8
P-SANR-FIXT
100
AcDbLine
 10
835.6664074431849
 20
1902.999999999956
 30
0.0
 11
832.9869155188736
 21
1902.999999999956
 31
0.0
  0
LINE
  5
95
330
87
100
AcDbEntity
  8
P-SANR-FIXT
100
AcDbLine
 10
832.9869155188736
 20
1902.999999999956
 30
0.0
 11
815.6664074431851
 21
1902.999999999956
 31
0.0
  0
LINE
  5
96
330
87
100
AcDbEntity
  8
P-SANR-FIXT
100
AcDbLine
 10
815.6664074431851
 20
1902.999999999956
 30
0.0
 11
798.3458993674965
 21
1902.999999999956
 31
0.0
  0
LINE
  5
97
330
87
100
AcDbEntity
  8
P-SANR-FIXT
100
AcDbLine
 10
798.3458993674965
 20
1902.999999999956
 30
0.0
 11
795.6664074431853
 21
1902.999999999956
 31
0.0
  0
LINE
  5
98
330
87
100
AcDbEntity
  8
P-SANR-FIXT
100
AcDbLine
 10
793.7633236725452
 20
1910.999999999995
 30
0.0
 11
793.7768420712607
 21
1910.999999999995
 31
0.0
  0
LINE
  5
99
330
87
100
AcDbEntity
  8
P-SANR-FIXT
100
AcDbLine
 10
802.9284750624146
 20
1910.999999999995
 30
0.0
 11
804.1608835480362
 21
1910.999999999995
 31
0.0
  0
LINE
  5
9A
330
87
100
AcDbEntity
  8
P-SANR-FIXT
100
AcDbLine
 10
805.6676471257915
 20
1910.999999999995
 30
0.0
 11
806.5012560533157
 21
1910.999999999995
 31
0.0
  0
LINE
  5
9B
330
87
100
AcDbEntity
  8
P-SANR-FIXT
100
AcDbLine
 10
824.8315588330555
 20
1910.999999999995
 30
0.0
 11
824.991939570113
 21
1910.999999999995
 31
0.0
  0
LINE
  5
9C
330
87
100
AcDbEntity
  8
P-SANR-FIXT
100
AcDbLine
 10
825.6651677605779
 20
1910.999999999995
 30
0.0
 11
826.666407443186
 21
1910.999999999995
 31
0.0
  0
LINE
  5
9D
330
87
100
AcDbEntity
  8
P-SANR-FIXT
100
AcDbLine
 10
827.1719313383334
 20
1910.999999999995
 30
0.0
 11
828.4043398239566
 21
1910.999999999995
 31
0.0
  0
LINE
  5
9E
330
87
100
AcDbEntity
  8
P-SANR-FIXT
100
AcDbLine
 10
837.5559728151088
 20
1910.999999999995
 30
0.0
 11
837.5694912138269
 21
1910.999999999995
 31
0.0
  0
LINE
  5
9F
330
87
100
AcDbEntity
  8
P-SANR-FIXT
100
AcDbLine
 10
793.6664074431855
 20
1904.154700538335
 30
0.0
 11
793.7633236725452
 21
1904.154700538335
 31
0.0
  0
LINE
  5
A0
330
87
100
AcDbEntity
  8
P-SANR-FIXT
100
AcDbLine
 10
793.7633236725452
 20
1904.154700538335
 30
0.0
 11
793.7633236725452
 21
1910.999999999995
 31
0.0
  0
SPLINE
  5
A1
330
87
100
AcDbEntity
  8
P-SANR-FIXT
100
AcDbSpline
210
0.0
220
0.0
230
1.0
 70
     8
 71
     3
 72
     9
 73
     5
 74
     0
 42
0.000000001
 43
0.0000000001
 40
0.0
 40
0.0
 40
0.0
 40
0.0
 40
0.5
 40
1.0
 40
1.0
 40
1.0
 40
1.0
 10
793.7633236725452
 20
1904.154700538335
 30
0.0
 10
794.5159514068184
 20
1903.779719615322
 30
0.0
 10
796.032341756914
 20
1903.212288602579
 30
0.0
 10
797.5710018701081
 20
1903.009919256402
 30
0.0
 10
798.3458993674795
 20
1902.999999999956
 30
0.0
  0
SPLINE
  5
A2
330
87
100
AcDbEntity
  8
P-SANR-FIXT
100
AcDbSpline
210
0.0
220
0.0
230
1.0
 70
     8
 71
     3
 72
     9
 73
     5
 74
     0
 42
0.000000001
 43
0.0000000001
 40
0.0
 40
0.0
 40
0.0
 40
0.0
 40
0.5
 40
1.0
 40
1.0
 40
1.0
 40
1.0
 10
798.3458993674795
 20
1902.999999999956
 30
0.0
 10
799.1207968648512
 20
1903.009919256402
 30
0.0
 10
800.6594569780453
 20
1903.212288602579
 30
0.0
 10
802.1758473281414
 20
1903.779719615322
 30
0.0
 10
802.9284750624148
 20
1904.154700538335
 30
0.0
  0
LINE
  5
A3
330
87
100
AcDbEntity
  8
P-SANR-FIXT
100
AcDbLine
 10
802.9284750624146
 20
1904.154700538335
 30
0.0
 11
802.9284750624146
 21
1910.999999999995
 31
0.0
  0
LINE
  5
A4
330
87
100
AcDbEntity
  8
P-SANR-FIXT
100
AcDbLine
 10
802.9284750624144
 20
1904.154700538335
 30
0.0
 11
806.5012560533155
 21
1904.154700538335
 31
0.0
  0
LINE
  5
A5
330
87
100
AcDbEntity
  8
P-SANR-FIXT
100
AcDbLine
 10
806.5012560533158
 20
1904.154700538335
 30
0.0
 11
806.5012560533158
 21
1910.999999999995
 31
0.0
  0
SPLINE
  5
A6
330
87
100
AcDbEntity
  8
P-SANR-FIXT
100
AcDbSpline
210
0.0
220
0.0
230
1.0
 70
     8
 71
     3
 72
     9
 73
     5
 74
     0
 42
0.000000001
 43
0.0000000001
 40
0.0
 40
0.0
 40
0.0
 40
0.0
 40
0.5
 40
1.0
 40
1.0
 40
1.0
 40
1.0
 10
806.5012560533158
 20
1904.154700538335
 30
0.0
 10
808.0065115218625
 20
1903.779719615323
 30
0.0
 10
811.0392922220539
 20
1903.21228860258
 30
0.0
 10
814.1166124484419
 20
1903.009919256403
 30
0.0
 10
815.6664074431848
 20
1902.999999999956
 30
0.0
  0
SPLINE
  5
A7
330
87
100
AcDbEntity
  8
P-SANR-FIXT
100
AcDbSpline
210
0.0
220
0.0
230
1.0
 70
     8
 71
     3
 72
     9
 73
     5
 74
     0
 42
0.000000001
 43
0.0000000001
 40
0.0
 40
0.0
 40
0.0
 40
0.0
 40
0.5
 40
1.0
 40
1.0
 40
1.0
 40
1.0
 10
815.6664074431848
 20
1902.999999999956
 30
0.0
 10
817.216202437928
 20
1903.009919256403
 30
0.0
 10
820.2935226643168
 20
1903.21228860258
 30
0.0
 10
823.3263033645087
 20
1903.779719615323
 30
0.0
 10
824.8315588330555
 20
1904.154700538336
 30
0.0
  0
LINE
  5
A8
330
87
100
AcDbEntity
  8
P-SANR-FIXT
100
AcDbLine
 10
824.8315588330555
 20
1904.154700538336
 30
0.0
 11
824.8315588330555
 21
1910.999999999995
 31
0.0
  0
LINE
  5
A9
330
87
100
AcDbEntity
  8
P-SANR-FIXT
100
AcDbLine
 10
824.8315588330553
 20
1904.154700538335
 30
0.0
 11
828.4043398239564
 21
1904.154700538335
 31
0.0
  0
LINE
  5
AA
330
87
100
AcDbEntity
  8
P-SANR-FIXT
100
AcDbLine
 10
828.4043398239568
 20
1904.154700538336
 30
0.0
 11
828.4043398239568
 21
1910.999999999995
 31
0.0
  0
SPLINE
  5
AB
330
87
100
AcDbEntity
  8
P-SANR-FIXT
100
AcDbSpline
210
0.0
220
0.0
230
1.0
 70
     8
 71
     3
 72
     9
 73
     5
 74
     0
 42
0.000000001
 43
0.0000000001
 40
0.0
 40
0.0
 40
0.0
 40
0.0
 40
0.5
 40
1.0
 40
1.0
 40
1.0
 40
1.0
 10
828.4043398239568
 20
1904.154700538336
 30
0.0
 10
829.1569675582302
 20
1903.779719615323
 30
0.0
 10
830.673357908326
 20
1903.21228860258
 30
0.0
 10
832.2120180215204
 20
1903.009919256403
 30
0.0
 10
832.9869155188919
 20
1902.999999999956
 30
0.0
  0
SPLINE
  5
AC
330
87
100
AcDbEntity
  8
P-SANR-FIXT
100
AcDbSpline
210
0.0
220
0.0
230
1.0
 70
     8
 71
     3
 72
     9
 73
     5
 74
     0
 42
0.000000001
 43
0.0000000001
 40
0.0
 40
0.0
 40
0.0
 40
0.0
 40
0.5
 40
1.0
 40
1.0
 40
1.0
 40
1.0
 10
832.9869155188919
 20
1902.999999999956
 30
0.0
 10
833.7618130162635
 20
1903.009919256403
 30
0.0
 10
835.3004731294577
 20
1903.21228860258
 30
0.0
 10
836.8168634795534
 20
1903.779719615323
 30
0.0
 10
837.5694912138269
 20
1904.154700538336
 30
0.0
  0
LINE
  5
AD
330
87
100
AcDbEntity
  8
P-SANR-FIXT
100
AcDbLine
 10
837.5694912138269
 20
1904.154700538336
 30
0.0
 11
837.5694912138269
 21
1910.999999999995
 31
0.0
  0
LINE
  5
AE
330
87
100
AcDbEntity
  8
P-SANR-FIXT
100
AcDbLine
 10
837.5694912138269
 20
1904.154700538335
 30
0.0
 11
837.6664074431866
 21
1904.154700538335
 31
0.0
  0
LINE
  5
AF
330
87
100
AcDbEntity
  8
P-SANR-FIXT
100
AcDbLine
 10
786.1664074431776
 20
2195.499999999993
 30
0.0
 11
783.9836999772267
 21
2070.452773024511
 31
0.0
  0
LINE
  5
B0
330
87
100
AcDbEntity
  8
P-SANR-FIXT
100
AcDbLine
 10
847.3491149091463
 20
2070.452773024511
 30
0.0
 11
845.1664074431954
 21
2195.499999999993
 31
0.0
  0
LWPOLYLINE
  5
B1
330
87
100
AcDbEntity
  8
P-SANR-FIXT
100
AcDbPolyline
 90
       27
 70
   128
 43
0.0
 10
847.3491149091463
 20
2070.452773024511
 10
847.3566033172701
 20
2070.252926606742
 10
847.3720774606524
 20
2070.053539501247
 10
847.3955125839646
 20
2069.854930684861
 10
847.4268711960085
 20
2069.657417889321
 10
847.4661031296946
 20
2069.461317092968
 10
847.513145622298
 20
2069.266942015242
 10
847.5679234158654
 20
2069.074603614805
 10
847.6303488776128
 20
2068.884609592065
 10
847.7003221401179
 20
2068.697263896931
 10
847.7777312610877
 20
2068.512866242548
 10
847.8624524024413
 20
2068.331711625829
 10
847.9543500284259
 20
2068.154089855514
 10
848.0532771224435
 20
2067.980285088548
 10
848.1590754222469
 20
2067.810575375479
 10
848.2715756731259
 20
2067.645232215647
 10
848.3905978986774
 20
2067.484520122835
 10
848.5159516887307
 20
2067.32869620211
 10
848.6474365039626
 20
2067.178009738502
 10
848.7848419967171
 20
2067.03270179821
 10
848.9279483475176
 20
2066.89300484294
 10
849.0765266167306
 20
2066.759142358021
 10
849.2303391108201
 20
2066.631328494871
 10
849.3891397626072
 20
2066.509767728408
 10
849.5526745249247
 20
2066.394654529926
 10
849.7206817770386
 20
2066.286173055986
 10
849.8483533849283
 20
2066.209908037775
  0
LWPOLYLINE
  5
B2
330
87
100
AcDbEntity
  8
P-SANR-FIXT
100
AcDbPolyline
 90
       27
 70
   128
 43
0.0
 10
781.4844615014447
 20
2066.209908037775
 10
781.6556206645274
 20
2066.313345013001
 10
781.8225065427659
 20
2066.423543790651
 10
781.9848521543559
 20
2066.540328076189
 10
782.1423977809504
 20
2066.663511039671
 10
782.2948913831546
 20
2066.792895614632
 10
782.4420890037356
 20
2066.928274813353
 10
782.5837551579009
 20
2067.069432057996
 10
782.719663210024
 20
2067.21614152708
 10
782.849595736214
 20
2067.368168516753
 10
782.9733448721465
 20
2067.525269816261
 10
783.0907126456021
 20
2067.687194097038
 10
783.2015112931808
 20
2067.853682314777
 10
783.3055635606817
 20
2068.024468123845
 10
783.402702986674
 20
2068.19927830338
 10
783.4927741687978
 20
2068.377833194386
 10
783.5756330123758
 20
2068.559847147125
 10
783.6511469609342
 20
2068.745028978103
 10
783.7191952082638
 20
2068.933082435892
 10
783.7796688916849
 20
2069.123706675076
 10
783.8324712662051
 20
2069.316596737537
 10
783.8775178592884
 20
2069.511444040323
 10
783.9147366059955
 20
2069.707936869312
 10
783.944067964271
 20
2069.905760877898
 10
783.9654650101992
 20
2070.104599589865
 10
783.9788935130707
 20
2070.304134905691
 10
783.9836999772267
 20
2070.452773024511
  0
LINE
  5
B3
330
87
100
AcDbEntity
  8
P-SANR-FIXT
100
AcDbLine
 10
781.4844615014447
 20
2066.209908037775
 30
0.0
 11
764.6664074431829
 21
2056.499999999992
 31
0.0
  0
LINE
  5
B4
330
87
100
AcDbEntity
  8
P-SANR-FIXT
100
AcDbLine
 10
866.6664074431901
 20
2056.499999999992
 30
0.0
 11
849.8483533849283
 21
2066.209908037775
 31
0.0
  0
LINE
  5
B5
330
87
100
AcDbEntity
  8
P-SANR-FIXT
100
AcDbLine
 10
760.9164074431681
 20
2056.499999999992
 30
0.0
 11
760.9164074431681
 21
2036.999999999994
 31
0.0
  0
LINE
  5
B6
330
87
100
AcDbEntity
  8
P-SANR-FIXT
100
AcDbLine
 10
870.4164074431682
 20
2036.999999999994
 30
0.0
 11
870.4164074431682
 21
2056.499999999992
 31
0.0
  0
LINE
  5
B7
330
87
100
AcDbEntity
  8
P-SANR-FIXT
100
AcDbLine
 10
786.1664074431761
 20
2195.499999999992
 30
0.0
 11
845.166407443194
 21
2195.499999999992
 31
0.0
  0
LINE
  5
B8
330
87
100
AcDbEntity
  8
P-SANR-FIXT
100
AcDbLine
 10
759.4235445474006
 20
2056.49999999999
 30
0.0
 11
760.9164074431669
 21
2056.49999999999
 31
0.0
  0
LINE
  5
B9
330
87
100
AcDbEntity
  8
P-SANR-FIXT
100
AcDbLine
 10
760.9164074431669
 20
2056.49999999999
 30
0.0
 11
783.302219244792
 21
2056.49999999999
 31
0.0
  0
LINE
  5
BA
330
87
100
AcDbEntity
  8
P-SANR-FIXT
100
AcDbLine
 10
783.302219244792
 20
2056.49999999999
 30
0.0
 11
789.041379898091
 21
2056.49999999999
 31
0.0
  0
LINE
  5
BB
330
87
100
AcDbEntity
  8
P-SANR-FIXT
100
AcDbLine
 10
789.041379898091
 20
2056.49999999999
 30
0.0
 11
842.1456138577482
 21
2056.49999999999
 31
0.0
  0
LINE
  5
BC
330
87
100
AcDbEntity
  8
P-SANR-FIXT
100
AcDbLine
 10
842.1456138577486
 20
2056.49999999999
 30
0.0
 11
848.6303417945014
 21
2056.49999999999
 31
0.0
  0
LINE
  5
BD
330
87
100
AcDbEntity
  8
P-SANR-FIXT
100
AcDbLine
 10
848.6303417945014
 20
2056.49999999999
 30
0.0
 11
870.416407443167
 21
2056.49999999999
 31
0.0
  0
LINE
  5
BE
330
87
100
AcDbEntity
  8
P-SANR-FIXT
100
AcDbLine
 10
870.416407443167
 20
2056.49999999999
 30
0.0
 11
871.9092703389447
 21
2056.49999999999
 31
0.0
  0
LINE
  5
BF
330
87
100
AcDbEntity
  8
P-SANR-FIXT
100
AcDbLine
 10
871.9092703389447
 20
2036.999999999993
 30
0.0
 11
870.416407443167
 21
2036.999999999993
 31
0.0
  0
LINE
  5
C0
330
87
100
AcDbEntity
  8
P-SANR-FIXT
100
AcDbLine
 10
870.416407443167
 20
2036.999999999993
 30
0.0
 11
848.6303417945014
 21
2036.999999999993
 31
0.0
  0
LINE
  5
C1
330
87
100
AcDbEntity
  8
P-SANR-FIXT
100
AcDbLine
 10
848.6303417945014
 20
2036.999999999993
 30
0.0
 11
842.1456138577488
 21
2036.999999999993
 31
0.0
  0
LINE
  5
C2
330
87
100
AcDbEntity
  8
P-SANR-FIXT
100
AcDbLine
 10
842.1456138577488
 20
2036.999999999993
 30
0.0
 11
789.0413798980912
 21
2036.999999999993
 31
0.0
  0
LINE
  5
C3
330
87
100
AcDbEntity
  8
P-SANR-FIXT
100
AcDbLine
 10
789.041379898091
 20
2036.999999999993
 30
0.0
 11
783.302219244792
 21
2036.999999999993
 31
0.0
  0
LINE
  5
C4
330
87
100
AcDbEntity
  8
P-SANR-FIXT
100
AcDbLine
 10
783.302219244792
 20
2036.999999999993
 30
0.0
 11
760.9164074431669
 21
2036.999999999993
 31
0.0
  0
LINE
  5
C5
330
87
100
AcDbEntity
  8
P-SANR-FIXT
100
AcDbLine
 10
760.9164074431669
 20
2036.999999999993
 30
0.0
 11
759.4235445474006
 21
2036.999999999993
 31
0.0
  0
LINE
  5
C6
330
87
100
AcDbEntity
  8
P-SANR-FIXT
100
AcDbLine
 10
759.4235445474006
 20
2056.49999999999
 30
0.0
 11
759.4235445474006
 21
2036.999999999993
 31
0.0
  0
LINE
  5
C7
330
87
100
AcDbEntity
  8
P-SANR-FIXT
100
AcDbLine
 10
783.302219244792
 20
2036.999999999993
 30
0.0
 11
783.302219244792
 21
2056.49999999999
 31
0.0
  0
LINE
  5
C8
330
87
100
AcDbEntity
  8
P-SANR-FIXT
100
AcDbLine
 10
870.416407443167
 20
2036.999999999993
 30
0.0
 11
870.416407443167
 21
2056.49999999999
 31
0.0
  0
LINE
  5
C9
330
87
100
AcDbEntity
  8
P-SANR-FIXT
100
AcDbLine
 10
871.9092703389447
 20
2036.999999999993
 30
0.0
 11
871.9092703389447
 21
2056.49999999999
 31
0.0
  0
LINE
  5
CA
330
87
100
AcDbEntity
  8
P-SANR-FIXT
100
AcDbLine
 10
786.7933070589624
 20
2200.500000000044
 30
0.0
 11
786.1664074431845
 21
2199.873100384265
 31
0.0
  0
LINE
  5
CB
330
87
100
AcDbEntity
  8
P-SANR-FIXT
100
AcDbLine
 10
845.1664074431885
 20
2199.873100384265
 30
0.0
 11
844.5395078274106
 21
2200.500000000044
 31
0.0
  0
LINE
  5
CC
330
87
100
AcDbEntity
  8
P-SANR-FIXT
100
AcDbLine
 10
786.1664074431845
 20
2199.873100384265
 30
0.0
 11
786.1664074431845
 21
2195.999999999997
 31
0.0
  0
LINE
  5
CD
330
87
100
AcDbEntity
  8
P-SANR-FIXT
100
AcDbLine
 10
845.1664074431885
 20
2195.999999999997
 30
0.0
 11
845.1664074431885
 21
2199.873100384265
 31
0.0
  0
LINE
  5
CE
330
87
100
AcDbEntity
  8
P-SANR-FIXT
100
AcDbLine
 10
786.1664074431845
 20
2195.999999999997
 30
0.0
 11
786.8063782592849
 21
2195.499999999993
 31
0.0
  0
LINE
  5
CF
330
87
100
AcDbEntity
  8
P-SANR-FIXT
100
AcDbLine
 10
844.5264366270881
 20
2195.499999999993
 30
0.0
 11
845.1664074431885
 21
2195.999999999997
 31
0.0
  0
LINE
  5
D0
330
87
100
AcDbEntity
  8
P-SANR-FIXT
100
AcDbLine
 10
844.539507827409
 20
2200.500000000043
 30
0.0
 11
786.7933070589612
 21
2200.500000000043
 31
0.0
  0
LINE
  5
D1
330
87
100
AcDbEntity
  8
P-SANR-FIXT
100
AcDbLine
 10
786.166407443183
 20
2199.873100384265
 30
0.0
 11
845.1664074431871
 21
2199.873100384265
 31
0.0
  0
LINE
  5
D2
330
87
100
AcDbEntity
  8
P-SANR-FIXT
100
AcDbLine
 10
786.166407443183
 20
2195.999999999996
 30
0.0
 11
845.1664074431871
 21
2195.999999999996
 31
0.0
  0
ARC
  5
D3
330
87
100
AcDbEntity
  8
P-SANR-FIXT
100
AcDbCircle
 10
858.6664074431846
 20
1999.999999999995
 30
0.0
 40
8.549574516046845
100
AcDbArc
 50
180.0
 51
0.0
  0
ARC
  5
D4
330
87
100
AcDbEntity
  8
P-SANR-FIXT
100
AcDbCircle
 10
858.6664074431846
 20
1999.999999999995
 30
0.0
 40
8.549574516046845
100
AcDbArc
 50
0.0
 51
180.0
  0
ARC
  5
D5
330
87
100
AcDbEntity
  8
P-SANR-FIXT
100
AcDbCircle
 10
858.6664074431846
 20
1999.999999999995
 30
0.0
 40
9.499999999980218
100
AcDbArc
 50
180.0
 51
0.0
  0
ARC
  5
D6
330
87
100
AcDbEntity
  8
P-SANR-FIXT
100
AcDbCircle
 10
858.6664074431846
 20
1999.999999999995
 30
0.0
 40
9.499999999980218
100
AcDbArc
 50
0.0
 51
180.0
  0
ARC
  5
D7
330
87
100
AcDbEntity
  8
P-SANR-FIXT
100
AcDbCircle
 10
772.6664074431868
 20
1999.999999999995
 30
0.0
 40
8.549574516046959
100
AcDbArc
 50
180.0
 51
0.0
  0
ARC
  5
D8
330
87
100
AcDbEntity
  8
P-SANR-FIXT
100
AcDbCircle
 10
772.6664074431868
 20
1999.999999999995
 30
0.0
 40
8.549574516046732
100
AcDbArc
 50
0.0
 51
180.0
  0
ARC
  5
D9
330
87
100
AcDbEntity
  8
P-SANR-FIXT
100
AcDbCircle
 10
772.6664074431868
 20
1999.999999999995
 30
0.0
 40
9.499999999980332
100
AcDbArc
 50
180.0
 51
0.0
  0
ARC
  5
DA
330
87
100
AcDbEntity
  8
P-SANR-FIXT
100
AcDbCircle
 10
772.6664074431868
 20
1999.999999999995
 30
0.0
 40
9.499999999980218
100
AcDbArc
 50
0.0
 51
180.0
  0
LINE
  5
DB
330
87
100
AcDbEntity
  8
P-SANR-FIXT
100
AcDbLine
 10
727.3984582507384
 20
1964.000000000012
 30
0.0
 11
749.9343566356357
 21
1964.000000000013
 31
0.0
  0
LINE
  5
DC
330
87
100
AcDbEntity
  8
P-SANR-FIXT
100
AcDbLine
 10
749.9343566356336
 20
2035.999999999977
 30
0.0
 11
727.3984582507364
 21
2035.999999999976
 31
0.0
  0
LINE
  5
DD
330
87
100
AcDbEntity
  8
P-SANR-FIXT
100
AcDbLine
 10
749.9343566356363
 20
1964.000000000012
 30
0.0
 11
749.9657006313879
 21
1964.054289393166
 31
0.0
  0
LINE
  5
DE
330
87
100
AcDbEntity
  8
P-SANR-FIXT
100
AcDbLine
 10
749.9672070357625
 20
1964.05689856208
 30
0.0
 11
751.66640744319
 21
1966.999999999987
 31
0.0
  0
LINE
  5
DF
330
87
100
AcDbEntity
  8
P-SANR-FIXT
100
AcDbLine
 10
751.6664074431881
 20
2033.000000000001
 30
0.0
 11
749.9672070357592
 21
2035.94310143791
 31
0.0
  0
LINE
  5
E0
330
87
100
AcDbEntity
  8
P-SANR-FIXT
100
AcDbLine
 10
749.9657006313847
 20
2035.945710606823
 30
0.0
 11
749.9343566356299
 21
2035.999999999983
 31
0.0
  0
LINE
  5
E1
330
87
100
AcDbEntity
  8
P-SANR-FIXT
100
AcDbLine
 10
725.6664074431902
 20
1966.999999999975
 30
0.0
 11
727.3656078506117
 21
1964.056898562079
 31
0.0
  0
LINE
  5
E2
330
87
100
AcDbEntity
  8
P-SANR-FIXT
100
AcDbLine
 10
727.3671142549864
 20
1964.054289393166
 30
0.0
 11
727.3984582507416
 21
1964.000000000006
 31
0.0
  0
LINE
  5
E3
330
87
100
AcDbEntity
  8
P-SANR-FIXT
100
AcDbLine
 10
727.3984582507369
 20
2035.999999999976
 30
0.0
 11
727.3671142549856
 21
2035.945710606823
 31
0.0
  0
LINE
  5
E4
330
87
100
AcDbEntity
  8
P-SANR-FIXT
100
AcDbLine
 10
727.3656078506109
 20
2035.943101437909
 30
0.0
 11
725.6664074431884
 21
2033.000000000011
 31
0.0
  0
LINE
  5
E5
330
87
100
AcDbEntity
  8
P-SANR-FIXT
100
AcDbLine
 10
725.6664074431873
 20
2029.314052580712
 30
0.0
 11
725.6664074431873
 21
2028.578838324894
 31
0.0
  0
LINE
  5
E6
330
87
100
AcDbEntity
  8
P-SANR-FIXT
100
AcDbLine
 10
725.6664074431873
 20
2028.578838324894
 30
0.0
 11
725.6664074431873
 21
2027.839034394663
 31
0.0
  0
LINE
  5
E7
330
87
100
AcDbEntity
  8
P-SANR-FIXT
100
AcDbLine
 10
725.6664074431889
 20
1972.160965605149
 30
0.0
 11
725.6664074431889
 21
1971.42116167509
 31
0.0
  0
LINE
  5
E8
330
87
100
AcDbEntity
  8
P-SANR-FIXT
100
AcDbLine
 10
725.6664074431889
 20
1971.42116167509
 30
0.0
 11
725.6664074431889
 21
1970.685947419279
 31
0.0
  0
LINE
  5
E9
330
87
100
AcDbEntity
  8
P-SANR-FIXT
100
AcDbLine
 10
725.6664074431889
 20
1966.999999999974
 30
0.0
 11
725.6664074431886
 21
1971.42116167509
 31
0.0
  0
LINE
  5
EA
330
87
100
AcDbEntity
  8
P-SANR-FIXT
100
AcDbLine
 10
725.6664074431886
 20
1971.42116167509
 30
0.0
 11
725.6664074431878
 21
1999.999999999992
 31
0.0
  0
LINE
  5
EB
330
87
100
AcDbEntity
  8
P-SANR-FIXT
100
AcDbLine
 10
725.6664074431879
 20
1999.999999999992
 30
0.0
 11
725.6664074431872
 21
2028.578838324895
 31
0.0
  0
LINE
  5
EC
330
87
100
AcDbEntity
  8
P-SANR-FIXT
100
AcDbLine
 10
725.6664074431872
 20
2028.578838324895
 30
0.0
 11
725.6664074431872
 21
2033.000000000011
 31
0.0
  0
LINE
  5
ED
330
87
100
AcDbEntity
  8
P-SANR-FIXT
100
AcDbLine
 10
751.6664074431869
 20
2033.0
 30
0.0
 11
751.6664074431869
 21
2028.578838324886
 31
0.0
  0
LINE
  5
EE
330
87
100
AcDbEntity
  8
P-SANR-FIXT
100
AcDbLine
 10
751.6664074431869
 20
2028.578838324886
 30
0.0
 11
751.6664074431877
 21
1999.999999999993
 31
0.0
  0
LINE
  5
EF
330
87
100
AcDbEntity
  8
P-SANR-FIXT
100
AcDbLine
 10
751.6664074431877
 20
1999.999999999993
 30
0.0
 11
751.6664074431885
 21
1971.421161675101
 31
0.0
  0
LINE
  5
F0
330
87
100
AcDbEntity
  8
P-SANR-FIXT
100
AcDbLine
 10
751.6664074431885
 20
1971.421161675101
 30
0.0
 11
751.6664074431888
 21
1966.999999999986
 31
0.0
  0
LINE
  5
F1
330
87
100
AcDbEntity
  8
P-SANR-FIXT
100
AcDbLine
 10
727.398458250773
 20
2014.387494569948
 30
0.0
 11
749.9343566355954
 21
2014.387494569948
 31
0.0
  0
LINE
  5
F2
330
87
100
AcDbEntity
  8
P-SANR-FIXT
100
AcDbLine
 10
749.9343566356328
 20
2014.387494569948
 30
0.0
 11
749.9343566356327
 21
2021.38509103992
 31
0.0
  0
LINE
  5
F3
330
87
100
AcDbEntity
  8
P-SANR-FIXT
100
AcDbLine
 10
727.3984582507353
 20
2021.38509103992
 30
0.0
 11
727.3984582507356
 21
2014.387494569948
 31
0.0
  0
SPLINE
  5
F4
330
87
100
AcDbEntity
  8
P-SANR-FIXT
100
AcDbSpline
210
0.0
220
0.0
230
1.0
 70
     8
 71
     3
 72
     9
 73
     5
 74
     0
 42
0.000000001
 43
0.0000000001
 40
0.0
 40
0.0
 40
0.0
 40
0.0
 40
0.5
 40
1.0
 40
1.0
 40
1.0
 40
1.0
 10
727.398458250773
 20
2014.387494569948
 30
0.0
 10
726.8346931681333
 20
2012.0217296971
 30
0.0
 10
725.9822529508958
 20
2007.258049062594
 30
0.0
 10
725.679992629743
 20
2002.430066650464
 30
0.0
 10
725.6664074431879
 20
1999.999999999993
 30
0.0
  0
SPLINE
  5
F5
330
87
100
AcDbEntity
  8
P-SANR-FIXT
100
AcDbSpline
210
0.0
220
0.0
230
1.0
 70
     8
 71
     3
 72
     9
 73
     5
 74
     0
 42
0.000000001
 43
0.0000000001
 40
0.0
 40
0.0
 40
0.0
 40
0.0
 40
0.5
 40
1.0
 40
1.0
 40
1.0
 40
1.0
 10
725.6664074431879
 20
1999.999999999993
 30
0.0
 10
725.6799926297433
 20
1997.569933349522
 30
0.0
 10
725.982252950896
 20
1992.741950937393
 30
0.0
 10
726.8346931681335
 20
1987.978270302887
 30
0.0
 10
727.3984582507733
 20
1985.61250543004
 30
0.0
  0
LINE
  5
F6
330
87
100
AcDbEntity
  8
P-SANR-FIXT
100
AcDbLine
 10
727.3984582507733
 20
1985.61250543004
 30
0.0
 11
749.9343566355967
 21
1985.61250543004
 31
0.0
  0
SPLINE
  5
F7
330
87
100
AcDbEntity
  8
P-SANR-FIXT
100
AcDbSpline
210
0.0
220
0.0
230
1.0
 70
     8
 71
     3
 72
     9
 73
     5
 74
     0
 42
0.000000001
 43
0.0000000001
 40
0.0
 40
0.0
 40
0.0
 40
0.0
 40
0.5
 40
1.0
 40
1.0
 40
1.0
 40
1.0
 10
749.9343566355967
 20
1985.61250543004
 30
0.0
 10
750.4981217182354
 20
1987.978270302887
 30
0.0
 10
751.3505619354726
 20
1992.741950937394
 30
0.0
 10
751.6528222566293
 20
1997.569933349523
 30
0.0
 10
751.6664074431877
 20
1999.999999999993
 30
0.0
  0
SPLINE
  5
F8
330
87
100
AcDbEntity
  8
P-SANR-FIXT
100
AcDbSpline
210
0.0
220
0.0
230
1.0
 70
     8
 71
     3
 72
     9
 73
     5
 74
     0
 42
0.000000001
 43
0.0000000001
 40
0.0
 40
0.0
 40
0.0
 40
0.0
 40
0.5
 40
1.0
 40
1.0
 40
1.0
 40
1.0
 10
751.6664074431877
 20
1999.999999999993
 30
0.0
 10
751.6528222566291
 20
2002.430066650464
 30
0.0
 10
751.3505619354719
 20
2007.258049062594
 30
0.0
 10
750.4981217182344
 20
2012.021729697101
 30
0.0
 10
749.9343566355954
 20
2014.387494569948
 30
0.0
  0
LINE
  5
F9
330
87
100
AcDbEntity
  8
P-SANR-FIXT
100
AcDbLine
 10
727.3984582507364
 20
1985.61250543004
 30
0.0
 11
727.3984582507367
 21
1978.614908960068
 31
0.0
  0
LINE
  5
FA
330
87
100
AcDbEntity
  8
P-SANR-FIXT
100
AcDbLine
 10
727.3984582507689
 20
1978.614908960067
 30
0.0
 11
749.9343566356015
 21
1978.614908960068
 31
0.0
  0
LINE
  5
FB
330
87
100
AcDbEntity
  8
P-SANR-FIXT
100
AcDbLine
 10
749.9343566356337
 20
1978.614908960068
 30
0.0
 11
749.9343566356336
 21
1985.61250543004
 31
0.0
  0
SPLINE
  5
FC
330
87
100
AcDbEntity
  8
P-SANR-FIXT
100
AcDbSpline
210
0.0
220
0.0
230
1.0
 70
     8
 71
     3
 72
     9
 73
     5
 74
     0
 42
0.000000001
 43
0.0000000001
 40
0.0
 40
0.0
 40
0.0
 40
0.0
 40
0.5
 40
1.0
 40
1.0
 40
1.0
 40
1.0
 10
727.3984582507689
 20
1978.614908960068
 30
0.0
 10
726.8346931681261
 20
1977.432026523643
 30
0.0
 10
725.9822529508867
 20
1975.050186206387
 30
0.0
 10
725.6799926297393
 20
1972.636195000319
 30
0.0
 10
725.6664074431886
 20
1971.421161675082
 30
0.0
  0
SPLINE
  5
FD
330
87
100
AcDbEntity
  8
P-SANR-FIXT
100
AcDbSpline
210
0.0
220
0.0
230
1.0
 70
     8
 71
     3
 72
     9
 73
     5
 74
     0
 42
0.000000001
 43
0.0000000001
 40
0.0
 40
0.0
 40
0.0
 40
0.0
 40
0.5
 40
1.0
 40
1.0
 40
1.0
 40
1.0
 10
725.6664074431886
 20
1971.421161675082
 30
0.0
 10
725.6799926297389
 20
1970.206128349856
 30
0.0
 10
725.9822529508815
 20
1967.792137143809
 30
0.0
 10
726.8346931681072
 20
1965.410296826573
 30
0.0
 10
727.398458250741
 20
1964.227414390158
 30
0.0
  0
LINE
  5
FE
330
87
100
AcDbEntity
  8
P-SANR-FIXT
100
AcDbLine
 10
727.398458250741
 20
1964.227414390158
 30
0.0
 11
749.9343566356304
 21
1964.227414390159
 31
0.0
  0
SPLINE
  5
FF
330
87
100
AcDbEntity
  8
P-SANR-FIXT
100
AcDbSpline
210
0.0
220
0.0
230
1.0
 70
     8
 71
     3
 72
     9
 73
     5
 74
     0
 42
0.000000001
 43
0.0000000001
 40
0.0
 40
0.0
 40
0.0
 40
0.0
 40
0.5
 40
1.0
 40
1.0
 40
1.0
 40
1.0
 10
749.9343566356304
 20
1964.227414390159
 30
0.0
 10
750.4981217182631
 20
1965.410296826574
 30
0.0
 10
751.3505619354889
 20
1967.792137143809
 30
0.0
 10
751.6528222566352
 20
1970.206128349857
 30
0.0
 10
751.6664074431885
 20
1971.421161675083
 30
0.0
  0
SPLINE
  5
100
330
87
100
AcDbEntity
  8
P-SANR-FIXT
100
AcDbSpline
210
0.0
220
0.0
230
1.0
 70
     8
 71
     3
 72
     9
 73
     5
 74
     0
 42
0.000000001
 43
0.0000000001
 40
0.0
 40
0.0
 40
0.0
 40
0.0
 40
0.5
 40
1.0
 40
1.0
 40
1.0
 40
1.0
 10
751.6664074431885
 20
1971.421161675083
 30
0.0
 10
751.6528222566346
 20
1972.63619500032
 30
0.0
 10
751.350561935483
 20
1975.050186206388
 30
0.0
 10
750.4981217182433
 20
1977.432026523643
 30
0.0
 10
749.9343566356015
 20
1978.614908960068
 30
0.0
  0
LINE
  5
101
330
87
100
AcDbEntity
  8
P-SANR-FIXT
100
AcDbLine
 10
727.3984582507371
 20
1964.227414390158
 30
0.0
 11
727.3984582507371
 21
1964.000000000011
 31
0.0
  0
LINE
  5
102
330
87
100
AcDbEntity
  8
P-SANR-FIXT
100
AcDbLine
 10
749.9343566356343
 20
1964.000000000012
 30
0.0
 11
749.9343566356343
 21
1964.227414390159
 31
0.0
  0
LINE
  5
103
330
87
100
AcDbEntity
  8
P-SANR-FIXT
100
AcDbLine
 10
727.3984582507352
 20
2035.999999999976
 30
0.0
 11
727.3984582507352
 21
2035.772585609828
 31
0.0
  0
LINE
  5
104
330
87
100
AcDbEntity
  8
P-SANR-FIXT
100
AcDbLine
 10
727.3984582507402
 20
2035.772585609828
 30
0.0
 11
749.9343566356273
 21
2035.772585609829
 31
0.0
  0
LINE
  5
105
330
87
100
AcDbEntity
  8
P-SANR-FIXT
100
AcDbLine
 10
749.9343566356324
 20
2035.772585609829
 30
0.0
 11
749.9343566356324
 21
2035.999999999976
 31
0.0
  0
SPLINE
  5
106
330
87
100
AcDbEntity
  8
P-SANR-FIXT
100
AcDbSpline
210
0.0
220
0.0
230
1.0
 70
     8
 71
     3
 72
     9
 73
     5
 74
     0
 42
0.000000001
 43
0.0000000001
 40
0.0
 40
0.0
 40
0.0
 40
0.0
 40
0.5
 40
1.0
 40
1.0
 40
1.0
 40
1.0
 10
727.3984582507402
 20
2035.772585609828
 30
0.0
 10
726.8346931681066
 20
2034.589703173413
 30
0.0
 10
725.9822529508809
 20
2032.207862856178
 30
0.0
 10
725.6799926297378
 20
2029.793871650131
 30
0.0
 10
725.6664074431872
 20
2028.578838324905
 30
0.0
  0
SPLINE
  5
107
330
87
100
AcDbEntity
  8
P-SANR-FIXT
100
AcDbSpline
210
0.0
220
0.0
230
1.0
 70
     8
 71
     3
 72
     9
 73
     5
 74
     0
 42
0.000000001
 43
0.0000000001
 40
0.0
 40
0.0
 40
0.0
 40
0.0
 40
0.5
 40
1.0
 40
1.0
 40
1.0
 40
1.0
 10
725.6664074431872
 20
2028.578838324905
 30
0.0
 10
725.6799926297384
 20
2027.363804999668
 30
0.0
 10
725.9822529508864
 20
2024.9498137936
 30
0.0
 10
726.8346931681259
 20
2022.567973476345
 30
0.0
 10
727.3984582507684
 20
2021.38509103992
 30
0.0
  0
LINE
  5
108
330
87
100
AcDbEntity
  8
P-SANR-FIXT
100
AcDbLine
 10
749.9343566355996
 20
2021.385091039921
 30
0.0
 11
727.3984582507684
 21
2021.38509103992
 31
0.0
  0
SPLINE
  5
109
330
87
100
AcDbEntity
  8
P-SANR-FIXT
100
AcDbSpline
210
0.0
220
0.0
230
1.0
 70
     8
 71
     3
 72
     9
 73
     5
 74
     0
 42
0.000000001
 43
0.0000000001
 40
0.0
 40
0.0
 40
0.0
 40
0.0
 40
0.5
 40
1.0
 40
1.0
 40
1.0
 40
1.0
 10
749.9343566355996
 20
2021.385091039921
 30
0.0
 10
750.4981217182411
 20
2022.567973476346
 30
0.0
 10
751.3505619354803
 20
2024.949813793601
 30
0.0
 10
751.6528222566326
 20
2027.363804999669
 30
0.0
 10
751.6664074431869
 20
2028.578838324905
 30
0.0
  0
SPLINE
  5
10A
330
87
100
AcDbEntity
  8
P-SANR-FIXT
100
AcDbSpline
210
0.0
220
0.0
230
1.0
 70
     8
 71
     3
 72
     9
 73
     5
 74
     0
 42
0.000000001
 43
0.0000000001
 40
0.0
 40
0.0
 40
0.0
 40
0.0
 40
0.5
 40
1.0
 40
1.0
 40
1.0
 40
1.0
 10
751.6664074431869
 20
2028.578838324905
 30
0.0
 10
751.652822256633
 20
2029.793871650132
 30
0.0
 10
751.3505619354859
 20
2032.207862856179
 30
0.0
 10
750.4981217182598
 20
2034.589703173415
 30
0.0
 10
749.9343566356273
 20
2035.772585609829
 30
0.0
  0
LINE
  5
10B
330
87
100
AcDbEntity
  8
P-SANR-FIXT
100
AcDbLine
 10
887.3984582507393
 20
1964.000000000014
 30
0.0
 11
909.9343566356363
 21
1964.000000000014
 31
0.0
  0
LINE
  5
10C
330
87
100
AcDbEntity
  8
P-SANR-FIXT
100
AcDbLine
 10
909.9343566356363
 20
2035.999999999979
 30
0.0
 11
887.3984582507393
 21
2035.999999999979
 31
0.0
  0
LINE
  5
10D
330
87
100
AcDbEntity
  8
P-SANR-FIXT
100
AcDbLine
 10
885.6664074431847
 20
1966.999999999989
 30
0.0
 11
887.3656078506124
 21
1964.056898562082
 31
0.0
  0
LINE
  5
10E
330
87
100
AcDbEntity
  8
P-SANR-FIXT
100
AcDbLine
 10
887.367114254987
 20
1964.054289393169
 30
0.0
 11
887.3984582507423
 21
1964.000000000008
 31
0.0
  0
LINE
  5
10F
330
87
100
AcDbEntity
  8
P-SANR-FIXT
100
AcDbLine
 10
887.3984582507397
 20
2035.999999999979
 30
0.0
 11
887.3671142549882
 21
2035.945710606825
 31
0.0
  0
LINE
  5
110
330
87
100
AcDbEntity
  8
P-SANR-FIXT
100
AcDbLine
 10
887.3656078506137
 20
2035.943101437911
 30
0.0
 11
885.6664074431847
 21
2033.000000000003
 31
0.0
  0
LINE
  5
111
330
87
100
AcDbEntity
  8
P-SANR-FIXT
100
AcDbLine
 10
909.9343566356369
 20
1964.000000000014
 30
0.0
 11
909.9657006313886
 21
1964.054289393169
 31
0.0
  0
LINE
  5
112
330
87
100
AcDbEntity
  8
P-SANR-FIXT
100
AcDbLine
 10
909.9672070357632
 20
1964.056898562082
 30
0.0
 11
911.6664074431847
 21
1966.999999999978
 31
0.0
  0
LINE
  5
113
330
87
100
AcDbEntity
  8
P-SANR-FIXT
100
AcDbLine
 10
911.6664074431847
 20
2033.000000000014
 30
0.0
 11
909.9672070357621
 21
2035.943101437911
 31
0.0
  0
LINE
  5
114
330
87
100
AcDbEntity
  8
P-SANR-FIXT
100
AcDbLine
 10
909.9657006313874
 20
2035.945710606825
 30
0.0
 11
909.9343566356328
 21
2035.999999999985
 31
0.0
  0
LINE
  5
115
330
87
100
AcDbEntity
  8
P-SANR-FIXT
100
AcDbLine
 10
911.6664074431833
 20
1970.685947419279
 30
0.0
 11
911.6664074431833
 21
1971.421161675093
 31
0.0
  0
LINE
  5
116
330
87
100
AcDbEntity
  8
P-SANR-FIXT
100
AcDbLine
 10
911.6664074431833
 20
1971.421161675092
 30
0.0
 11
911.6664074431833
 21
1972.160965605155
 31
0.0
  0
LINE
  5
117
330
87
100
AcDbEntity
  8
P-SANR-FIXT
100
AcDbLine
 10
911.6664074431833
 20
2027.839034394669
 30
0.0
 11
911.6664074431833
 21
2028.578838324897
 31
0.0
  0
LINE
  5
118
330
87
100
AcDbEntity
  8
P-SANR-FIXT
100
AcDbLine
 10
911.6664074431833
 20
2028.578838324897
 30
0.0
 11
911.6664074431833
 21
2029.314052580712
 31
0.0
  0
LINE
  5
119
330
87
100
AcDbEntity
  8
P-SANR-FIXT
100
AcDbLine
 10
911.6664074431831
 20
2033.000000000013
 30
0.0
 11
911.6664074431831
 21
2028.578838324897
 31
0.0
  0
LINE
  5
11A
330
87
100
AcDbEntity
  8
P-SANR-FIXT
100
AcDbLine
 10
911.6664074431831
 20
2028.578838324897
 30
0.0
 11
911.6664074431831
 21
1999.999999999995
 31
0.0
  0
LINE
  5
11B
330
87
100
AcDbEntity
  8
P-SANR-FIXT
100
AcDbLine
 10
911.6664074431831
 20
1999.999999999995
 30
0.0
 11
911.6664074431831
 21
1971.421161675093
 31
0.0
  0
LINE
  5
11C
330
87
100
AcDbEntity
  8
P-SANR-FIXT
100
AcDbLine
 10
911.6664074431831
 20
1971.421161675093
 30
0.0
 11
911.6664074431831
 21
1966.999999999977
 31
0.0
  0
LINE
  5
11D
330
87
100
AcDbEntity
  8
P-SANR-FIXT
100
AcDbLine
 10
885.6664074431833
 20
1966.999999999988
 30
0.0
 11
885.6664074431831
 21
1971.421161675102
 31
0.0
  0
LINE
  5
11E
330
87
100
AcDbEntity
  8
P-SANR-FIXT
100
AcDbLine
 10
885.6664074431831
 20
1971.421161675102
 30
0.0
 11
885.6664074431831
 21
1999.999999999995
 31
0.0
  0
LINE
  5
11F
330
87
100
AcDbEntity
  8
P-SANR-FIXT
100
AcDbLine
 10
885.6664074431831
 20
1999.999999999995
 30
0.0
 11
885.6664074431831
 21
2028.578838324888
 31
0.0
  0
LINE
  5
120
330
87
100
AcDbEntity
  8
P-SANR-FIXT
100
AcDbLine
 10
885.6664074431831
 20
2028.578838324888
 30
0.0
 11
885.6664074431833
 21
2033.000000000002
 31
0.0
  0
LINE
  5
121
330
87
100
AcDbEntity
  8
P-SANR-FIXT
100
AcDbLine
 10
909.9343566356019
 20
2021.385091039923
 30
0.0
 11
887.3984582507706
 21
2021.385091039923
 31
0.0
  0
LINE
  5
122
330
87
100
AcDbEntity
  8
P-SANR-FIXT
100
AcDbLine
 10
887.3984582507375
 20
2021.385091039923
 30
0.0
 11
887.3984582507375
 21
2014.38749456995
 31
0.0
  0
LINE
  5
123
330
87
100
AcDbEntity
  8
P-SANR-FIXT
100
AcDbLine
 10
909.9343566356347
 20
2014.38749456995
 30
0.0
 11
909.9343566356347
 21
2021.385091039923
 31
0.0
  0
LINE
  5
124
330
87
100
AcDbEntity
  8
P-SANR-FIXT
100
AcDbLine
 10
887.398458250775
 20
2014.38749456995
 30
0.0
 11
909.9343566355974
 21
2014.38749456995
 31
0.0
  0
SPLINE
  5
125
330
87
100
AcDbEntity
  8
P-SANR-FIXT
100
AcDbSpline
210
0.0
220
0.0
230
1.0
 70
     8
 71
     3
 72
     9
 73
     5
 74
     0
 42
0.000000001
 43
0.0000000001
 40
0.0
 40
0.0
 40
0.0
 40
0.0
 40
0.5
 40
1.0
 40
1.0
 40
1.0
 40
1.0
 10
887.398458250775
 20
2014.38749456995
 30
0.0
 10
886.8346931681362
 20
2012.021729697103
 30
0.0
 10
885.9822529508987
 20
2007.258049062596
 30
0.0
 10
885.6799926297414
 20
2002.430066650466
 30
0.0
 10
885.6664074431831
 20
1999.999999999995
 30
0.0
  0
SPLINE
  5
126
330
87
100
AcDbEntity
  8
P-SANR-FIXT
100
AcDbSpline
210
0.0
220
0.0
230
1.0
 70
     8
 71
     3
 72
     9
 73
     5
 74
     0
 42
0.000000001
 43
0.0000000001
 40
0.0
 40
0.0
 40
0.0
 40
0.0
 40
0.5
 40
1.0
 40
1.0
 40
1.0
 40
1.0
 10
885.6664074431831
 20
1999.999999999995
 30
0.0
 10
885.6799926297414
 20
1997.569933349525
 30
0.0
 10
885.9822529508985
 20
1992.741950937395
 30
0.0
 10
886.8346931681358
 20
1987.97827030289
 30
0.0
 10
887.3984582507745
 20
1985.612505430043
 30
0.0
  0
SPLINE
  5
127
330
87
100
AcDbEntity
  8
P-SANR-FIXT
100
AcDbSpline
210
0.0
220
0.0
230
1.0
 70
     8
 71
     3
 72
     9
 73
     5
 74
     0
 42
0.000000001
 43
0.0000000001
 40
0.0
 40
0.0
 40
0.0
 40
0.0
 40
0.5
 40
1.0
 40
1.0
 40
1.0
 40
1.0
 10
909.934356635598
 20
1985.612505430043
 30
0.0
 10
910.4981217182377
 20
1987.97827030289
 30
0.0
 10
911.350561935475
 20
1992.741950937395
 30
0.0
 10
911.6528222566277
 20
1997.569933349524
 30
0.0
 10
911.6664074431831
 20
1999.999999999995
 30
0.0
  0
SPLINE
  5
128
330
87
100
AcDbEntity
  8
P-SANR-FIXT
100
AcDbSpline
210
0.0
220
0.0
230
1.0
 70
     8
 71
     3
 72
     9
 73
     5
 74
     0
 42
0.000000001
 43
0.0000000001
 40
0.0
 40
0.0
 40
0.0
 40
0.0
 40
0.5
 40
1.0
 40
1.0
 40
1.0
 40
1.0
 10
911.6664074431831
 20
1999.999999999995
 30
0.0
 10
911.6528222566277
 20
2002.430066650466
 30
0.0
 10
911.3505619354748
 20
2007.258049062597
 30
0.0
 10
910.4981217182373
 20
2012.021729697103
 30
0.0
 10
909.9343566355974
 20
2014.38749456995
 30
0.0
  0
LINE
  5
129
330
87
100
AcDbEntity
  8
P-SANR-FIXT
100
AcDbLine
 10
887.3984582507745
 20
1985.612505430043
 30
0.0
 11
909.934356635598
 21
1985.612505430043
 31
0.0
  0
LINE
  5
12A
330
87
100
AcDbEntity
  8
P-SANR-FIXT
100
AcDbLine
 10
887.3984582507375
 20
1985.612505430043
 30
0.0
 11
887.3984582507375
 21
1978.614908960071
 31
0.0
  0
LINE
  5
12B
330
87
100
AcDbEntity
  8
P-SANR-FIXT
100
AcDbLine
 10
909.9343566356347
 20
1978.614908960071
 30
0.0
 11
909.9343566356347
 21
1985.612505430043
 31
0.0
  0
LINE
  5
12C
330
87
100
AcDbEntity
  8
P-SANR-FIXT
100
AcDbLine
 10
887.39845825077
 20
1978.61490896007
 30
0.0
 11
909.9343566356026
 21
1978.61490896007
 31
0.0
  0
SPLINE
  5
12D
330
87
100
AcDbEntity
  8
P-SANR-FIXT
100
AcDbSpline
210
0.0
220
0.0
230
1.0
 70
     8
 71
     3
 72
     9
 73
     5
 74
     0
 42
0.000000001
 43
0.0000000001
 40
0.0
 40
0.0
 40
0.0
 40
0.0
 40
0.5
 40
1.0
 40
1.0
 40
1.0
 40
1.0
 10
887.39845825077
 20
1978.61490896007
 30
0.0
 10
886.8346931681282
 20
1977.432026523645
 30
0.0
 10
885.9822529508885
 20
1975.05018620639
 30
0.0
 10
885.679992629737
 20
1972.636195000322
 30
0.0
 10
885.6664074431831
 20
1971.421161675085
 30
0.0
  0
SPLINE
  5
12E
330
87
100
AcDbEntity
  8
P-SANR-FIXT
100
AcDbSpline
210
0.0
220
0.0
230
1.0
 70
     8
 71
     3
 72
     9
 73
     5
 74
     0
 42
0.000000001
 43
0.0000000001
 40
0.0
 40
0.0
 40
0.0
 40
0.0
 40
0.5
 40
1.0
 40
1.0
 40
1.0
 40
1.0
 10
885.6664074431831
 20
1971.421161675085
 30
0.0
 10
885.6799926297364
 20
1970.206128349859
 30
0.0
 10
885.982252950883
 20
1967.792137143812
 30
0.0
 10
886.834693168109
 20
1965.410296826576
 30
0.0
 10
887.3984582507418
 20
1964.227414390161
 30
0.0
  0
SPLINE
  5
12F
330
87
100
AcDbEntity
  8
P-SANR-FIXT
100
AcDbSpline
210
0.0
220
0.0
230
1.0
 70
     8
 71
     3
 72
     9
 73
     5
 74
     0
 42
0.000000001
 43
0.0000000001
 40
0.0
 40
0.0
 40
0.0
 40
0.0
 40
0.5
 40
1.0
 40
1.0
 40
1.0
 40
1.0
 10
909.934356635631
 20
1964.227414390161
 30
0.0
 10
910.4981217182649
 20
1965.410296826576
 30
0.0
 10
911.3505619354906
 20
1967.792137143812
 30
0.0
 10
911.6528222566328
 20
1970.206128349859
 30
0.0
 10
911.6664074431831
 20
1971.421161675085
 30
0.0
  0
SPLINE
  5
130
330
87
100
AcDbEntity
  8
P-SANR-FIXT
100
AcDbSpline
210
0.0
220
0.0
230
1.0
 70
     8
 71
     3
 72
     9
 73
     5
 74
     0
 42
0.000000001
 43
0.0000000001
 40
0.0
 40
0.0
 40
0.0
 40
0.0
 40
0.5
 40
1.0
 40
1.0
 40
1.0
 40
1.0
 10
911.6664074431831
 20
1971.421161675085
 30
0.0
 10
911.6528222566323
 20
1972.636195000322
 30
0.0
 10
911.350561935485
 20
1975.05018620639
 30
0.0
 10
910.4981217182453
 20
1977.432026523645
 30
0.0
 10
909.9343566356026
 20
1978.61490896007
 30
0.0
  0
LINE
  5
131
330
87
100
AcDbEntity
  8
P-SANR-FIXT
100
AcDbLine
 10
887.3984582507418
 20
1964.227414390161
 30
0.0
 11
909.934356635631
 21
1964.227414390161
 31
0.0
  0
LINE
  5
132
330
87
100
AcDbEntity
  8
P-SANR-FIXT
100
AcDbLine
 10
887.3984582507377
 20
1964.227414390161
 30
0.0
 11
887.3984582507377
 21
1964.000000000013
 31
0.0
  0
LINE
  5
133
330
87
100
AcDbEntity
  8
P-SANR-FIXT
100
AcDbLine
 10
909.9343566356349
 20
1964.000000000013
 30
0.0
 11
909.9343566356349
 21
1964.227414390161
 31
0.0
  0
LINE
  5
134
330
87
100
AcDbEntity
  8
P-SANR-FIXT
100
AcDbLine
 10
887.3984582507377
 20
2035.999999999978
 30
0.0
 11
887.3984582507377
 21
2035.772585609831
 31
0.0
  0
LINE
  5
135
330
87
100
AcDbEntity
  8
P-SANR-FIXT
100
AcDbLine
 10
909.9343566356349
 20
2035.772585609831
 30
0.0
 11
909.9343566356349
 21
2035.999999999978
 31
0.0
  0
SPLINE
  5
136
330
87
100
AcDbEntity
  8
P-SANR-FIXT
100
AcDbSpline
210
0.0
220
0.0
230
1.0
 70
     8
 71
     3
 72
     9
 73
     5
 74
     0
 42
0.000000001
 43
0.0000000001
 40
0.0
 40
0.0
 40
0.0
 40
0.0
 40
0.5
 40
1.0
 40
1.0
 40
1.0
 40
1.0
 10
909.9343566356019
 20
2021.385091039923
 30
0.0
 10
910.4981217182444
 20
2022.567973476348
 30
0.0
 10
911.3505619354837
 20
2024.949813793603
 30
0.0
 10
911.6528222566318
 20
2027.363804999671
 30
0.0
 10
911.6664074431831
 20
2028.578838324907
 30
0.0
  0
SPLINE
  5
137
330
87
100
AcDbEntity
  8
P-SANR-FIXT
100
AcDbSpline
210
0.0
220
0.0
230
1.0
 70
     8
 71
     3
 72
     9
 73
     5
 74
     0
 42
0.000000001
 43
0.0000000001
 40
0.0
 40
0.0
 40
0.0
 40
0.0
 40
0.5
 40
1.0
 40
1.0
 40
1.0
 40
1.0
 10
911.6664074431831
 20
2028.578838324907
 30
0.0
 10
911.6528222566323
 20
2029.793871650134
 30
0.0
 10
911.3505619354892
 20
2032.20786285618
 30
0.0
 10
910.4981217182634
 20
2034.589703173416
 30
0.0
 10
909.9343566356299
 20
2035.772585609831
 30
0.0
  0
LINE
  5
138
330
87
100
AcDbEntity
  8
P-SANR-FIXT
100
AcDbLine
 10
887.3984582507429
 20
2035.772585609831
 30
0.0
 11
909.9343566356299
 21
2035.772585609831
 31
0.0
  0
SPLINE
  5
139
330
87
100
AcDbEntity
  8
P-SANR-FIXT
100
AcDbSpline
210
0.0
220
0.0
230
1.0
 70
     8
 71
     3
 72
     9
 73
     5
 74
     0
 42
0.000000001
 43
0.0000000001
 40
0.0
 40
0.0
 40
0.0
 40
0.0
 40
0.5
 40
1.0
 40
1.0
 40
1.0
 40
1.0
 10
887.3984582507429
 20
2035.772585609831
 30
0.0
 10
886.8346931681102
 20
2034.589703173416
 30
0.0
 10
885.9822529508845
 20
2032.20786285618
 30
0.0
 10
885.679992629737
 20
2029.793871650134
 30
0.0
 10
885.6664074431831
 20
2028.578838324907
 30
0.0
  0
SPLINE
  5
13A
330
87
100
AcDbEntity
  8
P-SANR-FIXT
100
AcDbSpline
210
0.0
220
0.0
230
1.0
 70
     8
 71
     3
 72
     9
 73
     5
 74
     0
 42
0.000000001
 43
0.0000000001
 40
0.0
 40
0.0
 40
0.0
 40
0.0
 40
0.5
 40
1.0
 40
1.0
 40
1.0
 40
1.0
 10
885.6664074431831
 20
2028.578838324907
 30
0.0
 10
885.6799926297377
 20
2027.363804999671
 30
0.0
 10
885.98225295089
 20
2024.949813793603
 30
0.0
 10
886.8346931681292
 20
2022.567973476348
 30
0.0
 10
887.3984582507706
 20
2021.385091039923
 30
0.0
  0
LINE
  5
13B
330
87
100
AcDbEntity
  8
P-SANR-FIXT
100
AcDbLine
 10
946.6664074432227
 20
2023.899999999955
 30
0.0
 11
911.6664074431847
 21
2023.899999999955
 31
0.0
  0
LINE
  5
13C
330
87
100
AcDbEntity
  8
P-SANR-FIXT
100
AcDbLine
 10
911.6664074431847
 20
1976.100000000036
 30
0.0
 11
946.6664074432227
 21
1976.100000000036
 31
0.0
  0
LINE
  5
13D
330
87
100
AcDbEntity
  8
P-SANR-FIXT
100
AcDbLine
 10
948.6664074432226
 20
2021.899999999955
 30
0.0
 11
946.6664074432227
 21
2023.899999999955
 31
0.0
  0
LINE
  5
13E
330
87
100
AcDbEntity
  8
P-SANR-FIXT
100
AcDbLine
 10
946.6664074432227
 20
1976.100000000036
 30
0.0
 11
948.6664074432226
 21
1978.100000000036
 31
0.0
  0
LINE
  5
13F
330
87
100
AcDbEntity
  8
P-SANR-FIXT
100
AcDbLine
 10
946.6664074432211
 20
1976.100000000036
 30
0.0
 11
946.6664074432211
 21
2023.899999999954
 31
0.0
  0
LINE
  5
140
330
87
100
AcDbEntity
  8
P-SANR-FIXT
100
AcDbLine
 10
911.6664074431831
 20
2001.531191731337
 30
0.0
 11
911.6664074431831
 21
1998.468808268654
 31
0.0
  0
LINE
  5
141
330
87
100
AcDbEntity
  8
P-SANR-FIXT
100
AcDbLine
 10
948.666407443221
 20
2021.899999999954
 30
0.0
 11
948.666407443221
 21
1978.100000000036
 31
0.0
  0
LINE
  5
142
330
87
100
AcDbEntity
  8
P-SANR-FIXT
100
AcDbLine
 10
725.6664074431885
 20
2023.899999999957
 30
0.0
 11
690.6664074431504
 21
2023.899999999957
 31
0.0
  0
LINE
  5
143
330
87
100
AcDbEntity
  8
P-SANR-FIXT
100
AcDbLine
 10
690.6664074431504
 20
1976.100000000035
 30
0.0
 11
725.6664074431885
 21
1976.100000000035
 31
0.0
  0
LINE
  5
144
330
87
100
AcDbEntity
  8
P-SANR-FIXT
100
AcDbLine
 10
690.6664074431504
 20
2023.899999999956
 30
0.0
 11
688.6664074431505
 21
2021.899999999957
 31
0.0
  0
LINE
  5
145
330
87
100
AcDbEntity
  8
P-SANR-FIXT
100
AcDbLine
 10
688.6664074431505
 20
1978.100000000035
 30
0.0
 11
690.6664074431504
 21
1976.100000000035
 31
0.0
  0
LINE
  5
146
330
87
100
AcDbEntity
  8
P-SANR-FIXT
100
AcDbLine
 10
725.6664074431872
 20
1998.468808268651
 30
0.0
 11
725.6664074431872
 21
2001.531191731334
 31
0.0
  0
LINE
  5
147
330
87
100
AcDbEntity
  8
P-SANR-FIXT
100
AcDbLine
 10
690.6664074431492
 20
2023.899999999956
 30
0.0
 11
690.6664074431492
 21
1976.100000000034
 31
0.0
  0
LINE
  5
148
330
87
100
AcDbEntity
  8
P-SANR-FIXT
100
AcDbLine
 10
688.6664074431493
 20
2021.899999999956
 30
0.0
 11
688.6664074431493
 21
1978.100000000034
 31
0.0
  0
LINE
  5
149
330
87
100
AcDbEntity
  8
P-SANR-FIXT
100
AcDbLine
 10
760.9164074431681
 20
2027.999999999996
 30
0.0
 11
760.9164074431681
 21
2020.999999999996
 31
0.0
  0
LINE
  5
14A
330
87
100
AcDbEntity
  8
P-SANR-FIXT
100
AcDbLine
 10
870.4164074431682
 20
2020.999999999996
 30
0.0
 11
870.4164074431682
 21
2027.999999999996
 31
0.0
  0
LINE
  5
14B
330
87
100
AcDbEntity
  8
P-SANR-FIXT
100
AcDbLine
 10
760.9164074431681
 20
2036.999999999994
 30
0.0
 11
760.9164074431681
 21
2027.999999999996
 31
0.0
  0
LINE
  5
14C
330
87
100
AcDbEntity
  8
P-SANR-FIXT
100
AcDbLine
 10
870.4164074431682
 20
2027.999999999996
 30
0.0
 11
870.4164074431682
 21
2036.999999999996
 31
0.0
  0
LINE
  5
14D
330
87
100
AcDbEntity
  8
P-SANR-FIXT
100
AcDbLine
 10
871.2625286372785
 20
2020.999999999995
 30
0.0
 11
870.416407443167
 21
2020.999999999995
 31
0.0
  0
LINE
  5
14E
330
87
100
AcDbEntity
  8
P-SANR-FIXT
100
AcDbLine
 10
870.416407443167
 20
2020.999999999995
 30
0.0
 11
846.4833306910891
 21
2020.999999999995
 31
0.0
  0
LINE
  5
14F
330
87
100
AcDbEntity
  8
P-SANR-FIXT
100
AcDbLine
 10
846.4833306910984
 20
2020.999999999995
 30
0.0
 11
833.5974423039472
 21
2020.999999999995
 31
0.0
  0
LINE
  5
150
330
87
100
AcDbEntity
  8
P-SANR-FIXT
100
AcDbLine
 10
833.1275259275255
 20
2020.999999999995
 30
0.0
 11
830.7675159946851
 21
2020.999999999995
 31
0.0
  0
LINE
  5
151
330
87
100
AcDbEntity
  8
P-SANR-FIXT
100
AcDbLine
 10
830.3597305441922
 20
2020.999999999995
 30
0.0
 11
827.8516866338234
 21
2020.999999999995
 31
0.0
  0
LINE
  5
152
330
87
100
AcDbEntity
  8
P-SANR-FIXT
100
AcDbLine
 10
827.5135193249036
 20
2020.999999999995
 30
0.0
 11
824.8665409930667
 21
2020.999999999995
 31
0.0
  0
LINE
  5
153
330
87
100
AcDbEntity
  8
P-SANR-FIXT
100
AcDbLine
 10
824.6035274354703
 20
2020.999999999995
 30
0.0
 11
821.8290601515953
 21
2020.999999999995
 31
0.0
  0
LINE
  5
154
330
87
100
AcDbEntity
  8
P-SANR-FIXT
100
AcDbLine
 10
821.6457879598994
 20
2020.999999999995
 30
0.0
 11
818.7565228987482
 21
2020.999999999995
 31
0.0
  0
LINE
  5
155
330
87
100
AcDbEntity
  8
P-SANR-FIXT
100
AcDbLine
 10
818.6569385331388
 20
2020.999999999995
 30
0.0
 11
815.6664074431803
 21
2020.999999999995
 31
0.0
  0
LINE
  5
156
330
87
100
AcDbEntity
  8
P-SANR-FIXT
100
AcDbLine
 10
815.6528310671532
 20
2020.999999999995
 30
0.0
 11
812.6489642710341
 21
2020.999999999995
 31
0.0
  0
LINE
  5
157
330
87
100
AcDbEntity
  8
P-SANR-FIXT
100
AcDbLine
 10
812.5762919876125
 20
2020.999999999995
 30
0.0
 11
809.6606778300019
 21
2020.999999999995
 31
0.0
  0
LINE
  5
158
330
87
100
AcDbEntity
  8
P-SANR-FIXT
100
AcDbLine
 10
809.5037547347656
 20
2020.999999999995
 30
0.0
 11
806.7038122938129
 21
2020.999999999995
 31
0.0
  0
LINE
  5
159
330
87
100
AcDbEntity
  8
P-SANR-FIXT
100
AcDbLine
 10
806.4662738932943
 20
2020.999999999995
 30
0.0
 11
803.7949250142304
 21
2020.999999999995
 31
0.0
  0
LINE
  5
15A
330
87
100
AcDbEntity
  8
P-SANR-FIXT
100
AcDbLine
 10
803.481128252538
 20
2020.999999999995
 30
0.0
 11
800.9500178046591
 21
2020.999999999995
 31
0.0
  0
LINE
  5
15B
330
87
100
AcDbEntity
  8
P-SANR-FIXT
100
AcDbLine
 10
800.5652988916768
 20
2020.999999999995
 30
0.0
 11
798.1837749086199
 21
2020.999999999995
 31
0.0
  0
LINE
  5
15C
330
87
100
AcDbEntity
  8
P-SANR-FIXT
100
AcDbLine
 10
797.7353725824157
 20
2020.999999999995
 30
0.0
 11
784.8494841952606
 21
2020.999999999995
 31
0.0
  0
LINE
  5
15D
330
87
100
AcDbEntity
  8
P-SANR-FIXT
100
AcDbLine
 10
784.8494841952446
 20
2020.999999999995
 30
0.0
 11
760.9164074431669
 21
2020.999999999995
 31
0.0
  0
LINE
  5
15E
330
87
100
AcDbEntity
  8
P-SANR-FIXT
100
AcDbLine
 10
760.9164074431669
 20
2020.999999999995
 30
0.0
 11
760.0702862490622
 21
2020.999999999995
 31
0.0
  0
LINE
  5
15F
330
87
100
AcDbEntity
  8
P-SANR-FIXT
100
AcDbLine
 10
759.4235445474006
 20
2036.999999999995
 30
0.0
 11
759.4235445474006
 21
2027.999999999996
 31
0.0
  0
LINE
  5
160
330
87
100
AcDbEntity
  8
P-SANR-FIXT
100
AcDbLine
 10
760.9164074431669
 20
2020.999999999995
 30
0.0
 11
760.9164074431669
 21
2027.999999999995
 31
0.0
  0
LINE
  5
161
330
87
100
AcDbEntity
  8
P-SANR-FIXT
100
AcDbLine
 10
870.416407443167
 20
2036.999999999995
 30
0.0
 11
870.416407443167
 21
2027.999999999995
 31
0.0
  0
LINE
  5
162
330
87
100
AcDbEntity
  8
P-SANR-FIXT
100
AcDbLine
 10
870.416407443167
 20
2020.999999999995
 30
0.0
 11
870.416407443167
 21
2027.999999999995
 31
0.0
  0
LINE
  5
163
330
87
100
AcDbEntity
  8
P-SANR-FIXT
100
AcDbLine
 10
871.9092703389447
 20
2027.999999999996
 30
0.0
 11
871.9092703389447
 21
2036.999999999995
 31
0.0
  0
LINE
  5
164
330
87
100
AcDbEntity
  8
P-SANR-FIXT
100
AcDbLine
 10
760.9164074431669
 20
2036.999999999995
 30
0.0
 11
759.4235445474006
 21
2036.999999999995
 31
0.0
  0
LINE
  5
165
330
87
100
AcDbEntity
  8
P-SANR-FIXT
100
AcDbLine
 10
760.9164074431669
 20
2036.999999999995
 30
0.0
 11
783.302219244792
 21
2036.999999999995
 31
0.0
  0
LINE
  5
166
330
87
100
AcDbEntity
  8
P-SANR-FIXT
100
AcDbLine
 10
783.302219244792
 20
2036.999999999995
 30
0.0
 11
789.041379898091
 21
2036.999999999995
 31
0.0
  0
LINE
  5
167
330
87
100
AcDbEntity
  8
P-SANR-FIXT
100
AcDbLine
 10
789.041379898091
 20
2036.999999999995
 30
0.0
 11
842.1456138577482
 21
2036.999999999995
 31
0.0
  0
LINE
  5
168
330
87
100
AcDbEntity
  8
P-SANR-FIXT
100
AcDbLine
 10
842.1456138577486
 20
2036.999999999995
 30
0.0
 11
848.6303417945014
 21
2036.999999999995
 31
0.0
  0
LINE
  5
169
330
87
100
AcDbEntity
  8
P-SANR-FIXT
100
AcDbLine
 10
848.6303417945014
 20
2036.999999999995
 30
0.0
 11
870.416407443167
 21
2036.999999999995
 31
0.0
  0
LINE
  5
16A
330
87
100
AcDbEntity
  8
P-SANR-FIXT
100
AcDbLine
 10
871.9092703389447
 20
2036.999999999995
 30
0.0
 11
870.416407443167
 21
2036.999999999995
 31
0.0
  0
LINE
  5
16B
330
87
100
AcDbEntity
  8
P-SANR-FIXT
100
AcDbLine
 10
848.6303417945014
 20
2027.999999999995
 30
0.0
 11
842.1456138577488
 21
2027.999999999995
 31
0.0
  0
LINE
  5
16C
330
87
100
AcDbEntity
  8
P-SANR-FIXT
100
AcDbLine
 10
842.1456138577488
 20
2027.999999999995
 30
0.0
 11
789.0413798980912
 21
2027.999999999995
 31
0.0
  0
LINE
  5
16D
330
87
100
AcDbEntity
  8
P-SANR-FIXT
100
AcDbLine
 10
789.041379898091
 20
2027.999999999995
 30
0.0
 11
783.302219244792
 21
2027.999999999995
 31
0.0
  0
LINE
  5
16E
330
87
100
AcDbEntity
  8
P-SANR-FIXT
100
AcDbLine
 10
783.302219244792
 20
2027.999999999995
 30
0.0
 11
783.302219244792
 21
2036.999999999995
 31
0.0
  0
LWPOLYLINE
  5
16F
330
87
100
AcDbEntity
  8
P-SANR-FIXT
100
AcDbPolyline
 90
       24
 70
   128
 43
0.0
 10
850.1152103187115
 20
1932.449526821618
 10
849.8827158371721
 20
1932.091718839779
 10
849.6360988234593
 20
1931.74349436568
 10
849.3757538121865
 20
1931.405410484195
 10
849.1020972998342
 20
1931.078008057415
 10
848.8155670784454
 20
1930.76181085938
 10
848.5166215352508
 20
1930.457324738156
 10
848.2057389193482
 20
1930.165036806581
 10
847.883416576605
 20
1929.885414662997
 10
847.5501701540109
 20
1929.618905643183
 10
847.2065327747532
 20
1929.365936104717
 10
846.8530541853336
 20
1929.126910744899
 10
846.4902998760903
 20
1928.902211953314
 10
846.1188501765345
 20
1928.692199200096
 10
845.7392993269477
 20
1928.497208460849
 10
845.352254527722
 20
1928.317551679161
 10
844.9583349679711
 20
1928.153516267557
 10
844.5581708349592
 20
1928.005364647704
 10
844.1524023059352
 20
1927.873333830589
 10
843.7416785239864
 20
1927.757635037355
 10
843.3266565595472
 20
1927.658453361389
 10
842.9080003592275
 20
1927.575947472216
 10
842.4863796836392
 20
1927.510249361658
 10
842.1954853797512
 20
1927.476772152957
  0
LINE
  5
170
330
87
100
AcDbEntity
  8
P-SANR-FIXT
100
AcDbLine
 10
850.1152103187116
 20
1932.449526821618
 30
0.0
 11
879.5968441760559
 21
1972.04109567816
 31
0.0
  0
LINE
  5
171
330
87
100
AcDbEntity
  8
P-SANR-FIXT
100
AcDbLine
 10
850.11521031871
 20
1932.449526821618
 30
0.0
 11
848.8676898782802
 21
1933.242329929286
 31
0.0
  0
LINE
  5
172
330
87
100
AcDbEntity
  8
P-SANR-FIXT
100
AcDbLine
 10
884.6664074431867
 20
2030.149999999996
 30
0.0
 11
884.6263481066035
 21
2030.080615193716
 31
0.0
  0
LINE
  5
173
330
87
100
AcDbEntity
  8
P-SANR-FIXT
100
AcDbLine
 10
884.6127471304871
 20
2030.05705761205
 30
0.0
 11
884.0024546336186
 21
2028.999999999996
 31
0.0
  0
LINE
  5
174
330
87
100
AcDbEntity
  8
P-SANR-FIXT
100
AcDbLine
 10
884.0024546336186
 20
1970.999999999996
 30
0.0
 11
884.6127471304871
 21
1969.942942387941
 31
0.0
  0
LINE
  5
175
330
87
100
AcDbEntity
  8
P-SANR-FIXT
100
AcDbLine
 10
884.6263481066035
 20
1969.919384806276
 30
0.0
 11
884.6664074431867
 21
1969.849999999996
 31
0.0
  0
LINE
  5
176
330
87
100
AcDbEntity
  8
P-SANR-FIXT
100
AcDbLine
 10
753.3303602527544
 20
2028.999999999996
 30
0.0
 11
752.6664074431866
 21
2030.149999999996
 31
0.0
  0
LINE
  5
177
330
87
100
AcDbEntity
  8
P-SANR-FIXT
100
AcDbLine
 10
752.6664074431866
 20
1969.849999999995
 30
0.0
 11
753.3303602527544
 21
1970.999999999996
 31
0.0
  0
LWPOLYLINE
  5
178
330
87
100
AcDbEntity
  8
P-SANR-FIXT
100
AcDbPolyline
 90
       28
 70
   128
 43
0.0
 10
884.0024546336186
 20
1970.999999999996
 10
883.961079843528
 20
1971.068463665229
 10
883.917000332468
 20
1971.135218016524
 10
883.8702866182527
 20
1971.20015626116
 10
883.8210134328603
 20
1971.263174511798
 10
883.7692596028759
 20
1971.32417195268
 10
883.7151079233873
 20
1971.383051000912
 10
883.6586450255301
 20
1971.439717462578
 10
883.5999612378962
 20
1971.494080683427
 10
883.539150442027
 20
1971.546053693904
 10
883.4763099222239
 20
1971.595553348277
 10
883.4115402099131
 20
1971.642500457659
 10
883.3449449228176
 20
1971.68681991669
 10
883.2766305991903
 20
1971.728440823691
 10
883.2067065273765
 20
1971.767296594087
 10
883.1352845709742
 20
1971.803325066937
 10
883.0624789898784
 20
1971.836468604368
 10
882.9884062574873
 20
1971.866674183791
 10
882.9131848743715
 20
1971.893893482723
 10
882.8369351786978
 20
1971.918082956092
 10
882.7597791537135
 20
1971.9392039059
 10
882.6818402325995
 20
1971.957222543133
 10
882.6032431010034
 20
1971.972110041816
 10
882.5241134975691
 20
1971.983842585126
 10
882.4445780127824
 20
1971.992401403498
 10
882.3647638864519
 20
1971.997772804646
 10
882.2847988041541
 20
1971.999948195476
 10
882.2704038260496
 20
1971.999999999996
  0
LWPOLYLINE
  5
179
330
87
100
AcDbEntity
  8
P-SANR-FIXT
100
AcDbPolyline
 90
       28
 70
   128
 43
0.0
 10
882.2704038260496
 20
2027.999999999996
 10
882.350382494423
 20
2028.001599786674
 10
882.4302332139879
 20
2028.006396587391
 10
882.5098282406276
 20
2028.014382728288
 10
882.5890402392783
 20
2028.025545433245
 10
882.6677424876399
 20
2028.039866844313
 10
882.745809078904
 20
2028.057324050292
 10
882.8231151231779
 20
2028.077889123374
 10
882.8995369472819
 20
2028.101529163831
 10
882.9749522925999
 20
2028.12820635264
 10
883.0492405106669
 20
2028.15787801199
 10
883.1222827561814
 20
2028.190496673556
 10
883.1939621771326
 20
2028.226010154437
 10
883.2641641017371
 20
2028.264361640641
 10
883.3327762218914
 20
2028.305489777969
 10
883.3996887728398
 20
2028.349328770176
 10
883.4647947087743
 20
2028.395808484227
 10
883.5279898740866
 20
2028.444854562494
 10
883.5891731699925
 20
2028.496388541714
 10
883.6482467162706
 20
2028.550327978514
 10
883.7051160078486
 20
2028.606586581302
 10
883.7596900659914
 20
2028.665074348313
 10
883.8118815838475
 20
2028.725697711598
 10
883.8616070661224
 20
2028.788359686709
 10
883.9087869626517
 20
2028.852960027851
 10
883.9533457956655
 20
2028.91939538826
 10
883.9952122805364
 20
2028.98755948553
 10
884.0024546336186
 20
2028.999999999996
  0
LINE
  5
17A
330
87
100
AcDbEntity
  8
P-SANR-FIXT
100
AcDbLine
 10
838.6664074431866
 20
1911.999999999996
 30
0.0
 11
838.6664074431866
 21
1922.708383534205
 31
0.0
  0
LINE
  5
17B
330
87
100
AcDbEntity
  8
P-SANR-FIXT
100
AcDbLine
 10
792.6664074431863
 20
1922.708383534205
 30
0.0
 11
792.6664074431863
 21
1911.999999999996
 31
0.0
  0
LINE
  5
17C
330
87
100
AcDbEntity
  8
P-SANR-FIXT
100
AcDbLine
 10
779.6664074431864
 20
1971.339745962151
 30
0.0
 11
779.6664074431864
 21
1939.999999999995
 31
0.0
  0
LINE
  5
17D
330
87
100
AcDbEntity
  8
P-SANR-FIXT
100
AcDbLine
 10
885.6664074431847
 20
2030.149999999996
 30
0.0
 11
884.6664074431867
 21
2030.149999999996
 31
0.0
  0
LINE
  5
17E
330
87
100
AcDbEntity
  8
P-SANR-FIXT
100
AcDbLine
 10
884.6664074431867
 20
1969.849999999995
 30
0.0
 11
885.6664074431847
 21
1969.849999999995
 31
0.0
  0
LINE
  5
17F
330
87
100
AcDbEntity
  8
P-SANR-FIXT
100
AcDbLine
 10
882.2704038260496
 20
2027.999999999996
 30
0.0
 11
871.8671986269143
 21
2027.999999999996
 31
0.0
  0
LINE
  5
180
330
87
100
AcDbEntity
  8
P-SANR-FIXT
100
AcDbLine
 10
759.4656162594339
 20
2027.999999999996
 30
0.0
 11
755.0624110603234
 21
2027.999999999996
 31
0.0
  0
LINE
  5
181
330
87
100
AcDbEntity
  8
P-SANR-FIXT
100
AcDbLine
 10
755.0624110603234
 20
1971.999999999995
 30
0.0
 11
779.622622188888
 21
1971.999999999995
 31
0.0
  0
LINE
  5
182
330
87
100
AcDbEntity
  8
P-SANR-FIXT
100
AcDbLine
 10
879.4833944838435
 20
1971.999999999995
 30
0.0
 11
882.2704038260496
 21
1971.999999999995
 31
0.0
  0
LINE
  5
183
330
87
100
AcDbEntity
  8
P-SANR-FIXT
100
AcDbLine
 10
752.6664074431866
 20
2030.149999999996
 30
0.0
 11
751.6664074431887
 21
2030.149999999996
 31
0.0
  0
LINE
  5
184
330
87
100
AcDbEntity
  8
P-SANR-FIXT
100
AcDbLine
 10
751.6664074431899
 20
1969.849999999995
 30
0.0
 11
752.6664074431866
 21
1969.849999999995
 31
0.0
  0
LWPOLYLINE
  5
185
330
87
100
AcDbEntity
  8
P-SANR-FIXT
100
AcDbPolyline
 90
        5
 70
   128
 43
0.0
 10
779.6664074431864
 20
1971.339745962151
 10
779.6624079764913
 20
1971.539692633085
 10
779.6504159746995
 20
1971.739319431997
 10
779.6304506224559
 20
1971.938306998596
 10
779.622622188888
 20
1971.999999999995
  0
LINE
  5
186
330
87
100
AcDbEntity
  8
P-SANR-FIXT
100
AcDbLine
 10
837.6664074431865
 20
1910.999999999996
 30
0.0
 11
838.6664074431864
 21
1911.999999999996
 31
0.0
  0
LINE
  5
187
330
87
100
AcDbEntity
  8
P-SANR-FIXT
100
AcDbLine
 10
792.6664074431865
 20
1911.999999999996
 30
0.0
 11
793.6664074431866
 21
1910.999999999996
 31
0.0
  0
LWPOLYLINE
  5
188
330
87
100
AcDbEntity
  8
P-SANR-FIXT
100
AcDbPolyline
 90
       34
 70
   128
 43
0.0
 10
792.6664074431865
 20
1922.708383534205
 10
792.6624079764913
 20
1922.908330205138
 10
792.6504159746995
 20
1923.107957004051
 10
792.6304506224559
 20
1923.30694457065
 10
792.6025438600645
 20
1923.504974567276
 10
792.5667403323926
 20
1923.701730188181
 10
792.5230973174467
 20
1923.896896666341
 10
792.4716846347404
 20
1924.090161777026
 10
792.4125845335987
 20
1924.281216337286
 10
792.3458915615761
 20
1924.46975470058
 10
792.2717124132009
 20
1924.655475245748
 10
792.1901657592863
 20
1924.838080859535
 10
792.101382057083
 20
1925.017279411912
 10
792.0055033415749
 20
1925.192784223424
 10
791.9026829982536
 20
1925.364314523809
 10
791.793085517735
 20
1925.53159590118
 10
791.6768862326081
 20
1925.694360741017
 10
791.5542710369412
 20
1925.852348654297
 10
791.425436088891
 20
1926.005306894062
 10
791.2905874968912
 20
1926.152990759758
 10
791.1499409899223
 20
1926.295163988703
 10
791.003721572393
 20
1926.431599134059
 10
790.8521631641795
 20
1926.5620779287
 10
790.6955082264039
 20
1926.686391634387
 10
790.5340073735488
 20
1926.80434137571
 10
790.3679189725271
 20
1926.915738458244
 10
790.1975087293505
 20
1927.020404670422
 10
790.0230492640553
 20
1927.11817256863
 10
789.84481967457
 20
1927.208885745088
 10
789.6631050902178
 20
1927.292399078064
 10
789.4781962155698
 20
1927.368578964041
 10
789.2903888653805
 20
1927.437303531453
 10
789.0999834913464
 20
1927.498462835651
 10
789.0552963320755
 20
1927.511610330258
  0
LWPOLYLINE
  5
189
330
87
100
AcDbEntity
  8
P-SANR-FIXT
100
AcDbPolyline
 90
       34
 70
   128
 43
0.0
 10
842.2775185542976
 20
1927.511610330258
 10
842.0865516757467
 20
1927.452227519212
 10
841.8981122294061
 20
1927.385255569756
 10
841.7125016781914
 20
1927.310801622723
 10
841.5300169593894
 20
1927.228984788545
 10
841.3509500096225
 20
1927.139935956704
 10
841.1755872978115
 20
1927.043797586334
 10
841.0042093668867
 20
1926.940723478319
 10
840.8370903849784
 20
1926.830878529245
 10
840.6744977068079
 20
1926.714438467598
 10
840.5166914459753
 20
1926.591589572637
 10
840.3639240588351
 20
1926.462528376387
 10
840.2164399406171
 20
1926.327461349232
 10
840.07447503445
 20
1926.186604569601
 10
839.9382564538985
 20
1926.040183378294
 10
839.8080021196333
 20
1925.888432017983
 10
839.6839204108035
 20
1925.731593258472
 10
839.5662098316735
 20
1925.569918008319
 10
839.4550586940598
 20
1925.403664913436
 10
839.3506448160716
 20
1925.233099943309
 10
839.2531352376394
 20
1925.058495965504
 10
839.1626859532886
 20
1924.88013230914
 10
839.0794416625787
 20
1924.698294318018
 10
839.0035355386176
 20
1924.513272894133
 10
838.9350890150106
 20
1924.325364032295
 10
838.8742115915949
 20
1924.134868346598
 10
838.8210006592608
 20
1923.942090589502
 10
838.7755413441494
 20
1923.747339164293
 10
838.7379063714675
 20
1923.550925631708
 10
838.7081559491427
 20
1923.353164211501
 10
838.6863376715046
 20
1923.154371279755
 10
838.6724864431428
 20
1922.954864862755
 10
838.6666244230681
 20
1922.75496412821
 10
838.6664074431864
 20
1922.708383534205
  0
LWPOLYLINE
  5
18A
330
87
100
AcDbEntity
  8
P-SANR-FIXT
100
AcDbPolyline
 90
       34
 70
   128
 43
0.0
 10
789.0552963320756
 20
1927.511610330258
 10
788.5587824478437
 20
1927.666005638977
 10
788.0688398873578
 20
1927.840132707562
 10
787.5862524541992
 20
1928.033712969849
 10
787.1117921853143
 20
1928.246436738712
 10
786.6462181159207
 20
1928.477963701499
 10
786.1902750652121
 20
1928.727923464461
 10
785.7446924448071
 20
1928.995916145298
 10
785.3101830918457
 20
1929.281513012891
 10
784.8874421286023
 20
1929.584257173173
 10
784.4771458504382
 20
1929.903664300073
 10
784.0799506438728
 20
1930.239223410322
 10
783.6964919365071
 20
1930.590397680927
 10
783.3273831804717
 20
1930.956625307967
 10
782.9732148710379
 20
1931.337320405364
 10
782.6345536019488
 20
1931.731873942173
 10
782.311941158991
 20
1932.139654716902
 10
782.005893653253
 20
1932.560010367299
 10
781.716900695457
 20
1932.992268413995
 10
781.4454246126872
 20
1933.435737336327
 10
781.1918997087643
 20
1933.889707678618
 10
780.9567315694521
 20
1934.353453185164
 10
780.7402964136068
 20
1934.826231962082
 10
780.5429404913077
 20
1935.307287664182
 10
780.3649795299296
 20
1935.795850704961
 10
780.2066982290483
 20
1936.291139487774
 10
780.0683498049798
 20
1936.792361656226
 10
779.9501555856904
 20
1937.298715361767
 10
779.8523046567173
 20
1937.809390546487
 10
779.774953558673
 20
1938.323570239028
 10
779.7182260368137
 20
1938.840431861566
 10
779.6822128430732
 20
1939.359148545765
 10
779.6669715908792
 20
1939.878890455582
 10
779.6664074431864
 20
1939.999999999995
  0
LWPOLYLINE
  5
18B
330
87
100
AcDbEntity
  8
P-SANR-FIXT
100
AcDbPolyline
 90
        3
 70
   128
 43
0.0
 10
842.7215173615625
 20
1927.651088983156
 10
842.3937051684017
 20
1927.545793816236
 10
842.2775185542976
 20
1927.511610330258
  0
LWPOLYLINE
  5
18C
330
87
100
AcDbEntity
  8
P-SANR-FIXT
100
AcDbPolyline
 90
       28
 70
   128
 43
0.0
 10
755.0624110603234
 20
1971.999999999995
 10
754.9824323919501
 20
1971.998400213317
 10
754.902581672385
 20
1971.993603412601
 10
754.8229866457456
 20
1971.985617271703
 10
754.743774647095
 20
1971.974454566747
 10
754.6650723987332
 20
1971.960133155678
 10
754.5870058074691
 20
1971.9426759497
 10
754.5096997631953
 20
1971.922110876617
 10
754.4332779390912
 20
1971.89847083616
 10
754.3578625937733
 20
1971.871793647352
 10
754.2835743757061
 20
1971.842121988001
 10
754.2105321301915
 20
1971.809503326435
 10
754.1388527092404
 20
1971.773989845554
 10
754.068650784636
 20
1971.735638359351
 10
754.0000386644817
 20
1971.694510222022
 10
753.9331261135333
 20
1971.650671229815
 10
753.8680201775986
 20
1971.604191515764
 10
753.8048250122864
 20
1971.555145437497
 10
753.7436417163804
 20
1971.503611458277
 10
753.6845681701024
 20
1971.449672021477
 10
753.6276988785243
 20
1971.39341341869
 10
753.5731248203818
 20
1971.334925651678
 10
753.5209333025254
 20
1971.274302288392
 10
753.4712078202508
 20
1971.211640313282
 10
753.4240279237214
 20
1971.14703997214
 10
753.3794690907074
 20
1971.080604611732
 10
753.3376026058367
 20
1971.012440514461
 10
753.3303602527544
 20
1970.999999999996
  0
LWPOLYLINE
  5
18D
330
87
100
AcDbEntity
  8
P-SANR-FIXT
100
AcDbPolyline
 90
       28
 70
   128
 43
0.0
 10
753.3303602527544
 20
2028.999999999996
 10
753.371735042845
 20
2028.931536334763
 10
753.415814553905
 20
2028.864781983467
 10
753.4625282681203
 20
2028.799843738832
 10
753.5118014535128
 20
2028.736825488194
 10
753.5635552834974
 20
2028.675828047312
 10
753.6177069629858
 20
2028.61694899908
 10
753.6741698608429
 20
2028.560282537414
 10
753.7328536484769
 20
2028.505919316565
 10
753.793664444346
 20
2028.453946306088
 10
753.8565049641491
 20
2028.404446651716
 10
753.9212746764599
 20
2028.357499542333
 10
753.9878699635557
 20
2028.313180083301
 10
754.0561842871827
 20
2028.271559176301
 10
754.1261083589965
 20
2028.232703405905
 10
754.1975303153989
 20
2028.196674933055
 10
754.2703358964947
 20
2028.163531395624
 10
754.3444086288859
 20
2028.133325816201
 10
754.4196300120014
 20
2028.106106517268
 10
754.4958797076751
 20
2028.0819170439
 10
754.5730357326594
 20
2028.060796094092
 10
754.6509746537737
 20
2028.042777456859
 10
754.7295717853698
 20
2028.027889958176
 10
754.808701388804
 20
2028.016157414866
 10
754.8882368735908
 20
2028.007598596494
 10
754.9680509999212
 20
2028.002227195345
 10
755.0480160822189
 20
2028.000051804516
 10
755.0624110603234
 20
2027.999999999996
  0
LINE
  5
18E
330
87
100
AcDbEntity
  8
P-SANR-FIXT
100
AcDbLine
 10
884.6664074431853
 20
1969.849999999995
 30
0.0
 11
884.6664074431853
 21
2030.149999999995
 31
0.0
  0
LINE
  5
18F
330
87
100
AcDbEntity
  8
P-SANR-FIXT
100
AcDbLine
 10
751.6664074431873
 20
1970.709626373877
 30
0.0
 11
751.6664074431871
 21
1972.183977209251
 31
0.0
  0
LINE
  5
190
330
87
100
AcDbEntity
  8
P-SANR-FIXT
100
AcDbLine
 10
751.6664074431871
 20
1998.468418335611
 30
0.0
 11
751.6664074431871
 21
2001.531581664375
 31
0.0
  0
LINE
  5
191
330
87
100
AcDbEntity
  8
P-SANR-FIXT
100
AcDbLine
 10
751.6664074431871
 20
2027.816022790693
 30
0.0
 11
751.6664074431873
 21
2029.290373626104
 31
0.0
  0
LINE
  5
192
330
87
100
AcDbEntity
  8
P-SANR-FIXT
100
AcDbLine
 10
792.6664074431851
 20
1911.999999999995
 30
0.0
 11
838.6664074431854
 21
1911.999999999995
 31
0.0
  0
SPLINE
  5
193
330
87
100
AcDbEntity
  8
P-SANR-FIXT
100
AcDbSpline
210
0.0
220
0.0
230
1.0
 70
     8
 71
     3
 72
    24
 73
    20
 74
     0
 42
0.000000001
 43
0.0000000001
 40
0.061940884870597
 40
0.061940884870597
 40
0.061940884870597
 40
0.061940884870597
 40
0.1428571428571428
 40
0.2142857142857143
 40
0.2857142857142857
 40
0.3035714285714286
 40
0.3214285714285714
 40
0.3571428571428571
 40
0.4285714285714286
 40
0.5
 40
0.5357142857142857
 40
0.5714285714285714
 40
0.6428571428571428
 40
0.6785714285714285
 40
0.7142857142857143
 40
0.75
 40
0.7857142857142856
 40
0.8571428571428571
 40
1.0
 40
1.0
 40
1.0
 40
1.0
 10
850.5843317523797
 20
1982.036396824355
 30
0.0
 10
850.1101448807357
 20
1982.959392043203
 30
0.0
 10
849.2276557489102
 20
1984.787697096151
 30
0.0
 10
847.9900493300732
 20
1987.738613693664
 30
0.0
 10
847.2108779438556
 20
1990.009072671683
 30
0.0
 10
846.7812356086017
 20
1991.577036043224
 30
0.0
 10
846.5075409497872
 20
1992.646239960872
 30
0.0
 10
846.0782528933297
 20
1994.56648215284
 30
0.0
 10
845.6616483492972
 20
1997.356828418178
 30
0.0
 10
845.5942506579585
 20
2000.220380366152
 30
0.0
 10
845.7179567480357
 20
2002.530797480442
 30
0.0
 10
845.9526429111168
 20
2004.77354827642
 30
0.0
 10
846.3873166010175
 20
2006.966750855974
 30
0.0
 10
846.9658074359742
 20
2009.101959832624
 30
0.0
 10
847.4401118466586
 20
2010.642444776393
 30
0.0
 10
847.9610819128737
 20
2012.126799926824
 30
0.0
 10
848.7278706552713
 20
2014.049223610312
 30
0.0
 10
850.1549898106954
 20
2017.218920424216
 30
0.0
 10
851.4205151523752
 20
2019.576750350873
 30
0.0
 10
852.245089759528
 20
2020.999999999995
 30
0.0
  0
SPLINE
  5
194
330
87
100
AcDbEntity
  8
P-SANR-FIXT
100
AcDbSpline
210
0.0
220
0.0
230
1.0
 70
     8
 71
     3
 72
    23
 73
    19
 74
     0
 42
0.000000001
 43
0.0000000001
 40
0.0
 40
0.0
 40
0.0
 40
0.0
 40
0.1428571428571428
 40
0.2142857142857143
 40
0.2857142857142857
 40
0.3214285714285714
 40
0.3571428571428571
 40
0.4285714285714286
 40
0.4642857142857144
 40
0.5
 40
0.5714285714285714
 40
0.6428571428571428
 40
0.6785714285714285
 40
0.7142857142857143
 40
0.75
 40
0.7857142857142856
 40
0.8571428571428571
 40
1.0
 40
1.0
 40
1.0
 40
1.0
 10
779.0877251268415
 20
2020.999999999995
 30
0.0
 10
779.9122997339943
 20
2019.576750350874
 30
0.0
 10
781.1757173966772
 20
2017.220428785773
 30
0.0
 10
782.8123311944878
 20
2013.593895843825
 30
0.0
 10
783.7364709634017
 20
2011.154601832657
 30
0.0
 10
784.3666623183477
 20
2009.102206964963
 30
0.0
 10
784.9456996837208
 20
2006.966605986935
 30
0.0
 10
785.3801427148649
 20
2004.773573830343
 30
0.0
 10
785.6148589944212
 20
2002.530788978338
 30
0.0
 10
785.7385883522774
 20
2000.220405824857
 30
0.0
 10
785.6709451418452
 20
1997.356641800359
 30
0.0
 10
785.2552020548568
 20
1994.567016547593
 30
0.0
 10
784.7628392391502
 20
1992.370995060741
 30
0.0
 10
784.3434397247522
 20
1990.785681137365
 30
0.0
 10
783.8659894715767
 20
1989.255471345089
 30
0.0
 10
783.1430853904262
 20
1987.265807685673
 30
0.0
 10
781.7642058516741
 20
1983.972257293464
 30
0.0
 10
780.4984586942895
 20
1981.502542761018
 30
0.0
 10
779.6525212324469
 20
1979.999999999995
 30
0.0
  0
LINE
  5
195
330
87
100
AcDbEntity
  8
P-SANR-FIXT
100
AcDbLine
 10
885.6664074431833
 20
2029.290373626112
 30
0.0
 11
885.6664074431833
 21
2027.816022790688
 31
0.0
  0
LINE
  5
196
330
87
100
AcDbEntity
  8
P-SANR-FIXT
100
AcDbLine
 10
885.6664074431833
 20
2001.531581664377
 30
0.0
 11
885.6664074431833
 21
1998.468418335613
 31
0.0
  0
LINE
  5
197
330
87
100
AcDbEntity
  8
P-SANR-FIXT
100
AcDbLine
 10
885.6664074431833
 20
1972.183977209246
 30
0.0
 11
885.6664074431833
 21
1970.709626373884
 31
0.0
  0
LINE
  5
198
330
87
100
AcDbEntity
  8
P-SANR-FIXT
100
AcDbLine
 10
752.6664074431852
 20
2030.149999999995
 30
0.0
 11
752.6664074431852
 21
1969.849999999994
 31
0.0
  0
SPLINE
  5
199
330
87
100
AcDbEntity
  8
P-SANR-FIXT
100
AcDbSpline
210
0.0
220
0.0
230
1.0
 70
     8
 71
     3
 72
    26
 73
    22
 74
     0
 42
0.000000001
 43
0.0000000001
 40
0.0
 40
0.0
 40
0.0
 40
0.0
 40
0.125
 40
0.25
 40
0.3125
 40
0.375
 40
0.4375
 40
0.46875
 40
0.484375
 40
0.5
 40
0.515625
 40
0.53125
 40
0.5625
 40
0.625
 40
0.6875
 40
0.71875
 40
0.75
 40
0.78125
 40
0.8125
 40
0.875
 40
1.0
 40
1.0
 40
1.0
 40
1.0
 10
779.6226221888867
 20
1971.999999999994
 30
0.0
 10
779.6296230832541
 20
1971.999999999994
 30
0.0
 10
779.6622367732005
 20
1972.039888145123
 30
0.0
 10
779.7409589605573
 20
1972.188742243688
 30
0.0
 10
779.8421441759859
 20
1972.366284478521
 30
0.0
 10
779.9387696935077
 20
1972.52832882958
 30
0.0
 10
780.022100298484
 20
1972.687449342051
 30
0.0
 10
780.0763901302055
 20
1972.811503640598
 30
0.0
 10
780.1056145273415
 20
1972.886027660882
 30
0.0
 10
780.1257417099789
 20
1972.943730136686
 30
0.0
 10
780.1466961153636
 20
1973.003292996407
 30
0.0
 10
780.1786717265647
 20
1973.085235422267
 30
0.0
 10
780.2405817056108
 20
1973.235165440257
 30
0.0
 10
780.3347350239972
 20
1973.467663090264
 30
0.0
 10
780.4020796777834
 20
1973.723131787292
 30
0.0
 10
780.4205340730789
 20
1973.940154648386
 30
0.0
 10
780.4095104373307
 20
1974.108803228233
 30
0.0
 10
780.3770763492466
 20
1974.28332534827
 30
0.0
 10
780.3166189782572
 20
1974.524201419647
 30
0.0
 10
780.1583637724994
 20
1974.96651463346
 30
0.0
 10
779.9350609977186
 20
1975.380060710893
 30
0.0
 10
779.7469826042921
 20
1975.669872981073
 30
0.0
  0
SPLINE
  5
19A
330
87
100
AcDbEntity
  8
P-SANR-FIXT
100
AcDbSpline
210
0.0
220
0.0
230
1.0
 70
     8
 71
     3
 72
    18
 73
    14
 74
     0
 42
0.000000001
 43
0.0000000001
 40
0.0
 40
0.0
 40
0.0
 40
0.0
 40
0.1
 40
0.2
 40
0.25
 40
0.3
 40
0.35
 40
0.4
 40
0.475
 40
0.55
 40
0.625
 40
0.7
 40
1.0
 40
1.0
 40
1.0
 40
1.0
 10
779.7469826042921
 20
1975.669872981073
 30
0.0
 10
779.6285168958386
 20
1975.779855931682
 30
0.0
 10
779.418366964813
 20
1976.00817373698
 30
0.0
 10
779.2205632129589
 20
1976.314308519812
 30
0.0
 10
779.1049765036282
 20
1976.574249600144
 30
0.0
 10
779.0399288197861
 20
1976.777107015612
 30
0.0
 10
778.9926778784241
 20
1976.985904435102
 30
0.0
 10
778.9534255447955
 20
1977.233614314729
 30
0.0
 10
778.9334914758706
 20
1977.52408543359
 30
0.0
 10
778.947475397686
 20
1977.862263562708
 30
0.0
 10
778.9895874721182
 20
1978.20546305615
 30
0.0
 10
779.1380789563743
 20
1978.90911736262
 30
0.0
 10
779.3815805585019
 20
1979.512108496583
 30
0.0
 10
779.652521232447
 20
1979.999999999995
 30
0.0
  0
LINE
  5
19B
330
87
100
AcDbEntity
  8
P-SANR-FIXT
100
AcDbLine
 10
837.666407443185
 20
1910.999999999995
 30
0.0
 11
837.5777715903049
 21
1910.999999999995
 31
0.0
  0
LINE
  5
19C
330
87
100
AcDbEntity
  8
P-SANR-FIXT
100
AcDbLine
 10
837.5671555815648
 20
1910.999999999995
 30
0.0
 11
828.4177259076484
 21
1910.999999999995
 31
0.0
  0
LINE
  5
19D
330
87
100
AcDbEntity
  8
P-SANR-FIXT
100
AcDbLine
 10
828.4087932313774
 20
1910.999999999995
 30
0.0
 11
827.1613758669358
 21
1910.999999999995
 31
0.0
  0
LINE
  5
19E
330
87
100
AcDbEntity
  8
P-SANR-FIXT
100
AcDbLine
 10
826.6737775086435
 20
1910.999999999995
 30
0.0
 11
824.8386330944891
 21
1910.999999999995
 31
0.0
  0
LINE
  5
19F
330
87
100
AcDbEntity
  8
P-SANR-FIXT
100
AcDbLine
 10
824.7981906193405
 20
1910.999999999995
 30
0.0
 11
806.5346242670292
 21
1910.999999999995
 31
0.0
  0
LINE
  5
1A0
330
87
100
AcDbEntity
  8
P-SANR-FIXT
100
AcDbLine
 10
806.4941817918827
 20
1910.999999999995
 30
0.0
 11
804.6590373777279
 21
1910.999999999995
 31
0.0
  0
LINE
  5
1A1
330
87
100
AcDbEntity
  8
P-SANR-FIXT
100
AcDbLine
 10
804.1714390194343
 20
1910.999999999995
 30
0.0
 11
802.9240216549945
 21
1910.999999999995
 31
0.0
  0
LINE
  5
1A2
330
87
100
AcDbEntity
  8
P-SANR-FIXT
100
AcDbLine
 10
802.9150889787249
 20
1910.999999999995
 30
0.0
 11
793.7656593048049
 21
1910.999999999995
 31
0.0
  0
LINE
  5
1A3
330
87
100
AcDbEntity
  8
P-SANR-FIXT
100
AcDbLine
 10
793.7550432960668
 20
1910.999999999995
 30
0.0
 11
793.6664074431852
 21
1910.999999999995
 31
0.0
  0
LINE
  5
1A4
330
87
100
AcDbEntity
  8
P-SANR-FIXT
100
AcDbLine
 10
833.161244388936
 20
2020.999999999995
 30
0.0
 11
830.810591747976
 21
2020.999999999995
 31
0.0
  0
LINE
  5
1A5
330
87
100
AcDbEntity
  8
P-SANR-FIXT
100
AcDbLine
 10
830.3920708199452
 20
2020.999999999995
 30
0.0
 11
827.8889771943015
 21
2020.999999999995
 31
0.0
  0
LINE
  5
1A6
330
87
100
AcDbEntity
  8
P-SANR-FIXT
100
AcDbLine
 10
827.5434373976851
 20
2020.999999999995
 30
0.0
 11
821.8550924069676
 21
2020.999999999995
 31
0.0
  0
LINE
  5
1A7
330
87
100
AcDbEntity
  8
P-SANR-FIXT
100
AcDbLine
 10
821.6696218543486
 20
2020.999999999995
 30
0.0
 11
818.776427701538
 21
2020.999999999995
 31
0.0
  0
LINE
  5
1A8
330
87
100
AcDbEntity
  8
P-SANR-FIXT
100
AcDbLine
 10
818.6761349112252
 20
2020.999999999995
 30
0.0
 11
815.6800094280589
 21
2020.999999999995
 31
0.0
  0
LINE
  5
1A9
330
87
100
AcDbEntity
  8
P-SANR-FIXT
100
AcDbLine
 10
815.6664074431848
 20
2020.999999999995
 30
0.0
 11
812.6566799751444
 21
2020.999999999995
 31
0.0
  0
LINE
  5
1AA
330
87
100
AcDbEntity
  8
P-SANR-FIXT
100
AcDbLine
 10
812.583474847247
 20
2020.999999999995
 30
0.0
 11
809.663193032021
 21
2020.999999999995
 31
0.0
  0
LINE
  5
1AB
330
87
100
AcDbEntity
  8
P-SANR-FIXT
100
AcDbLine
 10
809.504327865206
 20
2020.999999999995
 30
0.0
 11
806.7020995046679
 21
2020.999999999995
 31
0.0
  0
LINE
  5
1AC
330
87
100
AcDbEntity
  8
P-SANR-FIXT
100
AcDbLine
 10
806.4604202655925
 20
2020.999999999995
 30
0.0
 11
800.9407440664244
 21
2020.999999999995
 31
0.0
  0
LINE
  5
1AD
330
87
100
AcDbEntity
  8
P-SANR-FIXT
100
AcDbLine
 10
800.545583679419
 20
2020.999999999995
 30
0.0
 11
798.1715704974337
 21
2020.999999999995
 31
0.0
  0
ENDBLK
  5
1AF
330
87
100
AcDbEntity
  8
0
100
AcDbBlockEnd
  0
BLOCK
  5
25C
330
1B1
100
AcDbEntity
  8
0
100
AcDbBlockBegin
  2
Automatic flow rate regulator valve_Caleffi_121 DN15 - 1 1_2__-V1-Est - Idraulica
 70
     0
 10
0.0
 20
0.0
 30
0.0
  3
Automatic flow rate regulator valve_Caleffi_121 DN15 - 1 1_2__-V1-Est - Idraulica
  1

  0
ARC
  5
1B2
330
1B1
100
AcDbEntity
  8
P-SANR-FIXT
100
AcDbCircle
 10
815.666407443185
 20
1706.24587873007
 30
0.0
 40
51.00000000000353
100
AcDbArc
 50
0.0
 51
180.0
  0
ARC
  5
1B3
330
1B1
100
AcDbEntity
  8
P-SANR-FIXT
100
AcDbCircle
 10
815.666407443185
 20
1706.24587873007
 30
0.0
 40
51.00000000000364
100
AcDbArc
 50
180.0000000000004
 51
359.9999999999996
  0
LINE
  5
1B4
330
1B1
100
AcDbEntity
  8
P-SANR-FIXT
100
AcDbLine
 10
759.4235445474005
 20
1706.245878730093
 30
0.0
 11
760.9164074431673
 21
1663.495878730102
 31
0.0
  0
ARC
  5
1B5
330
1B1
100
AcDbEntity
  8
P-SANR-FIXT
100
AcDbCircle
 10
772.9164074431673
 20
1663.495878730093
 30
0.0
 40
12.00000000000005
100
AcDbArc
 50
179.9999999999552
 51
329.9380539879461
  0
ARC
  5
1B6
330
1B1
100
AcDbEntity
  8
P-SANR-FIXT
100
AcDbCircle
 10
786.620922848537
 20
1653.744832791359
 30
0.0
 40
4.999999999999948
100
AcDbArc
 50
61.04703880340284
 51
131.5857893014115
  0
ARC
  5
1B7
330
1B1
100
AcDbEntity
  8
P-SANR-FIXT
100
AcDbCircle
 10
815.6664074431894
 20
1706.2458787301
 30
0.0
 40
55.00000000000012
100
AcDbArc
 50
241.0470388034011
 51
298.7795006086501
  0
ARC
  5
1B8
330
1B1
100
AcDbEntity
  8
P-SANR-FIXT
100
AcDbCircle
 10
844.5528144408912
 20
1653.657139528982
 30
0.0
 40
5.00000000000009
100
AcDbArc
 50
35.36262761352914
 51
118.7795006086583
  0
ARC
  5
1B9
330
1B1
100
AcDbEntity
  8
P-SANR-FIXT
100
AcDbCircle
 10
858.416407443167
 20
1663.495878730081
 30
0.0
 40
11.99999999999995
100
AcDbArc
 50
215.3626276135236
 51
0.0000000000423395
  0
LINE
  5
1BA
330
1B1
100
AcDbEntity
  8
P-SANR-FIXT
100
AcDbLine
 10
870.4164074431671
 20
1663.495878730091
 30
0.0
 11
871.9092703389447
 21
1706.245878730082
 31
0.0
  0
LINE
  5
1BB
330
1B1
100
AcDbEntity
  8
P-SANR-FIXT
100
AcDbLine
 10
871.9092703389447
 20
1706.245878730082
 30
0.0
 11
870.4164074431785
 21
1748.995878730061
 31
0.0
  0
ARC
  5
1BC
330
1B1
100
AcDbEntity
  8
P-SANR-FIXT
100
AcDbCircle
 10
858.4164074431784
 20
1748.995878730082
 30
0.0
 40
12.00000000000005
100
AcDbArc
 50
359.9999999999017
 51
144.6373723864581
  0
ARC
  5
1BD
330
1B1
100
AcDbEntity
  8
P-SANR-FIXT
100
AcDbCircle
 10
844.5528144409045
 20
1758.834617931185
 30
0.0
 40
4.999999999999841
100
AcDbArc
 50
241.2204993913293
 51
324.6373723864632
  0
ARC
  5
1BE
330
1B1
100
AcDbEntity
  8
P-SANR-FIXT
100
AcDbCircle
 10
815.6664074431894
 20
1706.245878730075
 30
0.0
 40
54.99999999999994
100
AcDbArc
 50
61.22049939133398
 51
118.9529611965829
  0
ARC
  5
1BF
330
1B1
100
AcDbEntity
  8
P-SANR-FIXT
100
AcDbCircle
 10
786.6209228485501
 20
1758.746924668823
 30
0.0
 40
5.000000000000071
100
AcDbArc
 50
228.4142106985829
 51
298.9529611965866
  0
ARC
  5
1C0
330
1B1
100
AcDbEntity
  8
P-SANR-FIXT
100
AcDbCircle
 10
772.9164074431783
 20
1748.995878730093
 30
0.0
 40
12.00000000000008
100
AcDbArc
 50
30.06194601203826
 51
179.9999999999913
  0
LINE
  5
1C1
330
1B1
100
AcDbEntity
  8
P-SANR-FIXT
100
AcDbLine
 10
760.9164074431783
 20
1748.995878730094
 30
0.0
 11
759.4235445474005
 21
1706.245878730093
 31
0.0
  0
ARC
  5
1C2
330
1B1
100
AcDbEntity
  8
P-SANR-FIXT
100
AcDbCircle
 10
815.666407443185
 20
1706.245878730071
 30
0.0
 40
28.87310038422396
100
AcDbArc
 50
0.0000000000001145
 51
180.0000000000001
  0
ARC
  5
1C3
330
1B1
100
AcDbEntity
  8
P-SANR-FIXT
100
AcDbCircle
 10
815.666407443185
 20
1706.245878730071
 30
0.0
 40
28.87310038422372
100
AcDbArc
 50
180.0000000000007
 51
0.0000000000002036
  0
ARC
  5
1C4
330
1B1
100
AcDbEntity
  8
P-SANR-FIXT
100
AcDbCircle
 10
815.666407443185
 20
1706.245878730071
 30
0.0
 40
29.50000000000205
100
AcDbArc
 50
0.0
 51
179.9999999999991
  0
ARC
  5
1C5
330
1B1
100
AcDbEntity
  8
P-SANR-FIXT
100
AcDbCircle
 10
815.666407443185
 20
1706.245878730071
 30
0.0
 40
29.50000000000181
100
AcDbArc
 50
180.0000000000001
 51
0.0000000000001527
  0
LINE
  5
1C6
330
1B1
100
AcDbEntity
  8
P-SANR-FIXT
100
AcDbLine
 10
849.1664074432064
 20
1645.196304213987
 30
0.0
 11
850.1168329271399
 21
1644.245878730054
 31
0.0
  0
LINE
  5
1C7
330
1B1
100
AcDbEntity
  8
P-SANR-FIXT
100
AcDbLine
 10
867.2159819592335
 20
1644.245878730054
 30
0.0
 11
868.1664074431669
 21
1645.196304213987
 31
0.0
  0
LINE
  5
1C8
330
1B1
100
AcDbEntity
  8
P-SANR-FIXT
100
AcDbLine
 10
849.1664074432064
 20
1650.245878730105
 30
0.0
 11
849.1664074432064
 21
1645.196304213987
 31
0.0
  0
LINE
  5
1C9
330
1B1
100
AcDbEntity
  8
P-SANR-FIXT
100
AcDbLine
 10
868.1664074431669
 20
1645.196304213987
 30
0.0
 11
868.1664074431669
 21
1650.245878730105
 31
0.0
  0
LINE
  5
1CA
330
1B1
100
AcDbEntity
  8
P-SANR-FIXT
100
AcDbLine
 10
867.2159819592319
 20
1644.245878730053
 30
0.0
 11
850.1168329271383
 21
1644.245878730053
 31
0.0
  0
LINE
  5
1CB
330
1B1
100
AcDbEntity
  8
P-SANR-FIXT
100
AcDbLine
 10
868.1664074431655
 20
1645.196304213986
 30
0.0
 11
849.1664074432049
 21
1645.196304213986
 31
0.0
  0
LINE
  5
1CC
330
1B1
100
AcDbEntity
  8
P-SANR-FIXT
100
AcDbLine
 10
849.1664074432049
 20
1650.245878730104
 30
0.0
 11
868.1664074431655
 21
1650.245878730104
 31
0.0
  0
LINE
  5
1CD
330
1B1
100
AcDbEntity
  8
P-SANR-FIXT
100
AcDbLine
 10
763.1664074432084
 20
1645.196304213986
 30
0.0
 11
764.116832927142
 21
1644.245878730053
 31
0.0
  0
LINE
  5
1CE
330
1B1
100
AcDbEntity
  8
P-SANR-FIXT
100
AcDbLine
 10
781.2159819592356
 20
1644.245878730053
 30
0.0
 11
782.1664074431691
 21
1645.196304213986
 31
0.0
  0
LINE
  5
1CF
330
1B1
100
AcDbEntity
  8
P-SANR-FIXT
100
AcDbLine
 10
763.1664074432084
 20
1650.245878730104
 30
0.0
 11
763.1664074432084
 21
1645.196304213986
 31
0.0
  0
LINE
  5
1D0
330
1B1
100
AcDbEntity
  8
P-SANR-FIXT
100
AcDbLine
 10
782.1664074431691
 20
1645.196304213986
 30
0.0
 11
782.1664074431691
 21
1650.245878730104
 31
0.0
  0
LINE
  5
1D1
330
1B1
100
AcDbEntity
  8
P-SANR-FIXT
100
AcDbLine
 10
781.215981959234
 20
1644.245878730053
 30
0.0
 11
764.1168329271404
 21
1644.245878730053
 31
0.0
  0
LINE
  5
1D2
330
1B1
100
AcDbEntity
  8
P-SANR-FIXT
100
AcDbLine
 10
782.1664074431676
 20
1645.196304213986
 30
0.0
 11
763.166407443207
 21
1645.196304213986
 31
0.0
  0
LINE
  5
1D3
330
1B1
100
AcDbEntity
  8
P-SANR-FIXT
100
AcDbLine
 10
763.166407443207
 20
1650.245878730103
 30
0.0
 11
782.1664074431676
 21
1650.245878730103
 31
0.0
  0
LINE
  5
1D4
330
1B1
100
AcDbEntity
  8
P-SANR-FIXT
100
AcDbLine
 10
850.1168329271393
 20
1768.24587873009
 30
0.0
 11
849.166407443206
 21
1767.295453246156
 31
0.0
  0
LINE
  5
1D5
330
1B1
100
AcDbEntity
  8
P-SANR-FIXT
100
AcDbLine
 10
868.1664074431667
 20
1767.295453246156
 30
0.0
 11
867.215981959233
 21
1768.24587873009
 31
0.0
  0
LINE
  5
1D6
330
1B1
100
AcDbEntity
  8
P-SANR-FIXT
100
AcDbLine
 10
849.166407443206
 20
1767.295453246156
 30
0.0
 11
849.1664074432058
 21
1762.245878730039
 31
0.0
  0
LINE
  5
1D7
330
1B1
100
AcDbEntity
  8
P-SANR-FIXT
100
AcDbLine
 10
868.1664074431665
 20
1762.245878730039
 30
0.0
 11
868.1664074431663
 21
1767.295453246156
 31
0.0
  0
LINE
  5
1D8
330
1B1
100
AcDbEntity
  8
P-SANR-FIXT
100
AcDbLine
 10
868.1664074431649
 20
1762.245878730038
 30
0.0
 11
849.1664074432044
 21
1762.245878730038
 31
0.0
  0
LINE
  5
1D9
330
1B1
100
AcDbEntity
  8
P-SANR-FIXT
100
AcDbLine
 10
850.1168329271377
 20
1768.245878730089
 30
0.0
 11
867.2159819592314
 21
1768.245878730089
 31
0.0
  0
LINE
  5
1DA
330
1B1
100
AcDbEntity
  8
P-SANR-FIXT
100
AcDbLine
 10
849.1664074432044
 20
1767.295453246155
 30
0.0
 11
868.1664074431649
 21
1767.295453246155
 31
0.0
  0
LINE
  5
1DB
330
1B1
100
AcDbEntity
  8
P-SANR-FIXT
100
AcDbLine
 10
764.1168329271414
 20
1768.245878730089
 30
0.0
 11
763.1664074432078
 21
1767.295453246156
 31
0.0
  0
LINE
  5
1DC
330
1B1
100
AcDbEntity
  8
P-SANR-FIXT
100
AcDbLine
 10
782.1664074431684
 20
1767.295453246156
 30
0.0
 11
781.2159819592351
 21
1768.245878730089
 31
0.0
  0
LINE
  5
1DD
330
1B1
100
AcDbEntity
  8
P-SANR-FIXT
100
AcDbLine
 10
763.1664074432078
 20
1767.295453246156
 30
0.0
 11
763.1664074432079
 21
1762.245878730038
 31
0.0
  0
LINE
  5
1DE
330
1B1
100
AcDbEntity
  8
P-SANR-FIXT
100
AcDbLine
 10
782.1664074431684
 20
1762.245878730038
 30
0.0
 11
782.1664074431684
 21
1767.295453246156
 31
0.0
  0
LINE
  5
1DF
330
1B1
100
AcDbEntity
  8
P-SANR-FIXT
100
AcDbLine
 10
782.166407443167
 20
1762.245878730037
 30
0.0
 11
763.1664074432064
 21
1762.245878730037
 31
0.0
  0
LINE
  5
1E0
330
1B1
100
AcDbEntity
  8
P-SANR-FIXT
100
AcDbLine
 10
764.1168329271398
 20
1768.245878730088
 30
0.0
 11
781.2159819592335
 21
1768.245878730088
 31
0.0
  0
LINE
  5
1E1
330
1B1
100
AcDbEntity
  8
P-SANR-FIXT
100
AcDbLine
 10
763.1664074432064
 20
1767.295453246155
 30
0.0
 11
782.166407443167
 21
1767.295453246155
 31
0.0
  0
LINE
  5
1E2
330
1B1
100
AcDbEntity
  8
P-SANR-FIXT
100
AcDbLine
 10
725.666407443187
 20
1706.24587873007
 30
0.0
 11
725.666407443187
 21
1722.74587873008
 31
0.0
  0
LINE
  5
1E3
330
1B1
100
AcDbEntity
  8
P-SANR-FIXT
100
AcDbLine
 10
725.666407443187
 20
1722.74587873008
 30
0.0
 11
725.6664074431878
 21
1739.245878730088
 31
0.0
  0
LINE
  5
1E4
330
1B1
100
AcDbEntity
  8
P-SANR-FIXT
100
AcDbLine
 10
725.666407443188
 20
1673.245878730052
 30
0.0
 11
725.6664074431872
 21
1689.745878730062
 31
0.0
  0
LINE
  5
1E5
330
1B1
100
AcDbEntity
  8
P-SANR-FIXT
100
AcDbLine
 10
725.6664074431872
 20
1689.745878730061
 30
0.0
 11
725.666407443187
 21
1706.24587873007
 31
0.0
  0
LINE
  5
1E6
330
1B1
100
AcDbEntity
  8
P-SANR-FIXT
100
AcDbLine
 10
751.6664074431876
 20
1739.245878730077
 30
0.0
 11
751.6664074431868
 21
1722.745878730075
 31
0.0
  0
LINE
  5
1E7
330
1B1
100
AcDbEntity
  8
P-SANR-FIXT
100
AcDbLine
 10
751.6664074431868
 20
1722.745878730075
 30
0.0
 11
751.6664074431868
 21
1706.245878730071
 31
0.0
  0
LINE
  5
1E8
330
1B1
100
AcDbEntity
  8
P-SANR-FIXT
100
AcDbLine
 10
751.6664074431868
 20
1706.24587873007
 30
0.0
 11
751.666407443187
 21
1689.745878730067
 31
0.0
  0
LINE
  5
1E9
330
1B1
100
AcDbEntity
  8
P-SANR-FIXT
100
AcDbLine
 10
751.666407443187
 20
1689.745878730067
 30
0.0
 11
751.6664074431878
 21
1673.245878730063
 31
0.0
  0
LINE
  5
1EA
330
1B1
100
AcDbEntity
  8
P-SANR-FIXT
100
AcDbLine
 10
727.3984582507731
 20
1673.245878730027
 30
0.0
 11
749.9343566355957
 21
1673.245878730027
 31
0.0
  0
LINE
  5
1EB
330
1B1
100
AcDbEntity
  8
P-SANR-FIXT
100
AcDbLine
 10
749.934356635633
 20
1673.245878730027
 30
0.0
 11
749.9343566356328
 21
1677.285942935652
 31
0.0
  0
LINE
  5
1EC
330
1B1
100
AcDbEntity
  8
P-SANR-FIXT
100
AcDbLine
 10
727.3984582507355
 20
1677.285942935652
 30
0.0
 11
727.3984582507357
 21
1673.245878730027
 31
0.0
  0
SPLINE
  5
1ED
330
1B1
100
AcDbEntity
  8
P-SANR-FIXT
100
AcDbSpline
210
0.0
220
0.0
230
1.0
 70
    24
 71
     3
 72
     9
 73
     5
 74
     0
 42
0.000000001
 43
0.0000000001
 40
0.0
 40
0.0
 40
0.0
 40
0.0
 40
0.5
 40
1.0
 40
1.0
 40
1.0
 40
1.0
 10
727.3984582507731
 20
1673.245878730027
 30
0.0
 10
726.8346931681334
 20
1673.245878730027
 30
0.0
 10
725.9822529508959
 20
1673.245878730027
 30
0.0
 10
725.6799926297433
 20
1673.245878730027
 30
0.0
 10
725.666407443188
 20
1673.245878730027
 30
0.0
  0
SPLINE
  5
1EE
330
1B1
100
AcDbEntity
  8
P-SANR-FIXT
100
AcDbSpline
210
0.0
220
0.0
230
1.0
 70
    24
 71
     3
 72
     9
 73
     5
 74
     0
 42
0.000000001
 43
0.0000000001
 40
0.0
 40
0.0
 40
0.0
 40
0.0
 40
0.5
 40
1.0
 40
1.0
 40
1.0
 40
1.0
 10
751.6664074431878
 20
1673.245878730027
 30
0.0
 10
751.6528222566293
 20
1673.245878730027
 30
0.0
 10
751.3505619354722
 20
1673.245878730027
 30
0.0
 10
750.4981217182346
 20
1673.245878730027
 30
0.0
 10
749.9343566355957
 20
1673.245878730027
 30
0.0
  0
SPLINE
  5
1EF
330
1B1
100
AcDbEntity
  8
P-SANR-FIXT
100
AcDbSpline
210
0.0
220
0.0
230
1.0
 70
    24
 71
     3
 72
     9
 73
     5
 74
     0
 42
0.000000001
 43
0.0000000001
 40
0.0
 40
0.0
 40
0.0
 40
0.0
 40
0.5
 40
1.0
 40
1.0
 40
1.0
 40
1.0
 10
725.6664074431878
 20
1739.245878730053
 30
0.0
 10
725.6799926297248
 20
1739.245878730053
 30
0.0
 10
725.9822529508469
 20
1739.245878730053
 30
0.0
 10
726.8346931680653
 20
1739.245878730053
 30
0.0
 10
727.3984582506986
 20
1739.245878730053
 30
0.0
  0
LINE
  5
1F0
330
1B1
100
AcDbEntity
  8
P-SANR-FIXT
100
AcDbLine
 10
727.3984582506986
 20
1739.245878730053
 30
0.0
 11
749.9343566356697
 21
1739.245878730053
 31
0.0
  0
SPLINE
  5
1F1
330
1B1
100
AcDbEntity
  8
P-SANR-FIXT
100
AcDbSpline
210
0.0
220
0.0
230
1.0
 70
    24
 71
     3
 72
     9
 73
     5
 74
     0
 42
0.000000001
 43
0.0000000001
 40
0.0
 40
0.0
 40
0.0
 40
0.0
 40
0.5
 40
1.0
 40
1.0
 40
1.0
 40
1.0
 10
749.9343566356697
 20
1739.245878730053
 30
0.0
 10
750.498121718302
 20
1739.245878730053
 30
0.0
 10
751.3505619355206
 20
1739.245878730053
 30
0.0
 10
751.6528222566472
 20
1739.245878730053
 30
0.0
 10
751.6664074431876
 20
1739.245878730053
 30
0.0
  0
LINE
  5
1F2
330
1B1
100
AcDbEntity
  8
P-SANR-FIXT
100
AcDbLine
 10
727.3984582507353
 20
1739.245878730053
 30
0.0
 11
727.3984582507353
 21
1735.205814524289
 31
0.0
  0
LINE
  5
1F3
330
1B1
100
AcDbEntity
  8
P-SANR-FIXT
100
AcDbLine
 10
727.398458250703
 20
1735.205814524289
 30
0.0
 11
749.9343566356648
 21
1735.205814524289
 31
0.0
  0
LINE
  5
1F4
330
1B1
100
AcDbEntity
  8
P-SANR-FIXT
100
AcDbLine
 10
749.9343566356326
 20
1735.205814524289
 30
0.0
 11
749.9343566356327
 21
1739.245878730053
 31
0.0
  0
SPLINE
  5
1F5
330
1B1
100
AcDbEntity
  8
P-SANR-FIXT
100
AcDbSpline
210
0.0
220
0.0
230
1.0
 70
     8
 71
     3
 72
     9
 73
     5
 74
     0
 42
0.000000001
 43
0.0000000001
 40
0.0
 40
0.0
 40
0.0
 40
0.0
 40
0.5
 40
1.0
 40
1.0
 40
1.0
 40
1.0
 10
727.398458250703
 20
1735.205814524289
 30
0.0
 10
726.8346931680727
 20
1733.157002045051
 30
0.0
 10
725.9822529508563
 20
1729.03153360011
 30
0.0
 10
725.6799926297286
 20
1724.850378182238
 30
0.0
 10
725.666407443187
 20
1722.74587873007
 30
0.0
  0
SPLINE
  5
1F6
330
1B1
100
AcDbEntity
  8
P-SANR-FIXT
100
AcDbSpline
210
0.0
220
0.0
230
1.0
 70
     8
 71
     3
 72
     9
 73
     5
 74
     0
 42
0.000000001
 43
0.0000000001
 40
0.0
 40
0.0
 40
0.0
 40
0.0
 40
0.5
 40
1.0
 40
1.0
 40
1.0
 40
1.0
 10
725.666407443187
 20
1722.74587873007
 30
0.0
 10
725.6799926297292
 20
1720.641379277884
 30
0.0
 10
725.9822529508619
 20
1716.460223859977
 30
0.0
 10
726.8346931680918
 20
1712.334755415
 30
0.0
 10
727.3984582507311
 20
1710.285942935744
 30
0.0
  0
LINE
  5
1F7
330
1B1
100
AcDbEntity
  8
P-SANR-FIXT
100
AcDbLine
 10
727.3984582507311
 20
1710.285942935744
 30
0.0
 11
749.9343566356363
 21
1710.285942935744
 31
0.0
  0
SPLINE
  5
1F8
330
1B1
100
AcDbEntity
  8
P-SANR-FIXT
100
AcDbSpline
210
0.0
220
0.0
230
1.0
 70
     8
 71
     3
 72
     9
 73
     5
 74
     0
 42
0.000000001
 43
0.0000000001
 40
0.0
 40
0.0
 40
0.0
 40
0.0
 40
0.5
 40
1.0
 40
1.0
 40
1.0
 40
1.0
 10
749.9343566356363
 20
1710.285942935744
 30
0.0
 10
750.4981217182745
 20
1712.334755415
 30
0.0
 10
751.3505619355044
 20
1716.460223859977
 30
0.0
 10
751.6528222566416
 20
1720.641379277884
 30
0.0
 10
751.6664074431868
 20
1722.74587873007
 30
0.0
  0
SPLINE
  5
1F9
330
1B1
100
AcDbEntity
  8
P-SANR-FIXT
100
AcDbSpline
210
0.0
220
0.0
230
1.0
 70
     8
 71
     3
 72
     9
 73
     5
 74
     0
 42
0.000000001
 43
0.0000000001
 40
0.0
 40
0.0
 40
0.0
 40
0.0
 40
0.5
 40
1.0
 40
1.0
 40
1.0
 40
1.0
 10
751.6664074431868
 20
1722.74587873007
 30
0.0
 10
751.652822256642
 20
1724.850378182238
 30
0.0
 10
751.3505619355101
 20
1729.031533600109
 30
0.0
 10
750.4981217182939
 20
1733.157002045051
 30
0.0
 10
749.9343566356648
 20
1735.205814524289
 30
0.0
  0
LINE
  5
1FA
330
1B1
100
AcDbEntity
  8
P-SANR-FIXT
100
AcDbLine
 10
727.3984582507349
 20
1710.285942935744
 30
0.0
 11
727.3984582507349
 21
1706.24587873007
 31
0.0
  0
LINE
  5
1FB
330
1B1
100
AcDbEntity
  8
P-SANR-FIXT
100
AcDbLine
 10
727.3984582507349
 20
1706.24587873007
 30
0.0
 11
727.3984582507349
 21
1702.205814524354
 31
0.0
  0
LINE
  5
1FC
330
1B1
100
AcDbEntity
  8
P-SANR-FIXT
100
AcDbLine
 10
727.3984582507401
 20
1702.205814524355
 30
0.0
 11
749.9343566356271
 21
1702.205814524355
 31
0.0
  0
LINE
  5
1FD
330
1B1
100
AcDbEntity
  8
P-SANR-FIXT
100
AcDbLine
 10
749.9343566356323
 20
1702.205814524354
 30
0.0
 11
749.9343566356323
 21
1706.24587873007
 31
0.0
  0
LINE
  5
1FE
330
1B1
100
AcDbEntity
  8
P-SANR-FIXT
100
AcDbLine
 10
749.9343566356323
 20
1706.24587873007
 30
0.0
 11
749.9343566356323
 21
1710.285942935744
 31
0.0
  0
SPLINE
  5
1FF
330
1B1
100
AcDbEntity
  8
P-SANR-FIXT
100
AcDbSpline
210
0.0
220
0.0
230
1.0
 70
     8
 71
     3
 72
     9
 73
     5
 74
     0
 42
0.000000001
 43
0.0000000001
 40
0.0
 40
0.0
 40
0.0
 40
0.0
 40
0.5
 40
1.0
 40
1.0
 40
1.0
 40
1.0
 10
727.3984582507401
 20
1702.205814524355
 30
0.0
 10
726.8346931681065
 20
1700.157002045103
 30
0.0
 10
725.9822529508808
 20
1696.031533600135
 30
0.0
 10
725.6799926297378
 20
1691.850378182238
 30
0.0
 10
725.6664074431872
 20
1689.745878730056
 30
0.0
  0
SPLINE
  5
200
330
1B1
100
AcDbEntity
  8
P-SANR-FIXT
100
AcDbSpline
210
0.0
220
0.0
230
1.0
 70
     8
 71
     3
 72
     9
 73
     5
 74
     0
 42
0.000000001
 43
0.0000000001
 40
0.0
 40
0.0
 40
0.0
 40
0.0
 40
0.5
 40
1.0
 40
1.0
 40
1.0
 40
1.0
 10
725.6664074431872
 20
1689.745878730056
 30
0.0
 10
725.6799926297385
 20
1687.641379277857
 30
0.0
 10
725.9822529508866
 20
1683.460223859923
 30
0.0
 10
726.8346931681261
 20
1679.33475541492
 30
0.0
 10
727.3984582507686
 20
1677.285942935652
 30
0.0
  0
LINE
  5
201
330
1B1
100
AcDbEntity
  8
P-SANR-FIXT
100
AcDbLine
 10
749.9343566355998
 20
1677.285942935652
 30
0.0
 11
727.3984582507686
 21
1677.285942935652
 31
0.0
  0
SPLINE
  5
202
330
1B1
100
AcDbEntity
  8
P-SANR-FIXT
100
AcDbSpline
210
0.0
220
0.0
230
1.0
 70
     8
 71
     3
 72
     9
 73
     5
 74
     0
 42
0.000000001
 43
0.0000000001
 40
0.0
 40
0.0
 40
0.0
 40
0.0
 40
0.5
 40
1.0
 40
1.0
 40
1.0
 40
1.0
 10
749.9343566355998
 20
1677.285942935652
 30
0.0
 10
750.4981217182412
 20
1679.33475541492
 30
0.0
 10
751.3505619354804
 20
1683.460223859923
 30
0.0
 10
751.6528222566327
 20
1687.641379277857
 30
0.0
 10
751.666407443187
 20
1689.745878730056
 30
0.0
  0
SPLINE
  5
203
330
1B1
100
AcDbEntity
  8
P-SANR-FIXT
100
AcDbSpline
210
0.0
220
0.0
230
1.0
 70
     8
 71
     3
 72
     9
 73
     5
 74
     0
 42
0.000000001
 43
0.0000000001
 40
0.0
 40
0.0
 40
0.0
 40
0.0
 40
0.5
 40
1.0
 40
1.0
 40
1.0
 40
1.0
 10
751.666407443187
 20
1689.745878730056
 30
0.0
 10
751.652822256633
 20
1691.850378182237
 30
0.0
 10
751.3505619354857
 20
1696.031533600135
 30
0.0
 10
750.4981217182598
 20
1700.157002045103
 30
0.0
 10
749.9343566356271
 20
1702.205814524355
 30
0.0
  0
LINE
  5
204
330
1B1
100
AcDbEntity
  8
P-SANR-FIXT
100
AcDbLine
 10
911.6664074431829
 20
1739.245878730089
 30
0.0
 11
911.6664074431829
 21
1722.745878730081
 31
0.0
  0
LINE
  5
205
330
1B1
100
AcDbEntity
  8
P-SANR-FIXT
100
AcDbLine
 10
911.6664074431829
 20
1722.745878730081
 30
0.0
 11
911.6664074431831
 21
1706.245878730072
 31
0.0
  0
LINE
  5
206
330
1B1
100
AcDbEntity
  8
P-SANR-FIXT
100
AcDbLine
 10
911.6664074431831
 20
1706.24587873007
 30
0.0
 11
911.6664074431831
 21
1689.745878730062
 31
0.0
  0
LINE
  5
207
330
1B1
100
AcDbEntity
  8
P-SANR-FIXT
100
AcDbLine
 10
911.6664074431831
 20
1689.745878730062
 30
0.0
 11
911.6664074431831
 21
1673.245878730053
 31
0.0
  0
LINE
  5
208
330
1B1
100
AcDbEntity
  8
P-SANR-FIXT
100
AcDbLine
 10
885.6664074431831
 20
1706.245878730071
 30
0.0
 11
885.6664074431829
 21
1722.745878730075
 31
0.0
  0
LINE
  5
209
330
1B1
100
AcDbEntity
  8
P-SANR-FIXT
100
AcDbLine
 10
885.6664074431829
 20
1722.745878730075
 30
0.0
 11
885.6664074431829
 21
1739.245878730078
 31
0.0
  0
LINE
  5
20A
330
1B1
100
AcDbEntity
  8
P-SANR-FIXT
100
AcDbLine
 10
885.6664074431833
 20
1673.245878730064
 30
0.0
 11
885.6664074431833
 21
1689.745878730068
 31
0.0
  0
LINE
  5
20B
330
1B1
100
AcDbEntity
  8
P-SANR-FIXT
100
AcDbLine
 10
885.6664074431833
 20
1689.745878730067
 30
0.0
 11
885.6664074431831
 21
1706.24587873007
 31
0.0
  0
LINE
  5
20C
330
1B1
100
AcDbEntity
  8
P-SANR-FIXT
100
AcDbLine
 10
909.934356635602
 20
1677.285942935653
 30
0.0
 11
887.3984582507707
 21
1677.285942935653
 31
0.0
  0
LINE
  5
20D
330
1B1
100
AcDbEntity
  8
P-SANR-FIXT
100
AcDbLine
 10
887.3984582507377
 20
1677.285942935653
 30
0.0
 11
887.3984582507377
 21
1673.245878730027
 31
0.0
  0
LINE
  5
20E
330
1B1
100
AcDbEntity
  8
P-SANR-FIXT
100
AcDbLine
 10
909.9343566356351
 20
1673.245878730027
 30
0.0
 11
909.9343566356351
 21
1677.285942935652
 31
0.0
  0
LINE
  5
20F
330
1B1
100
AcDbEntity
  8
P-SANR-FIXT
100
AcDbLine
 10
887.3984582507752
 20
1673.245878730027
 30
0.0
 11
909.9343566355976
 21
1673.245878730027
 31
0.0
  0
SPLINE
  5
210
330
1B1
100
AcDbEntity
  8
P-SANR-FIXT
100
AcDbSpline
210
0.0
220
0.0
230
1.0
 70
    24
 71
     3
 72
     9
 73
     5
 74
     0
 42
0.000000001
 43
0.0000000001
 40
0.0
 40
0.0
 40
0.0
 40
0.0
 40
0.5
 40
1.0
 40
1.0
 40
1.0
 40
1.0
 10
887.3984582507752
 20
1673.245878730027
 30
0.0
 10
886.8346931681362
 20
1673.245878730027
 30
0.0
 10
885.9822529508987
 20
1673.245878730027
 30
0.0
 10
885.6799926297417
 20
1673.245878730027
 30
0.0
 10
885.6664074431833
 20
1673.245878730027
 30
0.0
  0
SPLINE
  5
211
330
1B1
100
AcDbEntity
  8
P-SANR-FIXT
100
AcDbSpline
210
0.0
220
0.0
230
1.0
 70
    24
 71
     3
 72
     9
 73
     5
 74
     0
 42
0.000000001
 43
0.0000000001
 40
0.0
 40
0.0
 40
0.0
 40
0.0
 40
0.5
 40
1.0
 40
1.0
 40
1.0
 40
1.0
 10
911.6664074431831
 20
1673.245878730027
 30
0.0
 10
911.6528222566278
 20
1673.245878730027
 30
0.0
 10
911.350561935475
 20
1673.245878730027
 30
0.0
 10
910.4981217182375
 20
1673.245878730027
 30
0.0
 10
909.9343566355976
 20
1673.245878730027
 30
0.0
  0
SPLINE
  5
212
330
1B1
100
AcDbEntity
  8
P-SANR-FIXT
100
AcDbSpline
210
0.0
220
0.0
230
1.0
 70
    24
 71
     3
 72
     9
 73
     5
 74
     0
 42
0.000000001
 43
0.0000000001
 40
0.0
 40
0.0
 40
0.0
 40
0.0
 40
0.5
 40
1.0
 40
1.0
 40
1.0
 40
1.0
 10
885.6664074431829
 20
1739.245878730053
 30
0.0
 10
885.6799926297233
 20
1739.245878730053
 30
0.0
 10
885.9822529508498
 20
1739.245878730053
 30
0.0
 10
886.8346931680683
 20
1739.245878730053
 30
0.0
 10
887.3984582507004
 20
1739.245878730053
 30
0.0
  0
SPLINE
  5
213
330
1B1
100
AcDbEntity
  8
P-SANR-FIXT
100
AcDbSpline
210
0.0
220
0.0
230
1.0
 70
    24
 71
     3
 72
     9
 73
     5
 74
     0
 42
0.000000001
 43
0.0000000001
 40
0.0
 40
0.0
 40
0.0
 40
0.0
 40
0.5
 40
1.0
 40
1.0
 40
1.0
 40
1.0
 10
909.9343566356717
 20
1739.245878730053
 30
0.0
 10
910.498121718305
 20
1739.245878730053
 30
0.0
 10
911.3505619355233
 20
1739.245878730053
 30
0.0
 10
911.6528222566458
 20
1739.245878730053
 30
0.0
 10
911.6664074431829
 20
1739.245878730053
 30
0.0
  0
LINE
  5
214
330
1B1
100
AcDbEntity
  8
P-SANR-FIXT
100
AcDbLine
 10
887.3984582507004
 20
1739.245878730053
 30
0.0
 11
909.9343566356717
 21
1739.245878730053
 31
0.0
  0
LINE
  5
215
330
1B1
100
AcDbEntity
  8
P-SANR-FIXT
100
AcDbLine
 10
887.3984582507373
 20
1739.245878730053
 30
0.0
 11
887.3984582507373
 21
1735.20581452429
 31
0.0
  0
LINE
  5
216
330
1B1
100
AcDbEntity
  8
P-SANR-FIXT
100
AcDbLine
 10
909.9343566356347
 20
1735.20581452429
 30
0.0
 11
909.9343566356347
 21
1739.245878730053
 31
0.0
  0
LINE
  5
217
330
1B1
100
AcDbEntity
  8
P-SANR-FIXT
100
AcDbLine
 10
887.3984582507052
 20
1735.20581452429
 30
0.0
 11
909.9343566356669
 21
1735.20581452429
 31
0.0
  0
SPLINE
  5
218
330
1B1
100
AcDbEntity
  8
P-SANR-FIXT
100
AcDbSpline
210
0.0
220
0.0
230
1.0
 70
     8
 71
     3
 72
     9
 73
     5
 74
     0
 42
0.000000001
 43
0.0000000001
 40
0.0
 40
0.0
 40
0.0
 40
0.0
 40
0.5
 40
1.0
 40
1.0
 40
1.0
 40
1.0
 10
887.3984582507052
 20
1735.20581452429
 30
0.0
 10
886.8346931680759
 20
1733.157002045051
 30
0.0
 10
885.9822529508599
 20
1729.03153360011
 30
0.0
 10
885.6799926297279
 20
1724.850378182239
 30
0.0
 10
885.6664074431829
 20
1722.745878730071
 30
0.0
  0
SPLINE
  5
219
330
1B1
100
AcDbEntity
  8
P-SANR-FIXT
100
AcDbSpline
210
0.0
220
0.0
230
1.0
 70
     8
 71
     3
 72
     9
 73
     5
 74
     0
 42
0.000000001
 43
0.0000000001
 40
0.0
 40
0.0
 40
0.0
 40
0.0
 40
0.5
 40
1.0
 40
1.0
 40
1.0
 40
1.0
 10
885.6664074431829
 20
1722.745878730071
 30
0.0
 10
885.6799926297284
 20
1720.641379277885
 30
0.0
 10
885.9822529508656
 20
1716.460223859978
 30
0.0
 10
886.8346931680955
 20
1712.334755415001
 30
0.0
 10
887.3984582507336
 20
1710.285942935745
 30
0.0
  0
SPLINE
  5
21A
330
1B1
100
AcDbEntity
  8
P-SANR-FIXT
100
AcDbSpline
210
0.0
220
0.0
230
1.0
 70
     8
 71
     3
 72
     9
 73
     5
 74
     0
 42
0.000000001
 43
0.0000000001
 40
0.0
 40
0.0
 40
0.0
 40
0.0
 40
0.5
 40
1.0
 40
1.0
 40
1.0
 40
1.0
 10
909.9343566356388
 20
1710.285942935745
 30
0.0
 10
910.498121718278
 20
1712.334755415001
 30
0.0
 10
911.350561935508
 20
1716.460223859977
 30
0.0
 10
911.6528222566408
 20
1720.641379277885
 30
0.0
 10
911.6664074431829
 20
1722.745878730071
 30
0.0
  0
SPLINE
  5
21B
330
1B1
100
AcDbEntity
  8
P-SANR-FIXT
100
AcDbSpline
210
0.0
220
0.0
230
1.0
 70
     8
 71
     3
 72
     9
 73
     5
 74
     0
 42
0.000000001
 43
0.0000000001
 40
0.0
 40
0.0
 40
0.0
 40
0.0
 40
0.5
 40
1.0
 40
1.0
 40
1.0
 40
1.0
 10
911.6664074431829
 20
1722.745878730071
 30
0.0
 10
911.6528222566412
 20
1724.850378182239
 30
0.0
 10
911.3505619355136
 20
1729.03153360011
 30
0.0
 10
910.4981217182972
 20
1733.157002045051
 30
0.0
 10
909.9343566356669
 20
1735.20581452429
 30
0.0
  0
LINE
  5
21C
330
1B1
100
AcDbEntity
  8
P-SANR-FIXT
100
AcDbLine
 10
887.3984582507336
 20
1710.285942935745
 30
0.0
 11
909.9343566356388
 21
1710.285942935745
 31
0.0
  0
LINE
  5
21D
330
1B1
100
AcDbEntity
  8
P-SANR-FIXT
100
AcDbLine
 10
887.3984582507375
 20
1710.285942935745
 30
0.0
 11
887.3984582507375
 21
1706.245878730071
 31
0.0
  0
LINE
  5
21E
330
1B1
100
AcDbEntity
  8
P-SANR-FIXT
100
AcDbLine
 10
887.3984582507375
 20
1706.24587873007
 30
0.0
 11
887.3984582507375
 21
1702.205814524355
 31
0.0
  0
LINE
  5
21F
330
1B1
100
AcDbEntity
  8
P-SANR-FIXT
100
AcDbLine
 10
909.9343566356349
 20
1702.205814524355
 30
0.0
 11
909.9343566356349
 21
1706.24587873007
 31
0.0
  0
LINE
  5
220
330
1B1
100
AcDbEntity
  8
P-SANR-FIXT
100
AcDbLine
 10
909.9343566356349
 20
1706.24587873007
 30
0.0
 11
909.9343566356349
 21
1710.285942935745
 31
0.0
  0
SPLINE
  5
221
330
1B1
100
AcDbEntity
  8
P-SANR-FIXT
100
AcDbSpline
210
0.0
220
0.0
230
1.0
 70
     8
 71
     3
 72
     9
 73
     5
 74
     0
 42
0.000000001
 43
0.0000000001
 40
0.0
 40
0.0
 40
0.0
 40
0.0
 40
0.5
 40
1.0
 40
1.0
 40
1.0
 40
1.0
 10
909.934356635602
 20
1677.285942935652
 30
0.0
 10
910.4981217182444
 20
1679.334755414921
 30
0.0
 10
911.3505619354837
 20
1683.460223859924
 30
0.0
 10
911.6528222566319
 20
1687.641379277857
 30
0.0
 10
911.6664074431831
 20
1689.745878730056
 30
0.0
  0
SPLINE
  5
222
330
1B1
100
AcDbEntity
  8
P-SANR-FIXT
100
AcDbSpline
210
0.0
220
0.0
230
1.0
 70
     8
 71
     3
 72
     9
 73
     5
 74
     0
 42
0.000000001
 43
0.0000000001
 40
0.0
 40
0.0
 40
0.0
 40
0.0
 40
0.5
 40
1.0
 40
1.0
 40
1.0
 40
1.0
 10
911.6664074431831
 20
1689.745878730056
 30
0.0
 10
911.6528222566323
 20
1691.850378182238
 30
0.0
 10
911.3505619354892
 20
1696.031533600136
 30
0.0
 10
910.4981217182633
 20
1700.157002045104
 30
0.0
 10
909.9343566356298
 20
1702.205814524356
 30
0.0
  0
LINE
  5
223
330
1B1
100
AcDbEntity
  8
P-SANR-FIXT
100
AcDbLine
 10
887.3984582507429
 20
1702.205814524356
 30
0.0
 11
909.9343566356298
 21
1702.205814524356
 31
0.0
  0
SPLINE
  5
224
330
1B1
100
AcDbEntity
  8
P-SANR-FIXT
100
AcDbSpline
210
0.0
220
0.0
230
1.0
 70
     8
 71
     3
 72
     9
 73
     5
 74
     0
 42
0.000000001
 43
0.0000000001
 40
0.0
 40
0.0
 40
0.0
 40
0.0
 40
0.5
 40
1.0
 40
1.0
 40
1.0
 40
1.0
 10
887.3984582507429
 20
1702.205814524356
 30
0.0
 10
886.83469316811
 20
1700.157002045104
 30
0.0
 10
885.9822529508843
 20
1696.031533600136
 30
0.0
 10
885.679992629737
 20
1691.850378182238
 30
0.0
 10
885.6664074431833
 20
1689.745878730056
 30
0.0
  0
SPLINE
  5
225
330
1B1
100
AcDbEntity
  8
P-SANR-FIXT
100
AcDbSpline
210
0.0
220
0.0
230
1.0
 70
     8
 71
     3
 72
     9
 73
     5
 74
     0
 42
0.000000001
 43
0.0000000001
 40
0.0
 40
0.0
 40
0.0
 40
0.0
 40
0.5
 40
1.0
 40
1.0
 40
1.0
 40
1.0
 10
885.6664074431833
 20
1689.745878730056
 30
0.0
 10
885.6799926297377
 20
1687.641379277857
 30
0.0
 10
885.98225295089
 20
1683.460223859924
 30
0.0
 10
886.8346931681292
 20
1679.334755414921
 30
0.0
 10
887.3984582507707
 20
1677.285942935653
 30
0.0
  0
LINE
  5
226
330
1B1
100
AcDbEntity
  8
P-SANR-FIXT
100
AcDbLine
 10
946.6664074432225
 20
1730.145878730031
 30
0.0
 11
911.6664074431843
 21
1730.145878730031
 31
0.0
  0
LINE
  5
227
330
1B1
100
AcDbEntity
  8
P-SANR-FIXT
100
AcDbLine
 10
911.6664074431847
 20
1682.345878730112
 30
0.0
 11
946.6664074432227
 21
1682.345878730113
 31
0.0
  0
LINE
  5
228
330
1B1
100
AcDbEntity
  8
P-SANR-FIXT
100
AcDbLine
 10
948.6664074432225
 20
1728.145878730031
 30
0.0
 11
946.6664074432225
 21
1730.145878730031
 31
0.0
  0
LINE
  5
229
330
1B1
100
AcDbEntity
  8
P-SANR-FIXT
100
AcDbLine
 10
946.6664074432227
 20
1682.345878730113
 30
0.0
 11
948.6664074432228
 21
1684.345878730113
 31
0.0
  0
LINE
  5
22A
330
1B1
100
AcDbEntity
  8
P-SANR-FIXT
100
AcDbLine
 10
946.6664074432211
 20
1706.245878730071
 30
0.0
 11
946.6664074432207
 21
1730.145878730031
 31
0.0
  0
LINE
  5
22B
330
1B1
100
AcDbEntity
  8
P-SANR-FIXT
100
AcDbLine
 10
946.6664074432211
 20
1682.345878730112
 30
0.0
 11
946.6664074432211
 21
1706.245878730071
 31
0.0
  0
LINE
  5
22C
330
1B1
100
AcDbEntity
  8
P-SANR-FIXT
100
AcDbLine
 10
911.6664074431829
 20
1724.049469342979
 30
0.0
 11
911.6664074431831
 21
1721.426938663793
 31
0.0
  0
LINE
  5
22D
330
1B1
100
AcDbEntity
  8
P-SANR-FIXT
100
AcDbLine
 10
911.6664074431831
 20
1691.064818795265
 30
0.0
 11
911.6664074431831
 21
1688.442288117246
 31
0.0
  0
LINE
  5
22E
330
1B1
100
AcDbEntity
  8
P-SANR-FIXT
100
AcDbLine
 10
948.6664074432209
 20
1728.14587873003
 30
0.0
 11
948.666407443221
 21
1706.245878730072
 31
0.0
  0
LINE
  5
22F
330
1B1
100
AcDbEntity
  8
P-SANR-FIXT
100
AcDbLine
 10
948.666407443221
 20
1706.245878730071
 30
0.0
 11
948.666407443221
 21
1684.345878730112
 31
0.0
  0
LINE
  5
230
330
1B1
100
AcDbEntity
  8
P-SANR-FIXT
100
AcDbLine
 10
725.6664074431882
 20
1730.145878730032
 30
0.0
 11
690.6664074431503
 21
1730.145878730032
 31
0.0
  0
LINE
  5
231
330
1B1
100
AcDbEntity
  8
P-SANR-FIXT
100
AcDbLine
 10
690.6664074431505
 20
1682.34587873011
 30
0.0
 11
725.6664074431886
 21
1682.34587873011
 31
0.0
  0
LINE
  5
232
330
1B1
100
AcDbEntity
  8
P-SANR-FIXT
100
AcDbLine
 10
690.6664074431503
 20
1730.145878730031
 30
0.0
 11
688.6664074431503
 21
1728.145878730032
 31
0.0
  0
LINE
  5
233
330
1B1
100
AcDbEntity
  8
P-SANR-FIXT
100
AcDbLine
 10
688.6664074431506
 20
1684.34587873011
 30
0.0
 11
690.6664074431505
 21
1682.34587873011
 31
0.0
  0
LINE
  5
234
330
1B1
100
AcDbEntity
  8
P-SANR-FIXT
100
AcDbLine
 10
725.6664074431872
 20
1721.426938663796
 30
0.0
 11
725.666407443187
 21
1724.049469342975
 31
0.0
  0
LINE
  5
235
330
1B1
100
AcDbEntity
  8
P-SANR-FIXT
100
AcDbLine
 10
725.6664074431872
 20
1688.442288117247
 30
0.0
 11
725.6664074431872
 21
1691.064818795263
 31
0.0
  0
LINE
  5
236
330
1B1
100
AcDbEntity
  8
P-SANR-FIXT
100
AcDbLine
 10
690.6664074431489
 20
1730.145878730031
 30
0.0
 11
690.666407443149
 21
1706.24587873007
 31
0.0
  0
LINE
  5
237
330
1B1
100
AcDbEntity
  8
P-SANR-FIXT
100
AcDbLine
 10
690.666407443149
 20
1706.24587873007
 30
0.0
 11
690.6664074431492
 21
1682.345878730109
 31
0.0
  0
LINE
  5
238
330
1B1
100
AcDbEntity
  8
P-SANR-FIXT
100
AcDbLine
 10
688.6664074431489
 20
1728.145878730031
 30
0.0
 11
688.6664074431491
 21
1706.24587873007
 31
0.0
  0
LINE
  5
239
330
1B1
100
AcDbEntity
  8
P-SANR-FIXT
100
AcDbLine
 10
688.6664074431491
 20
1706.24587873007
 30
0.0
 11
688.6664074431493
 21
1684.345878730109
 31
0.0
  0
LINE
  5
23A
330
1B1
100
AcDbEntity
  8
P-SANR-FIXT
100
AcDbLine
 10
884.6664074431865
 20
1736.395878730072
 30
0.0
 11
884.6263481066033
 21
1736.326493923792
 31
0.0
  0
LINE
  5
23B
330
1B1
100
AcDbEntity
  8
P-SANR-FIXT
100
AcDbLine
 10
884.6127471304869
 20
1736.302936342126
 30
0.0
 11
884.0024546336184
 21
1735.245878730072
 31
0.0
  0
LINE
  5
23C
330
1B1
100
AcDbEntity
  8
P-SANR-FIXT
100
AcDbLine
 10
884.0024546336188
 20
1677.245878730072
 30
0.0
 11
884.6127471304871
 21
1676.188821118017
 31
0.0
  0
LINE
  5
23D
330
1B1
100
AcDbEntity
  8
P-SANR-FIXT
100
AcDbLine
 10
884.6263481066035
 20
1676.165263536352
 30
0.0
 11
884.6664074431867
 21
1676.095878730072
 31
0.0
  0
LINE
  5
23E
330
1B1
100
AcDbEntity
  8
P-SANR-FIXT
100
AcDbLine
 10
753.3303602527544
 20
1735.245878730072
 30
0.0
 11
752.6664074431862
 21
1736.395878730071
 31
0.0
  0
LINE
  5
23F
330
1B1
100
AcDbEntity
  8
P-SANR-FIXT
100
AcDbLine
 10
752.6664074431867
 20
1676.095878730071
 30
0.0
 11
753.3303602527547
 21
1677.245878730071
 31
0.0
  0
LWPOLYLINE
  5
240
330
1B1
100
AcDbEntity
  8
P-SANR-FIXT
100
AcDbPolyline
 90
       28
 70
   128
 43
0.0
 10
882.2704038260496
 20
1734.245878730072
 10
882.3503824944227
 20
1734.24747851675
 10
882.4302332139879
 20
1734.252275317466
 10
882.5098282406273
 20
1734.260261458364
 10
882.5890402392781
 20
1734.271424163321
 10
882.6677424876395
 20
1734.285745574389
 10
882.7458090789038
 20
1734.303202780368
 10
882.8231151231777
 20
1734.32376785345
 10
882.8995369472819
 20
1734.347407893907
 10
882.9749522925997
 20
1734.374085082716
 10
883.0492405106669
 20
1734.403756742066
 10
883.1222827561814
 20
1734.436375403632
 10
883.1939621771326
 20
1734.471888884513
 10
883.2641641017371
 20
1734.510240370716
 10
883.3327762218912
 20
1734.551368508045
 10
883.3996887728398
 20
1734.595207500252
 10
883.4647947087743
 20
1734.641687214303
 10
883.5279898740866
 20
1734.69073329257
 10
883.5891731699925
 20
1734.74226727179
 10
883.6482467162706
 20
1734.79620670859
 10
883.7051160078486
 20
1734.852465311377
 10
883.7596900659914
 20
1734.910953078389
 10
883.8118815838475
 20
1734.971576441675
 10
883.8616070661224
 20
1735.034238416785
 10
883.9087869626515
 20
1735.098838757927
 10
883.9533457956653
 20
1735.165274118336
 10
883.9952122805364
 20
1735.233438215606
 10
884.0024546336184
 20
1735.245878730072
  0
LWPOLYLINE
  5
241
330
1B1
100
AcDbEntity
  8
P-SANR-FIXT
100
AcDbPolyline
 90
       28
 70
   128
 43
0.0
 10
884.0024546336188
 20
1677.245878730072
 10
883.9610798435282
 20
1677.314342395305
 10
883.9170003324682
 20
1677.3810967466
 10
883.8702866182529
 20
1677.446034991237
 10
883.8210134328603
 20
1677.509053241874
 10
883.7692596028759
 20
1677.570050682756
 10
883.7151079233874
 20
1677.628929730988
 10
883.6586450255301
 20
1677.685596192654
 10
883.5999612378964
 20
1677.739959413504
 10
883.5391504420273
 20
1677.79193242398
 10
883.4763099222241
 20
1677.841432078352
 10
883.4115402099133
 20
1677.888379187735
 10
883.3449449228178
 20
1677.932698646766
 10
883.2766305991905
 20
1677.974319553767
 10
883.2067065273765
 20
1678.013175324164
 10
883.1352845709744
 20
1678.049203797013
 10
883.0624789898784
 20
1678.082347334444
 10
882.9884062574873
 20
1678.112552913868
 10
882.9131848743717
 20
1678.1397722128
 10
882.836935178698
 20
1678.163961686168
 10
882.7597791537137
 20
1678.185082635976
 10
882.6818402325995
 20
1678.203101273209
 10
882.6032431010034
 20
1678.217988771892
 10
882.5241134975691
 20
1678.229721315202
 10
882.4445780127826
 20
1678.238280133573
 10
882.3647638864523
 20
1678.243651534722
 10
882.2847988041543
 20
1678.245826925552
 10
882.2704038260498
 20
1678.245878730072
  0
LINE
  5
242
330
1B1
100
AcDbEntity
  8
P-SANR-FIXT
100
AcDbLine
 10
885.6664074431847
 20
1736.395878730072
 30
0.0
 11
884.6664074431865
 21
1736.395878730072
 31
0.0
  0
LINE
  5
243
330
1B1
100
AcDbEntity
  8
P-SANR-FIXT
100
AcDbLine
 10
884.6664074431867
 20
1676.095878730071
 30
0.0
 11
885.6664074431849
 21
1676.095878730071
 31
0.0
  0
LINE
  5
244
330
1B1
100
AcDbEntity
  8
P-SANR-FIXT
100
AcDbLine
 10
882.2704038260496
 20
1734.245878730072
 30
0.0
 11
870.9314887931808
 21
1734.245878730072
 31
0.0
  0
LINE
  5
245
330
1B1
100
AcDbEntity
  8
P-SANR-FIXT
100
AcDbLine
 10
760.4013260931736
 20
1734.245878730072
 30
0.0
 11
755.0624110603232
 21
1734.245878730072
 31
0.0
  0
LINE
  5
246
330
1B1
100
AcDbEntity
  8
P-SANR-FIXT
100
AcDbLine
 10
755.0624110603235
 20
1678.245878730071
 30
0.0
 11
760.4013260931684
 21
1678.245878730071
 31
0.0
  0
LINE
  5
247
330
1B1
100
AcDbEntity
  8
P-SANR-FIXT
100
AcDbLine
 10
870.9314887931734
 20
1678.245878730071
 30
0.0
 11
882.2704038260498
 21
1678.245878730071
 31
0.0
  0
LINE
  5
248
330
1B1
100
AcDbEntity
  8
P-SANR-FIXT
100
AcDbLine
 10
752.6664074431862
 20
1736.395878730072
 30
0.0
 11
751.6664074431887
 21
1736.395878730072
 31
0.0
  0
LINE
  5
249
330
1B1
100
AcDbEntity
  8
P-SANR-FIXT
100
AcDbLine
 10
751.6664074431888
 20
1676.095878730071
 30
0.0
 11
752.6664074431867
 21
1676.095878730071
 31
0.0
  0
LINE
  5
24A
330
1B1
100
AcDbEntity
  8
P-SANR-FIXT
100
AcDbLine
 10
849.666407443186
 20
1762.245878730039
 30
0.0
 11
849.666407443186
 21
1757.198013089224
 31
0.0
  0
LINE
  5
24B
330
1B1
100
AcDbEntity
  8
P-SANR-FIXT
100
AcDbLine
 10
849.6664074431867
 20
1655.293744370931
 30
0.0
 11
849.6664074431867
 21
1650.245878730105
 31
0.0
  0
LINE
  5
24C
330
1B1
100
AcDbEntity
  8
P-SANR-FIXT
100
AcDbLine
 10
867.6664074431867
 20
1650.245878730105
 30
0.0
 11
867.6664074431867
 21
1655.888657280012
 31
0.0
  0
LINE
  5
24D
330
1B1
100
AcDbEntity
  8
P-SANR-FIXT
100
AcDbLine
 10
867.6664074431862
 20
1756.603100180167
 30
0.0
 11
867.6664074431862
 21
1762.245878730039
 31
0.0
  0
LINE
  5
24E
330
1B1
100
AcDbEntity
  8
P-SANR-FIXT
100
AcDbLine
 10
763.6664074431863
 20
1762.245878730038
 30
0.0
 11
763.6664074431863
 21
1756.634644781224
 31
0.0
  0
LINE
  5
24F
330
1B1
100
AcDbEntity
  8
P-SANR-FIXT
100
AcDbLine
 10
763.6664074431867
 20
1655.857112678948
 30
0.0
 11
763.6664074431867
 21
1650.245878730104
 31
0.0
  0
LINE
  5
250
330
1B1
100
AcDbEntity
  8
P-SANR-FIXT
100
AcDbLine
 10
781.6664074431867
 20
1650.245878730104
 30
0.0
 11
781.6664074431867
 21
1655.299657237049
 31
0.0
  0
LINE
  5
251
330
1B1
100
AcDbEntity
  8
P-SANR-FIXT
100
AcDbLine
 10
781.666407443186
 20
1757.19210022315
 30
0.0
 11
781.666407443186
 21
1762.245878730038
 31
0.0
  0
LWPOLYLINE
  5
252
330
1B1
100
AcDbEntity
  8
P-SANR-FIXT
100
AcDbPolyline
 90
       28
 70
   128
 43
0.0
 10
753.3303602527544
 20
1735.245878730072
 10
753.371735042845
 20
1735.177415064839
 10
753.415814553905
 20
1735.110660713543
 10
753.4625282681203
 20
1735.045722468907
 10
753.5118014535128
 20
1734.982704218269
 10
753.5635552834973
 20
1734.921706777388
 10
753.6177069629857
 20
1734.862827729156
 10
753.6741698608429
 20
1734.806161267489
 10
753.7328536484767
 20
1734.75179804664
 10
753.7936644443458
 20
1734.699825036164
 10
753.8565049641491
 20
1734.650325381791
 10
753.9212746764599
 20
1734.603378272409
 10
753.9878699635555
 20
1734.559058813377
 10
754.0561842871826
 20
1734.517437906377
 10
754.1261083589964
 20
1734.47858213598
 10
754.1975303153986
 20
1734.44255366313
 10
754.2703358964947
 20
1734.409410125699
 10
754.3444086288857
 20
1734.379204546276
 10
754.4196300120013
 20
1734.351985247344
 10
754.4958797076751
 20
1734.327795773975
 10
754.5730357326593
 20
1734.306674824168
 10
754.6509746537735
 20
1734.288656186934
 10
754.7295717853696
 20
1734.273768688251
 10
754.8087013888038
 20
1734.262036144941
 10
754.8882368735908
 20
1734.25347732657
 10
754.9680509999212
 20
1734.248105925421
 10
755.0480160822189
 20
1734.245930534591
 10
755.0624110603232
 20
1734.245878730072
  0
LWPOLYLINE
  5
253
330
1B1
100
AcDbEntity
  8
P-SANR-FIXT
100
AcDbPolyline
 90
       28
 70
   128
 43
0.0
 10
755.0624110603235
 20
1678.245878730071
 10
754.9824323919501
 20
1678.244278943393
 10
754.9025816723853
 20
1678.239482142676
 10
754.8229866457456
 20
1678.231496001779
 10
754.743774647095
 20
1678.220333296822
 10
754.6650723987333
 20
1678.206011885754
 10
754.5870058074692
 20
1678.188554679775
 10
754.5096997631953
 20
1678.167989606693
 10
754.4332779390913
 20
1678.144349566236
 10
754.3578625937733
 20
1678.117672377427
 10
754.2835743757061
 20
1678.088000718077
 10
754.2105321301916
 20
1678.055382056511
 10
754.1388527092404
 20
1678.01986857563
 10
754.0686507846361
 20
1677.981517089426
 10
754.0000386644817
 20
1677.940388952098
 10
753.9331261135335
 20
1677.89654995989
 10
753.8680201775989
 20
1677.85007024584
 10
753.8048250122868
 20
1677.801024167573
 10
753.7436417163807
 20
1677.749490188353
 10
753.6845681701025
 20
1677.695550751553
 10
753.6276988785246
 20
1677.639292148765
 10
753.5731248203818
 20
1677.580804381754
 10
753.5209333025256
 20
1677.520181018468
 10
753.4712078202509
 20
1677.457519043358
 10
753.4240279237215
 20
1677.392918702216
 10
753.3794690907078
 20
1677.326483341807
 10
753.337602605837
 20
1677.258319244536
 10
753.3303602527547
 20
1677.245878730071
  0
LINE
  5
254
330
1B1
100
AcDbEntity
  8
P-SANR-FIXT
100
AcDbLine
 10
884.6664074431851
 20
1706.245878730071
 30
0.0
 11
884.6664074431849
 21
1736.395878730071
 31
0.0
  0
LINE
  5
255
330
1B1
100
AcDbEntity
  8
P-SANR-FIXT
100
AcDbLine
 10
884.6664074431853
 20
1676.095878730071
 30
0.0
 11
884.6664074431851
 21
1706.24587873007
 31
0.0
  0
LINE
  5
256
330
1B1
100
AcDbEntity
  8
P-SANR-FIXT
100
AcDbLine
 10
751.6664074431871
 20
1721.427893328799
 30
0.0
 11
751.666407443187
 21
1724.040125834715
 31
0.0
  0
LINE
  5
257
330
1B1
100
AcDbEntity
  8
P-SANR-FIXT
100
AcDbLine
 10
751.6664074431873
 20
1688.451631625425
 30
0.0
 11
751.6664074431871
 21
1691.063864130901
 31
0.0
  0
LINE
  5
258
330
1B1
100
AcDbEntity
  8
P-SANR-FIXT
100
AcDbLine
 10
885.6664074431831
 20
1724.040125834714
 30
0.0
 11
885.6664074431833
 21
1721.427893328802
 31
0.0
  0
LINE
  5
259
330
1B1
100
AcDbEntity
  8
P-SANR-FIXT
100
AcDbLine
 10
885.6664074431833
 20
1691.063864130898
 30
0.0
 11
885.6664074431833
 21
1688.45163162543
 31
0.0
  0
LINE
  5
25A
330
1B1
100
AcDbEntity
  8
P-SANR-FIXT
100
AcDbLine
 10
752.666407443185
 20
1736.395878730071
 30
0.0
 11
752.6664074431851
 21
1706.24587873007
 31
0.0
  0
LINE
  5
25B
330
1B1
100
AcDbEntity
  8
P-SANR-FIXT
100
AcDbLine
 10
752.6664074431851
 20
1706.24587873007
 30
0.0
 11
752.6664074431852
 21
1676.09587873007
 31
0.0
  0
ENDBLK
  5
25D
330
1B1
100
AcDbEntity
  8
0
100
AcDbBlockEnd
  0
BLOCK
  5
311
330
25F
100
AcDbEntity
  8
0
100
AcDbBlockBegin
  2
Automatic flow rate regulator valve_Caleffi_121 DN15 - 1 1_2__-V2-Est - Idraulica
 70
     0
 10
0.0
 20
0.0
 30
0.0
  3
Automatic flow rate regulator valve_Caleffi_121 DN15 - 1 1_2__-V2-Est - Idraulica
  1

  0
LINE
  5
260
330
25F
100
AcDbEntity
  8
P-SANR-FIXT
100
AcDbLine
 10
1307.114353943077
 20
1902.982558849971
 30
0.0
 11
1297.114353943077
 21
1902.982558849971
 31
0.0
  0
LINE
  5
261
330
25F
100
AcDbEntity
  8
P-SANR-FIXT
100
AcDbLine
 10
1297.114353943077
 20
1902.982558849971
 30
0.0
 11
1287.114353943077
 21
1902.982558849971
 31
0.0
  0
LINE
  5
262
330
25F
100
AcDbEntity
  8
P-SANR-FIXT
100
AcDbLine
 10
1296.076292009371
 20
1902.982558849971
 30
0.0
 11
1297.114353943077
 21
1902.982558849971
 31
0.0
  0
LINE
  5
263
330
25F
100
AcDbEntity
  8
P-SANR-FIXT
100
AcDbLine
 10
1297.114353943077
 20
1902.982558849971
 30
0.0
 11
1298.135980282652
 21
1902.982558849971
 31
0.0
  0
LINE
  5
264
330
25F
100
AcDbEntity
  8
P-SANR-FIXT
100
AcDbLine
 10
1316.092727604009
 20
1902.982558849971
 30
0.0
 11
1317.114353943077
 21
1902.982558849971
 31
0.0
  0
LINE
  5
265
330
25F
100
AcDbEntity
  8
P-SANR-FIXT
100
AcDbLine
 10
1317.114353943077
 20
1902.982558849971
 30
0.0
 11
1318.152415876314
 21
1902.982558849971
 31
0.0
  0
LINE
  5
266
330
25F
100
AcDbEntity
  8
P-SANR-FIXT
100
AcDbLine
 10
1327.114353943077
 20
1902.982558849971
 30
0.0
 11
1317.114353943077
 21
1902.982558849971
 31
0.0
  0
LINE
  5
267
330
25F
100
AcDbEntity
  8
P-SANR-FIXT
100
AcDbLine
 10
1317.114353943077
 20
1902.982558849971
 30
0.0
 11
1307.114353943077
 21
1902.982558849971
 31
0.0
  0
LINE
  5
268
330
25F
100
AcDbEntity
  8
P-SANR-FIXT
100
AcDbLine
 10
1305.387492916452
 20
1910.982558850011
 30
0.0
 11
1308.841214969701
 21
1910.982558850011
 31
0.0
  0
LINE
  5
269
330
25F
100
AcDbEntity
  8
P-SANR-FIXT
100
AcDbLine
 10
1325.888370456121
 20
1910.982558850011
 30
0.0
 11
1326.166912826336
 21
1910.982558850011
 31
0.0
  0
LINE
  5
26A
330
25F
100
AcDbEntity
  8
P-SANR-FIXT
100
AcDbLine
 10
1287.678178019028
 20
1910.982558850011
 30
0.0
 11
1288.340337430033
 21
1910.982558850011
 31
0.0
  0
LINE
  5
26B
330
25F
100
AcDbEntity
  8
P-SANR-FIXT
100
AcDbLine
 10
1305.051607876225
 20
1910.982558850011
 30
0.0
 11
1305.051607876225
 21
1904.13725938835
 31
0.0
  0
LINE
  5
26C
330
25F
100
AcDbEntity
  8
P-SANR-FIXT
100
AcDbLine
 10
1305.051607876225
 20
1904.137259388351
 30
0.0
 11
1307.114353943077
 21
1904.137259388351
 31
0.0
  0
LINE
  5
26D
330
25F
100
AcDbEntity
  8
P-SANR-FIXT
100
AcDbLine
 10
1307.114353943077
 20
1904.137259388351
 30
0.0
 11
1309.177100009929
 21
1904.137259388351
 31
0.0
  0
LINE
  5
26E
330
25F
100
AcDbEntity
  8
P-SANR-FIXT
100
AcDbLine
 10
1309.17710000993
 20
1904.13725938835
 30
0.0
 11
1309.17710000993
 21
1910.982558850011
 31
0.0
  0
SPLINE
  5
26F
330
25F
100
AcDbEntity
  8
P-SANR-FIXT
100
AcDbSpline
210
0.0
220
0.0
230
1.0
 70
     8
 71
     3
 72
     9
 73
     5
 74
     0
 42
0.000000001
 43
0.0000000001
 40
0.0
 40
0.0
 40
0.0
 40
0.0
 40
0.5
 40
1.0
 40
1.0
 40
1.0
 40
1.0
 10
1309.17710000993
 20
1904.13725938835
 30
0.0
 10
1310.480689484876
 20
1903.762278465337
 30
0.0
 10
1313.107154615349
 20
1903.194847452595
 30
0.0
 10
1315.772192106981
 20
1902.992478106418
 30
0.0
 10
1317.114353943086
 20
1902.982558849971
 30
0.0
  0
SPLINE
  5
270
330
25F
100
AcDbEntity
  8
P-SANR-FIXT
100
AcDbSpline
210
0.0
220
0.0
230
1.0
 70
     8
 71
     3
 72
     9
 73
     5
 74
     0
 42
0.000000001
 43
0.0000000001
 40
0.0
 40
0.0
 40
0.0
 40
0.0
 40
0.5
 40
1.0
 40
1.0
 40
1.0
 40
1.0
 10
1317.114353943086
 20
1902.982558849971
 30
0.0
 10
1318.456515779192
 20
1902.992478106418
 30
0.0
 10
1321.121553270825
 20
1903.194847452595
 30
0.0
 10
1323.748018401298
 20
1903.762278465338
 30
0.0
 10
1325.051607876245
 20
1904.137259388351
 30
0.0
  0
LINE
  5
271
330
25F
100
AcDbEntity
  8
P-SANR-FIXT
100
AcDbLine
 10
1325.051607876245
 20
1904.137259388351
 30
0.0
 11
1325.051607876245
 21
1910.982558850011
 31
0.0
  0
LINE
  5
272
330
25F
100
AcDbEntity
  8
P-SANR-FIXT
100
AcDbLine
 10
1325.051607876245
 20
1904.137259388351
 30
0.0
 11
1327.114353943097
 21
1904.137259388351
 31
0.0
  0
LINE
  5
273
330
25F
100
AcDbEntity
  8
P-SANR-FIXT
100
AcDbLine
 10
1327.114353943097
 20
1904.137259388351
 30
0.0
 11
1327.114353943097
 21
1910.982558850011
 31
0.0
  0
SPLINE
  5
274
330
25F
100
AcDbEntity
  8
P-SANR-FIXT
100
AcDbSpline
210
0.0
220
0.0
230
1.0
 70
    24
 71
     3
 72
     9
 73
     5
 74
     0
 42
0.000000001
 43
0.0000000001
 40
0.0
 40
0.0
 40
0.0
 40
0.0
 40
0.5
 40
1.0
 40
1.0
 40
1.0
 40
1.0
 10
1327.114353943097
 20
1904.137259388351
 30
0.0
 10
1327.114353943097
 20
1903.762278465338
 30
0.0
 10
1327.114353943097
 20
1903.194847452595
 30
0.0
 10
1327.114353943098
 20
1902.992478106418
 30
0.0
 10
1327.114353943098
 20
1902.982558849971
 30
0.0
  0
SPLINE
  5
275
330
25F
100
AcDbEntity
  8
P-SANR-FIXT
100
AcDbSpline
210
0.0
220
0.0
230
1.0
 70
    24
 71
     3
 72
     9
 73
     5
 74
     0
 42
0.000000001
 43
0.0000000001
 40
0.0
 40
0.0
 40
0.0
 40
0.0
 40
0.5
 40
1.0
 40
1.0
 40
1.0
 40
1.0
 10
1287.114353943058
 20
1902.982558849971
 30
0.0
 10
1287.114353943058
 20
1902.992478106418
 30
0.0
 10
1287.114353943058
 20
1903.194847452594
 30
0.0
 10
1287.114353943058
 20
1903.762278465337
 30
0.0
 10
1287.114353943058
 20
1904.13725938835
 30
0.0
  0
LINE
  5
276
330
25F
100
AcDbEntity
  8
P-SANR-FIXT
100
AcDbLine
 10
1287.114353943058
 20
1904.13725938835
 30
0.0
 11
1287.114353943058
 21
1910.982558850011
 31
0.0
  0
LINE
  5
277
330
25F
100
AcDbEntity
  8
P-SANR-FIXT
100
AcDbLine
 10
1287.114353943058
 20
1904.137259388351
 30
0.0
 11
1289.17710000991
 21
1904.137259388351
 31
0.0
  0
LINE
  5
278
330
25F
100
AcDbEntity
  8
P-SANR-FIXT
100
AcDbLine
 10
1289.17710000991
 20
1904.13725938835
 30
0.0
 11
1289.17710000991
 21
1910.982558850011
 31
0.0
  0
SPLINE
  5
279
330
25F
100
AcDbEntity
  8
P-SANR-FIXT
100
AcDbSpline
210
0.0
220
0.0
230
1.0
 70
     8
 71
     3
 72
     9
 73
     5
 74
     0
 42
0.000000001
 43
0.0000000001
 40
0.0
 40
0.0
 40
0.0
 40
0.0
 40
0.5
 40
1.0
 40
1.0
 40
1.0
 40
1.0
 10
1289.17710000991
 20
1904.13725938835
 30
0.0
 10
1290.480689484857
 20
1903.762278465337
 30
0.0
 10
1293.10715461533
 20
1903.194847452594
 30
0.0
 10
1295.772192106962
 20
1902.992478106417
 30
0.0
 10
1297.114353943068
 20
1902.982558849971
 30
0.0
  0
SPLINE
  5
27A
330
25F
100
AcDbEntity
  8
P-SANR-FIXT
100
AcDbSpline
210
0.0
220
0.0
230
1.0
 70
     8
 71
     3
 72
     9
 73
     5
 74
     0
 42
0.000000001
 43
0.0000000001
 40
0.0
 40
0.0
 40
0.0
 40
0.0
 40
0.5
 40
1.0
 40
1.0
 40
1.0
 40
1.0
 10
1297.114353943068
 20
1902.982558849971
 30
0.0
 10
1298.456515779173
 20
1902.992478106417
 30
0.0
 10
1301.121553270805
 20
1903.194847452594
 30
0.0
 10
1303.748018401278
 20
1903.762278465337
 30
0.0
 10
1305.051607876225
 20
1904.13725938835
 30
0.0
  0
LINE
  5
27B
330
25F
100
AcDbEntity
  8
P-SANR-FIXT
100
AcDbLine
 10
1277.61435394307
 20
2195.482558850009
 30
0.0
 11
1275.431646477119
 21
2070.435331874526
 31
0.0
  0
LINE
  5
27C
330
25F
100
AcDbEntity
  8
P-SANR-FIXT
100
AcDbLine
 10
1338.797061409038
 20
2070.435331874526
 30
0.0
 11
1336.614353943088
 21
2195.482558850009
 31
0.0
  0
LWPOLYLINE
  5
27D
330
25F
100
AcDbEntity
  8
P-SANR-FIXT
100
AcDbPolyline
 90
       27
 70
   128
 43
0.0
 10
1272.932408001337
 20
2066.192466887791
 10
1273.103567164419
 20
2066.295903863017
 10
1273.270453042658
 20
2066.406102640667
 10
1273.432798654248
 20
2066.522886926205
 10
1273.590344280842
 20
2066.646069889686
 10
1273.742837883047
 20
2066.775454464647
 10
1273.890035503628
 20
2066.910833663369
 10
1274.031701657793
 20
2067.051990908011
 10
1274.167609709916
 20
2067.198700377097
 10
1274.297542236106
 20
2067.350727366769
 10
1274.421291372038
 20
2067.507828666277
 10
1274.538659145494
 20
2067.669752947054
 10
1274.649457793073
 20
2067.836241164793
 10
1274.753510060574
 20
2068.007026973861
 10
1274.850649486566
 20
2068.181837153396
 10
1274.94072066869
 20
2068.360392044401
 10
1275.023579512268
 20
2068.542405997141
 10
1275.099093460826
 20
2068.727587828119
 10
1275.167141708156
 20
2068.915641285908
 10
1275.227615391577
 20
2069.106265525092
 10
1275.280417766097
 20
2069.299155587553
 10
1275.325464359181
 20
2069.494002890338
 10
1275.362683105887
 20
2069.690495719329
 10
1275.392014464163
 20
2069.888319727914
 10
1275.413411510091
 20
2070.087158439881
 10
1275.426840012963
 20
2070.286693755706
 10
1275.431646477119
 20
2070.435331874526
  0
LWPOLYLINE
  5
27E
330
25F
100
AcDbEntity
  8
P-SANR-FIXT
100
AcDbPolyline
 90
       27
 70
   128
 43
0.0
 10
1338.797061409038
 20
2070.435331874526
 10
1338.804549817162
 20
2070.235485456757
 10
1338.820023960545
 20
2070.036098351263
 10
1338.843459083857
 20
2069.837489534876
 10
1338.874817695901
 20
2069.639976739337
 10
1338.914049629587
 20
2069.443875942984
 10
1338.96109212219
 20
2069.249500865258
 10
1339.015869915758
 20
2069.057162464821
 10
1339.078295377505
 20
2068.867168442081
 10
1339.14826864001
 20
2068.679822746946
 10
1339.22567776098
 20
2068.495425092564
 10
1339.310398902333
 20
2068.314270475844
 10
1339.402296528318
 20
2068.13664870553
 10
1339.501223622336
 20
2067.962843938563
 10
1339.607021922139
 20
2067.793134225495
 10
1339.719522173018
 20
2067.627791065663
 10
1339.83854439857
 20
2067.467078972851
 10
1339.963898188623
 20
2067.311255052126
 10
1340.095383003855
 20
2067.160568588517
 10
1340.232788496609
 20
2067.015260648226
 10
1340.37589484741
 20
2066.875563692955
 10
1340.524473116623
 20
2066.741701208036
 10
1340.678285610712
 20
2066.613887344887
 10
1340.837086262499
 20
2066.492326578424
 10
1341.000621024817
 20
2066.377213379942
 10
1341.168628276931
 20
2066.268731906002
 10
1341.29629988482
 20
2066.192466887791
  0
LINE
  5
27F
330
25F
100
AcDbEntity
  8
P-SANR-FIXT
100
AcDbLine
 10
1272.932408001337
 20
2066.192466887791
 30
0.0
 11
1256.114353943075
 21
2056.482558850007
 31
0.0
  0
LINE
  5
280
330
25F
100
AcDbEntity
  8
P-SANR-FIXT
100
AcDbLine
 10
1358.114353943082
 20
2056.482558850007
 30
0.0
 11
1341.29629988482
 21
2066.192466887791
 31
0.0
  0
LINE
  5
281
330
25F
100
AcDbEntity
  8
P-SANR-FIXT
100
AcDbLine
 10
1361.864353943057
 20
2036.98255885001
 30
0.0
 11
1361.864353943057
 21
2056.482558850007
 31
0.0
  0
LINE
  5
282
330
25F
100
AcDbEntity
  8
P-SANR-FIXT
100
AcDbLine
 10
1362.114353943049
 20
2036.98255885001
 30
0.0
 11
1362.114353943049
 21
2056.482558850007
 31
0.0
  0
LINE
  5
283
330
25F
100
AcDbEntity
  8
P-SANR-FIXT
100
AcDbLine
 10
1252.114353943074
 20
2056.482558850007
 30
0.0
 11
1252.114353943074
 21
2036.98255885001
 31
0.0
  0
LINE
  5
284
330
25F
100
AcDbEntity
  8
P-SANR-FIXT
100
AcDbLine
 10
1252.364353943056
 20
2056.482558850007
 30
0.0
 11
1252.364353943056
 21
2036.98255885001
 31
0.0
  0
LINE
  5
285
330
25F
100
AcDbEntity
  8
P-SANR-FIXT
100
AcDbLine
 10
1277.614353943068
 20
2195.482558850008
 30
0.0
 11
1307.114353943076
 21
2195.482558850008
 31
0.0
  0
LINE
  5
286
330
25F
100
AcDbEntity
  8
P-SANR-FIXT
100
AcDbLine
 10
1307.114353943077
 20
2195.482558850008
 30
0.0
 11
1336.614353943086
 21
2195.482558850008
 31
0.0
  0
LINE
  5
287
330
25F
100
AcDbEntity
  8
P-SANR-FIXT
100
AcDbLine
 10
1307.114353943053
 20
2056.482558850007
 30
0.0
 11
1349.864353943045
 21
2056.482558850007
 31
0.0
  0
LINE
  5
288
330
25F
100
AcDbEntity
  8
P-SANR-FIXT
100
AcDbLine
 10
1349.864353943045
 20
2056.482558850007
 30
0.0
 11
1361.864351418207
 21
2056.482558850007
 31
0.0
  0
LINE
  5
289
330
25F
100
AcDbEntity
  8
P-SANR-FIXT
100
AcDbLine
 10
1361.879134051791
 20
2056.482558850007
 30
0.0
 11
1362.114353943048
 21
2056.482558850007
 31
0.0
  0
LINE
  5
28A
330
25F
100
AcDbEntity
  8
P-SANR-FIXT
100
AcDbLine
 10
1252.114353943073
 20
2056.482558850007
 30
0.0
 11
1252.34957383432
 21
2056.482558850007
 31
0.0
  0
LINE
  5
28B
330
25F
100
AcDbEntity
  8
P-SANR-FIXT
100
AcDbLine
 10
1252.364356467902
 20
2056.482558850007
 30
0.0
 11
1264.364353943052
 21
2056.482558850007
 31
0.0
  0
LINE
  5
28C
330
25F
100
AcDbEntity
  8
P-SANR-FIXT
100
AcDbLine
 10
1264.364353943052
 20
2056.482558850007
 30
0.0
 11
1307.114353943053
 21
2056.482558850007
 31
0.0
  0
LINE
  5
28D
330
25F
100
AcDbEntity
  8
P-SANR-FIXT
100
AcDbLine
 10
1307.114353943053
 20
2036.982558850009
 30
0.0
 11
1264.364353943052
 21
2036.982558850009
 31
0.0
  0
LINE
  5
28E
330
25F
100
AcDbEntity
  8
P-SANR-FIXT
100
AcDbLine
 10
1264.364353943052
 20
2036.982558850009
 30
0.0
 11
1252.364356467902
 21
2036.982558850009
 31
0.0
  0
LINE
  5
28F
330
25F
100
AcDbEntity
  8
P-SANR-FIXT
100
AcDbLine
 10
1252.34957383432
 20
2036.982558850009
 30
0.0
 11
1252.114353943073
 21
2036.982558850009
 31
0.0
  0
LINE
  5
290
330
25F
100
AcDbEntity
  8
P-SANR-FIXT
100
AcDbLine
 10
1362.114353943048
 20
2036.982558850009
 30
0.0
 11
1361.879134051791
 21
2036.982558850009
 31
0.0
  0
LINE
  5
291
330
25F
100
AcDbEntity
  8
P-SANR-FIXT
100
AcDbLine
 10
1361.864351418207
 20
2036.982558850009
 30
0.0
 11
1349.864353943045
 21
2036.982558850009
 31
0.0
  0
LINE
  5
292
330
25F
100
AcDbEntity
  8
P-SANR-FIXT
100
AcDbLine
 10
1349.864353943045
 20
2036.982558850009
 30
0.0
 11
1307.114353943053
 21
2036.982558850009
 31
0.0
  0
LINE
  5
293
330
25F
100
AcDbEntity
  8
P-SANR-FIXT
100
AcDbLine
 10
1307.114353943053
 20
2056.482558850007
 30
0.0
 11
1307.114353943053
 21
2036.982558850009
 31
0.0
  0
LINE
  5
294
330
25F
100
AcDbEntity
  8
P-SANR-FIXT
100
AcDbLine
 10
1349.864353943045
 20
2036.982558850009
 30
0.0
 11
1349.864353943045
 21
2056.482558850007
 31
0.0
  0
LINE
  5
295
330
25F
100
AcDbEntity
  8
P-SANR-FIXT
100
AcDbLine
 10
1264.364353943052
 20
2036.982558850009
 30
0.0
 11
1264.364353943052
 21
2056.482558850007
 31
0.0
  0
LINE
  5
296
330
25F
100
AcDbEntity
  8
P-SANR-FIXT
100
AcDbLine
 10
1278.241253558854
 20
2200.48255885006
 30
0.0
 11
1277.614353943077
 21
2199.855659234281
 31
0.0
  0
LINE
  5
297
330
25F
100
AcDbEntity
  8
P-SANR-FIXT
100
AcDbLine
 10
1336.614353943081
 20
2199.855659234281
 30
0.0
 11
1335.987454327303
 21
2200.48255885006
 31
0.0
  0
LINE
  5
298
330
25F
100
AcDbEntity
  8
P-SANR-FIXT
100
AcDbLine
 10
1277.614353943077
 20
2199.855659234281
 30
0.0
 11
1277.614353943077
 21
2195.982558850012
 31
0.0
  0
LINE
  5
299
330
25F
100
AcDbEntity
  8
P-SANR-FIXT
100
AcDbLine
 10
1336.614353943081
 20
2195.982558850012
 30
0.0
 11
1336.614353943081
 21
2199.855659234281
 31
0.0
  0
LINE
  5
29A
330
25F
100
AcDbEntity
  8
P-SANR-FIXT
100
AcDbLine
 10
1277.614353943077
 20
2195.982558850012
 30
0.0
 11
1278.254324759177
 21
2195.482558850009
 31
0.0
  0
LINE
  5
29B
330
25F
100
AcDbEntity
  8
P-SANR-FIXT
100
AcDbLine
 10
1335.97438312698
 20
2195.482558850009
 30
0.0
 11
1336.614353943081
 21
2195.982558850012
 31
0.0
  0
LINE
  5
29C
330
25F
100
AcDbEntity
  8
P-SANR-FIXT
100
AcDbLine
 10
1307.114353943077
 20
2200.482558850058
 30
0.0
 11
1278.241253558853
 21
2200.482558850058
 31
0.0
  0
LINE
  5
29D
330
25F
100
AcDbEntity
  8
P-SANR-FIXT
100
AcDbLine
 10
1335.987454327301
 20
2200.482558850058
 30
0.0
 11
1307.114353943077
 21
2200.482558850058
 31
0.0
  0
LINE
  5
29E
330
25F
100
AcDbEntity
  8
P-SANR-FIXT
100
AcDbLine
 10
1277.614353943075
 20
2199.85565923428
 30
0.0
 11
1307.114353943076
 21
2199.85565923428
 31
0.0
  0
LINE
  5
29F
330
25F
100
AcDbEntity
  8
P-SANR-FIXT
100
AcDbLine
 10
1307.114353943077
 20
2199.85565923428
 30
0.0
 11
1336.614353943079
 21
2199.85565923428
 31
0.0
  0
LINE
  5
2A0
330
25F
100
AcDbEntity
  8
P-SANR-FIXT
100
AcDbLine
 10
1277.614353943075
 20
2195.982558850011
 30
0.0
 11
1307.114353943076
 21
2195.982558850011
 31
0.0
  0
LINE
  5
2A1
330
25F
100
AcDbEntity
  8
P-SANR-FIXT
100
AcDbLine
 10
1307.114353943077
 20
2195.982558850011
 30
0.0
 11
1336.614353943079
 21
2195.982558850011
 31
0.0
  0
LINE
  5
2A2
330
25F
100
AcDbEntity
  8
P-SANR-FIXT
100
AcDbLine
 10
1368.163928459163
 20
1990.482558850031
 30
0.0
 11
1369.114353943096
 21
1991.432984333965
 31
0.0
  0
LINE
  5
2A3
330
25F
100
AcDbEntity
  8
P-SANR-FIXT
100
AcDbLine
 10
1369.114353943096
 20
2008.532133366058
 30
0.0
 11
1368.163928459163
 21
2009.482558849992
 31
0.0
  0
LINE
  5
2A4
330
25F
100
AcDbEntity
  8
P-SANR-FIXT
100
AcDbLine
 10
1363.114353943045
 20
1990.482558850031
 30
0.0
 11
1368.163928459163
 21
1990.482558850031
 31
0.0
  0
LINE
  5
2A5
330
25F
100
AcDbEntity
  8
P-SANR-FIXT
100
AcDbLine
 10
1368.163928459163
 20
2009.482558849992
 30
0.0
 11
1363.114353943045
 21
2009.482558849992
 31
0.0
  0
LINE
  5
2A6
330
25F
100
AcDbEntity
  8
P-SANR-FIXT
100
AcDbLine
 10
1369.114353943094
 20
1999.982558850011
 30
0.0
 11
1369.114353943094
 21
1991.432984333964
 31
0.0
  0
LINE
  5
2A7
330
25F
100
AcDbEntity
  8
P-SANR-FIXT
100
AcDbLine
 10
1369.114353943094
 20
2008.532133366057
 30
0.0
 11
1369.114353943094
 21
1999.982558850011
 31
0.0
  0
LINE
  5
2A8
330
25F
100
AcDbEntity
  8
P-SANR-FIXT
100
AcDbLine
 10
1368.163928459161
 20
1999.982558850011
 30
0.0
 11
1368.163928459161
 21
1990.48255885003
 31
0.0
  0
LINE
  5
2A9
330
25F
100
AcDbEntity
  8
P-SANR-FIXT
100
AcDbLine
 10
1368.163928459161
 20
2009.482558849991
 30
0.0
 11
1368.163928459161
 21
1999.982558850011
 31
0.0
  0
LINE
  5
2AA
330
25F
100
AcDbEntity
  8
P-SANR-FIXT
100
AcDbLine
 10
1363.114353943044
 20
1990.48255885003
 30
0.0
 11
1363.114353943044
 21
1999.982558850011
 31
0.0
  0
LINE
  5
2AB
330
25F
100
AcDbEntity
  8
P-SANR-FIXT
100
AcDbLine
 10
1363.114353943044
 20
1999.982558850011
 30
0.0
 11
1363.114353943044
 21
2009.482558849991
 31
0.0
  0
LINE
  5
2AC
330
25F
100
AcDbEntity
  8
P-SANR-FIXT
100
AcDbLine
 10
1245.11435394306
 20
1991.432984333965
 30
0.0
 11
1246.064779426994
 21
1990.482558850031
 31
0.0
  0
LINE
  5
2AD
330
25F
100
AcDbEntity
  8
P-SANR-FIXT
100
AcDbLine
 10
1246.064779426994
 20
2009.482558849992
 30
0.0
 11
1245.11435394306
 21
2008.532133366058
 31
0.0
  0
LINE
  5
2AE
330
25F
100
AcDbEntity
  8
P-SANR-FIXT
100
AcDbLine
 10
1246.064779426994
 20
1990.482558850031
 30
0.0
 11
1251.114353943111
 21
1990.482558850031
 31
0.0
  0
LINE
  5
2AF
330
25F
100
AcDbEntity
  8
P-SANR-FIXT
100
AcDbLine
 10
1251.114353943111
 20
2009.482558849992
 30
0.0
 11
1246.064779426994
 21
2009.482558849992
 31
0.0
  0
LINE
  5
2B0
330
25F
100
AcDbEntity
  8
P-SANR-FIXT
100
AcDbLine
 10
1251.114353943109
 20
1999.982558850011
 30
0.0
 11
1251.114353943109
 21
1990.48255885003
 31
0.0
  0
LINE
  5
2B1
330
25F
100
AcDbEntity
  8
P-SANR-FIXT
100
AcDbLine
 10
1251.114353943109
 20
2009.482558849991
 30
0.0
 11
1251.114353943109
 21
1999.982558850011
 31
0.0
  0
LINE
  5
2B2
330
25F
100
AcDbEntity
  8
P-SANR-FIXT
100
AcDbLine
 10
1245.114353943059
 20
1991.432984333964
 30
0.0
 11
1245.114353943059
 21
1999.982558850011
 31
0.0
  0
LINE
  5
2B3
330
25F
100
AcDbEntity
  8
P-SANR-FIXT
100
AcDbLine
 10
1245.114353943059
 20
1999.982558850011
 30
0.0
 11
1245.114353943059
 21
2008.532133366057
 31
0.0
  0
LINE
  5
2B4
330
25F
100
AcDbEntity
  8
P-SANR-FIXT
100
AcDbLine
 10
1246.064779426992
 20
1990.48255885003
 30
0.0
 11
1246.064779426992
 21
1999.982558850011
 31
0.0
  0
LINE
  5
2B5
330
25F
100
AcDbEntity
  8
P-SANR-FIXT
100
AcDbLine
 10
1246.064779426992
 20
1999.982558850011
 30
0.0
 11
1246.064779426992
 21
2009.482558849991
 31
0.0
  0
ARC
  5
2B6
330
25F
100
AcDbEntity
  8
P-SANR-FIXT
100
AcDbCircle
 10
1307.114353943076
 20
1999.982558850008
 30
0.0
 40
33.00000000001783
100
AcDbArc
 50
90.0000000000004
 51
120.0000000000013
  0
ARC
  5
2B7
330
25F
100
AcDbEntity
  8
P-SANR-FIXT
100
AcDbCircle
 10
1307.114353943076
 20
1999.982558850008
 30
0.0
 40
33.00000000001811
100
AcDbArc
 50
120.0000000000009
 51
180.0000000000008
  0
ARC
  5
2B8
330
25F
100
AcDbEntity
  8
P-SANR-FIXT
100
AcDbCircle
 10
1307.114353943076
 20
1999.982558850008
 30
0.0
 40
33.00000000001823
100
AcDbArc
 50
180.000000000001
 51
240.0000000000012
  0
ARC
  5
2B9
330
25F
100
AcDbEntity
  8
P-SANR-FIXT
100
AcDbCircle
 10
1307.114353943076
 20
1999.982558850008
 30
0.0
 40
33.00000000001794
100
AcDbArc
 50
240.0000000000008
 51
269.9999999999997
  0
ARC
  5
2BA
330
25F
100
AcDbEntity
  8
P-SANR-FIXT
100
AcDbCircle
 10
1307.114353943076
 20
1999.982558850008
 30
0.0
 40
33.00000000001819
100
AcDbArc
 50
269.9999999999997
 51
299.9999999999998
  0
ARC
  5
2BB
330
25F
100
AcDbEntity
  8
P-SANR-FIXT
100
AcDbCircle
 10
1307.114353943076
 20
1999.982558850008
 30
0.0
 40
33.00000000001809
100
AcDbArc
 50
299.9999999999998
 51
0.0
  0
ARC
  5
2BC
330
25F
100
AcDbEntity
  8
P-SANR-FIXT
100
AcDbCircle
 10
1307.114353943076
 20
1999.982558850008
 30
0.0
 40
33.00000000001791
100
AcDbArc
 50
0.0000000000005789
 51
60.0000000000003
  0
ARC
  5
2BD
330
25F
100
AcDbEntity
  8
P-SANR-FIXT
100
AcDbCircle
 10
1307.114353943076
 20
1999.982558850008
 30
0.0
 40
33.00000000001797
100
AcDbArc
 50
60.00000000000023
 51
89.9999999999992
  0
ARC
  5
2BE
330
25F
100
AcDbEntity
  8
P-SANR-FIXT
100
AcDbCircle
 10
1307.114353943147
 20
1999.982558850009
 30
0.0
 40
35.99999999998214
100
AcDbArc
 50
23.55646430914122
 51
36.44353569093752
  0
SPLINE
  5
2BF
330
25F
100
AcDbEntity
  8
P-SANR-FIXT
100
AcDbSpline
210
0.0
220
0.0
230
1.0
 70
    24
 71
     3
 72
     9
 73
     5
 74
     0
 42
0.000000001
 43
0.0000000001
 40
0.0
 40
0.0
 40
0.0
 40
0.0
 40
0.5
 40
1.0
 40
1.0
 40
1.0
 40
1.0
 10
1340.11435394312
 20
2014.370053419963
 30
0.0
 10
1340.11435394312
 20
2012.004288547116
 30
0.0
 10
1340.11435394312
 20
2007.240607912609
 30
0.0
 10
1340.11435394312
 20
2002.412625500479
 30
0.0
 10
1340.11435394312
 20
1999.982558850008
 30
0.0
  0
SPLINE
  5
2C0
330
25F
100
AcDbEntity
  8
P-SANR-FIXT
100
AcDbSpline
210
0.0
220
0.0
230
1.0
 70
    24
 71
     3
 72
     9
 73
     5
 74
     0
 42
0.000000001
 43
0.0000000001
 40
0.0
 40
0.0
 40
0.0
 40
0.0
 40
0.5
 40
1.0
 40
1.0
 40
1.0
 40
1.0
 10
1340.11435394312
 20
1999.982558850008
 30
0.0
 10
1340.11435394312
 20
1997.552492199538
 30
0.0
 10
1340.11435394312
 20
1992.724509787408
 30
0.0
 10
1340.11435394312
 20
1987.960829152902
 30
0.0
 10
1340.11435394312
 20
1985.595064280056
 30
0.0
  0
ARC
  5
2C1
330
25F
100
AcDbEntity
  8
P-SANR-FIXT
100
AcDbCircle
 10
1307.114353943147
 20
1999.982558850009
 30
0.0
 40
35.99999999998192
100
AcDbArc
 50
323.5564643090644
 51
336.4435356908603
  0
SPLINE
  5
2C2
330
25F
100
AcDbEntity
  8
P-SANR-FIXT
100
AcDbSpline
210
0.0
220
0.0
230
1.0
 70
    24
 71
     3
 72
     9
 73
     5
 74
     0
 42
0.000000001
 43
0.0000000001
 40
0.0
 40
0.0
 40
0.0
 40
0.0
 40
0.5
 40
1.0
 40
1.0
 40
1.0
 40
1.0
 10
1336.074289737495
 20
1978.597467810083
 30
0.0
 10
1334.025477258227
 20
1977.414585373658
 30
0.0
 10
1329.900008813224
 20
1975.032745056403
 30
0.0
 10
1325.71885339529
 20
1972.618753850335
 30
0.0
 10
1323.614353943091
 20
1971.403720525098
 30
0.0
  0
SPLINE
  5
2C3
330
25F
100
AcDbEntity
  8
P-SANR-FIXT
100
AcDbSpline
210
0.0
220
0.0
230
1.0
 70
    24
 71
     3
 72
     9
 73
     5
 74
     0
 42
0.000000001
 43
0.0000000001
 40
0.0
 40
0.0
 40
0.0
 40
0.0
 40
0.5
 40
1.0
 40
1.0
 40
1.0
 40
1.0
 10
1323.614353943091
 20
1971.403720525098
 30
0.0
 10
1321.509854490909
 20
1970.188687199872
 30
0.0
 10
1317.328699073012
 20
1967.774695993824
 30
0.0
 10
1313.203230628044
 20
1965.392855676589
 30
0.0
 10
1311.154418148792
 20
1964.209973240174
 30
0.0
  0
ARC
  5
2C4
330
25F
100
AcDbEntity
  8
P-SANR-FIXT
100
AcDbCircle
 10
1307.114353943147
 20
1999.982558850009
 30
0.0
 40
35.99999999998216
100
AcDbArc
 50
269.9999999998882
 51
276.4435356909384
  0
ARC
  5
2C5
330
25F
100
AcDbEntity
  8
P-SANR-FIXT
100
AcDbCircle
 10
1307.114353943147
 20
1999.982558850009
 30
0.0
 40
35.99999999998238
100
AcDbArc
 50
263.5564643089059
 51
269.999999999888
  0
SPLINE
  5
2C6
330
25F
100
AcDbEntity
  8
P-SANR-FIXT
100
AcDbSpline
210
0.0
220
0.0
230
1.0
 70
    24
 71
     3
 72
     9
 73
     5
 74
     0
 42
0.000000001
 43
0.0000000001
 40
0.0
 40
0.0
 40
0.0
 40
0.0
 40
0.5
 40
1.0
 40
1.0
 40
1.0
 40
1.0
 10
1303.074289737404
 20
1964.209973240185
 30
0.0
 10
1301.025477258148
 20
1965.392855676602
 30
0.0
 10
1296.900008813172
 20
1967.774695993842
 30
0.0
 10
1292.718853395265
 20
1970.188687199895
 30
0.0
 10
1290.614353943078
 20
1971.403720525124
 30
0.0
  0
SPLINE
  5
2C7
330
25F
100
AcDbEntity
  8
P-SANR-FIXT
100
AcDbSpline
210
0.0
220
0.0
230
1.0
 70
    24
 71
     3
 72
     9
 73
     5
 74
     0
 42
0.000000001
 43
0.0000000001
 40
0.0
 40
0.0
 40
0.0
 40
0.0
 40
0.5
 40
1.0
 40
1.0
 40
1.0
 40
1.0
 10
1290.614353943078
 20
1971.403720525124
 30
0.0
 10
1288.50985449091
 20
1972.618753850342
 30
0.0
 10
1284.328699073039
 20
1975.032745056374
 30
0.0
 10
1280.203230628096
 20
1977.414585373595
 30
0.0
 10
1278.154418148857
 20
1978.597467810002
 30
0.0
  0
ARC
  5
2C8
330
25F
100
AcDbEntity
  8
P-SANR-FIXT
100
AcDbCircle
 10
1307.114353943147
 20
1999.982558850009
 30
0.0
 40
35.99999999998235
100
AcDbArc
 50
203.5564643088274
 51
216.4435356910971
  0
SPLINE
  5
2C9
330
25F
100
AcDbEntity
  8
P-SANR-FIXT
100
AcDbSpline
210
0.0
220
0.0
230
1.0
 70
    24
 71
     3
 72
     9
 73
     5
 74
     0
 42
0.000000001
 43
0.0000000001
 40
0.0
 40
0.0
 40
0.0
 40
0.0
 40
0.5
 40
1.0
 40
1.0
 40
1.0
 40
1.0
 10
1274.114353943094
 20
1985.595064280236
 30
0.0
 10
1274.114353943094
 20
1987.960829153053
 30
0.0
 10
1274.114353943094
 20
1992.724509787499
 30
0.0
 10
1274.114353943094
 20
1997.552492199567
 30
0.0
 10
1274.114353943094
 20
1999.982558850007
 30
0.0
  0
SPLINE
  5
2CA
330
25F
100
AcDbEntity
  8
P-SANR-FIXT
100
AcDbSpline
210
0.0
220
0.0
230
1.0
 70
    24
 71
     3
 72
     9
 73
     5
 74
     0
 42
0.000000001
 43
0.0000000001
 40
0.0
 40
0.0
 40
0.0
 40
0.0
 40
0.5
 40
1.0
 40
1.0
 40
1.0
 40
1.0
 10
1274.114353943094
 20
1999.982558850007
 30
0.0
 10
1274.114353943094
 20
2002.412625500448
 30
0.0
 10
1274.114353943094
 20
2007.240607912518
 30
0.0
 10
1274.114353943094
 20
2012.004288546963
 30
0.0
 10
1274.114353943094
 20
2014.370053419781
 30
0.0
  0
ARC
  5
2CB
330
25F
100
AcDbEntity
  8
P-SANR-FIXT
100
AcDbCircle
 10
1307.114353943147
 20
1999.982558850009
 30
0.0
 40
35.99999999998202
100
AcDbArc
 50
143.5564643089051
 51
156.4435356911751
  0
SPLINE
  5
2CC
330
25F
100
AcDbEntity
  8
P-SANR-FIXT
100
AcDbSpline
210
0.0
220
0.0
230
1.0
 70
    24
 71
     3
 72
     9
 73
     5
 74
     0
 42
0.000000001
 43
0.0000000001
 40
0.0
 40
0.0
 40
0.0
 40
0.0
 40
0.5
 40
1.0
 40
1.0
 40
1.0
 40
1.0
 10
1278.154418148857
 20
2021.367649890015
 30
0.0
 10
1280.203230628096
 20
2022.550532326423
 30
0.0
 10
1284.328699073037
 20
2024.932372643643
 30
0.0
 10
1288.509854490908
 20
2027.346363849675
 30
0.0
 10
1290.614353943077
 20
2028.561397174893
 30
0.0
  0
SPLINE
  5
2CD
330
25F
100
AcDbEntity
  8
P-SANR-FIXT
100
AcDbSpline
210
0.0
220
0.0
230
1.0
 70
    24
 71
     3
 72
     9
 73
     5
 74
     0
 42
0.000000001
 43
0.0000000001
 40
0.0
 40
0.0
 40
0.0
 40
0.0
 40
0.5
 40
1.0
 40
1.0
 40
1.0
 40
1.0
 10
1290.614353943077
 20
2028.561397174893
 30
0.0
 10
1292.718853395263
 20
2029.776430500122
 30
0.0
 10
1296.90000881317
 20
2032.190421706175
 30
0.0
 10
1301.025477258147
 20
2034.572262023416
 30
0.0
 10
1303.074289737402
 20
2035.755144459833
 30
0.0
  0
ARC
  5
2CE
330
25F
100
AcDbEntity
  8
P-SANR-FIXT
100
AcDbCircle
 10
1307.114353943147
 20
1999.982558850009
 30
0.0
 40
35.99999999998214
100
AcDbArc
 50
90.00000000011144
 51
96.44353569109652
  0
ARC
  5
2CF
330
25F
100
AcDbEntity
  8
P-SANR-FIXT
100
AcDbCircle
 10
1307.114353943147
 20
1999.982558850009
 30
0.0
 40
35.99999999998204
100
AcDbArc
 50
83.55646430906192
 51
90.00000000011111
  0
SPLINE
  5
2D0
330
25F
100
AcDbEntity
  8
P-SANR-FIXT
100
AcDbSpline
210
0.0
220
0.0
230
1.0
 70
    24
 71
     3
 72
     9
 73
     5
 74
     0
 42
0.000000001
 43
0.0000000001
 40
0.0
 40
0.0
 40
0.0
 40
0.0
 40
0.5
 40
1.0
 40
1.0
 40
1.0
 40
1.0
 10
1311.154418148792
 20
2035.755144459844
 30
0.0
 10
1313.203230628043
 20
2034.572262023429
 30
0.0
 10
1317.328699073012
 20
2032.190421706193
 30
0.0
 10
1321.509854490909
 20
2029.776430500147
 30
0.0
 10
1323.614353943091
 20
2028.56139717492
 30
0.0
  0
SPLINE
  5
2D1
330
25F
100
AcDbEntity
  8
P-SANR-FIXT
100
AcDbSpline
210
0.0
220
0.0
230
1.0
 70
    24
 71
     3
 72
     9
 73
     5
 74
     0
 42
0.000000001
 43
0.0000000001
 40
0.0
 40
0.0
 40
0.0
 40
0.0
 40
0.5
 40
1.0
 40
1.0
 40
1.0
 40
1.0
 10
1323.614353943091
 20
2028.56139717492
 30
0.0
 10
1325.71885339529
 20
2027.346363849684
 30
0.0
 10
1329.900008813224
 20
2024.932372643616
 30
0.0
 10
1334.025477258226
 20
2022.550532326361
 30
0.0
 10
1336.074289737495
 20
2021.367649889936
 30
0.0
  0
ARC
  5
2D2
330
25F
100
AcDbEntity
  8
P-SANR-FIXT
100
AcDbCircle
 10
1307.114353943076
 20
1999.982558850011
 30
0.0
 40
23.89999999996053
100
AcDbArc
 50
90.00000000000055
 51
269.9999999999997
  0
ARC
  5
2D3
330
25F
100
AcDbEntity
  8
P-SANR-FIXT
100
AcDbCircle
 10
1307.114353943076
 20
1999.982558850011
 30
0.0
 40
23.89999999996076
100
AcDbArc
 50
269.9999999999997
 51
90.0
  0
ARC
  5
2D4
330
25F
100
AcDbEntity
  8
P-SANR-FIXT
100
AcDbCircle
 10
1307.114353943076
 20
1999.982558850011
 30
0.0
 40
21.89999999996053
100
AcDbArc
 50
90.0000000000006
 51
269.9999999999997
  0
ARC
  5
2D5
330
25F
100
AcDbEntity
  8
P-SANR-FIXT
100
AcDbCircle
 10
1307.114353943076
 20
1999.982558850011
 30
0.0
 40
21.89999999996075
100
AcDbArc
 50
269.9999999999997
 51
90.0
  0
LINE
  5
2D6
330
25F
100
AcDbEntity
  8
P-SANR-FIXT
100
AcDbLine
 10
1361.864353943057
 20
2020.982558850011
 30
0.0
 11
1361.864353943057
 21
2027.982558850012
 31
0.0
  0
LINE
  5
2D7
330
25F
100
AcDbEntity
  8
P-SANR-FIXT
100
AcDbLine
 10
1252.364353943056
 20
2027.982558850012
 30
0.0
 11
1252.364353943056
 21
2020.982558850011
 31
0.0
  0
LINE
  5
2D8
330
25F
100
AcDbEntity
  8
P-SANR-FIXT
100
AcDbLine
 10
1361.864353943057
 20
2027.982558850012
 30
0.0
 11
1361.864353943057
 21
2036.98255885001
 31
0.0
  0
LINE
  5
2D9
330
25F
100
AcDbEntity
  8
P-SANR-FIXT
100
AcDbLine
 10
1362.114353943049
 20
2027.982558850012
 30
0.0
 11
1362.114353943049
 21
2036.982558850012
 31
0.0
  0
LINE
  5
2DA
330
25F
100
AcDbEntity
  8
P-SANR-FIXT
100
AcDbLine
 10
1252.114353943074
 20
2036.982558850012
 30
0.0
 11
1252.114353943074
 21
2027.982558850012
 31
0.0
  0
LINE
  5
2DB
330
25F
100
AcDbEntity
  8
P-SANR-FIXT
100
AcDbLine
 10
1252.364353943056
 20
2036.98255885001
 30
0.0
 11
1252.364353943056
 21
2027.982558850012
 31
0.0
  0
LINE
  5
2DC
330
25F
100
AcDbEntity
  8
P-SANR-FIXT
100
AcDbLine
 10
1277.886447310487
 20
2020.982558850011
 30
0.0
 11
1264.364353943052
 21
2020.982558850011
 31
0.0
  0
LINE
  5
2DD
330
25F
100
AcDbEntity
  8
P-SANR-FIXT
100
AcDbLine
 10
1264.364353943052
 20
2020.982558850011
 30
0.0
 11
1252.372969596603
 21
2020.982558850011
 31
0.0
  0
LINE
  5
2DE
330
25F
100
AcDbEntity
  8
P-SANR-FIXT
100
AcDbLine
 10
1252.372969596603
 20
2020.982558850011
 30
0.0
 11
1252.381096434647
 21
2020.982558850011
 31
0.0
  0
LINE
  5
2DF
330
25F
100
AcDbEntity
  8
P-SANR-FIXT
100
AcDbLine
 10
1361.847611451459
 20
2020.982558850011
 30
0.0
 11
1361.855738289503
 21
2020.982558850011
 31
0.0
  0
LINE
  5
2E0
330
25F
100
AcDbEntity
  8
P-SANR-FIXT
100
AcDbLine
 10
1361.855738289504
 20
2020.982558850011
 30
0.0
 11
1349.864353943045
 21
2020.982558850011
 31
0.0
  0
LINE
  5
2E1
330
25F
100
AcDbEntity
  8
P-SANR-FIXT
100
AcDbLine
 10
1349.864353943045
 20
2020.982558850011
 30
0.0
 11
1336.342260575787
 21
2020.982558850011
 31
0.0
  0
LINE
  5
2E2
330
25F
100
AcDbEntity
  8
P-SANR-FIXT
100
AcDbLine
 10
1307.114353943053
 20
2036.982558850011
 30
0.0
 11
1307.114353943053
 21
2035.982558849991
 31
0.0
  0
LINE
  5
2E3
330
25F
100
AcDbEntity
  8
P-SANR-FIXT
100
AcDbLine
 10
1349.864353943045
 20
2020.982558850011
 30
0.0
 11
1349.864353943045
 21
2027.982558850011
 31
0.0
  0
LINE
  5
2E4
330
25F
100
AcDbEntity
  8
P-SANR-FIXT
100
AcDbLine
 10
1264.364353943052
 20
2036.982558850011
 30
0.0
 11
1264.364353943052
 21
2027.982558850011
 31
0.0
  0
LINE
  5
2E5
330
25F
100
AcDbEntity
  8
P-SANR-FIXT
100
AcDbLine
 10
1264.364353943052
 20
2020.982558850011
 30
0.0
 11
1264.364353943052
 21
2027.982558850011
 31
0.0
  0
LINE
  5
2E6
330
25F
100
AcDbEntity
  8
P-SANR-FIXT
100
AcDbLine
 10
1349.864353943045
 20
2036.982558850011
 30
0.0
 11
1307.114353943053
 21
2036.982558850011
 31
0.0
  0
LINE
  5
2E7
330
25F
100
AcDbEntity
  8
P-SANR-FIXT
100
AcDbLine
 10
1349.864353943045
 20
2036.982558850011
 30
0.0
 11
1361.864351418207
 21
2036.982558850011
 31
0.0
  0
LINE
  5
2E8
330
25F
100
AcDbEntity
  8
P-SANR-FIXT
100
AcDbLine
 10
1361.879134051791
 20
2036.982558850011
 30
0.0
 11
1362.114353943048
 21
2036.982558850011
 31
0.0
  0
LINE
  5
2E9
330
25F
100
AcDbEntity
  8
P-SANR-FIXT
100
AcDbLine
 10
1252.114353943073
 20
2036.982558850011
 30
0.0
 11
1252.34957383432
 21
2036.982558850011
 31
0.0
  0
LINE
  5
2EA
330
25F
100
AcDbEntity
  8
P-SANR-FIXT
100
AcDbLine
 10
1252.364356467902
 20
2036.982558850011
 30
0.0
 11
1264.364353943052
 21
2036.982558850011
 31
0.0
  0
LINE
  5
2EB
330
25F
100
AcDbEntity
  8
P-SANR-FIXT
100
AcDbLine
 10
1307.114353943053
 20
2036.982558850011
 30
0.0
 11
1264.364353943052
 21
2036.982558850011
 31
0.0
  0
LINE
  5
2EC
330
25F
100
AcDbEntity
  8
P-SANR-FIXT
100
AcDbLine
 10
1252.352168688862
 20
2027.982558850011
 30
0.0
 11
1252.114353943073
 21
2027.982558850011
 31
0.0
  0
LINE
  5
2ED
330
25F
100
AcDbEntity
  8
P-SANR-FIXT
100
AcDbLine
 10
1362.114353943048
 20
2027.982558850011
 30
0.0
 11
1361.87653919725
 21
2027.982558850011
 31
0.0
  0
LINE
  5
2EE
330
25F
100
AcDbEntity
  8
P-SANR-FIXT
100
AcDbLine
 10
1349.864353943045
 20
2027.982558850011
 30
0.0
 11
1349.864353943045
 21
2036.982558850011
 31
0.0
  0
LINE
  5
2EF
330
25F
100
AcDbEntity
  8
P-SANR-FIXT
100
AcDbLine
 10
1284.114353943078
 20
1922.690942384221
 30
0.0
 11
1284.114353943078
 21
1911.982558850011
 31
0.0
  0
LINE
  5
2F0
330
25F
100
AcDbEntity
  8
P-SANR-FIXT
100
AcDbLine
 10
1330.114353943079
 20
1911.982558850011
 30
0.0
 11
1330.114353943079
 21
1922.690942384221
 31
0.0
  0
LINE
  5
2F1
330
25F
100
AcDbEntity
  8
P-SANR-FIXT
100
AcDbLine
 10
1271.114353943078
 20
1971.322304812167
 30
0.0
 11
1271.114353943078
 21
1939.982558850011
 31
0.0
  0
LINE
  5
2F2
330
25F
100
AcDbEntity
  8
P-SANR-FIXT
100
AcDbLine
 10
1343.114353943079
 20
1939.982558850011
 30
0.0
 11
1343.114353943079
 21
1971.322304812167
 31
0.0
  0
LINE
  5
2F3
330
25F
100
AcDbEntity
  8
P-SANR-FIXT
100
AcDbLine
 10
1266.114353943079
 20
2020.982558850011
 30
0.0
 11
1266.114353943079
 21
2008.974517848289
 31
0.0
  0
LINE
  5
2F4
330
25F
100
AcDbEntity
  8
P-SANR-FIXT
100
AcDbLine
 10
1266.114353943079
 20
1990.990599851734
 30
0.0
 11
1266.114353943079
 21
1979.982558850011
 31
0.0
  0
LINE
  5
2F5
330
25F
100
AcDbEntity
  8
P-SANR-FIXT
100
AcDbLine
 10
1348.114353943079
 20
1979.982558850011
 30
0.0
 11
1348.114353943079
 21
1990.990599851734
 31
0.0
  0
LINE
  5
2F6
330
25F
100
AcDbEntity
  8
P-SANR-FIXT
100
AcDbLine
 10
1348.114353943079
 20
2008.974517848289
 30
0.0
 11
1348.114353943079
 21
2020.982558850011
 31
0.0
  0
LWPOLYLINE
  5
2F7
330
25F
100
AcDbEntity
  8
P-SANR-FIXT
100
AcDbPolyline
 90
       28
 70
   128
 43
0.0
 10
1271.114353943078
 20
1971.322304812167
 10
1271.110354476383
 20
1971.5222514831
 10
1271.098362474592
 20
1971.721878282013
 10
1271.078397122348
 20
1971.920865848612
 10
1271.050490359957
 20
1972.118895845238
 10
1271.014686832285
 20
1972.315651466142
 10
1270.971043817339
 20
1972.510817944302
 10
1270.919631134632
 20
1972.704083054988
 10
1270.860531033491
 20
1972.895137615248
 10
1270.793838061468
 20
1973.083675978543
 10
1270.719658913093
 20
1973.26939652371
 10
1270.638112259178
 20
1973.452002137497
 10
1270.549328556975
 20
1973.631200689874
 10
1270.453449841467
 20
1973.806705501386
 10
1270.350629498145
 20
1973.978235801771
 10
1270.241032017627
 20
1974.145517179142
 10
1270.1248327325
 20
1974.308282018979
 10
1270.002217536833
 20
1974.466269932259
 10
1269.873382588783
 20
1974.619228172025
 10
1269.738533996783
 20
1974.766912037719
 10
1269.597887489815
 20
1974.909085266665
 10
1269.451668072285
 20
1975.045520412022
 10
1269.300109664072
 20
1975.175999206662
 10
1269.143454726296
 20
1975.300312912349
 10
1268.981953873441
 20
1975.418262653672
 10
1268.815865472419
 20
1975.529659736207
 10
1268.645455229242
 20
1975.634325948384
 10
1268.614353943079
 20
1975.652431831089
  0
LWPOLYLINE
  5
2F8
330
25F
100
AcDbEntity
  8
P-SANR-FIXT
100
AcDbPolyline
 90
       28
 70
   128
 43
0.0
 10
1345.614353943078
 20
1975.652431831089
 10
1345.443194779996
 20
1975.548994855863
 10
1345.276308901757
 20
1975.438796078213
 10
1345.113963290167
 20
1975.322011792675
 10
1344.956417663573
 20
1975.198828829193
 10
1344.803924061369
 20
1975.069444254232
 10
1344.656726440788
 20
1974.934065055511
 10
1344.515060286622
 20
1974.792907810868
 10
1344.379152234499
 20
1974.646198341783
 10
1344.249219708309
 20
1974.494171352111
 10
1344.125470572377
 20
1974.337070052603
 10
1344.008102798921
 20
1974.175145771826
 10
1343.897304151343
 20
1974.008657554087
 10
1343.793251883841
 20
1973.837871745019
 10
1343.696112457849
 20
1973.663061565484
 10
1343.606041275726
 20
1973.484506674479
 10
1343.523182432147
 20
1973.302492721739
 10
1343.447668483589
 20
1973.117310890761
 10
1343.37962023626
 20
1972.929257432972
 10
1343.319146552838
 20
1972.738633193788
 10
1343.266344178318
 20
1972.545743131327
 10
1343.221297585235
 20
1972.350895828541
 10
1343.184078838528
 20
1972.154402999551
 10
1343.154747480252
 20
1971.956578990966
 10
1343.133350434324
 20
1971.757740278999
 10
1343.119921931452
 20
1971.558204963173
 10
1343.114483454378
 20
1971.358292257428
 10
1343.114353943078
 20
1971.322304812167
  0
LWPOLYLINE
  5
2F9
330
25F
100
AcDbEntity
  8
P-SANR-FIXT
100
AcDbPolyline
 90
       28
 70
   128
 43
0.0
 10
1268.614353943079
 20
1975.652431831089
 10
1268.443194779996
 20
1975.755868806315
 10
1268.276308901757
 20
1975.866067583966
 10
1268.113963290167
 20
1975.982851869504
 10
1267.956417663573
 20
1976.106034832985
 10
1267.803924061369
 20
1976.235419407946
 10
1267.656726440788
 20
1976.370798606667
 10
1267.515060286622
 20
1976.51195585131
 10
1267.379152234499
 20
1976.658665320395
 10
1267.249219708309
 20
1976.810692310068
 10
1267.125470572377
 20
1976.967793609576
 10
1267.008102798921
 20
1977.129717890353
 10
1266.897304151342
 20
1977.296206108092
 10
1266.793251883842
 20
1977.46699191716
 10
1266.696112457849
 20
1977.641802096695
 10
1266.606041275725
 20
1977.8203569877
 10
1266.523182432147
 20
1978.00237094044
 10
1266.447668483589
 20
1978.187552771418
 10
1266.379620236259
 20
1978.375606229207
 10
1266.319146552838
 20
1978.566230468391
 10
1266.266344178318
 20
1978.759120530852
 10
1266.221297585235
 20
1978.953967833637
 10
1266.184078838528
 20
1979.150460662627
 10
1266.154747480252
 20
1979.348284671213
 10
1266.133350434324
 20
1979.54712338318
 10
1266.119921931453
 20
1979.746658699006
 10
1266.114483454377
 20
1979.946571404751
 10
1266.114353943079
 20
1979.982558850011
  0
LWPOLYLINE
  5
2FA
330
25F
100
AcDbEntity
  8
P-SANR-FIXT
100
AcDbPolyline
 90
       28
 70
   128
 43
0.0
 10
1348.114353943079
 20
1979.982558850011
 10
1348.110354476383
 20
1979.782612179078
 10
1348.098362474592
 20
1979.582985380165
 10
1348.078397122348
 20
1979.383997813567
 10
1348.050490359957
 20
1979.18596781694
 10
1348.014686832285
 20
1978.989212196036
 10
1347.971043817339
 20
1978.794045717875
 10
1347.919631134633
 20
1978.600780607191
 10
1347.860531033491
 20
1978.409726046931
 10
1347.793838061468
 20
1978.221187683636
 10
1347.719658913093
 20
1978.035467138468
 10
1347.638112259178
 20
1977.852861524682
 10
1347.549328556975
 20
1977.673662972304
 10
1347.453449841467
 20
1977.498158160793
 10
1347.350629498146
 20
1977.326627860407
 10
1347.241032017627
 20
1977.159346483036
 10
1347.1248327325
 20
1976.996581643199
 10
1347.002217536833
 20
1976.838593729919
 10
1346.873382588783
 20
1976.685635490154
 10
1346.738533996783
 20
1976.537951624458
 10
1346.597887489815
 20
1976.395778395514
 10
1346.451668072285
 20
1976.259343250157
 10
1346.300109664072
 20
1976.128864455517
 10
1346.143454726296
 20
1976.00455074983
 10
1345.981953873441
 20
1975.886601008507
 10
1345.815865472419
 20
1975.775203925972
 10
1345.645455229242
 20
1975.670537713795
 10
1345.614353943078
 20
1975.652431831089
  0
LINE
  5
2FB
330
25F
100
AcDbEntity
  8
P-SANR-FIXT
100
AcDbLine
 10
1284.114353943079
 20
1911.982558850011
 30
0.0
 11
1285.114353943079
 21
1910.982558850011
 31
0.0
  0
LINE
  5
2FC
330
25F
100
AcDbEntity
  8
P-SANR-FIXT
100
AcDbLine
 10
1329.114353943079
 20
1910.982558850011
 30
0.0
 11
1330.114353943078
 21
1911.982558850011
 31
0.0
  0
LWPOLYLINE
  5
2FD
330
25F
100
AcDbEntity
  8
P-SANR-FIXT
100
AcDbPolyline
 90
       34
 70
   128
 43
0.0
 10
1284.114353943079
 20
1922.690942384221
 10
1284.110354476384
 20
1922.890889055154
 10
1284.098362474592
 20
1923.090515854067
 10
1284.078397122348
 20
1923.289503420665
 10
1284.050490359957
 20
1923.487533417292
 10
1284.014686832285
 20
1923.684289038196
 10
1283.971043817339
 20
1923.879455516356
 10
1283.919631134633
 20
1924.072720627041
 10
1283.860531033491
 20
1924.263775187301
 10
1283.793838061469
 20
1924.452313550596
 10
1283.719658913093
 20
1924.638034095764
 10
1283.638112259179
 20
1924.820639709551
 10
1283.549328556975
 20
1924.999838261928
 10
1283.453449841467
 20
1925.17534307344
 10
1283.350629498146
 20
1925.346873373825
 10
1283.241032017627
 20
1925.514154751196
 10
1283.1248327325
 20
1925.676919591033
 10
1283.002217536833
 20
1925.834907504313
 10
1282.873382588783
 20
1925.987865744078
 10
1282.738533996783
 20
1926.135549609774
 10
1282.597887489814
 20
1926.277722838718
 10
1282.451668072285
 20
1926.414157984075
 10
1282.300109664072
 20
1926.544636778716
 10
1282.143454726296
 20
1926.668950484403
 10
1281.981953873441
 20
1926.786900225726
 10
1281.815865472419
 20
1926.89829730826
 10
1281.645455229243
 20
1927.002963520438
 10
1281.470995763947
 20
1927.100731418645
 10
1281.292766174462
 20
1927.191444595104
 10
1281.11105159011
 20
1927.274957928079
 10
1280.926142715462
 20
1927.351137814057
 10
1280.738335365273
 20
1927.419862381469
 10
1280.547929991239
 20
1927.481021685667
 10
1280.503242831967
 20
1927.494169180274
  0
LWPOLYLINE
  5
2FE
330
25F
100
AcDbEntity
  8
P-SANR-FIXT
100
AcDbPolyline
 90
       34
 70
   128
 43
0.0
 10
1333.72546505419
 20
1927.494169180274
 10
1333.534498175639
 20
1927.434786369228
 10
1333.346058729298
 20
1927.367814419772
 10
1333.160448178083
 20
1927.293360472739
 10
1332.977963459281
 20
1927.211543638561
 10
1332.798896509515
 20
1927.122494806719
 10
1332.623533797704
 20
1927.026356436349
 10
1332.452155866779
 20
1926.923282328335
 10
1332.285036884871
 20
1926.813437379261
 10
1332.1224442067
 20
1926.696997317614
 10
1331.964637945867
 20
1926.574148422653
 10
1331.811870558727
 20
1926.445087226403
 10
1331.664386440509
 20
1926.310020199247
 10
1331.522421534342
 20
1926.169163419616
 10
1331.386202953791
 20
1926.02274222831
 10
1331.255948619525
 20
1925.870990867999
 10
1331.131866910695
 20
1925.714152108488
 10
1331.014156331566
 20
1925.552476858335
 10
1330.903005193952
 20
1925.386223763451
 10
1330.798591315964
 20
1925.215658793324
 10
1330.701081737531
 20
1925.04105481552
 10
1330.610632453181
 20
1924.862691159156
 10
1330.527388162471
 20
1924.680853168034
 10
1330.45148203851
 20
1924.495831744149
 10
1330.383035514903
 20
1924.307922882311
 10
1330.322158091487
 20
1924.117427196614
 10
1330.268947159153
 20
1923.924649439517
 10
1330.223487844041
 20
1923.729898014309
 10
1330.185852871359
 20
1923.533484481724
 10
1330.156102449035
 20
1923.335723061516
 10
1330.134284171397
 20
1923.136930129771
 10
1330.120432943035
 20
1922.937423712771
 10
1330.11457092296
 20
1922.737522978225
 10
1330.114353943078
 20
1922.690942384221
  0
LWPOLYLINE
  5
2FF
330
25F
100
AcDbEntity
  8
P-SANR-FIXT
100
AcDbPolyline
 90
       34
 70
   128
 43
0.0
 10
1280.503242831967
 20
1927.494169180274
 10
1280.006728947736
 20
1927.648564488993
 10
1279.51678638725
 20
1927.822691557578
 10
1279.034198954091
 20
1928.016271819864
 10
1278.559738685207
 20
1928.228995588727
 10
1278.094164615813
 20
1928.460522551515
 10
1277.638221565104
 20
1928.710482314476
 10
1277.192638944699
 20
1928.978474995314
 10
1276.758129591738
 20
1929.264071862906
 10
1276.335388628494
 20
1929.566816023189
 10
1275.92509235033
 20
1929.886223150089
 10
1275.527897143765
 20
1930.221782260337
 10
1275.144438436399
 20
1930.572956530942
 10
1274.775329680364
 20
1930.939184157983
 10
1274.42116137093
 20
1931.31987925538
 10
1274.082500101841
 20
1931.714432792189
 10
1273.759887658883
 20
1932.122213566917
 10
1273.453840153145
 20
1932.542569217314
 10
1273.164847195349
 20
1932.974827264011
 10
1272.893371112579
 20
1933.418296186342
 10
1272.639846208656
 20
1933.872266528634
 10
1272.404678069344
 20
1934.33601203518
 10
1272.188242913499
 20
1934.808790812098
 10
1271.9908869912
 20
1935.289846514197
 10
1271.812926029822
 20
1935.778409554976
 10
1271.65464472894
 20
1936.273698337789
 10
1271.516296304872
 20
1936.774920506241
 10
1271.398102085582
 20
1937.281274211783
 10
1271.300251156609
 20
1937.791949396503
 10
1271.222900058565
 20
1938.306129089043
 10
1271.166172536706
 20
1938.822990711582
 10
1271.130159342965
 20
1939.34170739578
 10
1271.114918090771
 20
1939.861449305598
 10
1271.114353943078
 20
1939.982558850011
  0
LWPOLYLINE
  5
300
330
25F
100
AcDbEntity
  8
P-SANR-FIXT
100
AcDbPolyline
 90
       34
 70
   128
 43
0.0
 10
1343.114353943078
 20
1939.982558850011
 10
1343.103955329671
 20
1939.462697505585
 10
1343.072776125013
 20
1938.943667828412
 10
1343.020866209179
 20
1938.426300155255
 10
1342.948308626962
 20
1937.911422164026
 10
1342.855219455015
 20
1937.399857549675
 10
1342.741747616155
 20
1936.892424706458
 10
1342.608074641119
 20
1936.389935418677
 10
1342.45441437815
 20
1935.893193562002
 10
1342.281012650892
 20
1935.402993817435
 10
1342.088146865116
 20
1934.920120399999
 10
1341.876125564938
 20
1934.445345804153
 10
1341.64528793921
 20
1933.979429567972
 10
1341.396003278888
 20
1933.523117058043
 10
1341.128670386253
 20
1933.07713827704
 10
1340.843716936905
 20
1932.642206695876
 10
1340.541598795575
 20
1932.2190181123
 10
1340.222799286841
 20
1931.808249537771
 10
1339.88782842191
 20
1931.410558114382
 10
1339.53722208271
 20
1931.026580063575
 10
1339.171541164592
 20
1930.656929668317
 10
1338.791370679016
 20
1930.30219829039
 10
1338.39731881766
 20
1929.962953424325
 10
1337.990015979444
 20
1929.639737789539
 10
1337.57011376202
 20
1929.333068462099
 10
1337.138283919364
 20
1929.043436047509
 10
1336.695217287104
 20
1928.771303895848
 10
1336.241622677337
 20
1928.517107360507
 10
1335.778225744676
 20
1928.281253101717
 10
1335.30576782536
 20
1928.064118435978
 10
1334.825004751275
 20
1927.866050732437
 10
1334.336705640782
 20
1927.687366857167
 10
1333.841651668294
 20
1927.528352666251
 10
1333.72546505419
 20
1927.494169180274
  0
LINE
  5
301
330
25F
100
AcDbEntity
  8
P-SANR-FIXT
100
AcDbLine
 10
1363.114353943045
 20
2008.982558850012
 30
0.0
 11
1340.114353943122
 21
2008.982558850012
 31
0.0
  0
LINE
  5
302
330
25F
100
AcDbEntity
  8
P-SANR-FIXT
100
AcDbLine
 10
1274.114353943095
 20
2008.982558850012
 30
0.0
 11
1251.114353943111
 21
2008.982558850012
 31
0.0
  0
LINE
  5
303
330
25F
100
AcDbEntity
  8
P-SANR-FIXT
100
AcDbLine
 10
1251.114353943111
 20
1990.982558850011
 30
0.0
 11
1274.114353943096
 21
1990.982558850011
 31
0.0
  0
LINE
  5
304
330
25F
100
AcDbEntity
  8
P-SANR-FIXT
100
AcDbLine
 10
1340.114353943122
 20
1990.982558850011
 30
0.0
 11
1363.114353943045
 21
1990.982558850011
 31
0.0
  0
LINE
  5
305
330
25F
100
AcDbEntity
  8
P-SANR-FIXT
100
AcDbLine
 10
1284.114353943077
 20
1911.98255885001
 30
0.0
 11
1307.114353943077
 21
1911.98255885001
 31
0.0
  0
LINE
  5
306
330
25F
100
AcDbEntity
  8
P-SANR-FIXT
100
AcDbLine
 10
1307.114353943077
 20
1911.98255885001
 30
0.0
 11
1330.114353943077
 21
1911.98255885001
 31
0.0
  0
LINE
  5
307
330
25F
100
AcDbEntity
  8
P-SANR-FIXT
100
AcDbLine
 10
1307.114353943077
 20
1910.98255885001
 30
0.0
 11
1305.050434649889
 21
1910.98255885001
 31
0.0
  0
LINE
  5
308
330
25F
100
AcDbEntity
  8
P-SANR-FIXT
100
AcDbLine
 10
1305.026955806825
 20
1910.98255885001
 30
0.0
 11
1289.186613499342
 21
1910.98255885001
 31
0.0
  0
LINE
  5
309
330
25F
100
AcDbEntity
  8
P-SANR-FIXT
100
AcDbLine
 10
1289.170161915893
 20
1910.98255885001
 30
0.0
 11
1288.356270327287
 21
1910.98255885001
 31
0.0
  0
LINE
  5
30A
330
25F
100
AcDbEntity
  8
P-SANR-FIXT
100
AcDbLine
 10
1288.04837827405
 20
1910.98255885001
 30
0.0
 11
1287.27484911108
 21
1910.98255885001
 31
0.0
  0
LINE
  5
30B
330
25F
100
AcDbEntity
  8
P-SANR-FIXT
100
AcDbLine
 10
1287.099096362331
 20
1910.98255885001
 30
0.0
 11
1285.114353943077
 21
1910.98255885001
 31
0.0
  0
LINE
  5
30C
330
25F
100
AcDbEntity
  8
P-SANR-FIXT
100
AcDbLine
 10
1329.114353943077
 20
1910.98255885001
 30
0.0
 11
1327.129611523824
 21
1910.98255885001
 31
0.0
  0
LINE
  5
30D
330
25F
100
AcDbEntity
  8
P-SANR-FIXT
100
AcDbLine
 10
1326.95385877506
 20
1910.98255885001
 30
0.0
 11
1326.180329612105
 21
1910.98255885001
 31
0.0
  0
LINE
  5
30E
330
25F
100
AcDbEntity
  8
P-SANR-FIXT
100
AcDbLine
 10
1325.872437558867
 20
1910.98255885001
 30
0.0
 11
1325.058545970262
 21
1910.98255885001
 31
0.0
  0
LINE
  5
30F
330
25F
100
AcDbEntity
  8
P-SANR-FIXT
100
AcDbLine
 10
1325.042094386811
 20
1910.98255885001
 30
0.0
 11
1309.20175207933
 21
1910.98255885001
 31
0.0
  0
LINE
  5
310
330
25F
100
AcDbEntity
  8
P-SANR-FIXT
100
AcDbLine
 10
1309.178273236266
 20
1910.98255885001
 30
0.0
 11
1307.114353943077
 21
1910.98255885001
 31
0.0
  0
ENDBLK
  5
312
330
25F
100
AcDbEntity
  8
0
100
AcDbBlockEnd
  0
ENDSEC
  0
SECTION
  2
ENTITIES
  0
INSERT
  5
1B0
330
71
100
AcDbEntity
  8
P-SANR-FIXT
100
AcDbBlockReference
  2
Automatic flow rate regulator valve_Caleffi_121 DN15 - 1 1_2__-928896-Est - Idraulica
 10
0.0
 20
0.0
 30
0.0
1001
REVIT
1002
{
1070
     1
1000
863131
1002
}
1002
{
1070
     5
1000
928896
1002
}
1002
{
1070
     2
1000
-2001160
1002
}
  0
INSERT
  5
25E
330
71
100
AcDbEntity
  8
P-SANR-FIXT
100
AcDbBlockReference
  2
Automatic flow rate regulator valve_Caleffi_121 DN15 - 1 1_2__-V1-Est - Idraulica
 10
0.0
 20
0.0
 30
0.0
1001
REVIT
1002
{
1070
     1
1000
863152
1002
}
1002
{
1070
     5
1000
928896
1002
}
1002
{
1070
     2
1000
-2001160
1002
}
  0
INSERT
  5
313
330
71
100
AcDbEntity
  8
P-SANR-FIXT
100
AcDbBlockReference
  2
Automatic flow rate regulator valve_Caleffi_121 DN15 - 1 1_2__-V2-Est - Idraulica
 10
0.0
 20
0.0
 30
0.0
1001
REVIT
1002
{
1070
     1
1000
863172
1002
}
1002
{
1070
     5
1000
928896
1002
}
1002
{
1070
     2
1000
-2001160
1002
}
  0
ENDSEC
  0
SECTION
  2
OBJECTS
  0
DICTIONARY
  5
C
330
0
100
AcDbDictionary
281
     1
  3
ACAD_CIP_PREVIOUS_PRODUCT_INFO
350
7A
  3
ACAD_COLOR
350
63
  3
ACAD_DETAILVIEWSTYLE
350
6B
  3
ACAD_GROUP
350
D
  3
ACAD_IMAGE_VARS
350
7B
  3
ACAD_LAYOUT
350
62
  3
ACAD_MATERIAL
350
10
  3
ACAD_MLEADERSTYLE
350
66
  3
ACAD_MLINESTYLE
350
5F
  3
ACAD_PLOTSETTINGS
350
61
  3
ACAD_PLOTSTYLENAME
350
E
  3
ACAD_SCALELIST
350
42
  3
ACAD_SECTIONVIEWSTYLE
350
68
  3
ACAD_TABLESTYLE
350
64
  3
ACAD_VISUALSTYLE
350
29
  3
ACDB_RECOMPOSE_DATA
350
31D
  3
AcDbVariableDictionary
350
7C
  3
REVIT_DICTIONARY
350
315
  0
DICTIONARY
  5
319
330
71
100
AcDbDictionary
280
     1
281
     1
  3
ACAD_SORTENTS
360
31A
  0
XRECORD
  5
7A
102
{ACAD_REACTORS
330
C
102
}
330
C
100
AcDbXrecord
280
     1
300
RVT
300
2013
300
RVT2013
  0
DICTIONARY
  5
63
102
{ACAD_REACTORS
330
C
102
}
330
C
100
AcDbDictionary
281
     1
  0
DICTIONARY
  5
6B
102
{ACAD_REACTORS
330
C
102
}
330
C
100
AcDbDictionary
281
     1
  3
Imperial24
350
6C
  0
DICTIONARY
  5
D
102
{ACAD_REACTORS
330
C
102
}
330
C
100
AcDbDictionary
281
     1
  0
RASTERVARIABLES
  5
7B
102
{ACAD_REACTORS
330
C
102
}
330
C
100
AcDbRasterVariables
 90
        0
 70
     0
 71
     1
 72
     1
  0
DICTIONARY
  5
62
102
{ACAD_REACTORS
330
C
102
}
330
C
100
AcDbDictionary
281
     1
  3
Layout1
350
70
  3
Layout2
350
78
  3
Model
350
74
  0
DICTIONARY
  5
10
102
{ACAD_REACTORS
330
C
102
}
330
C
100
AcDbDictionary
281
     1
  3
ByBlock
350
19
  3
ByLayer
350
11
  3
Global
350
21
  0
DICTIONARY
  5
66
102
{ACAD_REACTORS
330
C
102
}
330
C
100
AcDbDictionary
281
     1
  3
Standard
350
67
  0
DICTIONARY
  5
5F
102
{ACAD_REACTORS
330
C
102
}
330
C
100
AcDbDictionary
281
     1
  3
Standard
350
60
  0
DICTIONARY
  5
61
102
{ACAD_REACTORS
330
C
102
}
330
C
100
AcDbDictionary
281
     1
  0
ACDBDICTIONARYWDFLT
  5
E
102
{ACAD_REACTORS
330
C
102
}
330
C
100
AcDbDictionary
281
     1
  3
Normal
350
F
100
AcDbDictionaryWithDefault
340
F
  0
DICTIONARY
  5
42
102
{ACAD_REACTORS
330
C
102
}
330
C
100
AcDbDictionary
281
     1
  3
A0
350
43
  3
A1
350
44
  3
A2
350
45
  3
A3
350
46
  3
A4
350
47
  3
A5
350
48
  3
A6
350
49
  3
A7
350
4A
  3
A8
350
4B
  3
A9
350
4C
  3
B0
350
4D
  3
B1
350
4E
  3
B2
350
4F
  3
B3
350
50
  3
B4
350
51
  3
B5
350
52
  3
B6
350
53
  0
DICTIONARY
  5
68
102
{ACAD_REACTORS
330
C
102
}
330
C
100
AcDbDictionary
281
     1
  3
Imperial24
350
6A
  0
DICTIONARY
  5
64
102
{ACAD_REACTORS
330
C
102
}
330
C
100
AcDbDictionary
281
     1
  3
Standard
350
65
  0
DICTIONARY
  5
29
102
{ACAD_REACTORS
330
C
102
}
330
C
100
AcDbDictionary
281
     1
  3
2dWireframe
350
2F
  3
Basic
350
2E
  3
Brighten
350
35
  3
ColorChange
350
39
  3
Conceptual
350
32
  3
Dim
350
34
  3
EdgeColorOff
350
41
  3
Facepattern
350
38
  3
Flat
350
2A
  3
FlatWithEdges
350
2B
  3
Gouraud
350
2C
  3
GouraudWithEdges
350
2D
  3
Hidden
350
31
  3
JitterOff
350
3F
  3
Linepattern
350
37
  3
OverhangOff
350
40
  3
Realistic
350
33
  3
Shaded
350
3E
  3
Shaded with edges
350
3D
  3
Shades of Gray
350
3A
  3
Sketchy
350
3B
  3
Thicken
350
36
  3
Wireframe
350
30
  3
X-Ray
350
3C
  0
XRECORD
  5
31D
102
{ACAD_REACTORS
330
C
102
}
330
C
100
AcDbXrecord
280
     1
 90
        1
330
65
  0
DICTIONARY
  5
7C
102
{ACAD_REACTORS
330
C
102
}
330
C
100
AcDbDictionary
281
     1
  3
CANNOSCALE
350
81
  3
CMLEADERSTYLE
350
7E
  3
CTABLESTYLE
350
7D
  3
CVIEWDETAILSTYLE
350
7F
  3
CVIEWSECTIONSTYLE
350
80
  0
DICTIONARY
  5
315
102
{ACAD_REACTORS
330
C
102
}
330
C
100
AcDbDictionary
281
     1
  3
DRAWING_TOOL
350
318
  3
REVIT_CATEGORY_MAPPING
350
317
  3
REVIT_TYPE_MAPPING
350
316
  0
SORTENTSTABLE
  5
31A
102
{ACAD_REACTORS
330
319
102
}
330
319
100
AcDbSortentsTable
330
71
  0
ACDBDETAILVIEWSTYLE
  5
6C
102
{ACAD_REACTORS
330
6B
102
}
330
6B
100
AcDbModelDocViewStyle
 70
     0
  3
Imperial24
290
     1
100
AcDbDetailViewStyle
 70
     0
 71
     0
 90
        3
 71
     1
340
55
 62
   256
 40
0.24
340
0
 62
   256
 40
0.24
300

 40
0.36
280
     3
 71
     2
340
5D
 90
       25
 62
   256
 71
     3
340
55
 62
   256
 40
0.24
 90
        1
 40
0.75
 90
        1
300
%<\AcVar ViewType \f "%tc1">% %<\AcVar ViewDetailId>%\PSCALA %<\AcVar ViewScale \f "%sn">%
 71
     4
340
5D
 90
       25
 62
   256
340
5D
 90
       25
 62
   256
280
     0
  0
LAYOUT
  5
70
102
{ACAD_REACTORS
330
62
102
}
330
62
100
AcDbPlotSettings
  1

  2

  4

  6

 40
0.0
 41
0.0
 42
0.0
 43
0.0
 44
0.0
 45
0.0
 46
0.0
 47
0.0
 48
0.0
 49
0.0
140
0.0
141
0.0
142
1.0
143
1.0
 70
   688
 72
     0
 73
     0
 74
     5
  7

 75
    16
147
1.0
 76
     0
 77
     2
 78
   300
148
0.0
149
0.0
100
AcDbLayout
  1
Layout1
 70
     1
 71
     1
 10
0.0
 20
0.0
 11
12.0
 21
9.0
 12
0.0
 22
0.0
 32
0.0
 14
0.0
 24
0.0
 34
0.0
 15
0.0
 25
0.0
 35
0.0
146
0.0
 13
0.0
 23
0.0
 33
0.0
 16
1.0
 26
0.0
 36
0.0
 17
0.0
 27
1.0
 37
0.0
 76
     0
330
6D
  0
LAYOUT
  5
78
102
{ACAD_REACTORS
330
62
102
}
330
62
100
AcDbPlotSettings
  1

  2

  4

  6

 40
0.0
 41
0.0
 42
0.0
 43
0.0
 44
0.0
 45
0.0
 46
0.0
 47
0.0
 48
0.0
 49
0.0
140
0.0
141
0.0
142
1.0
143
1.0
 70
   688
 72
     0
 73
     0
 74
     5
  7

 75
    16
147
1.0
 76
     0
 77
     2
 78
   300
148
0.0
149
0.0
100
AcDbLayout
  1
Layout2
 70
     1
 71
     2
 10
0.0
 20
0.0
 11
12.0
 21
9.0
 12
0.0
 22
0.0
 32
0.0
 14
0.0
 24
0.0
 34
0.0
 15
0.0
 25
0.0
 35
0.0
146
0.0
 13
0.0
 23
0.0
 33
0.0
 16
1.0
 26
0.0
 36
0.0
 17
0.0
 27
1.0
 37
0.0
 76
     0
330
75
  0
LAYOUT
  5
74
102
{ACAD_REACTORS
330
62
102
}
330
62
100
AcDbPlotSettings
  1

  2

  4

  6

 40
0.0
 41
0.0
 42
0.0
 43
0.0
 44
0.0
 45
0.0
 46
0.0
 47
0.0
 48
0.0
 49
0.0
140
0.0
141
0.0
142
1.0
143
1.0
 70
  1712
 72
     0
 73
     0
 74
     0
  7

 75
     0
147
1.0
 76
     0
 77
     2
 78
   300
148
0.0
149
0.0
100
AcDbLayout
  1
Model
 70
     1
 71
     0
 10
0.0
 20
0.0
 11
12.0
 21
9.0
 12
0.0
 22
0.0
 32
0.0
 14
0.0
 24
0.0
 34
0.0
 15
0.0
 25
0.0
 35
0.0
146
0.0
 13
0.0
 23
0.0
 33
0.0
 16
1.0
 26
0.0
 36
0.0
 17
0.0
 27
1.0
 37
0.0
 76
     0
330
71
  0
MATERIAL
  5
19
102
{ACAD_XDICTIONARY
360
1A
102
}
102
{ACAD_REACTORS
330
10
102
}
330
10
100
AcDbMaterial
  1
ByBlock
 72
     0
 43
0.0208333333333333
 43
0.0
 43
0.0
 43
0.0
 43
0.0
 43
0.0208333333333333
 43
0.0
 43
0.0
 43
0.0
 43
0.0
 43
1.0
 43
0.0
 43
0.0
 43
0.0
 43
0.0
 43
1.0
 77
     0
 47
0.0208333333333333
 47
0.0
 47
0.0
 47
0.0
 47
0.0
 47
0.0208333333333333
 47
0.0
 47
0.0
 47
0.0
 47
0.0
 47
1.0
 47
0.0
 47
0.0
 47
0.0
 47
0.0
 47
1.0
171
     0
 49
0.0208333333333333
 49
0.0
 49
0.0
 49
0.0
 49
0.0
 49
0.0208333333333333
 49
0.0
 49
0.0
 49
0.0
 49
0.0
 49
1.0
 49
0.0
 49
0.0
 49
0.0
 49
0.0
 49
1.0
175
     0
142
0.0208333333333333
142
0.0
142
0.0
142
0.0
142
0.0
142
0.0208333333333333
142
0.0
142
0.0
142
0.0
142
0.0
142
1.0
142
0.0
142
0.0
142
0.0
142
0.0
142
1.0
179
     0
144
0.0208333333333333
144
0.0
144
0.0
144
0.0
144
0.0
144
0.0208333333333333
144
0.0
144
0.0
144
0.0
144
0.0
144
1.0
144
0.0
144
0.0
144
0.0
144
0.0
144
1.0
147
0.0208333333333333
147
0.0
147
0.0
147
0.0
147
0.0
147
0.0208333333333333
147
0.0
147
0.0
147
0.0
147
0.0
147
1.0
147
0.0
147
0.0
147
0.0
147
0.0
147
1.0
  0
MATERIAL
  5
11
102
{ACAD_XDICTIONARY
360
12
102
}
102
{ACAD_REACTORS
330
10
102
}
330
10
100
AcDbMaterial
  1
ByLayer
 72
     0
 43
0.0208333333333333
 43
0.0
 43
0.0
 43
0.0
 43
0.0
 43
0.0208333333333333
 43
0.0
 43
0.0
 43
0.0
 43
0.0
 43
1.0
 43
0.0
 43
0.0
 43
0.0
 43
0.0
 43
1.0
 77
     0
 47
0.0208333333333333
 47
0.0
 47
0.0
 47
0.0
 47
0.0
 47
0.0208333333333333
 47
0.0
 47
0.0
 47
0.0
 47
0.0
 47
1.0
 47
0.0
 47
0.0
 47
0.0
 47
0.0
 47
1.0
171
     0
 49
0.0208333333333333
 49
0.0
 49
0.0
 49
0.0
 49
0.0
 49
0.0208333333333333
 49
0.0
 49
0.0
 49
0.0
 49
0.0
 49
1.0
 49
0.0
 49
0.0
 49
0.0
 49
0.0
 49
1.0
175
     0
142
0.0208333333333333
142
0.0
142
0.0
142
0.0
142
0.0
142
0.0208333333333333
142
0.0
142
0.0
142
0.0
142
0.0
142
1.0
142
0.0
142
0.0
142
0.0
142
0.0
142
1.0
179
     0
144
0.0208333333333333
144
0.0
144
0.0
144
0.0
144
0.0
144
0.0208333333333333
144
0.0
144
0.0
144
0.0
144
0.0
144
1.0
144
0.0
144
0.0
144
0.0
144
0.0
144
1.0
147
0.0208333333333333
147
0.0
147
0.0
147
0.0
147
0.0
147
0.0208333333333333
147
0.0
147
0.0
147
0.0
147
0.0
147
1.0
147
0.0
147
0.0
147
0.0
147
0.0
147
1.0
  0
MATERIAL
  5
21
102
{ACAD_XDICTIONARY
360
22
102
}
102
{ACAD_REACTORS
330
10
102
}
330
10
100
AcDbMaterial
  1
Global
 72
     0
 43
0.0208333333333333
 43
0.0
 43
0.0
 43
0.0
 43
0.0
 43
0.0208333333333333
 43
0.0
 43
0.0
 43
0.0
 43
0.0
 43
1.0
 43
0.0
 43
0.0
 43
0.0
 43
0.0
 43
1.0
 77
     0
 47
0.0208333333333333
 47
0.0
 47
0.0
 47
0.0
 47
0.0
 47
0.0208333333333333
 47
0.0
 47
0.0
 47
0.0
 47
0.0
 47
1.0
 47
0.0
 47
0.0
 47
0.0
 47
0.0
 47
1.0
171
     0
 49
0.0208333333333333
 49
0.0
 49
0.0
 49
0.0
 49
0.0
 49
0.0208333333333333
 49
0.0
 49
0.0
 49
0.0
 49
0.0
 49
1.0
 49
0.0
 49
0.0
 49
0.0
 49
0.0
 49
1.0
175
     0
142
0.0208333333333333
142
0.0
142
0.0
142
0.0
142
0.0
142
0.0208333333333333
142
0.0
142
0.0
142
0.0
142
0.0
142
1.0
142
0.0
142
0.0
142
0.0
142
0.0
142
1.0
179
     0
144
0.0208333333333333
144
0.0
144
0.0
144
0.0
144
0.0
144
0.0208333333333333
144
0.0
144
0.0
144
0.0
144
0.0
144
1.0
144
0.0
144
0.0
144
0.0
144
0.0
144
1.0
147
0.0208333333333333
147
0.0
147
0.0
147
0.0
147
0.0
147
0.0208333333333333
147
0.0
147
0.0
147
0.0
147
0.0
147
1.0
147
0.0
147
0.0
147
0.0
147
0.0
147
1.0
  0
MLEADERSTYLE
  5
67
102
{ACAD_REACTORS
330
66
102
}
330
66
100
AcDbMLeaderStyle
179
     2
170
     2
171
     1
172
     0
 90
        2
 40
0.0
 41
0.0
173
     1
 91
-1056964608
340
5B
 92
       -2
290
     1
 42
0.09
291
     1
 43
0.36
  3
Standard
 44
0.18
300

342
55
174
     1
178
     6
175
     1
176
     0
 93
-1056964608
 45
0.18
292
     0
297
     0
 46
0.18
 94
-1056964608
 47
1.0
 49
1.0
140
1.0
293
     1
141
0.0
294
     1
177
     0
142
1.0
295
     1
296
     0
143
0.125
271
     0
272
     9
273
     9
298
     1
  0
MLINESTYLE
  5
60
102
{ACAD_REACTORS
330
5F
102
}
330
5F
100
AcDbMlineStyle
  2
STANDARD
 70
     0
  3

 62
   256
 51
90.0
 52
90.0
 71
     2
 49
0.5
 62
   256
  6
BYLAYER
 49
-0.5
 62
   256
  6
BYLAYER
  0
ACDBPLACEHOLDER
  5
F
102
{ACAD_REACTORS
330
E
102
}
330
E
  0
SCALE
  5
43
102
{ACAD_REACTORS
330
42
102
}
330
42
100
AcDbScale
 70
     0
300
1:1
140
1.0
141
1.0
290
     1
  0
SCALE
  5
44
102
{ACAD_REACTORS
330
42
102
}
330
42
100
AcDbScale
 70
     0
300
1/128" = 1'-0"
140
0.0078125
141
12.0
290
     0
  0
SCALE
  5
45
102
{ACAD_REACTORS
330
42
102
}
330
42
100
AcDbScale
 70
     0
300
1/64" = 1'-0"
140
0.015625
141
12.0
290
     0
  0
SCALE
  5
46
102
{ACAD_REACTORS
330
42
102
}
330
42
100
AcDbScale
 70
     0
300
1/32" = 1'-0"
140
0.03125
141
12.0
290
     0
  0
SCALE
  5
47
102
{ACAD_REACTORS
330
42
102
}
330
42
100
AcDbScale
 70
     0
300
1/16" = 1'-0"
140
0.0625
141
12.0
290
     0
  0
SCALE
  5
48
102
{ACAD_REACTORS
330
42
102
}
330
42
100
AcDbScale
 70
     0
300
3/32" = 1'-0"
140
0.09375
141
12.0
290
     0
  0
SCALE
  5
49
102
{ACAD_REACTORS
330
42
102
}
330
42
100
AcDbScale
 70
     0
300
1/8" = 1'-0"
140
0.125
141
12.0
290
     0
  0
SCALE
  5
4A
102
{ACAD_REACTORS
330
42
102
}
330
42
100
AcDbScale
 70
     0
300
3/16" = 1'-0"
140
0.1875
141
12.0
290
     0
  0
SCALE
  5
4B
102
{ACAD_REACTORS
330
42
102
}
330
42
100
AcDbScale
 70
     0
300
1/4" = 1'-0"
140
0.25
141
12.0
290
     0
  0
SCALE
  5
4C
102
{ACAD_REACTORS
330
42
102
}
330
42
100
AcDbScale
 70
     0
300
3/8" = 1'-0"
140
0.375
141
12.0
290
     0
  0
SCALE
  5
4D
102
{ACAD_REACTORS
330
42
102
}
330
42
100
AcDbScale
 70
     0
300
1/2" = 1'-0"
140
0.5
141
12.0
290
     0
  0
SCALE
  5
4E
102
{ACAD_REACTORS
330
42
102
}
330
42
100
AcDbScale
 70
     0
300
3/4" = 1'-0"
140
0.75
141
12.0
290
     0
  0
SCALE
  5
4F
102
{ACAD_REACTORS
330
42
102
}
330
42
100
AcDbScale
 70
     0
300
1" = 1'-0"
140
1.0
141
12.0
290
     0
  0
SCALE
  5
50
102
{ACAD_REACTORS
330
42
102
}
330
42
100
AcDbScale
 70
     0
300
1-1/2" = 1'-0"
140
1.5
141
12.0
290
     0
  0
SCALE
  5
51
102
{ACAD_REACTORS
330
42
102
}
330
42
100
AcDbScale
 70
     0
300
3" = 1'-0"
140
3.0
141
12.0
290
     0
  0
SCALE
  5
52
102
{ACAD_REACTORS
330
42
102
}
330
42
100
AcDbScale
 70
     0
300
6" = 1'-0"
140
6.0
141
12.0
290
     0
  0
SCALE
  5
53
102
{ACAD_REACTORS
330
42
102
}
330
42
100
AcDbScale
 70
     0
300
1'-0" = 1'-0"
140
12.0
141
12.0
290
     0
  0
ACDBSECTIONVIEWSTYLE
  5
6A
102
{ACAD_REACTORS
330
68
102
}
330
68
100
AcDbModelDocViewStyle
 70
     0
  3
Imperial24
290
     1
100
AcDbSectionViewStyle
 70
     0
 71
     0
 90
       78
 71
     1
340
55
 62
   256
 40
0.24
340
0
340
0
 62
   256
 40
0.24
300
I, O, Q, S, X, Z
 40
0.48
 90
        3
 40
0.18
 90
        1
 71
     2
340
69
 90
       25
 62
   256
340
5D
 90
       50
 62
   256
 40
0.24
 40
0.0
 40
0.24
 71
     3
340
55
 62
   256
 40
0.24
 90
        1
 40
0.75
 90
        1
300
%<\AcVar ViewType \f "%tc1">% %<\AcVar ViewSectionStartId>%-%<\AcVar ViewSectionEndId>%\PSCALA %<\AcVar ViewScale \f "%sn">%
 71
     4
 62
   256
 62
   257
300
ANSI31
 40
1.0
 90
        0
290
     0
290
     0
 90
        6
 40
0.0
 40
1.570796326794896
 40
0.2617993877991494
 40
1.308996938995747
 40
-0.2617993877991494
 40
1.832595714594046
  0
TABLESTYLE
  5
65
102
{ACAD_XDICTIONARY
360
31B
102
}
102
{ACAD_REACTORS
330
64
102
}
330
64
100
AcDbTableStyle
280
     0
  3
Standard
 70
     0
 71
     0
 40
0.06
 41
0.06
280
     0
281
     0
  7
Standard
140
0.18
170
     2
 62
     0
 63
     7
283
     0
 90
      512
 91
        0
  1

274
    -2
284
     1
 64
     0
275
    -2
285
     1
 65
     0
276
    -2
286
     1
 66
     0
277
    -2
287
     1
 67
     0
278
    -2
288
     1
 68
     0
279
    -2
289
     1
 69
     0
  7
Standard
140
0.25
170
     5
 62
     0
 63
     7
283
     0
 90
      512
 91
        0
  1

274
    -2
284
     1
 64
     0
275
    -2
285
     1
 65
     0
276
    -2
286
     1
 66
     0
277
    -2
287
     1
 67
     0
278
    -2
288
     1
 68
     0
279
    -2
289
     1
 69
     0
  7
Standard
140
0.18
170
     5
 62
     0
 63
     7
283
     0
 90
      512
 91
        0
  1

274
    -2
284
     1
 64
     0
275
    -2
285
     1
 65
     0
276
    -2
286
     1
 66
     0
277
    -2
287
     1
 67
     0
278
    -2
288
     1
 68
     0
279
    -2
289
     1
 69
     0
  0
VISUALSTYLE
  5
2F
102
{ACAD_REACTORS
330
29
102
}
330
29
100
AcDbVisualStyle
  2
2dWireframe
 70
     4
177
     3
291
     0
 70
    58
 90
        0
176
     1
 90
        2
176
     1
 90
        0
176
     1
 90
        0
176
     1
 40
0.6
176
     1
 40
30.0
176
     1
 62
     7
420
 16777215
176
     1
 90
        1
176
     1
 90
        4
176
     1
 62
     7
176
     1
 62
   257
176
     1
 90
        1
176
     1
 90
        1
176
     1
 40
1.0
176
     1
 90
        0
176
     1
 62
   257
176
     1
 40
1.0
176
     1
 90
        1
176
     1
 90
        6
176
     1
 90
        2
176
     1
 62
     7
176
     1
 90
        5
176
     1
 90
        0
176
     1
 90
        0
176
     1
290
     0
176
     1
 90
        1
176
     1
 40
0.0
176
     1
 90
        0
176
     1
290
     1
176
     1
290
     1
176
     1
290
     0
176
     1
290
     0
176
     1
290
     0
176
     1
290
     0
176
     1
290
     0
176
     1
290
     0
176
     1
290
     0
176
     1
 90
       50
176
     1
 40
0.0
176
     1
 40
1.0
176
     1
 90
        0
176
     1
 62
    18
420
        0
176
     1
 90
       50
176
     1
 90
        3
176
     1
 62
     5
420
      255
176
     1
290
     0
176
     1
 90
       50
176
     1
 90
       50
176
     1
 90
       50
176
     1
290
     0
176
     1
 90
       50
176
     1
 62
   256
176
     0
 40
1.0
176
     0
 90
        2
176
     1
  1
strokes_ogs.tif
176
     1
290
     0
176
     1
 40
1.0
176
     1
 40
1.0
176
     1
  0
VISUALSTYLE
  5
2E
102
{ACAD_REACTORS
330
29
102
}
330
29
100
AcDbVisualStyle
  2
Basic
 70
     7
177
     3
291
     1
 70
    58
 90
        1
176
     1
 90
        0
176
     1
 90
        1
176
     1
 90
        0
176
     1
 40
0.6
176
     1
 40
30.0
176
     1
 62
     7
420
 16777215
176
     1
 90
        0
176
     1
 90
        4
176
     1
 62
     7
176
     1
 62
   257
176
     1
 90
        1
176
     1
 90
        1
176
     1
 40
1.0
176
     1
 90
        8
176
     1
 62
     7
176
     1
 40
1.0
176
     1
 90
        1
176
     1
 90
        6
176
     1
 90
        2
176
     1
 62
     7
176
     1
 90
        5
176
     1
 90
        0
176
     1
 90
        0
176
     1
290
     0
176
     1
 90
        1
176
     1
 40
0.0
176
     1
 90
        0
176
     1
290
     0
176
     1
290
     1
176
     1
290
     1
176
     1
290
     0
176
     1
290
     0
176
     1
290
     0
176
     1
290
     0
176
     1
290
     0
176
     1
290
     0
176
     1
 90
       50
176
     1
 40
0.0
176
     1
 40
1.0
176
     1
 90
        0
176
     1
 62
    18
420
        0
176
     1
 90
       50
176
     1
 90
        3
176
     1
 62
     5
420
      255
176
     1
290
     0
176
     1
 90
       50
176
     1
 90
       50
176
     1
 90
       50
176
     1
290
     0
176
     1
 90
       50
176
     1
 62
   256
176
     0
 40
1.0
176
     0
 90
        2
176
     1
  1
strokes_ogs.tif
176
     1
290
     0
176
     1
 40
1.0
176
     1
 40
1.0
176
     1
  0
VISUALSTYLE
  5
35
102
{ACAD_REACTORS
330
29
102
}
330
29
100
AcDbVisualStyle
  2
Brighten
 70
    12
177
     3
291
     1
 70
    58
 90
        2
176
     1
 90
        2
176
     1
 90
        0
176
     1
 90
        0
176
     1
 40
0.6
176
     1
 40
30.0
176
     1
 62
     7
420
 16777215
176
     1
 90
        1
176
     1
 90
        4
176
     1
 62
     7
176
     1
 62
   257
176
     1
 90
        1
176
     1
 90
        1
176
     1
 40
1.0
176
     1
 90
        8
176
     1
 62
     7
176
     1
 40
1.0
176
     1
 90
        1
176
     1
 90
        6
176
     1
 90
        2
176
     1
 62
     7
176
     1
 90
        5
176
     1
 90
        0
176
     1
 90
        0
176
     1
290
     0
176
     1
 90
        1
176
     1
 40
50.0
176
     1
 90
        0
176
     1
290
     0
176
     1
290
     1
176
     1
290
     1
176
     1
290
     0
176
     1
290
     0
176
     1
290
     0
176
     1
290
     0
176
     1
290
     0
176
     1
290
     0
176
     1
 90
       50
176
     1
 40
0.0
176
     1
 40
1.0
176
     1
 90
        0
176
     1
 62
    18
420
        0
176
     1
 90
       50
176
     1
 90
        3
176
     1
 62
     5
420
      255
176
     1
290
     0
176
     1
 90
       50
176
     1
 90
       50
176
     1
 90
       50
176
     1
290
     0
176
     1
 90
       50
176
     1
 62
   256
176
     0
 40
1.0
176
     0
 90
        2
176
     1
  1
strokes_ogs.tif
176
     1
290
     0
176
     1
 40
1.0
176
     1
 40
1.0
176
     1
  0
VISUALSTYLE
  5
39
102
{ACAD_REACTORS
330
29
102
}
330
29
100
AcDbVisualStyle
  2
ColorChange
 70
    16
177
     3
291
     1
 70
    58
 90
        2
176
     1
 90
        2
176
     1
 90
        3
176
     1
 90
        0
176
     1
 40
0.6
176
     1
 40
30.0
176
     1
 62
     8
420
  8421504
176
     1
 90
        1
176
     1
 90
        4
176
     1
 62
     7
176
     1
 62
   257
176
     1
 90
        1
176
     1
 90
        1
176
     1
 40
1.0
176
     1
 90
        8
176
     1
 62
     8
420
  8421504
176
     1
 40
1.0
176
     1
 90
        1
176
     1
 90
        6
176
     1
 90
        2
176
     1
 62
     7
176
     1
 90
        5
176
     1
 90
        0
176
     1
 90
        0
176
     1
290
     0
176
     1
 90
        1
176
     1
 40
0.0
176
     1
 90
        0
176
     1
290
     0
176
     1
290
     1
176
     1
290
     1
176
     1
290
     0
176
     1
290
     0
176
     1
290
     0
176
     1
290
     0
176
     1
290
     0
176
     1
290
     0
176
     1
 90
       50
176
     1
 40
0.0
176
     1
 40
1.0
176
     1
 90
        0
176
     1
 62
    18
420
        0
176
     1
 90
       50
176
     1
 90
        3
176
     1
 62
     5
420
      255
176
     1
290
     0
176
     1
 90
       50
176
     1
 90
       50
176
     1
 90
       50
176
     1
290
     0
176
     1
 90
       50
176
     1
 62
   256
176
     0
 40
1.0
176
     0
 90
        2
176
     1
  1
strokes_ogs.tif
176
     1
290
     0
176
     1
 40
1.0
176
     1
 40
1.0
176
     1
  0
VISUALSTYLE
  5
32
102
{ACAD_REACTORS
330
29
102
}
330
29
100
AcDbVisualStyle
  2
Conceptual
 70
     9
177
     3
291
     0
 70
    58
 90
        3
176
     1
 90
        2
176
     1
 90
        0
176
     1
 90
        0
176
     1
 40
0.6
176
     1
 40
30.0
176
     1
 62
     7
420
 16777215
176
     1
 90
        2
176
     1
 90
        2
176
     1
 62
     7
176
     1
 62
   257
176
     1
 90
        1
176
     1
 90
        1
176
     1
 40
179.0
176
     1
 90
        8
176
     1
 62
     7
176
     1
 40
1.0
176
     1
 90
        1
176
     1
 90
        6
176
     1
 90
        2
176
     1
 62
     7
176
     1
 90
        3
176
     1
 90
        0
176
     1
 90
        0
176
     1
290
     0
176
     1
 90
        1
176
     1
 40
0.0
176
     1
 90
        0
176
     1
290
     0
176
     1
290
     1
176
     1
290
     1
176
     1
290
     0
176
     1
290
     0
176
     1
290
     0
176
     1
290
     0
176
     1
290
     0
176
     1
290
     0
176
     1
 90
       50
176
     1
 40
0.0
176
     1
 40
1.0
176
     1
 90
        0
176
     1
 62
    18
420
        0
176
     1
 90
       50
176
     1
 90
        3
176
     1
 62
     5
420
      255
176
     1
290
     0
176
     1
 90
       50
176
     1
 90
       50
176
     1
 90
       50
176
     1
290
     0
176
     1
 90
       50
176
     1
 62
   256
176
     0
 40
1.0
176
     0
 90
        2
176
     1
  1
strokes_ogs.tif
176
     1
290
     0
176
     1
 40
1.0
176
     1
 40
1.0
176
     1
  0
VISUALSTYLE
  5
34
102
{ACAD_REACTORS
330
29
102
}
330
29
100
AcDbVisualStyle
  2
Dim
 70
    11
177
     3
291
     1
 70
    58
 90
        2
176
     1
 90
        2
176
     1
 90
        0
176
     1
 90
        0
176
     1
 40
0.6
176
     1
 40
30.0
176
     1
 62
     7
420
 16777215
176
     1
 90
        1
176
     1
 90
        4
176
     1
 62
     7
176
     1
 62
   257
176
     1
 90
        1
176
     1
 90
        1
176
     1
 40
1.0
176
     1
 90
        8
176
     1
 62
     7
176
     1
 40
1.0
176
     1
 90
        1
176
     1
 90
        6
176
     1
 90
        2
176
     1
 62
     7
176
     1
 90
        5
176
     1
 90
        0
176
     1
 90
        0
176
     1
290
     0
176
     1
 90
        1
176
     1
 40
-50.0
176
     1
 90
        0
176
     1
290
     0
176
     1
290
     1
176
     1
290
     1
176
     1
290
     0
176
     1
290
     0
176
     1
290
     0
176
     1
290
     0
176
     1
290
     0
176
     1
290
     0
176
     1
 90
       50
176
     1
 40
0.0
176
     1
 40
1.0
176
     1
 90
        0
176
     1
 62
    18
420
        0
176
     1
 90
       50
176
     1
 90
        3
176
     1
 62
     5
420
      255
176
     1
290
     0
176
     1
 90
       50
176
     1
 90
       50
176
     1
 90
       50
176
     1
290
     0
176
     1
 90
       50
176
     1
 62
   256
176
     0
 40
1.0
176
     0
 90
        2
176
     1
  1
strokes_ogs.tif
176
     1
290
     0
176
     1
 40
1.0
176
     1
 40
1.0
176
     1
  0
VISUALSTYLE
  5
41
102
{ACAD_REACTORS
330
29
102
}
330
29
100
AcDbVisualStyle
  2
EdgeColorOff
 70
    22
177
     3
291
     1
 70
    58
 90
        2
176
     0
 90
        2
176
     0
 90
        0
176
     0
 90
        0
176
     0
 40
0.6
176
     0
 40
30.0
176
     0
 62
     7
420
 16777215
176
     0
 90
        1
176
     0
 90
        4
176
     0
 62
     7
176
     0
 62
   257
176
     0
 90
        1
176
     0
 90
        1
176
     0
 40
1.0
176
     0
 90
        8
176
     2
 62
     7
176
     0
 40
1.0
176
     0
 90
        1
176
     0
 90
        6
176
     0
 90
        2
176
     0
 62
     7
176
     0
 90
        5
176
     0
 90
        0
176
     0
 90
        0
176
     0
290
     0
176
     0
 90
        1
176
     0
 40
0.0
176
     0
 90
        0
176
     0
290
     0
176
     0
290
     1
176
     0
290
     1
176
     0
290
     0
176
     0
290
     0
176
     0
290
     0
176
     0
290
     0
176
     0
290
     0
176
     0
290
     0
176
     0
 90
       50
176
     0
 40
0.0
176
     0
 40
1.0
176
     0
 90
        0
176
     0
 62
    18
420
        0
176
     0
 90
       50
176
     0
 90
        3
176
     0
 62
     5
420
      255
176
     0
290
     0
176
     0
 90
       50
176
     0
 90
       50
176
     0
 90
       50
176
     0
290
     0
176
     0
 90
       50
176
     0
 62
   256
176
     0
 40
1.0
176
     0
 90
        2
176
     0
  1
strokes_ogs.tif
176
     0
290
     0
176
     0
 40
1.0
176
     0
 40
1.0
176
     0
  0
VISUALSTYLE
  5
38
102
{ACAD_REACTORS
330
29
102
}
330
29
100
AcDbVisualStyle
  2
Facepattern
 70
    15
177
     3
291
     1
 70
    58
 90
        2
176
     1
 90
        2
176
     1
 90
        0
176
     1
 90
        0
176
     1
 40
0.6
176
     1
 40
30.0
176
     1
 62
     7
420
 16777215
176
     1
 90
        1
176
     1
 90
        4
176
     1
 62
     7
176
     1
 62
   257
176
     1
 90
        1
176
     1
 90
        1
176
     1
 40
1.0
176
     1
 90
        8
176
     1
 62
     7
176
     1
 40
1.0
176
     1
 90
        1
176
     1
 90
        6
176
     1
 90
        2
176
     1
 62
     7
176
     1
 90
        5
176
     1
 90
        0
176
     1
 90
        0
176
     1
290
     0
176
     1
 90
        1
176
     1
 40
0.0
176
     1
 90
        0
176
     1
290
     0
176
     1
290
     1
176
     1
290
     1
176
     1
290
     0
176
     1
290
     0
176
     1
290
     0
176
     1
290
     0
176
     1
290
     0
176
     1
290
     0
176
     1
 90
       50
176
     1
 40
0.0
176
     1
 40
1.0
176
     1
 90
        0
176
     1
 62
    18
420
        0
176
     1
 90
       50
176
     1
 90
        3
176
     1
 62
     5
420
      255
176
     1
290
     0
176
     1
 90
       50
176
     1
 90
       50
176
     1
 90
       50
176
     1
290
     0
176
     1
 90
       50
176
     1
 62
   256
176
     0
 40
1.0
176
     0
 90
        2
176
     1
  1
strokes_ogs.tif
176
     1
290
     0
176
     1
 40
1.0
176
     1
 40
1.0
176
     1
  0
VISUALSTYLE
  5
2A
102
{ACAD_REACTORS
330
29
102
}
330
29
100
AcDbVisualStyle
  2
Flat
 70
     0
177
     3
291
     1
 70
    58
 90
        2
176
     1
 90
        1
176
     1
 90
        1
176
     1
 90
        2
176
     1
 40
0.6
176
     1
 40
30.0
176
     1
 62
     7
420
 16777215
176
     1
 90
        0
176
     1
 90
        0
176
     1
 62
     7
176
     1
 62
   257
176
     1
 90
        1
176
     1
 90
        1
176
     1
 40
1.0
176
     1
 90
        8
176
     1
 62
     7
176
     1
 40
1.0
176
     1
 90
        1
176
     1
 90
        6
176
     1
 90
        2
176
     1
 62
     7
176
     1
 90
        5
176
     1
 90
        0
176
     1
 90
        0
176
     1
290
     0
176
     1
 90
       13
176
     1
 40
0.0
176
     1
 90
        0
176
     1
290
     0
176
     1
290
     1
176
     1
290
     1
176
     1
290
     0
176
     1
290
     0
176
     1
290
     0
176
     1
290
     0
176
     1
290
     0
176
     1
290
     0
176
     1
 90
       50
176
     1
 40
0.0
176
     1
 40
1.0
176
     1
 90
        0
176
     1
 62
    18
420
        0
176
     1
 90
       50
176
     1
 90
        3
176
     1
 62
     5
420
      255
176
     1
290
     0
176
     1
 90
       50
176
     1
 90
       50
176
     1
 90
       50
176
     1
290
     0
176
     1
 90
       50
176
     1
 62
   256
176
     0
 40
1.0
176
     0
 90
        2
176
     1
  1
strokes_ogs.tif
176
     1
290
     0
176
     1
 40
1.0
176
     1
 40
1.0
176
     1
  0
VISUALSTYLE
  5
2B
102
{ACAD_REACTORS
330
29
102
}
330
29
100
AcDbVisualStyle
  2
FlatWithEdges
 70
     1
177
     3
291
     1
 70
    58
 90
        2
176
     1
 90
        1
176
     1
 90
        1
176
     1
 90
        2
176
     1
 40
0.6
176
     1
 40
30.0
176
     1
 62
     7
420
 16777215
176
     1
 90
        1
176
     1
 90
        0
176
     1
 62
     7
176
     1
 62
   257
176
     1
 90
        1
176
     1
 90
        1
176
     1
 40
1.0
176
     1
 90
        0
176
     1
 62
   257
176
     1
 40
1.0
176
     1
 90
        1
176
     1
 90
        6
176
     1
 90
        2
176
     1
 62
     7
176
     1
 90
        5
176
     1
 90
        0
176
     1
 90
        0
176
     1
290
     0
176
     1
 90
       13
176
     1
 40
0.0
176
     1
 90
        0
176
     1
290
     0
176
     1
290
     1
176
     1
290
     1
176
     1
290
     0
176
     1
290
     0
176
     1
290
     0
176
     1
290
     0
176
     1
290
     0
176
     1
290
     0
176
     1
 90
       50
176
     1
 40
0.0
176
     1
 40
1.0
176
     1
 90
        0
176
     1
 62
    18
420
        0
176
     1
 90
       50
176
     1
 90
        3
176
     1
 62
     5
420
      255
176
     1
290
     0
176
     1
 90
       50
176
     1
 90
       50
176
     1
 90
       50
176
     1
290
     0
176
     1
 90
       50
176
     1
 62
   256
176
     0
 40
1.0
176
     0
 90
        2
176
     1
  1
strokes_ogs.tif
176
     1
290
     0
176
     1
 40
1.0
176
     1
 40
1.0
176
     1
  0
VISUALSTYLE
  5
2C
102
{ACAD_REACTORS
330
29
102
}
330
29
100
AcDbVisualStyle
  2
Gouraud
 70
     2
177
     3
291
     1
 70
    58
 90
        2
176
     1
 90
        2
176
     1
 90
        1
176
     1
 90
        2
176
     1
 40
0.6
176
     1
 40
30.0
176
     1
 62
     7
420
 16777215
176
     1
 90
        0
176
     1
 90
        0
176
     1
 62
     7
176
     1
 62
   257
176
     1
 90
        1
176
     1
 90
        1
176
     1
 40
1.0
176
     1
 90
        0
176
     1
 62
     7
176
     1
 40
1.0
176
     1
 90
        1
176
     1
 90
        6
176
     1
 90
        2
176
     1
 62
     7
176
     1
 90
        5
176
     1
 90
        0
176
     1
 90
        0
176
     1
290
     0
176
     1
 90
       13
176
     1
 40
0.0
176
     1
 90
        0
176
     1
290
     0
176
     1
290
     1
176
     1
290
     1
176
     1
290
     0
176
     1
290
     0
176
     1
290
     0
176
     1
290
     0
176
     1
290
     0
176
     1
290
     0
176
     1
 90
       50
176
     1
 40
0.0
176
     1
 40
1.0
176
     1
 90
        0
176
     1
 62
    18
420
        0
176
     1
 90
       50
176
     1
 90
        3
176
     1
 62
     5
420
      255
176
     1
290
     0
176
     1
 90
       50
176
     1
 90
       50
176
     1
 90
       50
176
     1
290
     0
176
     1
 90
       50
176
     1
 62
   256
176
     0
 40
1.0
176
     0
 90
        2
176
     1
  1
strokes_ogs.tif
176
     1
290
     0
176
     1
 40
1.0
176
     1
 40
1.0
176
     1
  0
VISUALSTYLE
  5
2D
102
{ACAD_REACTORS
330
29
102
}
330
29
100
AcDbVisualStyle
  2
GouraudWithEdges
 70
     3
177
     3
291
     1
 70
    58
 90
        2
176
     1
 90
        2
176
     1
 90
        1
176
     1
 90
        2
176
     1
 40
0.6
176
     1
 40
30.0
176
     1
 62
     7
420
 16777215
176
     1
 90
        1
176
     1
 90
        0
176
     1
 62
     7
176
     1
 62
   257
176
     1
 90
        1
176
     1
 90
        1
176
     1
 40
1.0
176
     1
 90
        0
176
     1
 62
   257
176
     1
 40
1.0
176
     1
 90
        1
176
     1
 90
        6
176
     1
 90
        2
176
     1
 62
     7
176
     1
 90
        5
176
     1
 90
        0
176
     1
 90
        0
176
     1
290
     0
176
     1
 90
       13
176
     1
 40
0.0
176
     1
 90
        0
176
     1
290
     0
176
     1
290
     1
176
     1
290
     1
176
     1
290
     0
176
     1
290
     0
176
     1
290
     0
176
     1
290
     0
176
     1
290
     0
176
     1
290
     0
176
     1
 90
       50
176
     1
 40
0.0
176
     1
 40
1.0
176
     1
 90
        0
176
     1
 62
    18
420
        0
176
     1
 90
       50
176
     1
 90
        3
176
     1
 62
     5
420
      255
176
     1
290
     0
176
     1
 90
       50
176
     1
 90
       50
176
     1
 90
       50
176
     1
290
     0
176
     1
 90
       50
176
     1
 62
   256
176
     0
 40
1.0
176
     0
 90
        2
176
     1
  1
strokes_ogs.tif
176
     1
290
     0
176
     1
 40
1.0
176
     1
 40
1.0
176
     1
  0
VISUALSTYLE
  5
31
102
{ACAD_REACTORS
330
29
102
}
330
29
100
AcDbVisualStyle
  2
Hidden
 70
     6
177
     3
291
     0
 70
    58
 90
        1
176
     1
 90
        2
176
     1
 90
        2
176
     1
 90
        0
176
     1
 40
0.6
176
     1
 40
30.0
176
     1
 62
     7
420
 16777215
176
     1
 90
        2
176
     1
 90
        2
176
     1
 62
     7
176
     1
 62
   257
176
     1
 90
        2
176
     1
 90
        1
176
     1
 40
40.0
176
     1
 90
        0
176
     1
 62
   257
176
     1
 40
1.0
176
     1
 90
        1
176
     1
 90
        6
176
     1
 90
        2
176
     1
 62
     7
176
     1
 90
        3
176
     1
 90
        0
176
     1
 90
        0
176
     1
290
     0
176
     1
 90
        1
176
     1
 40
0.0
176
     1
 90
        0
176
     1
290
     0
176
     1
290
     1
176
     1
290
     1
176
     1
290
     0
176
     1
290
     0
176
     1
290
     0
176
     1
290
     0
176
     1
290
     0
176
     1
290
     0
176
     1
 90
       50
176
     1
 40
0.0
176
     1
 40
1.0
176
     1
 90
        0
176
     1
 62
    18
420
        0
176
     1
 90
       50
176
     1
 90
        3
176
     1
 62
     5
420
      255
176
     1
290
     0
176
     1
 90
       50
176
     1
 90
       50
176
     1
 90
       50
176
     1
290
     0
176
     1
 90
       50
176
     1
 62
   256
176
     0
 40
1.0
176
     0
 90
        2
176
     1
  1
strokes_ogs.tif
176
     1
290
     0
176
     1
 40
1.0
176
     1
 40
1.0
176
     1
  0
VISUALSTYLE
  5
3F
102
{ACAD_REACTORS
330
29
102
}
330
29
100
AcDbVisualStyle
  2
JitterOff
 70
    20
177
     3
291
     1
 70
    58
 90
        2
176
     0
 90
        2
176
     0
 90
        0
176
     0
 90
        0
176
     0
 40
0.6
176
     0
 40
30.0
176
     0
 62
     7
420
 16777215
176
     0
 90
        1
176
     0
 90
        4
176
     0
 62
     7
176
     0
 62
   257
176
     0
 90
        1
176
     0
 90
        1
176
     0
 40
1.0
176
     0
 90
       10
176
     2
 62
     7
176
     0
 40
1.0
176
     0
 90
        1
176
     0
 90
        6
176
     0
 90
        2
176
     0
 62
     7
176
     0
 90
        5
176
     0
 90
        0
176
     0
 90
        0
176
     0
290
     0
176
     0
 90
        1
176
     0
 40
0.0
176
     0
 90
        0
176
     0
290
     0
176
     0
290
     1
176
     0
290
     1
176
     0
290
     0
176
     0
290
     0
176
     0
290
     0
176
     0
290
     0
176
     0
290
     0
176
     0
290
     0
176
     0
 90
       50
176
     0
 40
0.0
176
     0
 40
1.0
176
     0
 90
        0
176
     0
 62
    18
420
        0
176
     0
 90
       50
176
     0
 90
        3
176
     0
 62
     5
420
      255
176
     0
290
     0
176
     0
 90
       50
176
     0
 90
       50
176
     0
 90
       50
176
     0
290
     0
176
     0
 90
       50
176
     0
 62
   256
176
     0
 40
1.0
176
     0
 90
        2
176
     0
  1
strokes_ogs.tif
176
     0
290
     0
176
     0
 40
1.0
176
     0
 40
1.0
176
     0
  0
VISUALSTYLE
  5
37
102
{ACAD_REACTORS
330
29
102
}
330
29
100
AcDbVisualStyle
  2
Linepattern
 70
    14
177
     3
291
     1
 70
    58
 90
        2
176
     1
 90
        2
176
     1
 90
        0
176
     1
 90
        0
176
     1
 40
0.6
176
     1
 40
30.0
176
     1
 62
     7
420
 16777215
176
     1
 90
        1
176
     1
 90
        4
176
     1
 62
     7
176
     1
 62
   257
176
     1
 90
        7
176
     1
 90
        7
176
     1
 40
1.0
176
     1
 90
        8
176
     1
 62
     7
176
     1
 40
1.0
176
     1
 90
        1
176
     1
 90
        6
176
     1
 90
        2
176
     1
 62
     7
176
     1
 90
        5
176
     1
 90
        0
176
     1
 90
        0
176
     1
290
     0
176
     1
 90
        1
176
     1
 40
0.0
176
     1
 90
        0
176
     1
290
     0
176
     1
290
     1
176
     1
290
     1
176
     1
290
     0
176
     1
290
     0
176
     1
290
     0
176
     1
290
     0
176
     1
290
     0
176
     1
290
     0
176
     1
 90
       50
176
     1
 40
0.0
176
     1
 40
1.0
176
     1
 90
        0
176
     1
 62
    18
420
        0
176
     1
 90
       50
176
     1
 90
        3
176
     1
 62
     5
420
      255
176
     1
290
     0
176
     1
 90
       50
176
     1
 90
       50
176
     1
 90
       50
176
     1
290
     0
176
     1
 90
       50
176
     1
 62
   256
176
     0
 40
1.0
176
     0
 90
        2
176
     1
  1
strokes_ogs.tif
176
     1
290
     0
176
     1
 40
1.0
176
     1
 40
1.0
176
     1
  0
VISUALSTYLE
  5
40
102
{ACAD_REACTORS
330
29
102
}
330
29
100
AcDbVisualStyle
  2
OverhangOff
 70
    21
177
     3
291
     1
 70
    58
 90
        2
176
     0
 90
        2
176
     0
 90
        0
176
     0
 90
        0
176
     0
 40
0.6
176
     0
 40
30.0
176
     0
 62
     7
420
 16777215
176
     0
 90
        1
176
     0
 90
        4
176
     0
 62
     7
176
     0
 62
   257
176
     0
 90
        1
176
     0
 90
        1
176
     0
 40
1.0
176
     0
 90
        9
176
     2
 62
     7
176
     0
 40
1.0
176
     0
 90
        1
176
     0
 90
        6
176
     0
 90
        2
176
     0
 62
     7
176
     0
 90
        5
176
     0
 90
        0
176
     0
 90
        0
176
     0
290
     0
176
     0
 90
        1
176
     0
 40
0.0
176
     0
 90
        0
176
     0
290
     0
176
     0
290
     1
176
     0
290
     1
176
     0
290
     0
176
     0
290
     0
176
     0
290
     0
176
     0
290
     0
176
     0
290
     0
176
     0
290
     0
176
     0
 90
       50
176
     0
 40
0.0
176
     0
 40
1.0
176
     0
 90
        0
176
     0
 62
    18
420
        0
176
     0
 90
       50
176
     0
 90
        3
176
     0
 62
     5
420
      255
176
     0
290
     0
176
     0
 90
       50
176
     0
 90
       50
176
     0
 90
       50
176
     0
290
     0
176
     0
 90
       50
176
     0
 62
   256
176
     0
 40
1.0
176
     0
 90
        2
176
     0
  1
strokes_ogs.tif
176
     0
290
     0
176
     0
 40
1.0
176
     0
 40
1.0
176
     0
  0
VISUALSTYLE
  5
33
102
{ACAD_REACTORS
330
29
102
}
330
29
100
AcDbVisualStyle
  2
Realistic
 70
     8
177
     3
291
     0
 70
    58
 90
        2
176
     1
 90
        3
176
     1
 90
        0
176
     1
 90
        2
176
     1
 40
0.6
176
     1
 40
30.0
176
     1
 62
     7
420
 16777215
176
     1
 90
        0
176
     1
 90
        0
176
     1
 62
     7
176
     1
 62
   257
176
     1
 90
        1
176
     1
 90
        1
176
     1
 40
1.0
176
     1
 90
        8
176
     1
 62
   257
176
     1
 40
1.0
176
     1
 90
        1
176
     1
 90
        6
176
     1
 90
        2
176
     1
 62
     7
176
     1
 90
        3
176
     1
 90
        0
176
     1
 90
        0
176
     1
290
     0
176
     1
 90
       13
176
     1
 40
0.0
176
     1
 90
        0
176
     1
290
     0
176
     1
290
     1
176
     1
290
     1
176
     1
290
     0
176
     1
290
     0
176
     1
290
     0
176
     1
290
     0
176
     1
290
     0
176
     1
290
     0
176
     1
 90
       50
176
     1
 40
0.0
176
     1
 40
1.0
176
     1
 90
        0
176
     1
 62
    18
420
        0
176
     1
 90
       50
176
     1
 90
        3
176
     1
 62
     5
420
      255
176
     1
290
     0
176
     1
 90
       50
176
     1
 90
       50
176
     1
 90
       50
176
     1
290
     0
176
     1
 90
       50
176
     1
 62
   256
176
     0
 40
1.0
176
     0
 90
        2
176
     1
  1
strokes_ogs.tif
176
     1
290
     0
176
     1
 40
1.0
176
     1
 40
1.0
176
     1
  0
VISUALSTYLE
  5
3E
102
{ACAD_REACTORS
330
29
102
}
330
29
100
AcDbVisualStyle
  2
Shaded
 70
    27
177
     3
291
     0
 70
    58
 90
        2
176
     1
 90
        2
176
     1
 90
        1
176
     1
 90
        2
176
     1
 40
0.6
176
     1
 40
30.0
176
     1
 62
     7
420
 16777215
176
     1
 90
        0
176
     1
 90
        4
176
     1
 62
     7
176
     1
 62
   257
176
     1
 90
        1
176
     1
 90
        1
176
     1
 40
1.0
176
     1
 90
        8
176
     1
 62
   257
176
     1
 40
1.0
176
     1
 90
        1
176
     1
 90
        6
176
     1
 90
        2
176
     1
 62
     8
420
  7895160
176
     1
 90
        3
176
     1
 90
        0
176
     1
 90
        0
176
     1
290
     0
176
     1
 90
        5
176
     1
 40
0.0
176
     1
 90
        0
176
     1
290
     0
176
     1
290
     1
176
     1
290
     1
176
     1
290
     0
176
     1
290
     0
176
     1
290
     0
176
     1
290
     0
176
     1
290
     0
176
     1
290
     0
176
     1
 90
       50
176
     1
 40
0.0
176
     1
 40
1.0
176
     1
 90
        0
176
     1
 62
    18
420
        0
176
     1
 90
       50
176
     1
 90
        3
176
     1
 62
     5
420
      255
176
     1
290
     0
176
     1
 90
       50
176
     1
 90
       50
176
     1
 90
       50
176
     1
290
     0
176
     1
 90
       50
176
     1
 62
   256
176
     0
 40
1.0
176
     0
 90
        2
176
     1
  1
strokes_ogs.tif
176
     1
290
     0
176
     1
 40
1.0
176
     1
 40
1.0
176
     1
  0
VISUALSTYLE
  5
3D
102
{ACAD_REACTORS
330
29
102
}
330
29
100
AcDbVisualStyle
  2
Shaded with edges
 70
    26
177
     3
291
     0
 70
    58
 90
        2
176
     1
 90
        2
176
     1
 90
        1
176
     1
 90
        2
176
     1
 40
0.6
176
     1
 40
30.0
176
     1
 62
     7
420
 16777215
176
     1
 90
        1
176
     1
 90
       10
176
     1
 62
     7
176
     1
 62
   257
176
     1
 90
        2
176
     1
 90
        1
176
     1
 40
1.0
176
     1
 90
        8
176
     1
 62
   257
176
     1
 40
1.0
176
     1
 90
        1
176
     1
 90
        6
176
     1
 90
        2
176
     1
 62
     7
176
     1
 90
        3
176
     1
 90
        0
176
     1
 90
        0
176
     1
290
     0
176
     1
 90
        5
176
     1
 40
0.0
176
     1
 90
        0
176
     1
290
     0
176
     1
290
     1
176
     1
290
     1
176
     1
290
     0
176
     1
290
     0
176
     1
290
     0
176
     1
290
     0
176
     1
290
     0
176
     1
290
     0
176
     1
 90
       50
176
     1
 40
0.0
176
     1
 40
1.0
176
     1
 90
        0
176
     1
 62
    18
420
        0
176
     1
 90
       50
176
     1
 90
        3
176
     1
 62
     5
420
      255
176
     1
290
     0
176
     1
 90
       50
176
     1
 90
       50
176
     1
 90
       50
176
     1
290
     0
176
     1
 90
       50
176
     1
 62
   256
176
     0
 40
1.0
176
     0
 90
        2
176
     1
  1
strokes_ogs.tif
176
     1
290
     0
176
     1
 40
1.0
176
     1
 40
1.0
176
     1
  0
VISUALSTYLE
  5
3A
102
{ACAD_REACTORS
330
29
102
}
330
29
100
AcDbVisualStyle
  2
Shades of Gray
 70
    23
177
     3
291
     0
 70
    58
 90
        2
176
     1
 90
        2
176
     1
 90
        3
176
     1
 90
        0
176
     1
 40
0.6
176
     1
 40
30.0
176
     1
 62
     7
420
 16777215
176
     1
 90
        2
176
     1
 90
        2
176
     1
 62
     7
176
     1
 62
     7
176
     1
 90
        1
176
     1
 90
        1
176
     1
 40
40.0
176
     1
 90
        8
176
     1
 62
     7
176
     1
 40
1.0
176
     1
 90
        1
176
     1
 90
        6
176
     1
 90
        2
176
     1
 62
     7
176
     1
 90
        3
176
     1
 90
        0
176
     1
 90
        0
176
     1
290
     0
176
     1
 90
        1
176
     1
 40
0.0
176
     1
 90
        0
176
     1
290
     0
176
     1
290
     1
176
     1
290
     1
176
     1
290
     0
176
     1
290
     0
176
     1
290
     0
176
     1
290
     0
176
     1
290
     0
176
     1
290
     0
176
     1
 90
       50
176
     1
 40
0.0
176
     1
 40
1.0
176
     1
 90
        0
176
     1
 62
    18
420
        0
176
     1
 90
       50
176
     1
 90
        3
176
     1
 62
     5
420
      255
176
     1
290
     0
176
     1
 90
       50
176
     1
 90
       50
176
     1
 90
       50
176
     1
290
     0
176
     1
 90
       50
176
     1
 62
   256
176
     0
 40
1.0
176
     0
 90
        2
176
     1
  1
strokes_ogs.tif
176
     1
290
     0
176
     1
 40
1.0
176
     1
 40
1.0
176
     1
  0
VISUALSTYLE
  5
3B
102
{ACAD_REACTORS
330
29
102
}
330
29
100
AcDbVisualStyle
  2
Sketchy
 70
    24
177
     3
291
     0
 70
    58
 90
        1
176
     1
 90
        2
176
     1
 90
        2
176
     1
 90
        0
176
     1
 40
0.6
176
     1
 40
30.0
176
     1
 62
     7
420
 16777215
176
     1
 90
        2
176
     1
 90
        2
176
     1
 62
     7
176
     1
 62
     7
176
     1
 90
        1
176
     1
 90
        1
176
     1
 40
40.0
176
     1
 90
       11
176
     1
 62
     7
176
     1
 40
1.0
176
     1
 90
        1
176
     1
 90
        6
176
     1
 90
        2
176
     1
 62
     7
176
     1
 90
        6
176
     1
 90
        0
176
     1
 90
        0
176
     1
290
     0
176
     1
 90
        1
176
     1
 40
0.0
176
     1
 90
        0
176
     1
290
     0
176
     1
290
     1
176
     1
290
     1
176
     1
290
     0
176
     1
290
     0
176
     1
290
     0
176
     1
290
     0
176
     1
290
     0
176
     1
290
     0
176
     1
 90
       50
176
     1
 40
0.0
176
     1
 40
1.0
176
     1
 90
        0
176
     1
 62
    18
420
        0
176
     1
 90
       50
176
     1
 90
        3
176
     1
 62
     5
420
      255
176
     1
290
     0
176
     1
 90
       50
176
     1
 90
       50
176
     1
 90
       50
176
     1
290
     0
176
     1
 90
       50
176
     1
 62
   256
176
     0
 40
1.0
176
     0
 90
        2
176
     1
  1
strokes_ogs.tif
176
     1
290
     0
176
     1
 40
1.0
176
     1
 40
1.0
176
     1
  0
VISUALSTYLE
  5
36
102
{ACAD_REACTORS
330
29
102
}
330
29
100
AcDbVisualStyle
  2
Thicken
 70
    13
177
     3
291
     1
 70
    58
 90
        2
176
     1
 90
        2
176
     1
 90
        0
176
     1
 90
        0
176
     1
 40
0.6
176
     1
 40
30.0
176
     1
 62
     7
420
 16777215
176
     1
 90
        1
176
     1
 90
        4
176
     1
 62
     7
176
     1
 62
   257
176
     1
 90
        1
176
     1
 90
        1
176
     1
 40
1.0
176
     1
 90
       12
176
     1
 62
     7
176
     1
 40
1.0
176
     1
 90
        1
176
     1
 90
        6
176
     1
 90
        2
176
     1
 62
     7
176
     1
 90
        5
176
     1
 90
        0
176
     1
 90
        0
176
     1
290
     0
176
     1
 90
        1
176
     1
 40
0.0
176
     1
 90
        0
176
     1
290
     0
176
     1
290
     1
176
     1
290
     1
176
     1
290
     0
176
     1
290
     0
176
     1
290
     0
176
     1
290
     0
176
     1
290
     0
176
     1
290
     0
176
     1
 90
       50
176
     1
 40
0.0
176
     1
 40
1.0
176
     1
 90
        0
176
     1
 62
    18
420
        0
176
     1
 90
       50
176
     1
 90
        3
176
     1
 62
     5
420
      255
176
     1
290
     0
176
     1
 90
       50
176
     1
 90
       50
176
     1
 90
       50
176
     1
290
     0
176
     1
 90
       50
176
     1
 62
   256
176
     0
 40
1.0
176
     0
 90
        2
176
     1
  1
strokes_ogs.tif
176
     1
290
     0
176
     1
 40
1.0
176
     1
 40
1.0
176
     1
  0
VISUALSTYLE
  5
30
102
{ACAD_REACTORS
330
29
102
}
330
29
100
AcDbVisualStyle
  2
Wireframe
 70
     5
177
     3
291
     0
 70
    58
 90
        0
176
     1
 90
        2
176
     1
 90
        0
176
     1
 90
        0
176
     1
 40
0.6
176
     1
 40
30.0
176
     1
 62
     7
420
 16777215
176
     1
 90
        1
176
     1
 90
        4
176
     1
 62
     7
176
     1
 62
   257
176
     1
 90
        1
176
     1
 90
        1
176
     1
 40
1.0
176
     1
 90
        0
176
     1
 62
   257
176
     1
 40
1.0
176
     1
 90
        1
176
     1
 90
        6
176
     1
 90
        2
176
     1
 62
     7
176
     1
 90
        3
176
     1
 90
        0
176
     1
 90
        0
176
     1
290
     0
176
     1
 90
        1
176
     1
 40
0.0
176
     1
 90
        0
176
     1
290
     0
176
     1
290
     1
176
     1
290
     1
176
     1
290
     0
176
     1
290
     0
176
     1
290
     0
176
     1
290
     0
176
     1
290
     0
176
     1
290
     0
176
     1
 90
       50
176
     1
 40
0.0
176
     1
 40
1.0
176
     1
 90
        0
176
     1
 62
    18
420
        0
176
     1
 90
       50
176
     1
 90
        3
176
     1
 62
     5
420
      255
176
     1
290
     0
176
     1
 90
       50
176
     1
 90
       50
176
     1
 90
       50
176
     1
290
     0
176
     1
 90
       50
176
     1
 62
   256
176
     0
 40
1.0
176
     0
 90
        2
176
     1
  1
strokes_ogs.tif
176
     1
290
     0
176
     1
 40
1.0
176
     1
 40
1.0
176
     1
  0
VISUALSTYLE
  5
3C
102
{ACAD_REACTORS
330
29
102
}
330
29
100
AcDbVisualStyle
  2
X-Ray
 70
    25
177
     3
291
     0
 70
    58
 90
        2
176
     1
 90
        2
176
     1
 90
        1
176
     1
 90
        1
176
     1
 40
0.5
176
     1
 40
30.0
176
     1
 62
     7
420
 16777215
176
     1
 90
        1
176
     1
 90
        0
176
     1
 62
     7
176
     1
 62
   257
176
     1
 90
        1
176
     1
 90
        1
176
     1
 40
1.0
176
     1
 90
        8
176
     1
 62
     7
176
     1
 40
1.0
176
     1
 90
        1
176
     1
 90
        6
176
     1
 90
        2
176
     1
 62
     7
176
     1
 90
        3
176
     1
 90
        0
176
     1
 90
        0
176
     1
290
     0
176
     1
 90
       13
176
     1
 40
0.0
176
     1
 90
        0
176
     1
290
     0
176
     1
290
     1
176
     1
290
     1
176
     1
290
     0
176
     1
290
     0
176
     1
290
     0
176
     1
290
     0
176
     1
290
     0
176
     1
290
     0
176
     1
 90
       50
176
     1
 40
0.0
176
     1
 40
1.0
176
     1
 90
        0
176
     1
 62
    18
420
        0
176
     1
 90
       50
176
     1
 90
        3
176
     1
 62
     5
420
      255
176
     1
290
     0
176
     1
 90
       50
176
     1
 90
       50
176
     1
 90
       50
176
     1
290
     0
176
     1
 90
       50
176
     1
 62
   256
176
     0
 40
1.0
176
     0
 90
        2
176
     1
  1
strokes_ogs.tif
176
     1
290
     0
176
     1
 40
1.0
176
     1
 40
1.0
176
     1
  0
DICTIONARYVAR
  5
81
102
{ACAD_REACTORS
330
7C
102
}
330
7C
100
DictionaryVariables
280
     0
  1
1:1
  0
DICTIONARYVAR
  5
7E
102
{ACAD_REACTORS
330
7C
102
}
330
7C
100
DictionaryVariables
280
     0
  1
STANDARD
  0
DICTIONARYVAR
  5
7D
102
{ACAD_REACTORS
330
7C
102
}
330
7C
100
DictionaryVariables
280
     0
  1
STANDARD
  0
DICTIONARYVAR
  5
7F
102
{ACAD_REACTORS
330
7C
102
}
330
7C
100
DictionaryVariables
280
     0
  1
Imperial24
  0
DICTIONARYVAR
  5
80
102
{ACAD_REACTORS
330
7C
102
}
330
7C
100
DictionaryVariables
280
     0
  1
Imperial24
  0
XRECORD
  5
318
102
{ACAD_REACTORS
330
315
102
}
330
315
100
AcDbXrecord
280
     1
  1
BUILDING_ID
  1
Progetto per messa in tavola DXF, DWG
  1
FLOOR_ID
  1
694395
  0
XRECORD
  5
317
102
{ACAD_REACTORS
330
315
102
}
330
315
100
AcDbXrecord
280
     1
  1
-2001160
  1
Apparecchi idraulici
  0
XRECORD
  5
316
102
{ACAD_REACTORS
330
315
102
}
330
315
100
AcDbXrecord
280
     1
  1
928896
  1
Automatic flow rate regulator valve_Caleffi_121 DN15 : 1 1/2''
  0
DICTIONARY
  5
1A
330
19
100
AcDbDictionary
280
     1
281
     1
  3
BUMPTILE
360
1C
  3
DIFFUSETILE
360
1B
  3
OPACITYTILE
360
1F
  3
REFLECTIONTILE
360
1E
  3
REFRACTIONTILE
360
20
  3
SPECULARTILE
360
1D
  0
DICTIONARY
  5
12
330
11
100
AcDbDictionary
280
     1
281
     1
  3
BUMPTILE
360
14
  3
DIFFUSETILE
360
13
  3
OPACITYTILE
360
17
  3
REFLECTIONTILE
360
16
  3
REFRACTIONTILE
360
18
  3
SPECULARTILE
360
15
  0
DICTIONARY
  5
22
330
21
100
AcDbDictionary
280
     1
281
     1
  3
BUMPTILE
360
24
  3
DIFFUSETILE
360
23
  3
OPACITYTILE
360
27
  3
REFLECTIONTILE
360
26
  3
REFRACTIONTILE
360
28
  3
SPECULARTILE
360
25
  0
DICTIONARY
  5
31B
330
65
100
AcDbDictionary
280
     1
281
     1
  3
ACAD_ROUNDTRIP_2008_TABLESTYLE_CELLSTYLEMAP
360
31C
  0
XRECORD
  5
1C
102
{ACAD_REACTORS
330
1A
102
}
330
1A
100
AcDbXrecord
280
     1
270
     1
271
     1
  0
XRECORD
  5
1B
102
{ACAD_REACTORS
330
1A
102
}
330
1A
100
AcDbXrecord
280
     1
270
     1
271
     1
  0
XRECORD
  5
1F
102
{ACAD_REACTORS
330
1A
102
}
330
1A
100
AcDbXrecord
280
     1
270
     1
271
     1
  0
XRECORD
  5
1E
102
{ACAD_REACTORS
330
1A
102
}
330
1A
100
AcDbXrecord
280
     1
270
     1
271
     1
  0
XRECORD
  5
20
102
{ACAD_REACTORS
330
1A
102
}
330
1A
100
AcDbXrecord
280
     1
270
     1
271
     1
  0
XRECORD
  5
1D
102
{ACAD_REACTORS
330
1A
102
}
330
1A
100
AcDbXrecord
280
     1
270
     1
271
     1
  0
XRECORD
  5
14
102
{ACAD_REACTORS
330
12
102
}
330
12
100
AcDbXrecord
280
     1
270
     1
271
     1
  0
XRECORD
  5
13
102
{ACAD_REACTORS
330
12
102
}
330
12
100
AcDbXrecord
280
     1
270
     1
271
     1
  0
XRECORD
  5
17
102
{ACAD_REACTORS
330
12
102
}
330
12
100
AcDbXrecord
280
     1
270
     1
271
     1
  0
XRECORD
  5
16
102
{ACAD_REACTORS
330
12
102
}
330
12
100
AcDbXrecord
280
     1
270
     1
271
     1
  0
XRECORD
  5
18
102
{ACAD_REACTORS
330
12
102
}
330
12
100
AcDbXrecord
280
     1
270
     1
271
     1
  0
XRECORD
  5
15
102
{ACAD_REACTORS
330
12
102
}
330
12
100
AcDbXrecord
280
     1
270
     1
271
     1
  0
XRECORD
  5
24
102
{ACAD_REACTORS
330
22
102
}
330
22
100
AcDbXrecord
280
     1
270
     1
271
     1
  0
XRECORD
  5
23
102
{ACAD_REACTORS
330
22
102
}
330
22
100
AcDbXrecord
280
     1
270
     1
271
     1
  0
XRECORD
  5
27
102
{ACAD_REACTORS
330
22
102
}
330
22
100
AcDbXrecord
280
     1
270
     1
271
     1
  0
XRECORD
  5
26
102
{ACAD_REACTORS
330
22
102
}
330
22
100
AcDbXrecord
280
     1
270
     1
271
     1
  0
XRECORD
  5
28
102
{ACAD_REACTORS
330
22
102
}
330
22
100
AcDbXrecord
280
     1
270
     1
271
     1
  0
XRECORD
  5
25
102
{ACAD_REACTORS
330
22
102
}
330
22
100
AcDbXrecord
280
     1
270
     1
271
     1
  0
CELLSTYLEMAP
  5
31C
102
{ACAD_REACTORS
330
31B
102
}
330
31B
100
AcDbCellStyleMap
 90
        3
300
CELLSTYLE
  1
TABLEFORMAT_BEGIN
 90
        5
170
     1
 91
        0
 92
    32768
 62
   257
 93
        1
300
CONTENTFORMAT
  1
CONTENTFORMAT_BEGIN
 90
        0
 91
        0
 92
      512
 93
        0
300

 40
0.0
140
1.0
 94
        5
 62
     0
340
55
144
0.25
309
CONTENTFORMAT_END
171
     0
 94
        0
309
TABLEFORMAT_END
  1
CELLSTYLE_BEGIN
 90
        1
 91
        1
300
_TITLE
309
CELLSTYLE_END
300
CELLSTYLE
  1
TABLEFORMAT_BEGIN
 90
        5
170
     1
 91
        0
 92
        0
 62
   257
 93
        1
300
CONTENTFORMAT
  1
CONTENTFORMAT_BEGIN
 90
        0
 91
        0
 92
      512
 93
        0
300

 40
0.0
140
1.0
 94
        5
 62
     0
340
55
144
0.18
309
CONTENTFORMAT_END
171
     0
 94
        0
309
TABLEFORMAT_END
  1
CELLSTYLE_BEGIN
 90
        2
 91
        1
300
_HEADER
309
CELLSTYLE_END
300
CELLSTYLE
  1
TABLEFORMAT_BEGIN
 90
        5
170
     1
 91
        0
 92
        0
 62
   257
 93
        1
300
CONTENTFORMAT
  1
CONTENTFORMAT_BEGIN
 90
        0
 91
        0
 92
      512
 93
        0
300

 40
0.0
140
1.0
 94
        2
 62
     0
340
55
144
0.18
309
CONTENTFORMAT_END
171
     0
 94
        0
309
TABLEFORMAT_END
  1
CELLSTYLE_BEGIN
 90
        3
 91
        2
300
_DATA
309
CELLSTYLE_END
  0
ENDSEC
  0
EOF
