  0
SECTION
  2
HEADER
  9
$ACADVER
  1
AC1027
  9
$ACADMAINTVER
 70
    20
  9
$DWGCODEPAGE
  3
ANSI_1252
  9
$REQUIREDVERSIONS
160
                 0
  9
$INSBASE
 10
0.0
 20
0.0
 30
0.0
  9
$EXTMIN
 10
710.6664074431488
 20
1703.745878730053
 30
-0.00000001
  9
$EXTMAX
 10
1269.614353943097
 20
2130.000000000022
 30
0.00000001
  9
$LIMMIN
 10
0.0
 20
0.0
  9
$LIMMAX
 10
12.0
 20
9.0
  9
$ORTHOMODE
 70
     0
  9
$REGENMODE
 70
     1
  9
$FILLMODE
 70
     1
  9
$QTEXTMODE
 70
     0
  9
$MIRRTEXT
 70
     0
  9
$LTSCALE
 40
1.0
  9
$ATTMODE
 70
     1
  9
$TEXTSIZE
 40
0.2
  9
$TRACEWID
 40
0.05
  9
$TEXTSTYLE
  7
Standard
  9
$CLAYER
  8
0
  9
$CELTYPE
  6
ByLayer
  9
$CECOLOR
 62
   256
  9
$CELTSCALE
 40
1.0
  9
$DISPSILH
 70
     0
  9
$DIMSCALE
 40
1.0
  9
$DIMASZ
 40
0.18
  9
$DIMEXO
 40
0.0625
  9
$DIMDLI
 40
0.38
  9
$DIMRND
 40
0.0
  9
$DIMDLE
 40
0.0
  9
$DIMEXE
 40
0.18
  9
$DIMTP
 40
0.0
  9
$DIMTM
 40
0.0
  9
$DIMTXT
 40
0.18
  9
$DIMCEN
 40
0.09
  9
$DIMTSZ
 40
0.0
  9
$DIMTOL
 70
     0
  9
$DIMLIM
 70
     0
  9
$DIMTIH
 70
     1
  9
$DIMTOH
 70
     1
  9
$DIMSE1
 70
     0
  9
$DIMSE2
 70
     0
  9
$DIMTAD
 70
     0
  9
$DIMZIN
 70
     0
  9
$DIMBLK
  1

  9
$DIMASO
 70
     1
  9
$DIMSHO
 70
     1
  9
$DIMPOST
  1

  9
$DIMAPOST
  1

  9
$DIMALT
 70
     0
  9
$DIMALTD
 70
     2
  9
$DIMALTF
 40
25.4
  9
$DIMLFAC
 40
1.0
  9
$DIMTOFL
 70
     0
  9
$DIMTVP
 40
0.0
  9
$DIMTIX
 70
     0
  9
$DIMSOXD
 70
     0
  9
$DIMSAH
 70
     0
  9
$DIMBLK1
  1

  9
$DIMBLK2
  1

  9
$DIMSTYLE
  2
Standard
  9
$DIMCLRD
 70
     0
  9
$DIMCLRE
 70
     0
  9
$DIMCLRT
 70
     0
  9
$DIMTFAC
 40
1.0
  9
$DIMGAP
 40
0.09
  9
$DIMJUST
 70
     0
  9
$DIMSD1
 70
     0
  9
$DIMSD2
 70
     0
  9
$DIMTOLJ
 70
     1
  9
$DIMTZIN
 70
     0
  9
$DIMALTZ
 70
     0
  9
$DIMALTTZ
 70
     0
  9
$DIMUPT
 70
     0
  9
$DIMDEC
 70
     4
  9
$DIMTDEC
 70
     4
  9
$DIMALTU
 70
     2
  9
$DIMALTTD
 70
     2
  9
$DIMTXSTY
  7
Standard
  9
$DIMAUNIT
 70
     0
  9
$DIMADEC
 70
     0
  9
$DIMALTRND
 40
0.0
  9
$DIMAZIN
 70
     0
  9
$DIMDSEP
 70
    46
  9
$DIMATFIT
 70
     3
  9
$DIMFRAC
 70
     0
  9
$DIMLDRBLK
  1

  9
$DIMLUNIT
 70
     2
  9
$DIMLWD
 70
    -2
  9
$DIMLWE
 70
    -2
  9
$DIMTMOVE
 70
     0
  9
$DIMFXL
 40
1.0
  9
$DIMFXLON
 70
     0
  9
$DIMJOGANG
 40
0.7853981633974483
  9
$DIMTFILL
 70
     0
  9
$DIMTFILLCLR
 70
     0
  9
$DIMARCSYM
 70
     0
  9
$DIMLTYPE
  6

  9
$DIMLTEX1
  6

  9
$DIMLTEX2
  6

  9
$DIMTXTDIRECTION
 70
     0
  9
$LUNITS
 70
     2
  9
$LUPREC
 70
     4
  9
$SKETCHINC
 40
0.1
  9
$FILLETRAD
 40
0.0
  9
$AUNITS
 70
     0
  9
$AUPREC
 70
     0
  9
$MENU
  1
.
  9
$ELEVATION
 40
0.0
  9
$PELEVATION
 40
0.0
  9
$THICKNESS
 40
0.0
  9
$LIMCHECK
 70
     0
  9
$CHAMFERA
 40
0.0
  9
$CHAMFERB
 40
0.0
  9
$CHAMFERC
 40
0.0
  9
$CHAMFERD
 40
0.0
  9
$SKPOLY
 70
     0
  9
$TDCREATE
 40
2457576.350282141
  9
$TDUCREATE
 40
2457576.266948808
  9
$TDUPDATE
 40
2457576.350282141
  9
$TDUUPDATE
 40
2457576.266948808
  9
$TDINDWG
 40
0.0000148380
  9
$TDUSRTIMER
 40
0.0000148380
  9
$USRTIMER
 70
     1
  9
$ANGBASE
 50
0.0
  9
$ANGDIR
 70
     0
  9
$PDMODE
 70
     0
  9
$PDSIZE
 40
0.0
  9
$PLINEWID
 40
0.0
  9
$SPLFRAME
 70
     0
  9
$SPLINETYPE
 70
     6
  9
$SPLINESEGS
 70
     8
  9
$HANDSEED
  5
339
  9
$SURFTAB1
 70
     6
  9
$SURFTAB2
 70
     6
  9
$SURFTYPE
 70
     6
  9
$SURFU
 70
     6
  9
$SURFV
 70
     6
  9
$UCSBASE
  2

  9
$UCSNAME
  2

  9
$UCSORG
 10
0.0
 20
0.0
 30
0.0
  9
$UCSXDIR
 10
1.0
 20
0.0
 30
0.0
  9
$UCSYDIR
 10
0.0
 20
1.0
 30
0.0
  9
$UCSORTHOREF
  2

  9
$UCSORTHOVIEW
 70
     0
  9
$UCSORGTOP
 10
0.0
 20
0.0
 30
0.0
  9
$UCSORGBOTTOM
 10
0.0
 20
0.0
 30
0.0
  9
$UCSORGLEFT
 10
0.0
 20
0.0
 30
0.0
  9
$UCSORGRIGHT
 10
0.0
 20
0.0
 30
0.0
  9
$UCSORGFRONT
 10
0.0
 20
0.0
 30
0.0
  9
$UCSORGBACK
 10
0.0
 20
0.0
 30
0.0
  9
$PUCSBASE
  2

  9
$PUCSNAME
  2

  9
$PUCSORG
 10
0.0
 20
0.0
 30
0.0
  9
$PUCSXDIR
 10
1.0
 20
0.0
 30
0.0
  9
$PUCSYDIR
 10
0.0
 20
1.0
 30
0.0
  9
$PUCSORTHOREF
  2

  9
$PUCSORTHOVIEW
 70
     0
  9
$PUCSORGTOP
 10
0.0
 20
0.0
 30
0.0
  9
$PUCSORGBOTTOM
 10
0.0
 20
0.0
 30
0.0
  9
$PUCSORGLEFT
 10
0.0
 20
0.0
 30
0.0
  9
$PUCSORGRIGHT
 10
0.0
 20
0.0
 30
0.0
  9
$PUCSORGFRONT
 10
0.0
 20
0.0
 30
0.0
  9
$PUCSORGBACK
 10
0.0
 20
0.0
 30
0.0
  9
$USERI1
 70
     0
  9
$USERI2
 70
     0
  9
$USERI3
 70
     0
  9
$USERI4
 70
     0
  9
$USERI5
 70
     0
  9
$USERR1
 40
0.0
  9
$USERR2
 40
0.0
  9
$USERR3
 40
0.0
  9
$USERR4
 40
0.0
  9
$USERR5
 40
0.0
  9
$WORLDVIEW
 70
     1
  9
$SHADEDGE
 70
     3
  9
$SHADEDIF
 70
    70
  9
$TILEMODE
 70
     1
  9
$MAXACTVP
 70
    64
  9
$PINSBASE
 10
0.0
 20
0.0
 30
0.0
  9
$PLIMCHECK
 70
     0
  9
$PEXTMIN
 10
1.000000000000000E+20
 20
1.000000000000000E+20
 30
1.000000000000000E+20
  9
$PEXTMAX
 10
-1.000000000000000E+20
 20
-1.000000000000000E+20
 30
-1.000000000000000E+20
  9
$PLIMMIN
 10
0.0
 20
0.0
  9
$PLIMMAX
 10
12.0
 20
9.0
  9
$UNITMODE
 70
     0
  9
$VISRETAIN
 70
     1
  9
$PLINEGEN
 70
     0
  9
$PSLTSCALE
 70
     1
  9
$TREEDEPTH
 70
  3020
  9
$CMLSTYLE
  2
Standard
  9
$CMLJUST
 70
     0
  9
$CMLSCALE
 40
1.0
  9
$PROXYGRAPHICS
 70
     1
  9
$MEASUREMENT
 70
     1
  9
$CELWEIGHT
370
    -1
  9
$ENDCAPS
280
     0
  9
$JOINSTYLE
280
     0
  9
$LWDISPLAY
290
     0
  9
$INSUNITS
 70
     4
  9
$HYPERLINKBASE
  1

  9
$STYLESHEET
  1

  9
$XEDIT
290
     1
  9
$CEPSNTYPE
380
     0
  9
$PSTYLEMODE
290
     1
  9
$FINGERPRINTGUID
  2
{F1A4C500-4FEA-4B35-B17B-EB5F7560F281}
  9
$VERSIONGUID
  2
{4BCFA420-8904-42F6-9BA1-2315BC133823}
  9
$EXTNAMES
290
     1
  9
$PSVPSCALE
 40
0.0
  9
$OLESTARTUP
290
     0
  9
$SORTENTS
280
   127
  9
$INDEXCTL
280
     0
  9
$HIDETEXT
280
     1
  9
$XCLIPFRAME
280
     2
  9
$HALOGAP
280
     0
  9
$OBSCOLOR
 70
   257
  9
$OBSLTYPE
280
     0
  9
$INTERSECTIONDISPLAY
280
     0
  9
$INTERSECTIONCOLOR
 70
   257
  9
$DIMASSOC
280
     2
  9
$PROJECTNAME
  1

  9
$CAMERADISPLAY
290
     0
  9
$LENSLENGTH
 40
50.0
  9
$CAMERAHEIGHT
 40
0.0
  9
$STEPSPERSEC
 40
2.0
  9
$STEPSIZE
 40
6.0
  9
$3DDWFPREC
 40
2.0
  9
$PSOLWIDTH
 40
0.25
  9
$PSOLHEIGHT
 40
4.0
  9
$LOFTANG1
 40
1.570796326794896
  9
$LOFTANG2
 40
1.570796326794896
  9
$LOFTMAG1
 40
0.0
  9
$LOFTMAG2
 40
0.0
  9
$LOFTPARAM
 70
     7
  9
$LOFTNORMALS
280
     1
  9
$LATITUDE
 40
37.795
  9
$LONGITUDE
 40
-122.394
  9
$NORTHDIRECTION
 40
0.0
  9
$TIMEZONE
 70
 -8000
  9
$LIGHTGLYPHDISPLAY
280
     1
  9
$TILEMODELIGHTSYNCH
280
     1
  9
$CMATERIAL
347
11
  9
$SOLIDHIST
280
     0
  9
$SHOWHIST
280
     1
  9
$DWFFRAME
280
     2
  9
$DGNFRAME
280
     0
  9
$REALWORLDSCALE
290
     1
  9
$INTERFERECOLOR
 62
     1
  9
$INTERFEREOBJVS
345
33
  9
$INTERFEREVPVS
346
30
  9
$CSHADOW
280
     0
  9
$SHADOWPLANELOCATION
 40
0.0
  0
ENDSEC
  0
SECTION
  2
CLASSES
  0
CLASS
  1
ACDBDICTIONARYWDFLT
  2
AcDbDictionaryWithDefault
  3
ObjectDBX Classes
 90
        0
 91
        1
280
     0
281
     0
  0
CLASS
  1
MATERIAL
  2
AcDbMaterial
  3
ObjectDBX Classes
 90
     1153
 91
        3
280
     0
281
     0
  0
CLASS
  1
VISUALSTYLE
  2
AcDbVisualStyle
  3
ObjectDBX Classes
 90
     4095
 91
       24
280
     0
281
     0
  0
CLASS
  1
SCALE
  2
AcDbScale
  3
ObjectDBX Classes
 90
     1153
 91
       17
280
     0
281
     0
  0
CLASS
  1
TABLESTYLE
  2
AcDbTableStyle
  3
ObjectDBX Classes
 90
     4095
 91
        1
280
     0
281
     0
  0
CLASS
  1
MLEADERSTYLE
  2
AcDbMLeaderStyle
  3
ACDB_MLEADERSTYLE_CLASS
 90
     4095
 91
        1
280
     0
281
     0
  0
CLASS
  1
ACDBSECTIONVIEWSTYLE
  2
AcDbSectionViewStyle
  3
ObjectDBX Classes
 90
     1025
 91
        1
280
     0
281
     0
  0
CLASS
  1
ACDBDETAILVIEWSTYLE
  2
AcDbDetailViewStyle
  3
ObjectDBX Classes
 90
     1025
 91
        1
280
     0
281
     0
  0
CLASS
  1
RASTERVARIABLES
  2
AcDbRasterVariables
  3
ISM
 90
        0
 91
        1
280
     0
281
     0
  0
CLASS
  1
DICTIONARYVAR
  2
AcDbDictionaryVar
  3
ObjectDBX Classes
 90
        0
 91
        5
280
     0
281
     0
  0
CLASS
  1
CELLSTYLEMAP
  2
AcDbCellStyleMap
  3
ObjectDBX Classes
 90
     1152
 91
        2
280
     0
281
     0
  0
CLASS
  1
SORTENTSTABLE
  2
AcDbSortentsTable
  3
ObjectDBX Classes
 90
        0
 91
        1
280
     0
281
     0
  0
ENDSEC
  0
SECTION
  2
TABLES
  0
TABLE
  2
VPORT
  5
8
330
0
100
AcDbSymbolTable
 70
     1
  0
VPORT
  5
57
330
8
100
AcDbSymbolTableRecord
100
AcDbViewportTableRecord
  2
*Active
 70
     0
 10
0.0
 20
0.0
 11
1.0
 21
1.0
 12
990.1403806931233
 22
1916.872939365037
 13
0.0
 23
0.0
 14
1.0
 24
1.0
 15
0.0
 25
0.0
 16
0.0
 26
0.0
 36
1.0
 17
0.0
 27
0.0
 37
0.0
 40
426.2541212699684
 41
1.31130215195254
 42
50.0
 43
0.0
 44
0.0
 50
0.0
 51
0.0
 71
     0
 72
  1000
 73
     1
 74
     1
 75
     0
 76
     0
 77
     0
 78
     0
281
     0
 65
     1
110
0.0
120
0.0
130
0.0
111
1.0
121
0.0
131
0.0
112
0.0
122
1.0
132
0.0
 79
     0
146
0.0
 60
     3
 61
     5
292
     1
282
     1
141
0.0
142
0.0
 63
   250
421
  3355443
  0
ENDTAB
  0
TABLE
  2
LTYPE
  5
5
330
0
100
AcDbSymbolTable
 70
     3
  0
LTYPE
  5
5B
330
5
100
AcDbSymbolTableRecord
100
AcDbLinetypeTableRecord
  2
ByBlock
 70
     0
  3

 72
    65
 73
     0
 40
0.0
  0
LTYPE
  5
5C
330
5
100
AcDbSymbolTableRecord
100
AcDbLinetypeTableRecord
  2
ByLayer
 70
     0
  3

 72
    65
 73
     0
 40
0.0
  0
LTYPE
  5
5D
330
5
100
AcDbSymbolTableRecord
100
AcDbLinetypeTableRecord
  2
Continuous
 70
     0
  3
Solid line
 72
    65
 73
     0
 40
0.0
  0
LTYPE
  5
69
330
5
100
AcDbSymbolTableRecord
100
AcDbLinetypeTableRecord
  2
PHANTOM2
 70
     0
  3
___ _ _ ___ _ _ ___ _ _ ___ _ _
 72
    65
 73
     6
 40
1.25
 49
0.625
 74
     0
 49
-0.125
 74
     0
 49
0.125
 74
     0
 49
-0.125
 74
     0
 49
0.125
 74
     0
 49
-0.125
 74
     0
  0
LTYPE
  5
86
330
5
100
AcDbSymbolTableRecord
100
AcDbLinetypeTableRecord
  2
Nascosto 1_5 mm
 70
     0
  3

 72
    65
 73
     2
 40
2.2
 49
1.5
 74
     0
 49
-0.7000000000000001
 74
     0
  0
ENDTAB
  0
TABLE
  2
LAYER
  5
2
330
0
100
AcDbSymbolTable
 70
     4
  0
LAYER
  5
54
330
2
100
AcDbSymbolTableRecord
100
AcDbLayerTableRecord
  2
0
 70
     0
 62
     7
  6
Continuous
370
    -3
390
F
347
21
348
0
  0
LAYER
  5
85
330
2
100
AcDbSymbolTableRecord
100
AcDbLayerTableRecord
  2
P-SANR-FIXT
 70
     0
 62
     6
  6
Continuous
370
    18
390
F
347
21
348
0
  0
LAYER
  5
88
330
2
100
AcDbSymbolTableRecord
100
AcDbLayerTableRecord
  2
M-PIPE
 70
     0
 62
     3
  6
Continuous
370
    18
390
F
347
21
348
0
  0
ENDTAB
  0
TABLE
  2
STYLE
  5
3
330
0
100
AcDbSymbolTable
 70
     2
  0
STYLE
  5
55
330
3
100
AcDbSymbolTableRecord
100
AcDbTextStyleTableRecord
  2
Standard
 70
     0
 40
0.0
 41
1.0
 50
0.0
 71
     0
 42
0.2
  3
txt
  4

  0
STYLE
  5
5A
330
3
100
AcDbSymbolTableRecord
100
AcDbTextStyleTableRecord
  2
Annotative
 70
     0
 40
0.0
 41
1.0
 50
0.0
 71
     0
 42
0.2
  3
txt
  4

1001
AcadAnnotative
1000
AnnotativeData
1002
{
1070
     1
1070
     1
1002
}
  0
ENDTAB
  0
TABLE
  2
VIEW
  5
6
330
0
100
AcDbSymbolTable
 70
     0
  0
ENDTAB
  0
TABLE
  2
UCS
  5
7
330
0
100
AcDbSymbolTable
 70
     0
  0
ENDTAB
  0
TABLE
  2
APPID
  5
9
330
0
100
AcDbSymbolTable
 70
     3
  0
APPID
  5
56
330
9
100
AcDbSymbolTableRecord
100
AcDbRegAppTableRecord
  2
ACAD
 70
     0
  0
APPID
  5
5E
330
9
100
AcDbSymbolTableRecord
100
AcDbRegAppTableRecord
  2
AcadAnnotative
 70
     0
  0
APPID
  5
79
330
9
100
AcDbSymbolTableRecord
100
AcDbRegAppTableRecord
  2
REVIT
 70
     0
  0
ENDTAB
  0
TABLE
  2
DIMSTYLE
  5
A
330
0
100
AcDbSymbolTable
 70
     2
100
AcDbDimStyleTable
 71
     0
  0
DIMSTYLE
105
58
330
A
100
AcDbSymbolTableRecord
100
AcDbDimStyleTableRecord
  2
Standard
 70
     0
340
55
  0
DIMSTYLE
105
59
330
A
100
AcDbSymbolTableRecord
100
AcDbDimStyleTableRecord
  2
Annotative
 70
     0
340
55
1001
AcadAnnotative
1000
AnnotativeData
1002
{
1070
     1
1070
     1
1002
}
  0
ENDTAB
  0
TABLE
  2
BLOCK_RECORD
  5
1
330
0
100
AcDbSymbolTable
 70
     4
  0
BLOCK_RECORD
  5
71
102
{ACAD_XDICTIONARY
360
334
102
}
330
1
100
AcDbSymbolTableRecord
100
AcDbBlockTableRecord
  2
*Model_Space
340
74
 70
     0
280
     1
281
     0
  0
BLOCK_RECORD
  5
6D
330
1
100
AcDbSymbolTableRecord
100
AcDbBlockTableRecord
  2
*Paper_Space
340
70
 70
     0
280
     1
281
     0
  0
BLOCK_RECORD
  5
75
330
1
100
AcDbSymbolTableRecord
100
AcDbBlockTableRecord
  2
*Paper_Space0
340
78
 70
     0
280
     1
281
     0
  0
BLOCK_RECORD
  5
87
330
1
100
AcDbSymbolTableRecord
100
AcDbBlockTableRecord
  2
Automatic flow rate regulator valve_Caleffi_121 DN15 - 1 1_2___Pressure gauge-928898-Est - Idraulica
340
0
102
{BLKREFS
331
182
102
}
 70
     0
280
     1
281
     0
  0
BLOCK_RECORD
  5
183
330
1
100
AcDbSymbolTableRecord
100
AcDbBlockTableRecord
  2
Automatic flow rate regulator valve_Caleffi_121 DN15 - 1 1_2___Pressure gauge-V1-Est - Idraulica
340
0
102
{BLKREFS
331
273
102
}
 70
     0
280
     1
281
     0
  0
BLOCK_RECORD
  5
274
330
1
100
AcDbSymbolTableRecord
100
AcDbBlockTableRecord
  2
Automatic flow rate regulator valve_Caleffi_121 DN15 - 1 1_2___Pressure gauge-V2-Est - Idraulica
340
0
102
{BLKREFS
331
32D
102
}
 70
     0
280
     1
281
     0
  0
ENDTAB
  0
ENDSEC
  0
SECTION
  2
BLOCKS
  0
BLOCK
  5
72
330
71
100
AcDbEntity
  8
0
100
AcDbBlockBegin
  2
*Model_Space
 70
     0
 10
0.0
 20
0.0
 30
0.0
  3
*Model_Space
  1

  0
ENDBLK
  5
73
330
71
100
AcDbEntity
  8
0
100
AcDbBlockEnd
  0
BLOCK
  5
6E
330
6D
100
AcDbEntity
 67
     1
  8
0
100
AcDbBlockBegin
  2
*Paper_Space
 70
     0
 10
0.0
 20
0.0
 30
0.0
  3
*Paper_Space
  1

  0
ENDBLK
  5
6F
330
6D
100
AcDbEntity
 67
     1
  8
0
100
AcDbBlockEnd
  0
BLOCK
  5
76
330
75
100
AcDbEntity
 67
     1
  8
0
100
AcDbBlockBegin
  2
*Paper_Space0
 70
     0
 10
0.0
 20
0.0
 30
0.0
  3
*Paper_Space0
  1

  0
ENDBLK
  5
77
330
75
100
AcDbEntity
 67
     1
  8
0
100
AcDbBlockEnd
  0
BLOCK
  5
180
330
87
100
AcDbEntity
  8
0
100
AcDbBlockBegin
  2
Automatic flow rate regulator valve_Caleffi_121 DN15 - 1 1_2___Pressure gauge-928898-Est - Idraulica
 70
     0
 10
0.0
 20
0.0
 30
0.0
  3
Automatic flow rate regulator valve_Caleffi_121 DN15 - 1 1_2___Pressure gauge-928898-Est - Idraulica
  1

  0
ARC
  5
89
330
87
100
AcDbEntity
  8
M-PIPE
100
AcDbCircle
 10
847.6664074431544
 20
2000.000000000035
 30
0.0
 40
3.5
100
AcDbArc
 50
0.0000000000037222
 51
180.0
1001
REVIT
1002
{
1070
     3
1000
923159
1002
}
  0
ARC
  5
8A
330
87
100
AcDbEntity
  8
M-PIPE
100
AcDbCircle
 10
847.6664074431544
 20
2000.000000000035
 30
0.0
 40
3.5
100
AcDbArc
 50
180.0
 51
0.0
1001
REVIT
1002
{
1070
     3
1000
923159
1002
}
  0
ARC
  5
8B
330
87
100
AcDbEntity
  8
M-PIPE
100
AcDbCircle
 10
847.6664074431544
 20
2000.000000000035
 30
0.0
 40
31.00000000001183
100
AcDbArc
 50
0.0
 51
180.0
1001
REVIT
1002
{
1070
     3
1000
923159
1002
}
  0
ARC
  5
8C
330
87
100
AcDbEntity
  8
M-PIPE
100
AcDbCircle
 10
847.6664074431544
 20
2000.000000000035
 30
0.0
 40
31.00000000001171
100
AcDbArc
 50
180.0000000000006
 51
359.9999999999994
1001
REVIT
1002
{
1070
     3
1000
923159
1002
}
  0
LINE
  5
8D
330
87
100
AcDbEntity
  8
P-SANR-FIXT
100
AcDbLine
 10
749.3984582507381
 20
1964.000000000013
 30
0.0
 11
771.9343566356335
 21
1964.000000000013
 31
0.0
  0
LINE
  5
8E
330
87
100
AcDbEntity
  8
P-SANR-FIXT
100
AcDbLine
 10
771.9343566356335
 20
2035.999999999981
 30
0.0
 11
749.3984582507381
 21
2035.999999999981
 31
0.0
  0
LINE
  5
8F
330
87
100
AcDbEntity
  8
P-SANR-FIXT
100
AcDbLine
 10
771.9343566356341
 20
1964.000000000013
 30
0.0
 11
771.9657006313854
 21
1964.054289393166
 31
0.0
  0
LINE
  5
90
330
87
100
AcDbEntity
  8
P-SANR-FIXT
100
AcDbLine
 10
771.9672070357601
 20
1964.05689856208
 30
0.0
 11
773.666407443189
 21
1966.999999999989
 31
0.0
  0
LINE
  5
91
330
87
100
AcDbEntity
  8
P-SANR-FIXT
100
AcDbLine
 10
773.666407443189
 20
2033.000000000003
 30
0.0
 11
771.967207035759
 21
2035.943101437913
 31
0.0
  0
LINE
  5
92
330
87
100
AcDbEntity
  8
P-SANR-FIXT
100
AcDbLine
 10
771.9657006313841
 20
2035.945710606827
 30
0.0
 11
771.934356635629
 21
2035.999999999987
 31
0.0
  0
LINE
  5
93
330
87
100
AcDbEntity
  8
P-SANR-FIXT
100
AcDbLine
 10
747.6664074431891
 20
1966.999999999978
 30
0.0
 11
749.3656078506113
 21
1964.05689856208
 31
0.0
  0
LINE
  5
94
330
87
100
AcDbEntity
  8
P-SANR-FIXT
100
AcDbLine
 10
749.3671142549861
 20
1964.054289393166
 30
0.0
 11
749.3984582507416
 21
1964.000000000006
 31
0.0
  0
LINE
  5
95
330
87
100
AcDbEntity
  8
P-SANR-FIXT
100
AcDbLine
 10
749.3984582507384
 20
2035.999999999981
 30
0.0
 11
749.3671142549873
 21
2035.945710606827
 31
0.0
  0
LINE
  5
96
330
87
100
AcDbEntity
  8
P-SANR-FIXT
100
AcDbLine
 10
749.3656078506124
 20
2035.943101437913
 30
0.0
 11
747.6664074431891
 21
2033.000000000014
 31
0.0
  0
LINE
  5
97
330
87
100
AcDbEntity
  8
P-SANR-FIXT
100
AcDbLine
 10
747.6664074431879
 20
2029.314052580718
 30
0.0
 11
747.6664074431879
 21
2028.578838324897
 31
0.0
  0
LINE
  5
98
330
87
100
AcDbEntity
  8
P-SANR-FIXT
100
AcDbLine
 10
747.6664074431879
 20
2028.578838324897
 30
0.0
 11
747.6664074431879
 21
2027.839034394669
 31
0.0
  0
LINE
  5
99
330
87
100
AcDbEntity
  8
P-SANR-FIXT
100
AcDbLine
 10
747.6664074431879
 20
1972.160965605146
 30
0.0
 11
747.6664074431879
 21
1971.421161675093
 31
0.0
  0
LINE
  5
9A
330
87
100
AcDbEntity
  8
P-SANR-FIXT
100
AcDbLine
 10
747.6664074431879
 20
1971.421161675093
 30
0.0
 11
747.6664074431879
 21
1970.685947419282
 31
0.0
  0
LINE
  5
9B
330
87
100
AcDbEntity
  8
P-SANR-FIXT
100
AcDbLine
 10
747.6664074431878
 20
1966.999999999977
 30
0.0
 11
747.6664074431877
 21
1971.421161675093
 31
0.0
  0
LINE
  5
9C
330
87
100
AcDbEntity
  8
P-SANR-FIXT
100
AcDbLine
 10
747.6664074431877
 20
1971.421161675093
 30
0.0
 11
747.6664074431877
 21
1999.999999999994
 31
0.0
  0
LINE
  5
9D
330
87
100
AcDbEntity
  8
P-SANR-FIXT
100
AcDbLine
 10
747.6664074431877
 20
1999.999999999995
 30
0.0
 11
747.6664074431877
 21
2028.578838324897
 31
0.0
  0
LINE
  5
9E
330
87
100
AcDbEntity
  8
P-SANR-FIXT
100
AcDbLine
 10
747.6664074431877
 20
2028.578838324897
 30
0.0
 11
747.6664074431878
 21
2033.000000000013
 31
0.0
  0
LINE
  5
9F
330
87
100
AcDbEntity
  8
P-SANR-FIXT
100
AcDbLine
 10
773.6664074431877
 20
2033.000000000002
 30
0.0
 11
773.6664074431875
 21
2028.578838324888
 31
0.0
  0
LINE
  5
A0
330
87
100
AcDbEntity
  8
P-SANR-FIXT
100
AcDbLine
 10
773.6664074431875
 20
2028.578838324888
 30
0.0
 11
773.6664074431875
 21
1999.999999999995
 31
0.0
  0
LINE
  5
A1
330
87
100
AcDbEntity
  8
P-SANR-FIXT
100
AcDbLine
 10
773.6664074431875
 20
1999.999999999995
 30
0.0
 11
773.6664074431875
 21
1971.421161675102
 31
0.0
  0
LINE
  5
A2
330
87
100
AcDbEntity
  8
P-SANR-FIXT
100
AcDbLine
 10
773.6664074431875
 20
1971.421161675102
 30
0.0
 11
773.6664074431877
 21
1966.999999999988
 31
0.0
  0
LINE
  5
A3
330
87
100
AcDbEntity
  8
P-SANR-FIXT
100
AcDbLine
 10
749.398458250781
 20
2014.387494569929
 30
0.0
 11
771.9343566355879
 21
2014.387494569929
 31
0.0
  0
LINE
  5
A4
330
87
100
AcDbEntity
  8
P-SANR-FIXT
100
AcDbLine
 10
771.9343566356322
 20
2014.387494569929
 30
0.0
 11
771.9343566356322
 21
2021.385091039928
 31
0.0
  0
LINE
  5
A5
330
87
100
AcDbEntity
  8
P-SANR-FIXT
100
AcDbLine
 10
749.3984582507367
 20
2021.385091039928
 30
0.0
 11
749.3984582507367
 21
2014.387494569929
 31
0.0
  0
SPLINE
  5
A6
330
87
100
AcDbEntity
  8
P-SANR-FIXT
100
AcDbSpline
210
0.0
220
0.0
230
1.0
 70
     8
 71
     3
 72
     9
 73
     5
 74
     0
 42
0.000000001
 43
0.0000000001
 40
0.0
 40
0.0
 40
0.0
 40
0.0
 40
0.5
 40
1.0
 40
1.0
 40
1.0
 40
1.0
 10
749.398458250781
 20
2014.387494569929
 30
0.0
 10
748.8346931681453
 20
2012.021729697085
 30
0.0
 10
747.9822529509107
 20
2007.258049062585
 30
0.0
 10
747.6799926297498
 20
2002.430066650462
 30
0.0
 10
747.6664074431877
 20
1999.999999999995
 30
0.0
  0
SPLINE
  5
A7
330
87
100
AcDbEntity
  8
P-SANR-FIXT
100
AcDbSpline
210
0.0
220
0.0
230
1.0
 70
     8
 71
     3
 72
     9
 73
     5
 74
     0
 42
0.000000001
 43
0.0000000001
 40
0.0
 40
0.0
 40
0.0
 40
0.0
 40
0.5
 40
1.0
 40
1.0
 40
1.0
 40
1.0
 10
747.6664074431877
 20
1999.999999999995
 30
0.0
 10
747.6799926297498
 20
1997.569933349528
 30
0.0
 10
747.9822529509106
 20
1992.741950937407
 30
0.0
 10
748.8346931681449
 20
1987.978270302907
 30
0.0
 10
749.3984582507804
 20
1985.612505430063
 30
0.0
  0
LINE
  5
A8
330
87
100
AcDbEntity
  8
P-SANR-FIXT
100
AcDbLine
 10
749.3984582507804
 20
1985.612505430063
 30
0.0
 11
771.9343566355885
 21
1985.612505430063
 31
0.0
  0
SPLINE
  5
A9
330
87
100
AcDbEntity
  8
P-SANR-FIXT
100
AcDbSpline
210
0.0
220
0.0
230
1.0
 70
     8
 71
     3
 72
     9
 73
     5
 74
     0
 42
0.000000001
 43
0.0000000001
 40
0.0
 40
0.0
 40
0.0
 40
0.0
 40
0.5
 40
1.0
 40
1.0
 40
1.0
 40
1.0
 10
771.9343566355885
 20
1985.612505430063
 30
0.0
 10
772.4981217182229
 20
1987.978270302907
 30
0.0
 10
773.3505619354574
 20
1992.741950937407
 30
0.0
 10
773.6528222566224
 20
1997.569933349528
 30
0.0
 10
773.6664074431875
 20
1999.999999999995
 30
0.0
  0
SPLINE
  5
AA
330
87
100
AcDbEntity
  8
P-SANR-FIXT
100
AcDbSpline
210
0.0
220
0.0
230
1.0
 70
     8
 71
     3
 72
     9
 73
     5
 74
     0
 42
0.000000001
 43
0.0000000001
 40
0.0
 40
0.0
 40
0.0
 40
0.0
 40
0.5
 40
1.0
 40
1.0
 40
1.0
 40
1.0
 10
773.6664074431875
 20
1999.999999999995
 30
0.0
 10
773.6528222566224
 20
2002.430066650462
 30
0.0
 10
773.3505619354573
 20
2007.258049062585
 30
0.0
 10
772.4981217182227
 20
2012.021729697085
 30
0.0
 10
771.9343566355879
 20
2014.387494569929
 30
0.0
  0
LINE
  5
AB
330
87
100
AcDbEntity
  8
P-SANR-FIXT
100
AcDbLine
 10
749.3984582507367
 20
1985.612505430064
 30
0.0
 11
749.3984582507367
 21
1978.614908960073
 31
0.0
  0
LINE
  5
AC
330
87
100
AcDbEntity
  8
P-SANR-FIXT
100
AcDbLine
 10
749.3984582507749
 20
1978.614908960072
 30
0.0
 11
771.934356635594
 21
1978.614908960072
 31
0.0
  0
LINE
  5
AD
330
87
100
AcDbEntity
  8
P-SANR-FIXT
100
AcDbLine
 10
771.9343566356322
 20
1978.614908960073
 30
0.0
 11
771.9343566356322
 21
1985.612505430064
 31
0.0
  0
SPLINE
  5
AE
330
87
100
AcDbEntity
  8
P-SANR-FIXT
100
AcDbSpline
210
0.0
220
0.0
230
1.0
 70
     8
 71
     3
 72
     9
 73
     5
 74
     0
 42
0.000000001
 43
0.0000000001
 40
0.0
 40
0.0
 40
0.0
 40
0.0
 40
0.5
 40
1.0
 40
1.0
 40
1.0
 40
1.0
 10
749.3984582507749
 20
1978.614908960072
 30
0.0
 10
748.8346931681318
 20
1977.432026523646
 30
0.0
 10
747.9822529508907
 20
1975.050186206388
 30
0.0
 10
747.6799926297402
 20
1972.636195000318
 30
0.0
 10
747.6664074431877
 20
1971.421161675079
 30
0.0
  0
SPLINE
  5
AF
330
87
100
AcDbEntity
  8
P-SANR-FIXT
100
AcDbSpline
210
0.0
220
0.0
230
1.0
 70
     8
 71
     3
 72
     9
 73
     5
 74
     0
 42
0.000000001
 43
0.0000000001
 40
0.0
 40
0.0
 40
0.0
 40
0.0
 40
0.5
 40
1.0
 40
1.0
 40
1.0
 40
1.0
 10
747.6664074431877
 20
1971.421161675079
 30
0.0
 10
747.6799926297397
 20
1970.206128349854
 30
0.0
 10
747.9822529508842
 20
1967.792137143808
 30
0.0
 10
748.8346931681091
 20
1965.410296826573
 30
0.0
 10
749.3984582507416
 20
1964.227414390159
 30
0.0
  0
LINE
  5
B0
330
87
100
AcDbEntity
  8
P-SANR-FIXT
100
AcDbLine
 10
749.3984582507416
 20
1964.227414390159
 30
0.0
 11
771.9343566356276
 21
1964.227414390159
 31
0.0
  0
SPLINE
  5
B1
330
87
100
AcDbEntity
  8
P-SANR-FIXT
100
AcDbSpline
210
0.0
220
0.0
230
1.0
 70
     8
 71
     3
 72
     9
 73
     5
 74
     0
 42
0.000000001
 43
0.0000000001
 40
0.0
 40
0.0
 40
0.0
 40
0.0
 40
0.5
 40
1.0
 40
1.0
 40
1.0
 40
1.0
 10
771.9343566356276
 20
1964.227414390159
 30
0.0
 10
772.4981217182592
 20
1965.410296826574
 30
0.0
 10
773.350561935484
 20
1967.792137143808
 30
0.0
 10
773.6528222566325
 20
1970.206128349854
 30
0.0
 10
773.6664074431875
 20
1971.421161675079
 30
0.0
  0
SPLINE
  5
B2
330
87
100
AcDbEntity
  8
P-SANR-FIXT
100
AcDbSpline
210
0.0
220
0.0
230
1.0
 70
     8
 71
     3
 72
     9
 73
     5
 74
     0
 42
0.000000001
 43
0.0000000001
 40
0.0
 40
0.0
 40
0.0
 40
0.0
 40
0.5
 40
1.0
 40
1.0
 40
1.0
 40
1.0
 10
773.6664074431875
 20
1971.421161675079
 30
0.0
 10
773.6528222566319
 20
1972.636195000317
 30
0.0
 10
773.3505619354774
 20
1975.050186206388
 30
0.0
 10
772.4981217182362
 20
1977.432026523646
 30
0.0
 10
771.934356635594
 20
1978.614908960072
 30
0.0
  0
LINE
  5
B3
330
87
100
AcDbEntity
  8
P-SANR-FIXT
100
AcDbLine
 10
749.3984582507368
 20
1964.227414390159
 30
0.0
 11
749.3984582507368
 21
1964.000000000012
 31
0.0
  0
LINE
  5
B4
330
87
100
AcDbEntity
  8
P-SANR-FIXT
100
AcDbLine
 10
771.9343566356323
 20
1964.000000000012
 30
0.0
 11
771.9343566356323
 21
1964.227414390159
 31
0.0
  0
LINE
  5
B5
330
87
100
AcDbEntity
  8
P-SANR-FIXT
100
AcDbLine
 10
749.3984582507368
 20
2035.99999999998
 30
0.0
 11
749.3984582507368
 21
2035.772585609832
 31
0.0
  0
LINE
  5
B6
330
87
100
AcDbEntity
  8
P-SANR-FIXT
100
AcDbLine
 10
749.398458250743
 20
2035.772585609832
 30
0.0
 11
771.9343566356262
 21
2035.772585609832
 31
0.0
  0
LINE
  5
B7
330
87
100
AcDbEntity
  8
P-SANR-FIXT
100
AcDbLine
 10
771.9343566356323
 20
2035.772585609832
 30
0.0
 11
771.9343566356323
 21
2035.99999999998
 31
0.0
  0
SPLINE
  5
B8
330
87
100
AcDbEntity
  8
P-SANR-FIXT
100
AcDbSpline
210
0.0
220
0.0
230
1.0
 70
     8
 71
     3
 72
     9
 73
     5
 74
     0
 42
0.000000001
 43
0.0000000001
 40
0.0
 40
0.0
 40
0.0
 40
0.0
 40
0.5
 40
1.0
 40
1.0
 40
1.0
 40
1.0
 10
749.398458250743
 20
2035.772585609832
 30
0.0
 10
748.8346931681117
 20
2034.589703173418
 30
0.0
 10
747.9822529508879
 20
2032.207862856185
 30
0.0
 10
747.6799926297415
 20
2029.793871650141
 30
0.0
 10
747.6664074431877
 20
2028.578838324916
 30
0.0
  0
SPLINE
  5
B9
330
87
100
AcDbEntity
  8
P-SANR-FIXT
100
AcDbSpline
210
0.0
220
0.0
230
1.0
 70
     8
 71
     3
 72
     9
 73
     5
 74
     0
 42
0.000000001
 43
0.0000000001
 40
0.0
 40
0.0
 40
0.0
 40
0.0
 40
0.5
 40
1.0
 40
1.0
 40
1.0
 40
1.0
 10
747.6664074431877
 20
2028.578838324916
 30
0.0
 10
747.679992629742
 20
2027.363804999679
 30
0.0
 10
747.9822529508943
 20
2024.949813793611
 30
0.0
 10
748.834693168134
 20
2022.567973476354
 30
0.0
 10
749.3984582507758
 20
2021.385091039929
 30
0.0
  0
LINE
  5
BA
330
87
100
AcDbEntity
  8
P-SANR-FIXT
100
AcDbLine
 10
771.9343566355931
 20
2021.385091039929
 30
0.0
 11
749.3984582507758
 21
2021.385091039929
 31
0.0
  0
SPLINE
  5
BB
330
87
100
AcDbEntity
  8
P-SANR-FIXT
100
AcDbSpline
210
0.0
220
0.0
230
1.0
 70
     8
 71
     3
 72
     9
 73
     5
 74
     0
 42
0.000000001
 43
0.0000000001
 40
0.0
 40
0.0
 40
0.0
 40
0.0
 40
0.5
 40
1.0
 40
1.0
 40
1.0
 40
1.0
 10
771.9343566355931
 20
2021.385091039929
 30
0.0
 10
772.4981217182338
 20
2022.567973476354
 30
0.0
 10
773.3505619354737
 20
2024.949813793611
 30
0.0
 10
773.6528222566302
 20
2027.363804999679
 30
0.0
 10
773.6664074431875
 20
2028.578838324916
 30
0.0
  0
SPLINE
  5
BC
330
87
100
AcDbEntity
  8
P-SANR-FIXT
100
AcDbSpline
210
0.0
220
0.0
230
1.0
 70
     8
 71
     3
 72
     9
 73
     5
 74
     0
 42
0.000000001
 43
0.0000000001
 40
0.0
 40
0.0
 40
0.0
 40
0.0
 40
0.5
 40
1.0
 40
1.0
 40
1.0
 40
1.0
 10
773.6664074431875
 20
2028.578838324916
 30
0.0
 10
773.6528222566306
 20
2029.793871650141
 30
0.0
 10
773.3505619354803
 20
2032.207862856185
 30
0.0
 10
772.4981217182564
 20
2034.589703173418
 30
0.0
 10
771.9343566356262
 20
2035.772585609832
 30
0.0
  0
LINE
  5
BD
330
87
100
AcDbEntity
  8
P-SANR-FIXT
100
AcDbLine
 10
869.39845825074
 20
1964.000000000013
 30
0.0
 11
891.9343566356353
 21
1964.000000000013
 31
0.0
  0
LINE
  5
BE
330
87
100
AcDbEntity
  8
P-SANR-FIXT
100
AcDbLine
 10
891.9343566356353
 20
2035.999999999981
 30
0.0
 11
869.39845825074
 21
2035.999999999981
 31
0.0
  0
LINE
  5
BF
330
87
100
AcDbEntity
  8
P-SANR-FIXT
100
AcDbLine
 10
867.6664074431846
 20
1966.999999999989
 30
0.0
 11
869.3656078506132
 21
1964.05689856208
 31
0.0
  0
LINE
  5
C0
330
87
100
AcDbEntity
  8
P-SANR-FIXT
100
AcDbLine
 10
869.3671142549879
 20
1964.054289393166
 30
0.0
 11
869.3984582507434
 21
1964.000000000006
 31
0.0
  0
LINE
  5
C1
330
87
100
AcDbEntity
  8
P-SANR-FIXT
100
AcDbLine
 10
869.3984582507406
 20
2035.999999999981
 30
0.0
 11
869.3671142549895
 21
2035.945710606827
 31
0.0
  0
LINE
  5
C2
330
87
100
AcDbEntity
  8
P-SANR-FIXT
100
AcDbLine
 10
869.3656078506146
 20
2035.943101437913
 30
0.0
 11
867.6664074431846
 21
2033.000000000003
 31
0.0
  0
LINE
  5
C3
330
87
100
AcDbEntity
  8
P-SANR-FIXT
100
AcDbLine
 10
891.9343566356358
 20
1964.000000000013
 30
0.0
 11
891.9657006313872
 21
1964.054289393166
 31
0.0
  0
LINE
  5
C4
330
87
100
AcDbEntity
  8
P-SANR-FIXT
100
AcDbLine
 10
891.9672070357618
 20
1964.05689856208
 30
0.0
 11
893.6664074431844
 21
1966.999999999978
 31
0.0
  0
LINE
  5
C5
330
87
100
AcDbEntity
  8
P-SANR-FIXT
100
AcDbLine
 10
893.6664074431844
 20
2033.000000000014
 30
0.0
 11
891.9672070357606
 21
2035.943101437913
 31
0.0
  0
LINE
  5
C6
330
87
100
AcDbEntity
  8
P-SANR-FIXT
100
AcDbLine
 10
891.9657006313858
 20
2035.945710606827
 30
0.0
 11
891.9343566356308
 21
2035.999999999988
 31
0.0
  0
LINE
  5
C7
330
87
100
AcDbEntity
  8
P-SANR-FIXT
100
AcDbLine
 10
893.6664074431831
 20
1970.685947419277
 30
0.0
 11
893.6664074431831
 21
1971.421161675093
 31
0.0
  0
LINE
  5
C8
330
87
100
AcDbEntity
  8
P-SANR-FIXT
100
AcDbLine
 10
893.6664074431831
 20
1971.421161675093
 30
0.0
 11
893.6664074431831
 21
1972.160965605152
 31
0.0
  0
LINE
  5
C9
330
87
100
AcDbEntity
  8
P-SANR-FIXT
100
AcDbLine
 10
893.6664074431831
 20
2027.839034394677
 30
0.0
 11
893.6664074431831
 21
2028.578838324897
 31
0.0
  0
LINE
  5
CA
330
87
100
AcDbEntity
  8
P-SANR-FIXT
100
AcDbLine
 10
893.6664074431831
 20
2028.578838324897
 30
0.0
 11
893.6664074431831
 21
2029.314052580711
 31
0.0
  0
LINE
  5
CB
330
87
100
AcDbEntity
  8
P-SANR-FIXT
100
AcDbLine
 10
893.6664074431829
 20
2033.000000000013
 30
0.0
 11
893.6664074431829
 21
2028.578838324897
 31
0.0
  0
LINE
  5
CC
330
87
100
AcDbEntity
  8
P-SANR-FIXT
100
AcDbLine
 10
893.6664074431829
 20
2028.578838324897
 30
0.0
 11
893.6664074431829
 21
1999.999999999995
 31
0.0
  0
LINE
  5
CD
330
87
100
AcDbEntity
  8
P-SANR-FIXT
100
AcDbLine
 10
893.6664074431829
 20
1999.999999999995
 30
0.0
 11
893.6664074431829
 21
1971.421161675093
 31
0.0
  0
LINE
  5
CE
330
87
100
AcDbEntity
  8
P-SANR-FIXT
100
AcDbLine
 10
893.6664074431829
 20
1971.421161675093
 30
0.0
 11
893.6664074431829
 21
1966.999999999977
 31
0.0
  0
LINE
  5
CF
330
87
100
AcDbEntity
  8
P-SANR-FIXT
100
AcDbLine
 10
867.6664074431833
 20
1966.999999999988
 30
0.0
 11
867.6664074431831
 21
1971.421161675102
 31
0.0
  0
LINE
  5
D0
330
87
100
AcDbEntity
  8
P-SANR-FIXT
100
AcDbLine
 10
867.6664074431831
 20
1971.421161675102
 30
0.0
 11
867.6664074431831
 21
1976.309321331451
 31
0.0
  0
LINE
  5
D1
330
87
100
AcDbEntity
  8
P-SANR-FIXT
100
AcDbLine
 10
867.6664074431831
 20
2023.690678668621
 30
0.0
 11
867.6664074431831
 21
2028.578838324888
 31
0.0
  0
LINE
  5
D2
330
87
100
AcDbEntity
  8
P-SANR-FIXT
100
AcDbLine
 10
867.6664074431831
 20
2028.578838324888
 30
0.0
 11
867.6664074431833
 21
2033.000000000002
 31
0.0
  0
LINE
  5
D3
330
87
100
AcDbEntity
  8
P-SANR-FIXT
100
AcDbLine
 10
891.9343566355948
 20
2021.385091039929
 30
0.0
 11
870.0814691780232
 21
2021.385091039929
 31
0.0
  0
LINE
  5
D4
330
87
100
AcDbEntity
  8
P-SANR-FIXT
100
AcDbLine
 10
891.9343566356339
 20
2014.387494569929
 30
0.0
 11
891.9343566356339
 21
2021.385091039929
 31
0.0
  0
LINE
  5
D5
330
87
100
AcDbEntity
  8
P-SANR-FIXT
100
AcDbLine
 10
875.1118793657601
 20
2014.387494569929
 30
0.0
 11
891.9343566355896
 21
2014.387494569929
 31
0.0
  0
SPLINE
  5
D6
330
87
100
AcDbEntity
  8
P-SANR-FIXT
100
AcDbSpline
210
0.0
220
0.0
230
1.0
 70
     8
 71
     3
 72
     9
 73
     5
 74
     0
 42
0.000000001
 43
0.0000000001
 40
0.0
 40
0.0
 40
0.0
 40
0.0
 40
0.5
 40
1.0
 40
1.0
 40
1.0
 40
1.0
 10
891.9343566355902
 20
1985.612505430064
 30
0.0
 10
892.4981217182258
 20
1987.978270302908
 30
0.0
 10
893.3505619354601
 20
1992.741950937407
 30
0.0
 10
893.6528222566208
 20
1997.569933349528
 30
0.0
 10
893.6664074431829
 20
1999.999999999995
 30
0.0
  0
SPLINE
  5
D7
330
87
100
AcDbEntity
  8
P-SANR-FIXT
100
AcDbSpline
210
0.0
220
0.0
230
1.0
 70
     8
 71
     3
 72
     9
 73
     5
 74
     0
 42
0.000000001
 43
0.0000000001
 40
0.0
 40
0.0
 40
0.0
 40
0.0
 40
0.5
 40
1.0
 40
1.0
 40
1.0
 40
1.0
 10
893.6664074431829
 20
1999.999999999995
 30
0.0
 10
893.6528222566208
 20
2002.430066650462
 30
0.0
 10
893.3505619354599
 20
2007.258049062585
 30
0.0
 10
892.4981217182253
 20
2012.021729697085
 30
0.0
 10
891.9343566355896
 20
2014.387494569929
 30
0.0
  0
LINE
  5
D8
330
87
100
AcDbEntity
  8
P-SANR-FIXT
100
AcDbLine
 10
875.111879365717
 20
1985.612505430064
 30
0.0
 11
891.9343566355902
 21
1985.612505430064
 31
0.0
  0
LINE
  5
D9
330
87
100
AcDbEntity
  8
P-SANR-FIXT
100
AcDbLine
 10
891.9343566356339
 20
1978.614908960073
 30
0.0
 11
891.9343566356339
 21
1985.612505430064
 31
0.0
  0
LINE
  5
DA
330
87
100
AcDbEntity
  8
P-SANR-FIXT
100
AcDbLine
 10
870.0814691779592
 20
1978.614908960073
 30
0.0
 11
891.9343566355957
 21
1978.614908960073
 31
0.0
  0
SPLINE
  5
DB
330
87
100
AcDbEntity
  8
P-SANR-FIXT
100
AcDbSpline
210
0.0
220
0.0
230
1.0
 70
     8
 71
     3
 72
     9
 73
     5
 74
     0
 42
0.000000001
 43
0.0000000001
 40
0.1591786390586704
 40
0.1591786390586704
 40
0.1591786390586704
 40
0.1591786390586704
 40
0.5
 40
1.0
 40
1.0
 40
1.0
 40
1.0
 10
868.9018432082571
 20
1977.482727359546
 30
0.0
 10
868.5772529905168
 20
1976.672935689285
 30
0.0
 10
867.9341395643305
 20
1974.665930371506
 30
0.0
 10
867.6799926297388
 20
1972.636195000318
 30
0.0
 10
867.666407443183
 20
1971.421161675079
 30
0.0
  0
SPLINE
  5
DC
330
87
100
AcDbEntity
  8
P-SANR-FIXT
100
AcDbSpline
210
0.0
220
0.0
230
1.0
 70
     8
 71
     3
 72
     9
 73
     5
 74
     0
 42
0.000000001
 43
0.0000000001
 40
0.0
 40
0.0
 40
0.0
 40
0.0
 40
0.5
 40
1.0
 40
1.0
 40
1.0
 40
1.0
 10
867.6664074431831
 20
1971.421161675079
 30
0.0
 10
867.6799926297382
 20
1970.206128349854
 30
0.0
 10
867.9822529508868
 20
1967.792137143808
 30
0.0
 10
868.8346931681119
 20
1965.410296826574
 30
0.0
 10
869.3984582507434
 20
1964.227414390159
 30
0.0
  0
SPLINE
  5
DD
330
87
100
AcDbEntity
  8
P-SANR-FIXT
100
AcDbSpline
210
0.0
220
0.0
230
1.0
 70
     8
 71
     3
 72
     9
 73
     5
 74
     0
 42
0.000000001
 43
0.0000000001
 40
0.0
 40
0.0
 40
0.0
 40
0.0
 40
0.5
 40
1.0
 40
1.0
 40
1.0
 40
1.0
 10
891.9343566356292
 20
1964.227414390159
 30
0.0
 10
892.4981217182619
 20
1965.410296826574
 30
0.0
 10
893.3505619354869
 20
1967.792137143808
 30
0.0
 10
893.6528222566309
 20
1970.206128349854
 30
0.0
 10
893.6664074431829
 20
1971.421161675079
 30
0.0
  0
SPLINE
  5
DE
330
87
100
AcDbEntity
  8
P-SANR-FIXT
100
AcDbSpline
210
0.0
220
0.0
230
1.0
 70
     8
 71
     3
 72
     9
 73
     5
 74
     0
 42
0.000000001
 43
0.0000000001
 40
0.0
 40
0.0
 40
0.0
 40
0.0
 40
0.5
 40
1.0
 40
1.0
 40
1.0
 40
1.0
 10
893.6664074431829
 20
1971.421161675079
 30
0.0
 10
893.6528222566305
 20
1972.636195000318
 30
0.0
 10
893.35056193548
 20
1975.050186206388
 30
0.0
 10
892.498121718239
 20
1977.432026523646
 30
0.0
 10
891.9343566355957
 20
1978.614908960073
 30
0.0
  0
LINE
  5
DF
330
87
100
AcDbEntity
  8
P-SANR-FIXT
100
AcDbLine
 10
869.3984582507434
 20
1964.227414390159
 30
0.0
 11
891.9343566356292
 21
1964.227414390159
 31
0.0
  0
LINE
  5
E0
330
87
100
AcDbEntity
  8
P-SANR-FIXT
100
AcDbLine
 10
869.3984582507386
 20
1964.227414390159
 30
0.0
 11
869.3984582507386
 21
1964.000000000012
 31
0.0
  0
LINE
  5
E1
330
87
100
AcDbEntity
  8
P-SANR-FIXT
100
AcDbLine
 10
891.934356635634
 20
1964.000000000012
 30
0.0
 11
891.934356635634
 21
1964.227414390159
 31
0.0
  0
LINE
  5
E2
330
87
100
AcDbEntity
  8
P-SANR-FIXT
100
AcDbLine
 10
869.3984582507386
 20
2035.99999999998
 30
0.0
 11
869.3984582507386
 21
2035.772585609832
 31
0.0
  0
LINE
  5
E3
330
87
100
AcDbEntity
  8
P-SANR-FIXT
100
AcDbLine
 10
891.934356635634
 20
2035.772585609832
 30
0.0
 11
891.934356635634
 21
2035.99999999998
 31
0.0
  0
SPLINE
  5
E4
330
87
100
AcDbEntity
  8
P-SANR-FIXT
100
AcDbSpline
210
0.0
220
0.0
230
1.0
 70
     8
 71
     3
 72
     9
 73
     5
 74
     0
 42
0.000000001
 43
0.0000000001
 40
0.0
 40
0.0
 40
0.0
 40
0.0
 40
0.5
 40
1.0
 40
1.0
 40
1.0
 40
1.0
 10
891.9343566355948
 20
2021.385091039929
 30
0.0
 10
892.4981217182365
 20
2022.567973476354
 30
0.0
 10
893.3505619354763
 20
2024.949813793611
 30
0.0
 10
893.6528222566286
 20
2027.363804999679
 30
0.0
 10
893.6664074431829
 20
2028.578838324917
 30
0.0
  0
SPLINE
  5
E5
330
87
100
AcDbEntity
  8
P-SANR-FIXT
100
AcDbSpline
210
0.0
220
0.0
230
1.0
 70
     8
 71
     3
 72
     9
 73
     5
 74
     0
 42
0.000000001
 43
0.0000000001
 40
0.0
 40
0.0
 40
0.0
 40
0.0
 40
0.5
 40
1.0
 40
1.0
 40
1.0
 40
1.0
 10
893.6664074431829
 20
2028.578838324917
 30
0.0
 10
893.6528222566291
 20
2029.793871650141
 30
0.0
 10
893.3505619354829
 20
2032.207862856186
 30
0.0
 10
892.4981217182592
 20
2034.589703173419
 30
0.0
 10
891.934356635628
 20
2035.772585609832
 30
0.0
  0
LINE
  5
E6
330
87
100
AcDbEntity
  8
P-SANR-FIXT
100
AcDbLine
 10
869.3984582507448
 20
2035.772585609832
 30
0.0
 11
891.934356635628
 21
2035.772585609832
 31
0.0
  0
SPLINE
  5
E7
330
87
100
AcDbEntity
  8
P-SANR-FIXT
100
AcDbSpline
210
0.0
220
0.0
230
1.0
 70
     8
 71
     3
 72
     9
 73
     5
 74
     0
 42
0.000000001
 43
0.0000000001
 40
0.0
 40
0.0
 40
0.0
 40
0.0
 40
0.5
 40
1.0
 40
1.0
 40
1.0
 40
1.0
 10
869.3984582507448
 20
2035.772585609832
 30
0.0
 10
868.8346931681145
 20
2034.589703173419
 30
0.0
 10
867.9822529508905
 20
2032.207862856185
 30
0.0
 10
867.6799926297398
 20
2029.793871650141
 30
0.0
 10
867.6664074431831
 20
2028.578838324916
 30
0.0
  0
SPLINE
  5
E8
330
87
100
AcDbEntity
  8
P-SANR-FIXT
100
AcDbSpline
210
0.0
220
0.0
230
1.0
 70
     8
 71
     3
 72
     9
 73
     5
 74
     0
 42
0.000000001
 43
0.0000000001
 40
0.0
 40
0.0
 40
0.0
 40
0.0
 40
0.5
 40
0.8408213609259338
 40
0.8408213609259338
 40
0.8408213609259338
 40
0.8408213609259338
 10
867.6664074431831
 20
2028.578838324917
 30
0.0
 10
867.6799926297404
 20
2027.363804999679
 30
0.0
 10
867.9341395643293
 20
2025.334069628529
 30
0.0
 10
868.577252990496
 20
2023.327064310788
 30
0.0
 10
868.901843208215
 20
2022.517272640564
 30
0.0
  0
LINE
  5
E9
330
87
100
AcDbEntity
  8
P-SANR-FIXT
100
AcDbLine
 10
800.9164074431881
 20
1940.989637028899
 30
0.0
 11
800.9164074431881
 21
1938.010362971061
 31
0.0
  0
LINE
  5
EA
330
87
100
AcDbEntity
  8
P-SANR-FIXT
100
AcDbLine
 10
830.4164074431863
 20
1938.010362971061
 30
0.0
 11
830.4164074431863
 21
1940.989637028899
 31
0.0
  0
LINE
  5
EB
330
87
100
AcDbEntity
  8
P-SANR-FIXT
100
AcDbLine
 10
828.6664074431859
 20
1936.999999999979
 30
0.0
 11
830.3289664752766
 21
1937.9598789047
 31
0.0
  0
LINE
  5
EC
330
87
100
AcDbEntity
  8
P-SANR-FIXT
100
AcDbLine
 10
830.3592281392546
 20
1937.977350484544
 30
0.0
 11
830.4164074431859
 21
1938.010362971061
 31
0.0
  0
LINE
  5
ED
330
87
100
AcDbEntity
  8
P-SANR-FIXT
100
AcDbLine
 10
800.9164074431879
 20
1938.01036297106
 30
0.0
 11
800.9735867471196
 21
1937.977350484543
 31
0.0
  0
LINE
  5
EE
330
87
100
AcDbEntity
  8
P-SANR-FIXT
100
AcDbLine
 10
801.0038484110976
 20
1937.959878904699
 30
0.0
 11
802.6664074431867
 21
1936.999999999979
 31
0.0
  0
LINE
  5
EF
330
87
100
AcDbEntity
  8
P-SANR-FIXT
100
AcDbLine
 10
803.0128176047275
 20
1942.199999999996
 30
0.0
 11
801.0038484110976
 21
1941.040121095259
 31
0.0
  0
LINE
  5
F0
330
87
100
AcDbEntity
  8
P-SANR-FIXT
100
AcDbLine
 10
800.9735854282201
 20
1941.022648753948
 30
0.0
 11
800.9164074431879
 21
1940.989637028899
 31
0.0
  0
LINE
  5
F1
330
87
100
AcDbEntity
  8
P-SANR-FIXT
100
AcDbLine
 10
830.4164074431861
 20
1940.989637028898
 30
0.0
 11
830.3592294581541
 21
1941.022648753948
 31
0.0
  0
LINE
  5
F2
330
87
100
AcDbEntity
  8
P-SANR-FIXT
100
AcDbLine
 10
830.3289664752766
 20
1941.040121095259
 30
0.0
 11
828.3199972816449
 21
1942.199999999996
 31
0.0
  0
LINE
  5
F3
330
87
100
AcDbEntity
  8
P-SANR-FIXT
100
AcDbLine
 10
828.6664074431847
 20
1936.999999999979
 30
0.0
 11
802.6664074431854
 21
1936.999999999979
 31
0.0
  0
LINE
  5
F4
330
87
100
AcDbEntity
  8
P-SANR-FIXT
100
AcDbLine
 10
800.9164074431868
 20
1938.01036297106
 30
0.0
 11
801.0038484110964
 21
1938.01036297106
 31
0.0
  0
LINE
  5
F5
330
87
100
AcDbEntity
  8
P-SANR-FIXT
100
AcDbLine
 10
801.0038484110964
 20
1940.989637028897
 30
0.0
 11
800.9164074431868
 21
1940.989637028897
 31
0.0
  0
LINE
  5
F6
330
87
100
AcDbEntity
  8
P-SANR-FIXT
100
AcDbLine
 10
801.0038484110964
 20
1938.010362971059
 30
0.0
 11
801.0038484110964
 21
1940.989637028898
 31
0.0
  0
SPLINE
  5
F7
330
87
100
AcDbEntity
  8
P-SANR-FIXT
100
AcDbSpline
210
0.0
220
0.0
230
1.0
 70
     8
 71
     3
 72
     9
 73
     5
 74
     0
 42
0.000000001
 43
0.0000000001
 40
0.0
 40
0.0
 40
0.0
 40
0.0
 40
0.5
 40
1.0
 40
1.0
 40
1.0
 40
1.0
 10
801.0038484110964
 20
1938.010362971059
 30
0.0
 10
802.0107373139881
 20
1937.529272606666
 30
0.0
 10
804.0080315772122
 20
1937.048182242272
 30
0.0
 10
805.9723587553186
 20
1937.529272606666
 30
0.0
 10
806.9462805730921
 20
1938.010362971059
 30
0.0
  0
SPLINE
  5
F8
330
87
100
AcDbEntity
  8
P-SANR-FIXT
100
AcDbSpline
210
0.0
220
0.0
230
1.0
 70
     8
 71
     3
 72
     9
 73
     5
 74
     0
 42
0.000000001
 43
0.0000000001
 40
0.0
 40
0.0
 40
0.0
 40
0.0
 40
0.5
 40
1.0
 40
1.0
 40
1.0
 40
1.0
 10
806.9462805730921
 20
1940.989637028898
 30
0.0
 10
805.9723587553186
 20
1941.470727393292
 30
0.0
 10
804.0080315772122
 20
1941.951817757686
 30
0.0
 10
802.0107373139881
 20
1941.470727393292
 30
0.0
 10
801.0038484110964
 20
1940.989637028898
 30
0.0
  0
LINE
  5
F9
330
87
100
AcDbEntity
  8
P-SANR-FIXT
100
AcDbLine
 10
806.9462805730919
 20
1938.010362971059
 30
0.0
 11
806.9462805730919
 21
1940.989637028898
 31
0.0
  0
LINE
  5
FA
330
87
100
AcDbEntity
  8
P-SANR-FIXT
100
AcDbLine
 10
806.9462805730918
 20
1938.01036297106
 30
0.0
 11
809.7239752811896
 21
1938.01036297106
 31
0.0
  0
LINE
  5
FB
330
87
100
AcDbEntity
  8
P-SANR-FIXT
100
AcDbLine
 10
809.7239752811896
 20
1940.989637028897
 30
0.0
 11
806.9462805730919
 21
1940.989637028897
 31
0.0
  0
LINE
  5
FC
330
87
100
AcDbEntity
  8
P-SANR-FIXT
100
AcDbLine
 10
809.7239752811898
 20
1938.010362971059
 30
0.0
 11
809.7239752811898
 21
1940.989637028898
 31
0.0
  0
SPLINE
  5
FD
330
87
100
AcDbEntity
  8
P-SANR-FIXT
100
AcDbSpline
210
0.0
220
0.0
230
1.0
 70
     8
 71
     3
 72
     9
 73
     5
 74
     0
 42
0.000000001
 43
0.0000000001
 40
0.0
 40
0.0
 40
0.0
 40
0.0
 40
0.5
 40
1.0
 40
1.0
 40
1.0
 40
1.0
 10
809.7239752811898
 20
1938.010362971059
 30
0.0
 10
811.7377530869728
 20
1937.529272606666
 30
0.0
 10
815.7323416134213
 20
1937.048182242272
 30
0.0
 10
819.660995969634
 20
1937.529272606666
 30
0.0
 10
821.6088396051814
 20
1938.01036297106
 30
0.0
  0
SPLINE
  5
FE
330
87
100
AcDbEntity
  8
P-SANR-FIXT
100
AcDbSpline
210
0.0
220
0.0
230
1.0
 70
     8
 71
     3
 72
     9
 73
     5
 74
     0
 42
0.000000001
 43
0.0000000001
 40
0.0
 40
0.0
 40
0.0
 40
0.0
 40
0.5
 40
1.0
 40
1.0
 40
1.0
 40
1.0
 10
821.6088396051814
 20
1940.989637028897
 30
0.0
 10
819.660995969634
 20
1941.470727393291
 30
0.0
 10
815.7323416134213
 20
1941.951817757686
 30
0.0
 10
811.7377530869728
 20
1941.470727393292
 30
0.0
 10
809.7239752811898
 20
1940.989637028898
 30
0.0
  0
LINE
  5
FF
330
87
100
AcDbEntity
  8
P-SANR-FIXT
100
AcDbLine
 10
821.6088396051814
 20
1938.01036297106
 30
0.0
 11
821.6088396051814
 21
1940.989637028897
 31
0.0
  0
LINE
  5
100
330
87
100
AcDbEntity
  8
P-SANR-FIXT
100
AcDbLine
 10
821.6088396051812
 20
1938.01036297106
 30
0.0
 11
824.3865343132791
 21
1938.01036297106
 31
0.0
  0
LINE
  5
101
330
87
100
AcDbEntity
  8
P-SANR-FIXT
100
AcDbLine
 10
824.3865343132791
 20
1940.989637028897
 30
0.0
 11
821.6088396051812
 21
1940.989637028897
 31
0.0
  0
LINE
  5
102
330
87
100
AcDbEntity
  8
P-SANR-FIXT
100
AcDbLine
 10
824.3865343132792
 20
1938.01036297106
 30
0.0
 11
824.3865343132792
 21
1940.989637028897
 31
0.0
  0
SPLINE
  5
103
330
87
100
AcDbEntity
  8
P-SANR-FIXT
100
AcDbSpline
210
0.0
220
0.0
230
1.0
 70
     8
 71
     3
 72
     9
 73
     5
 74
     0
 42
0.000000001
 43
0.0000000001
 40
0.0
 40
0.0
 40
0.0
 40
0.0
 40
0.5
 40
1.0
 40
1.0
 40
1.0
 40
1.0
 10
824.3865343132792
 20
1938.01036297106
 30
0.0
 10
825.3934232161709
 20
1937.529272606667
 30
0.0
 10
827.3907174793952
 20
1937.048182242273
 30
0.0
 10
829.3550446575014
 20
1937.529272606667
 30
0.0
 10
830.3289664752753
 20
1938.010362971061
 30
0.0
  0
SPLINE
  5
104
330
87
100
AcDbEntity
  8
P-SANR-FIXT
100
AcDbSpline
210
0.0
220
0.0
230
1.0
 70
     8
 71
     3
 72
     9
 73
     5
 74
     0
 42
0.000000001
 43
0.0000000001
 40
0.0
 40
0.0
 40
0.0
 40
0.0
 40
0.5
 40
1.0
 40
1.0
 40
1.0
 40
1.0
 10
830.3289664752753
 20
1940.989637028897
 30
0.0
 10
829.3550446575014
 20
1941.470727393291
 30
0.0
 10
827.3907174793952
 20
1941.951817757685
 30
0.0
 10
825.3934232161709
 20
1941.470727393291
 30
0.0
 10
824.3865343132792
 20
1940.989637028897
 30
0.0
  0
LINE
  5
105
330
87
100
AcDbEntity
  8
P-SANR-FIXT
100
AcDbLine
 10
830.3289664752753
 20
1938.010362971061
 30
0.0
 11
830.3289664752753
 21
1940.989637028897
 31
0.0
  0
LINE
  5
106
330
87
100
AcDbEntity
  8
P-SANR-FIXT
100
AcDbLine
 10
830.3289664752753
 20
1938.01036297106
 30
0.0
 11
830.4164074431849
 21
1938.01036297106
 31
0.0
  0
LINE
  5
107
330
87
100
AcDbEntity
  8
P-SANR-FIXT
100
AcDbLine
 10
830.4164074431849
 20
1940.989637028897
 30
0.0
 11
830.3289664752753
 21
1940.989637028897
 31
0.0
  0
LINE
  5
108
330
87
100
AcDbEntity
  8
P-SANR-FIXT
100
AcDbLine
 10
792.666407443186
 20
2060.556624327049
 30
0.0
 11
792.666407443186
 21
2048.349364905419
 31
0.0
  0
LINE
  5
109
330
87
100
AcDbEntity
  8
P-SANR-FIXT
100
AcDbLine
 10
838.6664074431857
 20
2048.349364905419
 30
0.0
 11
838.6664074431857
 21
2060.556624327049
 31
0.0
  0
LINE
  5
10A
330
87
100
AcDbEntity
  8
P-SANR-FIXT
100
AcDbLine
 10
838.6664074431857
 20
2060.556624327049
 30
0.0
 11
836.166407443186
 21
2062.000000000023
 31
0.0
  0
LINE
  5
10B
330
87
100
AcDbEntity
  8
P-SANR-FIXT
100
AcDbLine
 10
795.1664074431868
 20
2062.000000000023
 30
0.0
 11
792.6664074431863
 21
2060.556624327049
 31
0.0
  0
LINE
  5
10C
330
87
100
AcDbEntity
  8
P-SANR-FIXT
100
AcDbLine
 10
792.6664074431861
 20
2048.349364905419
 30
0.0
 11
781.2781788755324
 21
2045.297898257495
 31
0.0
  0
LINE
  5
10D
330
87
100
AcDbEntity
  8
P-SANR-FIXT
100
AcDbLine
 10
850.0546360108401
 20
2045.297898257495
 30
0.0
 11
838.6664074431857
 21
2048.349364905419
 31
0.0
  0
LWPOLYLINE
  5
10E
330
87
100
AcDbEntity
  8
P-SANR-FIXT
100
AcDbPolyline
 90
       34
 70
   128
 43
0.0
 10
850.0546360108401
 20
2045.297898257495
 10
850.1122655653954
 20
2045.281214299111
 10
850.1691818420663
 20
2045.262239118597
 10
850.2252937869519
 20
2045.241003072196
 10
850.2805116329103
 20
2045.21754013305
 10
850.3347470431668
 20
2045.191887836859
 10
850.3879132526352
 20
2045.164087221823
 10
850.4399252067212
 20
2045.134182762996
 10
850.4906996973939
 20
2045.102222301133
 10
850.5401554962995
 20
2045.068256966154
 10
850.5882134847098
 20
2045.032341095351
 10
850.6347967800952
 20
2044.994532146454
 10
850.6798308591204
 20
2044.954890605718
 10
850.7232436768651
 20
2044.91347989115
 10
850.7649657820827
 20
2044.87036625106
 10
850.8049304283044
 20
2044.825618658075
 10
850.843073680622
 20
2044.779308698798
 10
850.8793345179686
 20
2044.731510459285
 10
850.9136549307394
 20
2044.682300406523
 10
850.9459800135953
 20
2044.631757266099
 10
850.9762580532994
 20
2044.579961896254
 10
851.0044406114474
 20
2044.526997158533
 10
851.0304826019579
 20
2044.472947785218
 10
851.054342363202
 20
2044.417900243774
 10
851.0759817246507
 20
2044.361942598526
 10
851.0953660679419
 20
2044.305164369769
 10
851.112464382262
 20
2044.247656390558
 10
851.1272493139554
 20
2044.18951066139
 10
851.1396972102852
 20
2044.130820203029
 10
851.1497881572724
 20
2044.07167890769
 10
851.1575060115552
 20
2044.012181388827
 10
851.1628384262122
 20
2043.952422829778
 10
851.1657768705182
 20
2043.892498831491
 10
851.1664074431864
 20
2043.849009518061
  0
LWPOLYLINE
  5
10F
330
87
100
AcDbEntity
  8
P-SANR-FIXT
100
AcDbPolyline
 90
       34
 70
   128
 43
0.0
 10
780.1664074431861
 20
2043.849009518061
 10
780.1676072831948
 20
2043.908993519341
 10
780.1712048837322
 20
2043.968881559015
 10
780.1771944894055
 20
2044.028577828994
 10
780.1855665181228
 20
2044.087986827983
 10
780.1963075764242
 20
2044.147013514253
 10
780.209400480908
 20
2044.205563457702
 10
780.2248242857201
 20
2044.263542990907
 10
780.2425543160625
 20
2044.320859358985
 10
780.2625622076694
 20
2044.377420867974
 10
780.2848159521819
 20
2044.433137031524
 10
780.3092799483561
 20
2044.48791871566
 10
780.3359150590172
 20
2044.541678281373
 10
780.3646786736698
 20
2044.594329724827
 10
780.3955247766659
 20
2044.645788814943
 10
780.4284040208217
 20
2044.695973228153
 10
780.4632638063598
 20
2044.744802680105
 10
780.5000483650596
 20
2044.792199054089
 10
780.5386988494749
 20
2044.838086526018
 10
780.5791534270748
 20
2044.882391685727
 10
780.6213473791655
 20
2044.92504365441
 10
780.6652132044241
 20
2044.965974198017
 10
780.7106807268882
 20
2045.005117836409
 10
780.7576772082208
 20
2045.042411948116
 10
780.8061274640774
 20
2045.077796870513
 10
780.8559539843839
 20
2045.111215995273
 10
780.907077057337
 20
2045.142615858926
 10
780.9594148969256
 20
2045.171946228388
 10
781.012883773771
 20
2045.199160181326
 10
781.0673981490768
 20
2045.224214181219
 10
781.1228708114711
 20
2045.247068147012
 10
781.1792130165279
 20
2045.267685517235
 10
781.2363346287382
 20
2045.286033308495
 10
781.2781788755324
 20
2045.297898257495
  0
LINE
  5
110
330
87
100
AcDbEntity
  8
P-SANR-FIXT
100
AcDbLine
 10
780.1664074431865
 20
2043.849009518061
 30
0.0
 11
780.1664074431865
 21
2042.999999999996
 31
0.0
  0
LINE
  5
111
330
87
100
AcDbEntity
  8
P-SANR-FIXT
100
AcDbLine
 10
851.1664074431863
 20
2042.999999999996
 30
0.0
 11
851.1664074431863
 21
2043.849009518061
 31
0.0
  0
LINE
  5
112
330
87
100
AcDbEntity
  8
P-SANR-FIXT
100
AcDbLine
 10
795.1664074431868
 20
2126.000000000022
 30
0.0
 11
795.1664074431868
 21
2062.000000000023
 31
0.0
  0
LINE
  5
113
330
87
100
AcDbEntity
  8
P-SANR-FIXT
100
AcDbLine
 10
836.166407443186
 20
2062.000000000023
 30
0.0
 11
836.166407443186
 21
2126.000000000022
 31
0.0
  0
LINE
  5
114
330
87
100
AcDbEntity
  8
P-SANR-FIXT
100
AcDbLine
 10
792.6664074431847
 20
2048.349364905417
 30
0.0
 11
792.7894582038839
 21
2048.349364905417
 31
0.0
  0
LINE
  5
115
330
87
100
AcDbEntity
  8
P-SANR-FIXT
100
AcDbLine
 10
792.7894582038839
 20
2060.556624327048
 30
0.0
 11
792.6664074431847
 21
2060.556624327048
 31
0.0
  0
LINE
  5
116
330
87
100
AcDbEntity
  8
P-SANR-FIXT
100
AcDbLine
 10
792.7894582038839
 20
2048.349364905417
 30
0.0
 11
792.7894582038839
 21
2060.556624327048
 31
0.0
  0
SPLINE
  5
117
330
87
100
AcDbEntity
  8
P-SANR-FIXT
100
AcDbSpline
210
0.0
220
0.0
230
1.0
 70
     8
 71
     3
 72
     9
 73
     5
 74
     0
 42
0.000000001
 43
0.0000000001
 40
0.0
 40
0.0
 40
0.0
 40
0.0
 40
0.5
 40
1.0
 40
1.0
 40
1.0
 40
1.0
 10
802.1702897235677
 20
2060.556624327049
 30
0.0
 10
800.6320976794615
 20
2061.326371976366
 30
0.0
 10
797.5304337154081
 20
2062.096119625683
 30
0.0
 10
794.3782099996723
 20
2061.326371976366
 30
0.0
 10
792.7894582038839
 20
2060.556624327048
 30
0.0
  0
LINE
  5
118
330
87
100
AcDbEntity
  8
P-SANR-FIXT
100
AcDbLine
 10
802.1702897235677
 20
2048.349364905417
 30
0.0
 11
802.1702897235677
 21
2060.556624327049
 31
0.0
  0
LINE
  5
119
330
87
100
AcDbEntity
  8
P-SANR-FIXT
100
AcDbLine
 10
802.1702897235675
 20
2048.349364905417
 30
0.0
 11
806.2855759234999
 21
2048.349364905417
 31
0.0
  0
LINE
  5
11A
330
87
100
AcDbEntity
  8
P-SANR-FIXT
100
AcDbLine
 10
806.2855759234999
 20
2060.556624327048
 30
0.0
 11
802.1702897235675
 21
2060.556624327048
 31
0.0
  0
LINE
  5
11B
330
87
100
AcDbEntity
  8
P-SANR-FIXT
100
AcDbLine
 10
806.2855759235
 20
2048.349364905417
 30
0.0
 11
806.2855759235
 21
2060.556624327049
 31
0.0
  0
SPLINE
  5
11C
330
87
100
AcDbEntity
  8
P-SANR-FIXT
100
AcDbSpline
210
0.0
220
0.0
230
1.0
 70
     8
 71
     3
 72
     9
 73
     5
 74
     0
 42
0.000000001
 43
0.0000000001
 40
0.0
 40
0.0
 40
0.0
 40
0.0
 40
0.5
 40
1.0
 40
1.0
 40
1.0
 40
1.0
 10
825.0472389628683
 20
2060.556624327049
 30
0.0
 10
821.9708548746558
 20
2061.326371976366
 30
0.0
 10
815.7675269465487
 20
2062.096119625683
 30
0.0
 10
809.463079515077
 20
2061.326371976366
 30
0.0
 10
806.2855759235
 20
2060.556624327049
 30
0.0
  0
LINE
  5
11D
330
87
100
AcDbEntity
  8
P-SANR-FIXT
100
AcDbLine
 10
825.0472389628683
 20
2048.349364905417
 30
0.0
 11
825.0472389628683
 21
2060.556624327049
 31
0.0
  0
LINE
  5
11E
330
87
100
AcDbEntity
  8
P-SANR-FIXT
100
AcDbLine
 10
825.0472389628683
 20
2048.349364905417
 30
0.0
 11
829.1625251628007
 21
2048.349364905417
 31
0.0
  0
LINE
  5
11F
330
87
100
AcDbEntity
  8
P-SANR-FIXT
100
AcDbLine
 10
829.1625251628007
 20
2060.556624327048
 30
0.0
 11
825.0472389628683
 21
2060.556624327048
 31
0.0
  0
LINE
  5
120
330
87
100
AcDbEntity
  8
P-SANR-FIXT
100
AcDbLine
 10
829.1625251628008
 20
2048.349364905417
 30
0.0
 11
829.1625251628008
 21
2060.556624327049
 31
0.0
  0
SPLINE
  5
121
330
87
100
AcDbEntity
  8
P-SANR-FIXT
100
AcDbSpline
210
0.0
220
0.0
230
1.0
 70
     8
 71
     3
 72
     9
 73
     5
 74
     0
 42
0.000000001
 43
0.0000000001
 40
0.0
 40
0.0
 40
0.0
 40
0.0
 40
0.5
 40
1.0
 40
1.0
 40
1.0
 40
1.0
 10
838.5433566824852
 20
2060.556624327049
 30
0.0
 10
837.0051646383791
 20
2061.326371976366
 30
0.0
 10
833.9035006743253
 20
2062.096119625683
 30
0.0
 10
830.7512769585894
 20
2061.326371976366
 30
0.0
 10
829.1625251628008
 20
2060.556624327049
 30
0.0
  0
LINE
  5
122
330
87
100
AcDbEntity
  8
P-SANR-FIXT
100
AcDbLine
 10
838.5433566824852
 20
2048.349364905417
 30
0.0
 11
838.5433566824852
 21
2060.556624327049
 31
0.0
  0
LINE
  5
123
330
87
100
AcDbEntity
  8
P-SANR-FIXT
100
AcDbLine
 10
838.5433566824852
 20
2048.349364905417
 30
0.0
 11
838.6664074431845
 21
2048.349364905417
 31
0.0
  0
LINE
  5
124
330
87
100
AcDbEntity
  8
P-SANR-FIXT
100
AcDbLine
 10
838.6664074431845
 20
2060.556624327048
 30
0.0
 11
838.5433566824852
 21
2060.556624327048
 31
0.0
  0
LINE
  5
125
330
87
100
AcDbEntity
  8
P-SANR-FIXT
100
AcDbLine
 10
836.1664074431848
 20
2062.000000000022
 30
0.0
 11
830.1620964575088
 21
2062.000000000022
 31
0.0
  0
LINE
  5
126
330
87
100
AcDbEntity
  8
P-SANR-FIXT
100
AcDbLine
 10
830.1620964575088
 20
2062.000000000022
 30
0.0
 11
815.6664074431848
 21
2062.000000000022
 31
0.0
  0
LINE
  5
127
330
87
100
AcDbEntity
  8
P-SANR-FIXT
100
AcDbLine
 10
815.6664074431848
 20
2062.000000000022
 30
0.0
 11
801.170718428861
 21
2062.000000000022
 31
0.0
  0
LINE
  5
128
330
87
100
AcDbEntity
  8
P-SANR-FIXT
100
AcDbLine
 10
801.1707184288608
 20
2062.000000000022
 30
0.0
 11
795.1664074431854
 21
2062.000000000022
 31
0.0
  0
LINE
  5
129
330
87
100
AcDbEntity
  8
P-SANR-FIXT
100
AcDbLine
 10
851.1664074431848
 20
2042.999999999995
 30
0.0
 11
780.1664074431853
 21
2042.999999999995
 31
0.0
  0
LINE
  5
12A
330
87
100
AcDbEntity
  8
P-SANR-FIXT
100
AcDbLine
 10
829.1625251628012
 20
2048.349364905417
 30
0.0
 11
838.5433566824852
 21
2048.349364905417
 31
0.0
  0
LINE
  5
12B
330
87
100
AcDbEntity
  8
P-SANR-FIXT
100
AcDbLine
 10
806.2855759235002
 20
2048.349364905418
 30
0.0
 11
825.0472389628685
 21
2048.349364905418
 31
0.0
  0
LINE
  5
12C
330
87
100
AcDbEntity
  8
P-SANR-FIXT
100
AcDbLine
 10
792.7894582038849
 20
2048.349364905417
 30
0.0
 11
802.1702897235677
 21
2048.349364905417
 31
0.0
  0
LINE
  5
12D
330
87
100
AcDbEntity
  8
P-SANR-FIXT
100
AcDbLine
 10
795.1664074431854
 20
2126.000000000022
 30
0.0
 11
836.1664074431848
 21
2126.000000000022
 31
0.0
  0
LINE
  5
12E
330
87
100
AcDbEntity
  8
P-SANR-FIXT
100
AcDbLine
 10
795.7465886523143
 20
2130.000000000022
 30
0.0
 11
795.1664074431863
 21
2129.419818790894
 31
0.0
  0
LINE
  5
12F
330
87
100
AcDbEntity
  8
P-SANR-FIXT
100
AcDbLine
 10
836.1664074431862
 20
2129.419818790894
 30
0.0
 11
835.5862262340583
 21
2130.000000000022
 31
0.0
  0
LINE
  5
130
330
87
100
AcDbEntity
  8
P-SANR-FIXT
100
AcDbLine
 10
795.1664074431863
 20
2129.419818790894
 30
0.0
 11
795.1664074431863
 21
2126.500000000023
 31
0.0
  0
LINE
  5
131
330
87
100
AcDbEntity
  8
P-SANR-FIXT
100
AcDbLine
 10
836.1664074431862
 20
2126.500000000023
 30
0.0
 11
836.1664074431862
 21
2129.419818790894
 31
0.0
  0
LINE
  5
132
330
87
100
AcDbEntity
  8
P-SANR-FIXT
100
AcDbLine
 10
795.1664074431863
 20
2126.500000000023
 30
0.0
 11
795.783856021455
 21
2126.000000000022
 31
0.0
  0
LINE
  5
133
330
87
100
AcDbEntity
  8
P-SANR-FIXT
100
AcDbLine
 10
835.5489588649179
 20
2126.000000000022
 30
0.0
 11
836.1664074431862
 21
2126.500000000023
 31
0.0
  0
LINE
  5
134
330
87
100
AcDbEntity
  8
P-SANR-FIXT
100
AcDbLine
 10
835.586226234057
 20
2130.000000000021
 30
0.0
 11
795.7465886523131
 21
2130.000000000021
 31
0.0
  0
LINE
  5
135
330
87
100
AcDbEntity
  8
P-SANR-FIXT
100
AcDbLine
 10
795.1664074431852
 20
2129.419818790893
 30
0.0
 11
836.166407443185
 21
2129.419818790893
 31
0.0
  0
LINE
  5
136
330
87
100
AcDbEntity
  8
P-SANR-FIXT
100
AcDbLine
 10
795.1664074431852
 20
2126.500000000023
 30
0.0
 11
836.166407443185
 21
2126.500000000023
 31
0.0
  0
LINE
  5
137
330
87
100
AcDbEntity
  8
P-SANR-FIXT
100
AcDbLine
 10
928.6664074432216
 20
2023.899999999958
 30
0.0
 11
893.6664074431844
 21
2023.899999999958
 31
0.0
  0
LINE
  5
138
330
87
100
AcDbEntity
  8
P-SANR-FIXT
100
AcDbLine
 10
893.6664074431844
 20
1976.100000000034
 30
0.0
 11
928.6664074432216
 21
1976.100000000034
 31
0.0
  0
LINE
  5
139
330
87
100
AcDbEntity
  8
P-SANR-FIXT
100
AcDbLine
 10
930.6664074432223
 20
2021.899999999956
 30
0.0
 11
928.6664074432216
 21
2023.899999999958
 31
0.0
  0
LINE
  5
13A
330
87
100
AcDbEntity
  8
P-SANR-FIXT
100
AcDbLine
 10
928.6664074432216
 20
1976.100000000034
 30
0.0
 11
930.6664074432223
 21
1978.100000000035
 31
0.0
  0
LINE
  5
13B
330
87
100
AcDbEntity
  8
P-SANR-FIXT
100
AcDbLine
 10
893.6664074431828
 20
1998.468808268653
 30
0.0
 11
893.6664074431828
 21
2001.531191731336
 31
0.0
  0
LINE
  5
13C
330
87
100
AcDbEntity
  8
P-SANR-FIXT
100
AcDbLine
 10
928.6664074432204
 20
1976.100000000034
 30
0.0
 11
928.6664074432204
 21
2023.899999999956
 31
0.0
  0
LINE
  5
13D
330
87
100
AcDbEntity
  8
P-SANR-FIXT
100
AcDbLine
 10
930.6664074432209
 20
2021.899999999956
 30
0.0
 11
930.6664074432209
 21
1978.100000000034
 31
0.0
  0
LINE
  5
13E
330
87
100
AcDbEntity
  8
P-SANR-FIXT
100
AcDbLine
 10
747.6664074431883
 20
2023.899999999958
 30
0.0
 11
712.6664074431508
 21
2023.899999999958
 31
0.0
  0
LINE
  5
13F
330
87
100
AcDbEntity
  8
P-SANR-FIXT
100
AcDbLine
 10
712.6664074431508
 20
1976.100000000034
 30
0.0
 11
747.6664074431883
 21
1976.100000000034
 31
0.0
  0
LINE
  5
140
330
87
100
AcDbEntity
  8
P-SANR-FIXT
100
AcDbLine
 10
712.6664074431508
 20
2023.899999999958
 30
0.0
 11
710.6664074431502
 21
2021.899999999957
 31
0.0
  0
LINE
  5
141
330
87
100
AcDbEntity
  8
P-SANR-FIXT
100
AcDbLine
 10
710.6664074431502
 20
1978.100000000035
 30
0.0
 11
712.6664074431508
 21
1976.100000000034
 31
0.0
  0
LINE
  5
142
330
87
100
AcDbEntity
  8
P-SANR-FIXT
100
AcDbLine
 10
710.6664074431492
 20
1978.100000000034
 30
0.0
 11
710.6664074431492
 21
2021.899999999956
 31
0.0
  0
LINE
  5
143
330
87
100
AcDbEntity
  8
P-SANR-FIXT
100
AcDbLine
 10
747.666407443187
 20
2001.531191731337
 30
0.0
 11
747.666407443187
 21
1998.468808268653
 31
0.0
  0
LINE
  5
144
330
87
100
AcDbEntity
  8
P-SANR-FIXT
100
AcDbLine
 10
712.6664074431497
 20
2023.899999999956
 30
0.0
 11
712.6664074431497
 21
1976.100000000034
 31
0.0
  0
LINE
  5
145
330
87
100
AcDbEntity
  8
P-SANR-FIXT
100
AcDbLine
 10
830.0234128372743
 20
1942.806857746088
 30
0.0
 11
831.1407640985452
 21
1949.143671640261
 31
0.0
  0
LINE
  5
146
330
87
100
AcDbEntity
  8
P-SANR-FIXT
100
AcDbLine
 10
800.1920507878274
 20
1949.143671640261
 30
0.0
 11
801.3094020490985
 21
1942.806857746088
 31
0.0
  0
LINE
  5
147
330
87
100
AcDbEntity
  8
P-SANR-FIXT
100
AcDbLine
 10
851.6664074431865
 20
2030.718879771105
 30
0.0
 11
851.6664074431865
 21
2042.499999999996
 31
0.0
  0
LINE
  5
148
330
87
100
AcDbEntity
  8
P-SANR-FIXT
100
AcDbLine
 10
779.6664074431861
 20
2042.499999999996
 30
0.0
 11
779.6664074431861
 21
2027.999999999996
 31
0.0
  0
LINE
  5
149
330
87
100
AcDbEntity
  8
P-SANR-FIXT
100
AcDbLine
 10
867.6664074431846
 20
2030.149999999996
 30
0.0
 11
866.6664074431864
 21
2030.149999999996
 31
0.0
  0
LINE
  5
14A
330
87
100
AcDbEntity
  8
P-SANR-FIXT
100
AcDbLine
 10
866.6664074431864
 20
1969.849999999995
 30
0.0
 11
867.6664074431846
 21
1969.849999999995
 31
0.0
  0
LINE
  5
14B
330
87
100
AcDbEntity
  8
P-SANR-FIXT
100
AcDbLine
 10
864.2704038260491
 20
2027.999999999996
 30
0.0
 11
860.9184370962633
 21
2027.999999999996
 31
0.0
  0
LINE
  5
14C
330
87
100
AcDbEntity
  8
P-SANR-FIXT
100
AcDbLine
 10
779.6664074431861
 20
2027.999999999996
 30
0.0
 11
777.062411060323
 21
2027.999999999996
 31
0.0
  0
LINE
  5
14D
330
87
100
AcDbEntity
  8
P-SANR-FIXT
100
AcDbLine
 10
777.062411060323
 20
1971.999999999995
 30
0.0
 11
786.6664074431862
 21
1971.999999999995
 31
0.0
  0
LINE
  5
14E
330
87
100
AcDbEntity
  8
P-SANR-FIXT
100
AcDbLine
 10
860.9184370960891
 20
1971.999999999995
 30
0.0
 11
864.2704038260491
 21
1971.999999999995
 31
0.0
  0
LINE
  5
14F
330
87
100
AcDbEntity
  8
P-SANR-FIXT
100
AcDbLine
 10
774.6664074431863
 20
2030.149999999996
 30
0.0
 11
773.666407443189
 21
2030.149999999996
 31
0.0
  0
LINE
  5
150
330
87
100
AcDbEntity
  8
P-SANR-FIXT
100
AcDbLine
 10
773.666407443189
 20
1969.849999999995
 30
0.0
 11
774.6664074431863
 21
1969.849999999995
 31
0.0
  0
LINE
  5
151
330
87
100
AcDbEntity
  8
P-SANR-FIXT
100
AcDbLine
 10
851.6664074431865
 20
2042.499999999996
 30
0.0
 11
851.1664074431864
 21
2042.999999999996
 31
0.0
  0
LINE
  5
152
330
87
100
AcDbEntity
  8
P-SANR-FIXT
100
AcDbLine
 10
780.1664074431861
 20
2042.999999999996
 30
0.0
 11
779.6664074431861
 21
2042.499999999996
 31
0.0
  0
LWPOLYLINE
  5
153
330
87
100
AcDbEntity
  8
P-SANR-FIXT
100
AcDbPolyline
 90
       36
 70
   128
 43
0.0
 10
800.1920507878274
 20
1949.143671640261
 10
800.1533917069801
 20
1949.339886171881
 10
800.1069170607967
 20
1949.534397801901
 10
800.0527011987973
 20
1949.726895353208
 10
799.9908308547952
 20
1949.917070870781
 10
799.9214050081429
 20
1950.104620114361
 10
799.8445347253851
 20
1950.289243045169
 10
799.7603429825758
 20
1950.470644305897
 10
799.6689644685435
 20
1950.648533693226
 10
799.5705453694179
 20
1950.822626622084
 10
799.4652431347624
 20
1950.992644580923
 10
799.3532262256893
 20
1951.158315577276
 10
799.2346738453574
 20
1951.319374572892
 10
799.1097756522853
 20
1951.475563907735
 10
798.9787314569386
 20
1951.626633712186
 10
798.8417509020753
 20
1951.772342306786
 10
798.6990531273619
 20
1951.912456588867
 10
798.5508664187975
 20
1952.046752405466
 10
798.3974278435044
 20
1952.175014911925
 10
798.2389828704714
 20
1952.297038915595
 10
798.0757849778552
 20
1952.4126292041
 10
797.9080952474705
 20
1952.521600857637
 10
797.7361819471139
 20
1952.623779544807
 10
797.5603201013933
 20
1952.719001801505
 10
797.3807910517466
 20
1952.807115292436
 10
797.1978820063554
 20
1952.88797905481
 10
797.0118855806745
 20
1952.961463723857
 10
796.8230993293072
 20
1953.027451739783
 10
796.6318252699839
 20
1953.085837535839
 10
796.4383694003962
 20
1953.136527707205
 10
796.2430412086673
 20
1953.179441160422
 10
796.046153178236
 20
1953.214509243119
 10
795.8480202879505
 20
1953.241675853843
 10
795.6489595081692
 20
1953.260897531814
 10
795.4492892936758
 20
1953.272143526446
 10
795.324141241618
 20
1953.274412922181
  0
LWPOLYLINE
  5
154
330
87
100
AcDbEntity
  8
P-SANR-FIXT
100
AcDbPolyline
 90
       36
 70
   128
 43
0.0
 10
835.9826540401437
 20
1953.273787556358
 10
835.8648561926731
 20
1953.271431285231
 10
835.6652293937603
 20
1953.259439283439
 10
835.4662418271615
 20
1953.239473931195
 10
835.2682118305351
 20
1953.211567168804
 10
835.071456209631
 20
1953.175763641132
 10
834.8762897314706
 20
1953.132120626186
 10
834.6830246207856
 20
1953.080707943479
 10
834.4919700605256
 20
1953.021607842338
 10
834.3034316972309
 20
1952.954914870316
 10
834.1177111520629
 20
1952.88073572194
 10
833.9351055382762
 20
1952.799189068026
 10
833.7559069858988
 20
1952.710405365822
 10
833.5804021743873
 20
1952.614526650314
 10
833.4088718740016
 20
1952.511706306993
 10
833.241590496631
 20
1952.402108826474
 10
833.0788256567942
 20
1952.285909541348
 10
832.9208377435138
 20
1952.16329434568
 10
832.7678795037488
 20
1952.03445939763
 10
832.6201956380536
 20
1951.899610805631
 10
832.4780224091085
 20
1951.758964298662
 10
832.3415872637518
 20
1951.612744881132
 10
832.2111084691112
 20
1951.461186472919
 10
832.0867947634242
 20
1951.304531535143
 10
831.9688450221013
 20
1951.143030682288
 10
831.8574479395667
 20
1950.976942281267
 10
831.7527817273894
 20
1950.80653203809
 10
831.6550138291816
 20
1950.632072572794
 10
831.5643006527237
 20
1950.453842983309
 10
831.4807873197473
 20
1950.272128398957
 10
831.4046074337699
 20
1950.087219524309
 10
831.3358828663584
 20
1949.89941217412
 10
831.27472356216
 20
1949.709006800086
 10
831.221227363015
 20
1949.516308010188
 10
831.1754798514296
 20
1949.321624081383
 10
831.1407640985452
 20
1949.143671640261
  0
LWPOLYLINE
  5
155
330
87
100
AcDbEntity
  8
P-SANR-FIXT
100
AcDbPolyline
 90
       24
 70
   128
 43
0.0
 10
790.8965478489633
 20
2013.135674490387
 10
791.9052012365767
 20
2013.135674490387
 10
792.9518674853337
 20
2013.135674490387
 10
794.0348721525134
 20
2013.135674490387
 10
795.1524826616766
 20
2013.135674490387
 10
796.3029110744196
 20
2013.135674490387
 10
797.4843169506938
 20
2013.135674490387
 10
798.6948102931169
 20
2013.135674490387
 10
799.9324545705657
 20
2013.135674490387
 10
801.1952698162131
 20
2013.135674490387
 10
802.4812357950525
 20
2013.135674490387
 10
803.7882952358421
 20
2013.135674490387
 10
805.1143571223011
 20
2013.135674490387
 10
806.4573000382898
 20
2013.135674490387
 10
807.8149755616216
 20
2013.135674490387
 10
809.1852117010809
 20
2013.135674490387
 10
810.5658163711462
 20
2013.135674490387
 10
811.954580898859
 20
2013.135674490387
 10
813.3492835572283
 20
2013.135674490387
 10
814.7476931195217
 20
2013.135674490387
 10
816.1475724287512
 20
2013.135674490387
 10
817.5466819766469
 20
2013.135674490387
 10
818.9427834863929
 20
2013.135674490387
 10
819.6127669784486
 20
2013.135674490387
  0
LINE
  5
156
330
87
100
AcDbEntity
  8
P-SANR-FIXT
100
AcDbLine
 10
829.4165550911822
 20
1942.199999999996
 30
0.0
 11
830.0234128372743
 21
1942.806857746088
 31
0.0
  0
LINE
  5
157
330
87
100
AcDbEntity
  8
P-SANR-FIXT
100
AcDbLine
 10
801.3094020490985
 20
1942.806857746088
 30
0.0
 11
801.9162597951904
 21
1942.199999999996
 31
0.0
  0
LINE
  5
158
330
87
100
AcDbEntity
  8
P-SANR-FIXT
100
AcDbLine
 10
843.956972479604
 20
1957.967924159714
 30
0.0
 11
853.5435125343928
 21
1969.586071085403
 31
0.0
  0
LWPOLYLINE
  5
159
330
87
100
AcDbEntity
  8
P-SANR-FIXT
100
AcDbPolyline
 90
       41
 70
   128
 43
0.0
 10
794.6408355562157
 20
1953.262014486599
 10
794.3464927696933
 20
1953.26790212737
 10
794.0270898914329
 20
1953.287089330236
 10
793.7087097848752
 20
1953.319033893826
 10
793.3918617902723
 20
1953.363684713652
 10
793.077052796826
 20
1953.420970357927
 10
792.7647864317692
 20
1953.490799181841
 10
792.4555622546733
 20
1953.573059474171
 10
792.1498749582574
 20
1953.667619635998
 10
791.8482135769857
 20
1953.774328391234
 10
791.5510607047171
 20
1953.893015028634
 10
791.2588917226583
 20
1954.023489674898
 10
790.9721740388546
 20
1954.165543598423
 10
790.6913663404365
 20
1954.318949543236
 10
790.4169178598192
 20
1954.48346209255
 10
790.149267656026
 20
1954.65881806138
 10
789.8888439122872
 20
1954.844736917583
 10
789.6360632510385
 20
1955.04092123065
 10
789.3913300674145
 20
1955.24705714753
 10
789.1550358823019
 20
1955.46281489473
 10
788.9275587159902
 20
1955.68784930588
 10
788.7092624834194
 20
1955.921800373927
 10
788.5004964119945
 20
1956.164293827068
 10
788.3015944828954
 20
1956.41494172751
 10
788.1128748967783
 20
1956.673343092077
 10
787.9346395647233
 20
1956.939084533712
 10
787.7671736252396
 20
1957.211740922795
 10
787.6107449881068
 20
1957.490876067267
 10
787.4656039057744
 20
1957.776043410444
 10
787.3319825730122
 20
1958.066786745407
 10
787.2100947554485
 20
1958.362640944844
 10
787.1001354475899
 20
1958.663132705147
 10
787.0022805608726
 20
1958.967781303601
 10
786.9166866422403
 20
1959.276099367438
 10
786.8434906237039
 20
1959.587593653526
 10
786.7828096032787
 20
1959.901765837456
 10
786.7347406576528
 20
1960.218113310752
 10
786.6993606868852
 20
1960.536129984943
 10
786.6767262913817
 20
1960.855307101189
 10
786.6668736813466
 20
1961.175134044191
 10
786.6664074431865
 20
1961.261502980657
  0
LWPOLYLINE
  5
15A
330
87
100
AcDbEntity
  8
P-SANR-FIXT
100
AcDbPolyline
 90
       30
 70
   128
 43
0.0
 10
843.956972479604
 20
1957.967924159714
 10
843.819432781053
 20
1957.679013829824
 10
843.6704497678586
 20
1957.395834718352
 10
843.5102617810608
 20
1957.118839851467
 10
843.3391250872668
 20
1956.848472361867
 10
843.1573134686797
 20
1956.585164779862
 10
842.9651177851043
 20
1956.329338341413
 10
842.7628455086352
 20
1956.081402314247
 10
842.5508202317654
 20
1955.841753343118
 10
842.3293811497083
 20
1955.610774815258
 10
842.0988825177575
 20
1955.388836247038
 10
841.8596930845534
 20
1955.176292692822
 10
841.6121955021651
 20
1954.973484176959
 10
841.3567857139275
 20
1954.780735149809
 10
841.0938723210174
 20
1954.598353968698
 10
840.8238759287783
 20
1954.42663240461
 10
840.5472284738417
 20
1954.265845175417
 10
840.2643725331202
 20
1954.116249506384
 10
839.9757606157798
 20
1953.97808471867
 10
839.6818544393209
 20
1953.851571846463
 10
839.3831241909293
 20
1953.736913283369
 10
839.0800477752765
 20
1953.634292458631
 10
838.7731100499751
 20
1953.543873543677
 10
838.4628020499086
 20
1953.465801189481
 10
838.1496202016817
 20
1953.400200295158
 10
837.8340655294433
 20
1953.347175808143
 10
837.5166428533537
 20
1953.306812556304
 10
837.1978599819819
 20
1953.279175112234
 10
836.8782268999181
 20
1953.264307689947
 10
836.6921445762997
 20
1953.261843766992
  0
LWPOLYLINE
  5
15B
330
87
100
AcDbEntity
  8
P-SANR-FIXT
100
AcDbPolyline
 90
        7
 70
   128
 43
0.0
 10
836.6664074431863
 20
1953.261502980657
 10
836.6496096830667
 20
1953.261502980657
 10
836.5992432755412
 20
1953.261502980657
 10
836.5153887961175
 20
1953.261502980657
 10
836.3981803940745
 20
1953.261502980657
 10
836.2478055778522
 20
1953.261502980657
 10
836.1388866479618
 20
1953.261502980657
  0
LWPOLYLINE
  5
15C
330
87
100
AcDbEntity
  8
P-SANR-FIXT
100
AcDbPolyline
 90
        7
 70
   128
 43
0.0
 10
795.1798858439835
 20
1953.261502980657
 10
795.0117038694724
 20
1953.261502980657
 10
794.876565014577
 20
1953.261502980657
 10
794.7746854726375
 20
1953.261502980657
 10
794.7062282291882
 20
1953.261502980657
 10
794.6713028012148
 20
1953.261502980657
 10
794.6664074431863
 20
1953.261502980657
  0
LWPOLYLINE
  5
15D
330
87
100
AcDbEntity
  8
P-SANR-FIXT
100
AcDbPolyline
 90
       80
 70
   128
 43
0.0
 10
794.6664074431863
 20
1953.261502980657
 10
794.6832052033056
 20
1953.261502980657
 10
794.7335716108313
 20
1953.261502980657
 10
794.8174260902549
 20
1953.261502980657
 10
794.9346344922981
 20
1953.261502980657
 10
795.0850093085202
 20
1953.261502980657
 10
795.2683099712936
 20
1953.261502980657
 10
795.4842432386603
 20
1953.261502980657
 10
795.7324636634551
 20
1953.261502980657
 10
796.0125741459497
 20
1953.261502980657
 10
796.3241265691256
 20
1953.261502980657
 10
796.6666225155669
 20
1953.261502980657
 10
797.0395140648213
 20
1953.261502980657
 10
797.4422046699555
 20
1953.261502980657
 10
797.8740501119045
 20
1953.261502980657
 10
798.3343595300827
 20
1953.261502980657
 10
798.822396527616
 20
1953.261502980657
 10
799.3373803494168
 20
1953.261502980657
 10
799.8784871312273
 20
1953.261502980657
 10
800.4448512176271
 20
1953.261502980657
 10
801.0355665468955
 20
1953.261502980657
 10
801.6496881005188
 20
1953.261502980657
 10
802.2862334150159
 20
1953.261502980657
 10
802.9441841536735
 20
1953.261502980657
 10
803.6224877356644
 20
1953.261502980657
 10
804.3200590199552
 20
1953.261502980657
 10
805.0357820412976
 20
1953.261502980657
 10
805.7685117955376
 20
1953.261502980657
 10
806.5170760713751
 20
1953.261502980657
 10
807.2802773256546
 20
1953.261502980657
 10
808.056894599176
 20
1953.261502980657
 10
808.8456854699717
 20
1953.261502980657
 10
809.6453880409152
 20
1953.261502980657
 10
810.4547229584863
 20
1953.261502980657
 10
811.2723954594663
 20
1953.261502980657
 10
812.097097442281
 20
1953.261502980657
 10
812.9275095596851
 20
1953.261502980657
 10
813.7623033294357
 20
1953.261502980657
 10
814.6001432595809
 20
1953.261502980657
 10
815.4396889849627
 20
1953.261502980657
 10
816.2795974115132
 20
1953.261502980657
 10
817.1185248649216
 20
1953.261502980657
 10
817.9551292402235
 20
1953.261502980657
 10
818.7880721488847
 20
1953.261502980657
 10
819.6160210599368
 20
1953.261502980657
 10
820.4376514317409
 20
1953.261502980657
 10
821.2516488309747
 20
1953.261502980657
 10
822.0567110354426
 20
1953.261502980657
 10
822.8515501173552
 20
1953.261502980657
 10
823.6348945037374
 20
1953.261502980657
 10
824.4054910106761
 20
1953.261502980657
 10
825.1621068481453
 20
1953.261502980657
 10
825.9035315922076
 20
1953.261502980657
 10
826.628579121435
 20
1953.261502980657
 10
827.3360895144492
 20
1953.261502980657
 10
828.0249309055484
 20
1953.261502980657
 10
828.6940012954525
 20
1953.261502980657
 10
829.3422303142646
 20
1953.261502980657
 10
829.9685809338363
 20
1953.261502980657
 10
830.5720511267905
 20
1953.261502980657
 10
831.1516754695521
 20
1953.261502980657
 10
831.7065266868194
 20
1953.261502980657
 10
832.2357171350063
 20
1953.261502980657
 10
832.7384002222837
 20
1953.261502980657
 10
833.2137717629457
 20
1953.261502980657
 10
833.6610712639339
 20
1953.261502980657
 10
834.0795831414659
 20
1953.261502980657
 10
834.4686378658156
 20
1953.261502980657
 10
834.8276130324173
 20
1953.261502980657
 10
835.155934357582
 20
1953.261502980657
 10
835.4530765972281
 20
1953.261502980657
 10
835.7185643871584
 20
1953.261502980657
 10
835.9519730035437
 20
1953.261502980657
 10
836.1529290423888
 20
1953.261502980657
 10
836.3211110169002
 20
1953.261502980657
 10
836.4562498717956
 20
1953.261502980657
 10
836.5581294137347
 20
1953.261502980657
 10
836.6265866571843
 20
1953.261502980657
 10
836.6615120851578
 20
1953.261502980657
 10
836.6664074431863
 20
1953.261502980657
  0
LINE
  5
15E
330
87
100
AcDbEntity
  8
P-SANR-FIXT
100
AcDbLine
 10
786.6664074431862
 20
1971.999999999995
 30
0.0
 11
786.6664074431862
 21
1961.261502980657
 31
0.0
  0
LINE
  5
15F
330
87
100
AcDbEntity
  8
P-SANR-FIXT
100
AcDbLine
 10
866.6664074431864
 20
2030.149999999996
 30
0.0
 11
866.6263481066028
 21
2030.080615193716
 31
0.0
  0
LINE
  5
160
330
87
100
AcDbEntity
  8
P-SANR-FIXT
100
AcDbLine
 10
866.6127471304866
 20
2030.05705761205
 30
0.0
 11
866.0024546336181
 21
2028.999999999996
 31
0.0
  0
LINE
  5
161
330
87
100
AcDbEntity
  8
P-SANR-FIXT
100
AcDbLine
 10
866.0024546336181
 20
1970.999999999996
 30
0.0
 11
866.6127471304866
 21
1969.942942387942
 31
0.0
  0
LINE
  5
162
330
87
100
AcDbEntity
  8
P-SANR-FIXT
100
AcDbLine
 10
866.6263481066028
 20
1969.919384806276
 30
0.0
 11
866.6664074431864
 21
1969.849999999995
 31
0.0
  0
LINE
  5
163
330
87
100
AcDbEntity
  8
P-SANR-FIXT
100
AcDbLine
 10
775.3303602527543
 20
2028.999999999996
 30
0.0
 11
774.7200677558859
 21
2030.05705761205
 31
0.0
  0
LINE
  5
164
330
87
100
AcDbEntity
  8
P-SANR-FIXT
100
AcDbLine
 10
774.7064667797697
 20
2030.080615193716
 30
0.0
 11
774.6664074431863
 21
2030.149999999996
 31
0.0
  0
LINE
  5
165
330
87
100
AcDbEntity
  8
P-SANR-FIXT
100
AcDbLine
 10
774.6664074431863
 20
1969.849999999995
 30
0.0
 11
774.7064667797697
 21
1969.919384806276
 31
0.0
  0
LINE
  5
166
330
87
100
AcDbEntity
  8
P-SANR-FIXT
100
AcDbLine
 10
774.7200677558859
 20
1969.942942387942
 30
0.0
 11
775.3303602527543
 21
1970.999999999996
 31
0.0
  0
LWPOLYLINE
  5
167
330
87
100
AcDbEntity
  8
P-SANR-FIXT
100
AcDbPolyline
 90
       28
 70
   128
 43
0.0
 10
866.0024546336181
 20
1970.999999999996
 10
865.9610798435277
 20
1971.068463665229
 10
865.9170003324677
 20
1971.135218016524
 10
865.8702866182524
 20
1971.20015626116
 10
865.82101343286
 20
1971.263174511798
 10
865.7692596028754
 20
1971.32417195268
 10
865.7151079233871
 20
1971.383051000912
 10
865.65864502553
 20
1971.439717462578
 10
865.5999612378961
 20
1971.494080683427
 10
865.5391504420267
 20
1971.546053693904
 10
865.4763099222236
 20
1971.595553348277
 10
865.4115402099129
 20
1971.642500457659
 10
865.3449449228173
 20
1971.68681991669
 10
865.2766305991901
 20
1971.728440823691
 10
865.206706527376
 20
1971.767296594087
 10
865.1352845709739
 20
1971.803325066937
 10
865.0624789898781
 20
1971.836468604368
 10
864.9884062574868
 20
1971.866674183791
 10
864.9131848743712
 20
1971.893893482723
 10
864.8369351786975
 20
1971.918082956092
 10
864.7597791537133
 20
1971.9392039059
 10
864.681840232599
 20
1971.957222543133
 10
864.6032431010031
 20
1971.972110041816
 10
864.5241134975687
 20
1971.983842585126
 10
864.4445780127821
 20
1971.992401403498
 10
864.3647638864518
 20
1971.997772804646
 10
864.2847988041538
 20
1971.999948195476
 10
864.2704038260491
 20
1971.999999999996
  0
LWPOLYLINE
  5
168
330
87
100
AcDbEntity
  8
P-SANR-FIXT
100
AcDbPolyline
 90
       28
 70
   128
 43
0.0
 10
864.2704038260491
 20
2027.999999999996
 10
864.3503824944227
 20
2028.001599786674
 10
864.4302332139877
 20
2028.006396587391
 10
864.5098282406271
 20
2028.014382728288
 10
864.5890402392778
 20
2028.025545433245
 10
864.6677424876394
 20
2028.039866844313
 10
864.7458090789037
 20
2028.057324050292
 10
864.8231151231776
 20
2028.077889123374
 10
864.8995369472816
 20
2028.101529163831
 10
864.9749522925995
 20
2028.12820635264
 10
865.0492405106668
 20
2028.15787801199
 10
865.1222827561815
 20
2028.190496673556
 10
865.1939621771324
 20
2028.226010154437
 10
865.2641641017369
 20
2028.264361640641
 10
865.3327762218911
 20
2028.305489777969
 10
865.3996887728395
 20
2028.349328770176
 10
865.464794708774
 20
2028.395808484227
 10
865.5279898740861
 20
2028.444854562494
 10
865.5891731699922
 20
2028.496388541714
 10
865.6482467162705
 20
2028.550327978514
 10
865.7051160078482
 20
2028.606586581302
 10
865.759690065991
 20
2028.665074348313
 10
865.8118815838474
 20
2028.725697711598
 10
865.8616070661221
 20
2028.788359686709
 10
865.9087869626514
 20
2028.852960027851
 10
865.9533457956651
 20
2028.91939538826
 10
865.9952122805359
 20
2028.98755948553
 10
866.0024546336181
 20
2028.999999999996
  0
LWPOLYLINE
  5
169
330
87
100
AcDbEntity
  8
P-SANR-FIXT
100
AcDbPolyline
 90
       28
 70
   128
 43
0.0
 10
777.062411060323
 20
1971.999999999995
 10
776.9824323919498
 20
1971.998400213317
 10
776.9025816723847
 20
1971.993603412601
 10
776.8229866457452
 20
1971.985617271703
 10
776.7437746470947
 20
1971.974454566747
 10
776.6650723987329
 20
1971.960133155678
 10
776.5870058074689
 20
1971.9426759497
 10
776.5096997631948
 20
1971.922110876617
 10
776.4332779390908
 20
1971.89847083616
 10
776.3578625937729
 20
1971.871793647351
 10
776.2835743757058
 20
1971.842121988001
 10
776.210532130191
 20
1971.809503326435
 10
776.1388527092401
 20
1971.773989845554
 10
776.0686507846356
 20
1971.735638359351
 10
776.0000386644813
 20
1971.694510222022
 10
775.9331261135331
 20
1971.650671229815
 10
775.8680201775982
 20
1971.604191515764
 10
775.8048250122863
 20
1971.555145437497
 10
775.7436417163803
 20
1971.503611458277
 10
775.684568170102
 20
1971.449672021477
 10
775.6276988785241
 20
1971.39341341869
 10
775.5731248203813
 20
1971.334925651678
 10
775.5209333025251
 20
1971.274302288392
 10
775.4712078202503
 20
1971.211640313282
 10
775.424027923721
 20
1971.14703997214
 10
775.3794690907073
 20
1971.080604611732
 10
775.3376026058365
 20
1971.012440514461
 10
775.3303602527543
 20
1970.999999999996
  0
LWPOLYLINE
  5
16A
330
87
100
AcDbEntity
  8
P-SANR-FIXT
100
AcDbPolyline
 90
       28
 70
   128
 43
0.0
 10
775.3303602527543
 20
2028.999999999996
 10
775.3717350428448
 20
2028.931536334763
 10
775.4158145539047
 20
2028.864781983467
 10
775.46252826812
 20
2028.799843738831
 10
775.5118014535126
 20
2028.736825488194
 10
775.5635552834969
 20
2028.675828047312
 10
775.6177069629854
 20
2028.61694899908
 10
775.6741698608425
 20
2028.560282537414
 10
775.7328536484765
 20
2028.505919316564
 10
775.7936644443455
 20
2028.453946306088
 10
775.8565049641489
 20
2028.404446651716
 10
775.9212746764597
 20
2028.357499542333
 10
775.987869963555
 20
2028.313180083301
 10
776.0561842871823
 20
2028.271559176301
 10
776.1261083589962
 20
2028.232703405905
 10
776.1975303153985
 20
2028.196674933055
 10
776.2703358964945
 20
2028.163531395624
 10
776.3444086288854
 20
2028.1333258162
 10
776.4196300120013
 20
2028.106106517268
 10
776.4958797076748
 20
2028.0819170439
 10
776.5730357326592
 20
2028.060796094092
 10
776.6509746537733
 20
2028.042777456859
 10
776.7295717853695
 20
2028.027889958176
 10
776.8087013888036
 20
2028.016157414866
 10
776.8882368735904
 20
2028.007598596494
 10
776.9680509999207
 20
2028.002227195345
 10
777.0480160822186
 20
2028.000051804516
 10
777.062411060323
 20
2027.999999999996
  0
LINE
  5
16B
330
87
100
AcDbEntity
  8
P-SANR-FIXT
100
AcDbLine
 10
829.4165550911809
 20
1942.199999999995
 30
0.0
 11
801.9162597951892
 21
1942.199999999995
 31
0.0
  0
LINE
  5
16C
330
87
100
AcDbEntity
  8
P-SANR-FIXT
100
AcDbLine
 10
801.3094020490973
 20
1942.806857746087
 30
0.0
 11
830.023412837273
 21
1942.806857746087
 31
0.0
  0
SPLINE
  5
16D
330
87
100
AcDbEntity
  8
P-SANR-FIXT
100
AcDbSpline
210
0.0
220
0.0
230
1.0
 70
     8
 71
     3
 72
    15
 73
    11
 74
     0
 42
0.000000001
 43
0.0000000001
 40
0.0
 40
0.0
 40
0.0
 40
0.0
 40
0.25
 40
0.3125
 40
0.375
 40
0.4375
 40
0.5
 40
0.625
 40
0.75
 40
1.0
 40
1.0
 40
1.0
 40
1.0
 10
792.8788100415996
 20
2012.135674490387
 30
0.0
 10
793.7359172384543
 20
2010.609951280285
 30
0.0
 10
794.6442588194433
 20
2008.598436468508
 30
0.0
 10
795.4687661019013
 20
2005.992781695092
 30
0.0
 10
795.8329542412789
 20
2004.647577775329
 30
0.0
 10
796.1198519728703
 20
2003.277370233039
 30
0.0
 10
796.3646754322228
 20
2001.453416251707
 30
0.0
 10
796.3987214591164
 20
1999.095010320625
 30
0.0
 10
795.9815886781216
 20
1995.350661691488
 30
0.0
 10
795.1599941141439
 20
1992.75393504461
 30
0.0
 10
794.4088620402497
 20
1991.062257748293
 30
0.0
  0
LINE
  5
16E
330
87
100
AcDbEntity
  8
P-SANR-FIXT
100
AcDbLine
 10
851.6664074431853
 20
2042.499999999995
 30
0.0
 11
779.6664074431849
 21
2042.499999999995
 31
0.0
  0
SPLINE
  5
16F
330
87
100
AcDbEntity
  8
P-SANR-FIXT
100
AcDbSpline
210
0.0
220
0.0
230
1.0
 70
     8
 71
     3
 72
    13
 73
     9
 74
     0
 42
0.000000001
 43
0.0000000001
 40
0.0
 40
0.0
 40
0.0
 40
0.0
 40
0.2
 40
0.3
 40
0.4
 40
0.55
 40
0.7
 40
1.0
 40
1.0
 40
1.0
 40
1.0
 10
779.6664074431849
 20
2027.999999999996
 30
0.0
 10
779.6664074431849
 20
2027.983386562406
 30
0.0
 10
779.9388486791476
 20
2027.65719068086
 30
0.0
 10
780.7808494817016
 20
2026.550430585246
 30
0.0
 10
781.7627748102357
 20
2025.256954800386
 30
0.0
 10
783.1703874607379
 20
2023.338717895476
 30
0.0
 10
785.6411605937072
 20
2019.827911095414
 30
0.0
 10
787.683202576667
 20
2016.566998659254
 30
0.0
 10
788.9865031461619
 20
2014.135674490387
 30
0.0
  0
LINE
  5
170
330
87
100
AcDbEntity
  8
P-SANR-FIXT
100
AcDbLine
 10
780.1664074431848
 20
2042.999999999995
 30
0.0
 11
851.1664074431854
 21
2042.999999999995
 31
0.0
  0
LINE
  5
171
330
87
100
AcDbEntity
  8
P-SANR-FIXT
100
AcDbLine
 10
867.6664074431833
 20
2029.29037362612
 30
0.0
 11
867.6664074431831
 21
2027.816022790622
 31
0.0
  0
LINE
  5
172
330
87
100
AcDbEntity
  8
P-SANR-FIXT
100
AcDbLine
 10
867.6664074431831
 20
1972.183977209204
 30
0.0
 11
867.6664074431833
 21
1970.709626373881
 31
0.0
  0
LINE
  5
173
330
87
100
AcDbEntity
  8
P-SANR-FIXT
100
AcDbLine
 10
774.666407443185
 20
1969.849999999995
 30
0.0
 11
774.666407443185
 21
2030.149999999995
 31
0.0
  0
LINE
  5
174
330
87
100
AcDbEntity
  8
P-SANR-FIXT
100
AcDbLine
 10
773.6664074431877
 20
2029.290373626111
 30
0.0
 11
773.6664074431875
 21
2027.816022790633
 31
0.0
  0
LINE
  5
175
330
87
100
AcDbEntity
  8
P-SANR-FIXT
100
AcDbLine
 10
773.6664074431875
 20
2001.531581664386
 30
0.0
 11
773.6664074431875
 21
1998.468418335604
 31
0.0
  0
LINE
  5
176
330
87
100
AcDbEntity
  8
P-SANR-FIXT
100
AcDbLine
 10
773.6664074431875
 20
1972.183977209212
 30
0.0
 11
773.6664074431877
 21
1970.709626373874
 31
0.0
  0
SPLINE
  5
177
330
87
100
AcDbEntity
  8
P-SANR-FIXT
100
AcDbSpline
210
0.0
220
0.0
230
1.0
 70
     8
 71
     3
 72
    16
 73
    12
 74
     0
 42
0.000000001
 43
0.0000000001
 40
0.0
 40
0.0
 40
0.0
 40
0.0
 40
0.2
 40
0.4
 40
0.475
 40
0.55
 40
0.625
 40
0.7
 40
0.775
 40
0.85
 40
1.0
 40
1.0
 40
1.0
 40
1.0
 10
796.6586613330873
 20
1985.687419249428
 30
0.0
 10
796.2174441125711
 20
1985.856799185593
 30
0.0
 10
795.438701217098
 20
1986.287048527106
 30
0.0
 10
794.694144971823
 20
1987.054199618034
 30
0.0
 10
794.337214244681
 20
1987.712085364339
 30
0.0
 10
794.1630347260677
 20
1988.173593992507
 30
0.0
 10
794.0537459624459
 20
1988.637623940351
 30
0.0
 10
794.0124825144538
 20
1989.125437302623
 30
0.0
 10
794.0299978261943
 20
1989.62072921718
 30
0.0
 10
794.1202526589018
 20
1990.263484110356
 30
0.0
 10
794.2714754921787
 20
1990.744111870697
 30
0.0
 10
794.4088620402498
 20
1991.062257748293
 30
0.0
  0
SPLINE
  5
178
330
87
100
AcDbEntity
  8
P-SANR-FIXT
100
AcDbSpline
210
0.0
220
0.0
230
1.0
 70
     8
 71
     3
 72
    14
 73
    10
 74
     0
 42
0.000000001
 43
0.0000000001
 40
0.0
 40
0.0
 40
0.0
 40
0.0
 40
0.1428571428571428
 40
0.2857142857142857
 40
0.5714285714285714
 40
0.6785714285714287
 40
0.7857142857142857
 40
0.8928571428571427
 40
1.0
 40
1.0
 40
1.0
 40
1.0
 10
790.8965478489622
 20
2013.135674490387
 30
0.0
 10
790.7844668714816
 20
2013.136672946017
 30
0.0
 10
790.5634498217241
 20
2013.153601836612
 30
0.0
 10
790.1301339241988
 20
2013.251176864356
 30
0.0
 10
789.7524506024848
 20
2013.414596196538
 30
0.0
 10
789.4417004625827
 20
2013.621738650944
 30
0.0
 10
789.2610576220135
 20
2013.773841662044
 30
0.0
 10
789.1054458802971
 20
2013.94434313618
 30
0.0
 10
789.0230599373311
 20
2014.0699209674
 30
0.0
 10
788.9865031461621
 20
2014.135674490387
 30
0.0
  0
SPLINE
  5
179
330
87
100
AcDbEntity
  8
P-SANR-FIXT
100
AcDbSpline
210
0.0
220
0.0
230
1.0
 70
     8
 71
     3
 72
    17
 73
    13
 74
     0
 42
0.000000001
 43
0.0000000001
 40
0.0
 40
0.0
 40
0.0
 40
0.0
 40
0.1666666666666666
 40
0.25
 40
0.3333333333333333
 40
0.4166666666666666
 40
0.5
 40
0.5833333333333333
 40
0.6666666666666666
 40
0.75
 40
0.8333333333333332
 40
1.0
 40
1.0
 40
1.0
 40
1.0
 10
842.3505462269208
 20
1961.261502980656
 30
0.0
 10
842.5821908100422
 20
1960.974466956729
 30
0.0
 10
842.8928984975428
 20
1960.563645167425
 30
0.0
 10
843.2292000177952
 20
1960.056280204918
 30
0.0
 10
843.4446572363626
 20
1959.699613834336
 30
0.0
 10
843.6113859008216
 20
1959.3547154069
 30
0.0
 10
843.7313903523476
 20
1959.024342219574
 30
0.0
 10
843.8198489873165
 20
1958.726259936163
 30
0.0
 10
843.8915603917228
 20
1958.478547615324
 30
0.0
 10
843.9479375161754
 20
1958.284450531097
 30
0.0
 10
843.9871145189844
 20
1958.080692642037
 30
0.0
 10
843.9794594199009
 20
1957.995176596442
 30
0.0
 10
843.9569724796028
 20
1957.967924159714
 30
0.0
  0
SPLINE
  5
17A
330
87
100
AcDbEntity
  8
P-SANR-FIXT
100
AcDbSpline
210
0.0
220
0.0
230
1.0
 70
     8
 71
     3
 72
    11
 73
     7
 74
     0
 42
0.000000001
 43
0.0000000001
 40
-0.5665511719326286
 40
-0.5665511719326286
 40
-0.5665511719326286
 40
-0.5665511719326286
 40
-0.55
 40
-0.4
 40
-0.2
 40
0.0
 40
0.0
 40
0.0
 40
0.0
 10
836.9892570403349
 20
1970.917385349958
 30
0.0
 10
837.0276378802191
 20
1970.791736019442
 30
0.0
 10
837.4219811984701
 20
1969.531412070307
 30
0.0
 10
838.4541442615221
 20
1966.881898507923
 30
0.0
 10
840.4085031945054
 20
1963.643978826693
 30
0.0
 10
841.7415587549113
 20
1961.948354624546
 30
0.0
 10
842.3505462269208
 20
1961.261502980656
 30
0.0
  0
SPLINE
  5
17B
330
87
100
AcDbEntity
  8
P-SANR-FIXT
100
AcDbSpline
210
0.0
220
0.0
230
1.0
 70
     8
 71
     3
 72
    15
 73
    11
 74
     0
 42
0.000000001
 43
0.0000000001
 40
-1.0
 40
-1.0
 40
-1.0
 40
-1.0
 40
-0.875
 40
-0.75
 40
-0.625
 40
-0.5
 40
-0.4375
 40
-0.375
 40
-0.25
 40
0.0
 40
0.0
 40
0.0
 40
0.0
 10
786.6664074431849
 20
1971.999999999994
 30
0.0
 10
786.6664074431849
 20
1972.017744831826
 30
0.0
 10
786.8147832549684
 20
1972.18324452359
 30
0.0
 10
787.4433514161572
 20
1972.796597256873
 30
0.0
 10
788.444277529117
 20
1973.849833851785
 30
0.0
 10
789.5455899167292
 20
1974.998849338766
 30
0.0
 10
790.5485262654288
 20
1976.032225279705
 30
0.0
 10
791.6278254036194
 20
1977.178509595131
 30
0.0
 10
793.6929092259251
 20
1979.362306056344
 30
0.0
 10
795.6914612578199
 20
1981.464884452249
 30
0.0
 10
797.0653322054468
 20
1982.999999999995
 30
0.0
  0
SPLINE
  5
17C
330
87
100
AcDbEntity
  8
P-SANR-FIXT
100
AcDbSpline
210
0.0
220
0.0
230
1.0
 70
     8
 71
     3
 72
    23
 73
    19
 74
     0
 42
0.000000001
 43
0.0000000001
 40
0.0
 40
0.0
 40
0.0
 40
0.0
 40
0.1
 40
0.15
 40
0.2
 40
0.25
 40
0.3
 40
0.35
 40
0.4
 40
0.45
 40
0.5
 40
0.55
 40
0.6
 40
0.65
 40
0.7
 40
0.8
 40
0.9
 40
1.0
 40
1.0
 40
1.0
 40
1.0
 10
797.0653322054471
 20
1982.999999999995
 30
0.0
 10
797.1452761261346
 20
1983.082181533281
 30
0.0
 10
797.2558080655296
 20
1983.20954634317
 30
0.0
 10
797.3850799974122
 20
1983.387855269779
 30
0.0
 10
797.4716541607455
 20
1983.525606782285
 30
0.0
 10
797.5531597061936
 20
1983.668494714119
 30
0.0
 10
797.6284617906689
 20
1983.816270104485
 30
0.0
 10
797.6905279402399
 20
1983.967880045929
 30
0.0
 10
797.7310588221959
 20
1984.120558995318
 30
0.0
 10
797.7527201697859
 20
1984.2790574321
 30
0.0
 10
797.7601742307714
 20
1984.443461168259
 30
0.0
 10
797.7464594744075
 20
1984.606954984356
 30
0.0
 10
797.7081867226461
 20
1984.761684309471
 30
0.0
 10
797.6393011651571
 20
1984.910206703744
 30
0.0
 10
797.5123272719494
 20
1985.106091912763
 30
0.0
 10
797.3091813535725
 20
1985.326615163478
 30
0.0
 10
797.0213550676598
 20
1985.533156103951
 30
0.0
 10
796.7860187806508
 20
1985.641504796421
 30
0.0
 10
796.6586613330872
 20
1985.687419249428
 30
0.0
  0
SPLINE
  5
17D
330
87
100
AcDbEntity
  8
P-SANR-FIXT
100
AcDbSpline
210
0.0
220
0.0
230
1.0
 70
     8
 71
     3
 72
    18
 73
    14
 74
     0
 42
0.000000001
 43
0.0000000001
 40
0.0
 40
0.0
 40
0.0
 40
0.0
 40
0.0714285714285714
 40
0.1428571428571428
 40
0.2142857142857143
 40
0.2857142857142857
 40
0.3571428571428571
 40
0.4285714285714286
 40
0.5714285714285714
 40
0.6785714285714287
 40
0.7857142857142857
 40
0.8928571428571427
 40
1.0
 40
1.0
 40
1.0
 40
1.0
 10
792.8788100415999
 20
2012.135674490386
 30
0.0
 10
792.8523429700569
 20
2012.181601864221
 30
0.0
 10
792.794755132482
 20
2012.270005732432
 30
0.0
 10
792.6956214831016
 20
2012.392557931859
 30
0.0
 10
792.5801083693571
 20
2012.504443497841
 30
0.0
 10
792.4539491072399
 20
2012.606800955199
 30
0.0
 10
792.3205413409573
 20
2012.700335011483
 30
0.0
 10
792.1324335423396
 20
2012.813183440611
 30
0.0
 10
791.9083739894346
 20
2012.921398677976
 30
0.0
 10
791.6460817130435
 20
2013.016934491401
 30
0.0
 10
791.4018890953988
 20
2013.082446134212
 30
0.0
 10
791.1515516999602
 20
2013.124557687408
 30
0.0
 10
790.9821291614844
 20
2013.134715976494
 30
0.0
 10
790.8965478489622
 20
2013.135674490387
 30
0.0
  0
LINE
  5
17E
330
87
100
AcDbEntity
  8
P-SANR-FIXT
100
AcDbLine
 10
866.6664074431851
 20
2030.149999999995
 30
0.0
 11
866.6664074431849
 21
2024.469746355869
 31
0.0
  0
LINE
  5
17F
330
87
100
AcDbEntity
  8
P-SANR-FIXT
100
AcDbLine
 10
866.6664074431849
 20
1975.530253644205
 30
0.0
 11
866.6664074431851
 21
1969.849999999995
 31
0.0
  0
ENDBLK
  5
181
330
87
100
AcDbEntity
  8
0
100
AcDbBlockEnd
  0
BLOCK
  5
271
330
183
100
AcDbEntity
  8
0
100
AcDbBlockBegin
  2
Automatic flow rate regulator valve_Caleffi_121 DN15 - 1 1_2___Pressure gauge-V1-Est - Idraulica
 70
     0
 10
0.0
 20
0.0
 30
0.0
  3
Automatic flow rate regulator valve_Caleffi_121 DN15 - 1 1_2___Pressure gauge-V1-Est - Idraulica
  1

  0
LINE
  5
184
330
183
100
AcDbEntity
  8
M-PIPE
100
AcDbLine
 10
844.1664074431566
 20
1705.745878730053
 30
0.0
 11
844.1664074431566
 21
1703.745878730053
 31
0.0
1001
REVIT
1002
{
1070
     3
1000
923159
1002
}
  0
LINE
  5
185
330
183
100
AcDbEntity
  8
M-PIPE
100
AcDbLine
 10
851.1664074431566
 20
1703.745878730054
 30
0.0
 11
851.1664074431566
 21
1705.745878730054
 31
0.0
1001
REVIT
1002
{
1070
     3
1000
923159
1002
}
  0
LINE
  5
186
330
183
100
AcDbEntity
  8
M-PIPE
100
AcDbLine
 10
844.1664074431553
 20
1703.745878730053
 30
0.0
 11
851.1664074431553
 21
1703.745878730053
 31
0.0
1001
REVIT
1002
{
1070
     3
1000
923159
1002
}
  0
LINE
  5
187
330
183
100
AcDbEntity
  8
M-PIPE
100
AcDbLine
 10
841.116407443163
 20
1748.74587873007
 30
0.0
 11
841.1164074431633
 21
1741.745878730036
 31
0.0
1001
REVIT
1002
{
1070
     3
1000
923159
1002
}
  0
LINE
  5
188
330
183
100
AcDbEntity
  8
M-PIPE
100
AcDbLine
 10
854.2164074431489
 20
1741.745878730036
 30
0.0
 11
854.2164074431484
 21
1748.745878730071
 31
0.0
1001
REVIT
1002
{
1070
     3
1000
923159
1002
}
  0
LINE
  5
189
330
183
100
AcDbEntity
  8
M-PIPE
100
AcDbLine
 10
840.6664074431672
 20
1741.745878730036
 30
0.0
 11
854.6664074431673
 21
1741.745878730036
 31
0.0
1001
REVIT
1002
{
1070
     3
1000
923159
1002
}
  0
LINE
  5
18A
330
183
100
AcDbEntity
  8
M-PIPE
100
AcDbLine
 10
854.6664074431673
 20
1741.745878730036
 30
0.0
 11
854.6664074431673
 21
1735.745878730053
 31
0.0
1001
REVIT
1002
{
1070
     3
1000
923159
1002
}
  0
LINE
  5
18B
330
183
100
AcDbEntity
  8
M-PIPE
100
AcDbLine
 10
840.6664074431672
 20
1741.745878730036
 30
0.0
 11
840.6664074431672
 21
1735.745878730053
 31
0.0
1001
REVIT
1002
{
1070
     3
1000
923159
1002
}
  0
LINE
  5
18C
330
183
100
AcDbEntity
  8
M-PIPE
100
AcDbLine
 10
816.6664074431444
 20
1732.745878730053
 30
0.0
 11
816.6664074431446
 21
1705.745878730053
 31
0.0
1001
REVIT
1002
{
1070
     3
1000
923159
1002
}
  0
LINE
  5
18D
330
183
100
AcDbEntity
  8
M-PIPE
100
AcDbLine
 10
878.6664074431685
 20
1705.745878730054
 30
0.0
 11
878.666407443168
 21
1732.745878730054
 31
0.0
1001
REVIT
1002
{
1070
     3
1000
923159
1002
}
  0
LWPOLYLINE
  5
18E
330
183
100
AcDbEntity
  8
M-PIPE
100
AcDbPolyline
 90
       80
 70
   128
 43
0.0
 10
875.6664074431684
 20
1735.745878730054
 10
875.6440104296759
 20
1735.745878730054
 10
875.5768552196418
 20
1735.745878730054
 10
875.4650492470766
 20
1735.745878730054
 10
875.308771377686
 20
1735.745878730054
 10
875.108271622723
 20
1735.745878730054
 10
874.863870739025
 20
1735.745878730054
 10
874.5759597158697
 20
1735.745878730054
 10
874.2449991494762
 20
1735.745878730054
 10
873.8715185061497
 20
1735.745878730054
 10
873.4561152752483
 20
1735.745878730054
 10
872.9994540133263
 20
1735.745878730054
 10
872.5022652809871
 20
1735.745878730054
 10
871.965344474141
 20
1735.745878730054
 10
871.3895505515424
 20
1735.745878730054
 10
870.7758046606372
 20
1735.745878730054
 10
870.1250886639263
 20
1735.745878730054
 10
869.4384435681918
 20
1735.745878730054
 10
868.7169678591105
 20
1735.745878730054
 10
867.9618157439104
 20
1735.745878730054
 10
867.1741953048854
 20
1735.745878730054
 10
866.3553665667208
 20
1735.745878730054
 10
865.5066394807244
 20
1735.745878730054
 10
864.6293718291806
 20
1735.745878730054
 10
863.7249670531922
 20
1735.745878730054
 10
862.7948720074707
 20
1735.745878730054
 10
861.8405746456803
 20
1735.745878730054
 10
860.8636016400266
 20
1735.745878730054
 10
859.8655159389094
 20
1735.745878730054
 10
858.8479142665368
 20
1735.745878730054
 10
857.8124245685074
 20
1735.745878730054
 10
856.7607034074461
 20
1735.745878730054
 10
855.6944333128546
 20
1735.745878730054
 10
854.6153200894258
 20
1735.745878730054
 10
853.5250900881186
 20
1735.745878730054
 10
852.425487444365
 20
1735.745878730054
 10
851.3182712878258
 20
1735.745878730054
 10
850.2052129281581
 20
1735.745878730054
 10
849.0880930212972
 20
1735.745878730054
 10
847.9686987207879
 20
1735.745878730053
 10
846.8488208187197
 20
1735.745878730053
 10
845.7302508808417
 20
1735.745878730053
 10
844.6147783804384
 20
1735.745878730053
 10
843.5041878355562
 20
1735.745878730053
 10
842.4002559541531
 20
1735.745878730053
 10
841.304748791747
 20
1735.745878730053
 10
840.2194189261013
 20
1735.745878730053
 10
839.1460026534772
 20
1735.745878730053
 10
838.0862172109267
 20
1735.745878730053
 10
837.0417580290832
 20
1735.745878730053
 10
836.0142960198309
 20
1735.745878730053
 10
835.005474903205
 20
1735.745878730053
 10
834.016908577788
 20
1735.745878730053
 10
833.0501785388179
 20
1735.745878730053
 10
832.1068313481321
 20
1735.745878730053
 10
831.1883761599991
 20
1735.745878730053
 10
830.2962823067934
 20
1735.745878730053
 10
829.4319769483768
 20
1735.745878730053
 10
828.5968427889475
 20
1735.745878730053
 10
827.7922158650081
 20
1735.745878730053
 10
827.0193834079922
 20
1735.745878730053
 10
826.2795817849692
 20
1735.745878730053
 10
825.5739945207198
 20
1735.745878730053
 10
824.9037504043494
 20
1735.745878730053
 10
824.2699216834663
 20
1735.745878730053
 10
823.6735223488151
 20
1735.745878730053
 10
823.1155065121054
 20
1735.745878730053
 10
822.5967668796394
 20
1735.745878730053
 10
822.11813332417
 20
1735.745878730053
 10
821.6803715572835
 20
1735.745878730053
 10
821.2841819044221
 20
1735.745878730053
 10
820.9301981845149
 20
1735.745878730053
 10
820.6189866960009
 20
1735.745878730053
 10
820.3510453108737
 20
1735.745878730053
 10
820.1268026781919
 20
1735.745878730053
 10
819.9466175383316
 20
1735.745878730053
 10
819.8107781490792
 20
1735.745878730053
 10
819.71950182448
 20
1735.745878730053
 10
819.6729345871819
 20
1735.745878730053
 10
819.6664074431438
 20
1735.745878730053
1001
REVIT
1002
{
1070
     3
1000
923159
1002
}
  0
LWPOLYLINE
  5
18F
330
183
100
AcDbEntity
  8
M-PIPE
100
AcDbPolyline
 90
       41
 70
   128
 43
0.0
 10
875.6906401348798
 20
1735.745394011589
 10
875.7863754457284
 20
1735.743479050037
 10
875.906151525076
 20
1735.736283848962
 10
876.0255440650352
 20
1735.724304637616
 10
876.1443620630112
 20
1735.707560580181
 10
876.2624154355536
 20
1735.686078463578
 10
876.3795153224499
 20
1735.65989265461
 10
876.4954743888608
 20
1735.629045044987
 10
876.6101071250169
 20
1735.593584984302
 10
876.7232301429938
 20
1735.553569201088
 10
876.8346624700944
 20
1735.509061712063
 10
876.9442258383664
 20
1735.460133719714
 10
877.051744969793
 20
1735.406863498392
 10
877.1570478566998
 20
1735.349336269087
 10
877.259966036931
 20
1735.287644063095
 10
877.3603348633535
 20
1735.221885574783
 10
877.4579937672555
 20
1735.152166003707
 10
877.5527865152239
 20
1735.078596886307
 10
877.644561459083
 20
1735.001295917477
 10
877.7331717785003
 20
1734.920386762277
 10
877.8184757158671
 20
1734.835998858096
 10
877.9003368030812
 20
1734.748267207578
 10
877.9786240798653
 20
1734.65733216265
 10
878.0532123032777
 20
1734.563339199985
 10
878.1239821480715
 20
1734.466438688272
 10
878.1908203975921
 20
1734.366785647659
 10
878.2536201248985
 20
1734.264539501753
 10
878.3122808638234
 20
1734.159863822575
 10
878.3667087696981
 20
1734.052926068885
 10
878.4168167694838
 20
1733.943897318273
 10
878.4625247010701
 20
1733.832951993484
 10
878.503759441517
 20
1733.720267583371
 10
878.5404550240361
 20
1733.60602435895
 10
878.5725527435234
 20
1733.490405085011
 10
878.6000012504745
 20
1733.373594727728
 10
878.6227566331341
 20
1733.255780158755
 10
878.6407824877436
 20
1733.137149856269
 10
878.6540499767813
 20
1733.017893603447
 10
878.6625378750953
 20
1732.898202184855
 10
878.6662326038584
 20
1732.778267081229
 10
878.6664074431685
 20
1732.745878730054
1001
REVIT
1002
{
1070
     3
1000
923159
1002
}
  0
LWPOLYLINE
  5
190
330
183
100
AcDbEntity
  8
M-PIPE
100
AcDbPolyline
 90
       41
 70
   128
 43
0.0
 10
816.6664074431439
 20
1732.745878730053
 10
816.6688071231611
 20
1732.865846732613
 10
816.676002324236
 20
1732.985622811961
 10
816.6879815355823
 20
1733.10501535192
 10
816.7047255930171
 20
1733.223833349896
 10
816.7262077096204
 20
1733.341886722439
 10
816.7523935185879
 20
1733.458986609335
 10
816.7832411282116
 20
1733.574945675746
 10
816.8187011888965
 20
1733.689578411902
 10
816.8587169721101
 20
1733.802701429879
 10
816.9032244611353
 20
1733.914133756979
 10
816.9521524534841
 20
1734.023697125251
 10
817.005422674806
 20
1734.131216256678
 10
817.0629499041108
 20
1734.236519143584
 10
817.1246421101036
 20
1734.339437323816
 10
817.1904005984147
 20
1734.439806150238
 10
817.2601201694911
 20
1734.537465054141
 10
817.3336892868912
 20
1734.632257802109
 10
817.4109902557212
 20
1734.724032745968
 10
817.4918994109212
 20
1734.812643065385
 10
817.5762873151024
 20
1734.897947002752
 10
817.66401896562
 20
1734.979808089966
 10
817.7549540105481
 20
1735.05809536675
 10
817.8489469732134
 20
1735.132683590163
 10
817.9458474849266
 20
1735.203453434956
 10
818.0455005255394
 20
1735.270291684477
 10
818.1477466714456
 20
1735.333091411783
 10
818.2524223506229
 20
1735.391752150708
 10
818.3593601043138
 20
1735.446180056583
 10
818.4683888549253
 20
1735.496288056368
 10
818.5793341797138
 20
1735.541995987955
 10
818.6920185898276
 20
1735.583230728402
 10
818.8062618142479
 20
1735.619926310921
 10
818.9218810881866
 20
1735.652024030408
 10
819.0386914454698
 20
1735.679472537359
 10
819.1565060144432
 20
1735.702227920019
 10
819.2751363169294
 20
1735.720253774628
 10
819.3943925697512
 20
1735.733521263666
 10
819.5140839883432
 20
1735.74200916198
 10
819.6340190919691
 20
1735.745703890743
 10
819.6664074431438
 20
1735.745878730053
1001
REVIT
1002
{
1070
     3
1000
923159
1002
}
  0
LWPOLYLINE
  5
191
330
183
100
AcDbEntity
  8
M-PIPE
100
AcDbPolyline
 90
        4
 70
   128
 43
0.0
 10
819.6664074431438
 20
1735.745878730053
 10
819.6888044566366
 20
1735.745878730053
 10
819.7559596666705
 20
1735.745878730053
 10
819.7702512685687
 20
1735.745878730053
1001
REVIT
1002
{
1070
     3
1000
923159
1002
}
  0
LWPOLYLINE
  5
192
330
183
100
AcDbEntity
  8
M-PIPE
100
AcDbPolyline
 90
        4
 70
   128
 43
0.0
 10
875.5562883998463
 20
1735.745878730054
 10
875.6133130618325
 20
1735.745878730054
 10
875.6598802991303
 20
1735.745878730054
 10
875.6664074431684
 20
1735.745878730054
1001
REVIT
1002
{
1070
     3
1000
923159
1002
}
  0
LINE
  5
193
330
183
100
AcDbEntity
  8
M-PIPE
100
AcDbLine
 10
816.6664074431434
 20
1705.745878730052
 30
0.0
 11
878.6664074431671
 21
1705.745878730053
 31
0.0
1001
REVIT
1002
{
1070
     3
1000
923159
1002
}
  0
LINE
  5
194
330
183
100
AcDbEntity
  8
P-SANR-FIXT
100
AcDbLine
 10
838.1664074432498
 20
1838.745878730089
 30
0.0
 11
838.1664074432498
 21
1833.745878730089
 31
0.0
  0
LINE
  5
195
330
183
100
AcDbEntity
  8
P-SANR-FIXT
100
AcDbLine
 10
857.1664074431224
 20
1833.745878730089
 30
0.0
 11
857.1664074431224
 21
1838.745878730089
 31
0.0
  0
LINE
  5
196
330
183
100
AcDbEntity
  8
P-SANR-FIXT
100
AcDbLine
 10
839.1664074432497
 20
1839.745878730089
 30
0.0
 11
838.1664074432498
 21
1838.745878730089
 31
0.0
  0
LINE
  5
197
330
183
100
AcDbEntity
  8
P-SANR-FIXT
100
AcDbLine
 10
857.1664074431224
 20
1838.745878730089
 30
0.0
 11
856.1664074431226
 21
1839.745878730089
 31
0.0
  0
LINE
  5
198
330
183
100
AcDbEntity
  8
P-SANR-FIXT
100
AcDbLine
 10
847.6664074431848
 20
1838.745878730088
 30
0.0
 11
838.1664074432487
 21
1838.745878730088
 31
0.0
  0
LINE
  5
199
330
183
100
AcDbEntity
  8
P-SANR-FIXT
100
AcDbLine
 10
857.1664074431209
 20
1838.745878730088
 30
0.0
 11
847.6664074431848
 21
1838.745878730088
 31
0.0
  0
LINE
  5
19A
330
183
100
AcDbEntity
  8
P-SANR-FIXT
100
AcDbLine
 10
838.1664074432487
 20
1833.745878730088
 30
0.0
 11
847.6664074431848
 21
1833.745878730088
 31
0.0
  0
LINE
  5
19B
330
183
100
AcDbEntity
  8
P-SANR-FIXT
100
AcDbLine
 10
847.6664074431848
 20
1833.745878730088
 30
0.0
 11
857.1664074431209
 21
1833.745878730088
 31
0.0
  0
LINE
  5
19C
330
183
100
AcDbEntity
  8
P-SANR-FIXT
100
AcDbLine
 10
839.1664074432485
 20
1839.745878730088
 30
0.0
 11
847.6664074431848
 21
1839.745878730088
 31
0.0
  0
LINE
  5
19D
330
183
100
AcDbEntity
  8
P-SANR-FIXT
100
AcDbLine
 10
847.6664074431848
 20
1839.745878730088
 30
0.0
 11
856.1664074431211
 21
1839.745878730088
 31
0.0
  0
LINE
  5
19E
330
183
100
AcDbEntity
  8
P-SANR-FIXT
100
AcDbLine
 10
747.6664074431877
 20
1791.24587873007
 30
0.0
 11
747.6664074431876
 21
1807.745878730079
 31
0.0
  0
LINE
  5
19F
330
183
100
AcDbEntity
  8
P-SANR-FIXT
100
AcDbLine
 10
747.6664074431876
 20
1807.745878730079
 30
0.0
 11
747.6664074431876
 21
1824.245878730087
 31
0.0
  0
LINE
  5
1A0
330
183
100
AcDbEntity
  8
P-SANR-FIXT
100
AcDbLine
 10
747.6664074431878
 20
1758.245878730052
 30
0.0
 11
747.6664074431878
 21
1774.745878730061
 31
0.0
  0
LINE
  5
1A1
330
183
100
AcDbEntity
  8
P-SANR-FIXT
100
AcDbLine
 10
747.6664074431878
 20
1774.74587873006
 30
0.0
 11
747.6664074431877
 21
1791.245878730069
 31
0.0
  0
LINE
  5
1A2
330
183
100
AcDbEntity
  8
P-SANR-FIXT
100
AcDbLine
 10
773.6664074431875
 20
1824.245878730076
 30
0.0
 11
773.6664074431875
 21
1807.745878730074
 31
0.0
  0
LINE
  5
1A3
330
183
100
AcDbEntity
  8
P-SANR-FIXT
100
AcDbLine
 10
773.6664074431875
 20
1807.745878730074
 30
0.0
 11
773.6664074431875
 21
1791.24587873007
 31
0.0
  0
LINE
  5
1A4
330
183
100
AcDbEntity
  8
P-SANR-FIXT
100
AcDbLine
 10
773.6664074431875
 20
1791.245878730069
 30
0.0
 11
773.6664074431877
 21
1774.745878730066
 31
0.0
  0
LINE
  5
1A5
330
183
100
AcDbEntity
  8
P-SANR-FIXT
100
AcDbLine
 10
773.6664074431877
 20
1774.745878730066
 30
0.0
 11
773.6664074431877
 21
1758.245878730062
 31
0.0
  0
LINE
  5
1A6
330
183
100
AcDbEntity
  8
P-SANR-FIXT
100
AcDbLine
 10
749.3984582507811
 20
1758.245878730002
 30
0.0
 11
771.934356635588
 21
1758.245878730002
 31
0.0
  0
LINE
  5
1A7
330
183
100
AcDbEntity
  8
P-SANR-FIXT
100
AcDbLine
 10
771.9343566356323
 20
1758.245878730001
 30
0.0
 11
771.9343566356323
 21
1762.28594293564
 31
0.0
  0
LINE
  5
1A8
330
183
100
AcDbEntity
  8
P-SANR-FIXT
100
AcDbLine
 10
749.3984582507368
 20
1762.28594293564
 30
0.0
 11
749.3984582507368
 21
1758.245878730002
 31
0.0
  0
SPLINE
  5
1A9
330
183
100
AcDbEntity
  8
P-SANR-FIXT
100
AcDbSpline
210
0.0
220
0.0
230
1.0
 70
    24
 71
     3
 72
     9
 73
     5
 74
     0
 42
0.000000001
 43
0.0000000001
 40
0.0
 40
0.0
 40
0.0
 40
0.0
 40
0.5
 40
1.0
 40
1.0
 40
1.0
 40
1.0
 10
749.3984582507811
 20
1758.245878730002
 30
0.0
 10
748.8346931681454
 20
1758.245878730002
 30
0.0
 10
747.9822529509108
 20
1758.245878730002
 30
0.0
 10
747.6799926297498
 20
1758.245878730002
 30
0.0
 10
747.6664074431878
 20
1758.245878730002
 30
0.0
  0
SPLINE
  5
1AA
330
183
100
AcDbEntity
  8
P-SANR-FIXT
100
AcDbSpline
210
0.0
220
0.0
230
1.0
 70
    24
 71
     3
 72
     9
 73
     5
 74
     0
 42
0.000000001
 43
0.0000000001
 40
0.0
 40
0.0
 40
0.0
 40
0.0
 40
0.5
 40
1.0
 40
1.0
 40
1.0
 40
1.0
 10
773.6664074431877
 20
1758.245878730002
 30
0.0
 10
773.6528222566225
 20
1758.245878730002
 30
0.0
 10
773.3505619354574
 20
1758.245878730002
 30
0.0
 10
772.4981217182227
 20
1758.245878730002
 30
0.0
 10
771.934356635588
 20
1758.245878730002
 30
0.0
  0
SPLINE
  5
1AB
330
183
100
AcDbEntity
  8
P-SANR-FIXT
100
AcDbSpline
210
0.0
220
0.0
230
1.0
 70
    24
 71
     3
 72
     9
 73
     5
 74
     0
 42
0.000000001
 43
0.0000000001
 40
0.0
 40
0.0
 40
0.0
 40
0.0
 40
0.5
 40
1.0
 40
1.0
 40
1.0
 40
1.0
 10
747.6664074431876
 20
1824.245878730014
 30
0.0
 10
747.6799926297141
 20
1824.245878730014
 30
0.0
 10
747.9822529508249
 20
1824.245878730014
 30
0.0
 10
748.8346931680511
 20
1824.245878730014
 30
0.0
 10
749.398458250693
 20
1824.245878730014
 30
0.0
  0
LINE
  5
1AC
330
183
100
AcDbEntity
  8
P-SANR-FIXT
100
AcDbLine
 10
749.398458250693
 20
1824.245878730014
 30
0.0
 11
771.9343566356756
 21
1824.245878730014
 31
0.0
  0
SPLINE
  5
1AD
330
183
100
AcDbEntity
  8
P-SANR-FIXT
100
AcDbSpline
210
0.0
220
0.0
230
1.0
 70
    24
 71
     3
 72
     9
 73
     5
 74
     0
 42
0.000000001
 43
0.0000000001
 40
0.0
 40
0.0
 40
0.0
 40
0.0
 40
0.5
 40
1.0
 40
1.0
 40
1.0
 40
1.0
 10
771.9343566356756
 20
1824.245878730014
 30
0.0
 10
772.4981217183166
 20
1824.245878730014
 30
0.0
 10
773.3505619355428
 20
1824.245878730014
 30
0.0
 10
773.6528222566578
 20
1824.245878730014
 30
0.0
 10
773.6664074431875
 20
1824.245878730014
 30
0.0
  0
LINE
  5
1AE
330
183
100
AcDbEntity
  8
P-SANR-FIXT
100
AcDbLine
 10
749.3984582507366
 20
1824.245878730014
 30
0.0
 11
749.3984582507366
 21
1820.2058145243
 31
0.0
  0
LINE
  5
1AF
330
183
100
AcDbEntity
  8
P-SANR-FIXT
100
AcDbLine
 10
749.3984582506985
 20
1820.2058145243
 30
0.0
 11
771.9343566356703
 21
1820.2058145243
 31
0.0
  0
LINE
  5
1B0
330
183
100
AcDbEntity
  8
P-SANR-FIXT
100
AcDbLine
 10
771.9343566356321
 20
1820.2058145243
 30
0.0
 11
771.9343566356321
 21
1824.245878730014
 31
0.0
  0
SPLINE
  5
1B1
330
183
100
AcDbEntity
  8
P-SANR-FIXT
100
AcDbSpline
210
0.0
220
0.0
230
1.0
 70
     8
 71
     3
 72
     9
 73
     5
 74
     0
 42
0.000000001
 43
0.0000000001
 40
0.0
 40
0.0
 40
0.0
 40
0.0
 40
0.5
 40
1.0
 40
1.0
 40
1.0
 40
1.0
 10
749.3984582506985
 20
1820.2058145243
 30
0.0
 10
748.8346931680642
 20
1818.157002045058
 30
0.0
 10
747.9822529508448
 20
1814.03153360011
 30
0.0
 10
747.6799926297236
 20
1809.850378182231
 30
0.0
 10
747.6664074431876
 20
1807.745878730059
 30
0.0
  0
SPLINE
  5
1B2
330
183
100
AcDbEntity
  8
P-SANR-FIXT
100
AcDbSpline
210
0.0
220
0.0
230
1.0
 70
     8
 71
     3
 72
     9
 73
     5
 74
     0
 42
0.000000001
 43
0.0000000001
 40
0.0
 40
0.0
 40
0.0
 40
0.0
 40
0.5
 40
1.0
 40
1.0
 40
1.0
 40
1.0
 10
747.6664074431876
 20
1807.745878730059
 30
0.0
 10
747.6799926297243
 20
1805.641379277865
 30
0.0
 10
747.9822529508516
 20
1801.460223859944
 30
0.0
 10
748.8346931680872
 20
1797.334755414954
 30
0.0
 10
749.3984582507321
 20
1795.285942935692
 30
0.0
  0
LINE
  5
1B3
330
183
100
AcDbEntity
  8
P-SANR-FIXT
100
AcDbLine
 10
749.3984582507321
 20
1795.285942935692
 30
0.0
 11
771.9343566356368
 21
1795.285942935692
 31
0.0
  0
SPLINE
  5
1B4
330
183
100
AcDbEntity
  8
P-SANR-FIXT
100
AcDbSpline
210
0.0
220
0.0
230
1.0
 70
     8
 71
     3
 72
     9
 73
     5
 74
     0
 42
0.000000001
 43
0.0000000001
 40
0.0
 40
0.0
 40
0.0
 40
0.0
 40
0.5
 40
1.0
 40
1.0
 40
1.0
 40
1.0
 10
771.9343566356368
 20
1795.285942935692
 30
0.0
 10
772.4981217182808
 20
1797.334755414954
 30
0.0
 10
773.3505619355164
 20
1801.460223859944
 30
0.0
 10
773.6528222566479
 20
1805.641379277865
 30
0.0
 10
773.6664074431875
 20
1807.745878730059
 30
0.0
  0
SPLINE
  5
1B5
330
183
100
AcDbEntity
  8
P-SANR-FIXT
100
AcDbSpline
210
0.0
220
0.0
230
1.0
 70
     8
 71
     3
 72
     9
 73
     5
 74
     0
 42
0.000000001
 43
0.0000000001
 40
0.0
 40
0.0
 40
0.0
 40
0.0
 40
0.5
 40
1.0
 40
1.0
 40
1.0
 40
1.0
 10
773.6664074431875
 20
1807.745878730059
 30
0.0
 10
773.6528222566483
 20
1809.850378182231
 30
0.0
 10
773.3505619355229
 20
1814.031533600109
 30
0.0
 10
772.4981217183035
 20
1818.157002045058
 30
0.0
 10
771.9343566356703
 20
1820.2058145243
 30
0.0
  0
LINE
  5
1B6
330
183
100
AcDbEntity
  8
P-SANR-FIXT
100
AcDbLine
 10
749.3984582507367
 20
1795.285942935692
 30
0.0
 11
749.3984582507367
 21
1791.245878730069
 31
0.0
  0
LINE
  5
1B7
330
183
100
AcDbEntity
  8
P-SANR-FIXT
100
AcDbLine
 10
749.3984582507367
 20
1791.245878730069
 30
0.0
 11
749.3984582507367
 21
1787.205814524334
 31
0.0
  0
LINE
  5
1B8
330
183
100
AcDbEntity
  8
P-SANR-FIXT
100
AcDbLine
 10
749.3984582507428
 20
1787.205814524334
 30
0.0
 11
771.9343566356259
 21
1787.205814524334
 31
0.0
  0
LINE
  5
1B9
330
183
100
AcDbEntity
  8
P-SANR-FIXT
100
AcDbLine
 10
771.9343566356322
 20
1787.205814524334
 30
0.0
 11
771.9343566356322
 21
1791.245878730068
 31
0.0
  0
LINE
  5
1BA
330
183
100
AcDbEntity
  8
P-SANR-FIXT
100
AcDbLine
 10
771.9343566356322
 20
1791.245878730069
 30
0.0
 11
771.9343566356322
 21
1795.285942935692
 31
0.0
  0
SPLINE
  5
1BB
330
183
100
AcDbEntity
  8
P-SANR-FIXT
100
AcDbSpline
210
0.0
220
0.0
230
1.0
 70
     8
 71
     3
 72
     9
 73
     5
 74
     0
 42
0.000000001
 43
0.0000000001
 40
0.0
 40
0.0
 40
0.0
 40
0.0
 40
0.5
 40
1.0
 40
1.0
 40
1.0
 40
1.0
 10
749.3984582507428
 20
1787.205814524335
 30
0.0
 10
748.8346931681116
 20
1785.157002045085
 30
0.0
 10
747.9822529508878
 20
1781.031533600121
 30
0.0
 10
747.6799926297415
 20
1776.850378182228
 30
0.0
 10
747.6664074431878
 20
1774.745878730049
 30
0.0
  0
SPLINE
  5
1BC
330
183
100
AcDbEntity
  8
P-SANR-FIXT
100
AcDbSpline
210
0.0
220
0.0
230
1.0
 70
     8
 71
     3
 72
     9
 73
     5
 74
     0
 42
0.000000001
 43
0.0000000001
 40
0.0
 40
0.0
 40
0.0
 40
0.0
 40
0.5
 40
1.0
 40
1.0
 40
1.0
 40
1.0
 10
747.6664074431878
 20
1774.745878730049
 30
0.0
 10
747.6799926297421
 20
1772.641379277849
 30
0.0
 10
747.9822529508944
 20
1768.460223859914
 30
0.0
 10
748.8346931681341
 20
1764.33475541491
 30
0.0
 10
749.398458250776
 20
1762.285942935641
 30
0.0
  0
LINE
  5
1BD
330
183
100
AcDbEntity
  8
P-SANR-FIXT
100
AcDbLine
 10
771.9343566355932
 20
1762.285942935641
 30
0.0
 11
749.398458250776
 21
1762.285942935641
 31
0.0
  0
SPLINE
  5
1BE
330
183
100
AcDbEntity
  8
P-SANR-FIXT
100
AcDbSpline
210
0.0
220
0.0
230
1.0
 70
     8
 71
     3
 72
     9
 73
     5
 74
     0
 42
0.000000001
 43
0.0000000001
 40
0.0
 40
0.0
 40
0.0
 40
0.0
 40
0.5
 40
1.0
 40
1.0
 40
1.0
 40
1.0
 10
771.9343566355932
 20
1762.285942935641
 30
0.0
 10
772.498121718234
 20
1764.33475541491
 30
0.0
 10
773.3505619354738
 20
1768.460223859914
 30
0.0
 10
773.6528222566303
 20
1772.64137927785
 30
0.0
 10
773.6664074431877
 20
1774.745878730049
 30
0.0
  0
SPLINE
  5
1BF
330
183
100
AcDbEntity
  8
P-SANR-FIXT
100
AcDbSpline
210
0.0
220
0.0
230
1.0
 70
     8
 71
     3
 72
     9
 73
     5
 74
     0
 42
0.000000001
 43
0.0000000001
 40
0.0
 40
0.0
 40
0.0
 40
0.0
 40
0.5
 40
1.0
 40
1.0
 40
1.0
 40
1.0
 10
773.6664074431877
 20
1774.745878730049
 30
0.0
 10
773.6528222566306
 20
1776.850378182228
 30
0.0
 10
773.3505619354802
 20
1781.031533600121
 30
0.0
 10
772.4981217182562
 20
1785.157002045085
 30
0.0
 10
771.9343566356259
 20
1787.205814524335
 30
0.0
  0
LINE
  5
1C0
330
183
100
AcDbEntity
  8
P-SANR-FIXT
100
AcDbLine
 10
893.6664074431828
 20
1824.245878730088
 30
0.0
 11
893.6664074431828
 21
1807.745878730079
 31
0.0
  0
LINE
  5
1C1
330
183
100
AcDbEntity
  8
P-SANR-FIXT
100
AcDbLine
 10
893.6664074431828
 20
1807.745878730079
 30
0.0
 11
893.6664074431829
 21
1791.245878730071
 31
0.0
  0
LINE
  5
1C2
330
183
100
AcDbEntity
  8
P-SANR-FIXT
100
AcDbLine
 10
893.6664074431829
 20
1791.24587873007
 30
0.0
 11
893.6664074431829
 21
1774.745878730061
 31
0.0
  0
LINE
  5
1C3
330
183
100
AcDbEntity
  8
P-SANR-FIXT
100
AcDbLine
 10
893.6664074431829
 20
1774.745878730061
 30
0.0
 11
893.6664074431829
 21
1758.245878730052
 31
0.0
  0
LINE
  5
1C4
330
183
100
AcDbEntity
  8
P-SANR-FIXT
100
AcDbLine
 10
867.666407443183
 20
1791.24587873007
 30
0.0
 11
867.666407443183
 21
1807.745878730074
 31
0.0
  0
LINE
  5
1C5
330
183
100
AcDbEntity
  8
P-SANR-FIXT
100
AcDbLine
 10
867.666407443183
 20
1807.745878730074
 30
0.0
 11
867.666407443183
 21
1824.245878730077
 31
0.0
  0
LINE
  5
1C6
330
183
100
AcDbEntity
  8
P-SANR-FIXT
100
AcDbLine
 10
867.6664074431831
 20
1758.245878730063
 30
0.0
 11
867.6664074431831
 21
1774.745878730066
 31
0.0
  0
LINE
  5
1C7
330
183
100
AcDbEntity
  8
P-SANR-FIXT
100
AcDbLine
 10
867.6664074431831
 20
1774.745878730066
 30
0.0
 11
867.666407443183
 21
1791.24587873007
 31
0.0
  0
LINE
  5
1C8
330
183
100
AcDbEntity
  8
P-SANR-FIXT
100
AcDbLine
 10
891.934356635595
 20
1762.285942935642
 30
0.0
 11
869.3984582507777
 21
1762.285942935642
 31
0.0
  0
LINE
  5
1C9
330
183
100
AcDbEntity
  8
P-SANR-FIXT
100
AcDbLine
 10
869.3984582507386
 20
1762.285942935642
 30
0.0
 11
869.3984582507386
 21
1758.245878730003
 31
0.0
  0
LINE
  5
1CA
330
183
100
AcDbEntity
  8
P-SANR-FIXT
100
AcDbLine
 10
891.934356635634
 20
1758.245878730002
 30
0.0
 11
891.934356635634
 21
1762.285942935641
 31
0.0
  0
LINE
  5
1CB
330
183
100
AcDbEntity
  8
P-SANR-FIXT
100
AcDbLine
 10
869.3984582507829
 20
1758.245878730003
 30
0.0
 11
891.9343566355898
 21
1758.245878730003
 31
0.0
  0
SPLINE
  5
1CC
330
183
100
AcDbEntity
  8
P-SANR-FIXT
100
AcDbSpline
210
0.0
220
0.0
230
1.0
 70
    24
 71
     3
 72
     9
 73
     5
 74
     0
 42
0.000000001
 43
0.0000000001
 40
0.0
 40
0.0
 40
0.0
 40
0.0
 40
0.5
 40
1.0
 40
1.0
 40
1.0
 40
1.0
 10
869.3984582507829
 20
1758.245878730003
 30
0.0
 10
868.8346931681481
 20
1758.245878730003
 30
0.0
 10
867.9822529509134
 20
1758.245878730003
 30
0.0
 10
867.6799926297483
 20
1758.245878730002
 30
0.0
 10
867.6664074431831
 20
1758.245878730002
 30
0.0
  0
SPLINE
  5
1CD
330
183
100
AcDbEntity
  8
P-SANR-FIXT
100
AcDbSpline
210
0.0
220
0.0
230
1.0
 70
    24
 71
     3
 72
     9
 73
     5
 74
     0
 42
0.000000001
 43
0.0000000001
 40
0.0
 40
0.0
 40
0.0
 40
0.0
 40
0.5
 40
1.0
 40
1.0
 40
1.0
 40
1.0
 10
893.6664074431829
 20
1758.245878730002
 30
0.0
 10
893.6528222566209
 20
1758.245878730002
 30
0.0
 10
893.3505619354601
 20
1758.245878730003
 30
0.0
 10
892.4981217182255
 20
1758.245878730003
 30
0.0
 10
891.9343566355898
 20
1758.245878730003
 30
0.0
  0
SPLINE
  5
1CE
330
183
100
AcDbEntity
  8
P-SANR-FIXT
100
AcDbSpline
210
0.0
220
0.0
230
1.0
 70
    24
 71
     3
 72
     9
 73
     5
 74
     0
 42
0.000000001
 43
0.0000000001
 40
0.0
 40
0.0
 40
0.0
 40
0.0
 40
0.5
 40
1.0
 40
1.0
 40
1.0
 40
1.0
 10
867.666407443183
 20
1824.245878730015
 30
0.0
 10
867.6799926297126
 20
1824.245878730015
 30
0.0
 10
867.9822529508275
 20
1824.245878730015
 30
0.0
 10
868.8346931680538
 20
1824.245878730015
 30
0.0
 10
869.3984582506947
 20
1824.245878730015
 30
0.0
  0
SPLINE
  5
1CF
330
183
100
AcDbEntity
  8
P-SANR-FIXT
100
AcDbSpline
210
0.0
220
0.0
230
1.0
 70
    24
 71
     3
 72
     9
 73
     5
 74
     0
 42
0.000000001
 43
0.0000000001
 40
0.0
 40
0.0
 40
0.0
 40
0.0
 40
0.5
 40
1.0
 40
1.0
 40
1.0
 40
1.0
 10
891.9343566356774
 20
1824.245878730015
 30
0.0
 10
892.4981217183194
 20
1824.245878730015
 30
0.0
 10
893.3505619355454
 20
1824.245878730015
 30
0.0
 10
893.6528222566563
 20
1824.245878730015
 30
0.0
 10
893.6664074431828
 20
1824.245878730015
 30
0.0
  0
LINE
  5
1D0
330
183
100
AcDbEntity
  8
P-SANR-FIXT
100
AcDbLine
 10
869.3984582506947
 20
1824.245878730015
 30
0.0
 11
891.9343566356774
 21
1824.245878730015
 31
0.0
  0
LINE
  5
1D1
330
183
100
AcDbEntity
  8
P-SANR-FIXT
100
AcDbLine
 10
869.3984582507384
 20
1824.245878730015
 30
0.0
 11
869.3984582507384
 21
1820.205814524301
 31
0.0
  0
LINE
  5
1D2
330
183
100
AcDbEntity
  8
P-SANR-FIXT
100
AcDbLine
 10
891.9343566356337
 20
1820.205814524301
 30
0.0
 11
891.9343566356337
 21
1824.245878730015
 31
0.0
  0
LINE
  5
1D3
330
183
100
AcDbEntity
  8
P-SANR-FIXT
100
AcDbLine
 10
869.3984582507003
 20
1820.205814524301
 30
0.0
 11
891.9343566356719
 21
1820.205814524301
 31
0.0
  0
SPLINE
  5
1D4
330
183
100
AcDbEntity
  8
P-SANR-FIXT
100
AcDbSpline
210
0.0
220
0.0
230
1.0
 70
     8
 71
     3
 72
     9
 73
     5
 74
     0
 42
0.000000001
 43
0.0000000001
 40
0.0
 40
0.0
 40
0.0
 40
0.0
 40
0.5
 40
1.0
 40
1.0
 40
1.0
 40
1.0
 10
869.3984582507003
 20
1820.205814524301
 30
0.0
 10
868.8346931680669
 20
1818.157002045059
 30
0.0
 10
867.9822529508474
 20
1814.03153360011
 30
0.0
 10
867.6799926297221
 20
1809.850378182231
 30
0.0
 10
867.666407443183
 20
1807.745878730059
 30
0.0
  0
SPLINE
  5
1D5
330
183
100
AcDbEntity
  8
P-SANR-FIXT
100
AcDbSpline
210
0.0
220
0.0
230
1.0
 70
     8
 71
     3
 72
     9
 73
     5
 74
     0
 42
0.000000001
 43
0.0000000001
 40
0.0
 40
0.0
 40
0.0
 40
0.0
 40
0.5
 40
1.0
 40
1.0
 40
1.0
 40
1.0
 10
867.666407443183
 20
1807.745878730059
 30
0.0
 10
867.6799926297228
 20
1805.641379277866
 30
0.0
 10
867.9822529508541
 20
1801.460223859945
 30
0.0
 10
868.8346931680898
 20
1797.334755414954
 30
0.0
 10
869.3984582507338
 20
1795.285942935693
 30
0.0
  0
SPLINE
  5
1D6
330
183
100
AcDbEntity
  8
P-SANR-FIXT
100
AcDbSpline
210
0.0
220
0.0
230
1.0
 70
     8
 71
     3
 72
     9
 73
     5
 74
     0
 42
0.000000001
 43
0.0000000001
 40
0.0
 40
0.0
 40
0.0
 40
0.0
 40
0.5
 40
1.0
 40
1.0
 40
1.0
 40
1.0
 10
891.9343566356385
 20
1795.285942935693
 30
0.0
 10
892.4981217182834
 20
1797.334755414954
 30
0.0
 10
893.3505619355191
 20
1801.460223859945
 30
0.0
 10
893.6528222566463
 20
1805.641379277866
 30
0.0
 10
893.6664074431828
 20
1807.745878730059
 30
0.0
  0
SPLINE
  5
1D7
330
183
100
AcDbEntity
  8
P-SANR-FIXT
100
AcDbSpline
210
0.0
220
0.0
230
1.0
 70
     8
 71
     3
 72
     9
 73
     5
 74
     0
 42
0.000000001
 43
0.0000000001
 40
0.0
 40
0.0
 40
0.0
 40
0.0
 40
0.5
 40
1.0
 40
1.0
 40
1.0
 40
1.0
 10
893.6664074431828
 20
1807.745878730059
 30
0.0
 10
893.6528222566467
 20
1809.850378182231
 30
0.0
 10
893.3505619355255
 20
1814.03153360011
 30
0.0
 10
892.4981217183061
 20
1818.157002045059
 30
0.0
 10
891.9343566356719
 20
1820.205814524301
 30
0.0
  0
LINE
  5
1D8
330
183
100
AcDbEntity
  8
P-SANR-FIXT
100
AcDbLine
 10
869.3984582507338
 20
1795.285942935693
 30
0.0
 11
891.9343566356385
 21
1795.285942935693
 31
0.0
  0
LINE
  5
1D9
330
183
100
AcDbEntity
  8
P-SANR-FIXT
100
AcDbLine
 10
869.3984582507386
 20
1795.285942935693
 30
0.0
 11
869.3984582507386
 21
1791.24587873007
 31
0.0
  0
LINE
  5
1DA
330
183
100
AcDbEntity
  8
P-SANR-FIXT
100
AcDbLine
 10
869.3984582507386
 20
1791.24587873007
 30
0.0
 11
869.3984582507386
 21
1787.205814524335
 31
0.0
  0
LINE
  5
1DB
330
183
100
AcDbEntity
  8
P-SANR-FIXT
100
AcDbLine
 10
891.9343566356339
 20
1787.205814524335
 30
0.0
 11
891.9343566356339
 21
1791.24587873007
 31
0.0
  0
LINE
  5
1DC
330
183
100
AcDbEntity
  8
P-SANR-FIXT
100
AcDbLine
 10
891.9343566356339
 20
1791.24587873007
 30
0.0
 11
891.9343566356339
 21
1795.285942935692
 31
0.0
  0
SPLINE
  5
1DD
330
183
100
AcDbEntity
  8
P-SANR-FIXT
100
AcDbSpline
210
0.0
220
0.0
230
1.0
 70
     8
 71
     3
 72
     9
 73
     5
 74
     0
 42
0.000000001
 43
0.0000000001
 40
0.0
 40
0.0
 40
0.0
 40
0.0
 40
0.5
 40
1.0
 40
1.0
 40
1.0
 40
1.0
 10
891.934356635595
 20
1762.285942935642
 30
0.0
 10
892.4981217182367
 20
1764.334755414911
 30
0.0
 10
893.3505619354765
 20
1768.460223859914
 30
0.0
 10
893.6528222566288
 20
1772.64137927785
 30
0.0
 10
893.6664074431829
 20
1774.74587873005
 30
0.0
  0
SPLINE
  5
1DE
330
183
100
AcDbEntity
  8
P-SANR-FIXT
100
AcDbSpline
210
0.0
220
0.0
230
1.0
 70
     8
 71
     3
 72
     9
 73
     5
 74
     0
 42
0.000000001
 43
0.0000000001
 40
0.0
 40
0.0
 40
0.0
 40
0.0
 40
0.5
 40
1.0
 40
1.0
 40
1.0
 40
1.0
 10
893.6664074431829
 20
1774.74587873005
 30
0.0
 10
893.6528222566291
 20
1776.850378182229
 30
0.0
 10
893.3505619354829
 20
1781.031533600122
 30
0.0
 10
892.498121718259
 20
1785.157002045085
 30
0.0
 10
891.9343566356277
 20
1787.205814524335
 30
0.0
  0
LINE
  5
1DF
330
183
100
AcDbEntity
  8
P-SANR-FIXT
100
AcDbLine
 10
869.3984582507447
 20
1787.205814524335
 30
0.0
 11
891.9343566356277
 21
1787.205814524335
 31
0.0
  0
SPLINE
  5
1E0
330
183
100
AcDbEntity
  8
P-SANR-FIXT
100
AcDbSpline
210
0.0
220
0.0
230
1.0
 70
     8
 71
     3
 72
     9
 73
     5
 74
     0
 42
0.000000001
 43
0.0000000001
 40
0.0
 40
0.0
 40
0.0
 40
0.0
 40
0.5
 40
1.0
 40
1.0
 40
1.0
 40
1.0
 10
869.3984582507447
 20
1787.205814524335
 30
0.0
 10
868.8346931681143
 20
1785.157002045085
 30
0.0
 10
867.9822529508905
 20
1781.031533600122
 30
0.0
 10
867.6799926297402
 20
1776.850378182229
 30
0.0
 10
867.6664074431831
 20
1774.74587873005
 30
0.0
  0
SPLINE
  5
1E1
330
183
100
AcDbEntity
  8
P-SANR-FIXT
100
AcDbSpline
210
0.0
220
0.0
230
1.0
 70
     8
 71
     3
 72
     9
 73
     5
 74
     0
 42
0.000000001
 43
0.0000000001
 40
0.0
 40
0.0
 40
0.0
 40
0.0
 40
0.5
 40
1.0
 40
1.0
 40
1.0
 40
1.0
 10
867.6664074431831
 20
1774.74587873005
 30
0.0
 10
867.6799926297405
 20
1772.64137927785
 30
0.0
 10
867.9822529508971
 20
1768.460223859915
 30
0.0
 10
868.8346931681369
 20
1764.334755414911
 30
0.0
 10
869.3984582507777
 20
1762.285942935642
 30
0.0
  0
LWPOLYLINE
  5
1E2
330
183
100
AcDbEntity
  8
P-SANR-FIXT
100
AcDbPolyline
 90
       80
 70
   128
 43
0.0
 10
851.1664074431863
 20
1791.245878730071
 10
851.1380112296508
 20
1792.665500093697
 10
851.0528680169294
 20
1794.082850365977
 10
850.9111140159987
 20
1795.495662088828
 10
850.7129760030212
 20
1796.901675064877
 10
850.4587709565504
 20
1798.298639973296
 10
850.1489055504332
 20
1799.684321968234
 10
849.7838755032187
 20
1801.056504254097
 10
849.364264785113
 20
1802.412991631943
 10
848.8907446837529
 20
1803.751614011337
 10
848.3640727302889
 20
1805.070229882028
 10
847.7850914874951
 20
1806.366729739914
 10
847.1547272018508
 20
1807.639039461793
 10
846.4739883217427
 20
1808.885123623523
 10
845.7439638841623
 20
1810.102988756262
 10
844.9658217724799
 20
1811.290686535594
 10
844.1408068480786
 20
1812.446316898436
 10
843.270238958844
 20
1813.568031082727
 10
842.3555108276881
 20
1814.654034585058
 10
841.3980858244881
 20
1815.702590031495
 10
840.3994956250103
 20
1816.712019957004
 10
839.3613377605525
 20
1817.680709489036
 10
838.2852730622357
 20
1818.607108930984
 10
837.173023004029
 20
1819.489736241362
 10
836.0263669487583
 20
1820.327179404756
 10
834.8471393015049
 20
1821.118098690751
 10
833.6372265749496
 20
1821.861228797209
 10
832.3985643713537
 20
1822.555380874486
 10
831.1331342860093
 20
1823.199444427337
 10
829.8429607371087
 20
1823.792389091468
 10
828.5301077271078
 20
1824.333266281907
 10
827.1966755407625
 20
1824.821210710529
 10
825.8447973851204
 20
1825.255441770338
 10
824.4766359768453
 20
1825.635264784269
 10
823.0943800823313
 20
1825.960072116525
 10
821.7002410161445
 20
1826.229344144661
 10
820.2964491033901
 20
1826.442650090876
 10
818.8852501116688
 20
1826.599648711157
 10
817.4689016583279
 20
1826.700088841204
 10
816.0496695987545
 20
1826.743809798235
 10
814.6298244014902
 20
1826.730741638044
 10
813.2116375159668
 20
1826.660905266902
 10
811.7973777386705
 20
1826.534412408102
 10
810.3893075835523
 20
1826.351465423238
 10
808.9896796624886
 20
1826.112356988456
 10
807.6007330815812
 20
1825.817469626247
 10
806.224689859067
 20
1825.467275093483
 10
804.8637513705617
 20
1825.062333626712
 10
803.520094827329
 20
1824.6032930459
 10
802.1958697932063
 20
1824.090887718051
 10
800.8931947457622
 20
1823.525937382382
 10
799.6141536871833
 20
1822.909345838916
 10
798.3607928103162
 20
1822.242099502588
 10
797.1351172251937
 20
1821.525265825198
 10
795.939087751289
 20
1820.759991587714
 10
794.7746177806211
 20
1819.947501065666
 10
793.6435702167357
 20
1819.089094070568
 10
792.547754494458
 20
1818.186143870494
 10
791.4889236851819
 20
1817.240094993145
 10
790.4687716923305
 20
1816.252460914912
 10
789.4889305414717
 20
1815.224821639637
 10
788.5509677694249
 20
1814.158821170941
 10
787.6563839165375
 20
1813.056164882173
 10
786.8066101261399
 20
1811.918616788176
 10
786.0030058550209
 20
1810.747996723234
 10
785.2468566985883
 20
1809.546177429733
 10
784.539372334189
 20
1808.315081562168
 10
783.881684585884
 20
1807.056678611307
 10
783.2748456137715
 20
1805.772981753427
 10
782.7198262307547
 20
1804.46604462966
 10
782.2175143494486
 20
1803.137958060605
 10
781.7687135617094
 20
1801.790846701463
 10
781.3741418530579
 20
1800.426865643039
 10
781.0344304540576
 20
1799.048196964062
 10
780.7501228304788
 20
1797.657046240315
 10
780.5216738138702
 20
1796.255639016196
 10
780.3494488739251
 20
1794.84621724431
 10
780.2337235338084
 20
1793.431035698832
 10
780.174682929377
 20
1792.012358368347
 10
780.166407443186
 20
1791.245878730071
  0
LWPOLYLINE
  5
1E3
330
183
100
AcDbEntity
  8
P-SANR-FIXT
100
AcDbPolyline
 90
       80
 70
   128
 43
0.0
 10
780.166407443186
 20
1791.24587873007
 10
780.1948036567214
 20
1789.826257366445
 10
780.2799468694431
 20
1788.408907094165
 10
780.4217008703739
 20
1786.996095371313
 10
780.6198388833514
 20
1785.590082395264
 10
780.874043929822
 20
1784.193117486845
 10
781.1839093359391
 20
1782.807435491907
 10
781.5489393831537
 20
1781.435253206044
 10
781.9685501012595
 20
1780.078765828198
 10
782.4420702026196
 20
1778.740143448805
 10
782.9687421560837
 20
1777.421527578113
 10
783.5477233988775
 20
1776.125027720227
 10
784.1780876845216
 20
1774.852717998348
 10
784.8588265646299
 20
1773.606633836618
 10
785.5888510022102
 20
1772.388768703879
 10
786.3669931138929
 20
1771.201070924547
 10
787.1920080382941
 20
1770.045440561705
 10
788.0625759275284
 20
1768.923726377415
 10
788.9773040586848
 20
1767.837722875083
 10
789.9347290618843
 20
1766.789167428646
 10
790.9333192613622
 20
1765.779737503137
 10
791.97147712582
 20
1764.811047971105
 10
793.0475418241369
 20
1763.884648529157
 10
794.1597918823434
 20
1763.002021218779
 10
795.3064479376144
 20
1762.164578055385
 10
796.4856755848674
 20
1761.37365876939
 10
797.6955883114229
 20
1760.630528662932
 10
798.9342505150188
 20
1759.936376585655
 10
800.1996806003633
 20
1759.292313032804
 10
801.4898541492639
 20
1758.699368368672
 10
802.8027071592644
 20
1758.158491178234
 10
804.1361393456099
 20
1757.670546749612
 10
805.4880175012522
 20
1757.236315689803
 10
806.8561789095275
 20
1756.856492675872
 10
808.2384348040411
 20
1756.531685343617
 10
809.632573870228
 20
1756.26241331548
 10
811.0363657829823
 20
1756.049107369265
 10
812.4475647747036
 20
1755.892108748984
 10
813.8639132280443
 20
1755.791668618937
 10
815.2831452876181
 20
1755.747947661907
 10
816.7029904848822
 20
1755.761015822097
 10
818.121177370406
 20
1755.83085219324
 10
819.5354371477019
 20
1755.957345052039
 10
820.9435073028201
 20
1756.140292036903
 10
822.3431352238838
 20
1756.379400471685
 10
823.7320818047912
 20
1756.674287833894
 10
825.1081250273054
 20
1757.024482366659
 10
826.4690635158107
 20
1757.429423833429
 10
827.8127200590434
 20
1757.888464414241
 10
829.1369450931661
 20
1758.40086974209
 10
830.4396201406103
 20
1758.965820077759
 10
831.7186611991889
 20
1759.582411621225
 10
832.9720220760563
 20
1760.249657957554
 10
834.1976976611787
 20
1760.966491634944
 10
835.3937271350833
 20
1761.731765872427
 10
836.5581971057517
 20
1762.544256394475
 10
837.6892446696368
 20
1763.402663389573
 10
838.7850603919147
 20
1764.305613589648
 10
839.8438912011908
 20
1765.251662466997
 10
840.8640431940419
 20
1766.239296545229
 10
841.843884344901
 20
1767.266935820505
 10
842.7818471169478
 20
1768.332936289201
 10
843.676430969835
 20
1769.435592577968
 10
844.5262047602327
 20
1770.573140671966
 10
845.3298090313516
 20
1771.743760736908
 10
846.0859581877844
 20
1772.945580030409
 10
846.7934425521837
 20
1774.176675897974
 10
847.4511303004884
 20
1775.435078848834
 10
848.057969272601
 20
1776.718775706714
 10
848.6129886556177
 20
1778.025712830482
 10
849.1153005369238
 20
1779.353799399536
 10
849.5641013246633
 20
1780.700910758678
 10
849.9586730333145
 20
1782.064891817102
 10
850.2983844323148
 20
1783.44356049608
 10
850.5826920558938
 20
1784.834711219826
 10
850.8111410725023
 20
1786.236118443946
 10
850.9833660124472
 20
1787.645540215832
 10
851.099091352564
 20
1789.060721761309
 10
851.1581319569954
 20
1790.479399091795
 10
851.1664074431863
 20
1791.245878730071
  0
ARC
  5
1E4
330
183
100
AcDbEntity
  8
P-SANR-FIXT
100
AcDbCircle
 10
815.6664074431844
 20
1791.245878730071
 30
0.0
 40
22.99999999999986
100
AcDbArc
 50
180.0000000000019
 51
185.9293853773301
  0
ARC
  5
1E5
330
183
100
AcDbEntity
  8
P-SANR-FIXT
100
AcDbCircle
 10
815.6664074431844
 20
1791.245878730071
 30
0.0
 40
22.99999999999989
100
AcDbArc
 50
174.0706146226689
 51
180.0000000000019
  0
SPLINE
  5
1E6
330
183
100
AcDbEntity
  8
P-SANR-FIXT
100
AcDbSpline
210
0.0
220
0.0
230
1.0
 70
    24
 71
     3
 72
     9
 73
     5
 74
     0
 42
0.000000001
 43
0.0000000001
 40
0.0
 40
0.0
 40
0.0
 40
0.0
 40
0.5
 40
1.0
 40
1.0
 40
1.0
 40
1.0
 10
802.170289723568
 20
1772.621840325411
 30
0.0
 10
800.6320976794615
 20
1775.286067097601
 30
0.0
 10
797.530433715408
 20
1780.658306671348
 30
0.0
 10
794.3782099996722
 20
1786.118118303826
 30
0.0
 10
792.7894582038837
 20
1788.869917134748
 30
0.0
  0
ARC
  5
1E7
330
183
100
AcDbEntity
  8
P-SANR-FIXT
100
AcDbCircle
 10
815.6664074431844
 20
1791.245878730071
 30
0.0
 40
22.9999999999999
100
AcDbArc
 50
234.0706146226671
 51
245.9293853773302
  0
SPLINE
  5
1E8
330
183
100
AcDbEntity
  8
P-SANR-FIXT
100
AcDbSpline
210
0.0
220
0.0
230
1.0
 70
    24
 71
     3
 72
     9
 73
     5
 74
     0
 42
0.000000001
 43
0.0000000001
 40
0.0
 40
0.0
 40
0.0
 40
0.0
 40
0.5
 40
1.0
 40
1.0
 40
1.0
 40
1.0
 10
825.0472389628685
 20
1770.245878730088
 30
0.0
 10
821.9708548746559
 20
1770.245878730088
 30
0.0
 10
815.7675269465489
 20
1770.245878730088
 30
0.0
 10
809.4630795150772
 20
1770.245878730088
 30
0.0
 10
806.2855759235002
 20
1770.245878730088
 30
0.0
  0
ARC
  5
1E9
330
183
100
AcDbEntity
  8
P-SANR-FIXT
100
AcDbCircle
 10
815.6664074431844
 20
1791.245878730071
 30
0.0
 40
22.99999999999981
100
AcDbArc
 50
294.0706146226671
 51
305.9293853773303
  0
SPLINE
  5
1EA
330
183
100
AcDbEntity
  8
P-SANR-FIXT
100
AcDbSpline
210
0.0
220
0.0
230
1.0
 70
    24
 71
     3
 72
     9
 73
     5
 74
     0
 42
0.000000001
 43
0.0000000001
 40
0.0
 40
0.0
 40
0.0
 40
0.0
 40
0.5
 40
1.0
 40
1.0
 40
1.0
 40
1.0
 10
838.5433566824852
 20
1788.869917134747
 30
0.0
 10
837.0051646383789
 20
1786.205690362557
 30
0.0
 10
833.9035006743252
 20
1780.833450788811
 30
0.0
 10
830.7512769585894
 20
1775.373639156333
 30
0.0
 10
829.162525162801
 20
1772.621840325411
 30
0.0
  0
ARC
  5
1EB
330
183
100
AcDbEntity
  8
P-SANR-FIXT
100
AcDbCircle
 10
815.6664074431844
 20
1791.245878730071
 30
0.0
 40
22.99999999999989
100
AcDbArc
 50
359.9999999999968
 51
5.929385377331082
  0
ARC
  5
1EC
330
183
100
AcDbEntity
  8
P-SANR-FIXT
100
AcDbCircle
 10
815.6664074431844
 20
1791.245878730071
 30
0.0
 40
22.99999999999972
100
AcDbArc
 50
354.0706146226672
 51
359.9999999999965
  0
SPLINE
  5
1ED
330
183
100
AcDbEntity
  8
P-SANR-FIXT
100
AcDbSpline
210
0.0
220
0.0
230
1.0
 70
    24
 71
     3
 72
     9
 73
     5
 74
     0
 42
0.000000001
 43
0.0000000001
 40
0.0
 40
0.0
 40
0.0
 40
0.0
 40
0.5
 40
1.0
 40
1.0
 40
1.0
 40
1.0
 10
829.162525162801
 20
1809.86991713473
 30
0.0
 10
830.7007172069074
 20
1807.20569036254
 30
0.0
 10
833.8023811709609
 20
1801.833450788794
 30
0.0
 10
836.9546048866967
 20
1796.373639156316
 30
0.0
 10
838.5433566824852
 20
1793.621840325394
 30
0.0
  0
ARC
  5
1EE
330
183
100
AcDbEntity
  8
P-SANR-FIXT
100
AcDbCircle
 10
815.6664074431844
 20
1791.245878730071
 30
0.0
 40
22.99999999999977
100
AcDbArc
 50
54.07061462266854
 51
65.929385377332
  0
SPLINE
  5
1EF
330
183
100
AcDbEntity
  8
P-SANR-FIXT
100
AcDbSpline
210
0.0
220
0.0
230
1.0
 70
    24
 71
     3
 72
     9
 73
     5
 74
     0
 42
0.000000001
 43
0.0000000001
 40
0.0
 40
0.0
 40
0.0
 40
0.0
 40
0.5
 40
1.0
 40
1.0
 40
1.0
 40
1.0
 10
806.2855759235004
 20
1812.245878730054
 30
0.0
 10
809.3619600117129
 20
1812.245878730054
 30
0.0
 10
815.56528793982
 20
1812.245878730054
 30
0.0
 10
821.8697353712917
 20
1812.245878730054
 30
0.0
 10
825.0472389628686
 20
1812.245878730054
 30
0.0
  0
ARC
  5
1F0
330
183
100
AcDbEntity
  8
P-SANR-FIXT
100
AcDbCircle
 10
815.6664074431844
 20
1791.245878730071
 30
0.0
 40
22.99999999999986
100
AcDbArc
 50
114.0706146226683
 51
125.9293853773321
  0
SPLINE
  5
1F1
330
183
100
AcDbEntity
  8
P-SANR-FIXT
100
AcDbSpline
210
0.0
220
0.0
230
1.0
 70
    24
 71
     3
 72
     9
 73
     5
 74
     0
 42
0.000000001
 43
0.0000000001
 40
0.0
 40
0.0
 40
0.0
 40
0.0
 40
0.5
 40
1.0
 40
1.0
 40
1.0
 40
1.0
 10
792.7894582038837
 20
1793.621840325394
 30
0.0
 10
794.3782099996723
 20
1796.373639156316
 30
0.0
 10
797.5304337154081
 20
1801.833450788794
 30
0.0
 10
800.6320976794617
 20
1807.20569036254
 30
0.0
 10
802.170289723568
 20
1809.86991713473
 30
0.0
  0
ARC
  5
1F2
330
183
100
AcDbEntity
  8
P-SANR-FIXT
100
AcDbCircle
 10
815.666407443185
 20
1791.24587873007
 30
0.0
 40
20.49999999999966
100
AcDbArc
 50
174.3721186371939
 51
174.9999999999995
  0
ARC
  5
1F3
330
183
100
AcDbEntity
  8
P-SANR-FIXT
100
AcDbCircle
 10
815.666407443185
 20
1791.24587873007
 30
0.0
 40
20.49999999999965
100
AcDbArc
 50
168.7412277815871
 51
169.9999999999992
  0
ARC
  5
1F4
330
183
100
AcDbEntity
  8
P-SANR-FIXT
100
AcDbCircle
 10
815.666407443185
 20
1791.24587873007
 30
0.0
 40
20.49999999999962
100
AcDbArc
 50
149.999999999999
 51
164.9999999999995
  0
ARC
  5
1F5
330
183
100
AcDbEntity
  8
P-SANR-FIXT
100
AcDbCircle
 10
815.666407443185
 20
1791.24587873007
 30
0.0
 40
20.49999999999951
100
AcDbArc
 50
144.9999999999991
 51
146.2236392671642
  0
ARC
  5
1F6
330
183
100
AcDbEntity
  8
P-SANR-FIXT
100
AcDbCircle
 10
815.666407443185
 20
1791.24587873007
 30
0.0
 40
20.49999999999968
100
AcDbArc
 50
139.9999999999991
 51
140.6064284940087
  0
ARC
  5
1F7
330
183
100
AcDbEntity
  8
P-SANR-FIXT
100
AcDbCircle
 10
815.666407443185
 20
1791.24587873007
 30
0.0
 40
20.49999999999953
100
AcDbArc
 50
129.3935715059916
 51
129.9999999999985
  0
ARC
  5
1F8
330
183
100
AcDbEntity
  8
P-SANR-FIXT
100
AcDbCircle
 10
815.666407443185
 20
1791.24587873007
 30
0.0
 40
20.49999999999974
100
AcDbArc
 50
123.7763607328356
 51
124.9999999999988
  0
ARC
  5
1F9
330
183
100
AcDbEntity
  8
P-SANR-FIXT
100
AcDbCircle
 10
815.666407443185
 20
1791.24587873007
 30
0.0
 40
20.49999999999972
100
AcDbArc
 50
104.9999999999988
 51
119.9999999999986
  0
ARC
  5
1FA
330
183
100
AcDbEntity
  8
P-SANR-FIXT
100
AcDbCircle
 10
815.666407443185
 20
1791.24587873007
 30
0.0
 40
20.49999999999966
100
AcDbArc
 50
99.99999999999921
 51
101.2587722184129
  0
ARC
  5
1FB
330
183
100
AcDbEntity
  8
P-SANR-FIXT
100
AcDbCircle
 10
815.666407443185
 20
1791.24587873007
 30
0.0
 40
20.49999999999964
100
AcDbArc
 50
94.99999999999891
 51
95.62788136280635
  0
ARC
  5
1FC
330
183
100
AcDbEntity
  8
P-SANR-FIXT
100
AcDbCircle
 10
815.666407443185
 20
1791.24587873007
 30
0.0
 40
20.49999999999959
100
AcDbArc
 50
84.37211863719456
 51
84.99999999999884
  0
ARC
  5
1FD
330
183
100
AcDbEntity
  8
P-SANR-FIXT
100
AcDbCircle
 10
815.666407443185
 20
1791.24587873007
 30
0.0
 40
20.49999999999962
100
AcDbArc
 50
78.74122778158841
 51
79.99999999999885
  0
ARC
  5
1FE
330
183
100
AcDbEntity
  8
P-SANR-FIXT
100
AcDbCircle
 10
815.666407443185
 20
1791.24587873007
 30
0.0
 40
20.49999999999959
100
AcDbArc
 50
59.99999999999905
 51
74.99999999999896
  0
ARC
  5
1FF
330
183
100
AcDbEntity
  8
P-SANR-FIXT
100
AcDbCircle
 10
815.666407443185
 20
1791.24587873007
 30
0.0
 40
20.49999999999954
100
AcDbArc
 50
54.99999999999883
 51
56.22363926716521
  0
ARC
  5
200
330
183
100
AcDbEntity
  8
P-SANR-FIXT
100
AcDbCircle
 10
815.666407443185
 20
1791.24587873007
 30
0.0
 40
20.49999999999966
100
AcDbArc
 50
49.99999999999866
 51
50.60642849400847
  0
ARC
  5
201
330
183
100
AcDbEntity
  8
P-SANR-FIXT
100
AcDbCircle
 10
815.666407443185
 20
1791.24587873007
 30
0.0
 40
20.49999999999961
100
AcDbArc
 50
39.39357150599171
 51
39.99999999999843
  0
ARC
  5
202
330
183
100
AcDbEntity
  8
P-SANR-FIXT
100
AcDbCircle
 10
815.666407443185
 20
1791.24587873007
 30
0.0
 40
20.49999999999968
100
AcDbArc
 50
33.77636073283627
 51
34.9999999999984
  0
ARC
  5
203
330
183
100
AcDbEntity
  8
P-SANR-FIXT
100
AcDbCircle
 10
815.666407443185
 20
1791.24587873007
 30
0.0
 40
20.49999999999968
100
AcDbArc
 50
15.00000000000001
 51
29.99999999999904
  0
ARC
  5
204
330
183
100
AcDbEntity
  8
P-SANR-FIXT
100
AcDbCircle
 10
815.666407443185
 20
1791.24587873007
 30
0.0
 40
20.49999999999959
100
AcDbArc
 50
10.00000000000017
 51
11.25877221841298
  0
ARC
  5
205
330
183
100
AcDbEntity
  8
P-SANR-FIXT
100
AcDbCircle
 10
815.666407443185
 20
1791.24587873007
 30
0.0
 40
20.49999999999965
100
AcDbArc
 50
4.999999999999957
 51
5.627881362806738
  0
ARC
  5
206
330
183
100
AcDbEntity
  8
P-SANR-FIXT
100
AcDbCircle
 10
815.666407443185
 20
1791.24587873007
 30
0.0
 40
20.49999999999954
100
AcDbArc
 50
354.3721186371949
 51
354.9999999999998
  0
ARC
  5
207
330
183
100
AcDbEntity
  8
P-SANR-FIXT
100
AcDbCircle
 10
815.666407443185
 20
1791.24587873007
 30
0.0
 40
20.49999999999963
100
AcDbArc
 50
348.7412277815879
 51
350.0
  0
ARC
  5
208
330
183
100
AcDbEntity
  8
P-SANR-FIXT
100
AcDbCircle
 10
815.666407443185
 20
1791.24587873007
 30
0.0
 40
20.49999999999956
100
AcDbArc
 50
329.9999999999996
 51
345.0000000000002
  0
ARC
  5
209
330
183
100
AcDbEntity
  8
P-SANR-FIXT
100
AcDbCircle
 10
815.666407443185
 20
1791.24587873007
 30
0.0
 40
20.49999999999948
100
AcDbArc
 50
324.9999999999999
 51
326.2236392671649
  0
ARC
  5
20A
330
183
100
AcDbEntity
  8
P-SANR-FIXT
100
AcDbCircle
 10
815.666407443185
 20
1791.24587873007
 30
0.0
 40
20.4999999999996
100
AcDbArc
 50
319.9999999999998
 51
320.606428494009
  0
ARC
  5
20B
330
183
100
AcDbEntity
  8
P-SANR-FIXT
100
AcDbCircle
 10
815.666407443185
 20
1791.24587873007
 30
0.0
 40
20.49999999999965
100
AcDbArc
 50
309.3935715059917
 51
309.9999999999996
  0
ARC
  5
20C
330
183
100
AcDbEntity
  8
P-SANR-FIXT
100
AcDbCircle
 10
815.666407443185
 20
1791.24587873007
 30
0.0
 40
20.49999999999969
100
AcDbArc
 50
303.7763607328349
 51
304.9999999999995
  0
ARC
  5
20D
330
183
100
AcDbEntity
  8
P-SANR-FIXT
100
AcDbCircle
 10
815.666407443185
 20
1791.24587873007
 30
0.0
 40
20.4999999999997
100
AcDbArc
 50
284.9999999999995
 51
299.9999999999995
  0
ARC
  5
20E
330
183
100
AcDbEntity
  8
P-SANR-FIXT
100
AcDbCircle
 10
815.666407443185
 20
1791.24587873007
 30
0.0
 40
20.49999999999975
100
AcDbArc
 50
279.9999999999997
 51
281.2587722184122
  0
ARC
  5
20F
330
183
100
AcDbEntity
  8
P-SANR-FIXT
100
AcDbCircle
 10
815.666407443185
 20
1791.24587873007
 30
0.0
 40
20.49999999999965
100
AcDbArc
 50
274.9999999999998
 51
275.6278813628063
  0
ARC
  5
210
330
183
100
AcDbEntity
  8
P-SANR-FIXT
100
AcDbCircle
 10
815.666407443185
 20
1791.24587873007
 30
0.0
 40
20.49999999999967
100
AcDbArc
 50
264.3721186371948
 51
264.9999999999998
  0
ARC
  5
211
330
183
100
AcDbEntity
  8
P-SANR-FIXT
100
AcDbCircle
 10
815.666407443185
 20
1791.24587873007
 30
0.0
 40
20.49999999999965
100
AcDbArc
 50
258.7412277815882
 51
259.9999999999998
  0
ARC
  5
212
330
183
100
AcDbEntity
  8
P-SANR-FIXT
100
AcDbCircle
 10
815.666407443185
 20
1791.24587873007
 30
0.0
 40
20.49999999999958
100
AcDbArc
 50
239.9999999999994
 51
254.9999999999999
  0
ARC
  5
213
330
183
100
AcDbEntity
  8
P-SANR-FIXT
100
AcDbCircle
 10
815.666407443185
 20
1791.24587873007
 30
0.0
 40
20.49999999999961
100
AcDbArc
 50
234.9999999999993
 51
236.2236392671647
  0
ARC
  5
214
330
183
100
AcDbEntity
  8
P-SANR-FIXT
100
AcDbCircle
 10
815.666407443185
 20
1791.24587873007
 30
0.0
 40
20.49999999999969
100
AcDbArc
 50
229.9999999999997
 51
230.6064284940087
  0
ARC
  5
215
330
183
100
AcDbEntity
  8
P-SANR-FIXT
100
AcDbCircle
 10
815.666407443185
 20
1791.24587873007
 30
0.0
 40
20.49999999999965
100
AcDbArc
 50
219.393571505991
 51
219.9999999999993
  0
ARC
  5
216
330
183
100
AcDbEntity
  8
P-SANR-FIXT
100
AcDbCircle
 10
815.666407443185
 20
1791.24587873007
 30
0.0
 40
20.49999999999975
100
AcDbArc
 50
213.7763607328349
 51
214.9999999999995
  0
ARC
  5
217
330
183
100
AcDbEntity
  8
P-SANR-FIXT
100
AcDbCircle
 10
815.666407443185
 20
1791.24587873007
 30
0.0
 40
20.49999999999971
100
AcDbArc
 50
195.0000000000003
 51
209.9999999999997
  0
ARC
  5
218
330
183
100
AcDbEntity
  8
P-SANR-FIXT
100
AcDbCircle
 10
815.666407443185
 20
1791.24587873007
 30
0.0
 40
20.49999999999977
100
AcDbArc
 50
190.0000000000011
 51
191.2587722184112
  0
ARC
  5
219
330
183
100
AcDbEntity
  8
P-SANR-FIXT
100
AcDbCircle
 10
815.666407443185
 20
1791.24587873007
 30
0.0
 40
20.49999999999964
100
AcDbArc
 50
185.0000000000008
 51
185.6278813628057
  0
ARC
  5
21A
330
183
100
AcDbEntity
  8
P-SANR-FIXT
100
AcDbCircle
 10
815.666407443185
 20
1791.24587873007
 30
0.0
 40
23.00000000000045
100
AcDbArc
 50
125.9293853773305
 51
174.070614622665
  0
ARC
  5
21B
330
183
100
AcDbEntity
  8
P-SANR-FIXT
100
AcDbCircle
 10
815.666407443185
 20
1791.24587873007
 30
0.0
 40
23.00000000000091
100
AcDbArc
 50
65.92938537733316
 51
114.0706146226678
  0
ARC
  5
21C
330
183
100
AcDbEntity
  8
P-SANR-FIXT
100
AcDbCircle
 10
815.666407443185
 20
1791.24587873007
 30
0.0
 40
23.00000000000032
100
AcDbArc
 50
5.929385377333717
 51
54.07061462266999
  0
ARC
  5
21D
330
183
100
AcDbEntity
  8
P-SANR-FIXT
100
AcDbCircle
 10
815.666407443185
 20
1791.24587873007
 30
0.0
 40
22.99999999999932
100
AcDbArc
 50
305.9293853773315
 51
354.0706146226701
  0
ARC
  5
21E
330
183
100
AcDbEntity
  8
P-SANR-FIXT
100
AcDbCircle
 10
815.666407443185
 20
1791.24587873007
 30
0.0
 40
22.99999999999866
100
AcDbArc
 50
245.9293853773287
 51
294.070614622668
  0
ARC
  5
21F
330
183
100
AcDbEntity
  8
P-SANR-FIXT
100
AcDbCircle
 10
815.666407443185
 20
1791.24587873007
 30
0.0
 40
22.99999999999918
100
AcDbArc
 50
185.9293853773275
 51
234.0706146226656
  0
ARC
  5
220
330
183
100
AcDbEntity
  8
P-SANR-FIXT
100
AcDbCircle
 10
815.666407443185
 20
1791.24587873007
 30
0.0
 40
19.91981879087199
100
AcDbArc
 50
0.0000000000001479
 51
180.0000000000001
  0
ARC
  5
221
330
183
100
AcDbEntity
  8
P-SANR-FIXT
100
AcDbCircle
 10
815.666407443185
 20
1791.24587873007
 30
0.0
 40
19.91981879087193
100
AcDbArc
 50
180.0000000000003
 51
0.0000000000003562
  0
ARC
  5
222
330
183
100
AcDbEntity
  8
P-SANR-FIXT
100
AcDbCircle
 10
815.666407443185
 20
1791.24587873007
 30
0.0
 40
20.49999999999989
100
AcDbArc
 50
0.0
 51
180.0
  0
ARC
  5
223
330
183
100
AcDbEntity
  8
P-SANR-FIXT
100
AcDbCircle
 10
815.666407443185
 20
1791.24587873007
 30
0.0
 40
20.49999999999976
100
AcDbArc
 50
180.0000000000001
 51
0.0000000000001527
  0
LINE
  5
224
330
183
100
AcDbEntity
  8
P-SANR-FIXT
100
AcDbLine
 10
928.6664074432213
 20
1815.145878730033
 30
0.0
 11
893.6664074431842
 21
1815.145878730032
 31
0.0
  0
LINE
  5
225
330
183
100
AcDbEntity
  8
P-SANR-FIXT
100
AcDbLine
 10
893.6664074431844
 20
1767.345878730109
 30
0.0
 11
928.666407443222
 21
1767.34587873011
 31
0.0
  0
LINE
  5
226
330
183
100
AcDbEntity
  8
P-SANR-FIXT
100
AcDbLine
 10
930.6664074432221
 20
1813.145878730032
 30
0.0
 11
928.6664074432213
 21
1815.145878730033
 31
0.0
  0
LINE
  5
227
330
183
100
AcDbEntity
  8
P-SANR-FIXT
100
AcDbLine
 10
928.666407443222
 20
1767.34587873011
 30
0.0
 11
930.6664074432223
 21
1769.345878730111
 31
0.0
  0
LINE
  5
228
330
183
100
AcDbEntity
  8
P-SANR-FIXT
100
AcDbLine
 10
893.6664074431828
 20
1806.426938663784
 30
0.0
 11
893.6664074431828
 21
1809.049469342978
 31
0.0
  0
LINE
  5
229
330
183
100
AcDbEntity
  8
P-SANR-FIXT
100
AcDbLine
 10
893.6664074431829
 20
1773.442288117243
 30
0.0
 11
893.6664074431828
 21
1776.064818795262
 31
0.0
  0
LINE
  5
22A
330
183
100
AcDbEntity
  8
P-SANR-FIXT
100
AcDbLine
 10
928.6664074432202
 20
1791.24587873007
 30
0.0
 11
928.66640744322
 21
1815.145878730032
 31
0.0
  0
LINE
  5
22B
330
183
100
AcDbEntity
  8
P-SANR-FIXT
100
AcDbLine
 10
928.6664074432204
 20
1767.345878730109
 30
0.0
 11
928.6664074432202
 21
1791.24587873007
 31
0.0
  0
LINE
  5
22C
330
183
100
AcDbEntity
  8
P-SANR-FIXT
100
AcDbLine
 10
930.6664074432207
 20
1813.145878730031
 30
0.0
 11
930.6664074432207
 21
1791.245878730071
 31
0.0
  0
LINE
  5
22D
330
183
100
AcDbEntity
  8
P-SANR-FIXT
100
AcDbLine
 10
930.6664074432207
 20
1791.24587873007
 30
0.0
 11
930.6664074432209
 21
1769.345878730109
 31
0.0
  0
LINE
  5
22E
330
183
100
AcDbEntity
  8
P-SANR-FIXT
100
AcDbLine
 10
747.666407443188
 20
1815.145878730032
 30
0.0
 11
712.6664074431507
 21
1815.145878730032
 31
0.0
  0
LINE
  5
22F
330
183
100
AcDbEntity
  8
P-SANR-FIXT
100
AcDbLine
 10
712.6664074431509
 20
1767.345878730109
 30
0.0
 11
747.6664074431884
 21
1767.345878730109
 31
0.0
  0
LINE
  5
230
330
183
100
AcDbEntity
  8
P-SANR-FIXT
100
AcDbLine
 10
712.6664074431507
 20
1815.145878730032
 30
0.0
 11
710.6664074431499
 21
1813.145878730031
 31
0.0
  0
LINE
  5
231
330
183
100
AcDbEntity
  8
P-SANR-FIXT
100
AcDbLine
 10
710.6664074431502
 20
1769.345878730109
 30
0.0
 11
712.6664074431509
 21
1767.345878730109
 31
0.0
  0
LINE
  5
232
330
183
100
AcDbEntity
  8
P-SANR-FIXT
100
AcDbLine
 10
710.666407443149
 20
1791.245878730069
 30
0.0
 11
710.6664074431488
 21
1813.14587873003
 31
0.0
  0
LINE
  5
233
330
183
100
AcDbEntity
  8
P-SANR-FIXT
100
AcDbLine
 10
710.6664074431492
 20
1769.345878730108
 30
0.0
 11
710.666407443149
 21
1791.245878730069
 31
0.0
  0
LINE
  5
234
330
183
100
AcDbEntity
  8
P-SANR-FIXT
100
AcDbLine
 10
747.6664074431869
 20
1809.04946934297
 30
0.0
 11
747.666407443187
 21
1806.42693866379
 31
0.0
  0
LINE
  5
235
330
183
100
AcDbEntity
  8
P-SANR-FIXT
100
AcDbLine
 10
747.666407443187
 20
1776.064818795257
 30
0.0
 11
747.6664074431871
 21
1773.442288117246
 31
0.0
  0
LINE
  5
236
330
183
100
AcDbEntity
  8
P-SANR-FIXT
100
AcDbLine
 10
712.6664074431495
 20
1815.145878730031
 30
0.0
 11
712.6664074431496
 21
1791.24587873007
 31
0.0
  0
LINE
  5
237
330
183
100
AcDbEntity
  8
P-SANR-FIXT
100
AcDbLine
 10
712.6664074431496
 20
1791.245878730069
 30
0.0
 11
712.6664074431497
 21
1767.345878730107
 31
0.0
  0
LINE
  5
238
330
183
100
AcDbEntity
  8
P-SANR-FIXT
100
AcDbLine
 10
867.6664074431844
 20
1821.395878730071
 30
0.0
 11
866.6664074431862
 21
1821.395878730071
 31
0.0
  0
LINE
  5
239
330
183
100
AcDbEntity
  8
P-SANR-FIXT
100
AcDbLine
 10
866.6664074431864
 20
1761.095878730071
 30
0.0
 11
867.6664074431846
 21
1761.095878730071
 31
0.0
  0
LINE
  5
23A
330
183
100
AcDbEntity
  8
P-SANR-FIXT
100
AcDbLine
 10
864.2704038260491
 20
1819.245878730071
 30
0.0
 11
856.666407443186
 21
1819.245878730071
 31
0.0
  0
LINE
  5
23B
330
183
100
AcDbEntity
  8
P-SANR-FIXT
100
AcDbLine
 10
838.6664074431861
 20
1819.245878730071
 30
0.0
 11
838.2562789322275
 21
1819.245878730071
 31
0.0
  0
LINE
  5
23C
330
183
100
AcDbEntity
  8
P-SANR-FIXT
100
AcDbLine
 10
793.0765359541445
 20
1819.245878730071
 30
0.0
 11
777.0624110603229
 21
1819.245878730071
 31
0.0
  0
LINE
  5
23D
330
183
100
AcDbEntity
  8
P-SANR-FIXT
100
AcDbLine
 10
777.0624110603232
 20
1763.24587873007
 30
0.0
 11
793.0765359541451
 21
1763.24587873007
 31
0.0
  0
LINE
  5
23E
330
183
100
AcDbEntity
  8
P-SANR-FIXT
100
AcDbLine
 10
838.2562789322276
 20
1763.24587873007
 30
0.0
 11
838.6664074431863
 21
1763.24587873007
 31
0.0
  0
LINE
  5
23F
330
183
100
AcDbEntity
  8
P-SANR-FIXT
100
AcDbLine
 10
856.6664074431864
 20
1763.24587873007
 30
0.0
 11
864.2704038260495
 21
1763.24587873007
 31
0.0
  0
LINE
  5
240
330
183
100
AcDbEntity
  8
P-SANR-FIXT
100
AcDbLine
 10
774.6664074431858
 20
1821.39587873007
 30
0.0
 11
773.6664074431887
 21
1821.39587873007
 31
0.0
  0
LINE
  5
241
330
183
100
AcDbEntity
  8
P-SANR-FIXT
100
AcDbLine
 10
773.666407443189
 20
1761.09587873007
 30
0.0
 11
774.6664074431863
 21
1761.09587873007
 31
0.0
  0
LINE
  5
242
330
183
100
AcDbEntity
  8
P-SANR-FIXT
100
AcDbLine
 10
838.6664074431863
 20
1833.745878730071
 30
0.0
 11
838.6664074431861
 21
1819.245878730071
 31
0.0
  0
LINE
  5
243
330
183
100
AcDbEntity
  8
P-SANR-FIXT
100
AcDbLine
 10
838.6664074431863
 20
1763.24587873007
 30
0.0
 11
838.6664074431863
 21
1748.74587873007
 31
0.0
  0
LINE
  5
244
330
183
100
AcDbEntity
  8
P-SANR-FIXT
100
AcDbLine
 10
856.6664074431864
 20
1748.745878730071
 30
0.0
 11
856.6664074431864
 21
1763.24587873007
 31
0.0
  0
LINE
  5
245
330
183
100
AcDbEntity
  8
P-SANR-FIXT
100
AcDbLine
 10
856.666407443186
 20
1819.245878730071
 30
0.0
 11
856.6664074431862
 21
1833.745878730071
 31
0.0
  0
LINE
  5
246
330
183
100
AcDbEntity
  8
P-SANR-FIXT
100
AcDbLine
 10
866.6664074431862
 20
1821.395878730071
 30
0.0
 11
866.6263481066025
 21
1821.326493923791
 31
0.0
  0
LINE
  5
247
330
183
100
AcDbEntity
  8
P-SANR-FIXT
100
AcDbLine
 10
866.6127471304863
 20
1821.302936342125
 30
0.0
 11
866.0024546336179
 21
1820.245878730071
 31
0.0
  0
LINE
  5
248
330
183
100
AcDbEntity
  8
P-SANR-FIXT
100
AcDbLine
 10
866.0024546336185
 20
1762.245878730071
 30
0.0
 11
866.6127471304864
 21
1761.188821118017
 31
0.0
  0
LINE
  5
249
330
183
100
AcDbEntity
  8
P-SANR-FIXT
100
AcDbLine
 10
866.6263481066026
 20
1761.165263536351
 30
0.0
 11
866.6664074431864
 21
1761.095878730071
 31
0.0
  0
LINE
  5
24A
330
183
100
AcDbEntity
  8
P-SANR-FIXT
100
AcDbLine
 10
775.3303602527539
 20
1820.245878730071
 30
0.0
 11
774.7200677558858
 21
1821.302936342124
 31
0.0
  0
LINE
  5
24B
330
183
100
AcDbEntity
  8
P-SANR-FIXT
100
AcDbLine
 10
774.7064667797696
 20
1821.32649392379
 30
0.0
 11
774.6664074431858
 21
1821.39587873007
 31
0.0
  0
LINE
  5
24C
330
183
100
AcDbEntity
  8
P-SANR-FIXT
100
AcDbLine
 10
774.6664074431863
 20
1761.09587873007
 30
0.0
 11
774.7064667797697
 21
1761.165263536351
 31
0.0
  0
LINE
  5
24D
330
183
100
AcDbEntity
  8
P-SANR-FIXT
100
AcDbLine
 10
774.7200677558859
 20
1761.188821118017
 30
0.0
 11
775.3303602527543
 21
1762.24587873007
 31
0.0
  0
LWPOLYLINE
  5
24E
330
183
100
AcDbEntity
  8
P-SANR-FIXT
100
AcDbPolyline
 90
       28
 70
   128
 43
0.0
 10
864.2704038260491
 20
1819.245878730071
 10
864.3503824944223
 20
1819.247478516749
 10
864.4302332139872
 20
1819.252275317466
 10
864.5098282406269
 20
1819.260261458363
 10
864.5890402392776
 20
1819.27142416332
 10
864.6677424876392
 20
1819.285745574388
 10
864.7458090789033
 20
1819.303202780367
 10
864.8231151231774
 20
1819.323767853449
 10
864.8995369472814
 20
1819.347407893906
 10
864.9749522925992
 20
1819.374085082715
 10
865.0492405106664
 20
1819.403756742065
 10
865.1222827561811
 20
1819.436375403631
 10
865.1939621771319
 20
1819.471888884512
 10
865.2641641017366
 20
1819.510240370716
 10
865.3327762218909
 20
1819.551368508044
 10
865.3996887728391
 20
1819.595207500251
 10
865.464794708774
 20
1819.641687214302
 10
865.5279898740859
 20
1819.690733292569
 10
865.589173169992
 20
1819.742267271789
 10
865.6482467162701
 20
1819.796206708589
 10
865.7051160078481
 20
1819.852465311376
 10
865.7596900659909
 20
1819.910953078388
 10
865.8118815838472
 20
1819.971576441674
 10
865.8616070661219
 20
1820.034238416784
 10
865.908786962651
 20
1820.098838757926
 10
865.9533457956648
 20
1820.165274118335
 10
865.9952122805357
 20
1820.233438215606
 10
866.0024546336179
 20
1820.245878730071
  0
LWPOLYLINE
  5
24F
330
183
100
AcDbEntity
  8
P-SANR-FIXT
100
AcDbPolyline
 90
       28
 70
   128
 43
0.0
 10
866.0024546336185
 20
1762.245878730071
 10
865.9610798435279
 20
1762.314342395304
 10
865.9170003324678
 20
1762.381096746599
 10
865.8702866182526
 20
1762.446034991236
 10
865.82101343286
 20
1762.509053241873
 10
865.7692596028756
 20
1762.570050682755
 10
865.7151079233871
 20
1762.628929730987
 10
865.65864502553
 20
1762.685596192653
 10
865.5999612378961
 20
1762.739959413503
 10
865.5391504420268
 20
1762.791932423979
 10
865.4763099222236
 20
1762.841432078351
 10
865.4115402099129
 20
1762.888379187734
 10
865.3449449228174
 20
1762.932698646765
 10
865.2766305991901
 20
1762.974319553766
 10
865.2067065273763
 20
1763.013175324163
 10
865.1352845709743
 20
1763.049203797012
 10
865.0624789898783
 20
1763.082347334443
 10
864.9884062574869
 20
1763.112552913867
 10
864.9131848743715
 20
1763.139772212799
 10
864.8369351786977
 20
1763.163961686167
 10
864.7597791537133
 20
1763.185082635975
 10
864.681840232599
 20
1763.203101273208
 10
864.6032431010031
 20
1763.217988771891
 10
864.5241134975689
 20
1763.229721315201
 10
864.4445780127821
 20
1763.238280133572
 10
864.3647638864518
 20
1763.243651534721
 10
864.2847988041539
 20
1763.245826925552
 10
864.2704038260495
 20
1763.245878730071
  0
LWPOLYLINE
  5
250
330
183
100
AcDbEntity
  8
P-SANR-FIXT
100
AcDbPolyline
 90
       28
 70
   128
 43
0.0
 10
775.3303602527539
 20
1820.245878730071
 10
775.3717350428444
 20
1820.177415064837
 10
775.4158145539045
 20
1820.110660713542
 10
775.4625282681197
 20
1820.045722468906
 10
775.5118014535123
 20
1819.982704218269
 10
775.5635552834968
 20
1819.921706777387
 10
775.6177069629851
 20
1819.862827729154
 10
775.6741698608423
 20
1819.806161267488
 10
775.7328536484761
 20
1819.751798046639
 10
775.7936644443454
 20
1819.699825036163
 10
775.8565049641484
 20
1819.65032538179
 10
775.9212746764593
 20
1819.603378272407
 10
775.9878699635549
 20
1819.559058813376
 10
776.0561842871822
 20
1819.517437906376
 10
776.1261083589961
 20
1819.478582135979
 10
776.1975303153982
 20
1819.44255366313
 10
776.2703358964941
 20
1819.409410125698
 10
776.3444086288854
 20
1819.379204546275
 10
776.4196300120008
 20
1819.351985247343
 10
776.4958797076746
 20
1819.327795773975
 10
776.573035732659
 20
1819.306674824166
 10
776.650974653773
 20
1819.288656186933
 10
776.7295717853692
 20
1819.27376868825
 10
776.8087013888035
 20
1819.26203614494
 10
776.8882368735902
 20
1819.253477326569
 10
776.9680509999204
 20
1819.24810592542
 10
777.0480160822184
 20
1819.24593053459
 10
777.0624110603229
 20
1819.245878730071
  0
LWPOLYLINE
  5
251
330
183
100
AcDbEntity
  8
P-SANR-FIXT
100
AcDbPolyline
 90
       28
 70
   128
 43
0.0
 10
777.0624110603232
 20
1763.24587873007
 10
776.9824323919499
 20
1763.244278943392
 10
776.9025816723847
 20
1763.239482142676
 10
776.8229866457454
 20
1763.231496001778
 10
776.7437746470947
 20
1763.220333296821
 10
776.6650723987331
 20
1763.206011885753
 10
776.5870058074689
 20
1763.188554679774
 10
776.5096997631949
 20
1763.167989606692
 10
776.433277939091
 20
1763.144349566235
 10
776.3578625937729
 20
1763.117672377426
 10
776.2835743757059
 20
1763.088000718076
 10
776.2105321301911
 20
1763.05538205651
 10
776.1388527092403
 20
1763.019868575629
 10
776.0686507846358
 20
1762.981517089426
 10
776.0000386644816
 20
1762.940388952097
 10
775.9331261135331
 20
1762.89654995989
 10
775.8680201775984
 20
1762.850070245839
 10
775.8048250122863
 20
1762.801024167572
 10
775.7436417163803
 20
1762.749490188352
 10
775.684568170102
 20
1762.695550751552
 10
775.6276988785241
 20
1762.639292148764
 10
775.5731248203813
 20
1762.580804381753
 10
775.5209333025252
 20
1762.520181018467
 10
775.4712078202504
 20
1762.457519043357
 10
775.4240279237213
 20
1762.392918702215
 10
775.3794690907073
 20
1762.326483341806
 10
775.3376026058365
 20
1762.258319244535
 10
775.3303602527544
 20
1762.24587873007
  0
SPLINE
  5
252
330
183
100
AcDbEntity
  8
P-SANR-FIXT
100
AcDbSpline
210
0.0
220
0.0
230
1.0
 70
     8
 71
     3
 72
    12
 73
     8
 74
     0
 42
0.000000001
 43
0.0000000001
 40
0.0
 40
0.0
 40
0.0
 40
0.0
 40
0.2
 40
0.4
 40
0.55
 40
0.5875
 40
0.6
 40
0.6
 40
0.6
 40
0.6
 10
788.986503146162
 20
1815.415750610196
 30
0.0
 10
788.1166022260615
 20
1814.455510795468
 30
0.0
 10
786.335185838776
 20
1812.284064273076
 30
0.0
 10
783.9481701254912
 20
1808.477130883428
 30
0.0
 10
782.4954280862624
 20
1805.325292323876
 30
0.0
 10
781.8433490983665
 20
1803.581944240574
 30
0.0
 10
781.6875899052555
 20
1803.139334839237
 30
0.0
 10
781.6491002543791
 20
1803.028217140399
 30
0.0
  0
SPLINE
  5
253
330
183
100
AcDbEntity
  8
P-SANR-FIXT
100
AcDbSpline
210
0.0
220
0.0
230
1.0
 70
     8
 71
     3
 72
    10
 73
     6
 74
     0
 42
0.000000001
 43
0.0000000001
 40
0.6666666666666666
 40
0.6666666666666666
 40
0.6666666666666666
 40
0.6666666666666666
 40
0.7
 40
0.775
 40
0.8
 40
0.8
 40
0.8
 40
0.8
 10
781.0719396517848
 20
1801.206830525664
 30
0.0
 10
780.9824792957632
 20
1800.896159994239
 30
0.0
 10
780.7020354900297
 20
1799.87639636927
 30
0.0
 10
780.4187236578321
 20
1798.582175863156
 30
0.0
 10
780.2257994102669
 20
1797.603989277389
 30
0.0
 10
780.1807304214953
 20
1797.358241102218
 30
0.0
  0
SPLINE
  5
254
330
183
100
AcDbEntity
  8
P-SANR-FIXT
100
AcDbSpline
210
0.0
220
0.0
230
1.0
 70
     8
 71
     3
 72
     8
 73
     4
 74
     0
 42
0.000000001
 43
0.0000000001
 40
0.8666666666666666
 40
0.8666666666666666
 40
0.8666666666666666
 40
0.8666666666666666
 40
0.9333333333333332
 40
0.9333333333333332
 40
0.9333333333333332
 40
0.9333333333333332
 10
779.9023565311373
 20
1795.360522407156
 30
0.0
 10
779.8250262040079
 20
1794.688024147212
 30
0.0
 10
779.7858662771227
 20
1794.002451003215
 30
0.0
 10
779.7561252594683
 20
1793.313458536567
 30
0.0
  0
ARC
  5
255
330
183
100
AcDbEntity
  8
P-SANR-FIXT
100
AcDbCircle
 10
815.666407443185
 20
1791.24587873007
 30
0.0
 40
36.00000000000008
100
AcDbArc
 50
0.0000000000011673
 51
180.0000000000004
  0
SPLINE
  5
256
330
183
100
AcDbEntity
  8
P-SANR-FIXT
100
AcDbSpline
210
0.0
220
0.0
230
1.0
 70
     8
 71
     3
 72
     8
 73
     4
 74
     0
 42
0.000000001
 43
0.0000000001
 40
0.0666666666666667
 40
0.0666666666666667
 40
0.0666666666666667
 40
0.0666666666666667
 40
0.1333333333333333
 40
0.1333333333333333
 40
0.1333333333333333
 40
0.1333333333333333
 10
851.6066814481643
 20
1793.321654441327
 30
0.0
 10
851.5671362854373
 20
1794.007477159868
 30
0.0
 10
851.5083125848471
 20
1794.687220577811
 30
0.0
 10
851.430898159398
 20
1795.360311429655
 30
0.0
  0
SPLINE
  5
257
330
183
100
AcDbEntity
  8
P-SANR-FIXT
100
AcDbSpline
210
0.0
220
0.0
230
1.0
 70
     8
 71
     3
 72
     9
 73
     5
 74
     0
 42
0.000000001
 43
0.0000000001
 40
0.2
 40
0.2
 40
0.2
 40
0.2
 40
0.3
 40
0.3333333333333333
 40
0.3333333333333333
 40
0.3333333333333333
 40
0.3333333333333333
 10
851.1435705214779
 20
1797.359053021403
 30
0.0
 10
850.9729658059454
 20
1798.348300315523
 30
0.0
 10
850.6917200072708
 20
1799.644905204474
 30
0.0
 10
850.3497512754774
 20
1800.900802062113
 30
0.0
 10
850.2605593308315
 20
1801.211621244098
 30
0.0
  0
SPLINE
  5
258
330
183
100
AcDbEntity
  8
P-SANR-FIXT
100
AcDbSpline
210
0.0
220
0.0
230
1.0
 70
     8
 71
     3
 72
    10
 73
     6
 74
     0
 42
0.000000001
 43
0.0000000001
 40
0.4
 40
0.4
 40
0.4
 40
0.4
 40
0.55
 40
0.7
 40
1.0
 40
1.0
 40
1.0
 40
1.0
 10
849.6817738955641
 20
1803.033789703197
 30
0.0
 10
849.2181369135085
 20
1804.371761944025
 30
0.0
 10
848.1624274256319
 20
1806.907574802788
 30
0.0
 10
845.6916542926625
 20
1811.374316275982
 30
0.0
 10
843.6496123097025
 20
1813.977102749883
 30
0.0
 10
842.3463117402075
 20
1815.415750610196
 30
0.0
  0
SPLINE
  5
259
330
183
100
AcDbEntity
  8
P-SANR-FIXT
100
AcDbSpline
210
0.0
220
0.0
230
1.0
 70
     8
 71
     3
 72
    12
 73
     8
 74
     0
 42
0.000000001
 43
0.0000000001
 40
0.0
 40
0.0
 40
0.0
 40
0.0
 40
0.2
 40
0.4
 40
0.55
 40
0.5875
 40
0.6
 40
0.6
 40
0.6
 40
0.6
 10
842.3463117402077
 20
1767.076006849944
 30
0.0
 10
843.2151787865377
 20
1768.035105423485
 30
0.0
 10
844.9951870495159
 20
1770.20446319698
 30
0.0
 10
847.3820660980365
 20
1774.009965166248
 30
0.0
 10
848.8350762547785
 20
1777.161019848795
 30
0.0
 10
849.4874785578742
 20
1778.90436415296
 30
0.0
 10
849.6433305682227
 20
1779.347011465752
 30
0.0
 10
849.6818440874678
 20
1779.458141013759
 30
0.0
  0
SPLINE
  5
25A
330
183
100
AcDbEntity
  8
P-SANR-FIXT
100
AcDbSpline
210
0.0
220
0.0
230
1.0
 70
     8
 71
     3
 72
    10
 73
     6
 74
     0
 42
0.000000001
 43
0.0000000001
 40
0.6666666666666666
 40
0.6666666666666666
 40
0.6666666666666666
 40
0.6666666666666666
 40
0.7
 40
0.775
 40
0.7999999999999971
 40
0.7999999999999971
 40
0.7999999999999971
 40
0.7999999999999971
 10
850.2594295636898
 20
1781.279907962363
 30
0.0
 10
850.3489653865274
 20
1781.59067086219
 30
0.0
 10
850.629659136619
 20
1782.610774462734
 30
0.0
 10
850.9132542966138
 20
1783.905561598098
 30
0.0
 10
851.1063791836551
 20
1784.884177393497
 30
0.0
 10
851.1514955360691
 20
1785.130036567226
 30
0.0
  0
SPLINE
  5
25B
330
183
100
AcDbEntity
  8
P-SANR-FIXT
100
AcDbSpline
210
0.0
220
0.0
230
1.0
 70
     8
 71
     3
 72
     8
 73
     4
 74
     0
 42
0.000000001
 43
0.0000000001
 40
0.8666666666666666
 40
0.8666666666666666
 40
0.8666666666666666
 40
0.8666666666666666
 40
0.9333333333333332
 40
0.9333333333333332
 40
0.9333333333333332
 40
0.9333333333333332
 10
851.430172832693
 20
1787.128755895764
 30
0.0
 10
851.507591358616
 20
1787.801612030608
 30
0.0
 10
851.5467980006679
 20
1788.487597914579
 30
0.0
 10
851.5765760165246
 20
1789.177017177141
 30
0.0
  0
ARC
  5
25C
330
183
100
AcDbEntity
  8
P-SANR-FIXT
100
AcDbCircle
 10
815.666407443185
 20
1791.24587873007
 30
0.0
 40
36.0
100
AcDbArc
 50
180.0
 51
0.0
  0
SPLINE
  5
25D
330
183
100
AcDbEntity
  8
P-SANR-FIXT
100
AcDbSpline
210
0.0
220
0.0
230
1.0
 70
     8
 71
     3
 72
     8
 73
     4
 74
     0
 42
0.000000001
 43
0.0000000001
 40
0.0666666666666667
 40
0.0666666666666667
 40
0.0666666666666667
 40
0.0666666666666667
 40
0.1333333333333333
 40
0.1333333333333333
 40
0.1333333333333333
 40
0.1333333333333333
 10
779.7261334382056
 20
1789.170103018812
 30
0.0
 10
779.7656786009326
 20
1788.484280300271
 30
0.0
 10
779.8245023015227
 20
1787.804536882329
 30
0.0
 10
779.9019167269719
 20
1787.131446030484
 30
0.0
  0
SPLINE
  5
25E
330
183
100
AcDbEntity
  8
P-SANR-FIXT
100
AcDbSpline
210
0.0
220
0.0
230
1.0
 70
     8
 71
     3
 72
     9
 73
     5
 74
     0
 42
0.000000001
 43
0.0000000001
 40
0.2
 40
0.2
 40
0.2
 40
0.2
 40
0.3
 40
0.3333333333333333
 40
0.3333333333333333
 40
0.3333333333333333
 40
0.3333333333333333
 10
780.1892443648918
 20
1785.132704438737
 30
0.0
 10
780.3598490804245
 20
1784.143457144617
 30
0.0
 10
780.6410948790991
 20
1782.846852255665
 30
0.0
 10
780.9830636108925
 20
1781.590955398027
 30
0.0
 10
781.0722555555384
 20
1781.280136216041
 30
0.0
  0
SPLINE
  5
25F
330
183
100
AcDbEntity
  8
P-SANR-FIXT
100
AcDbSpline
210
0.0
220
0.0
230
1.0
 70
     8
 71
     3
 72
    10
 73
     6
 74
     0
 42
0.000000001
 43
0.0000000001
 40
0.4
 40
0.4
 40
0.4
 40
0.4
 40
0.55
 40
0.7
 40
1.0
 40
1.0
 40
1.0
 40
1.0
 10
781.6510409908057
 20
1779.457967756943
 30
0.0
 10
782.1146779728613
 20
1778.119995516115
 30
0.0
 10
783.1703874607379
 20
1775.584182657351
 30
0.0
 10
785.6411605937073
 20
1771.117441184158
 30
0.0
 10
787.6832025766672
 20
1768.514654710257
 30
0.0
 10
788.986503146162
 20
1767.076006849944
 30
0.0
  0
LINE
  5
260
330
183
100
AcDbEntity
  8
P-SANR-FIXT
100
AcDbLine
 10
867.666407443183
 20
1809.040125834807
 30
0.0
 11
867.6664074431831
 21
1806.427893328256
 31
0.0
  0
LINE
  5
261
330
183
100
AcDbEntity
  8
P-SANR-FIXT
100
AcDbLine
 10
867.6664074431831
 20
1776.063864130783
 30
0.0
 11
867.6664074431833
 21
1773.451631625417
 31
0.0
  0
SPLINE
  5
262
330
183
100
AcDbEntity
  8
P-SANR-FIXT
100
AcDbSpline
210
0.0
220
0.0
230
1.0
 70
     8
 71
     3
 72
     8
 73
     4
 74
     0
 42
0.000000001
 43
0.0000000001
 40
0.6749348387457026
 40
0.6749348387457026
 40
0.6749348387457026
 40
0.6749348387457026
 40
0.6761529289629355
 40
0.6761529289629355
 40
0.6761529289629355
 40
0.6761529289629355
 10
846.3394916387878
 20
1810.088621212076
 30
0.0
 10
846.328077566353
 20
1810.094736761795
 30
0.0
 10
846.3166552004746
 20
1810.100835758538
 30
0.0
 10
846.3052250301885
 20
1810.106918907567
 30
0.0
  0
SPLINE
  5
263
330
183
100
AcDbEntity
  8
P-SANR-FIXT
100
AcDbSpline
210
0.0
220
0.0
230
1.0
 70
     8
 71
     3
 72
    23
 73
    19
 74
     0
 42
0.000000001
 43
0.0000000001
 40
0.0
 40
0.0
 40
0.0
 40
0.0
 40
0.0555555555555556
 40
0.1111111111111111
 40
0.1666666666666666
 40
0.2222222222222222
 40
0.2777777777777778
 40
0.3333333333333333
 40
0.3888888888888888
 40
0.4444444444444445
 40
0.5138888888888889
 40
0.5486111111111111
 40
0.5833333333333333
 40
0.6527777777777777
 40
0.7222222222222223
 40
0.7916666666666668
 40
0.861111111111111
 40
1.0
 40
1.0
 40
1.0
 40
1.0
 10
856.6664074431848
 20
1819.24587873007
 30
0.0
 10
856.6594842768417
 20
1819.24587873007
 30
0.0
 10
856.5598937474238
 20
1819.213542618329
 30
0.0
 10
856.1656034366528
 20
1819.08657733869
 30
0.0
 10
855.4894243885856
 20
1818.887985522128
 30
0.0
 10
854.5946275501632
 20
1818.643872320967
 30
0.0
 10
853.4821269406242
 20
1818.383194775476
 30
0.0
 10
852.2042806421588
 20
1818.133500071404
 30
0.0
 10
850.7715898854481
 20
1817.930053067041
 30
0.0
 10
849.1234239169665
 20
1817.779159080875
 30
0.0
 10
847.5969545623026
 20
1817.748475662243
 30
0.0
 10
846.2803527746222
 20
1817.790001736701
 30
0.0
 10
845.0158287271673
 20
1817.880083692018
 30
0.0
 10
843.450110646577
 20
1818.074533900445
 30
0.0
 10
841.8365626946819
 20
1818.381264772562
 30
0.0
 10
840.4829684375084
 20
1818.7077846279
 30
0.0
 10
839.0998320960317
 20
1819.099463866647
 30
0.0
 10
838.6833885423552
 20
1819.24587873007
 30
0.0
 10
838.6664074431847
 20
1819.24587873007
 30
0.0
  0
SPLINE
  5
264
330
183
100
AcDbEntity
  8
P-SANR-FIXT
100
AcDbSpline
210
0.0
220
0.0
230
1.0
 70
     8
 71
     3
 72
     8
 73
     4
 74
     0
 42
0.000000001
 43
0.0000000001
 40
0.3238470710370527
 40
0.3238470710370527
 40
0.3238470710370527
 40
0.3238470710370527
 40
0.3250651612542915
 40
0.3250651612542915
 40
0.3250651612542915
 40
0.3250651612542915
 10
846.3083587785996
 20
1772.386570371139
 30
0.0
 10
846.3197814403519
 20
1772.392648779222
 30
0.0
 10
846.3311941768321
 20
1772.398741414068
 30
0.0
 10
846.342597025418
 20
1772.404848261793
 30
0.0
  0
SPLINE
  5
265
330
183
100
AcDbEntity
  8
P-SANR-FIXT
100
AcDbSpline
210
0.0
220
0.0
230
1.0
 70
     8
 71
     3
 72
    21
 73
    17
 74
     0
 42
0.000000001
 43
0.0000000001
 40
0.0
 40
0.0
 40
0.0
 40
0.0
 40
0.1111111111111111
 40
0.2222222222222222
 40
0.2777777777777778
 40
0.3333333333333333
 40
0.3888888888888888
 40
0.4444444444444445
 40
0.5138888888888889
 40
0.5486111111111111
 40
0.5833333333333333
 40
0.6527777777777777
 40
0.7222222222222223
 40
0.7916666666666668
 40
0.861111111111111
 40
1.0
 40
1.0
 40
1.0
 40
1.0
 10
838.666407443185
 20
1763.245878730069
 30
0.0
 10
838.6799923225215
 20
1763.245878730069
 30
0.0
 10
839.0359610613487
 20
1763.369845582188
 30
0.0
 10
840.3732238057946
 20
1763.761512652617
 30
0.0
 10
841.8518672269517
 20
1764.109119207142
 30
0.0
 10
843.1289762939236
 20
1764.358276022427
 30
0.0
 10
844.5626421577772
 20
1764.561805507075
 30
0.0
 10
846.2120378136987
 20
1764.712790953851
 30
0.0
 10
847.7384782736498
 20
1764.743266135425
 30
0.0
 10
849.054939648415
 20
1764.70160937665
 30
0.0
 10
850.3189272103309
 20
1764.61151977203
 30
0.0
 10
851.8828903352599
 20
1764.417265717593
 30
0.0
 10
853.4979089704231
 20
1764.109967447387
 30
0.0
 10
854.8528897378679
 20
1763.783257759422
 30
0.0
 10
856.2325607124881
 20
1763.392423957628
 30
0.0
 10
856.6490995273273
 20
1763.24587873007
 30
0.0
 10
856.6664074431852
 20
1763.24587873007
 30
0.0
  0
LINE
  5
266
330
183
100
AcDbEntity
  8
P-SANR-FIXT
100
AcDbLine
 10
774.666407443185
 20
1791.24587873007
 30
0.0
 11
774.6664074431848
 21
1821.395878730069
 31
0.0
  0
LINE
  5
267
330
183
100
AcDbEntity
  8
P-SANR-FIXT
100
AcDbLine
 10
774.666407443185
 20
1761.095878730069
 30
0.0
 11
774.666407443185
 21
1791.245878730069
 31
0.0
  0
LINE
  5
268
330
183
100
AcDbEntity
  8
P-SANR-FIXT
100
AcDbLine
 10
773.6664074431875
 20
1809.040125834812
 30
0.0
 11
773.6664074431875
 21
1806.427893328251
 31
0.0
  0
LINE
  5
269
330
183
100
AcDbEntity
  8
P-SANR-FIXT
100
AcDbLine
 10
773.6664074431875
 20
1776.063864130788
 30
0.0
 11
773.6664074431877
 21
1773.45163162541
 31
0.0
  0
SPLINE
  5
26A
330
183
100
AcDbEntity
  8
P-SANR-FIXT
100
AcDbSpline
210
0.0
220
0.0
230
1.0
 70
     8
 71
     3
 72
     9
 73
     5
 74
     0
 42
0.000000001
 43
0.0000000001
 40
0.8571428571428569
 40
0.8571428571428569
 40
0.8571428571428569
 40
0.8571428571428569
 40
0.8928571428571427
 40
1.0
 40
1.0
 40
1.0
 40
1.0
 10
842.1737620445313
 20
1815.55862078718
 30
0.0
 10
842.1904158170047
 20
1815.547611671637
 30
0.0
 10
842.2548309870613
 20
1815.502690111901
 30
0.0
 10
842.3097549490385
 20
1815.454206353865
 30
0.0
 10
842.3463117402075
 20
1815.415750610196
 30
0.0
  0
SPLINE
  5
26B
330
183
100
AcDbEntity
  8
P-SANR-FIXT
100
AcDbSpline
210
0.0
220
0.0
230
1.0
 70
     8
 71
     3
 72
     8
 73
     4
 74
     0
 42
0.000000001
 43
0.0000000001
 40
0.0
 40
0.0
 40
0.0
 40
0.0
 40
0.1428571428571428
 40
0.1428571428571428
 40
0.1428571428571428
 40
0.1428571428571428
 10
788.986503146162
 20
1815.415750610196
 30
0.0
 10
789.0352455343872
 20
1815.467024935088
 30
0.0
 10
789.0921246293122
 20
1815.514576165562
 30
0.0
 10
789.1587057155894
 20
1815.558611994169
 30
0.0
  0
SPLINE
  5
26C
330
183
100
AcDbEntity
  8
P-SANR-FIXT
100
AcDbSpline
210
0.0
220
0.0
230
1.0
 70
     8
 71
     3
 72
     9
 73
     5
 74
     0
 42
0.000000001
 43
0.0000000001
 40
0.8571428571428569
 40
0.8571428571428569
 40
0.8571428571428569
 40
0.8571428571428569
 40
0.8928571428571427
 40
1.0
 40
1.0
 40
1.0
 40
1.0
 10
789.1590528418385
 20
1766.93313667296
 30
0.0
 10
789.1423990693652
 20
1766.944145788502
 30
0.0
 10
789.0779838993087
 20
1766.989067348238
 30
0.0
 10
789.0230599373311
 20
1767.037551106275
 30
0.0
 10
788.9865031461623
 20
1767.076006849944
 30
0.0
  0
SPLINE
  5
26D
330
183
100
AcDbEntity
  8
P-SANR-FIXT
100
AcDbSpline
210
0.0
220
0.0
230
1.0
 70
     8
 71
     3
 72
     8
 73
     4
 74
     0
 42
0.000000001
 43
0.0000000001
 40
0.0
 40
0.0
 40
0.0
 40
0.0
 40
0.1428571428571428
 40
0.1428571428571428
 40
0.1428571428571428
 40
0.1428571428571428
 10
842.3463117402079
 20
1767.076006849944
 30
0.0
 10
842.2975693519825
 20
1767.024732525052
 30
0.0
 10
842.2406902570575
 20
1766.977181294577
 30
0.0
 10
842.1741091707804
 20
1766.933145465971
 30
0.0
  0
LINE
  5
26E
330
183
100
AcDbEntity
  8
P-SANR-FIXT
100
AcDbLine
 10
856.6664074431852
 20
1748.74587873007
 30
0.0
 11
838.666407443185
 21
1748.74587873007
 31
0.0
  0
LINE
  5
26F
330
183
100
AcDbEntity
  8
P-SANR-FIXT
100
AcDbLine
 10
866.6664074431848
 20
1821.39587873007
 30
0.0
 11
866.6664074431849
 21
1791.24587873007
 31
0.0
  0
LINE
  5
270
330
183
100
AcDbEntity
  8
P-SANR-FIXT
100
AcDbLine
 10
866.6664074431849
 20
1791.24587873007
 30
0.0
 11
866.6664074431851
 21
1761.09587873007
 31
0.0
  0
ENDBLK
  5
272
330
183
100
AcDbEntity
  8
0
100
AcDbBlockEnd
  0
BLOCK
  5
32B
330
274
100
AcDbEntity
  8
0
100
AcDbBlockBegin
  2
Automatic flow rate regulator valve_Caleffi_121 DN15 - 1 1_2___Pressure gauge-V2-Est - Idraulica
 70
     0
 10
0.0
 20
0.0
 30
0.0
  3
Automatic flow rate regulator valve_Caleffi_121 DN15 - 1 1_2___Pressure gauge-V2-Est - Idraulica
  1

  0
LINE
  5
275
330
274
100
AcDbEntity
  8
M-PIPE
100
AcDbLine
 10
1269.614353943097
 20
2003.482558850052
 30
0.0
 11
1267.614353943097
 21
2003.482558850052
 31
0.0
1001
REVIT
1002
{
1070
     3
1000
923159
1002
}
  0
LINE
  5
276
330
274
100
AcDbEntity
  8
M-PIPE
100
AcDbLine
 10
1267.614353943097
 20
1996.482558850051
 30
0.0
 11
1269.614353943097
 21
1996.482558850051
 31
0.0
1001
REVIT
1002
{
1070
     3
1000
923159
1002
}
  0
LINE
  5
277
330
274
100
AcDbEntity
  8
M-PIPE
100
AcDbLine
 10
1269.614353943095
 20
1999.982558850051
 30
0.0
 11
1269.614353943095
 21
2003.482558850051
 31
0.0
1001
REVIT
1002
{
1070
     3
1000
923159
1002
}
  0
LINE
  5
278
330
274
100
AcDbEntity
  8
M-PIPE
100
AcDbLine
 10
1269.614353943095
 20
1996.482558850051
 30
0.0
 11
1269.614353943095
 21
1999.982558850051
 31
0.0
1001
REVIT
1002
{
1070
     3
1000
923159
1002
}
  0
LINE
  5
279
330
274
100
AcDbEntity
  8
M-PIPE
100
AcDbLine
 10
1231.614353943115
 20
2006.532558850045
 30
0.0
 11
1224.61435394308
 21
2006.532558850045
 31
0.0
1001
REVIT
1002
{
1070
     3
1000
923159
1002
}
  0
LINE
  5
27A
330
274
100
AcDbEntity
  8
M-PIPE
100
AcDbLine
 10
1224.61435394308
 20
1993.432558850059
 30
0.0
 11
1231.614353943115
 21
1993.432558850059
 31
0.0
1001
REVIT
1002
{
1070
     3
1000
923159
1002
}
  0
LINE
  5
27B
330
274
100
AcDbEntity
  8
M-PIPE
100
AcDbLine
 10
1231.614353943113
 20
1992.982558850034
 30
0.0
 11
1231.614353943113
 21
2006.982558850035
 31
0.0
1001
REVIT
1002
{
1070
     3
1000
923159
1002
}
  0
LINE
  5
27C
330
274
100
AcDbEntity
  8
M-PIPE
100
AcDbLine
 10
1231.614353943113
 20
2006.982558850035
 30
0.0
 11
1237.614353943095
 21
2006.982558850035
 31
0.0
1001
REVIT
1002
{
1070
     3
1000
923159
1002
}
  0
LINE
  5
27D
330
274
100
AcDbEntity
  8
M-PIPE
100
AcDbLine
 10
1231.614353943113
 20
1992.982558850034
 30
0.0
 11
1237.614353943095
 21
1992.982558850034
 31
0.0
1001
REVIT
1002
{
1070
     3
1000
923159
1002
}
  0
LINE
  5
27E
330
274
100
AcDbEntity
  8
M-PIPE
100
AcDbLine
 10
1267.614353943097
 20
2030.982558850064
 30
0.0
 11
1240.614353943097
 21
2030.982558850064
 31
0.0
1001
REVIT
1002
{
1070
     3
1000
923159
1002
}
  0
LINE
  5
27F
330
274
100
AcDbEntity
  8
M-PIPE
100
AcDbLine
 10
1240.614353943097
 20
1968.98255885004
 30
0.0
 11
1267.614353943097
 21
1968.98255885004
 31
0.0
1001
REVIT
1002
{
1070
     3
1000
923159
1002
}
  0
LWPOLYLINE
  5
280
330
274
100
AcDbEntity
  8
M-PIPE
100
AcDbPolyline
 90
       41
 70
   128
 43
0.0
 10
1237.614353943097
 20
2027.982558850064
 10
1237.616753623115
 20
2028.102526852624
 10
1237.62394882419
 20
2028.222302931972
 10
1237.635928035536
 20
2028.341695471931
 10
1237.652672092971
 20
2028.460513469907
 10
1237.674154209574
 20
2028.578566842449
 10
1237.700340018541
 20
2028.695666729346
 10
1237.731187628165
 20
2028.811625795757
 10
1237.76664768885
 20
2028.926258531912
 10
1237.806663472063
 20
2029.039381549889
 10
1237.851170961089
 20
2029.15081387699
 10
1237.900098953438
 20
2029.260377245262
 10
1237.953369174759
 20
2029.367896376689
 10
1238.010896404065
 20
2029.473199263596
 10
1238.072588610057
 20
2029.576117443827
 10
1238.138347098369
 20
2029.676486270249
 10
1238.208066669445
 20
2029.774145174152
 10
1238.281635786844
 20
2029.86893792212
 10
1238.358936755675
 20
2029.960712865979
 10
1238.439845910875
 20
2030.049323185396
 10
1238.524233815056
 20
2030.134627122763
 10
1238.611965465574
 20
2030.216488209977
 10
1238.702900510501
 20
2030.294775486761
 10
1238.796893473167
 20
2030.369363710173
 10
1238.89379398488
 20
2030.440133554967
 10
1238.993447025493
 20
2030.506971804488
 10
1239.095693171399
 20
2030.569771531794
 10
1239.200368850576
 20
2030.628432270719
 10
1239.307306604267
 20
2030.682860176594
 10
1239.416335354879
 20
2030.73296817638
 10
1239.527280679667
 20
2030.778676107966
 10
1239.639965089781
 20
2030.819910848413
 10
1239.754208314202
 20
2030.856606430932
 10
1239.86982758814
 20
2030.888704150419
 10
1239.986637945423
 20
2030.91615265737
 10
1240.104452514397
 20
2030.938908040029
 10
1240.223082816883
 20
2030.956933894639
 10
1240.342339069705
 20
2030.970201383677
 10
1240.462030488297
 20
2030.978689281991
 10
1240.581965591923
 20
2030.982384010755
 10
1240.614353943097
 20
2030.982558850064
1001
REVIT
1002
{
1070
     3
1000
923159
1002
}
  0
LWPOLYLINE
  5
281
330
274
100
AcDbEntity
  8
M-PIPE
100
AcDbPolyline
 90
       35
 70
   128
 43
0.0
 10
1237.614353943097
 20
2006.982558850035
 10
1237.614353943097
 20
2007.72051700985
 10
1237.614353943097
 20
2008.790422547307
 10
1237.614353943097
 20
2009.846237381759
 10
1237.614353943097
 20
2010.886272434699
 10
1237.614353943097
 20
2011.908863871905
 10
1237.614353943097
 20
2012.912375765219
 10
1237.614353943097
 20
2013.895202709683
 10
1237.614353943097
 20
2014.855772391843
 10
1237.614353943097
 20
2015.79254810512
 10
1237.614353943097
 20
2016.704031208206
 10
1237.614353943097
 20
2017.588763522577
 10
1237.614353943097
 20
2018.445329665262
 10
1237.614353943097
 20
2019.272359313156
 10
1237.614353943097
 20
2020.068529395247
 10
1237.614353943097
 20
2020.832566209245
 10
1237.614353943097
 20
2021.563247459233
 10
1237.614353943097
 20
2022.25940421108
 10
1237.614353943097
 20
2022.91992276249
 10
1237.614353943097
 20
2023.543746424683
 10
1237.614353943097
 20
2024.129877212876
 10
1237.614353943097
 20
2024.677377442841
 10
1237.614353943097
 20
2025.185371231005
 10
1237.614353943097
 20
2025.653045895673
 10
1237.614353943097
 20
2026.079653257146
 10
1237.614353943097
 20
2026.464510834651
 10
1237.614353943097
 20
2026.807002938162
 10
1237.614353943097
 20
2027.106581653375
 10
1237.614353943097
 20
2027.362767718253
 10
1237.614353943097
 20
2027.575151289741
 10
1237.614353943097
 20
2027.743392599432
 10
1237.614353943097
 20
2027.867222497119
 10
1237.614353943097
 20
2027.94644288138
 10
1237.614353943097
 20
2027.980927016503
 10
1237.614353943097
 20
2027.982558850064
1001
REVIT
1002
{
1070
     3
1000
923159
1002
}
  0
LWPOLYLINE
  5
282
330
274
100
AcDbEntity
  8
M-PIPE
100
AcDbPolyline
 90
       41
 70
   128
 43
0.0
 10
1237.614353943097
 20
2027.982558850064
 10
1237.614353943097
 20
2027.960161836572
 10
1237.614353943097
 20
2027.893006626538
 10
1237.614353943097
 20
2027.781200653972
 10
1237.614353943097
 20
2027.624922784582
 10
1237.614353943097
 20
2027.424423029619
 10
1237.614353943097
 20
2027.180022145921
 10
1237.614353943097
 20
2026.892111122765
 10
1237.614353943097
 20
2026.561150556372
 10
1237.614353943097
 20
2026.187669913046
 10
1237.614353943097
 20
2025.772266682144
 10
1237.614353943097
 20
2025.315605420222
 10
1237.614353943097
 20
2024.818416687883
 10
1237.614353943097
 20
2024.281495881037
 10
1237.614353943097
 20
2023.705701958438
 10
1237.614353943097
 20
2023.091956067533
 10
1237.614353943097
 20
2022.441240070822
 10
1237.614353943097
 20
2021.754594975087
 10
1237.614353943097
 20
2021.033119266006
 10
1237.614353943097
 20
2020.277967150807
 10
1237.614353943097
 20
2019.490346711782
 10
1237.614353943097
 20
2018.671517973617
 10
1237.614353943097
 20
2017.82279088762
 10
1237.614353943097
 20
2016.945523236076
 10
1237.614353943097
 20
2016.041118460088
 10
1237.614353943097
 20
2015.111023414366
 10
1237.614353943097
 20
2014.156726052576
 10
1237.614353943097
 20
2013.179753046923
 10
1237.614353943097
 20
2012.181667345805
 10
1237.614353943097
 20
2011.164065673432
 10
1237.614353943097
 20
2010.128575975403
 10
1237.614353943097
 20
2009.076854814342
 10
1237.614353943097
 20
2008.01058471975
 10
1237.614353943097
 20
2006.931471496321
 10
1237.614353943097
 20
2005.841241495014
 10
1237.614353943097
 20
2004.741638851261
 10
1237.614353943097
 20
2003.634422694721
 10
1237.614353943097
 20
2002.521364335054
 10
1237.614353943097
 20
2001.404244428193
 10
1237.614353943097
 20
2000.284850127684
 10
1237.614353943097
 20
1999.982558850052
1001
REVIT
1002
{
1070
     3
1000
923159
1002
}
  0
LWPOLYLINE
  5
283
330
274
100
AcDbEntity
  8
M-PIPE
100
AcDbPolyline
 90
       41
 70
   128
 43
0.0
 10
1240.614353943097
 20
1968.98255885004
 10
1240.494385940537
 20
1968.984958530057
 10
1240.374609861189
 20
1968.992153731132
 10
1240.25521732123
 20
1969.004132942478
 10
1240.136399323254
 20
1969.020876999913
 10
1240.018345950712
 20
1969.042359116516
 10
1239.901246063815
 20
1969.068544925483
 10
1239.785286997405
 20
1969.099392535107
 10
1239.670654261248
 20
1969.134852595792
 10
1239.557531243271
 20
1969.174868379006
 10
1239.446098916171
 20
1969.219375868031
 10
1239.336535547899
 20
1969.26830386038
 10
1239.229016416472
 20
1969.321574081702
 10
1239.123713529566
 20
1969.379101311007
 10
1239.020795349334
 20
1969.440793516999
 10
1238.920426522912
 20
1969.50655200531
 10
1238.82276761901
 20
1969.576271576387
 10
1238.727974871041
 20
1969.649840693787
 10
1238.636199927183
 20
1969.727141662617
 10
1238.547589607765
 20
1969.808050817817
 10
1238.462285670398
 20
1969.892438721998
 10
1238.380424583184
 20
1969.980170372515
 10
1238.3021373064
 20
1970.071105417444
 10
1238.227549082988
 20
1970.165098380109
 10
1238.156779238194
 20
1970.261998891822
 10
1238.089940988673
 20
1970.361651932435
 10
1238.027141261367
 20
1970.463898078341
 10
1237.968480522442
 20
1970.568573757518
 10
1237.914052616567
 20
1970.675511511209
 10
1237.863944616781
 20
1970.784540261821
 10
1237.818236685195
 20
1970.895485586609
 10
1237.777001944748
 20
1971.008169996723
 10
1237.740306362229
 20
1971.122413221143
 10
1237.708208642742
 20
1971.238032495082
 10
1237.680760135791
 20
1971.354842852365
 10
1237.658004753131
 20
1971.472657421339
 10
1237.639978898522
 20
1971.591287723825
 10
1237.626711409484
 20
1971.710543976647
 10
1237.61822351117
 20
1971.830235395239
 10
1237.614528782407
 20
1971.950170498865
 10
1237.614353943097
 20
1971.98255885004
1001
REVIT
1002
{
1070
     3
1000
923159
1002
}
  0
LWPOLYLINE
  5
284
330
274
100
AcDbEntity
  8
M-PIPE
100
AcDbPolyline
 90
       41
 70
   128
 43
0.0
 10
1237.614353943097
 20
1999.982558850052
 10
1237.614353943097
 20
1998.862857492825
 10
1237.614353943097
 20
1997.744947418914
 10
1237.614353943097
 20
1996.630617045961
 10
1237.614353943097
 20
1995.521649064851
 10
1237.614353943097
 20
1994.419817587788
 10
1237.614353943097
 20
1993.326885310089
 10
1237.614353943097
 20
1992.244600690253
 10
1237.614353943097
 20
1991.174695152797
 10
1237.614353943097
 20
1990.118880318345
 10
1237.614353943097
 20
1989.078845265405
 10
1237.614353943097
 20
1988.056253828199
 10
1237.614353943097
 20
1987.052741934885
 10
1237.614353943097
 20
1986.069914990421
 10
1237.614353943097
 20
1985.109345308261
 10
1237.614353943097
 20
1984.172569594984
 10
1237.614353943097
 20
1983.261086491897
 10
1237.614353943097
 20
1982.376354177527
 10
1237.614353943097
 20
1981.519788034842
 10
1237.614353943097
 20
1980.692758386948
 10
1237.614353943097
 20
1979.896588304857
 10
1237.614353943097
 20
1979.132551490859
 10
1237.614353943097
 20
1978.401870240871
 10
1237.614353943097
 20
1977.705713489024
 10
1237.614353943097
 20
1977.045194937614
 10
1237.614353943097
 20
1976.42137127542
 10
1237.614353943097
 20
1975.835240487228
 10
1237.614353943097
 20
1975.287740257262
 10
1237.614353943097
 20
1974.779746469099
 10
1237.614353943097
 20
1974.312071804431
 10
1237.614353943097
 20
1973.885464442958
 10
1237.614353943097
 20
1973.500606865453
 10
1237.614353943097
 20
1973.158114761942
 10
1237.614353943097
 20
1972.858536046729
 10
1237.614353943097
 20
1972.602349981851
 10
1237.614353943097
 20
1972.389966410363
 10
1237.614353943097
 20
1972.221725100673
 10
1237.614353943097
 20
1972.097895202986
 10
1237.614353943097
 20
1972.018674818723
 10
1237.614353943097
 20
1971.9841906836
 10
1237.614353943097
 20
1971.98255885004
1001
REVIT
1002
{
1070
     3
1000
923159
1002
}
  0
LWPOLYLINE
  5
285
330
274
100
AcDbEntity
  8
M-PIPE
100
AcDbPolyline
 90
       34
 70
   128
 43
0.0
 10
1237.614353943097
 20
1971.98255885004
 10
1237.614353943097
 20
1972.004955863532
 10
1237.614353943097
 20
1972.072111073566
 10
1237.614353943097
 20
1972.183917046131
 10
1237.614353943097
 20
1972.340194915522
 10
1237.614353943097
 20
1972.540694670485
 10
1237.614353943097
 20
1972.785095554183
 10
1237.614353943097
 20
1973.073006577338
 10
1237.614353943097
 20
1973.403967143732
 10
1237.614353943097
 20
1973.777447787058
 10
1237.614353943097
 20
1974.19285101796
 10
1237.614353943097
 20
1974.649512279882
 10
1237.614353943097
 20
1975.146701012221
 10
1237.614353943097
 20
1975.683621819067
 10
1237.614353943097
 20
1976.259415741665
 10
1237.614353943097
 20
1976.873161632571
 10
1237.614353943097
 20
1977.523877629282
 10
1237.614353943097
 20
1978.210522725016
 10
1237.614353943097
 20
1978.931998434097
 10
1237.614353943097
 20
1979.687150549297
 10
1237.614353943097
 20
1980.474770988323
 10
1237.614353943097
 20
1981.293599726487
 10
1237.614353943097
 20
1982.142326812484
 10
1237.614353943097
 20
1983.019594464027
 10
1237.614353943097
 20
1983.923999240016
 10
1237.614353943097
 20
1984.854094285737
 10
1237.614353943097
 20
1985.808391647528
 10
1237.614353943097
 20
1986.785364653181
 10
1237.614353943097
 20
1987.783450354298
 10
1237.614353943097
 20
1988.801052026671
 10
1237.614353943097
 20
1989.836541724701
 10
1237.614353943097
 20
1990.888262885762
 10
1237.614353943097
 20
1991.954532980354
 10
1237.614353943097
 20
1992.982558850036
1001
REVIT
1002
{
1070
     3
1000
923159
1002
}
  0
LINE
  5
286
330
274
100
AcDbEntity
  8
M-PIPE
100
AcDbLine
 10
1267.614353943095
 20
1999.982558850051
 30
0.0
 11
1267.614353943095
 21
2030.982558850062
 31
0.0
1001
REVIT
1002
{
1070
     3
1000
923159
1002
}
  0
LINE
  5
287
330
274
100
AcDbEntity
  8
M-PIPE
100
AcDbLine
 10
1267.614353943095
 20
1968.982558850039
 30
0.0
 11
1267.614353943095
 21
1999.982558850051
 31
0.0
1001
REVIT
1002
{
1070
     3
1000
923159
1002
}
  0
LINE
  5
288
330
274
100
AcDbEntity
  8
P-SANR-FIXT
100
AcDbLine
 10
1134.614353943062
 20
1990.482558850075
 30
0.0
 11
1139.614353943062
 21
1990.482558850075
 31
0.0
  0
LINE
  5
289
330
274
100
AcDbEntity
  8
P-SANR-FIXT
100
AcDbLine
 10
1139.614353943062
 20
2009.482558849947
 30
0.0
 11
1134.614353943062
 21
2009.482558849947
 31
0.0
  0
LINE
  5
28A
330
274
100
AcDbEntity
  8
P-SANR-FIXT
100
AcDbLine
 10
1133.614353943062
 20
1991.482558850075
 30
0.0
 11
1134.614353943062
 21
1990.482558850075
 31
0.0
  0
LINE
  5
28B
330
274
100
AcDbEntity
  8
P-SANR-FIXT
100
AcDbLine
 10
1134.614353943062
 20
2009.482558849947
 30
0.0
 11
1133.614353943062
 21
2008.482558849948
 31
0.0
  0
LINE
  5
28C
330
274
100
AcDbEntity
  8
P-SANR-FIXT
100
AcDbLine
 10
1134.61435394306
 20
2009.482558849947
 30
0.0
 11
1134.61435394306
 21
1990.482558850074
 31
0.0
  0
LINE
  5
28D
330
274
100
AcDbEntity
  8
P-SANR-FIXT
100
AcDbLine
 10
1139.61435394306
 20
1990.482558850074
 30
0.0
 11
1139.61435394306
 21
2009.482558849947
 31
0.0
  0
LINE
  5
28E
330
274
100
AcDbEntity
  8
P-SANR-FIXT
100
AcDbLine
 10
1133.61435394306
 20
1991.482558850074
 30
0.0
 11
1133.61435394306
 21
2008.482558849947
 31
0.0
  0
ARC
  5
28F
330
274
100
AcDbEntity
  8
P-SANR-FIXT
100
AcDbCircle
 10
1182.114353943077
 20
1999.982558850011
 30
0.0
 40
33.00000000001808
100
AcDbArc
 50
90.00000000000058
 51
120.0000000000007
  0
ARC
  5
290
330
274
100
AcDbEntity
  8
P-SANR-FIXT
100
AcDbCircle
 10
1182.114353943077
 20
1999.982558850011
 30
0.0
 40
33.00000000001801
100
AcDbArc
 50
120.0000000000006
 51
180.0000000000004
  0
ARC
  5
291
330
274
100
AcDbEntity
  8
P-SANR-FIXT
100
AcDbCircle
 10
1182.114353943077
 20
1999.982558850011
 30
0.0
 40
33.00000000001808
100
AcDbArc
 50
180.0000000000006
 51
240.0000000000005
  0
ARC
  5
292
330
274
100
AcDbEntity
  8
P-SANR-FIXT
100
AcDbCircle
 10
1182.114353943077
 20
1999.982558850011
 30
0.0
 40
33.00000000001786
100
AcDbArc
 50
240.0000000000002
 51
269.9999999999993
  0
ARC
  5
293
330
274
100
AcDbEntity
  8
P-SANR-FIXT
100
AcDbCircle
 10
1182.114353943077
 20
1999.982558850011
 30
0.0
 40
33.00000000001785
100
AcDbArc
 50
269.9999999999991
 51
299.9999999999994
  0
ARC
  5
294
330
274
100
AcDbEntity
  8
P-SANR-FIXT
100
AcDbCircle
 10
1182.114353943077
 20
1999.982558850011
 30
0.0
 40
33.00000000001797
100
AcDbArc
 50
299.9999999999993
 51
359.9999999999988
  0
ARC
  5
295
330
274
100
AcDbEntity
  8
P-SANR-FIXT
100
AcDbCircle
 10
1182.114353943077
 20
1999.982558850011
 30
0.0
 40
33.00000000001808
100
AcDbArc
 50
359.9999999999994
 51
59.99999999999981
  0
ARC
  5
296
330
274
100
AcDbEntity
  8
P-SANR-FIXT
100
AcDbCircle
 10
1182.114353943077
 20
1999.982558850011
 30
0.0
 40
33.00000000001801
100
AcDbArc
 50
59.99999999999944
 51
89.9999999999992
  0
ARC
  5
297
330
274
100
AcDbEntity
  8
P-SANR-FIXT
100
AcDbCircle
 10
1182.114353943161
 20
1999.982558850011
 30
0.0
 40
35.99999999998355
100
AcDbArc
 50
23.55646430910308
 51
36.44353569094755
  0
SPLINE
  5
298
330
274
100
AcDbEntity
  8
P-SANR-FIXT
100
AcDbSpline
210
0.0
220
0.0
230
1.0
 70
    24
 71
     3
 72
     9
 73
     5
 74
     0
 42
0.000000001
 43
0.0000000001
 40
0.0
 40
0.0
 40
0.0
 40
0.0
 40
0.5
 40
1.0
 40
1.0
 40
1.0
 40
1.0
 10
1215.114353943145
 20
2014.370053419945
 30
0.0
 10
1215.114353943145
 20
2012.004288547101
 30
0.0
 10
1215.114353943145
 20
2007.240607912601
 30
0.0
 10
1215.114353943145
 20
2002.412625500478
 30
0.0
 10
1215.114353943145
 20
1999.982558850011
 30
0.0
  0
SPLINE
  5
299
330
274
100
AcDbEntity
  8
P-SANR-FIXT
100
AcDbSpline
210
0.0
220
0.0
230
1.0
 70
    24
 71
     3
 72
     9
 73
     5
 74
     0
 42
0.000000001
 43
0.0000000001
 40
0.0
 40
0.0
 40
0.0
 40
0.0
 40
0.5
 40
1.0
 40
1.0
 40
1.0
 40
1.0
 10
1215.114353943145
 20
1999.982558850011
 30
0.0
 10
1215.114353943145
 20
1997.552492199544
 30
0.0
 10
1215.114353943145
 20
1992.724509787422
 30
0.0
 10
1215.114353943145
 20
1987.960829152923
 30
0.0
 10
1215.114353943145
 20
1985.595064280079
 30
0.0
  0
ARC
  5
29A
330
274
100
AcDbEntity
  8
P-SANR-FIXT
100
AcDbCircle
 10
1182.114353943161
 20
1999.982558850011
 30
0.0
 40
35.99999999998365
100
AcDbArc
 50
323.5564643090698
 51
336.4435356908977
  0
SPLINE
  5
29B
330
274
100
AcDbEntity
  8
P-SANR-FIXT
100
AcDbSpline
210
0.0
220
0.0
230
1.0
 70
    24
 71
     3
 72
     9
 73
     5
 74
     0
 42
0.000000001
 43
0.0000000001
 40
0.0
 40
0.0
 40
0.0
 40
0.0
 40
0.5
 40
1.0
 40
1.0
 40
1.0
 40
1.0
 10
1211.074289737513
 20
1978.597467810088
 30
0.0
 10
1209.025477258242
 20
1977.414585373662
 30
0.0
 10
1204.900008813235
 20
1975.032745056404
 30
0.0
 10
1200.718853395297
 20
1972.618753850333
 30
0.0
 10
1198.614353943095
 20
1971.403720525095
 30
0.0
  0
SPLINE
  5
29C
330
274
100
AcDbEntity
  8
P-SANR-FIXT
100
AcDbSpline
210
0.0
220
0.0
230
1.0
 70
    24
 71
     3
 72
     9
 73
     5
 74
     0
 42
0.000000001
 43
0.0000000001
 40
0.0
 40
0.0
 40
0.0
 40
0.0
 40
0.5
 40
1.0
 40
1.0
 40
1.0
 40
1.0
 10
1198.614353943095
 20
1971.403720525095
 30
0.0
 10
1196.509854490914
 20
1970.188687199869
 30
0.0
 10
1192.328699073019
 20
1967.774695993824
 30
0.0
 10
1188.203230628053
 20
1965.392855676589
 30
0.0
 10
1186.154418148802
 20
1964.209973240175
 30
0.0
  0
ARC
  5
29D
330
274
100
AcDbEntity
  8
P-SANR-FIXT
100
AcDbCircle
 10
1182.114353943161
 20
1999.982558850011
 30
0.0
 40
35.99999999998396
100
AcDbArc
 50
269.9999999998676
 51
276.4435356909315
  0
ARC
  5
29E
330
274
100
AcDbEntity
  8
P-SANR-FIXT
100
AcDbCircle
 10
1182.114353943161
 20
1999.982558850011
 30
0.0
 40
35.99999999998359
100
AcDbArc
 50
263.556464308983
 51
269.9999999998674
  0
SPLINE
  5
29F
330
274
100
AcDbEntity
  8
P-SANR-FIXT
100
AcDbSpline
210
0.0
220
0.0
230
1.0
 70
    24
 71
     3
 72
     9
 73
     5
 74
     0
 42
0.000000001
 43
0.0000000001
 40
0.0
 40
0.0
 40
0.0
 40
0.0
 40
0.5
 40
1.0
 40
1.0
 40
1.0
 40
1.0
 10
1178.074289737466
 20
1964.209973240181
 30
0.0
 10
1176.025477258203
 20
1965.392855676602
 30
0.0
 10
1171.900008813211
 20
1967.774695993852
 30
0.0
 10
1167.718853395287
 20
1970.188687199914
 30
0.0
 10
1165.614353943092
 20
1971.403720525148
 30
0.0
  0
SPLINE
  5
2A0
330
274
100
AcDbEntity
  8
P-SANR-FIXT
100
AcDbSpline
210
0.0
220
0.0
230
1.0
 70
    24
 71
     3
 72
     9
 73
     5
 74
     0
 42
0.000000001
 43
0.0000000001
 40
0.0
 40
0.0
 40
0.0
 40
0.0
 40
0.5
 40
1.0
 40
1.0
 40
1.0
 40
1.0
 10
1165.614353943092
 20
1971.403720525148
 30
0.0
 10
1163.509854490918
 20
1972.61875385037
 30
0.0
 10
1159.328699073036
 20
1975.032745056408
 30
0.0
 10
1155.203230628084
 20
1977.414585373634
 30
0.0
 10
1153.154418148841
 20
1978.597467810043
 30
0.0
  0
ARC
  5
2A1
330
274
100
AcDbEntity
  8
P-SANR-FIXT
100
AcDbCircle
 10
1182.114353943161
 20
1999.982558850011
 30
0.0
 40
35.99999999998408
100
AcDbArc
 50
203.556464308932
 51
216.4435356910179
  0
SPLINE
  5
2A2
330
274
100
AcDbEntity
  8
P-SANR-FIXT
100
AcDbSpline
210
0.0
220
0.0
230
1.0
 70
    24
 71
     3
 72
     9
 73
     5
 74
     0
 42
0.000000001
 43
0.0000000001
 40
0.0
 40
0.0
 40
0.0
 40
0.0
 40
0.5
 40
1.0
 40
1.0
 40
1.0
 40
1.0
 10
1149.114353943133
 20
1985.595064280178
 30
0.0
 10
1149.114353943133
 20
1987.960829153004
 30
0.0
 10
1149.114353943133
 20
1992.724509787469
 30
0.0
 10
1149.114353943133
 20
1997.552492199559
 30
0.0
 10
1149.114353943133
 20
1999.98255885001
 30
0.0
  0
SPLINE
  5
2A3
330
274
100
AcDbEntity
  8
P-SANR-FIXT
100
AcDbSpline
210
0.0
220
0.0
230
1.0
 70
    24
 71
     3
 72
     9
 73
     5
 74
     0
 42
0.000000001
 43
0.0000000001
 40
0.0
 40
0.0
 40
0.0
 40
0.0
 40
0.5
 40
1.0
 40
1.0
 40
1.0
 40
1.0
 10
1149.114353943133
 20
1999.98255885001
 30
0.0
 10
1149.114353943133
 20
2002.412625500462
 30
0.0
 10
1149.114353943133
 20
2007.240607912553
 30
0.0
 10
1149.114353943133
 20
2012.004288547019
 30
0.0
 10
1149.114353943133
 20
2014.370053419845
 30
0.0
  0
ARC
  5
2A4
330
274
100
AcDbEntity
  8
P-SANR-FIXT
100
AcDbCircle
 10
1182.114353943161
 20
1999.982558850011
 30
0.0
 40
35.99999999998391
100
AcDbArc
 50
143.5564643089659
 51
156.4435356910686
  0
SPLINE
  5
2A5
330
274
100
AcDbEntity
  8
P-SANR-FIXT
100
AcDbSpline
210
0.0
220
0.0
230
1.0
 70
    24
 71
     3
 72
     9
 73
     5
 74
     0
 42
0.000000001
 43
0.0000000001
 40
0.0
 40
0.0
 40
0.0
 40
0.0
 40
0.5
 40
1.0
 40
1.0
 40
1.0
 40
1.0
 10
1153.154418148847
 20
2021.367649889988
 30
0.0
 10
1155.203230628089
 20
2022.550532326397
 30
0.0
 10
1159.328699073037
 20
2024.932372643621
 30
0.0
 10
1163.509854490916
 20
2027.346363849658
 30
0.0
 10
1165.614353943088
 20
2028.561397174879
 30
0.0
  0
SPLINE
  5
2A6
330
274
100
AcDbEntity
  8
P-SANR-FIXT
100
AcDbSpline
210
0.0
220
0.0
230
1.0
 70
    24
 71
     3
 72
     9
 73
     5
 74
     0
 42
0.000000001
 43
0.0000000001
 40
0.0
 40
0.0
 40
0.0
 40
0.0
 40
0.5
 40
1.0
 40
1.0
 40
1.0
 40
1.0
 10
1165.614353943088
 20
2028.561397174879
 30
0.0
 10
1167.718853395282
 20
2029.776430500112
 30
0.0
 10
1171.900008813203
 20
2032.190421706173
 30
0.0
 10
1176.025477258193
 20
2034.572262023421
 30
0.0
 10
1178.074289737455
 20
2035.755144459842
 30
0.0
  0
ARC
  5
2A7
330
274
100
AcDbEntity
  8
P-SANR-FIXT
100
AcDbCircle
 10
1182.114353943161
 20
1999.982558850011
 30
0.0
 40
35.99999999998368
100
AcDbArc
 50
90.00000000013207
 51
96.44353569103431
  0
ARC
  5
2A8
330
274
100
AcDbEntity
  8
P-SANR-FIXT
100
AcDbCircle
 10
1182.114353943161
 20
1999.982558850011
 30
0.0
 40
35.99999999998412
100
AcDbArc
 50
83.55646430905141
 51
90.00000000013189
  0
SPLINE
  5
2A9
330
274
100
AcDbEntity
  8
P-SANR-FIXT
100
AcDbSpline
210
0.0
220
0.0
230
1.0
 70
    24
 71
     3
 72
     9
 73
     5
 74
     0
 42
0.000000001
 43
0.0000000001
 40
0.0
 40
0.0
 40
0.0
 40
0.0
 40
0.5
 40
1.0
 40
1.0
 40
1.0
 40
1.0
 10
1186.154418148813
 20
2035.755144459848
 30
0.0
 10
1188.203230628062
 20
2034.572262023434
 30
0.0
 10
1192.328699073026
 20
2032.190421706201
 30
0.0
 10
1196.509854490919
 20
2029.776430500157
 30
0.0
 10
1198.614353943098
 20
2028.561397174932
 30
0.0
  0
SPLINE
  5
2AA
330
274
100
AcDbEntity
  8
P-SANR-FIXT
100
AcDbSpline
210
0.0
220
0.0
230
1.0
 70
    24
 71
     3
 72
     9
 73
     5
 74
     0
 42
0.000000001
 43
0.0000000001
 40
0.0
 40
0.0
 40
0.0
 40
0.0
 40
0.5
 40
1.0
 40
1.0
 40
1.0
 40
1.0
 10
1198.614353943098
 20
2028.561397174932
 30
0.0
 10
1200.718853395298
 20
2027.346363849694
 30
0.0
 10
1204.900008813233
 20
2024.932372643626
 30
0.0
 10
1209.025477258237
 20
2022.55053232637
 30
0.0
 10
1211.074289737507
 20
2021.367649889945
 30
0.0
  0
LINE
  5
2AB
330
274
100
AcDbEntity
  8
P-SANR-FIXT
100
AcDbLine
 10
1168.614165852169
 20
1937.271342578928
 30
0.0
 11
1169.11435394308
 21
1936.982558849995
 31
0.0
  0
LINE
  5
2AC
330
274
100
AcDbEntity
  8
P-SANR-FIXT
100
AcDbLine
 10
1195.114353943079
 20
1936.982558849995
 30
0.0
 11
1195.614542033989
 21
1937.271342578927
 31
0.0
  0
LINE
  5
2AD
330
274
100
AcDbEntity
  8
P-SANR-FIXT
100
AcDbLine
 10
1169.460764104621
 20
1942.182558850011
 30
0.0
 11
1168.614165852169
 21
1941.693775121063
 31
0.0
  0
LINE
  5
2AE
330
274
100
AcDbEntity
  8
P-SANR-FIXT
100
AcDbLine
 10
1195.614542033989
 20
1941.693775121063
 30
0.0
 11
1194.767943781538
 21
1942.182558850011
 31
0.0
  0
LINE
  5
2AF
330
274
100
AcDbEntity
  8
P-SANR-FIXT
100
AcDbLine
 10
1182.114353943078
 20
1936.982558849994
 30
0.0
 11
1169.114353943078
 21
1936.982558849994
 31
0.0
  0
LINE
  5
2B0
330
274
100
AcDbEntity
  8
P-SANR-FIXT
100
AcDbLine
 10
1195.114353943078
 20
1936.982558849994
 30
0.0
 11
1182.114353943078
 21
1936.982558849994
 31
0.0
  0
LINE
  5
2B1
330
274
100
AcDbEntity
  8
P-SANR-FIXT
100
AcDbLine
 10
1180.51065115563
 20
1940.972195878914
 30
0.0
 11
1180.51065115563
 21
1937.992921821075
 31
0.0
  0
LINE
  5
2B2
330
274
100
AcDbEntity
  8
P-SANR-FIXT
100
AcDbLine
 10
1180.51065115563
 20
1937.992921821076
 30
0.0
 11
1182.114353943078
 21
1937.992921821076
 31
0.0
  0
LINE
  5
2B3
330
274
100
AcDbEntity
  8
P-SANR-FIXT
100
AcDbLine
 10
1182.114353943078
 20
1937.992921821076
 30
0.0
 11
1183.718056730524
 21
1937.992921821076
 31
0.0
  0
LINE
  5
2B4
330
274
100
AcDbEntity
  8
P-SANR-FIXT
100
AcDbLine
 10
1183.718056730524
 20
1940.972195878913
 30
0.0
 11
1182.114353943078
 21
1940.972195878913
 31
0.0
  0
LINE
  5
2B5
330
274
100
AcDbEntity
  8
P-SANR-FIXT
100
AcDbLine
 10
1182.114353943078
 20
1940.972195878913
 30
0.0
 11
1180.51065115563
 21
1940.972195878913
 31
0.0
  0
LINE
  5
2B6
330
274
100
AcDbEntity
  8
P-SANR-FIXT
100
AcDbLine
 10
1183.718056730524
 20
1937.992921821075
 30
0.0
 11
1183.718056730524
 21
1940.972195878914
 31
0.0
  0
SPLINE
  5
2B7
330
274
100
AcDbEntity
  8
P-SANR-FIXT
100
AcDbSpline
210
0.0
220
0.0
230
1.0
 70
     8
 71
     3
 72
     9
 73
     5
 74
     0
 42
0.000000001
 43
0.0000000001
 40
0.0
 40
0.0
 40
0.0
 40
0.0
 40
0.5
 40
1.0
 40
1.0
 40
1.0
 40
1.0
 10
1183.718056730524
 20
1937.992921821075
 30
0.0
 10
1185.46203946791
 20
1937.511831456681
 30
0.0
 10
1188.92145460948
 20
1937.030741092288
 30
0.0
 10
1192.323769084648
 20
1937.511831456681
 30
0.0
 10
1194.010651155632
 20
1937.992921821075
 30
0.0
  0
SPLINE
  5
2B8
330
274
100
AcDbEntity
  8
P-SANR-FIXT
100
AcDbSpline
210
0.0
220
0.0
230
1.0
 70
     8
 71
     3
 72
     9
 73
     5
 74
     0
 42
0.000000001
 43
0.0000000001
 40
0.0
 40
0.0
 40
0.0
 40
0.0
 40
0.5
 40
1.0
 40
1.0
 40
1.0
 40
1.0
 10
1194.010651155632
 20
1940.972195878914
 30
0.0
 10
1192.323769084648
 20
1941.453286243307
 30
0.0
 10
1188.92145460948
 20
1941.934376607702
 30
0.0
 10
1185.46203946791
 20
1941.453286243307
 30
0.0
 10
1183.718056730524
 20
1940.972195878914
 30
0.0
  0
LINE
  5
2B9
330
274
100
AcDbEntity
  8
P-SANR-FIXT
100
AcDbLine
 10
1194.010651155632
 20
1937.992921821075
 30
0.0
 11
1194.010651155632
 21
1940.972195878914
 31
0.0
  0
LINE
  5
2BA
330
274
100
AcDbEntity
  8
P-SANR-FIXT
100
AcDbLine
 10
1194.010651155632
 20
1937.992921821076
 30
0.0
 11
1195.614353943079
 21
1937.992921821076
 31
0.0
  0
LINE
  5
2BB
330
274
100
AcDbEntity
  8
P-SANR-FIXT
100
AcDbLine
 10
1195.614353943079
 20
1940.972195878913
 30
0.0
 11
1194.010651155632
 21
1940.972195878913
 31
0.0
  0
LINE
  5
2BC
330
274
100
AcDbEntity
  8
P-SANR-FIXT
100
AcDbLine
 10
1195.614353943079
 20
1937.992921821075
 30
0.0
 11
1195.614353943079
 21
1940.972195878914
 31
0.0
  0
SPLINE
  5
2BD
330
274
100
AcDbEntity
  8
P-SANR-FIXT
100
AcDbSpline
210
0.0
220
0.0
230
1.0
 70
    24
 71
     3
 72
     8
 73
     4
 74
     0
 42
0.000000001
 43
0.0000000001
 40
0.0
 40
0.0
 40
0.0
 40
0.0
 40
0.5
 40
0.5
 40
0.5
 40
0.5
 10
1195.614353943079
 20
1937.992921821075
 30
0.0
 10
1195.614353943079
 20
1937.511831456681
 30
0.0
 10
1195.614353943079
 20
1937.271286274485
 30
0.0
 10
1195.614353943079
 20
1937.271286274485
 30
0.0
  0
SPLINE
  5
2BE
330
274
100
AcDbEntity
  8
P-SANR-FIXT
100
AcDbSpline
210
0.0
220
0.0
230
1.0
 70
    24
 71
     3
 72
     8
 73
     4
 74
     0
 42
0.000000001
 43
0.0000000001
 40
0.5
 40
0.5
 40
0.5
 40
0.5
 40
1.0
 40
1.0
 40
1.0
 40
1.0
 10
1195.614353943079
 20
1941.693831425504
 30
0.0
 10
1195.614353943079
 20
1941.693831425504
 30
0.0
 10
1195.614353943079
 20
1941.453286243307
 30
0.0
 10
1195.614353943079
 20
1940.972195878914
 30
0.0
  0
SPLINE
  5
2BF
330
274
100
AcDbEntity
  8
P-SANR-FIXT
100
AcDbSpline
210
0.0
220
0.0
230
1.0
 70
    24
 71
     3
 72
     9
 73
     5
 74
     0
 42
0.000000001
 43
0.0000000001
 40
0.4955834579153726
 40
0.4955834579153726
 40
0.4955834579153726
 40
0.4955834579153726
 40
0.5
 40
1.0
 40
1.0
 40
1.0
 40
1.0
 10
1168.614353943076
 20
1937.271342578927
 30
0.0
 10
1168.614353943076
 20
1937.271305042633
 30
0.0
 10
1168.614353943076
 20
1937.269161518644
 30
0.0
 10
1168.614353943076
 20
1937.511831456876
 30
0.0
 10
1168.614353943076
 20
1937.992921821076
 30
0.0
  0
SPLINE
  5
2C0
330
274
100
AcDbEntity
  8
P-SANR-FIXT
100
AcDbSpline
210
0.0
220
0.0
230
1.0
 70
    24
 71
     3
 72
     9
 73
     5
 74
     0
 42
0.000000001
 43
0.0000000001
 40
0.0
 40
0.0
 40
0.0
 40
0.0
 40
0.5
 40
0.5044165420846279
 40
0.5044165420846279
 40
0.5044165420846279
 40
0.5044165420846279
 10
1168.614353943076
 20
1940.972195878913
 30
0.0
 10
1168.614353943076
 20
1941.453286243307
 30
0.0
 10
1168.614353943076
 20
1941.695956181344
 30
0.0
 10
1168.614353943076
 20
1941.693812657356
 30
0.0
 10
1168.614353943076
 20
1941.693775121062
 30
0.0
  0
LINE
  5
2C1
330
274
100
AcDbEntity
  8
P-SANR-FIXT
100
AcDbLine
 10
1168.614353943076
 20
1937.992921821076
 30
0.0
 11
1168.614353943076
 21
1940.972195878913
 31
0.0
  0
LINE
  5
2C2
330
274
100
AcDbEntity
  8
P-SANR-FIXT
100
AcDbLine
 10
1168.614353943076
 20
1937.992921821076
 30
0.0
 11
1170.218056730522
 21
1937.992921821076
 31
0.0
  0
LINE
  5
2C3
330
274
100
AcDbEntity
  8
P-SANR-FIXT
100
AcDbLine
 10
1170.218056730523
 20
1940.972195878913
 30
0.0
 11
1168.614353943076
 21
1940.972195878913
 31
0.0
  0
SPLINE
  5
2C4
330
274
100
AcDbEntity
  8
P-SANR-FIXT
100
AcDbSpline
210
0.0
220
0.0
230
1.0
 70
     8
 71
     3
 72
     9
 73
     5
 74
     0
 42
0.000000001
 43
0.0000000001
 40
0.0
 40
0.0
 40
0.0
 40
0.0
 40
0.5
 40
1.0
 40
1.0
 40
1.0
 40
1.0
 10
1180.51065115563
 20
1940.972195878914
 30
0.0
 10
1178.766668418245
 20
1941.453286243307
 30
0.0
 10
1175.307253276675
 20
1941.934376607701
 30
0.0
 10
1171.904938801506
 20
1941.453286243307
 30
0.0
 10
1170.218056730522
 20
1940.972195878913
 30
0.0
  0
LINE
  5
2C5
330
274
100
AcDbEntity
  8
P-SANR-FIXT
100
AcDbLine
 10
1170.218056730522
 20
1937.992921821076
 30
0.0
 11
1170.218056730522
 21
1940.972195878913
 31
0.0
  0
SPLINE
  5
2C6
330
274
100
AcDbEntity
  8
P-SANR-FIXT
100
AcDbSpline
210
0.0
220
0.0
230
1.0
 70
     8
 71
     3
 72
     9
 73
     5
 74
     0
 42
0.000000001
 43
0.0000000001
 40
0.0
 40
0.0
 40
0.0
 40
0.0
 40
0.5
 40
1.0
 40
1.0
 40
1.0
 40
1.0
 10
1170.218056730522
 20
1937.992921821076
 30
0.0
 10
1171.904938801506
 20
1937.511831456682
 30
0.0
 10
1175.307253276675
 20
1937.030741092288
 30
0.0
 10
1178.766668418245
 20
1937.511831456682
 30
0.0
 10
1180.51065115563
 20
1937.992921821075
 30
0.0
  0
LINE
  5
2C7
330
274
100
AcDbEntity
  8
P-SANR-FIXT
100
AcDbLine
 10
1161.61435394308
 20
2061.982558850039
 30
0.0
 11
1161.114069239475
 21
2061.693719341741
 31
0.0
  0
LINE
  5
2C8
330
274
100
AcDbEntity
  8
P-SANR-FIXT
100
AcDbLine
 10
1203.114638646682
 20
2061.693719341743
 30
0.0
 11
1202.614353943079
 21
2061.982558850039
 31
0.0
  0
LINE
  5
2C9
330
274
100
AcDbEntity
  8
P-SANR-FIXT
100
AcDbLine
 10
1159.114353943079
 20
2048.331923755434
 30
0.0
 11
1147.726125375426
 21
2045.28045710751
 31
0.0
  0
LINE
  5
2CA
330
274
100
AcDbEntity
  8
P-SANR-FIXT
100
AcDbLine
 10
1216.502582510734
 20
2045.28045710751
 30
0.0
 11
1205.114353943078
 21
2048.331923755435
 31
0.0
  0
LWPOLYLINE
  5
2CB
330
274
100
AcDbEntity
  8
P-SANR-FIXT
100
AcDbPolyline
 90
       34
 70
   128
 43
0.0
 10
1146.614353943079
 20
2043.831568368077
 10
1146.615553783088
 20
2043.891552369357
 10
1146.619151383626
 20
2043.95144040903
 10
1146.625140989299
 20
2044.01113667901
 10
1146.633513018016
 20
2044.070545677998
 10
1146.644254076318
 20
2044.129572364269
 10
1146.657346980801
 20
2044.188122307717
 10
1146.672770785613
 20
2044.246101840923
 10
1146.690500815956
 20
2044.303418209
 10
1146.710508707562
 20
2044.359979717989
 10
1146.732762452075
 20
2044.41569588154
 10
1146.757226448249
 20
2044.470477565676
 10
1146.78386155891
 20
2044.524237131389
 10
1146.812625173563
 20
2044.576888574842
 10
1146.843471276559
 20
2044.628347664958
 10
1146.876350520715
 20
2044.678532078169
 10
1146.911210306253
 20
2044.72736153012
 10
1146.947994864953
 20
2044.774757904104
 10
1146.986645349368
 20
2044.820645376034
 10
1147.027099926968
 20
2044.864950535743
 10
1147.069293879059
 20
2044.907602504426
 10
1147.113159704318
 20
2044.948533048033
 10
1147.158627226782
 20
2044.987676686425
 10
1147.205623708114
 20
2045.024970798131
 10
1147.254073963971
 20
2045.060355720528
 10
1147.303900484277
 20
2045.093774845288
 10
1147.35502355723
 20
2045.125174708942
 10
1147.407361396819
 20
2045.154505078404
 10
1147.460830273664
 20
2045.181719031341
 10
1147.51534464897
 20
2045.206773031234
 10
1147.570817311365
 20
2045.229626997028
 10
1147.627159516422
 20
2045.250244367251
 10
1147.684281128632
 20
2045.26859215851
 10
1147.726125375426
 20
2045.28045710751
  0
LWPOLYLINE
  5
2CC
330
274
100
AcDbEntity
  8
P-SANR-FIXT
100
AcDbPolyline
 90
       34
 70
   128
 43
0.0
 10
1216.502582510734
 20
2045.28045710751
 10
1216.560212065289
 20
2045.263773149126
 10
1216.61712834196
 20
2045.244797968612
 10
1216.673240286845
 20
2045.223561922211
 10
1216.728458132804
 20
2045.200098983066
 10
1216.78269354306
 20
2045.174446686875
 10
1216.835859752529
 20
2045.146646071839
 10
1216.887871706615
 20
2045.116741613012
 10
1216.938646197287
 20
2045.084781151148
 10
1216.988101996193
 20
2045.050815816169
 10
1217.036159984603
 20
2045.014899945366
 10
1217.082743279989
 20
2044.97709099647
 10
1217.127777359014
 20
2044.937449455733
 10
1217.171190176759
 20
2044.896038741165
 10
1217.212912281976
 20
2044.852925101075
 10
1217.252876928198
 20
2044.808177508091
 10
1217.291020180515
 20
2044.761867548813
 10
1217.327281017862
 20
2044.7140693093
 10
1217.361601430633
 20
2044.664859256538
 10
1217.393926513489
 20
2044.614316116114
 10
1217.424204553193
 20
2044.56252074627
 10
1217.452387111341
 20
2044.509556008549
 10
1217.478429101851
 20
2044.455506635233
 10
1217.502288863095
 20
2044.40045909379
 10
1217.523928224544
 20
2044.344501448541
 10
1217.543312567835
 20
2044.287723219785
 10
1217.560410882155
 20
2044.230215240573
 10
1217.575195813849
 20
2044.172069511406
 10
1217.587643710178
 20
2044.113379053046
 10
1217.597734657166
 20
2044.054237757706
 10
1217.605452511449
 20
2043.994740238842
 10
1217.610784926106
 20
2043.934981679794
 10
1217.613723370411
 20
2043.875057681507
 10
1217.61435394308
 20
2043.831568368077
  0
LINE
  5
2CD
330
274
100
AcDbEntity
  8
P-SANR-FIXT
100
AcDbLine
 10
1146.614353943079
 20
2043.831568368077
 30
0.0
 11
1146.614353943079
 21
2042.982558850011
 31
0.0
  0
LINE
  5
2CE
330
274
100
AcDbEntity
  8
P-SANR-FIXT
100
AcDbLine
 10
1217.61435394308
 20
2042.982558850011
 30
0.0
 11
1217.61435394308
 21
2043.831568368077
 31
0.0
  0
LINE
  5
2CF
330
274
100
AcDbEntity
  8
P-SANR-FIXT
100
AcDbLine
 10
1161.61435394308
 20
2125.982558850038
 30
0.0
 11
1161.61435394308
 21
2061.982558850039
 31
0.0
  0
LINE
  5
2D0
330
274
100
AcDbEntity
  8
P-SANR-FIXT
100
AcDbLine
 10
1202.614353943079
 20
2061.982558850039
 30
0.0
 11
1202.614353943079
 21
2125.982558850038
 31
0.0
  0
LINE
  5
2D1
330
274
100
AcDbEntity
  8
P-SANR-FIXT
100
AcDbLine
 10
1179.738392347754
 20
2060.539183177064
 30
0.0
 11
1179.738392347754
 21
2048.331923755434
 31
0.0
  0
LINE
  5
2D2
330
274
100
AcDbEntity
  8
P-SANR-FIXT
100
AcDbLine
 10
1179.738392347754
 20
2048.331923755434
 30
0.0
 11
1182.114353943077
 21
2048.331923755434
 31
0.0
  0
LINE
  5
2D3
330
274
100
AcDbEntity
  8
P-SANR-FIXT
100
AcDbLine
 10
1182.114353943078
 20
2048.331923755434
 30
0.0
 11
1184.4903155384
 21
2048.331923755434
 31
0.0
  0
LINE
  5
2D4
330
274
100
AcDbEntity
  8
P-SANR-FIXT
100
AcDbLine
 10
1184.4903155384
 20
2060.539183177064
 30
0.0
 11
1182.114353943078
 21
2060.539183177064
 31
0.0
  0
LINE
  5
2D5
330
274
100
AcDbEntity
  8
P-SANR-FIXT
100
AcDbLine
 10
1182.114353943078
 20
2060.539183177064
 30
0.0
 11
1179.738392347754
 21
2060.539183177064
 31
0.0
  0
LINE
  5
2D6
330
274
100
AcDbEntity
  8
P-SANR-FIXT
100
AcDbLine
 10
1184.4903155384
 20
2048.331923755434
 30
0.0
 11
1184.4903155384
 21
2060.539183177064
 31
0.0
  0
SPLINE
  5
2D7
330
274
100
AcDbEntity
  8
P-SANR-FIXT
100
AcDbSpline
210
0.0
220
0.0
230
1.0
 70
     8
 71
     3
 72
     9
 73
     5
 74
     0
 42
0.000000001
 43
0.0000000001
 40
0.0
 40
0.0
 40
0.0
 40
0.0
 40
0.5
 40
1.0
 40
1.0
 40
1.0
 40
1.0
 10
1200.738392347737
 20
2060.539183177064
 30
0.0
 10
1198.074165575546
 20
2061.308930826382
 30
0.0
 10
1192.7019260018
 20
2062.078678475699
 30
0.0
 10
1187.242114369322
 20
2061.308930826381
 30
0.0
 10
1184.4903155384
 20
2060.539183177064
 30
0.0
  0
LINE
  5
2D8
330
274
100
AcDbEntity
  8
P-SANR-FIXT
100
AcDbLine
 10
1200.738392347737
 20
2048.331923755434
 30
0.0
 11
1200.738392347737
 21
2060.539183177064
 31
0.0
  0
LINE
  5
2D9
330
274
100
AcDbEntity
  8
P-SANR-FIXT
100
AcDbLine
 10
1200.738392347737
 20
2048.331923755434
 30
0.0
 11
1203.11435394306
 21
2048.331923755434
 31
0.0
  0
LINE
  5
2DA
330
274
100
AcDbEntity
  8
P-SANR-FIXT
100
AcDbLine
 10
1203.11435394306
 20
2060.539183177064
 30
0.0
 11
1200.738392347737
 21
2060.539183177064
 31
0.0
  0
LINE
  5
2DB
330
274
100
AcDbEntity
  8
P-SANR-FIXT
100
AcDbLine
 10
1203.11435394306
 20
2048.331923755434
 30
0.0
 11
1203.11435394306
 21
2060.539183177064
 31
0.0
  0
SPLINE
  5
2DC
330
274
100
AcDbEntity
  8
P-SANR-FIXT
100
AcDbSpline
210
0.0
220
0.0
230
1.0
 70
    24
 71
     3
 72
     8
 73
     4
 74
     0
 42
0.000000001
 43
0.0000000001
 40
0.5
 40
0.5
 40
0.5
 40
0.5
 40
1.0
 40
1.0
 40
1.0
 40
1.0
 10
1203.11435394306
 20
2061.693804651041
 30
0.0
 10
1203.11435394306
 20
2061.693804651041
 30
0.0
 10
1203.11435394306
 20
2061.308930826382
 30
0.0
 10
1203.11435394306
 20
2060.539183177064
 30
0.0
  0
SPLINE
  5
2DD
330
274
100
AcDbEntity
  8
P-SANR-FIXT
100
AcDbSpline
210
0.0
220
0.0
230
1.0
 70
    24
 71
     3
 72
     9
 73
     5
 74
     0
 42
0.000000001
 43
0.0000000001
 40
0.0
 40
0.0
 40
0.0
 40
0.0
 40
0.5
 40
0.5042978215234186
 40
0.5042978215234186
 40
0.5042978215234186
 40
0.5042978215234186
 10
1161.114353943093
 20
2060.539183177063
 30
0.0
 10
1161.114353943094
 20
2061.308930826381
 30
0.0
 10
1161.114353943094
 20
2061.697112889054
 30
0.0
 10
1161.114353943094
 20
2061.693776214606
 30
0.0
 10
1161.114353943094
 20
2061.69371934174
 30
0.0
  0
LINE
  5
2DE
330
274
100
AcDbEntity
  8
P-SANR-FIXT
100
AcDbLine
 10
1161.114353943093
 20
2048.331923755434
 30
0.0
 11
1161.114353943093
 21
2060.539183177063
 31
0.0
  0
LINE
  5
2DF
330
274
100
AcDbEntity
  8
P-SANR-FIXT
100
AcDbLine
 10
1161.114353943094
 20
2048.331923755434
 30
0.0
 11
1163.490315538417
 21
2048.331923755434
 31
0.0
  0
LINE
  5
2E0
330
274
100
AcDbEntity
  8
P-SANR-FIXT
100
AcDbLine
 10
1163.490315538417
 20
2060.539183177064
 30
0.0
 11
1161.114353943094
 21
2060.539183177064
 31
0.0
  0
SPLINE
  5
2E1
330
274
100
AcDbEntity
  8
P-SANR-FIXT
100
AcDbSpline
210
0.0
220
0.0
230
1.0
 70
     8
 71
     3
 72
     9
 73
     5
 74
     0
 42
0.000000001
 43
0.0000000001
 40
0.0
 40
0.0
 40
0.0
 40
0.0
 40
0.5
 40
1.0
 40
1.0
 40
1.0
 40
1.0
 10
1179.738392347754
 20
2060.539183177064
 30
0.0
 10
1176.986593516832
 20
2061.308930826381
 30
0.0
 10
1171.526781884353
 20
2062.078678475698
 30
0.0
 10
1166.154542310607
 20
2061.308930826381
 30
0.0
 10
1163.490315538417
 20
2060.539183177063
 30
0.0
  0
LINE
  5
2E2
330
274
100
AcDbEntity
  8
P-SANR-FIXT
100
AcDbLine
 10
1163.490315538417
 20
2048.331923755434
 30
0.0
 11
1163.490315538417
 21
2060.539183177063
 31
0.0
  0
LINE
  5
2E3
330
274
100
AcDbEntity
  8
P-SANR-FIXT
100
AcDbLine
 10
1182.114353943078
 20
2061.982558850038
 30
0.0
 11
1167.618664928754
 21
2061.982558850038
 31
0.0
  0
LINE
  5
2E4
330
274
100
AcDbEntity
  8
P-SANR-FIXT
100
AcDbLine
 10
1167.618664928754
 20
2061.982558850038
 30
0.0
 11
1161.614353943078
 21
2061.982558850038
 31
0.0
  0
LINE
  5
2E5
330
274
100
AcDbEntity
  8
P-SANR-FIXT
100
AcDbLine
 10
1202.614353943078
 20
2061.982558850038
 30
0.0
 11
1196.610042957402
 21
2061.982558850038
 31
0.0
  0
LINE
  5
2E6
330
274
100
AcDbEntity
  8
P-SANR-FIXT
100
AcDbLine
 10
1196.610042957402
 20
2061.982558850038
 30
0.0
 11
1182.114353943078
 21
2061.982558850038
 31
0.0
  0
LINE
  5
2E7
330
274
100
AcDbEntity
  8
P-SANR-FIXT
100
AcDbLine
 10
1182.114353943078
 20
2042.982558850011
 30
0.0
 11
1146.614353943078
 21
2042.982558850011
 31
0.0
  0
LINE
  5
2E8
330
274
100
AcDbEntity
  8
P-SANR-FIXT
100
AcDbLine
 10
1217.614353943078
 20
2042.982558850011
 30
0.0
 11
1182.114353943078
 21
2042.982558850011
 31
0.0
  0
LINE
  5
2E9
330
274
100
AcDbEntity
  8
P-SANR-FIXT
100
AcDbLine
 10
1163.490315538417
 20
2048.331923755434
 30
0.0
 11
1179.738392347754
 21
2048.331923755434
 31
0.0
  0
LINE
  5
2EA
330
274
100
AcDbEntity
  8
P-SANR-FIXT
100
AcDbLine
 10
1159.114353943077
 20
2048.331923755434
 30
0.0
 11
1161.114353943094
 21
2048.331923755434
 31
0.0
  0
LINE
  5
2EB
330
274
100
AcDbEntity
  8
P-SANR-FIXT
100
AcDbLine
 10
1203.11435394306
 20
2048.331923755434
 30
0.0
 11
1205.114353943077
 21
2048.331923755434
 31
0.0
  0
LINE
  5
2EC
330
274
100
AcDbEntity
  8
P-SANR-FIXT
100
AcDbLine
 10
1184.4903155384
 20
2048.331923755434
 30
0.0
 11
1200.738392347737
 21
2048.331923755434
 31
0.0
  0
LINE
  5
2ED
330
274
100
AcDbEntity
  8
P-SANR-FIXT
100
AcDbLine
 10
1161.614353943078
 20
2125.982558850037
 30
0.0
 11
1182.114353943078
 21
2125.982558850037
 31
0.0
  0
LINE
  5
2EE
330
274
100
AcDbEntity
  8
P-SANR-FIXT
100
AcDbLine
 10
1182.114353943078
 20
2125.982558850037
 30
0.0
 11
1202.614353943078
 21
2125.982558850037
 31
0.0
  0
LINE
  5
2EF
330
274
100
AcDbEntity
  8
P-SANR-FIXT
100
AcDbLine
 10
1162.194535152208
 20
2129.982558850037
 30
0.0
 11
1161.61435394308
 21
2129.402377640909
 31
0.0
  0
LINE
  5
2F0
330
274
100
AcDbEntity
  8
P-SANR-FIXT
100
AcDbLine
 10
1202.61435394308
 20
2129.402377640909
 30
0.0
 11
1202.034172733952
 21
2129.982558850037
 31
0.0
  0
LINE
  5
2F1
330
274
100
AcDbEntity
  8
P-SANR-FIXT
100
AcDbLine
 10
1161.61435394308
 20
2129.402377640909
 30
0.0
 11
1161.61435394308
 21
2126.482558850039
 31
0.0
  0
LINE
  5
2F2
330
274
100
AcDbEntity
  8
P-SANR-FIXT
100
AcDbLine
 10
1202.61435394308
 20
2126.482558850039
 30
0.0
 11
1202.61435394308
 21
2129.402377640909
 31
0.0
  0
LINE
  5
2F3
330
274
100
AcDbEntity
  8
P-SANR-FIXT
100
AcDbLine
 10
1161.61435394308
 20
2126.482558850039
 30
0.0
 11
1162.231802521348
 21
2125.982558850038
 31
0.0
  0
LINE
  5
2F4
330
274
100
AcDbEntity
  8
P-SANR-FIXT
100
AcDbLine
 10
1201.996905364811
 20
2125.982558850038
 30
0.0
 11
1202.61435394308
 21
2126.482558850039
 31
0.0
  0
LINE
  5
2F5
330
274
100
AcDbEntity
  8
P-SANR-FIXT
100
AcDbLine
 10
1182.114353943078
 20
2129.982558850036
 30
0.0
 11
1162.194535152206
 21
2129.982558850036
 31
0.0
  0
LINE
  5
2F6
330
274
100
AcDbEntity
  8
P-SANR-FIXT
100
AcDbLine
 10
1202.03417273395
 20
2129.982558850036
 30
0.0
 11
1182.114353943078
 21
2129.982558850036
 31
0.0
  0
LINE
  5
2F7
330
274
100
AcDbEntity
  8
P-SANR-FIXT
100
AcDbLine
 10
1161.614353943078
 20
2129.402377640909
 30
0.0
 11
1182.114353943078
 21
2129.402377640909
 31
0.0
  0
LINE
  5
2F8
330
274
100
AcDbEntity
  8
P-SANR-FIXT
100
AcDbLine
 10
1182.114353943078
 20
2129.402377640909
 30
0.0
 11
1202.614353943078
 21
2129.402377640909
 31
0.0
  0
LINE
  5
2F9
330
274
100
AcDbEntity
  8
P-SANR-FIXT
100
AcDbLine
 10
1161.614353943078
 20
2126.482558850038
 30
0.0
 11
1182.114353943078
 21
2126.482558850038
 31
0.0
  0
LINE
  5
2FA
330
274
100
AcDbEntity
  8
P-SANR-FIXT
100
AcDbLine
 10
1182.114353943078
 20
2126.482558850038
 30
0.0
 11
1202.614353943078
 21
2126.482558850038
 31
0.0
  0
ARC
  5
2FB
330
274
100
AcDbEntity
  8
P-SANR-FIXT
100
AcDbCircle
 10
1182.114353943077
 20
1999.982558850011
 30
0.0
 40
21.89999999996075
100
AcDbArc
 50
90.0
 51
269.999999999999
  0
ARC
  5
2FC
330
274
100
AcDbEntity
  8
P-SANR-FIXT
100
AcDbCircle
 10
1182.114353943077
 20
1999.982558850011
 30
0.0
 40
21.89999999996103
100
AcDbArc
 50
269.9999999999993
 51
90.0000000000003
  0
ARC
  5
2FD
330
274
100
AcDbEntity
  8
P-SANR-FIXT
100
AcDbCircle
 10
1182.114353943077
 20
1999.982558850011
 30
0.0
 40
23.89999999996144
100
AcDbArc
 50
90.00000000000055
 51
269.9999999999997
  0
ARC
  5
2FE
330
274
100
AcDbEntity
  8
P-SANR-FIXT
100
AcDbCircle
 10
1182.114353943077
 20
1999.982558850011
 30
0.0
 40
23.89999999996144
100
AcDbArc
 50
269.9999999999997
 51
90.0
  0
LINE
  5
2FF
330
274
100
AcDbEntity
  8
P-SANR-FIXT
100
AcDbLine
 10
1166.639997287721
 20
1949.126230490276
 30
0.0
 11
1167.757348548992
 21
1942.789416596103
 31
0.0
  0
LINE
  5
300
330
274
100
AcDbEntity
  8
P-SANR-FIXT
100
AcDbLine
 10
1196.471359337168
 20
1942.789416596103
 30
0.0
 11
1197.588710598438
 21
1949.126230490276
 31
0.0
  0
LINE
  5
301
330
274
100
AcDbEntity
  8
P-SANR-FIXT
100
AcDbLine
 10
1148.114353943079
 20
2012.118233340403
 30
0.0
 11
1148.114353943079
 21
1991.04481659831
 31
0.0
  0
LINE
  5
302
330
274
100
AcDbEntity
  8
P-SANR-FIXT
100
AcDbLine
 10
1216.11435394308
 20
1991.04481659831
 30
0.0
 11
1216.11435394308
 21
2012.118233340403
 31
0.0
  0
LINE
  5
303
330
274
100
AcDbEntity
  8
P-SANR-FIXT
100
AcDbLine
 10
1146.11435394308
 20
2042.482558850011
 30
0.0
 11
1146.11435394308
 21
2014.118233340403
 31
0.0
  0
LINE
  5
304
330
274
100
AcDbEntity
  8
P-SANR-FIXT
100
AcDbLine
 10
1218.11435394308
 20
2014.118233340403
 30
0.0
 11
1218.11435394308
 21
2042.482558850011
 31
0.0
  0
LINE
  5
305
330
274
100
AcDbEntity
  8
P-SANR-FIXT
100
AcDbLine
 10
1146.614353943079
 20
2042.982558850011
 30
0.0
 11
1146.11435394308
 21
2042.482558850011
 31
0.0
  0
LINE
  5
306
330
274
100
AcDbEntity
  8
P-SANR-FIXT
100
AcDbLine
 10
1218.11435394308
 20
2042.482558850011
 30
0.0
 11
1217.61435394308
 21
2042.982558850011
 31
0.0
  0
LWPOLYLINE
  5
307
330
274
100
AcDbEntity
  8
P-SANR-FIXT
100
AcDbPolyline
 90
       36
 70
   128
 43
0.0
 10
1166.639997287721
 20
1949.126230490276
 10
1166.601338206874
 20
1949.322445021897
 10
1166.55486356069
 20
1949.516956651917
 10
1166.50064769869
 20
1949.709454203224
 10
1166.438777354688
 20
1949.899629720796
 10
1166.369351508036
 20
1950.087178964377
 10
1166.292481225278
 20
1950.271801895184
 10
1166.208289482469
 20
1950.453203155912
 10
1166.116910968437
 20
1950.631092543241
 10
1166.018491869311
 20
1950.8051854721
 10
1165.913189634656
 20
1950.975203430938
 10
1165.801172725583
 20
1951.140874427292
 10
1165.682620345251
 20
1951.301933422908
 10
1165.557722152179
 20
1951.45812275775
 10
1165.426677956832
 20
1951.609192562202
 10
1165.289697401969
 20
1951.754901156802
 10
1165.146999627255
 20
1951.895015438882
 10
1164.998812918691
 20
1952.029311255482
 10
1164.845374343398
 20
1952.15757376194
 10
1164.686929370365
 20
1952.27959776561
 10
1164.523731477749
 20
1952.395188054116
 10
1164.356041747364
 20
1952.504159707653
 10
1164.184128447008
 20
1952.606338394822
 10
1164.008266601287
 20
1952.701560651521
 10
1163.82873755164
 20
1952.789674142452
 10
1163.645828506249
 20
1952.870537904826
 10
1163.459832080568
 20
1952.944022573873
 10
1163.271045829201
 20
1953.010010589798
 10
1163.079771769877
 20
1953.068396385854
 10
1162.88631590029
 20
1953.119086557221
 10
1162.690987708561
 20
1953.162000010438
 10
1162.49409967813
 20
1953.197068093135
 10
1162.295966787844
 20
1953.224234703859
 10
1162.096906008063
 20
1953.243456381829
 10
1161.89723579357
 20
1953.254702376462
 10
1161.774337416898
 20
1953.256930977285
  0
LWPOLYLINE
  5
308
330
274
100
AcDbEntity
  8
P-SANR-FIXT
100
AcDbPolyline
 90
       36
 70
   128
 43
0.0
 10
1202.443128326687
 20
1953.256596995519
 10
1202.312802692566
 20
1953.253990135246
 10
1202.113175893654
 20
1953.241998133455
 10
1201.914188327055
 20
1953.222032781211
 10
1201.716158330429
 20
1953.19412601882
 10
1201.519402709525
 20
1953.158322491148
 10
1201.324236231364
 20
1953.114679476201
 10
1201.130971120679
 20
1953.063266793495
 10
1200.939916560419
 20
1953.004166692354
 10
1200.751378197125
 20
1952.937473720331
 10
1200.565657651956
 20
1952.863294571956
 10
1200.38305203817
 20
1952.781747918041
 10
1200.203853485792
 20
1952.692964215838
 10
1200.028348674281
 20
1952.59708550033
 10
1199.856818373895
 20
1952.494265157009
 10
1199.689536996525
 20
1952.38466767649
 10
1199.526772156688
 20
1952.268468391363
 10
1199.368784243407
 20
1952.145853195696
 10
1199.215826003642
 20
1952.017018247646
 10
1199.068142137947
 20
1951.882169655646
 10
1198.925968909002
 20
1951.741523148677
 10
1198.789533763645
 20
1951.595303731148
 10
1198.659054969005
 20
1951.443745322934
 10
1198.534741263318
 20
1951.287090385159
 10
1198.416791521995
 20
1951.125589532304
 10
1198.30539443946
 20
1950.959501131282
 10
1198.200728227283
 20
1950.789090888105
 10
1198.102960329075
 20
1950.61463142281
 10
1198.012247152617
 20
1950.436401833325
 10
1197.928733819641
 20
1950.254687248973
 10
1197.852553933663
 20
1950.069778374325
 10
1197.783829366252
 20
1949.881971024136
 10
1197.722670062053
 20
1949.691565650101
 10
1197.669173862908
 20
1949.498866860204
 10
1197.623426351323
 20
1949.304182931399
 10
1197.588710598438
 20
1949.126230490276
  0
LWPOLYLINE
  5
309
330
274
100
AcDbEntity
  8
P-SANR-FIXT
100
AcDbPolyline
 90
       16
 70
   128
 43
0.0
 10
1149.114353943128
 20
1987.729089295485
 10
1148.999966953726
 20
1987.907453737063
 10
1148.878596865889
 20
1988.114484223195
 10
1148.765602872473
 20
1988.326202616023
 10
1148.661165739764
 20
1988.542270211282
 10
1148.565452544896
 20
1988.762341346913
 10
1148.478616408563
 20
1988.986063956043
 10
1148.400796250058
 20
1989.213080130225
 10
1148.332116565035
 20
1989.443026692005
 10
1148.272687226338
 20
1989.675535775939
 10
1148.222603308232
 20
1989.910235417091
 10
1148.181944934303
 20
1990.146750146101
 10
1148.150777149274
 20
1990.384701589858
 10
1148.129149814954
 20
1990.623709076811
 10
1148.117097530462
 20
1990.863390245968
 10
1148.11435394308
 20
1991.04481659831
  0
LWPOLYLINE
  5
30A
330
274
100
AcDbEntity
  8
P-SANR-FIXT
100
AcDbPolyline
 90
       16
 70
   128
 43
0.0
 10
1216.11435394308
 20
1991.04481659831
 10
1216.109554583045
 20
1990.80488059319
 10
1216.095164180896
 20
1990.565328434495
 10
1216.071205758203
 20
1990.326543354576
 10
1216.037717643333
 20
1990.088907358624
 10
1215.994753410127
 20
1989.85280061354
 10
1215.942381792192
 20
1989.618600839747
 10
1215.880686572944
 20
1989.386682706925
 10
1215.809766451575
 20
1989.157417234613
 10
1215.729734885147
 20
1988.931171198659
 10
1215.640719907097
 20
1988.708306544458
 10
1215.542863922399
 20
1988.489179807914
 10
1215.436323479756
 20
1988.274141545061
 10
1215.321269021146
 20
1988.063535771247
 10
1215.19788460916
 20
1987.857699410784
 10
1215.114353943147
 20
1987.730204464757
  0
LWPOLYLINE
  5
30B
330
274
100
AcDbEntity
  8
P-SANR-FIXT
100
AcDbPolyline
 90
       41
 70
   128
 43
0.0
 10
1147.11435394308
 20
2013.118233340403
 10
1147.074364608893
 20
2013.119033233742
 10
1147.034439249111
 20
2013.1214316341
 10
1146.994641735791
 20
2013.125424704549
 10
1146.955035736466
 20
2013.131006057028
 10
1146.915684612284
 20
2013.138166762562
 10
1146.876651316653
 20
2013.146895365551
 10
1146.837998294516
 20
2013.157177902092
 10
1146.799787382464
 20
2013.168997922321
 10
1146.762079709805
 20
2013.182336516726
 10
1146.724935600771
 20
2013.1971723464
 10
1146.688414478013
 20
2013.213481677183
 10
1146.652574767538
 20
2013.231238417624
 10
1146.617473805236
 20
2013.250414160725
 10
1146.583167745159
 20
2013.27097822939
 10
1146.549711469685
 20
2013.292897725493
 10
1146.517158501717
 20
2013.316137582519
 10
1146.485560919061
 20
2013.340660621652
 10
1146.454969271108
 20
2013.366427611262
 10
1146.425432497969
 20
2013.393397329662
 10
1146.39699785218
 20
2013.421526631056
 10
1146.369710823109
 20
2013.450770514562
 10
1146.34361506418
 20
2013.481082196205
 10
1146.318752323043
 20
2013.51241318376
 10
1146.295162374779
 20
2013.544713354331
 10
1146.272882958272
 20
2013.577931034535
 10
1146.251949715836
 20
2013.61201308317
 10
1146.232396136195
 20
2013.64690497623
 10
1146.214253500903
 20
2013.682550894126
 10
1146.197550834308
 20
2013.718893810997
 10
1146.182314857112
 20
2013.755875585927
 10
1146.16856994363
 20
2013.793437055964
 10
1146.15633808279
 20
2013.831518130771
 10
1146.145638842961
 20
2013.87005788875
 10
1146.136489340644
 20
2013.908994674512
 10
1146.128904213091
 20
2013.948266197503
 10
1146.122895594888
 20
2013.987809631665
 10
1146.118473098542
 20
2014.027561715939
 10
1146.115643799104
 20
2014.067458855469
 10
1146.11441222285
 20
2014.107437223345
 10
1146.11435394308
 20
2014.118233340403
  0
LWPOLYLINE
  5
30C
330
274
100
AcDbEntity
  8
P-SANR-FIXT
100
AcDbPolyline
 90
        3
 70
   128
 43
0.0
 10
1147.191139072494
 20
2013.118233340403
 10
1147.126413678019
 20
2013.118233340403
 10
1147.11435394308
 20
2013.118233340403
  0
LWPOLYLINE
  5
30D
330
274
100
AcDbEntity
  8
P-SANR-FIXT
100
AcDbPolyline
 90
       10
 70
   128
 43
0.0
 10
1147.11435394308
 20
2013.118233340403
 10
1147.142350209946
 20
2013.118233340403
 10
1147.226294222488
 20
2013.118233340403
 10
1147.366051688194
 20
2013.118233340403
 10
1147.561399024933
 20
2013.118233340403
 10
1147.812023718636
 20
2013.118233340403
 10
1148.117524823259
 20
2013.118233340403
 10
1148.477413602203
 20
2013.118233340403
 10
1148.891114310194
 20
2013.118233340403
 10
1149.114353943134
 20
2013.118233340403
  0
LWPOLYLINE
  5
30E
330
274
100
AcDbEntity
  8
P-SANR-FIXT
100
AcDbPolyline
 90
       41
 70
   128
 43
0.0
 10
1218.11435394308
 20
2014.118233340403
 10
1218.113554049741
 20
2014.078244006217
 10
1218.111155649382
 20
2014.038318646434
 10
1218.107162578933
 20
2013.998521133114
 10
1218.101581226455
 20
2013.958915133789
 10
1218.094420520921
 20
2013.919564009608
 10
1218.085691917932
 20
2013.880530713976
 10
1218.07540938139
 20
2013.841877691839
 10
1218.063589361162
 20
2013.803666779787
 10
1218.050250766758
 20
2013.765959107128
 10
1218.035414937083
 20
2013.728814998094
 10
1218.019105606299
 20
2013.692293875337
 10
1218.001348865859
 20
2013.656454164862
 10
1217.982173122758
 20
2013.621353202559
 10
1217.961609054093
 20
2013.587047142482
 10
1217.939689557989
 20
2013.553590867008
 10
1217.916449700964
 20
2013.521037899041
 10
1217.891926661831
 20
2013.489440316384
 10
1217.866159672221
 20
2013.458848668431
 10
1217.839189953821
 20
2013.429311895293
 10
1217.811060652427
 20
2013.400877249504
 10
1217.781816768921
 20
2013.373590220432
 10
1217.751505087278
 20
2013.347494461504
 10
1217.720174099723
 20
2013.322631720367
 10
1217.687873929152
 20
2013.299041772102
 10
1217.654656248948
 20
2013.276762355595
 10
1217.620574200312
 20
2013.25582911316
 10
1217.585682307254
 20
2013.236275533518
 10
1217.550036389356
 20
2013.218132898227
 10
1217.513693472486
 20
2013.201430231632
 10
1217.476711697557
 20
2013.186194254436
 10
1217.439150227519
 20
2013.172449340953
 10
1217.401069152712
 20
2013.160217480114
 10
1217.362529394732
 20
2013.149518240285
 10
1217.323592608972
 20
2013.140368737968
 10
1217.28432108598
 20
2013.132783610414
 10
1217.244777651818
 20
2013.126774992211
 10
1217.205025567544
 20
2013.122352495866
 10
1217.165128428013
 20
2013.119523196428
 10
1217.125150060138
 20
2013.118291620173
 10
1217.11435394308
 20
2013.118233340403
  0
LWPOLYLINE
  5
30F
330
274
100
AcDbEntity
  8
P-SANR-FIXT
100
AcDbPolyline
 90
       10
 70
   128
 43
0.0
 10
1215.114353943136
 20
2013.118233340403
 10
1215.485812317348
 20
2013.118233340403
 10
1215.881088176717
 20
2013.118233340403
 10
1216.222344464498
 20
2013.118233340403
 10
1216.509035243428
 20
2013.118233340403
 10
1216.740701869418
 20
2013.118233340403
 10
1216.916973725286
 20
2013.118233340403
 10
1217.037568813666
 20
2013.118233340403
 10
1217.102294208141
 20
2013.118233340403
 10
1217.114353943079
 20
2013.118233340403
  0
LWPOLYLINE
  5
310
330
274
100
AcDbEntity
  8
P-SANR-FIXT
100
AcDbPolyline
 90
        3
 70
   128
 43
0.0
 10
1217.114353943079
 20
2013.118233340403
 10
1217.086357676214
 20
2013.118233340403
 10
1217.04591207341
 20
2013.118233340403
  0
LINE
  5
311
330
274
100
AcDbEntity
  8
P-SANR-FIXT
100
AcDbLine
 10
1167.757348548992
 20
1942.789416596103
 30
0.0
 11
1168.364206295084
 21
1942.182558850011
 31
0.0
  0
LINE
  5
312
330
274
100
AcDbEntity
  8
P-SANR-FIXT
100
AcDbLine
 10
1195.864501591075
 20
1942.182558850011
 30
0.0
 11
1196.471359337168
 21
1942.789416596103
 31
0.0
  0
LINE
  5
313
330
274
100
AcDbEntity
  8
P-SANR-FIXT
100
AcDbLine
 10
1139.61435394308
 20
1990.982558850011
 30
0.0
 11
1148.124159100602
 21
1990.982558850011
 31
0.0
  0
LINE
  5
314
330
274
100
AcDbEntity
  8
P-SANR-FIXT
100
AcDbLine
 10
1216.10464897157
 20
1990.982558850011
 30
0.0
 11
1224.61435394308
 21
1990.982558850011
 31
0.0
  0
LINE
  5
315
330
274
100
AcDbEntity
  8
P-SANR-FIXT
100
AcDbLine
 10
1224.61435394308
 20
2008.982558850012
 30
0.0
 11
1216.11435394308
 21
2008.982558850012
 31
0.0
  0
LINE
  5
316
330
274
100
AcDbEntity
  8
P-SANR-FIXT
100
AcDbLine
 10
1148.11435394308
 20
2008.982558850012
 30
0.0
 11
1139.61435394308
 21
2008.982558850012
 31
0.0
  0
LWPOLYLINE
  5
317
330
274
100
AcDbEntity
  8
P-SANR-FIXT
100
AcDbPolyline
 90
       41
 70
   128
 43
0.0
 10
1161.114353943079
 20
1953.244061830673
 10
1160.794439269587
 20
1953.250460977385
 10
1160.475036391326
 20
1953.269648180252
 10
1160.156656284769
 20
1953.301592743842
 10
1159.839808290166
 20
1953.346243563668
 10
1159.52499929672
 20
1953.403529207943
 10
1159.212732931663
 20
1953.473358031857
 10
1158.903508754567
 20
1953.555618324187
 10
1158.597821458151
 20
1953.650178486013
 10
1158.296160076879
 20
1953.756887241249
 10
1157.999007204611
 20
1953.87557387865
 10
1157.706838222552
 20
1954.006048524913
 10
1157.420120538748
 20
1954.148102448439
 10
1157.13931284033
 20
1954.301508393252
 10
1156.864864359713
 20
1954.466020942566
 10
1156.59721415592
 20
1954.641376911396
 10
1156.336790412181
 20
1954.827295767598
 10
1156.084009750932
 20
1955.023480080665
 10
1155.839276567308
 20
1955.229615997546
 10
1155.602982382196
 20
1955.445373744746
 10
1155.375505215884
 20
1955.670408155896
 10
1155.157208983313
 20
1955.904359223942
 10
1154.948442911888
 20
1956.146852677084
 10
1154.749540982789
 20
1956.397500577525
 10
1154.560821396672
 20
1956.655901942093
 10
1154.382586064617
 20
1956.921643383728
 10
1154.215120125133
 20
1957.194299772811
 10
1154.058691488001
 20
1957.473434917283
 10
1153.913550405668
 20
1957.758602260459
 10
1153.779929072906
 20
1958.049345595422
 10
1153.658041255342
 20
1958.34519979486
 10
1153.548081947483
 20
1958.645691555163
 10
1153.450227060766
 20
1958.950340153617
 10
1153.364633142134
 20
1959.258658217454
 10
1153.291437123598
 20
1959.570152503541
 10
1153.230756103172
 20
1959.884324687471
 10
1153.182687157546
 20
1960.200672160767
 10
1153.147307186779
 20
1960.518688834958
 10
1153.124672791275
 20
1960.837865951204
 10
1153.11482018124
 20
1961.157692894207
 10
1153.11435394308
 20
1961.244061830673
  0
LWPOLYLINE
  5
318
330
274
100
AcDbEntity
  8
P-SANR-FIXT
100
AcDbPolyline
 90
        8
 70
   128
 43
0.0
 10
1161.753290782243
 20
1953.244061830673
 10
1161.579197291938
 20
1953.244061830673
 10
1161.419909613322
 20
1953.244061830673
 10
1161.293728631055
 20
1953.244061830673
 10
1161.200856207789
 20
1953.244061830673
 10
1161.141440919593
 20
1953.244061830673
 10
1161.11557781825
 20
1953.244061830673
 10
1161.114353943079
 20
1953.244061830673
  0
LWPOLYLINE
  5
319
330
274
100
AcDbEntity
  8
P-SANR-FIXT
100
AcDbPolyline
 90
       41
 70
   128
 43
0.0
 10
1161.114353943079
 20
1953.244061830673
 10
1161.131151703199
 20
1953.244061830673
 10
1161.181518110725
 20
1953.244061830673
 10
1161.265372590148
 20
1953.244061830673
 10
1161.382580992191
 20
1953.244061830673
 10
1161.532955808414
 20
1953.244061830673
 10
1161.716256471187
 20
1953.244061830673
 10
1161.932189738553
 20
1953.244061830673
 10
1162.180410163348
 20
1953.244061830673
 10
1162.460520645843
 20
1953.244061830673
 10
1162.772073069019
 20
1953.244061830673
 10
1163.11456901546
 20
1953.244061830673
 10
1163.487460564715
 20
1953.244061830673
 10
1163.890151169849
 20
1953.244061830673
 10
1164.321996611798
 20
1953.244061830673
 10
1164.782306029977
 20
1953.244061830673
 10
1165.270343027509
 20
1953.244061830673
 10
1165.78532684931
 20
1953.244061830673
 10
1166.326433631121
 20
1953.244061830673
 10
1166.892797717521
 20
1953.244061830673
 10
1167.483513046789
 20
1953.244061830673
 10
1168.097634600412
 20
1953.244061830673
 10
1168.73417991491
 20
1953.244061830673
 10
1169.392130653567
 20
1953.244061830673
 10
1170.070434235559
 20
1953.244061830673
 10
1170.768005519849
 20
1953.244061830673
 10
1171.483728541191
 20
1953.244061830673
 10
1172.216458295431
 20
1953.244061830673
 10
1172.965022571269
 20
1953.244061830673
 10
1173.728223825548
 20
1953.244061830673
 10
1174.50484109907
 20
1953.244061830673
 10
1175.293631969866
 20
1953.244061830673
 10
1176.093334540809
 20
1953.244061830673
 10
1176.90266945838
 20
1953.244061830673
 10
1177.72034195936
 20
1953.244061830673
 10
1178.545043942174
 20
1953.244061830673
 10
1179.375456059579
 20
1953.244061830673
 10
1180.210249829329
 20
1953.244061830673
 10
1181.048089759475
 20
1953.244061830673
 10
1181.887635484856
 20
1953.244061830673
 10
1182.11435394308
 20
1953.244061830673
  0
LWPOLYLINE
  5
31A
330
274
100
AcDbEntity
  8
P-SANR-FIXT
100
AcDbPolyline
 90
       41
 70
   128
 43
0.0
 10
1211.11435394308
 20
1961.244061830673
 10
1211.107954796368
 20
1960.92414715718
 10
1211.088767593501
 20
1960.604744278919
 10
1211.056823029911
 20
1960.286364172361
 10
1211.012172210085
 20
1959.969516177759
 10
1210.95488656581
 20
1959.654707184312
 10
1210.885057741896
 20
1959.342440819256
 10
1210.802797449566
 20
1959.03321664216
 10
1210.70823728774
 20
1958.727529345744
 10
1210.601528532503
 20
1958.425867964472
 10
1210.482841895103
 20
1958.128715092204
 10
1210.352367248839
 20
1957.836546110145
 10
1210.210313325314
 20
1957.549828426341
 10
1210.056907380501
 20
1957.269020727923
 10
1209.892394831187
 20
1956.994572247306
 10
1209.717038862357
 20
1956.726922043513
 10
1209.531120006154
 20
1956.466498299774
 10
1209.334935693087
 20
1956.213717638525
 10
1209.128799776207
 20
1955.968984454901
 10
1208.913042029007
 20
1955.732690269789
 10
1208.688007617857
 20
1955.505213103476
 10
1208.45405654981
 20
1955.286916870906
 10
1208.211563096668
 20
1955.078150799481
 10
1207.960915196228
 20
1954.879248870382
 10
1207.702513831659
 20
1954.690529284265
 10
1207.436772390025
 20
1954.51229395221
 10
1207.164116000942
 20
1954.344828012726
 10
1206.88498085647
 20
1954.188399375593
 10
1206.599813513294
 20
1954.043258293261
 10
1206.30907017833
 20
1953.909636960499
 10
1206.013215978893
 20
1953.787749142935
 10
1205.71272421859
 20
1953.677789835077
 10
1205.408075620135
 20
1953.579934948359
 10
1205.099757556299
 20
1953.494341029727
 10
1204.788263270211
 20
1953.421145011191
 10
1204.474091086282
 20
1953.360463990765
 10
1204.157743612985
 20
1953.312395045139
 10
1203.839726938794
 20
1953.277015074372
 10
1203.520549822548
 20
1953.254380678868
 10
1203.200722879546
 20
1953.244528068833
 10
1203.11435394308
 20
1953.244061830673
  0
LWPOLYLINE
  5
31B
330
274
100
AcDbEntity
  8
P-SANR-FIXT
100
AcDbPolyline
 90
       41
 70
   128
 43
0.0
 10
1182.11435394308
 20
1953.244061830673
 10
1182.954129960999
 20
1953.244061830673
 10
1183.792562516432
 20
1953.244061830673
 10
1184.628310296147
 20
1953.244061830673
 10
1185.460036281979
 20
1953.244061830673
 10
1186.286409889776
 20
1953.244061830673
 10
1187.106109098049
 20
1953.244061830673
 10
1187.917822562926
 20
1953.244061830673
 10
1188.720251716018
 20
1953.244061830673
 10
1189.512112841856
 20
1953.244061830673
 10
1190.292139131561
 20
1953.244061830673
 10
1191.059082709466
 20
1953.244061830673
 10
1191.811716629451
 20
1953.244061830673
 10
1192.548836837798
 20
1953.244061830673
 10
1193.269264099418
 20
1953.244061830673
 10
1193.971845884375
 20
1953.244061830673
 10
1194.65545821169
 20
1953.244061830673
 10
1195.319007447467
 20
1953.244061830673
 10
1195.961432054481
 20
1953.244061830673
 10
1196.581704290401
 20
1953.244061830673
 10
1197.17883185197
 20
1953.244061830673
 10
1197.751859462468
 20
1953.244061830673
 10
1198.299870399958
 20
1953.244061830673
 10
1198.821987963843
 20
1953.244061830673
 10
1199.317376877401
 20
1953.244061830673
 10
1199.785244624045
 20
1953.244061830673
 10
1200.22484271519
 20
1953.244061830673
 10
1200.635467887664
 20
1953.244061830673
 10
1201.016463228786
 20
1953.244061830673
 10
1201.367219227287
 20
1953.244061830673
 10
1201.687174748392
 20
1953.244061830673
 10
1201.97581793152
 20
1953.244061830673
 10
1202.232687009154
 20
1953.244061830673
 10
1202.457371045563
 20
1953.244061830673
 10
1202.649510594222
 20
1953.244061830673
 10
1202.808798272837
 20
1953.244061830673
 10
1202.934979255105
 20
1953.244061830673
 10
1203.027851678371
 20
1953.244061830673
 10
1203.087266966567
 20
1953.244061830673
 10
1203.113130067909
 20
1953.244061830673
 10
1203.11435394308
 20
1953.244061830673
  0
LWPOLYLINE
  5
31C
330
274
100
AcDbEntity
  8
P-SANR-FIXT
100
AcDbPolyline
 90
        7
 70
   128
 43
0.0
 10
1203.11435394308
 20
1953.244061830673
 10
1203.09755618296
 20
1953.244061830673
 10
1203.047189775435
 20
1953.244061830673
 10
1202.963335296011
 20
1953.244061830673
 10
1202.846126893968
 20
1953.244061830673
 10
1202.695752077746
 20
1953.244061830673
 10
1202.582241524168
 20
1953.244061830673
  0
LINE
  5
31D
330
274
100
AcDbEntity
  8
P-SANR-FIXT
100
AcDbLine
 10
1153.11435394308
 20
1978.597467810045
 30
0.0
 11
1153.11435394308
 21
1961.244061830673
 31
0.0
  0
LINE
  5
31E
330
274
100
AcDbEntity
  8
P-SANR-FIXT
100
AcDbLine
 10
1211.11435394308
 20
1961.244061830673
 30
0.0
 11
1211.11435394308
 21
1978.597467810098
 31
0.0
  0
LWPOLYLINE
  5
31F
330
274
100
AcDbEntity
  8
P-SANR-FIXT
100
AcDbPolyline
 90
       41
 70
   128
 43
0.0
 10
1148.11435394308
 20
2012.118233340403
 10
1148.113554049741
 20
2012.15822267459
 10
1148.111155649382
 20
2012.198148034372
 10
1148.107162578934
 20
2012.237945547692
 10
1148.101581226455
 20
2012.277551547017
 10
1148.094420520921
 20
2012.316902671198
 10
1148.085691917932
 20
2012.35593596683
 10
1148.07540938139
 20
2012.394588988967
 10
1148.063589361162
 20
2012.43279990102
 10
1148.050250766758
 20
2012.470507573678
 10
1148.035414937083
 20
2012.507651682712
 10
1148.0191056063
 20
2012.544172805469
 10
1148.001348865859
 20
2012.580012515945
 10
1147.982173122757
 20
2012.615113478247
 10
1147.961609054093
 20
2012.649419538324
 10
1147.939689557989
 20
2012.682875813798
 10
1147.916449700964
 20
2012.715428781766
 10
1147.891926661831
 20
2012.747026364422
 10
1147.866159672221
 20
2012.777618012375
 10
1147.839189953821
 20
2012.807154785514
 10
1147.811060652427
 20
2012.835589431303
 10
1147.781816768921
 20
2012.862876460374
 10
1147.751505087278
 20
2012.888972219302
 10
1147.720174099723
 20
2012.913834960439
 10
1147.687873929152
 20
2012.937424908704
 10
1147.654656248948
 20
2012.959704325211
 10
1147.620574200313
 20
2012.980637567646
 10
1147.585682307254
 20
2013.000191147288
 10
1147.550036389357
 20
2013.018333782579
 10
1147.513693472486
 20
2013.035036449175
 10
1147.476711697556
 20
2013.050272426371
 10
1147.439150227518
 20
2013.064017339853
 10
1147.401069152712
 20
2013.076249200692
 10
1147.362529394732
 20
2013.086948440522
 10
1147.323592608971
 20
2013.096097942838
 10
1147.28432108598
 20
2013.103683070392
 10
1147.244777651818
 20
2013.109691688594
 10
1147.205025567544
 20
2013.11411418494
 10
1147.165128428013
 20
2013.116943484378
 10
1147.125150060138
 20
2013.118175060633
 10
1147.11435394308
 20
2013.118233340403
  0
LWPOLYLINE
  5
320
330
274
100
AcDbEntity
  8
P-SANR-FIXT
100
AcDbPolyline
 90
       41
 70
   128
 43
0.0
 10
1217.11435394308
 20
2013.118233340403
 10
1217.074364608893
 20
2013.117433447064
 10
1217.034439249111
 20
2013.115035046705
 10
1216.994641735791
 20
2013.111041976257
 10
1216.955035736466
 20
2013.105460623779
 10
1216.915684612285
 20
2013.098299918244
 10
1216.876651316653
 20
2013.089571315255
 10
1216.837998294516
 20
2013.079288778714
 10
1216.799787382464
 20
2013.067468758485
 10
1216.762079709805
 20
2013.054130164081
 10
1216.724935600771
 20
2013.039294334406
 10
1216.688414478014
 20
2013.022985003623
 10
1216.652574767538
 20
2013.005228263182
 10
1216.617473805236
 20
2012.986052520081
 10
1216.583167745159
 20
2012.965488451416
 10
1216.549711469685
 20
2012.943568955313
 10
1216.517158501718
 20
2012.920329098287
 10
1216.485560919062
 20
2012.895806059154
 10
1216.454969271109
 20
2012.870039069544
 10
1216.425432497969
 20
2012.843069351144
 10
1216.39699785218
 20
2012.81494004975
 10
1216.369710823109
 20
2012.785696166244
 10
1216.343615064181
 20
2012.755384484602
 10
1216.318752323044
 20
2012.724053497047
 10
1216.295162374779
 20
2012.691753326475
 10
1216.272882958272
 20
2012.658535646271
 10
1216.251949715837
 20
2012.624453597636
 10
1216.232396136195
 20
2012.589561704577
 10
1216.214253500903
 20
2012.553915786679
 10
1216.197550834308
 20
2012.517572869809
 10
1216.182314857113
 20
2012.48059109488
 10
1216.16856994363
 20
2012.443029624842
 10
1216.156338082791
 20
2012.404948550035
 10
1216.145638842962
 20
2012.366408792056
 10
1216.136489340645
 20
2012.327472006294
 10
1216.128904213091
 20
2012.288200483303
 10
1216.122895594888
 20
2012.248657049141
 10
1216.118473098542
 20
2012.208904964868
 10
1216.115643799104
 20
2012.169007825336
 10
1216.11441222285
 20
2012.129029457462
 10
1216.11435394308
 20
2012.118233340403
  0
LINE
  5
321
330
274
100
AcDbEntity
  8
P-SANR-FIXT
100
AcDbLine
 10
1182.114353943078
 20
1942.182558850011
 30
0.0
 11
1168.364206295082
 21
1942.182558850011
 31
0.0
  0
LINE
  5
322
330
274
100
AcDbEntity
  8
P-SANR-FIXT
100
AcDbLine
 10
1195.864501591074
 20
1942.182558850011
 30
0.0
 11
1182.114353943078
 21
1942.182558850011
 31
0.0
  0
LINE
  5
323
330
274
100
AcDbEntity
  8
P-SANR-FIXT
100
AcDbLine
 10
1167.75734854899
 20
1942.789416596103
 30
0.0
 11
1182.114353943078
 21
1942.789416596103
 31
0.0
  0
LINE
  5
324
330
274
100
AcDbEntity
  8
P-SANR-FIXT
100
AcDbLine
 10
1182.114353943078
 20
1942.789416596103
 30
0.0
 11
1196.471359337166
 21
1942.789416596103
 31
0.0
  0
LINE
  5
325
330
274
100
AcDbEntity
  8
P-SANR-FIXT
100
AcDbLine
 10
1182.114353943078
 20
2042.482558850011
 30
0.0
 11
1146.114353943078
 21
2042.482558850011
 31
0.0
  0
LINE
  5
326
330
274
100
AcDbEntity
  8
P-SANR-FIXT
100
AcDbLine
 10
1218.114353943078
 20
2042.482558850011
 30
0.0
 11
1182.114353943078
 21
2042.482558850011
 31
0.0
  0
LINE
  5
327
330
274
100
AcDbEntity
  8
P-SANR-FIXT
100
AcDbLine
 10
1146.614353943078
 20
2042.982558850011
 30
0.0
 11
1182.114353943078
 21
2042.982558850011
 31
0.0
  0
LINE
  5
328
330
274
100
AcDbEntity
  8
P-SANR-FIXT
100
AcDbLine
 10
1182.114353943078
 20
2042.982558850011
 30
0.0
 11
1217.614353943078
 21
2042.982558850011
 31
0.0
  0
LINE
  5
329
330
274
100
AcDbEntity
  8
P-SANR-FIXT
100
AcDbLine
 10
1224.614353943078
 20
1999.982558850011
 30
0.0
 11
1224.614353943078
 21
1990.982558850011
 31
0.0
  0
LINE
  5
32A
330
274
100
AcDbEntity
  8
P-SANR-FIXT
100
AcDbLine
 10
1224.614353943078
 20
2008.982558850011
 30
0.0
 11
1224.614353943078
 21
1999.982558850011
 31
0.0
  0
ENDBLK
  5
32C
330
274
100
AcDbEntity
  8
0
100
AcDbBlockEnd
  0
ENDSEC
  0
SECTION
  2
ENTITIES
  0
INSERT
  5
182
330
71
100
AcDbEntity
  8
P-SANR-FIXT
100
AcDbBlockReference
  2
Automatic flow rate regulator valve_Caleffi_121 DN15 - 1 1_2___Pressure gauge-928898-Est - Idraulica
 10
0.0
 20
0.0
 30
0.0
1001
REVIT
1002
{
1070
     1
1000
863131
1002
}
1002
{
1070
     5
1000
928898
1002
}
1002
{
1070
     2
1000
-2001160
1002
}
  0
INSERT
  5
273
330
71
100
AcDbEntity
  8
P-SANR-FIXT
100
AcDbBlockReference
  2
Automatic flow rate regulator valve_Caleffi_121 DN15 - 1 1_2___Pressure gauge-V1-Est - Idraulica
 10
0.0
 20
0.0
 30
0.0
1001
REVIT
1002
{
1070
     1
1000
863152
1002
}
1002
{
1070
     5
1000
928898
1002
}
1002
{
1070
     2
1000
-2001160
1002
}
  0
INSERT
  5
32D
330
71
100
AcDbEntity
  8
P-SANR-FIXT
100
AcDbBlockReference
  2
Automatic flow rate regulator valve_Caleffi_121 DN15 - 1 1_2___Pressure gauge-V2-Est - Idraulica
 10
0.0
 20
0.0
 30
0.0
1001
REVIT
1002
{
1070
     1
1000
863172
1002
}
1002
{
1070
     5
1000
928898
1002
}
1002
{
1070
     2
1000
-2001160
1002
}
  0
ENDSEC
  0
SECTION
  2
OBJECTS
  0
DICTIONARY
  5
C
330
0
100
AcDbDictionary
281
     1
  3
ACAD_CIP_PREVIOUS_PRODUCT_INFO
350
7A
  3
ACAD_COLOR
350
63
  3
ACAD_DETAILVIEWSTYLE
350
6B
  3
ACAD_GROUP
350
D
  3
ACAD_IMAGE_VARS
350
7B
  3
ACAD_LAYOUT
350
62
  3
ACAD_MATERIAL
350
10
  3
ACAD_MLEADERSTYLE
350
66
  3
ACAD_MLINESTYLE
350
5F
  3
ACAD_PLOTSETTINGS
350
61
  3
ACAD_PLOTSTYLENAME
350
E
  3
ACAD_SCALELIST
350
42
  3
ACAD_SECTIONVIEWSTYLE
350
68
  3
ACAD_TABLESTYLE
350
64
  3
ACAD_VISUALSTYLE
350
29
  3
ACDB_RECOMPOSE_DATA
350
338
  3
AcDbVariableDictionary
350
7C
  3
REVIT_DICTIONARY
350
32F
  0
DICTIONARY
  5
334
330
71
100
AcDbDictionary
280
     1
281
     1
  3
ACAD_SORTENTS
360
335
  0
XRECORD
  5
7A
102
{ACAD_REACTORS
330
C
102
}
330
C
100
AcDbXrecord
280
     1
300
RVT
300
2013
300
RVT2013
  0
DICTIONARY
  5
63
102
{ACAD_REACTORS
330
C
102
}
330
C
100
AcDbDictionary
281
     1
  0
DICTIONARY
  5
6B
102
{ACAD_REACTORS
330
C
102
}
330
C
100
AcDbDictionary
281
     1
  3
Imperial24
350
6C
  0
DICTIONARY
  5
D
102
{ACAD_REACTORS
330
C
102
}
330
C
100
AcDbDictionary
281
     1
  0
RASTERVARIABLES
  5
7B
102
{ACAD_REACTORS
330
C
102
}
330
C
100
AcDbRasterVariables
 90
        0
 70
     0
 71
     1
 72
     1
  0
DICTIONARY
  5
62
102
{ACAD_REACTORS
330
C
102
}
330
C
100
AcDbDictionary
281
     1
  3
Layout1
350
70
  3
Layout2
350
78
  3
Model
350
74
  0
DICTIONARY
  5
10
102
{ACAD_REACTORS
330
C
102
}
330
C
100
AcDbDictionary
281
     1
  3
ByBlock
350
19
  3
ByLayer
350
11
  3
Global
350
21
  0
DICTIONARY
  5
66
102
{ACAD_REACTORS
330
C
102
}
330
C
100
AcDbDictionary
281
     1
  3
Standard
350
67
  0
DICTIONARY
  5
5F
102
{ACAD_REACTORS
330
C
102
}
330
C
100
AcDbDictionary
281
     1
  3
Standard
350
60
  0
DICTIONARY
  5
61
102
{ACAD_REACTORS
330
C
102
}
330
C
100
AcDbDictionary
281
     1
  0
ACDBDICTIONARYWDFLT
  5
E
102
{ACAD_REACTORS
330
C
102
}
330
C
100
AcDbDictionary
281
     1
  3
Normal
350
F
100
AcDbDictionaryWithDefault
340
F
  0
DICTIONARY
  5
42
102
{ACAD_REACTORS
330
C
102
}
330
C
100
AcDbDictionary
281
     1
  3
A0
350
43
  3
A1
350
44
  3
A2
350
45
  3
A3
350
46
  3
A4
350
47
  3
A5
350
48
  3
A6
350
49
  3
A7
350
4A
  3
A8
350
4B
  3
A9
350
4C
  3
B0
350
4D
  3
B1
350
4E
  3
B2
350
4F
  3
B3
350
50
  3
B4
350
51
  3
B5
350
52
  3
B6
350
53
  0
DICTIONARY
  5
68
102
{ACAD_REACTORS
330
C
102
}
330
C
100
AcDbDictionary
281
     1
  3
Imperial24
350
6A
  0
DICTIONARY
  5
64
102
{ACAD_REACTORS
330
C
102
}
330
C
100
AcDbDictionary
281
     1
  3
Standard
350
65
  0
DICTIONARY
  5
29
102
{ACAD_REACTORS
330
C
102
}
330
C
100
AcDbDictionary
281
     1
  3
2dWireframe
350
2F
  3
Basic
350
2E
  3
Brighten
350
35
  3
ColorChange
350
39
  3
Conceptual
350
32
  3
Dim
350
34
  3
EdgeColorOff
350
41
  3
Facepattern
350
38
  3
Flat
350
2A
  3
FlatWithEdges
350
2B
  3
Gouraud
350
2C
  3
GouraudWithEdges
350
2D
  3
Hidden
350
31
  3
JitterOff
350
3F
  3
Linepattern
350
37
  3
OverhangOff
350
40
  3
Realistic
350
33
  3
Shaded
350
3E
  3
Shaded with edges
350
3D
  3
Shades of Gray
350
3A
  3
Sketchy
350
3B
  3
Thicken
350
36
  3
Wireframe
350
30
  3
X-Ray
350
3C
  0
XRECORD
  5
338
102
{ACAD_REACTORS
330
C
102
}
330
C
100
AcDbXrecord
280
     1
 90
        1
330
65
  0
DICTIONARY
  5
7C
102
{ACAD_REACTORS
330
C
102
}
330
C
100
AcDbDictionary
281
     1
  3
CANNOSCALE
350
81
  3
CMLEADERSTYLE
350
7E
  3
CTABLESTYLE
350
7D
  3
CVIEWDETAILSTYLE
350
7F
  3
CVIEWSECTIONSTYLE
350
80
  0
DICTIONARY
  5
32F
102
{ACAD_REACTORS
330
C
102
}
330
C
100
AcDbDictionary
281
     1
  3
DRAWING_TOOL
350
333
  3
REVIT_CATEGORY_MAPPING
350
331
  3
REVIT_SUB_CATEGORY_MAPPING
350
332
  3
REVIT_TYPE_MAPPING
350
330
  0
SORTENTSTABLE
  5
335
102
{ACAD_REACTORS
330
334
102
}
330
334
100
AcDbSortentsTable
330
71
  0
ACDBDETAILVIEWSTYLE
  5
6C
102
{ACAD_REACTORS
330
6B
102
}
330
6B
100
AcDbModelDocViewStyle
 70
     0
  3
Imperial24
290
     1
100
AcDbDetailViewStyle
 70
     0
 71
     0
 90
        3
 71
     1
340
55
 62
   256
 40
0.24
340
0
 62
   256
 40
0.24
300

 40
0.36
280
     3
 71
     2
340
5D
 90
       25
 62
   256
 71
     3
340
55
 62
   256
 40
0.24
 90
        1
 40
0.75
 90
        1
300
%<\AcVar ViewType \f "%tc1">% %<\AcVar ViewDetailId>%\PSCALA %<\AcVar ViewScale \f "%sn">%
 71
     4
340
5D
 90
       25
 62
   256
340
5D
 90
       25
 62
   256
280
     0
  0
LAYOUT
  5
70
102
{ACAD_REACTORS
330
62
102
}
330
62
100
AcDbPlotSettings
  1

  2

  4

  6

 40
0.0
 41
0.0
 42
0.0
 43
0.0
 44
0.0
 45
0.0
 46
0.0
 47
0.0
 48
0.0
 49
0.0
140
0.0
141
0.0
142
1.0
143
1.0
 70
   688
 72
     0
 73
     0
 74
     5
  7

 75
    16
147
1.0
 76
     0
 77
     2
 78
   300
148
0.0
149
0.0
100
AcDbLayout
  1
Layout1
 70
     1
 71
     1
 10
0.0
 20
0.0
 11
12.0
 21
9.0
 12
0.0
 22
0.0
 32
0.0
 14
0.0
 24
0.0
 34
0.0
 15
0.0
 25
0.0
 35
0.0
146
0.0
 13
0.0
 23
0.0
 33
0.0
 16
1.0
 26
0.0
 36
0.0
 17
0.0
 27
1.0
 37
0.0
 76
     0
330
6D
  0
LAYOUT
  5
78
102
{ACAD_REACTORS
330
62
102
}
330
62
100
AcDbPlotSettings
  1

  2

  4

  6

 40
0.0
 41
0.0
 42
0.0
 43
0.0
 44
0.0
 45
0.0
 46
0.0
 47
0.0
 48
0.0
 49
0.0
140
0.0
141
0.0
142
1.0
143
1.0
 70
   688
 72
     0
 73
     0
 74
     5
  7

 75
    16
147
1.0
 76
     0
 77
     2
 78
   300
148
0.0
149
0.0
100
AcDbLayout
  1
Layout2
 70
     1
 71
     2
 10
0.0
 20
0.0
 11
12.0
 21
9.0
 12
0.0
 22
0.0
 32
0.0
 14
0.0
 24
0.0
 34
0.0
 15
0.0
 25
0.0
 35
0.0
146
0.0
 13
0.0
 23
0.0
 33
0.0
 16
1.0
 26
0.0
 36
0.0
 17
0.0
 27
1.0
 37
0.0
 76
     0
330
75
  0
LAYOUT
  5
74
102
{ACAD_REACTORS
330
62
102
}
330
62
100
AcDbPlotSettings
  1

  2

  4

  6

 40
0.0
 41
0.0
 42
0.0
 43
0.0
 44
0.0
 45
0.0
 46
0.0
 47
0.0
 48
0.0
 49
0.0
140
0.0
141
0.0
142
1.0
143
1.0
 70
  1712
 72
     0
 73
     0
 74
     0
  7

 75
     0
147
1.0
 76
     0
 77
     2
 78
   300
148
0.0
149
0.0
100
AcDbLayout
  1
Model
 70
     1
 71
     0
 10
0.0
 20
0.0
 11
12.0
 21
9.0
 12
0.0
 22
0.0
 32
0.0
 14
0.0
 24
0.0
 34
0.0
 15
0.0
 25
0.0
 35
0.0
146
0.0
 13
0.0
 23
0.0
 33
0.0
 16
1.0
 26
0.0
 36
0.0
 17
0.0
 27
1.0
 37
0.0
 76
     0
330
71
  0
MATERIAL
  5
19
102
{ACAD_XDICTIONARY
360
1A
102
}
102
{ACAD_REACTORS
330
10
102
}
330
10
100
AcDbMaterial
  1
ByBlock
 72
     0
 43
0.0208333333333333
 43
0.0
 43
0.0
 43
0.0
 43
0.0
 43
0.0208333333333333
 43
0.0
 43
0.0
 43
0.0
 43
0.0
 43
1.0
 43
0.0
 43
0.0
 43
0.0
 43
0.0
 43
1.0
 77
     0
 47
0.0208333333333333
 47
0.0
 47
0.0
 47
0.0
 47
0.0
 47
0.0208333333333333
 47
0.0
 47
0.0
 47
0.0
 47
0.0
 47
1.0
 47
0.0
 47
0.0
 47
0.0
 47
0.0
 47
1.0
171
     0
 49
0.0208333333333333
 49
0.0
 49
0.0
 49
0.0
 49
0.0
 49
0.0208333333333333
 49
0.0
 49
0.0
 49
0.0
 49
0.0
 49
1.0
 49
0.0
 49
0.0
 49
0.0
 49
0.0
 49
1.0
175
     0
142
0.0208333333333333
142
0.0
142
0.0
142
0.0
142
0.0
142
0.0208333333333333
142
0.0
142
0.0
142
0.0
142
0.0
142
1.0
142
0.0
142
0.0
142
0.0
142
0.0
142
1.0
179
     0
144
0.0208333333333333
144
0.0
144
0.0
144
0.0
144
0.0
144
0.0208333333333333
144
0.0
144
0.0
144
0.0
144
0.0
144
1.0
144
0.0
144
0.0
144
0.0
144
0.0
144
1.0
147
0.0208333333333333
147
0.0
147
0.0
147
0.0
147
0.0
147
0.0208333333333333
147
0.0
147
0.0
147
0.0
147
0.0
147
1.0
147
0.0
147
0.0
147
0.0
147
0.0
147
1.0
  0
MATERIAL
  5
11
102
{ACAD_XDICTIONARY
360
12
102
}
102
{ACAD_REACTORS
330
10
102
}
330
10
100
AcDbMaterial
  1
ByLayer
 72
     0
 43
0.0208333333333333
 43
0.0
 43
0.0
 43
0.0
 43
0.0
 43
0.0208333333333333
 43
0.0
 43
0.0
 43
0.0
 43
0.0
 43
1.0
 43
0.0
 43
0.0
 43
0.0
 43
0.0
 43
1.0
 77
     0
 47
0.0208333333333333
 47
0.0
 47
0.0
 47
0.0
 47
0.0
 47
0.0208333333333333
 47
0.0
 47
0.0
 47
0.0
 47
0.0
 47
1.0
 47
0.0
 47
0.0
 47
0.0
 47
0.0
 47
1.0
171
     0
 49
0.0208333333333333
 49
0.0
 49
0.0
 49
0.0
 49
0.0
 49
0.0208333333333333
 49
0.0
 49
0.0
 49
0.0
 49
0.0
 49
1.0
 49
0.0
 49
0.0
 49
0.0
 49
0.0
 49
1.0
175
     0
142
0.0208333333333333
142
0.0
142
0.0
142
0.0
142
0.0
142
0.0208333333333333
142
0.0
142
0.0
142
0.0
142
0.0
142
1.0
142
0.0
142
0.0
142
0.0
142
0.0
142
1.0
179
     0
144
0.0208333333333333
144
0.0
144
0.0
144
0.0
144
0.0
144
0.0208333333333333
144
0.0
144
0.0
144
0.0
144
0.0
144
1.0
144
0.0
144
0.0
144
0.0
144
0.0
144
1.0
147
0.0208333333333333
147
0.0
147
0.0
147
0.0
147
0.0
147
0.0208333333333333
147
0.0
147
0.0
147
0.0
147
0.0
147
1.0
147
0.0
147
0.0
147
0.0
147
0.0
147
1.0
  0
MATERIAL
  5
21
102
{ACAD_XDICTIONARY
360
22
102
}
102
{ACAD_REACTORS
330
10
102
}
330
10
100
AcDbMaterial
  1
Global
 72
     0
 43
0.0208333333333333
 43
0.0
 43
0.0
 43
0.0
 43
0.0
 43
0.0208333333333333
 43
0.0
 43
0.0
 43
0.0
 43
0.0
 43
1.0
 43
0.0
 43
0.0
 43
0.0
 43
0.0
 43
1.0
 77
     0
 47
0.0208333333333333
 47
0.0
 47
0.0
 47
0.0
 47
0.0
 47
0.0208333333333333
 47
0.0
 47
0.0
 47
0.0
 47
0.0
 47
1.0
 47
0.0
 47
0.0
 47
0.0
 47
0.0
 47
1.0
171
     0
 49
0.0208333333333333
 49
0.0
 49
0.0
 49
0.0
 49
0.0
 49
0.0208333333333333
 49
0.0
 49
0.0
 49
0.0
 49
0.0
 49
1.0
 49
0.0
 49
0.0
 49
0.0
 49
0.0
 49
1.0
175
     0
142
0.0208333333333333
142
0.0
142
0.0
142
0.0
142
0.0
142
0.0208333333333333
142
0.0
142
0.0
142
0.0
142
0.0
142
1.0
142
0.0
142
0.0
142
0.0
142
0.0
142
1.0
179
     0
144
0.0208333333333333
144
0.0
144
0.0
144
0.0
144
0.0
144
0.0208333333333333
144
0.0
144
0.0
144
0.0
144
0.0
144
1.0
144
0.0
144
0.0
144
0.0
144
0.0
144
1.0
147
0.0208333333333333
147
0.0
147
0.0
147
0.0
147
0.0
147
0.0208333333333333
147
0.0
147
0.0
147
0.0
147
0.0
147
1.0
147
0.0
147
0.0
147
0.0
147
0.0
147
1.0
  0
MLEADERSTYLE
  5
67
102
{ACAD_REACTORS
330
66
102
}
330
66
100
AcDbMLeaderStyle
179
     2
170
     2
171
     1
172
     0
 90
        2
 40
0.0
 41
0.0
173
     1
 91
-1056964608
340
5B
 92
       -2
290
     1
 42
0.09
291
     1
 43
0.36
  3
Standard
 44
0.18
300

342
55
174
     1
178
     6
175
     1
176
     0
 93
-1056964608
 45
0.18
292
     0
297
     0
 46
0.18
 94
-1056964608
 47
1.0
 49
1.0
140
1.0
293
     1
141
0.0
294
     1
177
     0
142
1.0
295
     1
296
     0
143
0.125
271
     0
272
     9
273
     9
298
     1
  0
MLINESTYLE
  5
60
102
{ACAD_REACTORS
330
5F
102
}
330
5F
100
AcDbMlineStyle
  2
STANDARD
 70
     0
  3

 62
   256
 51
90.0
 52
90.0
 71
     2
 49
0.5
 62
   256
  6
BYLAYER
 49
-0.5
 62
   256
  6
BYLAYER
  0
ACDBPLACEHOLDER
  5
F
102
{ACAD_REACTORS
330
E
102
}
330
E
  0
SCALE
  5
43
102
{ACAD_REACTORS
330
42
102
}
330
42
100
AcDbScale
 70
     0
300
1:1
140
1.0
141
1.0
290
     1
  0
SCALE
  5
44
102
{ACAD_REACTORS
330
42
102
}
330
42
100
AcDbScale
 70
     0
300
1/128" = 1'-0"
140
0.0078125
141
12.0
290
     0
  0
SCALE
  5
45
102
{ACAD_REACTORS
330
42
102
}
330
42
100
AcDbScale
 70
     0
300
1/64" = 1'-0"
140
0.015625
141
12.0
290
     0
  0
SCALE
  5
46
102
{ACAD_REACTORS
330
42
102
}
330
42
100
AcDbScale
 70
     0
300
1/32" = 1'-0"
140
0.03125
141
12.0
290
     0
  0
SCALE
  5
47
102
{ACAD_REACTORS
330
42
102
}
330
42
100
AcDbScale
 70
     0
300
1/16" = 1'-0"
140
0.0625
141
12.0
290
     0
  0
SCALE
  5
48
102
{ACAD_REACTORS
330
42
102
}
330
42
100
AcDbScale
 70
     0
300
3/32" = 1'-0"
140
0.09375
141
12.0
290
     0
  0
SCALE
  5
49
102
{ACAD_REACTORS
330
42
102
}
330
42
100
AcDbScale
 70
     0
300
1/8" = 1'-0"
140
0.125
141
12.0
290
     0
  0
SCALE
  5
4A
102
{ACAD_REACTORS
330
42
102
}
330
42
100
AcDbScale
 70
     0
300
3/16" = 1'-0"
140
0.1875
141
12.0
290
     0
  0
SCALE
  5
4B
102
{ACAD_REACTORS
330
42
102
}
330
42
100
AcDbScale
 70
     0
300
1/4" = 1'-0"
140
0.25
141
12.0
290
     0
  0
SCALE
  5
4C
102
{ACAD_REACTORS
330
42
102
}
330
42
100
AcDbScale
 70
     0
300
3/8" = 1'-0"
140
0.375
141
12.0
290
     0
  0
SCALE
  5
4D
102
{ACAD_REACTORS
330
42
102
}
330
42
100
AcDbScale
 70
     0
300
1/2" = 1'-0"
140
0.5
141
12.0
290
     0
  0
SCALE
  5
4E
102
{ACAD_REACTORS
330
42
102
}
330
42
100
AcDbScale
 70
     0
300
3/4" = 1'-0"
140
0.75
141
12.0
290
     0
  0
SCALE
  5
4F
102
{ACAD_REACTORS
330
42
102
}
330
42
100
AcDbScale
 70
     0
300
1" = 1'-0"
140
1.0
141
12.0
290
     0
  0
SCALE
  5
50
102
{ACAD_REACTORS
330
42
102
}
330
42
100
AcDbScale
 70
     0
300
1-1/2" = 1'-0"
140
1.5
141
12.0
290
     0
  0
SCALE
  5
51
102
{ACAD_REACTORS
330
42
102
}
330
42
100
AcDbScale
 70
     0
300
3" = 1'-0"
140
3.0
141
12.0
290
     0
  0
SCALE
  5
52
102
{ACAD_REACTORS
330
42
102
}
330
42
100
AcDbScale
 70
     0
300
6" = 1'-0"
140
6.0
141
12.0
290
     0
  0
SCALE
  5
53
102
{ACAD_REACTORS
330
42
102
}
330
42
100
AcDbScale
 70
     0
300
1'-0" = 1'-0"
140
12.0
141
12.0
290
     0
  0
ACDBSECTIONVIEWSTYLE
  5
6A
102
{ACAD_REACTORS
330
68
102
}
330
68
100
AcDbModelDocViewStyle
 70
     0
  3
Imperial24
290
     1
100
AcDbSectionViewStyle
 70
     0
 71
     0
 90
       78
 71
     1
340
55
 62
   256
 40
0.24
340
0
340
0
 62
   256
 40
0.24
300
I, O, Q, S, X, Z
 40
0.48
 90
        3
 40
0.18
 90
        1
 71
     2
340
69
 90
       25
 62
   256
340
5D
 90
       50
 62
   256
 40
0.24
 40
0.0
 40
0.24
 71
     3
340
55
 62
   256
 40
0.24
 90
        1
 40
0.75
 90
        1
300
%<\AcVar ViewType \f "%tc1">% %<\AcVar ViewSectionStartId>%-%<\AcVar ViewSectionEndId>%\PSCALA %<\AcVar ViewScale \f "%sn">%
 71
     4
 62
   256
 62
   257
300
ANSI31
 40
1.0
 90
        0
290
     0
290
     0
 90
        6
 40
0.0
 40
1.570796326794896
 40
0.2617993877991494
 40
1.308996938995747
 40
-0.2617993877991494
 40
1.832595714594046
  0
TABLESTYLE
  5
65
102
{ACAD_XDICTIONARY
360
336
102
}
102
{ACAD_REACTORS
330
64
102
}
330
64
100
AcDbTableStyle
280
     0
  3
Standard
 70
     0
 71
     0
 40
0.06
 41
0.06
280
     0
281
     0
  7
Standard
140
0.18
170
     2
 62
     0
 63
     7
283
     0
 90
      512
 91
        0
  1

274
    -2
284
     1
 64
     0
275
    -2
285
     1
 65
     0
276
    -2
286
     1
 66
     0
277
    -2
287
     1
 67
     0
278
    -2
288
     1
 68
     0
279
    -2
289
     1
 69
     0
  7
Standard
140
0.25
170
     5
 62
     0
 63
     7
283
     0
 90
      512
 91
        0
  1

274
    -2
284
     1
 64
     0
275
    -2
285
     1
 65
     0
276
    -2
286
     1
 66
     0
277
    -2
287
     1
 67
     0
278
    -2
288
     1
 68
     0
279
    -2
289
     1
 69
     0
  7
Standard
140
0.18
170
     5
 62
     0
 63
     7
283
     0
 90
      512
 91
        0
  1

274
    -2
284
     1
 64
     0
275
    -2
285
     1
 65
     0
276
    -2
286
     1
 66
     0
277
    -2
287
     1
 67
     0
278
    -2
288
     1
 68
     0
279
    -2
289
     1
 69
     0
  0
VISUALSTYLE
  5
2F
102
{ACAD_REACTORS
330
29
102
}
330
29
100
AcDbVisualStyle
  2
2dWireframe
 70
     4
177
     3
291
     0
 70
    58
 90
        0
176
     1
 90
        2
176
     1
 90
        0
176
     1
 90
        0
176
     1
 40
0.6
176
     1
 40
30.0
176
     1
 62
     7
420
 16777215
176
     1
 90
        1
176
     1
 90
        4
176
     1
 62
     7
176
     1
 62
   257
176
     1
 90
        1
176
     1
 90
        1
176
     1
 40
1.0
176
     1
 90
        0
176
     1
 62
   257
176
     1
 40
1.0
176
     1
 90
        1
176
     1
 90
        6
176
     1
 90
        2
176
     1
 62
     7
176
     1
 90
        5
176
     1
 90
        0
176
     1
 90
        0
176
     1
290
     0
176
     1
 90
        1
176
     1
 40
0.0
176
     1
 90
        0
176
     1
290
     1
176
     1
290
     1
176
     1
290
     0
176
     1
290
     0
176
     1
290
     0
176
     1
290
     0
176
     1
290
     0
176
     1
290
     0
176
     1
290
     0
176
     1
 90
       50
176
     1
 40
0.0
176
     1
 40
1.0
176
     1
 90
        0
176
     1
 62
    18
420
        0
176
     1
 90
       50
176
     1
 90
        3
176
     1
 62
     5
420
      255
176
     1
290
     0
176
     1
 90
       50
176
     1
 90
       50
176
     1
 90
       50
176
     1
290
     0
176
     1
 90
       50
176
     1
 62
   256
176
     0
 40
1.0
176
     0
 90
        2
176
     1
  1
strokes_ogs.tif
176
     1
290
     0
176
     1
 40
1.0
176
     1
 40
1.0
176
     1
  0
VISUALSTYLE
  5
2E
102
{ACAD_REACTORS
330
29
102
}
330
29
100
AcDbVisualStyle
  2
Basic
 70
     7
177
     3
291
     1
 70
    58
 90
        1
176
     1
 90
        0
176
     1
 90
        1
176
     1
 90
        0
176
     1
 40
0.6
176
     1
 40
30.0
176
     1
 62
     7
420
 16777215
176
     1
 90
        0
176
     1
 90
        4
176
     1
 62
     7
176
     1
 62
   257
176
     1
 90
        1
176
     1
 90
        1
176
     1
 40
1.0
176
     1
 90
        8
176
     1
 62
     7
176
     1
 40
1.0
176
     1
 90
        1
176
     1
 90
        6
176
     1
 90
        2
176
     1
 62
     7
176
     1
 90
        5
176
     1
 90
        0
176
     1
 90
        0
176
     1
290
     0
176
     1
 90
        1
176
     1
 40
0.0
176
     1
 90
        0
176
     1
290
     0
176
     1
290
     1
176
     1
290
     1
176
     1
290
     0
176
     1
290
     0
176
     1
290
     0
176
     1
290
     0
176
     1
290
     0
176
     1
290
     0
176
     1
 90
       50
176
     1
 40
0.0
176
     1
 40
1.0
176
     1
 90
        0
176
     1
 62
    18
420
        0
176
     1
 90
       50
176
     1
 90
        3
176
     1
 62
     5
420
      255
176
     1
290
     0
176
     1
 90
       50
176
     1
 90
       50
176
     1
 90
       50
176
     1
290
     0
176
     1
 90
       50
176
     1
 62
   256
176
     0
 40
1.0
176
     0
 90
        2
176
     1
  1
strokes_ogs.tif
176
     1
290
     0
176
     1
 40
1.0
176
     1
 40
1.0
176
     1
  0
VISUALSTYLE
  5
35
102
{ACAD_REACTORS
330
29
102
}
330
29
100
AcDbVisualStyle
  2
Brighten
 70
    12
177
     3
291
     1
 70
    58
 90
        2
176
     1
 90
        2
176
     1
 90
        0
176
     1
 90
        0
176
     1
 40
0.6
176
     1
 40
30.0
176
     1
 62
     7
420
 16777215
176
     1
 90
        1
176
     1
 90
        4
176
     1
 62
     7
176
     1
 62
   257
176
     1
 90
        1
176
     1
 90
        1
176
     1
 40
1.0
176
     1
 90
        8
176
     1
 62
     7
176
     1
 40
1.0
176
     1
 90
        1
176
     1
 90
        6
176
     1
 90
        2
176
     1
 62
     7
176
     1
 90
        5
176
     1
 90
        0
176
     1
 90
        0
176
     1
290
     0
176
     1
 90
        1
176
     1
 40
50.0
176
     1
 90
        0
176
     1
290
     0
176
     1
290
     1
176
     1
290
     1
176
     1
290
     0
176
     1
290
     0
176
     1
290
     0
176
     1
290
     0
176
     1
290
     0
176
     1
290
     0
176
     1
 90
       50
176
     1
 40
0.0
176
     1
 40
1.0
176
     1
 90
        0
176
     1
 62
    18
420
        0
176
     1
 90
       50
176
     1
 90
        3
176
     1
 62
     5
420
      255
176
     1
290
     0
176
     1
 90
       50
176
     1
 90
       50
176
     1
 90
       50
176
     1
290
     0
176
     1
 90
       50
176
     1
 62
   256
176
     0
 40
1.0
176
     0
 90
        2
176
     1
  1
strokes_ogs.tif
176
     1
290
     0
176
     1
 40
1.0
176
     1
 40
1.0
176
     1
  0
VISUALSTYLE
  5
39
102
{ACAD_REACTORS
330
29
102
}
330
29
100
AcDbVisualStyle
  2
ColorChange
 70
    16
177
     3
291
     1
 70
    58
 90
        2
176
     1
 90
        2
176
     1
 90
        3
176
     1
 90
        0
176
     1
 40
0.6
176
     1
 40
30.0
176
     1
 62
     8
420
  8421504
176
     1
 90
        1
176
     1
 90
        4
176
     1
 62
     7
176
     1
 62
   257
176
     1
 90
        1
176
     1
 90
        1
176
     1
 40
1.0
176
     1
 90
        8
176
     1
 62
     8
420
  8421504
176
     1
 40
1.0
176
     1
 90
        1
176
     1
 90
        6
176
     1
 90
        2
176
     1
 62
     7
176
     1
 90
        5
176
     1
 90
        0
176
     1
 90
        0
176
     1
290
     0
176
     1
 90
        1
176
     1
 40
0.0
176
     1
 90
        0
176
     1
290
     0
176
     1
290
     1
176
     1
290
     1
176
     1
290
     0
176
     1
290
     0
176
     1
290
     0
176
     1
290
     0
176
     1
290
     0
176
     1
290
     0
176
     1
 90
       50
176
     1
 40
0.0
176
     1
 40
1.0
176
     1
 90
        0
176
     1
 62
    18
420
        0
176
     1
 90
       50
176
     1
 90
        3
176
     1
 62
     5
420
      255
176
     1
290
     0
176
     1
 90
       50
176
     1
 90
       50
176
     1
 90
       50
176
     1
290
     0
176
     1
 90
       50
176
     1
 62
   256
176
     0
 40
1.0
176
     0
 90
        2
176
     1
  1
strokes_ogs.tif
176
     1
290
     0
176
     1
 40
1.0
176
     1
 40
1.0
176
     1
  0
VISUALSTYLE
  5
32
102
{ACAD_REACTORS
330
29
102
}
330
29
100
AcDbVisualStyle
  2
Conceptual
 70
     9
177
     3
291
     0
 70
    58
 90
        3
176
     1
 90
        2
176
     1
 90
        0
176
     1
 90
        0
176
     1
 40
0.6
176
     1
 40
30.0
176
     1
 62
     7
420
 16777215
176
     1
 90
        2
176
     1
 90
        2
176
     1
 62
     7
176
     1
 62
   257
176
     1
 90
        1
176
     1
 90
        1
176
     1
 40
179.0
176
     1
 90
        8
176
     1
 62
     7
176
     1
 40
1.0
176
     1
 90
        1
176
     1
 90
        6
176
     1
 90
        2
176
     1
 62
     7
176
     1
 90
        3
176
     1
 90
        0
176
     1
 90
        0
176
     1
290
     0
176
     1
 90
        1
176
     1
 40
0.0
176
     1
 90
        0
176
     1
290
     0
176
     1
290
     1
176
     1
290
     1
176
     1
290
     0
176
     1
290
     0
176
     1
290
     0
176
     1
290
     0
176
     1
290
     0
176
     1
290
     0
176
     1
 90
       50
176
     1
 40
0.0
176
     1
 40
1.0
176
     1
 90
        0
176
     1
 62
    18
420
        0
176
     1
 90
       50
176
     1
 90
        3
176
     1
 62
     5
420
      255
176
     1
290
     0
176
     1
 90
       50
176
     1
 90
       50
176
     1
 90
       50
176
     1
290
     0
176
     1
 90
       50
176
     1
 62
   256
176
     0
 40
1.0
176
     0
 90
        2
176
     1
  1
strokes_ogs.tif
176
     1
290
     0
176
     1
 40
1.0
176
     1
 40
1.0
176
     1
  0
VISUALSTYLE
  5
34
102
{ACAD_REACTORS
330
29
102
}
330
29
100
AcDbVisualStyle
  2
Dim
 70
    11
177
     3
291
     1
 70
    58
 90
        2
176
     1
 90
        2
176
     1
 90
        0
176
     1
 90
        0
176
     1
 40
0.6
176
     1
 40
30.0
176
     1
 62
     7
420
 16777215
176
     1
 90
        1
176
     1
 90
        4
176
     1
 62
     7
176
     1
 62
   257
176
     1
 90
        1
176
     1
 90
        1
176
     1
 40
1.0
176
     1
 90
        8
176
     1
 62
     7
176
     1
 40
1.0
176
     1
 90
        1
176
     1
 90
        6
176
     1
 90
        2
176
     1
 62
     7
176
     1
 90
        5
176
     1
 90
        0
176
     1
 90
        0
176
     1
290
     0
176
     1
 90
        1
176
     1
 40
-50.0
176
     1
 90
        0
176
     1
290
     0
176
     1
290
     1
176
     1
290
     1
176
     1
290
     0
176
     1
290
     0
176
     1
290
     0
176
     1
290
     0
176
     1
290
     0
176
     1
290
     0
176
     1
 90
       50
176
     1
 40
0.0
176
     1
 40
1.0
176
     1
 90
        0
176
     1
 62
    18
420
        0
176
     1
 90
       50
176
     1
 90
        3
176
     1
 62
     5
420
      255
176
     1
290
     0
176
     1
 90
       50
176
     1
 90
       50
176
     1
 90
       50
176
     1
290
     0
176
     1
 90
       50
176
     1
 62
   256
176
     0
 40
1.0
176
     0
 90
        2
176
     1
  1
strokes_ogs.tif
176
     1
290
     0
176
     1
 40
1.0
176
     1
 40
1.0
176
     1
  0
VISUALSTYLE
  5
41
102
{ACAD_REACTORS
330
29
102
}
330
29
100
AcDbVisualStyle
  2
EdgeColorOff
 70
    22
177
     3
291
     1
 70
    58
 90
        2
176
     0
 90
        2
176
     0
 90
        0
176
     0
 90
        0
176
     0
 40
0.6
176
     0
 40
30.0
176
     0
 62
     7
420
 16777215
176
     0
 90
        1
176
     0
 90
        4
176
     0
 62
     7
176
     0
 62
   257
176
     0
 90
        1
176
     0
 90
        1
176
     0
 40
1.0
176
     0
 90
        8
176
     2
 62
     7
176
     0
 40
1.0
176
     0
 90
        1
176
     0
 90
        6
176
     0
 90
        2
176
     0
 62
     7
176
     0
 90
        5
176
     0
 90
        0
176
     0
 90
        0
176
     0
290
     0
176
     0
 90
        1
176
     0
 40
0.0
176
     0
 90
        0
176
     0
290
     0
176
     0
290
     1
176
     0
290
     1
176
     0
290
     0
176
     0
290
     0
176
     0
290
     0
176
     0
290
     0
176
     0
290
     0
176
     0
290
     0
176
     0
 90
       50
176
     0
 40
0.0
176
     0
 40
1.0
176
     0
 90
        0
176
     0
 62
    18
420
        0
176
     0
 90
       50
176
     0
 90
        3
176
     0
 62
     5
420
      255
176
     0
290
     0
176
     0
 90
       50
176
     0
 90
       50
176
     0
 90
       50
176
     0
290
     0
176
     0
 90
       50
176
     0
 62
   256
176
     0
 40
1.0
176
     0
 90
        2
176
     0
  1
strokes_ogs.tif
176
     0
290
     0
176
     0
 40
1.0
176
     0
 40
1.0
176
     0
  0
VISUALSTYLE
  5
38
102
{ACAD_REACTORS
330
29
102
}
330
29
100
AcDbVisualStyle
  2
Facepattern
 70
    15
177
     3
291
     1
 70
    58
 90
        2
176
     1
 90
        2
176
     1
 90
        0
176
     1
 90
        0
176
     1
 40
0.6
176
     1
 40
30.0
176
     1
 62
     7
420
 16777215
176
     1
 90
        1
176
     1
 90
        4
176
     1
 62
     7
176
     1
 62
   257
176
     1
 90
        1
176
     1
 90
        1
176
     1
 40
1.0
176
     1
 90
        8
176
     1
 62
     7
176
     1
 40
1.0
176
     1
 90
        1
176
     1
 90
        6
176
     1
 90
        2
176
     1
 62
     7
176
     1
 90
        5
176
     1
 90
        0
176
     1
 90
        0
176
     1
290
     0
176
     1
 90
        1
176
     1
 40
0.0
176
     1
 90
        0
176
     1
290
     0
176
     1
290
     1
176
     1
290
     1
176
     1
290
     0
176
     1
290
     0
176
     1
290
     0
176
     1
290
     0
176
     1
290
     0
176
     1
290
     0
176
     1
 90
       50
176
     1
 40
0.0
176
     1
 40
1.0
176
     1
 90
        0
176
     1
 62
    18
420
        0
176
     1
 90
       50
176
     1
 90
        3
176
     1
 62
     5
420
      255
176
     1
290
     0
176
     1
 90
       50
176
     1
 90
       50
176
     1
 90
       50
176
     1
290
     0
176
     1
 90
       50
176
     1
 62
   256
176
     0
 40
1.0
176
     0
 90
        2
176
     1
  1
strokes_ogs.tif
176
     1
290
     0
176
     1
 40
1.0
176
     1
 40
1.0
176
     1
  0
VISUALSTYLE
  5
2A
102
{ACAD_REACTORS
330
29
102
}
330
29
100
AcDbVisualStyle
  2
Flat
 70
     0
177
     3
291
     1
 70
    58
 90
        2
176
     1
 90
        1
176
     1
 90
        1
176
     1
 90
        2
176
     1
 40
0.6
176
     1
 40
30.0
176
     1
 62
     7
420
 16777215
176
     1
 90
        0
176
     1
 90
        0
176
     1
 62
     7
176
     1
 62
   257
176
     1
 90
        1
176
     1
 90
        1
176
     1
 40
1.0
176
     1
 90
        8
176
     1
 62
     7
176
     1
 40
1.0
176
     1
 90
        1
176
     1
 90
        6
176
     1
 90
        2
176
     1
 62
     7
176
     1
 90
        5
176
     1
 90
        0
176
     1
 90
        0
176
     1
290
     0
176
     1
 90
       13
176
     1
 40
0.0
176
     1
 90
        0
176
     1
290
     0
176
     1
290
     1
176
     1
290
     1
176
     1
290
     0
176
     1
290
     0
176
     1
290
     0
176
     1
290
     0
176
     1
290
     0
176
     1
290
     0
176
     1
 90
       50
176
     1
 40
0.0
176
     1
 40
1.0
176
     1
 90
        0
176
     1
 62
    18
420
        0
176
     1
 90
       50
176
     1
 90
        3
176
     1
 62
     5
420
      255
176
     1
290
     0
176
     1
 90
       50
176
     1
 90
       50
176
     1
 90
       50
176
     1
290
     0
176
     1
 90
       50
176
     1
 62
   256
176
     0
 40
1.0
176
     0
 90
        2
176
     1
  1
strokes_ogs.tif
176
     1
290
     0
176
     1
 40
1.0
176
     1
 40
1.0
176
     1
  0
VISUALSTYLE
  5
2B
102
{ACAD_REACTORS
330
29
102
}
330
29
100
AcDbVisualStyle
  2
FlatWithEdges
 70
     1
177
     3
291
     1
 70
    58
 90
        2
176
     1
 90
        1
176
     1
 90
        1
176
     1
 90
        2
176
     1
 40
0.6
176
     1
 40
30.0
176
     1
 62
     7
420
 16777215
176
     1
 90
        1
176
     1
 90
        0
176
     1
 62
     7
176
     1
 62
   257
176
     1
 90
        1
176
     1
 90
        1
176
     1
 40
1.0
176
     1
 90
        0
176
     1
 62
   257
176
     1
 40
1.0
176
     1
 90
        1
176
     1
 90
        6
176
     1
 90
        2
176
     1
 62
     7
176
     1
 90
        5
176
     1
 90
        0
176
     1
 90
        0
176
     1
290
     0
176
     1
 90
       13
176
     1
 40
0.0
176
     1
 90
        0
176
     1
290
     0
176
     1
290
     1
176
     1
290
     1
176
     1
290
     0
176
     1
290
     0
176
     1
290
     0
176
     1
290
     0
176
     1
290
     0
176
     1
290
     0
176
     1
 90
       50
176
     1
 40
0.0
176
     1
 40
1.0
176
     1
 90
        0
176
     1
 62
    18
420
        0
176
     1
 90
       50
176
     1
 90
        3
176
     1
 62
     5
420
      255
176
     1
290
     0
176
     1
 90
       50
176
     1
 90
       50
176
     1
 90
       50
176
     1
290
     0
176
     1
 90
       50
176
     1
 62
   256
176
     0
 40
1.0
176
     0
 90
        2
176
     1
  1
strokes_ogs.tif
176
     1
290
     0
176
     1
 40
1.0
176
     1
 40
1.0
176
     1
  0
VISUALSTYLE
  5
2C
102
{ACAD_REACTORS
330
29
102
}
330
29
100
AcDbVisualStyle
  2
Gouraud
 70
     2
177
     3
291
     1
 70
    58
 90
        2
176
     1
 90
        2
176
     1
 90
        1
176
     1
 90
        2
176
     1
 40
0.6
176
     1
 40
30.0
176
     1
 62
     7
420
 16777215
176
     1
 90
        0
176
     1
 90
        0
176
     1
 62
     7
176
     1
 62
   257
176
     1
 90
        1
176
     1
 90
        1
176
     1
 40
1.0
176
     1
 90
        0
176
     1
 62
     7
176
     1
 40
1.0
176
     1
 90
        1
176
     1
 90
        6
176
     1
 90
        2
176
     1
 62
     7
176
     1
 90
        5
176
     1
 90
        0
176
     1
 90
        0
176
     1
290
     0
176
     1
 90
       13
176
     1
 40
0.0
176
     1
 90
        0
176
     1
290
     0
176
     1
290
     1
176
     1
290
     1
176
     1
290
     0
176
     1
290
     0
176
     1
290
     0
176
     1
290
     0
176
     1
290
     0
176
     1
290
     0
176
     1
 90
       50
176
     1
 40
0.0
176
     1
 40
1.0
176
     1
 90
        0
176
     1
 62
    18
420
        0
176
     1
 90
       50
176
     1
 90
        3
176
     1
 62
     5
420
      255
176
     1
290
     0
176
     1
 90
       50
176
     1
 90
       50
176
     1
 90
       50
176
     1
290
     0
176
     1
 90
       50
176
     1
 62
   256
176
     0
 40
1.0
176
     0
 90
        2
176
     1
  1
strokes_ogs.tif
176
     1
290
     0
176
     1
 40
1.0
176
     1
 40
1.0
176
     1
  0
VISUALSTYLE
  5
2D
102
{ACAD_REACTORS
330
29
102
}
330
29
100
AcDbVisualStyle
  2
GouraudWithEdges
 70
     3
177
     3
291
     1
 70
    58
 90
        2
176
     1
 90
        2
176
     1
 90
        1
176
     1
 90
        2
176
     1
 40
0.6
176
     1
 40
30.0
176
     1
 62
     7
420
 16777215
176
     1
 90
        1
176
     1
 90
        0
176
     1
 62
     7
176
     1
 62
   257
176
     1
 90
        1
176
     1
 90
        1
176
     1
 40
1.0
176
     1
 90
        0
176
     1
 62
   257
176
     1
 40
1.0
176
     1
 90
        1
176
     1
 90
        6
176
     1
 90
        2
176
     1
 62
     7
176
     1
 90
        5
176
     1
 90
        0
176
     1
 90
        0
176
     1
290
     0
176
     1
 90
       13
176
     1
 40
0.0
176
     1
 90
        0
176
     1
290
     0
176
     1
290
     1
176
     1
290
     1
176
     1
290
     0
176
     1
290
     0
176
     1
290
     0
176
     1
290
     0
176
     1
290
     0
176
     1
290
     0
176
     1
 90
       50
176
     1
 40
0.0
176
     1
 40
1.0
176
     1
 90
        0
176
     1
 62
    18
420
        0
176
     1
 90
       50
176
     1
 90
        3
176
     1
 62
     5
420
      255
176
     1
290
     0
176
     1
 90
       50
176
     1
 90
       50
176
     1
 90
       50
176
     1
290
     0
176
     1
 90
       50
176
     1
 62
   256
176
     0
 40
1.0
176
     0
 90
        2
176
     1
  1
strokes_ogs.tif
176
     1
290
     0
176
     1
 40
1.0
176
     1
 40
1.0
176
     1
  0
VISUALSTYLE
  5
31
102
{ACAD_REACTORS
330
29
102
}
330
29
100
AcDbVisualStyle
  2
Hidden
 70
     6
177
     3
291
     0
 70
    58
 90
        1
176
     1
 90
        2
176
     1
 90
        2
176
     1
 90
        0
176
     1
 40
0.6
176
     1
 40
30.0
176
     1
 62
     7
420
 16777215
176
     1
 90
        2
176
     1
 90
        2
176
     1
 62
     7
176
     1
 62
   257
176
     1
 90
        2
176
     1
 90
        1
176
     1
 40
40.0
176
     1
 90
        0
176
     1
 62
   257
176
     1
 40
1.0
176
     1
 90
        1
176
     1
 90
        6
176
     1
 90
        2
176
     1
 62
     7
176
     1
 90
        3
176
     1
 90
        0
176
     1
 90
        0
176
     1
290
     0
176
     1
 90
        1
176
     1
 40
0.0
176
     1
 90
        0
176
     1
290
     0
176
     1
290
     1
176
     1
290
     1
176
     1
290
     0
176
     1
290
     0
176
     1
290
     0
176
     1
290
     0
176
     1
290
     0
176
     1
290
     0
176
     1
 90
       50
176
     1
 40
0.0
176
     1
 40
1.0
176
     1
 90
        0
176
     1
 62
    18
420
        0
176
     1
 90
       50
176
     1
 90
        3
176
     1
 62
     5
420
      255
176
     1
290
     0
176
     1
 90
       50
176
     1
 90
       50
176
     1
 90
       50
176
     1
290
     0
176
     1
 90
       50
176
     1
 62
   256
176
     0
 40
1.0
176
     0
 90
        2
176
     1
  1
strokes_ogs.tif
176
     1
290
     0
176
     1
 40
1.0
176
     1
 40
1.0
176
     1
  0
VISUALSTYLE
  5
3F
102
{ACAD_REACTORS
330
29
102
}
330
29
100
AcDbVisualStyle
  2
JitterOff
 70
    20
177
     3
291
     1
 70
    58
 90
        2
176
     0
 90
        2
176
     0
 90
        0
176
     0
 90
        0
176
     0
 40
0.6
176
     0
 40
30.0
176
     0
 62
     7
420
 16777215
176
     0
 90
        1
176
     0
 90
        4
176
     0
 62
     7
176
     0
 62
   257
176
     0
 90
        1
176
     0
 90
        1
176
     0
 40
1.0
176
     0
 90
       10
176
     2
 62
     7
176
     0
 40
1.0
176
     0
 90
        1
176
     0
 90
        6
176
     0
 90
        2
176
     0
 62
     7
176
     0
 90
        5
176
     0
 90
        0
176
     0
 90
        0
176
     0
290
     0
176
     0
 90
        1
176
     0
 40
0.0
176
     0
 90
        0
176
     0
290
     0
176
     0
290
     1
176
     0
290
     1
176
     0
290
     0
176
     0
290
     0
176
     0
290
     0
176
     0
290
     0
176
     0
290
     0
176
     0
290
     0
176
     0
 90
       50
176
     0
 40
0.0
176
     0
 40
1.0
176
     0
 90
        0
176
     0
 62
    18
420
        0
176
     0
 90
       50
176
     0
 90
        3
176
     0
 62
     5
420
      255
176
     0
290
     0
176
     0
 90
       50
176
     0
 90
       50
176
     0
 90
       50
176
     0
290
     0
176
     0
 90
       50
176
     0
 62
   256
176
     0
 40
1.0
176
     0
 90
        2
176
     0
  1
strokes_ogs.tif
176
     0
290
     0
176
     0
 40
1.0
176
     0
 40
1.0
176
     0
  0
VISUALSTYLE
  5
37
102
{ACAD_REACTORS
330
29
102
}
330
29
100
AcDbVisualStyle
  2
Linepattern
 70
    14
177
     3
291
     1
 70
    58
 90
        2
176
     1
 90
        2
176
     1
 90
        0
176
     1
 90
        0
176
     1
 40
0.6
176
     1
 40
30.0
176
     1
 62
     7
420
 16777215
176
     1
 90
        1
176
     1
 90
        4
176
     1
 62
     7
176
     1
 62
   257
176
     1
 90
        7
176
     1
 90
        7
176
     1
 40
1.0
176
     1
 90
        8
176
     1
 62
     7
176
     1
 40
1.0
176
     1
 90
        1
176
     1
 90
        6
176
     1
 90
        2
176
     1
 62
     7
176
     1
 90
        5
176
     1
 90
        0
176
     1
 90
        0
176
     1
290
     0
176
     1
 90
        1
176
     1
 40
0.0
176
     1
 90
        0
176
     1
290
     0
176
     1
290
     1
176
     1
290
     1
176
     1
290
     0
176
     1
290
     0
176
     1
290
     0
176
     1
290
     0
176
     1
290
     0
176
     1
290
     0
176
     1
 90
       50
176
     1
 40
0.0
176
     1
 40
1.0
176
     1
 90
        0
176
     1
 62
    18
420
        0
176
     1
 90
       50
176
     1
 90
        3
176
     1
 62
     5
420
      255
176
     1
290
     0
176
     1
 90
       50
176
     1
 90
       50
176
     1
 90
       50
176
     1
290
     0
176
     1
 90
       50
176
     1
 62
   256
176
     0
 40
1.0
176
     0
 90
        2
176
     1
  1
strokes_ogs.tif
176
     1
290
     0
176
     1
 40
1.0
176
     1
 40
1.0
176
     1
  0
VISUALSTYLE
  5
40
102
{ACAD_REACTORS
330
29
102
}
330
29
100
AcDbVisualStyle
  2
OverhangOff
 70
    21
177
     3
291
     1
 70
    58
 90
        2
176
     0
 90
        2
176
     0
 90
        0
176
     0
 90
        0
176
     0
 40
0.6
176
     0
 40
30.0
176
     0
 62
     7
420
 16777215
176
     0
 90
        1
176
     0
 90
        4
176
     0
 62
     7
176
     0
 62
   257
176
     0
 90
        1
176
     0
 90
        1
176
     0
 40
1.0
176
     0
 90
        9
176
     2
 62
     7
176
     0
 40
1.0
176
     0
 90
        1
176
     0
 90
        6
176
     0
 90
        2
176
     0
 62
     7
176
     0
 90
        5
176
     0
 90
        0
176
     0
 90
        0
176
     0
290
     0
176
     0
 90
        1
176
     0
 40
0.0
176
     0
 90
        0
176
     0
290
     0
176
     0
290
     1
176
     0
290
     1
176
     0
290
     0
176
     0
290
     0
176
     0
290
     0
176
     0
290
     0
176
     0
290
     0
176
     0
290
     0
176
     0
 90
       50
176
     0
 40
0.0
176
     0
 40
1.0
176
     0
 90
        0
176
     0
 62
    18
420
        0
176
     0
 90
       50
176
     0
 90
        3
176
     0
 62
     5
420
      255
176
     0
290
     0
176
     0
 90
       50
176
     0
 90
       50
176
     0
 90
       50
176
     0
290
     0
176
     0
 90
       50
176
     0
 62
   256
176
     0
 40
1.0
176
     0
 90
        2
176
     0
  1
strokes_ogs.tif
176
     0
290
     0
176
     0
 40
1.0
176
     0
 40
1.0
176
     0
  0
VISUALSTYLE
  5
33
102
{ACAD_REACTORS
330
29
102
}
330
29
100
AcDbVisualStyle
  2
Realistic
 70
     8
177
     3
291
     0
 70
    58
 90
        2
176
     1
 90
        3
176
     1
 90
        0
176
     1
 90
        2
176
     1
 40
0.6
176
     1
 40
30.0
176
     1
 62
     7
420
 16777215
176
     1
 90
        0
176
     1
 90
        0
176
     1
 62
     7
176
     1
 62
   257
176
     1
 90
        1
176
     1
 90
        1
176
     1
 40
1.0
176
     1
 90
        8
176
     1
 62
   257
176
     1
 40
1.0
176
     1
 90
        1
176
     1
 90
        6
176
     1
 90
        2
176
     1
 62
     7
176
     1
 90
        3
176
     1
 90
        0
176
     1
 90
        0
176
     1
290
     0
176
     1
 90
       13
176
     1
 40
0.0
176
     1
 90
        0
176
     1
290
     0
176
     1
290
     1
176
     1
290
     1
176
     1
290
     0
176
     1
290
     0
176
     1
290
     0
176
     1
290
     0
176
     1
290
     0
176
     1
290
     0
176
     1
 90
       50
176
     1
 40
0.0
176
     1
 40
1.0
176
     1
 90
        0
176
     1
 62
    18
420
        0
176
     1
 90
       50
176
     1
 90
        3
176
     1
 62
     5
420
      255
176
     1
290
     0
176
     1
 90
       50
176
     1
 90
       50
176
     1
 90
       50
176
     1
290
     0
176
     1
 90
       50
176
     1
 62
   256
176
     0
 40
1.0
176
     0
 90
        2
176
     1
  1
strokes_ogs.tif
176
     1
290
     0
176
     1
 40
1.0
176
     1
 40
1.0
176
     1
  0
VISUALSTYLE
  5
3E
102
{ACAD_REACTORS
330
29
102
}
330
29
100
AcDbVisualStyle
  2
Shaded
 70
    27
177
     3
291
     0
 70
    58
 90
        2
176
     1
 90
        2
176
     1
 90
        1
176
     1
 90
        2
176
     1
 40
0.6
176
     1
 40
30.0
176
     1
 62
     7
420
 16777215
176
     1
 90
        0
176
     1
 90
        4
176
     1
 62
     7
176
     1
 62
   257
176
     1
 90
        1
176
     1
 90
        1
176
     1
 40
1.0
176
     1
 90
        8
176
     1
 62
   257
176
     1
 40
1.0
176
     1
 90
        1
176
     1
 90
        6
176
     1
 90
        2
176
     1
 62
     8
420
  7895160
176
     1
 90
        3
176
     1
 90
        0
176
     1
 90
        0
176
     1
290
     0
176
     1
 90
        5
176
     1
 40
0.0
176
     1
 90
        0
176
     1
290
     0
176
     1
290
     1
176
     1
290
     1
176
     1
290
     0
176
     1
290
     0
176
     1
290
     0
176
     1
290
     0
176
     1
290
     0
176
     1
290
     0
176
     1
 90
       50
176
     1
 40
0.0
176
     1
 40
1.0
176
     1
 90
        0
176
     1
 62
    18
420
        0
176
     1
 90
       50
176
     1
 90
        3
176
     1
 62
     5
420
      255
176
     1
290
     0
176
     1
 90
       50
176
     1
 90
       50
176
     1
 90
       50
176
     1
290
     0
176
     1
 90
       50
176
     1
 62
   256
176
     0
 40
1.0
176
     0
 90
        2
176
     1
  1
strokes_ogs.tif
176
     1
290
     0
176
     1
 40
1.0
176
     1
 40
1.0
176
     1
  0
VISUALSTYLE
  5
3D
102
{ACAD_REACTORS
330
29
102
}
330
29
100
AcDbVisualStyle
  2
Shaded with edges
 70
    26
177
     3
291
     0
 70
    58
 90
        2
176
     1
 90
        2
176
     1
 90
        1
176
     1
 90
        2
176
     1
 40
0.6
176
     1
 40
30.0
176
     1
 62
     7
420
 16777215
176
     1
 90
        1
176
     1
 90
       10
176
     1
 62
     7
176
     1
 62
   257
176
     1
 90
        2
176
     1
 90
        1
176
     1
 40
1.0
176
     1
 90
        8
176
     1
 62
   257
176
     1
 40
1.0
176
     1
 90
        1
176
     1
 90
        6
176
     1
 90
        2
176
     1
 62
     7
176
     1
 90
        3
176
     1
 90
        0
176
     1
 90
        0
176
     1
290
     0
176
     1
 90
        5
176
     1
 40
0.0
176
     1
 90
        0
176
     1
290
     0
176
     1
290
     1
176
     1
290
     1
176
     1
290
     0
176
     1
290
     0
176
     1
290
     0
176
     1
290
     0
176
     1
290
     0
176
     1
290
     0
176
     1
 90
       50
176
     1
 40
0.0
176
     1
 40
1.0
176
     1
 90
        0
176
     1
 62
    18
420
        0
176
     1
 90
       50
176
     1
 90
        3
176
     1
 62
     5
420
      255
176
     1
290
     0
176
     1
 90
       50
176
     1
 90
       50
176
     1
 90
       50
176
     1
290
     0
176
     1
 90
       50
176
     1
 62
   256
176
     0
 40
1.0
176
     0
 90
        2
176
     1
  1
strokes_ogs.tif
176
     1
290
     0
176
     1
 40
1.0
176
     1
 40
1.0
176
     1
  0
VISUALSTYLE
  5
3A
102
{ACAD_REACTORS
330
29
102
}
330
29
100
AcDbVisualStyle
  2
Shades of Gray
 70
    23
177
     3
291
     0
 70
    58
 90
        2
176
     1
 90
        2
176
     1
 90
        3
176
     1
 90
        0
176
     1
 40
0.6
176
     1
 40
30.0
176
     1
 62
     7
420
 16777215
176
     1
 90
        2
176
     1
 90
        2
176
     1
 62
     7
176
     1
 62
     7
176
     1
 90
        1
176
     1
 90
        1
176
     1
 40
40.0
176
     1
 90
        8
176
     1
 62
     7
176
     1
 40
1.0
176
     1
 90
        1
176
     1
 90
        6
176
     1
 90
        2
176
     1
 62
     7
176
     1
 90
        3
176
     1
 90
        0
176
     1
 90
        0
176
     1
290
     0
176
     1
 90
        1
176
     1
 40
0.0
176
     1
 90
        0
176
     1
290
     0
176
     1
290
     1
176
     1
290
     1
176
     1
290
     0
176
     1
290
     0
176
     1
290
     0
176
     1
290
     0
176
     1
290
     0
176
     1
290
     0
176
     1
 90
       50
176
     1
 40
0.0
176
     1
 40
1.0
176
     1
 90
        0
176
     1
 62
    18
420
        0
176
     1
 90
       50
176
     1
 90
        3
176
     1
 62
     5
420
      255
176
     1
290
     0
176
     1
 90
       50
176
     1
 90
       50
176
     1
 90
       50
176
     1
290
     0
176
     1
 90
       50
176
     1
 62
   256
176
     0
 40
1.0
176
     0
 90
        2
176
     1
  1
strokes_ogs.tif
176
     1
290
     0
176
     1
 40
1.0
176
     1
 40
1.0
176
     1
  0
VISUALSTYLE
  5
3B
102
{ACAD_REACTORS
330
29
102
}
330
29
100
AcDbVisualStyle
  2
Sketchy
 70
    24
177
     3
291
     0
 70
    58
 90
        1
176
     1
 90
        2
176
     1
 90
        2
176
     1
 90
        0
176
     1
 40
0.6
176
     1
 40
30.0
176
     1
 62
     7
420
 16777215
176
     1
 90
        2
176
     1
 90
        2
176
     1
 62
     7
176
     1
 62
     7
176
     1
 90
        1
176
     1
 90
        1
176
     1
 40
40.0
176
     1
 90
       11
176
     1
 62
     7
176
     1
 40
1.0
176
     1
 90
        1
176
     1
 90
        6
176
     1
 90
        2
176
     1
 62
     7
176
     1
 90
        6
176
     1
 90
        0
176
     1
 90
        0
176
     1
290
     0
176
     1
 90
        1
176
     1
 40
0.0
176
     1
 90
        0
176
     1
290
     0
176
     1
290
     1
176
     1
290
     1
176
     1
290
     0
176
     1
290
     0
176
     1
290
     0
176
     1
290
     0
176
     1
290
     0
176
     1
290
     0
176
     1
 90
       50
176
     1
 40
0.0
176
     1
 40
1.0
176
     1
 90
        0
176
     1
 62
    18
420
        0
176
     1
 90
       50
176
     1
 90
        3
176
     1
 62
     5
420
      255
176
     1
290
     0
176
     1
 90
       50
176
     1
 90
       50
176
     1
 90
       50
176
     1
290
     0
176
     1
 90
       50
176
     1
 62
   256
176
     0
 40
1.0
176
     0
 90
        2
176
     1
  1
strokes_ogs.tif
176
     1
290
     0
176
     1
 40
1.0
176
     1
 40
1.0
176
     1
  0
VISUALSTYLE
  5
36
102
{ACAD_REACTORS
330
29
102
}
330
29
100
AcDbVisualStyle
  2
Thicken
 70
    13
177
     3
291
     1
 70
    58
 90
        2
176
     1
 90
        2
176
     1
 90
        0
176
     1
 90
        0
176
     1
 40
0.6
176
     1
 40
30.0
176
     1
 62
     7
420
 16777215
176
     1
 90
        1
176
     1
 90
        4
176
     1
 62
     7
176
     1
 62
   257
176
     1
 90
        1
176
     1
 90
        1
176
     1
 40
1.0
176
     1
 90
       12
176
     1
 62
     7
176
     1
 40
1.0
176
     1
 90
        1
176
     1
 90
        6
176
     1
 90
        2
176
     1
 62
     7
176
     1
 90
        5
176
     1
 90
        0
176
     1
 90
        0
176
     1
290
     0
176
     1
 90
        1
176
     1
 40
0.0
176
     1
 90
        0
176
     1
290
     0
176
     1
290
     1
176
     1
290
     1
176
     1
290
     0
176
     1
290
     0
176
     1
290
     0
176
     1
290
     0
176
     1
290
     0
176
     1
290
     0
176
     1
 90
       50
176
     1
 40
0.0
176
     1
 40
1.0
176
     1
 90
        0
176
     1
 62
    18
420
        0
176
     1
 90
       50
176
     1
 90
        3
176
     1
 62
     5
420
      255
176
     1
290
     0
176
     1
 90
       50
176
     1
 90
       50
176
     1
 90
       50
176
     1
290
     0
176
     1
 90
       50
176
     1
 62
   256
176
     0
 40
1.0
176
     0
 90
        2
176
     1
  1
strokes_ogs.tif
176
     1
290
     0
176
     1
 40
1.0
176
     1
 40
1.0
176
     1
  0
VISUALSTYLE
  5
30
102
{ACAD_REACTORS
330
29
102
}
330
29
100
AcDbVisualStyle
  2
Wireframe
 70
     5
177
     3
291
     0
 70
    58
 90
        0
176
     1
 90
        2
176
     1
 90
        0
176
     1
 90
        0
176
     1
 40
0.6
176
     1
 40
30.0
176
     1
 62
     7
420
 16777215
176
     1
 90
        1
176
     1
 90
        4
176
     1
 62
     7
176
     1
 62
   257
176
     1
 90
        1
176
     1
 90
        1
176
     1
 40
1.0
176
     1
 90
        0
176
     1
 62
   257
176
     1
 40
1.0
176
     1
 90
        1
176
     1
 90
        6
176
     1
 90
        2
176
     1
 62
     7
176
     1
 90
        3
176
     1
 90
        0
176
     1
 90
        0
176
     1
290
     0
176
     1
 90
        1
176
     1
 40
0.0
176
     1
 90
        0
176
     1
290
     0
176
     1
290
     1
176
     1
290
     1
176
     1
290
     0
176
     1
290
     0
176
     1
290
     0
176
     1
290
     0
176
     1
290
     0
176
     1
290
     0
176
     1
 90
       50
176
     1
 40
0.0
176
     1
 40
1.0
176
     1
 90
        0
176
     1
 62
    18
420
        0
176
     1
 90
       50
176
     1
 90
        3
176
     1
 62
     5
420
      255
176
     1
290
     0
176
     1
 90
       50
176
     1
 90
       50
176
     1
 90
       50
176
     1
290
     0
176
     1
 90
       50
176
     1
 62
   256
176
     0
 40
1.0
176
     0
 90
        2
176
     1
  1
strokes_ogs.tif
176
     1
290
     0
176
     1
 40
1.0
176
     1
 40
1.0
176
     1
  0
VISUALSTYLE
  5
3C
102
{ACAD_REACTORS
330
29
102
}
330
29
100
AcDbVisualStyle
  2
X-Ray
 70
    25
177
     3
291
     0
 70
    58
 90
        2
176
     1
 90
        2
176
     1
 90
        1
176
     1
 90
        1
176
     1
 40
0.5
176
     1
 40
30.0
176
     1
 62
     7
420
 16777215
176
     1
 90
        1
176
     1
 90
        0
176
     1
 62
     7
176
     1
 62
   257
176
     1
 90
        1
176
     1
 90
        1
176
     1
 40
1.0
176
     1
 90
        8
176
     1
 62
     7
176
     1
 40
1.0
176
     1
 90
        1
176
     1
 90
        6
176
     1
 90
        2
176
     1
 62
     7
176
     1
 90
        3
176
     1
 90
        0
176
     1
 90
        0
176
     1
290
     0
176
     1
 90
       13
176
     1
 40
0.0
176
     1
 90
        0
176
     1
290
     0
176
     1
290
     1
176
     1
290
     1
176
     1
290
     0
176
     1
290
     0
176
     1
290
     0
176
     1
290
     0
176
     1
290
     0
176
     1
290
     0
176
     1
 90
       50
176
     1
 40
0.0
176
     1
 40
1.0
176
     1
 90
        0
176
     1
 62
    18
420
        0
176
     1
 90
       50
176
     1
 90
        3
176
     1
 62
     5
420
      255
176
     1
290
     0
176
     1
 90
       50
176
     1
 90
       50
176
     1
 90
       50
176
     1
290
     0
176
     1
 90
       50
176
     1
 62
   256
176
     0
 40
1.0
176
     0
 90
        2
176
     1
  1
strokes_ogs.tif
176
     1
290
     0
176
     1
 40
1.0
176
     1
 40
1.0
176
     1
  0
DICTIONARYVAR
  5
81
102
{ACAD_REACTORS
330
7C
102
}
330
7C
100
DictionaryVariables
280
     0
  1
1:1
  0
DICTIONARYVAR
  5
7E
102
{ACAD_REACTORS
330
7C
102
}
330
7C
100
DictionaryVariables
280
     0
  1
STANDARD
  0
DICTIONARYVAR
  5
7D
102
{ACAD_REACTORS
330
7C
102
}
330
7C
100
DictionaryVariables
280
     0
  1
STANDARD
  0
DICTIONARYVAR
  5
7F
102
{ACAD_REACTORS
330
7C
102
}
330
7C
100
DictionaryVariables
280
     0
  1
Imperial24
  0
DICTIONARYVAR
  5
80
102
{ACAD_REACTORS
330
7C
102
}
330
7C
100
DictionaryVariables
280
     0
  1
Imperial24
  0
XRECORD
  5
333
102
{ACAD_REACTORS
330
32F
102
}
330
32F
100
AcDbXrecord
280
     1
  1
BUILDING_ID
  1
Progetto per messa in tavola DXF, DWG
  1
FLOOR_ID
  1
694395
  0
XRECORD
  5
331
102
{ACAD_REACTORS
330
32F
102
}
330
32F
100
AcDbXrecord
280
     1
  1
-2001160
  1
Apparecchi idraulici
  0
XRECORD
  5
332
102
{ACAD_REACTORS
330
32F
102
}
330
32F
100
AcDbXrecord
280
     1
  1
923159
  1
Pressure gauge
  0
XRECORD
  5
330
102
{ACAD_REACTORS
330
32F
102
}
330
32F
100
AcDbXrecord
280
     1
  1
928898
  1
Automatic flow rate regulator valve_Caleffi_121 DN15 : 1 1/2''_Pressure gauge
  0
DICTIONARY
  5
1A
330
19
100
AcDbDictionary
280
     1
281
     1
  3
BUMPTILE
360
1C
  3
DIFFUSETILE
360
1B
  3
OPACITYTILE
360
1F
  3
REFLECTIONTILE
360
1E
  3
REFRACTIONTILE
360
20
  3
SPECULARTILE
360
1D
  0
DICTIONARY
  5
12
330
11
100
AcDbDictionary
280
     1
281
     1
  3
BUMPTILE
360
14
  3
DIFFUSETILE
360
13
  3
OPACITYTILE
360
17
  3
REFLECTIONTILE
360
16
  3
REFRACTIONTILE
360
18
  3
SPECULARTILE
360
15
  0
DICTIONARY
  5
22
330
21
100
AcDbDictionary
280
     1
281
     1
  3
BUMPTILE
360
24
  3
DIFFUSETILE
360
23
  3
OPACITYTILE
360
27
  3
REFLECTIONTILE
360
26
  3
REFRACTIONTILE
360
28
  3
SPECULARTILE
360
25
  0
DICTIONARY
  5
336
330
65
100
AcDbDictionary
280
     1
281
     1
  3
ACAD_ROUNDTRIP_2008_TABLESTYLE_CELLSTYLEMAP
360
337
  0
XRECORD
  5
1C
102
{ACAD_REACTORS
330
1A
102
}
330
1A
100
AcDbXrecord
280
     1
270
     1
271
     1
  0
XRECORD
  5
1B
102
{ACAD_REACTORS
330
1A
102
}
330
1A
100
AcDbXrecord
280
     1
270
     1
271
     1
  0
XRECORD
  5
1F
102
{ACAD_REACTORS
330
1A
102
}
330
1A
100
AcDbXrecord
280
     1
270
     1
271
     1
  0
XRECORD
  5
1E
102
{ACAD_REACTORS
330
1A
102
}
330
1A
100
AcDbXrecord
280
     1
270
     1
271
     1
  0
XRECORD
  5
20
102
{ACAD_REACTORS
330
1A
102
}
330
1A
100
AcDbXrecord
280
     1
270
     1
271
     1
  0
XRECORD
  5
1D
102
{ACAD_REACTORS
330
1A
102
}
330
1A
100
AcDbXrecord
280
     1
270
     1
271
     1
  0
XRECORD
  5
14
102
{ACAD_REACTORS
330
12
102
}
330
12
100
AcDbXrecord
280
     1
270
     1
271
     1
  0
XRECORD
  5
13
102
{ACAD_REACTORS
330
12
102
}
330
12
100
AcDbXrecord
280
     1
270
     1
271
     1
  0
XRECORD
  5
17
102
{ACAD_REACTORS
330
12
102
}
330
12
100
AcDbXrecord
280
     1
270
     1
271
     1
  0
XRECORD
  5
16
102
{ACAD_REACTORS
330
12
102
}
330
12
100
AcDbXrecord
280
     1
270
     1
271
     1
  0
XRECORD
  5
18
102
{ACAD_REACTORS
330
12
102
}
330
12
100
AcDbXrecord
280
     1
270
     1
271
     1
  0
XRECORD
  5
15
102
{ACAD_REACTORS
330
12
102
}
330
12
100
AcDbXrecord
280
     1
270
     1
271
     1
  0
XRECORD
  5
24
102
{ACAD_REACTORS
330
22
102
}
330
22
100
AcDbXrecord
280
     1
270
     1
271
     1
  0
XRECORD
  5
23
102
{ACAD_REACTORS
330
22
102
}
330
22
100
AcDbXrecord
280
     1
270
     1
271
     1
  0
XRECORD
  5
27
102
{ACAD_REACTORS
330
22
102
}
330
22
100
AcDbXrecord
280
     1
270
     1
271
     1
  0
XRECORD
  5
26
102
{ACAD_REACTORS
330
22
102
}
330
22
100
AcDbXrecord
280
     1
270
     1
271
     1
  0
XRECORD
  5
28
102
{ACAD_REACTORS
330
22
102
}
330
22
100
AcDbXrecord
280
     1
270
     1
271
     1
  0
XRECORD
  5
25
102
{ACAD_REACTORS
330
22
102
}
330
22
100
AcDbXrecord
280
     1
270
     1
271
     1
  0
CELLSTYLEMAP
  5
337
102
{ACAD_REACTORS
330
336
102
}
330
336
100
AcDbCellStyleMap
 90
        3
300
CELLSTYLE
  1
TABLEFORMAT_BEGIN
 90
        5
170
     1
 91
        0
 92
    32768
 62
   257
 93
        1
300
CONTENTFORMAT
  1
CONTENTFORMAT_BEGIN
 90
        0
 91
        0
 92
      512
 93
        0
300

 40
0.0
140
1.0
 94
        5
 62
     0
340
55
144
0.25
309
CONTENTFORMAT_END
171
     0
 94
        0
309
TABLEFORMAT_END
  1
CELLSTYLE_BEGIN
 90
        1
 91
        1
300
_TITLE
309
CELLSTYLE_END
300
CELLSTYLE
  1
TABLEFORMAT_BEGIN
 90
        5
170
     1
 91
        0
 92
        0
 62
   257
 93
        1
300
CONTENTFORMAT
  1
CONTENTFORMAT_BEGIN
 90
        0
 91
        0
 92
      512
 93
        0
300

 40
0.0
140
1.0
 94
        5
 62
     0
340
55
144
0.18
309
CONTENTFORMAT_END
171
     0
 94
        0
309
TABLEFORMAT_END
  1
CELLSTYLE_BEGIN
 90
        2
 91
        1
300
_HEADER
309
CELLSTYLE_END
300
CELLSTYLE
  1
TABLEFORMAT_BEGIN
 90
        5
170
     1
 91
        0
 92
        0
 62
   257
 93
        1
300
CONTENTFORMAT
  1
CONTENTFORMAT_BEGIN
 90
        0
 91
        0
 92
      512
 93
        0
300

 40
0.0
140
1.0
 94
        2
 62
     0
340
55
144
0.18
309
CONTENTFORMAT_END
171
     0
 94
        0
309
TABLEFORMAT_END
  1
CELLSTYLE_BEGIN
 90
        3
 91
        2
300
_DATA
309
CELLSTYLE_END
  0
ENDSEC
  0
EOF
