  0
SECTION
  2
HEADER
  9
$ACADVER
  1
AC1027
  9
$ACADMAINTVER
 70
    20
  9
$DWGCODEPAGE
  3
ANSI_1252
  9
$REQUIREDVERSIONS
160
                 0
  9
$INSBASE
 10
0.0
 20
0.0
 30
0.0
  9
$EXTMIN
 10
717.6664074431483
 20
1705.245878730053
 30
-0.00000001
  9
$EXTMAX
 10
1268.114353943097
 20
2130.000000000043
 30
0.00000001
  9
$LIMMIN
 10
0.0
 20
0.0
  9
$LIMMAX
 10
12.0
 20
9.0
  9
$ORTHOMODE
 70
     0
  9
$REGENMODE
 70
     1
  9
$FILLMODE
 70
     1
  9
$QTEXTMODE
 70
     0
  9
$MIRRTEXT
 70
     0
  9
$LTSCALE
 40
1.0
  9
$ATTMODE
 70
     1
  9
$TEXTSIZE
 40
0.2
  9
$TRACEWID
 40
0.05
  9
$TEXTSTYLE
  7
Standard
  9
$CLAYER
  8
0
  9
$CELTYPE
  6
ByLayer
  9
$CECOLOR
 62
   256
  9
$CELTSCALE
 40
1.0
  9
$DISPSILH
 70
     0
  9
$DIMSCALE
 40
1.0
  9
$DIMASZ
 40
0.18
  9
$DIMEXO
 40
0.0625
  9
$DIMDLI
 40
0.38
  9
$DIMRND
 40
0.0
  9
$DIMDLE
 40
0.0
  9
$DIMEXE
 40
0.18
  9
$DIMTP
 40
0.0
  9
$DIMTM
 40
0.0
  9
$DIMTXT
 40
0.18
  9
$DIMCEN
 40
0.09
  9
$DIMTSZ
 40
0.0
  9
$DIMTOL
 70
     0
  9
$DIMLIM
 70
     0
  9
$DIMTIH
 70
     1
  9
$DIMTOH
 70
     1
  9
$DIMSE1
 70
     0
  9
$DIMSE2
 70
     0
  9
$DIMTAD
 70
     0
  9
$DIMZIN
 70
     0
  9
$DIMBLK
  1

  9
$DIMASO
 70
     1
  9
$DIMSHO
 70
     1
  9
$DIMPOST
  1

  9
$DIMAPOST
  1

  9
$DIMALT
 70
     0
  9
$DIMALTD
 70
     2
  9
$DIMALTF
 40
25.4
  9
$DIMLFAC
 40
1.0
  9
$DIMTOFL
 70
     0
  9
$DIMTVP
 40
0.0
  9
$DIMTIX
 70
     0
  9
$DIMSOXD
 70
     0
  9
$DIMSAH
 70
     0
  9
$DIMBLK1
  1

  9
$DIMBLK2
  1

  9
$DIMSTYLE
  2
Standard
  9
$DIMCLRD
 70
     0
  9
$DIMCLRE
 70
     0
  9
$DIMCLRT
 70
     0
  9
$DIMTFAC
 40
1.0
  9
$DIMGAP
 40
0.09
  9
$DIMJUST
 70
     0
  9
$DIMSD1
 70
     0
  9
$DIMSD2
 70
     0
  9
$DIMTOLJ
 70
     1
  9
$DIMTZIN
 70
     0
  9
$DIMALTZ
 70
     0
  9
$DIMALTTZ
 70
     0
  9
$DIMUPT
 70
     0
  9
$DIMDEC
 70
     4
  9
$DIMTDEC
 70
     4
  9
$DIMALTU
 70
     2
  9
$DIMALTTD
 70
     2
  9
$DIMTXSTY
  7
Standard
  9
$DIMAUNIT
 70
     0
  9
$DIMADEC
 70
     0
  9
$DIMALTRND
 40
0.0
  9
$DIMAZIN
 70
     0
  9
$DIMDSEP
 70
    46
  9
$DIMATFIT
 70
     3
  9
$DIMFRAC
 70
     0
  9
$DIMLDRBLK
  1

  9
$DIMLUNIT
 70
     2
  9
$DIMLWD
 70
    -2
  9
$DIMLWE
 70
    -2
  9
$DIMTMOVE
 70
     0
  9
$DIMFXL
 40
1.0
  9
$DIMFXLON
 70
     0
  9
$DIMJOGANG
 40
0.7853981633974483
  9
$DIMTFILL
 70
     0
  9
$DIMTFILLCLR
 70
     0
  9
$DIMARCSYM
 70
     0
  9
$DIMLTYPE
  6

  9
$DIMLTEX1
  6

  9
$DIMLTEX2
  6

  9
$DIMTXTDIRECTION
 70
     0
  9
$LUNITS
 70
     2
  9
$LUPREC
 70
     4
  9
$SKETCHINC
 40
0.1
  9
$FILLETRAD
 40
0.0
  9
$AUNITS
 70
     0
  9
$AUPREC
 70
     0
  9
$MENU
  1
.
  9
$ELEVATION
 40
0.0
  9
$PELEVATION
 40
0.0
  9
$THICKNESS
 40
0.0
  9
$LIMCHECK
 70
     0
  9
$CHAMFERA
 40
0.0
  9
$CHAMFERB
 40
0.0
  9
$CHAMFERC
 40
0.0
  9
$CHAMFERD
 40
0.0
  9
$SKPOLY
 70
     0
  9
$TDCREATE
 40
2457576.347054757
  9
$TDUCREATE
 40
2457576.263721424
  9
$TDUPDATE
 40
2457576.347054757
  9
$TDUUPDATE
 40
2457576.263721424
  9
$TDINDWG
 40
0.0000148843
  9
$TDUSRTIMER
 40
0.0000148843
  9
$USRTIMER
 70
     1
  9
$ANGBASE
 50
0.0
  9
$ANGDIR
 70
     0
  9
$PDMODE
 70
     0
  9
$PDSIZE
 40
0.0
  9
$PLINEWID
 40
0.0
  9
$SPLFRAME
 70
     0
  9
$SPLINETYPE
 70
     6
  9
$SPLINESEGS
 70
     8
  9
$HANDSEED
  5
323
  9
$SURFTAB1
 70
     6
  9
$SURFTAB2
 70
     6
  9
$SURFTYPE
 70
     6
  9
$SURFU
 70
     6
  9
$SURFV
 70
     6
  9
$UCSBASE
  2

  9
$UCSNAME
  2

  9
$UCSORG
 10
0.0
 20
0.0
 30
0.0
  9
$UCSXDIR
 10
1.0
 20
0.0
 30
0.0
  9
$UCSYDIR
 10
0.0
 20
1.0
 30
0.0
  9
$UCSORTHOREF
  2

  9
$UCSORTHOVIEW
 70
     0
  9
$UCSORGTOP
 10
0.0
 20
0.0
 30
0.0
  9
$UCSORGBOTTOM
 10
0.0
 20
0.0
 30
0.0
  9
$UCSORGLEFT
 10
0.0
 20
0.0
 30
0.0
  9
$UCSORGRIGHT
 10
0.0
 20
0.0
 30
0.0
  9
$UCSORGFRONT
 10
0.0
 20
0.0
 30
0.0
  9
$UCSORGBACK
 10
0.0
 20
0.0
 30
0.0
  9
$PUCSBASE
  2

  9
$PUCSNAME
  2

  9
$PUCSORG
 10
0.0
 20
0.0
 30
0.0
  9
$PUCSXDIR
 10
1.0
 20
0.0
 30
0.0
  9
$PUCSYDIR
 10
0.0
 20
1.0
 30
0.0
  9
$PUCSORTHOREF
  2

  9
$PUCSORTHOVIEW
 70
     0
  9
$PUCSORGTOP
 10
0.0
 20
0.0
 30
0.0
  9
$PUCSORGBOTTOM
 10
0.0
 20
0.0
 30
0.0
  9
$PUCSORGLEFT
 10
0.0
 20
0.0
 30
0.0
  9
$PUCSORGRIGHT
 10
0.0
 20
0.0
 30
0.0
  9
$PUCSORGFRONT
 10
0.0
 20
0.0
 30
0.0
  9
$PUCSORGBACK
 10
0.0
 20
0.0
 30
0.0
  9
$USERI1
 70
     0
  9
$USERI2
 70
     0
  9
$USERI3
 70
     0
  9
$USERI4
 70
     0
  9
$USERI5
 70
     0
  9
$USERR1
 40
0.0
  9
$USERR2
 40
0.0
  9
$USERR3
 40
0.0
  9
$USERR4
 40
0.0
  9
$USERR5
 40
0.0
  9
$WORLDVIEW
 70
     1
  9
$SHADEDGE
 70
     3
  9
$SHADEDIF
 70
    70
  9
$TILEMODE
 70
     1
  9
$MAXACTVP
 70
    64
  9
$PINSBASE
 10
0.0
 20
0.0
 30
0.0
  9
$PLIMCHECK
 70
     0
  9
$PEXTMIN
 10
1.000000000000000E+20
 20
1.000000000000000E+20
 30
1.000000000000000E+20
  9
$PEXTMAX
 10
-1.000000000000000E+20
 20
-1.000000000000000E+20
 30
-1.000000000000000E+20
  9
$PLIMMIN
 10
0.0
 20
0.0
  9
$PLIMMAX
 10
12.0
 20
9.0
  9
$UNITMODE
 70
     0
  9
$VISRETAIN
 70
     1
  9
$PLINEGEN
 70
     0
  9
$PSLTSCALE
 70
     1
  9
$TREEDEPTH
 70
  3020
  9
$CMLSTYLE
  2
Standard
  9
$CMLJUST
 70
     0
  9
$CMLSCALE
 40
1.0
  9
$PROXYGRAPHICS
 70
     1
  9
$MEASUREMENT
 70
     1
  9
$CELWEIGHT
370
    -1
  9
$ENDCAPS
280
     0
  9
$JOINSTYLE
280
     0
  9
$LWDISPLAY
290
     0
  9
$INSUNITS
 70
     4
  9
$HYPERLINKBASE
  1

  9
$STYLESHEET
  1

  9
$XEDIT
290
     1
  9
$CEPSNTYPE
380
     0
  9
$PSTYLEMODE
290
     1
  9
$FINGERPRINTGUID
  2
{B9B0DFA1-82C2-4C88-95EF-24AE0CE68BBA}
  9
$VERSIONGUID
  2
{127DC384-2201-4D52-9408-C52CAF440FBC}
  9
$EXTNAMES
290
     1
  9
$PSVPSCALE
 40
0.0
  9
$OLESTARTUP
290
     0
  9
$SORTENTS
280
   127
  9
$INDEXCTL
280
     0
  9
$HIDETEXT
280
     1
  9
$XCLIPFRAME
280
     2
  9
$HALOGAP
280
     0
  9
$OBSCOLOR
 70
   257
  9
$OBSLTYPE
280
     0
  9
$INTERSECTIONDISPLAY
280
     0
  9
$INTERSECTIONCOLOR
 70
   257
  9
$DIMASSOC
280
     2
  9
$PROJECTNAME
  1

  9
$CAMERADISPLAY
290
     0
  9
$LENSLENGTH
 40
50.0
  9
$CAMERAHEIGHT
 40
0.0
  9
$STEPSPERSEC
 40
2.0
  9
$STEPSIZE
 40
6.0
  9
$3DDWFPREC
 40
2.0
  9
$PSOLWIDTH
 40
0.25
  9
$PSOLHEIGHT
 40
4.0
  9
$LOFTANG1
 40
1.570796326794896
  9
$LOFTANG2
 40
1.570796326794896
  9
$LOFTMAG1
 40
0.0
  9
$LOFTMAG2
 40
0.0
  9
$LOFTPARAM
 70
     7
  9
$LOFTNORMALS
280
     1
  9
$LATITUDE
 40
37.795
  9
$LONGITUDE
 40
-122.394
  9
$NORTHDIRECTION
 40
0.0
  9
$TIMEZONE
 70
 -8000
  9
$LIGHTGLYPHDISPLAY
280
     1
  9
$TILEMODELIGHTSYNCH
280
     1
  9
$CMATERIAL
347
11
  9
$SOLIDHIST
280
     0
  9
$SHOWHIST
280
     1
  9
$DWFFRAME
280
     2
  9
$DGNFRAME
280
     0
  9
$REALWORLDSCALE
290
     1
  9
$INTERFERECOLOR
 62
     1
  9
$INTERFEREOBJVS
345
33
  9
$INTERFEREVPVS
346
30
  9
$CSHADOW
280
     0
  9
$SHADOWPLANELOCATION
 40
0.0
  0
ENDSEC
  0
SECTION
  2
CLASSES
  0
CLASS
  1
ACDBDICTIONARYWDFLT
  2
AcDbDictionaryWithDefault
  3
ObjectDBX Classes
 90
        0
 91
        1
280
     0
281
     0
  0
CLASS
  1
MATERIAL
  2
AcDbMaterial
  3
ObjectDBX Classes
 90
     1153
 91
        3
280
     0
281
     0
  0
CLASS
  1
VISUALSTYLE
  2
AcDbVisualStyle
  3
ObjectDBX Classes
 90
     4095
 91
       24
280
     0
281
     0
  0
CLASS
  1
SCALE
  2
AcDbScale
  3
ObjectDBX Classes
 90
     1153
 91
       17
280
     0
281
     0
  0
CLASS
  1
TABLESTYLE
  2
AcDbTableStyle
  3
ObjectDBX Classes
 90
     4095
 91
        1
280
     0
281
     0
  0
CLASS
  1
MLEADERSTYLE
  2
AcDbMLeaderStyle
  3
ACDB_MLEADERSTYLE_CLASS
 90
     4095
 91
        1
280
     0
281
     0
  0
CLASS
  1
ACDBSECTIONVIEWSTYLE
  2
AcDbSectionViewStyle
  3
ObjectDBX Classes
 90
     1025
 91
        1
280
     0
281
     0
  0
CLASS
  1
ACDBDETAILVIEWSTYLE
  2
AcDbDetailViewStyle
  3
ObjectDBX Classes
 90
     1025
 91
        1
280
     0
281
     0
  0
CLASS
  1
RASTERVARIABLES
  2
AcDbRasterVariables
  3
ISM
 90
        0
 91
        1
280
     0
281
     0
  0
CLASS
  1
DICTIONARYVAR
  2
AcDbDictionaryVar
  3
ObjectDBX Classes
 90
        0
 91
        5
280
     0
281
     0
  0
CLASS
  1
CELLSTYLEMAP
  2
AcDbCellStyleMap
  3
ObjectDBX Classes
 90
     1152
 91
        2
280
     0
281
     0
  0
CLASS
  1
SORTENTSTABLE
  2
AcDbSortentsTable
  3
ObjectDBX Classes
 90
        0
 91
        1
280
     0
281
     0
  0
ENDSEC
  0
SECTION
  2
TABLES
  0
TABLE
  2
VPORT
  5
8
330
0
100
AcDbSymbolTable
 70
     1
  0
VPORT
  5
57
330
8
100
AcDbSymbolTableRecord
100
AcDbViewportTableRecord
  2
*Active
 70
     0
 10
0.0
 20
0.0
 11
1.0
 21
1.0
 12
992.8903806931229
 22
1917.622939365048
 13
0.0
 23
0.0
 14
1.0
 24
1.0
 15
0.0
 25
0.0
 16
0.0
 26
0.0
 36
1.0
 17
0.0
 27
0.0
 37
0.0
 40
424.7541212699895
 41
1.295921378830045
 42
50.0
 43
0.0
 44
0.0
 50
0.0
 51
0.0
 71
     0
 72
  1000
 73
     1
 74
     1
 75
     0
 76
     0
 77
     0
 78
     0
281
     0
 65
     1
110
0.0
120
0.0
130
0.0
111
1.0
121
0.0
131
0.0
112
0.0
122
1.0
132
0.0
 79
     0
146
0.0
 60
     3
 61
     5
292
     1
282
     1
141
0.0
142
0.0
 63
   250
421
  3355443
  0
ENDTAB
  0
TABLE
  2
LTYPE
  5
5
330
0
100
AcDbSymbolTable
 70
     3
  0
LTYPE
  5
5B
330
5
100
AcDbSymbolTableRecord
100
AcDbLinetypeTableRecord
  2
ByBlock
 70
     0
  3

 72
    65
 73
     0
 40
0.0
  0
LTYPE
  5
5C
330
5
100
AcDbSymbolTableRecord
100
AcDbLinetypeTableRecord
  2
ByLayer
 70
     0
  3

 72
    65
 73
     0
 40
0.0
  0
LTYPE
  5
5D
330
5
100
AcDbSymbolTableRecord
100
AcDbLinetypeTableRecord
  2
Continuous
 70
     0
  3
Solid line
 72
    65
 73
     0
 40
0.0
  0
LTYPE
  5
69
330
5
100
AcDbSymbolTableRecord
100
AcDbLinetypeTableRecord
  2
PHANTOM2
 70
     0
  3
___ _ _ ___ _ _ ___ _ _ ___ _ _
 72
    65
 73
     6
 40
1.25
 49
0.625
 74
     0
 49
-0.125
 74
     0
 49
0.125
 74
     0
 49
-0.125
 74
     0
 49
0.125
 74
     0
 49
-0.125
 74
     0
  0
LTYPE
  5
86
330
5
100
AcDbSymbolTableRecord
100
AcDbLinetypeTableRecord
  2
Nascosto 1_5 mm
 70
     0
  3

 72
    65
 73
     2
 40
2.2
 49
1.5
 74
     0
 49
-0.7000000000000001
 74
     0
  0
ENDTAB
  0
TABLE
  2
LAYER
  5
2
330
0
100
AcDbSymbolTable
 70
     4
  0
LAYER
  5
54
330
2
100
AcDbSymbolTableRecord
100
AcDbLayerTableRecord
  2
0
 70
     0
 62
     7
  6
Continuous
370
    -3
390
F
347
21
348
0
  0
LAYER
  5
85
330
2
100
AcDbSymbolTableRecord
100
AcDbLayerTableRecord
  2
P-SANR-FIXT
 70
     0
 62
     6
  6
Continuous
370
    18
390
F
347
21
348
0
  0
LAYER
  5
88
330
2
100
AcDbSymbolTableRecord
100
AcDbLayerTableRecord
  2
M-PIPE
 70
     0
 62
     3
  6
Continuous
370
    18
390
F
347
21
348
0
  0
ENDTAB
  0
TABLE
  2
STYLE
  5
3
330
0
100
AcDbSymbolTable
 70
     2
  0
STYLE
  5
55
330
3
100
AcDbSymbolTableRecord
100
AcDbTextStyleTableRecord
  2
Standard
 70
     0
 40
0.0
 41
1.0
 50
0.0
 71
     0
 42
0.2
  3
txt
  4

  0
STYLE
  5
5A
330
3
100
AcDbSymbolTableRecord
100
AcDbTextStyleTableRecord
  2
Annotative
 70
     0
 40
0.0
 41
1.0
 50
0.0
 71
     0
 42
0.2
  3
txt
  4

1001
AcadAnnotative
1000
AnnotativeData
1002
{
1070
     1
1070
     1
1002
}
  0
ENDTAB
  0
TABLE
  2
VIEW
  5
6
330
0
100
AcDbSymbolTable
 70
     0
  0
ENDTAB
  0
TABLE
  2
UCS
  5
7
330
0
100
AcDbSymbolTable
 70
     0
  0
ENDTAB
  0
TABLE
  2
APPID
  5
9
330
0
100
AcDbSymbolTable
 70
     3
  0
APPID
  5
56
330
9
100
AcDbSymbolTableRecord
100
AcDbRegAppTableRecord
  2
ACAD
 70
     0
  0
APPID
  5
5E
330
9
100
AcDbSymbolTableRecord
100
AcDbRegAppTableRecord
  2
AcadAnnotative
 70
     0
  0
APPID
  5
79
330
9
100
AcDbSymbolTableRecord
100
AcDbRegAppTableRecord
  2
REVIT
 70
     0
  0
ENDTAB
  0
TABLE
  2
DIMSTYLE
  5
A
330
0
100
AcDbSymbolTable
 70
     2
100
AcDbDimStyleTable
 71
     0
  0
DIMSTYLE
105
58
330
A
100
AcDbSymbolTableRecord
100
AcDbDimStyleTableRecord
  2
Standard
 70
     0
340
55
  0
DIMSTYLE
105
59
330
A
100
AcDbSymbolTableRecord
100
AcDbDimStyleTableRecord
  2
Annotative
 70
     0
340
55
1001
AcadAnnotative
1000
AnnotativeData
1002
{
1070
     1
1070
     1
1002
}
  0
ENDTAB
  0
TABLE
  2
BLOCK_RECORD
  5
1
330
0
100
AcDbSymbolTable
 70
     4
  0
BLOCK_RECORD
  5
71
102
{ACAD_XDICTIONARY
360
31E
102
}
330
1
100
AcDbSymbolTableRecord
100
AcDbBlockTableRecord
  2
*Model_Space
340
74
 70
     0
280
     1
281
     0
  0
BLOCK_RECORD
  5
6D
330
1
100
AcDbSymbolTableRecord
100
AcDbBlockTableRecord
  2
*Paper_Space
340
70
 70
     0
280
     1
281
     0
  0
BLOCK_RECORD
  5
75
330
1
100
AcDbSymbolTableRecord
100
AcDbBlockTableRecord
  2
*Paper_Space0
340
78
 70
     0
280
     1
281
     0
  0
BLOCK_RECORD
  5
87
330
1
100
AcDbSymbolTableRecord
100
AcDbBlockTableRecord
  2
Automatic flow rate regulator valve_Caleffi_121 DN15 - 1 1_4___Pressure gauge-925399-Est - Idraulica
340
0
102
{BLKREFS
331
164
102
}
 70
     0
280
     1
281
     0
  0
BLOCK_RECORD
  5
165
330
1
100
AcDbSymbolTableRecord
100
AcDbBlockTableRecord
  2
Automatic flow rate regulator valve_Caleffi_121 DN15 - 1 1_4___Pressure gauge-V1-Est - Idraulica
340
0
102
{BLKREFS
331
263
102
}
 70
     0
280
     1
281
     0
  0
BLOCK_RECORD
  5
264
330
1
100
AcDbSymbolTableRecord
100
AcDbBlockTableRecord
  2
Automatic flow rate regulator valve_Caleffi_121 DN15 - 1 1_4___Pressure gauge-V2-Est - Idraulica
340
0
102
{BLKREFS
331
317
102
}
 70
     0
280
     1
281
     0
  0
ENDTAB
  0
ENDSEC
  0
SECTION
  2
BLOCKS
  0
BLOCK
  5
72
330
71
100
AcDbEntity
  8
0
100
AcDbBlockBegin
  2
*Model_Space
 70
     0
 10
0.0
 20
0.0
 30
0.0
  3
*Model_Space
  1

  0
ENDBLK
  5
73
330
71
100
AcDbEntity
  8
0
100
AcDbBlockEnd
  0
BLOCK
  5
6E
330
6D
100
AcDbEntity
 67
     1
  8
0
100
AcDbBlockBegin
  2
*Paper_Space
 70
     0
 10
0.0
 20
0.0
 30
0.0
  3
*Paper_Space
  1

  0
ENDBLK
  5
6F
330
6D
100
AcDbEntity
 67
     1
  8
0
100
AcDbBlockEnd
  0
BLOCK
  5
76
330
75
100
AcDbEntity
 67
     1
  8
0
100
AcDbBlockBegin
  2
*Paper_Space0
 70
     0
 10
0.0
 20
0.0
 30
0.0
  3
*Paper_Space0
  1

  0
ENDBLK
  5
77
330
75
100
AcDbEntity
 67
     1
  8
0
100
AcDbBlockEnd
  0
BLOCK
  5
162
330
87
100
AcDbEntity
  8
0
100
AcDbBlockBegin
  2
Automatic flow rate regulator valve_Caleffi_121 DN15 - 1 1_4___Pressure gauge-925399-Est - Idraulica
 70
     0
 10
0.0
 20
0.0
 30
0.0
  3
Automatic flow rate regulator valve_Caleffi_121 DN15 - 1 1_4___Pressure gauge-925399-Est - Idraulica
  1

  0
ARC
  5
89
330
87
100
AcDbEntity
  8
M-PIPE
100
AcDbCircle
 10
845.6664074431543
 20
2000.000000000035
 30
0.0
 40
3.5
100
AcDbArc
 50
0.0
 51
180.0
1001
REVIT
1002
{
1070
     3
1000
923159
1002
}
  0
ARC
  5
8A
330
87
100
AcDbEntity
  8
M-PIPE
100
AcDbCircle
 10
845.6664074431543
 20
2000.000000000035
 30
0.0
 40
3.500000000000113
100
AcDbArc
 50
180.0
 51
0.0
1001
REVIT
1002
{
1070
     3
1000
923159
1002
}
  0
ARC
  5
8B
330
87
100
AcDbEntity
  8
M-PIPE
100
AcDbCircle
 10
845.6664074431543
 20
2000.000000000035
 30
0.0
 40
31.00000000001178
100
AcDbArc
 50
0.0000000000010528
 51
180.0000000000002
1001
REVIT
1002
{
1070
     3
1000
923159
1002
}
  0
ARC
  5
8C
330
87
100
AcDbEntity
  8
M-PIPE
100
AcDbCircle
 10
845.6664074431543
 20
2000.000000000035
 30
0.0
 40
31.00000000001183
100
AcDbArc
 50
180.0
 51
0.0
1001
REVIT
1002
{
1070
     3
1000
923159
1002
}
  0
LINE
  5
8D
330
87
100
AcDbEntity
  8
P-SANR-FIXT
100
AcDbLine
 10
792.666407443186
 20
2060.556624327049
 30
0.0
 11
792.666407443186
 21
2048.349364905419
 31
0.0
  0
LINE
  5
8E
330
87
100
AcDbEntity
  8
P-SANR-FIXT
100
AcDbLine
 10
838.6664074431863
 20
2048.349364905419
 30
0.0
 11
838.6664074431863
 21
2060.556624327049
 31
0.0
  0
LINE
  5
8F
330
87
100
AcDbEntity
  8
P-SANR-FIXT
100
AcDbLine
 10
838.6664074431863
 20
2060.556624327049
 30
0.0
 11
836.1664074431864
 21
2062.000000000023
 31
0.0
  0
LINE
  5
90
330
87
100
AcDbEntity
  8
P-SANR-FIXT
100
AcDbLine
 10
795.1664074431868
 20
2062.000000000023
 30
0.0
 11
792.6664074431861
 21
2060.556624327049
 31
0.0
  0
LINE
  5
91
330
87
100
AcDbEntity
  8
P-SANR-FIXT
100
AcDbLine
 10
780.1664074431865
 20
2043.993061670617
 30
0.0
 11
780.1664074431865
 21
2042.999999999996
 31
0.0
  0
LINE
  5
92
330
87
100
AcDbEntity
  8
P-SANR-FIXT
100
AcDbLine
 10
851.1664074431866
 20
2042.999999999996
 30
0.0
 11
851.1664074431866
 21
2043.993061670617
 31
0.0
  0
LINE
  5
93
330
87
100
AcDbEntity
  8
P-SANR-FIXT
100
AcDbLine
 10
792.666407443186
 20
2048.349364905419
 30
0.0
 11
781.1390351810467
 21
2045.260614816925
 31
0.0
  0
LINE
  5
94
330
87
100
AcDbEntity
  8
P-SANR-FIXT
100
AcDbLine
 10
850.1937797053265
 20
2045.260614816925
 30
0.0
 11
838.6664074431861
 21
2048.349364905419
 31
0.0
  0
LWPOLYLINE
  5
95
330
87
100
AcDbEntity
  8
P-SANR-FIXT
100
AcDbPolyline
 90
       34
 70
   128
 43
0.0
 10
850.1937797053265
 20
2045.260614816925
 10
850.2441966360462
 20
2045.246018938465
 10
850.2939895591376
 20
2045.22941859566
 10
850.3430788165454
 20
2045.210840345516
 10
850.3913858759295
 20
2045.190313909272
 10
850.4388334563
 20
2045.167872124846
 10
850.4853456516496
 20
2045.143550894306
 10
850.5308480523883
 20
2045.117389126434
 10
850.5752678643816
 20
2045.089428674475
 10
850.6185340254054
 20
2045.059714269189
 10
850.6605773188322
 20
2045.028293447286
 10
850.701330484361
 20
2044.995216475378
 10
850.7407283256208
 20
2044.960536269564
 10
850.7787078144698
 20
2044.924308310775
 10
850.8152081918279
 20
2044.886590556018
 10
850.850171064877
 20
2044.847443345653
 10
850.8835405004797
 20
2044.806929306866
 10
850.9152631146566
 20
2044.765113253477
 10
850.9452881579923
 20
2044.722062082251
 10
850.9735675968226
 20
2044.677844665879
 10
851.0000561900778
 20
2044.632531742793
 10
851.0247115616596
 20
2044.586195804004
 10
851.047494268233
 20
2044.538910977131
 10
851.0683678623273
 20
2044.490752907809
 10
851.0872989506449
 20
2044.441798638676
 10
851.1042572474826
 20
2044.39212648612
 10
851.1192156231834
 20
2044.341815914988
 10
851.1321501475372
 20
2044.290947411462
 10
851.1430401280634
 20
2044.239602354296
 10
851.1518681431175
 20
2044.187862884629
 10
851.1586200697577
 20
2044.135811774575
 10
851.1632851063421
 20
2044.083532294806
 10
851.1658557898071
 20
2044.031108081338
 10
851.1664074431868
 20
2043.993061670617
  0
LWPOLYLINE
  5
96
330
87
100
AcDbEntity
  8
P-SANR-FIXT
100
AcDbPolyline
 90
       34
 70
   128
 43
0.0
 10
780.1664074431863
 20
2043.993061670617
 10
780.1674571172824
 20
2044.045538377407
 10
780.1706044603159
 20
2044.097931132661
 10
780.1758444372096
 20
2044.150156119146
 10
780.1831686651182
 20
2044.202129788025
 10
780.1925654268392
 20
2044.253768992515
 10
780.2040196895587
 20
2044.304991120905
 10
780.2175131288998
 20
2044.355714228716
 10
780.2330241582377
 20
2044.405857169795
 10
780.2505279632346
 20
2044.455339726134
 10
780.2699965415361
 20
2044.504082736199
 10
780.2913987475705
 20
2044.55200822157
 10
780.3147003423734
 20
2044.599039511696
 10
780.3398640483638
 20
2044.645101366544
 10
780.3668496089801
 20
2044.690120096973
 10
780.3956138530821
 20
2044.734023682618
 10
780.4261107640152
 20
2044.776741887107
 10
780.4582915532274
 20
2044.818206370426
 10
780.4921047383212
 20
2044.858350798247
 10
780.5274962254133
 20
2044.897110948049
 10
780.564409395674
 20
2044.93442481186
 10
780.6027851959056
 20
2044.970232695459
 10
780.6425622330138
 20
2045.00447731387
 10
780.6836768722247
 20
2045.037103883009
 10
780.7260633388863
 20
2045.068060207325
 10
780.7696538236939
 20
2045.097296763303
 10
780.8143785911704
 20
2045.124766778691
 10
780.8601660912288
 20
2045.150426307323
 10
780.9069430736366
 20
2045.174234299428
 10
780.9546347052002
 20
2045.196152667297
 10
781.0031646894831
 20
2045.216146346217
 10
781.0524553888625
 20
2045.234183350566
 10
781.1024279487345
 20
2045.250234824987
 10
781.1390351810467
 20
2045.260614816925
  0
LINE
  5
97
330
87
100
AcDbEntity
  8
P-SANR-FIXT
100
AcDbLine
 10
795.1664074431868
 20
2126.000000000023
 30
0.0
 11
795.1664074431868
 21
2062.000000000023
 31
0.0
  0
LINE
  5
98
330
87
100
AcDbEntity
  8
P-SANR-FIXT
100
AcDbLine
 10
836.1664074431864
 20
2062.000000000023
 30
0.0
 11
836.1664074431864
 21
2126.000000000023
 31
0.0
  0
LINE
  5
99
330
87
100
AcDbEntity
  8
P-SANR-FIXT
100
AcDbLine
 10
792.6664074431845
 20
2048.349364905417
 30
0.0
 11
792.7894582038836
 21
2048.349364905417
 31
0.0
  0
LINE
  5
9A
330
87
100
AcDbEntity
  8
P-SANR-FIXT
100
AcDbLine
 10
792.7894582038836
 20
2060.556624327048
 30
0.0
 11
792.6664074431845
 21
2060.556624327048
 31
0.0
  0
LINE
  5
9B
330
87
100
AcDbEntity
  8
P-SANR-FIXT
100
AcDbLine
 10
792.7894582038836
 20
2048.349364905417
 30
0.0
 11
792.7894582038836
 21
2060.556624327048
 31
0.0
  0
SPLINE
  5
9C
330
87
100
AcDbEntity
  8
P-SANR-FIXT
100
AcDbSpline
210
0.0
220
0.0
230
1.0
 70
     8
 71
     3
 72
     9
 73
     5
 74
     0
 42
0.000000001
 43
0.0000000001
 40
0.0
 40
0.0
 40
0.0
 40
0.0
 40
0.5
 40
1.0
 40
1.0
 40
1.0
 40
1.0
 10
802.170289723568
 20
2060.556624327048
 30
0.0
 10
800.6320976794617
 20
2061.326371976366
 30
0.0
 10
797.5304337154081
 20
2062.096119625683
 30
0.0
 10
794.3782099996722
 20
2061.326371976365
 30
0.0
 10
792.7894582038836
 20
2060.556624327048
 30
0.0
  0
LINE
  5
9D
330
87
100
AcDbEntity
  8
P-SANR-FIXT
100
AcDbLine
 10
802.170289723568
 20
2048.349364905417
 30
0.0
 11
802.170289723568
 21
2060.556624327048
 31
0.0
  0
LINE
  5
9E
330
87
100
AcDbEntity
  8
P-SANR-FIXT
100
AcDbLine
 10
802.1702897235677
 20
2048.349364905417
 30
0.0
 11
806.2855759234992
 21
2048.349364905417
 31
0.0
  0
LINE
  5
9F
330
87
100
AcDbEntity
  8
P-SANR-FIXT
100
AcDbLine
 10
806.2855759234992
 20
2060.556624327048
 30
0.0
 11
802.1702897235677
 21
2060.556624327048
 31
0.0
  0
LINE
  5
A0
330
87
100
AcDbEntity
  8
P-SANR-FIXT
100
AcDbLine
 10
806.2855759234995
 20
2048.349364905417
 30
0.0
 11
806.2855759234995
 21
2060.556624327048
 31
0.0
  0
SPLINE
  5
A1
330
87
100
AcDbEntity
  8
P-SANR-FIXT
100
AcDbSpline
210
0.0
220
0.0
230
1.0
 70
     8
 71
     3
 72
     9
 73
     5
 74
     0
 42
0.000000001
 43
0.0000000001
 40
0.0
 40
0.0
 40
0.0
 40
0.0
 40
0.5
 40
1.0
 40
1.0
 40
1.0
 40
1.0
 10
825.047238962869
 20
2060.556624327049
 30
0.0
 10
821.9708548746561
 20
2061.326371976366
 30
0.0
 10
815.7675269465487
 20
2062.096119625683
 30
0.0
 10
809.4630795150766
 20
2061.326371976366
 30
0.0
 10
806.2855759234995
 20
2060.556624327048
 30
0.0
  0
LINE
  5
A2
330
87
100
AcDbEntity
  8
P-SANR-FIXT
100
AcDbLine
 10
825.047238962869
 20
2048.349364905417
 30
0.0
 11
825.047238962869
 21
2060.556624327049
 31
0.0
  0
LINE
  5
A3
330
87
100
AcDbEntity
  8
P-SANR-FIXT
100
AcDbLine
 10
825.0472389628688
 20
2048.349364905417
 30
0.0
 11
829.1625251628003
 21
2048.349364905417
 31
0.0
  0
LINE
  5
A4
330
87
100
AcDbEntity
  8
P-SANR-FIXT
100
AcDbLine
 10
829.1625251628003
 20
2060.556624327048
 30
0.0
 11
825.0472389628688
 21
2060.556624327048
 31
0.0
  0
LINE
  5
A5
330
87
100
AcDbEntity
  8
P-SANR-FIXT
100
AcDbLine
 10
829.1625251628005
 20
2048.349364905417
 30
0.0
 11
829.1625251628005
 21
2060.556624327049
 31
0.0
  0
SPLINE
  5
A6
330
87
100
AcDbEntity
  8
P-SANR-FIXT
100
AcDbSpline
210
0.0
220
0.0
230
1.0
 70
     8
 71
     3
 72
     9
 73
     5
 74
     0
 42
0.000000001
 43
0.0000000001
 40
0.0
 40
0.0
 40
0.0
 40
0.0
 40
0.5
 40
1.0
 40
1.0
 40
1.0
 40
1.0
 10
838.5433566824856
 20
2060.556624327048
 30
0.0
 10
837.0051646383792
 20
2061.326371976366
 30
0.0
 10
833.9035006743253
 20
2062.096119625683
 30
0.0
 10
830.7512769585892
 20
2061.326371976366
 30
0.0
 10
829.1625251628005
 20
2060.556624327049
 30
0.0
  0
LINE
  5
A7
330
87
100
AcDbEntity
  8
P-SANR-FIXT
100
AcDbLine
 10
838.5433566824858
 20
2048.349364905417
 30
0.0
 11
838.5433566824858
 21
2060.556624327048
 31
0.0
  0
LINE
  5
A8
330
87
100
AcDbEntity
  8
P-SANR-FIXT
100
AcDbLine
 10
838.5433566824856
 20
2048.349364905417
 30
0.0
 11
838.6664074431847
 21
2048.349364905417
 31
0.0
  0
LINE
  5
A9
330
87
100
AcDbEntity
  8
P-SANR-FIXT
100
AcDbLine
 10
838.6664074431847
 20
2060.556624327048
 30
0.0
 11
838.5433566824858
 21
2060.556624327048
 31
0.0
  0
LINE
  5
AA
330
87
100
AcDbEntity
  8
P-SANR-FIXT
100
AcDbLine
 10
836.1664074431848
 20
2062.000000000022
 30
0.0
 11
830.1620964575095
 21
2062.000000000022
 31
0.0
  0
LINE
  5
AB
330
87
100
AcDbEntity
  8
P-SANR-FIXT
100
AcDbLine
 10
830.1620964575095
 20
2062.000000000022
 30
0.0
 11
815.6664074431857
 21
2062.000000000022
 31
0.0
  0
LINE
  5
AC
330
87
100
AcDbEntity
  8
P-SANR-FIXT
100
AcDbLine
 10
815.6664074431857
 20
2062.000000000022
 30
0.0
 11
801.1707184288615
 21
2062.000000000022
 31
0.0
  0
LINE
  5
AD
330
87
100
AcDbEntity
  8
P-SANR-FIXT
100
AcDbLine
 10
801.1707184288614
 20
2062.000000000022
 30
0.0
 11
795.1664074431854
 21
2062.000000000022
 31
0.0
  0
LINE
  5
AE
330
87
100
AcDbEntity
  8
P-SANR-FIXT
100
AcDbLine
 10
780.1664074431852
 20
2042.999999999995
 30
0.0
 11
851.166407443185
 21
2042.999999999995
 31
0.0
  0
LINE
  5
AF
330
87
100
AcDbEntity
  8
P-SANR-FIXT
100
AcDbLine
 10
829.1625251628008
 20
2048.349364905417
 30
0.0
 11
838.5433566824858
 21
2048.349364905417
 31
0.0
  0
LINE
  5
B0
330
87
100
AcDbEntity
  8
P-SANR-FIXT
100
AcDbLine
 10
806.2855759234997
 20
2048.349364905418
 30
0.0
 11
825.047238962869
 21
2048.349364905418
 31
0.0
  0
LINE
  5
B1
330
87
100
AcDbEntity
  8
P-SANR-FIXT
100
AcDbLine
 10
792.7894582038845
 20
2048.349364905417
 30
0.0
 11
802.170289723568
 21
2048.349364905417
 31
0.0
  0
LINE
  5
B2
330
87
100
AcDbEntity
  8
P-SANR-FIXT
100
AcDbLine
 10
795.1664074431854
 20
2126.000000000022
 30
0.0
 11
836.1664074431848
 21
2126.000000000022
 31
0.0
  0
LINE
  5
B3
330
87
100
AcDbEntity
  8
P-SANR-FIXT
100
AcDbLine
 10
800.916407443189
 20
1940.989637028899
 30
0.0
 11
800.916407443189
 21
1938.01036297106
 31
0.0
  0
LINE
  5
B4
330
87
100
AcDbEntity
  8
P-SANR-FIXT
100
AcDbLine
 10
830.416407443184
 20
1938.01036297106
 30
0.0
 11
830.416407443184
 21
1940.989637028899
 31
0.0
  0
LINE
  5
B5
330
87
100
AcDbEntity
  8
P-SANR-FIXT
100
AcDbLine
 10
803.0128176047281
 20
1942.199999999996
 30
0.0
 11
801.0038484111035
 21
1941.040121095263
 31
0.0
  0
LINE
  5
B6
330
87
100
AcDbEntity
  8
P-SANR-FIXT
100
AcDbLine
 10
800.9735854282213
 20
1941.02264875395
 30
0.0
 11
800.916407443189
 21
1940.9896370289
 31
0.0
  0
LINE
  5
B7
330
87
100
AcDbEntity
  8
P-SANR-FIXT
100
AcDbLine
 10
830.416407443184
 20
1940.989637028899
 30
0.0
 11
830.3592294581518
 21
1941.022648753949
 31
0.0
  0
LINE
  5
B8
330
87
100
AcDbEntity
  8
P-SANR-FIXT
100
AcDbLine
 10
830.3289664752696
 20
1941.040121095263
 30
0.0
 11
828.3199972816451
 21
1942.199999999996
 31
0.0
  0
LINE
  5
B9
330
87
100
AcDbEntity
  8
P-SANR-FIXT
100
AcDbLine
 10
828.6664074431863
 20
1936.999999999979
 30
0.0
 11
830.3289664752696
 21
1937.959878904696
 31
0.0
  0
LINE
  5
BA
330
87
100
AcDbEntity
  8
P-SANR-FIXT
100
AcDbLine
 10
830.3592281392525
 20
1937.977350484543
 30
0.0
 11
830.416407443184
 21
1938.01036297106
 31
0.0
  0
LINE
  5
BB
330
87
100
AcDbEntity
  8
P-SANR-FIXT
100
AcDbLine
 10
800.916407443189
 20
1938.01036297106
 30
0.0
 11
800.9735867471208
 21
1937.977350484543
 31
0.0
  0
LINE
  5
BC
330
87
100
AcDbEntity
  8
P-SANR-FIXT
100
AcDbLine
 10
801.0038484111035
 20
1937.959878904696
 30
0.0
 11
802.6664074431868
 21
1936.999999999979
 31
0.0
  0
LINE
  5
BD
330
87
100
AcDbEntity
  8
P-SANR-FIXT
100
AcDbLine
 10
828.6664074431847
 20
1936.999999999979
 30
0.0
 11
802.6664074431854
 21
1936.999999999979
 31
0.0
  0
LINE
  5
BE
330
87
100
AcDbEntity
  8
P-SANR-FIXT
100
AcDbLine
 10
800.9164074431875
 20
1938.010362971059
 30
0.0
 11
801.0038484111021
 21
1938.010362971059
 31
0.0
  0
LINE
  5
BF
330
87
100
AcDbEntity
  8
P-SANR-FIXT
100
AcDbLine
 10
801.0038484111021
 20
1940.989637028899
 30
0.0
 11
800.9164074431875
 21
1940.989637028899
 31
0.0
  0
LINE
  5
C0
330
87
100
AcDbEntity
  8
P-SANR-FIXT
100
AcDbLine
 10
801.0038484111021
 20
1938.010362971059
 30
0.0
 11
801.0038484111021
 21
1940.989637028899
 31
0.0
  0
SPLINE
  5
C1
330
87
100
AcDbEntity
  8
P-SANR-FIXT
100
AcDbSpline
210
0.0
220
0.0
230
1.0
 70
     8
 71
     3
 72
     9
 73
     5
 74
     0
 42
0.000000001
 43
0.0000000001
 40
0.0
 40
0.0
 40
0.0
 40
0.0
 40
0.5
 40
1.0
 40
1.0
 40
1.0
 40
1.0
 10
801.0038484111021
 20
1938.010362971059
 30
0.0
 10
802.0107373139865
 20
1937.529272606672
 30
0.0
 10
804.0080315771966
 20
1937.048182242286
 30
0.0
 10
805.9723587552889
 20
1937.529272606672
 30
0.0
 10
806.9462805730553
 20
1938.010362971058
 30
0.0
  0
SPLINE
  5
C2
330
87
100
AcDbEntity
  8
P-SANR-FIXT
100
AcDbSpline
210
0.0
220
0.0
230
1.0
 70
     8
 71
     3
 72
     9
 73
     5
 74
     0
 42
0.000000001
 43
0.0000000001
 40
0.0
 40
0.0
 40
0.0
 40
0.0
 40
0.5
 40
1.0
 40
1.0
 40
1.0
 40
1.0
 10
806.9462805730553
 20
1940.989637028899
 30
0.0
 10
805.9723587552889
 20
1941.470727393286
 30
0.0
 10
804.0080315771966
 20
1941.951817757672
 30
0.0
 10
802.0107373139865
 20
1941.470727393285
 30
0.0
 10
801.0038484111021
 20
1940.989637028899
 30
0.0
  0
LINE
  5
C3
330
87
100
AcDbEntity
  8
P-SANR-FIXT
100
AcDbLine
 10
806.9462805730553
 20
1938.010362971058
 30
0.0
 11
806.9462805730553
 21
1940.989637028899
 31
0.0
  0
LINE
  5
C4
330
87
100
AcDbEntity
  8
P-SANR-FIXT
100
AcDbLine
 10
806.9462805730552
 20
1938.010362971059
 30
0.0
 11
809.7239752812308
 21
1938.010362971059
 31
0.0
  0
LINE
  5
C5
330
87
100
AcDbEntity
  8
P-SANR-FIXT
100
AcDbLine
 10
809.723975281231
 20
1940.989637028899
 30
0.0
 11
806.9462805730553
 21
1940.989637028899
 31
0.0
  0
LINE
  5
C6
330
87
100
AcDbEntity
  8
P-SANR-FIXT
100
AcDbLine
 10
809.723975281231
 20
1938.010362971058
 30
0.0
 11
809.723975281231
 21
1940.989637028899
 31
0.0
  0
SPLINE
  5
C7
330
87
100
AcDbEntity
  8
P-SANR-FIXT
100
AcDbSpline
210
0.0
220
0.0
230
1.0
 70
     8
 71
     3
 72
     9
 73
     5
 74
     0
 42
0.000000001
 43
0.0000000001
 40
0.0
 40
0.0
 40
0.0
 40
0.0
 40
0.5
 40
1.0
 40
1.0
 40
1.0
 40
1.0
 10
809.723975281231
 20
1938.010362971058
 30
0.0
 10
811.7377530870001
 20
1937.529272606672
 30
0.0
 10
815.7323416134202
 20
1937.048182242285
 30
0.0
 10
819.6609959696051
 20
1937.529272606672
 30
0.0
 10
821.6088396051386
 20
1938.010362971058
 30
0.0
  0
SPLINE
  5
C8
330
87
100
AcDbEntity
  8
P-SANR-FIXT
100
AcDbSpline
210
0.0
220
0.0
230
1.0
 70
     8
 71
     3
 72
     9
 73
     5
 74
     0
 42
0.000000001
 43
0.0000000001
 40
0.0
 40
0.0
 40
0.0
 40
0.0
 40
0.5
 40
1.0
 40
1.0
 40
1.0
 40
1.0
 10
821.6088396051386
 20
1940.989637028899
 30
0.0
 10
819.6609959696051
 20
1941.470727393286
 30
0.0
 10
815.7323416134202
 20
1941.951817757673
 30
0.0
 10
811.7377530870001
 20
1941.470727393286
 30
0.0
 10
809.723975281231
 20
1940.989637028899
 30
0.0
  0
LINE
  5
C9
330
87
100
AcDbEntity
  8
P-SANR-FIXT
100
AcDbLine
 10
821.6088396051386
 20
1938.010362971058
 30
0.0
 11
821.6088396051386
 21
1940.989637028899
 31
0.0
  0
LINE
  5
CA
330
87
100
AcDbEntity
  8
P-SANR-FIXT
100
AcDbLine
 10
821.6088396051384
 20
1938.010362971059
 30
0.0
 11
824.3865343133125
 21
1938.010362971059
 31
0.0
  0
LINE
  5
CB
330
87
100
AcDbEntity
  8
P-SANR-FIXT
100
AcDbLine
 10
824.3865343133126
 20
1940.989637028899
 30
0.0
 11
821.6088396051384
 21
1940.989637028899
 31
0.0
  0
LINE
  5
CC
330
87
100
AcDbEntity
  8
P-SANR-FIXT
100
AcDbLine
 10
824.3865343133126
 20
1938.010362971058
 30
0.0
 11
824.3865343133126
 21
1940.989637028899
 31
0.0
  0
SPLINE
  5
CD
330
87
100
AcDbEntity
  8
P-SANR-FIXT
100
AcDbSpline
210
0.0
220
0.0
230
1.0
 70
     8
 71
     3
 72
     9
 73
     5
 74
     0
 42
0.000000001
 43
0.0000000001
 40
0.0
 40
0.0
 40
0.0
 40
0.0
 40
0.5
 40
1.0
 40
1.0
 40
1.0
 40
1.0
 10
824.3865343133126
 20
1938.010362971058
 30
0.0
 10
825.3934232161977
 20
1937.529272606672
 30
0.0
 10
827.3907174794082
 20
1937.048182242285
 30
0.0
 10
829.3550446575013
 20
1937.529272606672
 30
0.0
 10
830.3289664752682
 20
1938.010362971059
 30
0.0
  0
SPLINE
  5
CE
330
87
100
AcDbEntity
  8
P-SANR-FIXT
100
AcDbSpline
210
0.0
220
0.0
230
1.0
 70
     8
 71
     3
 72
     9
 73
     5
 74
     0
 42
0.000000001
 43
0.0000000001
 40
0.0
 40
0.0
 40
0.0
 40
0.0
 40
0.5
 40
1.0
 40
1.0
 40
1.0
 40
1.0
 10
830.3289664752682
 20
1940.989637028899
 30
0.0
 10
829.3550446575013
 20
1941.470727393286
 30
0.0
 10
827.3907174794082
 20
1941.951817757673
 30
0.0
 10
825.3934232161977
 20
1941.470727393286
 30
0.0
 10
824.3865343133126
 20
1940.989637028899
 30
0.0
  0
LINE
  5
CF
330
87
100
AcDbEntity
  8
P-SANR-FIXT
100
AcDbLine
 10
830.3289664752682
 20
1938.010362971059
 30
0.0
 11
830.3289664752682
 21
1940.989637028899
 31
0.0
  0
LINE
  5
D0
330
87
100
AcDbEntity
  8
P-SANR-FIXT
100
AcDbLine
 10
830.3289664752682
 20
1938.010362971059
 30
0.0
 11
830.4164074431827
 21
1938.010362971059
 31
0.0
  0
LINE
  5
D1
330
87
100
AcDbEntity
  8
P-SANR-FIXT
100
AcDbLine
 10
830.4164074431827
 20
1940.989637028899
 30
0.0
 11
830.3289664752682
 21
1940.989637028899
 31
0.0
  0
LINE
  5
D2
330
87
100
AcDbEntity
  8
P-SANR-FIXT
100
AcDbLine
 10
795.7463863948019
 20
2130.000000000043
 30
0.0
 11
795.1664074431874
 21
2129.420021048428
 31
0.0
  0
LINE
  5
D3
330
87
100
AcDbEntity
  8
P-SANR-FIXT
100
AcDbLine
 10
836.1664074431857
 20
2129.420021048428
 30
0.0
 11
835.586428491571
 21
2130.000000000043
 31
0.0
  0
LINE
  5
D4
330
87
100
AcDbEntity
  8
P-SANR-FIXT
100
AcDbLine
 10
795.1664074431874
 20
2129.420021048428
 30
0.0
 11
795.1664074431874
 21
2126.500000000044
 31
0.0
  0
LINE
  5
D5
330
87
100
AcDbEntity
  8
P-SANR-FIXT
100
AcDbLine
 10
836.1664074431857
 20
2126.500000000044
 30
0.0
 11
836.1664074431857
 21
2129.420021048428
 31
0.0
  0
LINE
  5
D6
330
87
100
AcDbEntity
  8
P-SANR-FIXT
100
AcDbLine
 10
795.1664074431874
 20
2126.500000000044
 30
0.0
 11
795.8063782593118
 21
2126.000000000023
 31
0.0
  0
LINE
  5
D7
330
87
100
AcDbEntity
  8
P-SANR-FIXT
100
AcDbLine
 10
835.5264366270613
 20
2126.000000000023
 30
0.0
 11
836.1664074431857
 21
2126.500000000044
 31
0.0
  0
LINE
  5
D8
330
87
100
AcDbEntity
  8
P-SANR-FIXT
100
AcDbLine
 10
835.5864284915696
 20
2130.000000000042
 30
0.0
 11
795.7463863948005
 21
2130.000000000042
 31
0.0
  0
LINE
  5
D9
330
87
100
AcDbEntity
  8
P-SANR-FIXT
100
AcDbLine
 10
795.1664074431861
 20
2129.420021048427
 30
0.0
 11
836.1664074431841
 21
2129.420021048427
 31
0.0
  0
LINE
  5
DA
330
87
100
AcDbEntity
  8
P-SANR-FIXT
100
AcDbLine
 10
795.1664074431861
 20
2126.500000000044
 30
0.0
 11
836.1664074431841
 21
2126.500000000044
 31
0.0
  0
LINE
  5
DB
330
87
100
AcDbEntity
  8
P-SANR-FIXT
100
AcDbLine
 10
758.4087677251067
 20
1969.983339501629
 30
0.0
 11
772.9140947216042
 21
1969.983339501629
 31
0.0
  0
LINE
  5
DC
330
87
100
AcDbEntity
  8
P-SANR-FIXT
100
AcDbLine
 10
772.9140947216047
 20
2030.016660498361
 30
0.0
 11
758.4087677251061
 21
2030.016660498361
 31
0.0
  0
LINE
  5
DD
330
87
100
AcDbEntity
  8
P-SANR-FIXT
100
AcDbLine
 10
754.6664074431172
 20
1976.446444086197
 30
0.0
 11
758.2588001311911
 21
1970.242335474956
 31
0.0
  0
LINE
  5
DE
330
87
100
AcDbEntity
  8
P-SANR-FIXT
100
AcDbLine
 10
758.2818583662428
 20
1970.202513604947
 30
0.0
 11
758.4087677251067
 21
1969.983339501629
 31
0.0
  0
LINE
  5
DF
330
87
100
AcDbEntity
  8
P-SANR-FIXT
100
AcDbLine
 10
758.4087677251061
 20
2030.016660498361
 30
0.0
 11
758.2818583662424
 21
2029.797486395044
 31
0.0
  0
LINE
  5
E0
330
87
100
AcDbEntity
  8
P-SANR-FIXT
100
AcDbLine
 10
758.2588001311908
 20
2029.757664525035
 30
0.0
 11
754.6664074431172
 21
2023.553555913795
 31
0.0
  0
LINE
  5
E1
330
87
100
AcDbEntity
  8
P-SANR-FIXT
100
AcDbLine
 10
772.9140947216042
 20
1969.983339501629
 30
0.0
 11
773.0411949099958
 21
1970.202146403478
 31
0.0
  0
LINE
  5
E2
330
87
100
AcDbEntity
  8
P-SANR-FIXT
100
AcDbLine
 10
773.0645515050263
 20
1970.242355503567
 30
0.0
 11
774.6664074431286
 21
1973.000000000083
 31
0.0
  0
LINE
  5
E3
330
87
100
AcDbEntity
  8
P-SANR-FIXT
100
AcDbLine
 10
774.6664074431286
 20
2026.999999999909
 30
0.0
 11
773.0645515050269
 21
2029.757644496423
 31
0.0
  0
LINE
  5
E4
330
87
100
AcDbEntity
  8
P-SANR-FIXT
100
AcDbLine
 10
773.0411949099963
 20
2029.797853596512
 30
0.0
 11
772.9140947216047
 21
2030.016660498361
 31
0.0
  0
LINE
  5
E5
330
87
100
AcDbEntity
  8
P-SANR-FIXT
100
AcDbLine
 10
754.6664074431158
 20
1976.446444086196
 30
0.0
 11
754.6664074431158
 21
2023.553555913794
 31
0.0
  0
LINE
  5
E6
330
87
100
AcDbEntity
  8
P-SANR-FIXT
100
AcDbLine
 10
774.6664074431272
 20
2026.999999999908
 30
0.0
 11
774.6664074431271
 21
2023.382685902099
 31
0.0
  0
LINE
  5
E7
330
87
100
AcDbEntity
  8
P-SANR-FIXT
100
AcDbLine
 10
774.6664074431271
 20
2023.382685902099
 30
0.0
 11
774.6664074431271
 21
1999.999999999994
 31
0.0
  0
LINE
  5
E8
330
87
100
AcDbEntity
  8
P-SANR-FIXT
100
AcDbLine
 10
774.6664074431271
 20
1999.999999999994
 30
0.0
 11
774.6664074431271
 21
1976.61731409789
 31
0.0
  0
LINE
  5
E9
330
87
100
AcDbEntity
  8
P-SANR-FIXT
100
AcDbLine
 10
774.6664074431271
 20
1976.61731409789
 30
0.0
 11
774.6664074431272
 21
1973.000000000082
 31
0.0
  0
SPLINE
  5
EA
330
87
100
AcDbEntity
  8
P-SANR-FIXT
100
AcDbSpline
210
0.0
220
0.0
230
1.0
 70
     8
 71
     3
 72
    10
 73
     6
 74
     0
 42
0.000000001
 43
0.0000000001
 40
0.0
 40
0.0
 40
0.0
 40
0.0
 40
0.4
 40
0.7
 40
1.0
 40
1.0
 40
1.0
 40
1.0
 10
773.3575695063004
 20
2011.258330249177
 30
0.0
 10
773.1245434267596
 20
2012.290893508328
 30
0.0
 10
772.8714149755455
 20
2014.126684739426
 30
0.0
 10
772.9342383342931
 20
2016.376071860515
 30
0.0
 10
773.1830664932048
 20
2017.36710681294
 30
0.0
 10
773.3575695063061
 20
2017.75352077756
 30
0.0
  0
SPLINE
  5
EB
330
87
100
AcDbEntity
  8
P-SANR-FIXT
100
AcDbSpline
210
0.0
220
0.0
230
1.0
 70
     8
 71
     3
 72
    10
 73
     6
 74
     0
 42
0.000000001
 43
0.0000000001
 40
0.0
 40
0.0
 40
0.0
 40
0.0
 40
0.4
 40
0.7
 40
1.0
 40
1.0
 40
1.0
 40
1.0
 10
757.9667006544018
 20
2017.75352077756
 30
0.0
 10
758.1986462892673
 20
2017.238257192534
 30
0.0
 10
758.4511316059935
 20
2015.990689761015
 30
0.0
 10
758.3890039306601
 20
2013.598430304767
 30
0.0
 10
758.1409252861467
 20
2012.032818759717
 30
0.0
 10
757.9667006544075
 20
2011.258330249177
 30
0.0
  0
SPLINE
  5
EC
330
87
100
AcDbEntity
  8
P-SANR-FIXT
100
AcDbSpline
210
0.0
220
0.0
230
1.0
 70
     8
 71
     3
 72
     9
 73
     5
 74
     0
 42
0.000000001
 43
0.0000000001
 40
0.0
 40
0.0
 40
0.0
 40
0.0
 40
0.5
 40
1.0
 40
1.0
 40
1.0
 40
1.0
 10
757.9667006544075
 20
2011.258330249177
 30
0.0
 10
757.0969381141542
 20
2007.46508810333
 30
0.0
 10
756.2271755739008
 20
1999.919069207755
 30
0.0
 10
757.0969381141543
 20
1992.453981104419
 30
0.0
 10
757.9667006544078
 20
1988.741669750811
 30
0.0
  0
SPLINE
  5
ED
330
87
100
AcDbEntity
  8
P-SANR-FIXT
100
AcDbSpline
210
0.0
220
0.0
230
1.0
 70
     8
 71
     3
 72
     9
 73
     5
 74
     0
 42
0.000000001
 43
0.0000000001
 40
0.0
 40
0.0
 40
0.0
 40
0.0
 40
0.5
 40
1.0
 40
1.0
 40
1.0
 40
1.0
 10
773.3575695063002
 20
1988.741669750811
 30
0.0
 10
773.7843568343212
 20
1990.594452685504
 30
0.0
 10
774.4292838184801
 20
1994.323623995061
 30
0.0
 10
774.6569154588724
 20
1998.10000618496
 30
0.0
 10
774.6664074431271
 20
1999.999999999994
 30
0.0
  0
SPLINE
  5
EE
330
87
100
AcDbEntity
  8
P-SANR-FIXT
100
AcDbSpline
210
0.0
220
0.0
230
1.0
 70
     8
 71
     3
 72
     9
 73
     5
 74
     0
 42
0.000000001
 43
0.0000000001
 40
0.0
 40
0.0
 40
0.0
 40
0.0
 40
0.5
 40
1.0
 40
1.0
 40
1.0
 40
1.0
 10
774.6664074431271
 20
1999.999999999994
 30
0.0
 10
774.6569154588724
 20
2001.899993815029
 30
0.0
 10
774.4292838184803
 20
2005.676376004927
 30
0.0
 10
773.7843568343213
 20
2009.405547314484
 30
0.0
 10
773.3575695063004
 20
2011.258330249177
 30
0.0
  0
SPLINE
  5
EF
330
87
100
AcDbEntity
  8
P-SANR-FIXT
100
AcDbSpline
210
0.0
220
0.0
230
1.0
 70
     8
 71
     3
 72
    10
 73
     6
 74
     0
 42
0.000000001
 43
0.0000000001
 40
0.0
 40
0.0
 40
0.0
 40
0.0
 40
0.4
 40
0.7
 40
1.0
 40
1.0
 40
1.0
 40
1.0
 10
757.9667006544078
 20
1988.741669750811
 30
0.0
 10
758.1990001633934
 20
1987.709018403424
 30
0.0
 10
758.451307509324
 20
1985.873250449058
 30
0.0
 10
758.3886965180223
 20
1983.62401634329
 30
0.0
 10
758.1406598805514
 20
1982.632926911198
 30
0.0
 10
757.9667006544021
 20
1982.246479222428
 30
0.0
  0
SPLINE
  5
F0
330
87
100
AcDbEntity
  8
P-SANR-FIXT
100
AcDbSpline
210
0.0
220
0.0
230
1.0
 70
     8
 71
     3
 72
    10
 73
     6
 74
     0
 42
0.000000001
 43
0.0000000001
 40
0.0
 40
0.0
 40
0.0
 40
0.0
 40
0.4
 40
0.7
 40
1.0
 40
1.0
 40
1.0
 40
1.0
 10
773.3575695063059
 20
1982.246479222428
 30
0.0
 10
773.1248988221707
 20
1982.761697841921
 30
0.0
 10
772.8715918690234
 20
1984.009229052249
 30
0.0
 10
772.9339294189824
 20
1986.401667150389
 30
0.0
 10
773.1827999466445
 20
1987.967247306447
 30
0.0
 10
773.3575695063002
 20
1988.741669750811
 30
0.0
  0
SPLINE
  5
F1
330
87
100
AcDbEntity
  8
P-SANR-FIXT
100
AcDbSpline
210
0.0
220
0.0
230
1.0
 70
     8
 71
     3
 72
     9
 73
     5
 74
     0
 42
0.000000001
 43
0.0000000001
 40
0.0
 40
0.0
 40
0.0
 40
0.0
 40
0.5
 40
1.0
 40
1.0
 40
1.0
 40
1.0
 10
757.9667006544021
 20
1982.246479222428
 30
0.0
 10
757.0969381141426
 20
1980.349858149504
 30
0.0
 10
756.2271755738783
 20
1976.576848701718
 30
0.0
 10
757.0969381141232
 20
1972.844304650049
 30
0.0
 10
757.9667006543729
 20
1970.988148973245
 30
0.0
  0
SPLINE
  5
F2
330
87
100
AcDbEntity
  8
P-SANR-FIXT
100
AcDbSpline
210
0.0
220
0.0
230
1.0
 70
     8
 71
     3
 72
     9
 73
     5
 74
     0
 42
0.000000001
 43
0.0000000001
 40
0.0
 40
0.0
 40
0.0
 40
0.0
 40
0.5
 40
1.0
 40
1.0
 40
1.0
 40
1.0
 10
773.3575695063353
 20
1970.988148973245
 30
0.0
 10
773.7843568343558
 20
1971.914540440586
 30
0.0
 10
774.4292838185084
 20
1973.779126095353
 30
0.0
 10
774.6569154588836
 20
1975.667317190292
 30
0.0
 10
774.6664074431271
 20
1976.617314097804
 30
0.0
  0
SPLINE
  5
F3
330
87
100
AcDbEntity
  8
P-SANR-FIXT
100
AcDbSpline
210
0.0
220
0.0
230
1.0
 70
     8
 71
     3
 72
     9
 73
     5
 74
     0
 42
0.000000001
 43
0.0000000001
 40
0.0
 40
0.0
 40
0.0
 40
0.0
 40
0.5
 40
1.0
 40
1.0
 40
1.0
 40
1.0
 10
774.6664074431271
 20
1976.617314097804
 30
0.0
 10
774.6569154588832
 20
1977.567311005327
 30
0.0
 10
774.4292838185024
 20
1979.455502100287
 30
0.0
 10
773.7843568343357
 20
1981.320087755076
 30
0.0
 10
773.3575695063059
 20
1982.246479222428
 30
0.0
  0
SPLINE
  5
F4
330
87
100
AcDbEntity
  8
P-SANR-FIXT
100
AcDbSpline
210
0.0
220
0.0
230
1.0
 70
     8
 71
     3
 72
     9
 73
     5
 74
     0
 42
0.000000001
 43
0.0000000001
 40
0.0
 40
0.0
 40
0.0
 40
0.0
 40
0.5
 40
1.0
 40
1.0
 40
1.0
 40
1.0
 10
757.9667006543729
 20
1970.988148973245
 30
0.0
 10
758.1124922246488
 20
1970.665315144351
 30
0.0
 10
758.3319616400469
 20
1970.160343626923
 30
0.0
 10
758.4072036051371
 20
1969.983339501622
 30
0.0
 10
758.4087677251053
 20
1969.983339501629
 30
0.0
  0
SPLINE
  5
F5
330
87
100
AcDbEntity
  8
P-SANR-FIXT
100
AcDbSpline
210
0.0
220
0.0
230
1.0
 70
     8
 71
     3
 72
     9
 73
     5
 74
     0
 42
0.000000001
 43
0.0000000001
 40
0.0
 40
0.0
 40
0.0
 40
0.0
 40
0.5
 40
1.0
 40
1.0
 40
1.0
 40
1.0
 10
772.9140947216028
 20
1969.983339501629
 30
0.0
 10
772.9156696785379
 20
1969.983339501622
 30
0.0
 10
772.9911570995948
 20
1970.16037087139
 30
0.0
 10
773.2113195350262
 20
1970.665340769864
 30
0.0
 10
773.3575695063353
 20
1970.988148973245
 30
0.0
  0
SPLINE
  5
F6
330
87
100
AcDbEntity
  8
P-SANR-FIXT
100
AcDbSpline
210
0.0
220
0.0
230
1.0
 70
     8
 71
     3
 72
     9
 73
     5
 74
     0
 42
0.000000001
 43
0.0000000001
 40
0.0
 40
0.0
 40
0.0
 40
0.0
 40
0.5
 40
1.0
 40
1.0
 40
1.0
 40
1.0
 10
758.4087677251048
 20
2030.01666049836
 30
0.0
 10
758.4072036051366
 20
2030.016660498367
 30
0.0
 10
758.3319616400465
 20
2029.839656373066
 30
0.0
 10
758.1124922246483
 20
2029.334684855637
 30
0.0
 10
757.9667006543724
 20
2029.011851026743
 30
0.0
  0
SPLINE
  5
F7
330
87
100
AcDbEntity
  8
P-SANR-FIXT
100
AcDbSpline
210
0.0
220
0.0
230
1.0
 70
     8
 71
     3
 72
     9
 73
     5
 74
     0
 42
0.000000001
 43
0.0000000001
 40
0.0
 40
0.0
 40
0.0
 40
0.0
 40
0.5
 40
1.0
 40
1.0
 40
1.0
 40
1.0
 10
773.357569506336
 20
2029.011851026743
 30
0.0
 10
773.2113195350267
 20
2029.334659230125
 30
0.0
 10
772.9911570995954
 20
2029.839629128599
 30
0.0
 10
772.9156696785383
 20
2030.016660498367
 30
0.0
 10
772.9140947216034
 20
2030.01666049836
 30
0.0
  0
SPLINE
  5
F8
330
87
100
AcDbEntity
  8
P-SANR-FIXT
100
AcDbSpline
210
0.0
220
0.0
230
1.0
 70
     8
 71
     3
 72
     9
 73
     5
 74
     0
 42
0.000000001
 43
0.0000000001
 40
0.0
 40
0.0
 40
0.0
 40
0.0
 40
0.5
 40
1.0
 40
1.0
 40
1.0
 40
1.0
 10
757.9667006543724
 20
2029.011851026743
 30
0.0
 10
757.0969381141227
 20
2027.115229953819
 30
0.0
 10
756.227175573878
 20
2023.342220506032
 30
0.0
 10
757.0969381141424
 20
2019.609676454364
 30
0.0
 10
757.9667006544018
 20
2017.75352077756
 30
0.0
  0
SPLINE
  5
F9
330
87
100
AcDbEntity
  8
P-SANR-FIXT
100
AcDbSpline
210
0.0
220
0.0
230
1.0
 70
     8
 71
     3
 72
     9
 73
     5
 74
     0
 42
0.000000001
 43
0.0000000001
 40
0.0
 40
0.0
 40
0.0
 40
0.0
 40
0.5
 40
1.0
 40
1.0
 40
1.0
 40
1.0
 10
773.3575695063061
 20
2017.75352077756
 30
0.0
 10
773.7843568343361
 20
2018.679912244912
 30
0.0
 10
774.429283818503
 20
2020.544497899701
 30
0.0
 10
774.6569154588835
 20
2022.432688994662
 30
0.0
 10
774.6664074431271
 20
2023.382685902185
 30
0.0
  0
SPLINE
  5
FA
330
87
100
AcDbEntity
  8
P-SANR-FIXT
100
AcDbSpline
210
0.0
220
0.0
230
1.0
 70
     8
 71
     3
 72
     9
 73
     5
 74
     0
 42
0.000000001
 43
0.0000000001
 40
0.0
 40
0.0
 40
0.0
 40
0.0
 40
0.5
 40
1.0
 40
1.0
 40
1.0
 40
1.0
 10
774.6664074431271
 20
2023.382685902185
 30
0.0
 10
774.6569154588838
 20
2024.332682809697
 30
0.0
 10
774.4292838185089
 20
2026.220873904635
 30
0.0
 10
773.7843568343565
 20
2028.085459559402
 30
0.0
 10
773.357569506336
 20
2029.011851026743
 30
0.0
  0
LINE
  5
FB
330
87
100
AcDbEntity
  8
P-SANR-FIXT
100
AcDbLine
 10
866.4187201647607
 20
1969.983339501629
 30
0.0
 11
880.9240471612584
 21
1969.983339501629
 31
0.0
  0
LINE
  5
FC
330
87
100
AcDbEntity
  8
P-SANR-FIXT
100
AcDbLine
 10
880.9240471612588
 20
2030.016660498361
 30
0.0
 11
866.41872016476
 21
2030.016660498361
 31
0.0
  0
LINE
  5
FD
330
87
100
AcDbEntity
  8
P-SANR-FIXT
100
AcDbLine
 10
884.6664074432476
 20
2023.553555913796
 30
0.0
 11
881.0740147551742
 21
2029.757664525035
 31
0.0
  0
LINE
  5
FE
330
87
100
AcDbEntity
  8
P-SANR-FIXT
100
AcDbLine
 10
881.0509565201224
 20
2029.797486395044
 30
0.0
 11
880.9240471612588
 21
2030.016660498361
 31
0.0
  0
LINE
  5
FF
330
87
100
AcDbEntity
  8
P-SANR-FIXT
100
AcDbLine
 10
880.9240471612584
 20
1969.983339501629
 30
0.0
 11
881.050956520122
 21
1970.202513604947
 31
0.0
  0
LINE
  5
100
330
87
100
AcDbEntity
  8
P-SANR-FIXT
100
AcDbLine
 10
881.0740147551737
 20
1970.242335474956
 30
0.0
 11
884.6664074432476
 21
1976.446444086197
 31
0.0
  0
LINE
  5
101
330
87
100
AcDbEntity
  8
P-SANR-FIXT
100
AcDbLine
 10
864.6664074432363
 20
1973.000000000083
 30
0.0
 11
866.2682633813384
 21
1970.242355503567
 31
0.0
  0
LINE
  5
102
330
87
100
AcDbEntity
  8
P-SANR-FIXT
100
AcDbLine
 10
866.291619976369
 20
1970.202146403478
 30
0.0
 11
866.4187201647607
 21
1969.983339501629
 31
0.0
  0
LINE
  5
103
330
87
100
AcDbEntity
  8
P-SANR-FIXT
100
AcDbLine
 10
866.41872016476
 20
2030.016660498361
 30
0.0
 11
866.2916199763683
 21
2029.797853596512
 31
0.0
  0
LINE
  5
104
330
87
100
AcDbEntity
  8
P-SANR-FIXT
100
AcDbLine
 10
866.2682633813377
 20
2029.757644496423
 30
0.0
 11
864.6664074432363
 21
2026.999999999909
 31
0.0
  0
LINE
  5
105
330
87
100
AcDbEntity
  8
P-SANR-FIXT
100
AcDbLine
 10
884.6664074432462
 20
2023.553555913794
 30
0.0
 11
884.6664074432462
 21
1976.446444086196
 31
0.0
  0
LINE
  5
106
330
87
100
AcDbEntity
  8
P-SANR-FIXT
100
AcDbLine
 10
864.6664074432345
 20
1973.000000000082
 30
0.0
 11
864.6664074432345
 21
1975.529689750084
 31
0.0
  0
LINE
  5
107
330
87
100
AcDbEntity
  8
P-SANR-FIXT
100
AcDbLine
 10
864.6664074432345
 20
2024.470310249906
 30
0.0
 11
864.6664074432345
 21
2026.999999999908
 31
0.0
  0
SPLINE
  5
108
330
87
100
AcDbEntity
  8
P-SANR-FIXT
100
AcDbSpline
210
0.0
220
0.0
230
1.0
 70
     8
 71
     3
 72
    10
 73
     6
 74
     0
 42
0.000000001
 43
0.0000000001
 40
0.0
 40
0.0
 40
0.0
 40
0.0
 40
0.4
 40
0.7
 40
1.0
 40
1.0
 40
1.0
 40
1.0
 10
881.3661142319542
 20
2011.258330249177
 30
0.0
 10
881.13416859709
 20
2012.28885741923
 30
0.0
 10
880.8816832803664
 20
2014.124863102775
 30
0.0
 10
880.943810955704
 20
2016.37398275322
 30
0.0
 10
881.1918896002195
 20
2017.36627652229
 30
0.0
 10
881.3661142319599
 20
2017.75352077756
 30
0.0
  0
SPLINE
  5
109
330
87
100
AcDbEntity
  8
P-SANR-FIXT
100
AcDbSpline
210
0.0
220
0.0
230
1.0
 70
     8
 71
     3
 72
     9
 73
     5
 74
     0
 42
0.000000001
 43
0.0000000001
 40
0.0
 40
0.0
 40
0.0
 40
0.0
 40
0.5
 40
1.0
 40
1.0
 40
1.0
 40
1.0
 10
881.3661142319539
 20
1988.741669750811
 30
0.0
 10
882.2358767722075
 20
1992.453981104419
 30
0.0
 10
883.105639312461
 20
1999.919069207755
 30
0.0
 10
882.2358767722075
 20
2007.46508810333
 30
0.0
 10
881.3661142319542
 20
2011.258330249177
 30
0.0
  0
SPLINE
  5
10A
330
87
100
AcDbEntity
  8
P-SANR-FIXT
100
AcDbSpline
210
0.0
220
0.0
230
1.0
 70
     8
 71
     3
 72
    10
 73
     6
 74
     0
 42
0.000000001
 43
0.0000000001
 40
0.0
 40
0.0
 40
0.0
 40
0.0
 40
0.4
 40
0.7
 40
1.0
 40
1.0
 40
1.0
 40
1.0
 10
881.3661142319595
 20
1982.246479222428
 30
0.0
 10
881.1341685970941
 20
1982.761742807454
 30
0.0
 10
880.8816832803678
 20
1984.009310238972
 30
0.0
 10
880.9438109557014
 20
1986.40156969522
 30
0.0
 10
881.1918896002147
 20
1987.967181240271
 30
0.0
 10
881.3661142319539
 20
1988.741669750811
 30
0.0
  0
SPLINE
  5
10B
330
87
100
AcDbEntity
  8
P-SANR-FIXT
100
AcDbSpline
210
0.0
220
0.0
230
1.0
 70
     8
 71
     3
 72
     9
 73
     5
 74
     0
 42
0.000000001
 43
0.0000000001
 40
0.1801949800928998
 40
0.1801949800928998
 40
0.1801949800928998
 40
0.1801949800928998
 40
0.5
 40
1.0
 40
1.0
 40
1.0
 40
1.0
 10
864.7173189191414
 20
1975.592505477054
 30
0.0
 10
864.7714852614354
 20
1974.987598550855
 30
0.0
 10
865.0197436729243
 20
1973.443137120411
 30
0.0
 10
865.5484580520061
 20
1971.914540440586
 30
0.0
 10
865.9752453800265
 20
1970.988148973245
 30
0.0
  0
SPLINE
  5
10C
330
87
100
AcDbEntity
  8
P-SANR-FIXT
100
AcDbSpline
210
0.0
220
0.0
230
1.0
 70
     8
 71
     3
 72
     9
 73
     5
 74
     0
 42
0.000000001
 43
0.0000000001
 40
0.0
 40
0.0
 40
0.0
 40
0.0
 40
0.5
 40
1.0
 40
1.0
 40
1.0
 40
1.0
 10
881.366114231989
 20
1970.988148973245
 30
0.0
 10
882.2358767722388
 20
1972.844304650049
 30
0.0
 10
883.1056393124836
 20
1976.576848701718
 30
0.0
 10
882.2358767722191
 20
1980.349858149505
 30
0.0
 10
881.3661142319595
 20
1982.246479222428
 30
0.0
  0
SPLINE
  5
10D
330
87
100
AcDbEntity
  8
P-SANR-FIXT
100
AcDbSpline
210
0.0
220
0.0
230
1.0
 70
     8
 71
     3
 72
     9
 73
     5
 74
     0
 42
0.000000001
 43
0.0000000001
 40
0.0
 40
0.0
 40
0.0
 40
0.0
 40
0.5
 40
1.0
 40
1.0
 40
1.0
 40
1.0
 10
865.9752453800265
 20
1970.988148973245
 30
0.0
 10
866.1214953513358
 20
1970.665340769864
 30
0.0
 10
866.3416577867671
 20
1970.16037087139
 30
0.0
 10
866.4171452078241
 20
1969.983339501622
 30
0.0
 10
866.4187201647591
 20
1969.983339501629
 30
0.0
  0
SPLINE
  5
10E
330
87
100
AcDbEntity
  8
P-SANR-FIXT
100
AcDbSpline
210
0.0
220
0.0
230
1.0
 70
     8
 71
     3
 72
     9
 73
     5
 74
     0
 42
0.000000001
 43
0.0000000001
 40
0.0
 40
0.0
 40
0.0
 40
0.0
 40
0.5
 40
1.0
 40
1.0
 40
1.0
 40
1.0
 10
880.9240471612566
 20
1969.983339501629
 30
0.0
 10
880.9256112812247
 20
1969.983339501622
 30
0.0
 10
881.000853246315
 20
1970.160343626923
 30
0.0
 10
881.220322661713
 20
1970.665315144351
 30
0.0
 10
881.366114231989
 20
1970.988148973245
 30
0.0
  0
SPLINE
  5
10F
330
87
100
AcDbEntity
  8
P-SANR-FIXT
100
AcDbSpline
210
0.0
220
0.0
230
1.0
 70
     8
 71
     3
 72
     9
 73
     5
 74
     0
 42
0.000000001
 43
0.0000000001
 40
0.0
 40
0.0
 40
0.0
 40
0.0
 40
0.5
 40
1.0
 40
1.0
 40
1.0
 40
1.0
 10
866.4187201647585
 20
2030.01666049836
 30
0.0
 10
866.4171452078235
 20
2030.016660498367
 30
0.0
 10
866.3416577867666
 20
2029.839629128599
 30
0.0
 10
866.1214953513352
 20
2029.334659230125
 30
0.0
 10
865.975245380026
 20
2029.011851026743
 30
0.0
  0
SPLINE
  5
110
330
87
100
AcDbEntity
  8
P-SANR-FIXT
100
AcDbSpline
210
0.0
220
0.0
230
1.0
 70
     8
 71
     3
 72
     9
 73
     5
 74
     0
 42
0.000000001
 43
0.0000000001
 40
0.0
 40
0.0
 40
0.0
 40
0.0
 40
0.5
 40
1.0
 40
1.0
 40
1.0
 40
1.0
 10
881.3661142319896
 20
2029.011851026743
 30
0.0
 10
881.2203226617135
 20
2029.334684855637
 30
0.0
 10
881.0008532463156
 20
2029.839656373066
 30
0.0
 10
880.9256112812255
 20
2030.016660498367
 30
0.0
 10
880.9240471612572
 20
2030.01666049836
 30
0.0
  0
SPLINE
  5
111
330
87
100
AcDbEntity
  8
P-SANR-FIXT
100
AcDbSpline
210
0.0
220
0.0
230
1.0
 70
     8
 71
     3
 72
     9
 73
     5
 74
     0
 42
0.000000001
 43
0.0000000001
 40
0.0
 40
0.0
 40
0.0
 40
0.0
 40
0.5
 40
1.0
 40
1.0
 40
1.0
 40
1.0
 10
881.3661142319599
 20
2017.75352077756
 30
0.0
 10
882.2358767722194
 20
2019.650141850483
 30
0.0
 10
883.1056393124839
 20
2023.42315129827
 30
0.0
 10
882.2358767722393
 20
2027.155695349939
 30
0.0
 10
881.3661142319896
 20
2029.011851026743
 30
0.0
  0
SPLINE
  5
112
330
87
100
AcDbEntity
  8
P-SANR-FIXT
100
AcDbSpline
210
0.0
220
0.0
230
1.0
 70
     8
 71
     3
 72
     9
 73
     5
 74
     0
 42
0.000000001
 43
0.0000000001
 40
0.0
 40
0.0
 40
0.0
 40
0.0
 40
0.5
 40
0.8198050198933602
 40
0.8198050198933602
 40
0.8198050198933602
 40
0.8198050198933602
 10
865.975245380026
 20
2029.011851026743
 30
0.0
 10
865.5484580520054
 20
2028.085459559402
 30
0.0
 10
865.0197436729326
 20
2026.556862879603
 30
0.0
 10
864.7714852614434
 20
2025.012401449185
 30
0.0
 10
864.7173189191482
 20
2024.407494523012
 30
0.0
  0
LINE
  5
113
330
87
100
AcDbEntity
  8
P-SANR-FIXT
100
AcDbLine
 10
921.0664074432221
 20
2020.949999999952
 30
0.0
 11
897.1664074431837
 21
2020.949999999952
 31
0.0
  0
LINE
  5
114
330
87
100
AcDbEntity
  8
P-SANR-FIXT
100
AcDbLine
 10
897.1664074431837
 20
1979.050000000039
 30
0.0
 11
921.0664074432221
 21
1979.050000000039
 31
0.0
  0
LINE
  5
115
330
87
100
AcDbEntity
  8
P-SANR-FIXT
100
AcDbLine
 10
921.6664074432227
 20
2020.349999999952
 30
0.0
 11
921.0664074432221
 21
2020.949999999952
 31
0.0
  0
LINE
  5
116
330
87
100
AcDbEntity
  8
P-SANR-FIXT
100
AcDbLine
 10
921.0664074432221
 20
1979.050000000039
 30
0.0
 11
921.6664074432227
 21
1979.65000000004
 31
0.0
  0
LINE
  5
117
330
87
100
AcDbEntity
  8
P-SANR-FIXT
100
AcDbLine
 10
884.6664074432476
 20
1979.049999999993
 30
0.0
 11
897.1664074431837
 21
1979.049999999993
 31
0.0
  0
LINE
  5
118
330
87
100
AcDbEntity
  8
P-SANR-FIXT
100
AcDbLine
 10
897.1664074431837
 20
2020.949999999952
 30
0.0
 11
884.6664074432476
 21
2020.949999999952
 31
0.0
  0
LINE
  5
119
330
87
100
AcDbEntity
  8
P-SANR-FIXT
100
AcDbLine
 10
897.1664074431821
 20
2013.058249364566
 30
0.0
 11
897.1664074431823
 21
2020.716741383057
 31
0.0
  0
LINE
  5
11A
330
87
100
AcDbEntity
  8
P-SANR-FIXT
100
AcDbLine
 10
897.1664074431821
 20
1992.341507981609
 30
0.0
 11
897.1664074431821
 21
2007.658492018381
 31
0.0
  0
LINE
  5
11B
330
87
100
AcDbEntity
  8
P-SANR-FIXT
100
AcDbLine
 10
897.1664074431823
 20
1979.28325861695
 30
0.0
 11
897.1664074431821
 21
1986.941750635338
 31
0.0
  0
LINE
  5
11C
330
87
100
AcDbEntity
  8
P-SANR-FIXT
100
AcDbLine
 10
921.0664074432207
 20
1979.050000000039
 30
0.0
 11
921.0664074432207
 21
2020.949999999951
 31
0.0
  0
LINE
  5
11D
330
87
100
AcDbEntity
  8
P-SANR-FIXT
100
AcDbLine
 10
921.6664074432209
 20
2020.349999999951
 30
0.0
 11
921.6664074432209
 21
1979.650000000039
 31
0.0
  0
LINE
  5
11E
330
87
100
AcDbEntity
  8
P-SANR-FIXT
100
AcDbLine
 10
884.666407443246
 20
2013.058249364509
 30
0.0
 11
897.1664074431821
 21
2013.058249364509
 31
0.0
  0
LINE
  5
11F
330
87
100
AcDbEntity
  8
P-SANR-FIXT
100
AcDbLine
 10
884.666407443246
 20
2007.658492018528
 30
0.0
 11
897.1664074431821
 21
2007.658492018528
 31
0.0
  0
LINE
  5
120
330
87
100
AcDbEntity
  8
P-SANR-FIXT
100
AcDbLine
 10
884.666407443246
 20
1992.341507981416
 30
0.0
 11
897.1664074431821
 21
1992.341507981416
 31
0.0
  0
LINE
  5
121
330
87
100
AcDbEntity
  8
P-SANR-FIXT
100
AcDbLine
 10
884.666407443246
 20
1986.941750635434
 30
0.0
 11
897.1664074431821
 21
1986.941750635434
 31
0.0
  0
LINE
  5
122
330
87
100
AcDbEntity
  8
P-SANR-FIXT
100
AcDbLine
 10
884.6664074432462
 20
1979.283258616878
 30
0.0
 11
897.1664074431823
 21
1979.283258616878
 31
0.0
  0
LINE
  5
123
330
87
100
AcDbEntity
  8
P-SANR-FIXT
100
AcDbLine
 10
897.1664074431823
 20
2020.716741383066
 30
0.0
 11
884.6664074432462
 21
2020.716741383066
 31
0.0
  0
LINE
  5
124
330
87
100
AcDbEntity
  8
P-SANR-FIXT
100
AcDbLine
 10
742.1664074431877
 20
1979.049999999993
 30
0.0
 11
754.6664074431171
 21
1979.049999999993
 31
0.0
  0
LINE
  5
125
330
87
100
AcDbEntity
  8
P-SANR-FIXT
100
AcDbLine
 10
754.6664074431171
 20
2020.949999999952
 30
0.0
 11
742.1664074431885
 21
2020.949999999952
 31
0.0
  0
LINE
  5
126
330
87
100
AcDbEntity
  8
P-SANR-FIXT
100
AcDbLine
 10
742.1664074431877
 20
2020.949999999952
 30
0.0
 11
718.26640744315
 21
2020.949999999952
 31
0.0
  0
LINE
  5
127
330
87
100
AcDbEntity
  8
P-SANR-FIXT
100
AcDbLine
 10
718.26640744315
 20
1979.050000000039
 30
0.0
 11
742.1664074431885
 21
1979.050000000039
 31
0.0
  0
LINE
  5
128
330
87
100
AcDbEntity
  8
P-SANR-FIXT
100
AcDbLine
 10
718.26640744315
 20
2020.949999999952
 30
0.0
 11
718.2177657991302
 21
2020.901358355932
 31
0.0
  0
LINE
  5
129
330
87
100
AcDbEntity
  8
P-SANR-FIXT
100
AcDbLine
 10
718.2018255848593
 20
2020.885418141662
 30
0.0
 11
717.6664074431499
 21
2020.349999999952
 31
0.0
  0
LINE
  5
12A
330
87
100
AcDbEntity
  8
P-SANR-FIXT
100
AcDbLine
 10
717.6664074431499
 20
1979.65000000004
 30
0.0
 11
718.2018255848594
 21
1979.11458185833
 31
0.0
  0
LINE
  5
12B
330
87
100
AcDbEntity
  8
P-SANR-FIXT
100
AcDbLine
 10
718.2177657991302
 20
1979.098641644059
 30
0.0
 11
718.26640744315
 21
1979.050000000039
 31
0.0
  0
LINE
  5
12C
330
87
100
AcDbEntity
  8
P-SANR-FIXT
100
AcDbLine
 10
754.6664074431238
 20
2020.716741383066
 30
0.0
 11
742.1664074431864
 21
2020.716741383066
 31
0.0
  0
LINE
  5
12D
330
87
100
AcDbEntity
  8
P-SANR-FIXT
100
AcDbLine
 10
742.1664074431862
 20
2013.058249364509
 30
0.0
 11
754.6664074431236
 21
2013.058249364509
 31
0.0
  0
LINE
  5
12E
330
87
100
AcDbEntity
  8
P-SANR-FIXT
100
AcDbLine
 10
742.1664074431862
 20
2007.658492018528
 30
0.0
 11
754.6664074431236
 21
2007.658492018528
 31
0.0
  0
LINE
  5
12F
330
87
100
AcDbEntity
  8
P-SANR-FIXT
100
AcDbLine
 10
742.1664074431862
 20
1992.341507981416
 30
0.0
 11
754.6664074431236
 21
1992.341507981416
 31
0.0
  0
LINE
  5
130
330
87
100
AcDbEntity
  8
P-SANR-FIXT
100
AcDbLine
 10
742.1664074431862
 20
1986.941750635435
 30
0.0
 11
754.6664074431236
 21
1986.941750635435
 31
0.0
  0
LINE
  5
131
330
87
100
AcDbEntity
  8
P-SANR-FIXT
100
AcDbLine
 10
742.1664074431864
 20
1979.283258616878
 30
0.0
 11
754.6664074431238
 21
1979.283258616878
 31
0.0
  0
LINE
  5
132
330
87
100
AcDbEntity
  8
P-SANR-FIXT
100
AcDbLine
 10
717.6664074431486
 20
1979.650000000039
 30
0.0
 11
717.6664074431486
 21
2020.349999999951
 31
0.0
  0
LINE
  5
133
330
87
100
AcDbEntity
  8
P-SANR-FIXT
100
AcDbLine
 10
742.1664074431862
 20
1986.941750635479
 30
0.0
 11
742.1664074431864
 21
1979.28325861693
 31
0.0
  0
LINE
  5
134
330
87
100
AcDbEntity
  8
P-SANR-FIXT
100
AcDbLine
 10
742.1664074431862
 20
2007.658492018508
 30
0.0
 11
742.1664074431862
 21
1992.341507981441
 31
0.0
  0
LINE
  5
135
330
87
100
AcDbEntity
  8
P-SANR-FIXT
100
AcDbLine
 10
742.1664074431864
 20
2020.716741383059
 30
0.0
 11
742.1664074431862
 21
2013.058249364483
 31
0.0
  0
LINE
  5
136
330
87
100
AcDbEntity
  8
P-SANR-FIXT
100
AcDbLine
 10
718.2664074431488
 20
2020.949999999951
 30
0.0
 11
718.2664074431488
 21
1979.050000000039
 31
0.0
  0
LINE
  5
137
330
87
100
AcDbEntity
  8
P-SANR-FIXT
100
AcDbLine
 10
830.0234128372744
 20
1942.806857746088
 30
0.0
 11
831.1407640985454
 21
1949.143671640261
 31
0.0
  0
LINE
  5
138
330
87
100
AcDbEntity
  8
P-SANR-FIXT
100
AcDbLine
 10
800.1920507878278
 20
1949.143671640261
 30
0.0
 11
801.3094020490987
 21
1942.806857746088
 31
0.0
  0
LINE
  5
139
330
87
100
AcDbEntity
  8
P-SANR-FIXT
100
AcDbLine
 10
788.6664074431863
 20
1977.999999999996
 30
0.0
 11
788.6664074431863
 21
1961.199999999996
 31
0.0
  0
LINE
  5
13A
330
87
100
AcDbEntity
  8
P-SANR-FIXT
100
AcDbLine
 10
851.6664074431869
 20
2030.389483597422
 30
0.0
 11
851.6664074431869
 21
2042.499999999996
 31
0.0
  0
LINE
  5
13B
330
87
100
AcDbEntity
  8
P-SANR-FIXT
100
AcDbLine
 10
779.6664074431864
 20
2042.499999999996
 30
0.0
 11
779.6664074431864
 21
2021.999999999996
 31
0.0
  0
LINE
  5
13C
330
87
100
AcDbEntity
  8
P-SANR-FIXT
100
AcDbLine
 10
779.6664074431864
 20
2021.999999999996
 30
0.0
 11
778.0624110603235
 21
2021.999999999996
 31
0.0
  0
LINE
  5
13D
330
87
100
AcDbEntity
  8
P-SANR-FIXT
100
AcDbLine
 10
778.0624110603235
 20
1977.999999999996
 30
0.0
 11
788.6664074431863
 21
1977.999999999996
 31
0.0
  0
LINE
  5
13E
330
87
100
AcDbEntity
  8
P-SANR-FIXT
100
AcDbLine
 10
776.3303602527545
 20
2022.999999999996
 30
0.0
 11
775.7093890866923
 21
2024.075553609651
 31
0.0
  0
LINE
  5
13F
330
87
100
AcDbEntity
  8
P-SANR-FIXT
100
AcDbLine
 10
775.7022548770603
 20
2024.087910423206
 30
0.0
 11
775.6664074431864
 21
2024.149999999996
 31
0.0
  0
LINE
  5
140
330
87
100
AcDbEntity
  8
P-SANR-FIXT
100
AcDbLine
 10
775.6664074431864
 20
1975.849999999996
 30
0.0
 11
775.7022548770603
 21
1975.912089576786
 31
0.0
  0
LINE
  5
141
330
87
100
AcDbEntity
  8
P-SANR-FIXT
100
AcDbLine
 10
775.7093890866923
 20
1975.92444639034
 30
0.0
 11
776.3303602527545
 21
1976.999999999996
 31
0.0
  0
LINE
  5
142
330
87
100
AcDbEntity
  8
P-SANR-FIXT
100
AcDbLine
 10
775.6664074431864
 20
2024.149999999996
 30
0.0
 11
774.6664074431286
 21
2024.149999999996
 31
0.0
  0
LINE
  5
143
330
87
100
AcDbEntity
  8
P-SANR-FIXT
100
AcDbLine
 10
774.6664074431286
 20
1975.849999999996
 30
0.0
 11
775.6664074431864
 21
1975.849999999996
 31
0.0
  0
LWPOLYLINE
  5
144
330
87
100
AcDbEntity
  8
P-SANR-FIXT
100
AcDbPolyline
 90
       28
 70
   128
 43
0.0
 10
778.0624110603235
 20
1977.999999999996
 10
777.9824323919503
 20
1977.998400213318
 10
777.9025816723851
 20
1977.993603412601
 10
777.8229866457457
 20
1977.985617271703
 10
777.7437746470949
 20
1977.974454566747
 10
777.6650723987334
 20
1977.960133155679
 10
777.587005807469
 20
1977.9426759497
 10
777.5096997631952
 20
1977.922110876617
 10
777.4332779390911
 20
1977.898470836161
 10
777.3578625937732
 20
1977.871793647352
 10
777.2835743757062
 20
1977.842121988001
 10
777.2105321301915
 20
1977.809503326436
 10
777.1388527092404
 20
1977.773989845555
 10
777.0686507846361
 20
1977.735638359351
 10
777.0000386644816
 20
1977.694510222023
 10
776.9331261135334
 20
1977.650671229815
 10
776.8680201775986
 20
1977.604191515764
 10
776.8048250122865
 20
1977.555145437498
 10
776.7436417163804
 20
1977.503611458277
 10
776.6845681701023
 20
1977.449672021478
 10
776.6276988785244
 20
1977.39341341869
 10
776.5731248203817
 20
1977.334925651678
 10
776.5209333025255
 20
1977.274302288393
 10
776.4712078202506
 20
1977.211640313283
 10
776.4240279237214
 20
1977.147039972141
 10
776.3794690907076
 20
1977.080604611732
 10
776.3376026058367
 20
1977.012440514461
 10
776.3303602527545
 20
1976.999999999996
  0
LWPOLYLINE
  5
145
330
87
100
AcDbEntity
  8
P-SANR-FIXT
100
AcDbPolyline
 90
       28
 70
   128
 43
0.0
 10
776.3303602527545
 20
2022.999999999996
 10
776.371735042845
 20
2022.931536334763
 10
776.4158145539052
 20
2022.864781983467
 10
776.4625282681204
 20
2022.799843738832
 10
776.511801453513
 20
2022.736825488194
 10
776.5635552834972
 20
2022.675828047312
 10
776.6177069629858
 20
2022.616948999079
 10
776.674169860843
 20
2022.560282537414
 10
776.7328536484769
 20
2022.505919316564
 10
776.793664444346
 20
2022.453946306088
 10
776.8565049641493
 20
2022.404446651715
 10
776.9212746764601
 20
2022.357499542333
 10
776.9878699635555
 20
2022.313180083302
 10
777.0561842871829
 20
2022.271559176301
 10
777.1261083589966
 20
2022.232703405904
 10
777.1975303153988
 20
2022.196674933055
 10
777.2703358964946
 20
2022.163531395623
 10
777.3444086288858
 20
2022.1333258162
 10
777.4196300120015
 20
2022.106106517268
 10
777.4958797076751
 20
2022.0819170439
 10
777.5730357326596
 20
2022.060796094092
 10
777.6509746537737
 20
2022.042777456858
 10
777.7295717853696
 20
2022.027889958176
 10
777.8087013888039
 20
2022.016157414865
 10
777.8882368735906
 20
2022.007598596494
 10
777.9680509999211
 20
2022.002227195346
 10
778.048016082219
 20
2022.000051804516
 10
778.0624110603235
 20
2021.999999999996
  0
LINE
  5
146
330
87
100
AcDbEntity
  8
P-SANR-FIXT
100
AcDbLine
 10
851.6664074431869
 20
2042.499999999996
 30
0.0
 11
851.1664074431868
 21
2042.999999999996
 31
0.0
  0
LINE
  5
147
330
87
100
AcDbEntity
  8
P-SANR-FIXT
100
AcDbLine
 10
780.1664074431863
 20
2042.999999999996
 30
0.0
 11
779.6664074431864
 21
2042.499999999996
 31
0.0
  0
LWPOLYLINE
  5
148
330
87
100
AcDbEntity
  8
P-SANR-FIXT
100
AcDbPolyline
 90
       34
 70
   128
 43
0.0
 10
800.1920507878278
 20
1949.143671640261
 10
800.1533917069803
 20
1949.339886171881
 10
800.1069170607971
 20
1949.534397801902
 10
800.0527011987975
 20
1949.726895353208
 10
799.9908308547954
 20
1949.917070870781
 10
799.9214050081432
 20
1950.104620114362
 10
799.8445347253853
 20
1950.289243045169
 10
799.7603429825759
 20
1950.470644305897
 10
799.6689644685439
 20
1950.648533693226
 10
799.5705453694181
 20
1950.822626622084
 10
799.4652431347626
 20
1950.992644580923
 10
799.3532262256896
 20
1951.158315577277
 10
799.2346738453576
 20
1951.319374572892
 10
799.1097756522856
 20
1951.475563907735
 10
798.9787314569388
 20
1951.626633712186
 10
798.8417509020754
 20
1951.772342306786
 10
798.699053127362
 20
1951.912456588867
 10
798.5508664187976
 20
1952.046752405466
 10
798.3974278435047
 20
1952.175014911925
 10
798.2389828704715
 20
1952.297038915595
 10
798.0757849778553
 20
1952.4126292041
 10
797.9080952474707
 20
1952.521600857637
 10
797.7361819471142
 20
1952.623779544807
 10
797.5603201013937
 20
1952.719001801506
 10
797.3807910517467
 20
1952.807115292436
 10
797.1978820063558
 20
1952.88797905481
 10
797.0118855806747
 20
1952.961463723857
 10
796.8230993293074
 20
1953.027451739783
 10
796.6318252699841
 20
1953.085837535839
 10
796.4383694003964
 20
1953.136527707206
 10
796.2430412086675
 20
1953.179441160423
 10
796.0461531782361
 20
1953.214509243119
 10
795.8480202879508
 20
1953.241675853843
 10
795.8058564152358
 20
1953.24641892426
  0
LWPOLYLINE
  5
149
330
87
100
AcDbEntity
  8
P-SANR-FIXT
100
AcDbPolyline
 90
       34
 70
   128
 43
0.0
 10
835.5269584711372
 20
1953.24641892426
 10
835.3286021820228
 20
1953.220934624782
 10
835.1314236569514
 20
1953.187538574092
 10
834.9357383395002
 20
1953.146284198747
 10
834.7418592844331
 20
1953.097237496946
 10
834.5500966568803
 20
1953.040476932952
 10
834.3607572361376
 20
1952.976093311556
 10
834.1741439248888
 20
1952.904189632819
 10
833.990555264623
 20
1952.824880927289
 10
833.8102849580328
 20
1952.738294071976
 10
833.6336213991534
 20
1952.644567587378
 10
833.4608472119928
 20
1952.543851415875
 10
833.2922387983938
 20
1952.436306681859
 10
833.1280658958503
 20
1952.32210543396
 10
832.9685911459849
 20
1952.201430369815
 10
832.8140696743776
 20
1952.074474543783
 10
832.6647486824207
 20
1951.941441058104
 10
832.520867051847
 20
1951.802542737975
 10
832.382654962573
 20
1951.658001791079
 10
832.2503335244576
 20
1951.508049452096
 10
832.1241144235749
 20
1951.352925612783
 10
832.0041995835607
 20
1951.192878438189
 10
831.8907808425787
 20
1951.028163969652
 10
831.78403964642
 20
1950.859045715187
 10
831.6841467582278
 20
1950.685794227921
 10
831.5912619853143
 20
1950.508686673277
 10
831.5055339235014
 20
1950.328006385562
 10
831.4270997194007
 20
1950.144042414692
 10
831.3560848510068
 20
1949.957089063778
 10
831.2926029269601
 20
1949.767445418299
 10
831.2367555047968
 20
1949.575414867634
 10
831.1886319284793
 20
1949.381304619698
 10
831.1483091854636
 20
1949.185425209481
 10
831.1407640985454
 20
1949.143671640261
  0
LWPOLYLINE
  5
14A
330
87
100
AcDbEntity
  8
P-SANR-FIXT
100
AcDbPolyline
 90
       38
 70
   128
 43
0.0
 10
795.8058564152358
 20
1953.24641892426
 10
795.488486352653
 20
1953.287193803426
 10
795.1730007125385
 20
1953.34062748453
 10
794.8599042046167
 20
1953.406634485083
 10
794.5496977165094
 20
1953.485109207963
 10
794.2428775124247
 20
1953.575926110355
 10
793.9399344392366
 20
1953.678939904588
 10
793.6413531412386
 20
1953.793985790566
 10
793.3476112848129
 20
1953.920879719415
 10
793.0591787942688
 20
1954.059418687916
 10
792.7765171000617
 20
1954.209381063273
 10
792.5000784006048
 20
1954.370526937677
 10
792.2303049388464
 20
1954.542598512104
 10
791.967628294777
 20
1954.725320508741
 10
791.7124686949921
 20
1954.918400611374
 10
791.4652343404207
 20
1955.121529933025
 10
791.2263207532889
 20
1955.334383510112
 10
790.9961101443713
 20
1955.556620822318
 10
790.774970801533
 20
1955.787886337351
 10
790.5632565005483
 20
1956.027810079723
 10
790.3613059391359
 20
1956.276008222625
 10
790.1694421951133
 20
1956.532083701975
 10
789.9879722095423
 20
1956.795626851633
 10
789.8171862956883
 20
1957.066216058779
 10
789.6573576745809
 20
1957.343418438404
 10
789.5087420379192
 20
1957.626790525834
 10
789.3715771390187
 20
1957.915878986179
 10
789.2460824124574
 20
1958.21022133957
 10
789.1324586230271
 20
1958.509346701033
 10
789.0308875445523
 20
1958.812776533799
 10
788.9415316690913
 20
1959.120025414863
 10
788.8645339469832
 20
1959.43060181156
 10
788.8000175581581
 20
1959.744008867906
 10
788.7480857150753
 20
1960.059745199469
 10
788.7088214976057
 20
1960.377305695472
 10
788.6822877201212
 20
1960.696182326863
 10
788.6685268310056
 20
1961.015864959055
 10
788.6664074431864
 20
1961.199999999996
  0
LWPOLYLINE
  5
14B
330
87
100
AcDbEntity
  8
P-SANR-FIXT
100
AcDbPolyline
 90
       26
 70
   128
 43
0.0
 10
841.817999676723
 20
1957.614650850301
 10
841.6689034404091
 20
1957.33153133541
 10
841.5086047042857
 20
1957.054600545154
 10
841.3373599121356
 20
1956.78430150972
 10
841.1554430190959
 20
1956.521066649906
 10
840.9631450533881
 20
1956.265317085332
 10
840.7607736507365
 20
1956.017461960746
 10
840.5486525622151
 20
1955.777897791473
 10
840.3271211363152
 20
1955.547007829081
 10
840.0965337760609
 20
1955.325161448255
 10
839.8572593720391
 20
1955.112713555879
 10
839.6096807122537
 20
1954.910004023262
 10
839.3541938697469
 20
1954.717357142414
 10
839.091207568965
 20
1954.535081107248
 10
838.8211425318891
 20
1954.363467520536
 10
838.5444308049672
 20
1954.20279092741
 10
838.2615150679342
 20
1954.05330837614
 10
837.9728479256169
 20
1953.915259006924
 10
837.6788911838639
 20
1953.7888636693
 10
837.3801151107549
 20
1953.674324568848
 10
837.0769976842716
 20
1953.571824943694
 10
836.770023827634
 20
1953.481528771373
 10
836.4596846335286
 20
1953.403580506497
 10
836.1464765784644
 20
1953.338104849665
 10
835.830900728515
 20
1953.285206547958
 10
835.5269584711372
 20
1953.24641892426
  0
LWPOLYLINE
  5
14C
330
87
100
AcDbEntity
  8
P-SANR-FIXT
100
AcDbPolyline
 90
       27
 70
   128
 43
0.0
 10
788.0756481205436
 20
2012.499999999996
 10
788.821679372287
 20
2012.499999999996
 10
789.6106564623742
 20
2012.499999999996
 10
790.4413171957665
 20
2012.499999999996
 10
791.3123326924895
 20
2012.499999999996
 10
792.2223095135548
 20
2012.499999999996
 10
793.1697918901663
 20
2012.499999999996
 10
794.1532640526406
 20
2012.499999999996
 10
795.1711526553143
 20
2012.499999999996
 10
796.2218292935607
 20
2012.499999999996
 10
797.3036131088909
 20
2012.499999999996
 10
798.4147734779688
 20
2012.499999999996
 10
799.5535327812388
 20
2012.499999999996
 10
800.7180692467379
 20
2012.499999999996
 10
801.9065198645428
 20
2012.499999999996
 10
803.1169833671871
 20
2012.499999999996
 10
804.3475232712854
 20
2012.499999999996
 10
805.5961709754924
 20
2012.499999999996
 10
806.8609289098452
 20
2012.499999999996
 10
808.1397737314492
 20
2012.499999999996
 10
809.4306595613957
 20
2012.499999999996
 10
810.7315212577313
 20
2012.499999999996
 10
812.0402777192442
 20
2012.499999999996
 10
813.3548352147819
 20
2012.499999999996
 10
814.6730907327762
 20
2012.499999999996
 10
815.9929353456112
 20
2012.499999999996
 10
817.3122575834572
 20
2012.499999999996
  0
LINE
  5
14D
330
87
100
AcDbEntity
  8
P-SANR-FIXT
100
AcDbLine
 10
829.4165550911824
 20
1942.199999999996
 30
0.0
 11
830.0234128372744
 21
1942.806857746088
 31
0.0
  0
LINE
  5
14E
330
87
100
AcDbEntity
  8
P-SANR-FIXT
100
AcDbLine
 10
801.3094020490987
 20
1942.806857746088
 30
0.0
 11
801.9162597951908
 21
1942.199999999996
 31
0.0
  0
LINE
  5
14F
330
87
100
AcDbEntity
  8
P-SANR-FIXT
100
AcDbLine
 10
841.817999676723
 20
1957.614650850301
 30
0.0
 11
851.7259874424887
 21
1969.62236760136
 31
0.0
  0
LINE
  5
150
330
87
100
AcDbEntity
  8
P-SANR-FIXT
100
AcDbLine
 10
829.4165550911809
 20
1942.199999999995
 30
0.0
 11
801.9162597951892
 21
1942.199999999995
 31
0.0
  0
LINE
  5
151
330
87
100
AcDbEntity
  8
P-SANR-FIXT
100
AcDbLine
 10
801.3094020490973
 20
1942.806857746087
 30
0.0
 11
830.023412837273
 21
1942.806857746087
 31
0.0
  0
SPLINE
  5
152
330
87
100
AcDbEntity
  8
P-SANR-FIXT
100
AcDbSpline
210
0.0
220
0.0
230
1.0
 70
     8
 71
     3
 72
    13
 73
     9
 74
     0
 42
0.000000001
 43
0.0000000001
 40
0.0
 40
0.0
 40
0.0
 40
0.0
 40
0.2
 40
0.3
 40
0.4
 40
0.5
 40
0.55
 40
0.575695167839088
 40
0.575695167839088
 40
0.575695167839088
 40
0.575695167839088
 10
839.8041317122542
 20
1961.199999999995
 30
0.0
 10
839.0801081780672
 20
1961.890389363249
 30
0.0
 10
837.9077103526258
 20
1963.181055264364
 30
0.0
 10
836.2874058268587
 20
1965.456392834109
 30
0.0
 10
835.141793734359
 20
1967.397163708575
 30
0.0
 10
834.3507458549691
 20
1969.238849302185
 30
0.0
 10
833.8769049137061
 20
1970.623819062147
 30
0.0
 10
833.6944507030878
 20
1971.225755813501
 30
0.0
 10
833.6352974575778
 20
1971.431009188862
 30
0.0
  0
SPLINE
  5
153
330
87
100
AcDbEntity
  8
P-SANR-FIXT
100
AcDbSpline
210
0.0
220
0.0
230
1.0
 70
     8
 71
     3
 72
    10
 73
     6
 74
     0
 42
0.000000001
 43
0.0000000001
 40
0.0
 40
0.0
 40
0.0
 40
0.0
 40
0.3333333333333333
 40
0.6666666666666666
 40
1.0
 40
1.0
 40
1.0
 40
1.0
 10
791.9603536054941
 20
1982.196152422702
 30
0.0
 10
791.3170267741157
 20
1981.324832795911
 30
0.0
 10
790.1535550011232
 20
1979.850963933168
 30
0.0
 10
788.9532341290396
 20
1978.342528158945
 30
0.0
 10
788.6664074431849
 20
1978.013036627964
 30
0.0
 10
788.6664074431849
 20
1977.999999999995
 30
0.0
  0
SPLINE
  5
154
330
87
100
AcDbEntity
  8
P-SANR-FIXT
100
AcDbSpline
210
0.0
220
0.0
230
1.0
 70
     8
 71
     3
 72
     9
 73
     5
 74
     0
 42
0.000000001
 43
0.0000000001
 40
-1.0
 40
-1.0
 40
-1.0
 40
-1.0
 40
-0.5
 40
0.0
 40
0.0
 40
0.0
 40
0.0
 10
792.2506837641466
 20
1987.499999999995
 30
0.0
 10
792.3807590368563
 20
1986.808872841888
 30
0.0
 10
792.5668082115604
 20
1985.477278524645
 30
0.0
 10
792.6046546448334
 20
1984.266619646101
 30
0.0
 10
792.5865271761121
 20
1983.696152422701
 30
0.0
  0
SPLINE
  5
155
330
87
100
AcDbEntity
  8
P-SANR-FIXT
100
AcDbSpline
210
0.0
220
0.0
230
1.0
 70
     8
 71
     3
 72
    13
 73
     9
 74
     0
 42
0.000000001
 43
0.0000000001
 40
0.0
 40
0.0
 40
0.0
 40
0.0
 40
0.25
 40
0.375
 40
0.5
 40
0.625
 40
0.75
 40
1.0
 40
1.0
 40
1.0
 40
1.0
 10
793.166407443185
 20
2009.499999999995
 30
0.0
 10
793.8635927566881
 20
2007.924569151745
 30
0.0
 10
794.6817725371701
 20
2005.472272932765
 30
0.0
 10
795.2258900264536
 20
2001.843077705492
 30
0.0
 10
795.3213929868285
 20
1999.086164365083
 30
0.0
 10
794.9894822273436
 20
1996.368220523407
 30
0.0
 10
794.1632376762797
 20
1992.837549047402
 30
0.0
 10
793.2318159915361
 20
1990.486713873899
 30
0.0
 10
792.4931469906718
 20
1988.999999999995
 30
0.0
  0
LINE
  5
156
330
87
100
AcDbEntity
  8
P-SANR-FIXT
100
AcDbLine
 10
851.6664074431853
 20
2042.499999999995
 30
0.0
 11
779.6664074431849
 21
2042.499999999995
 31
0.0
  0
SPLINE
  5
157
330
87
100
AcDbEntity
  8
P-SANR-FIXT
100
AcDbSpline
210
0.0
220
0.0
230
1.0
 70
     8
 71
     3
 72
    11
 73
     7
 74
     0
 42
0.000000001
 43
0.0000000001
 40
0.0
 40
0.0
 40
0.0
 40
0.0
 40
0.25
 40
0.5
 40
0.75
 40
1.0
 40
1.0
 40
1.0
 40
1.0
 10
779.6664074431849
 20
2021.999999999995
 30
0.0
 10
779.6664074431849
 20
2021.992758473786
 30
0.0
 10
779.8536942973063
 20
2021.698722392642
 30
0.0
 10
780.6428097856089
 20
2020.377667367494
 30
0.0
 10
781.819638578997
 20
2018.300636890672
 30
0.0
 10
782.7473916170297
 20
2016.506985239534
 30
0.0
 10
783.2280042765676
 20
2015.499999999995
 30
0.0
  0
LINE
  5
158
330
87
100
AcDbEntity
  8
P-SANR-FIXT
100
AcDbLine
 10
780.1664074431848
 20
2042.999999999995
 30
0.0
 11
851.1664074431854
 21
2042.999999999995
 31
0.0
  0
LINE
  5
159
330
87
100
AcDbEntity
  8
P-SANR-FIXT
100
AcDbLine
 10
775.6664074431851
 20
2024.149999999995
 30
0.0
 11
775.6664074431851
 21
1975.849999999995
 31
0.0
  0
LINE
  5
15A
330
87
100
AcDbEntity
  8
P-SANR-FIXT
100
AcDbLine
 10
774.6664074431272
 20
2024.145722408812
 30
0.0
 11
774.6664074431272
 21
2022.616781647343
 31
0.0
  0
LINE
  5
15B
330
87
100
AcDbEntity
  8
P-SANR-FIXT
100
AcDbLine
 10
774.6664074431271
 20
2001.566708320691
 30
0.0
 11
774.6664074431271
 21
1998.433291679146
 31
0.0
  0
LINE
  5
15C
330
87
100
AcDbEntity
  8
P-SANR-FIXT
100
AcDbLine
 10
774.6664074431272
 20
1977.383218352574
 30
0.0
 11
774.6664074431272
 21
1975.854277591169
 31
0.0
  0
SPLINE
  5
15D
330
87
100
AcDbEntity
  8
P-SANR-FIXT
100
AcDbSpline
210
0.0
220
0.0
230
1.0
 70
     8
 71
     3
 72
    17
 73
    13
 74
     0
 42
0.000000001
 43
0.0000000001
 40
-1.0
 40
-1.0
 40
-1.0
 40
-1.0
 40
-0.8333333333333332
 40
-0.75
 40
-0.6666666666666666
 40
-0.5833333333333333
 40
-0.5
 40
-0.4166666666666666
 40
-0.3333333333333333
 40
-0.25
 40
-0.1666666666666666
 40
0.0
 40
0.0
 40
0.0
 40
0.0
 10
841.8179996767216
 20
1957.6146508503
 30
0.0
 10
841.8477936200586
 20
1957.650758810962
 30
0.0
 10
841.8595861301536
 20
1957.751816941902
 30
0.0
 10
841.8119506457708
 20
1957.981453184897
 30
0.0
 10
841.741823839785
 20
1958.19714870965
 30
0.0
 10
841.6502537714597
 20
1958.470512160585
 30
0.0
 10
841.5354786673331
 20
1958.79799685461
 30
0.0
 10
841.3808691774544
 20
1959.158988280146
 30
0.0
 10
841.1695580662346
 20
1959.53306821339
 30
0.0
 10
840.8994813244088
 20
1959.916939356595
 30
0.0
 10
840.4789297618632
 20
1960.460236240271
 30
0.0
 10
840.0920011401728
 20
1960.896672988537
 30
0.0
 10
839.8041317122542
 20
1961.199999999995
 30
0.0
  0
SPLINE
  5
15E
330
87
100
AcDbEntity
  8
P-SANR-FIXT
100
AcDbSpline
210
0.0
220
0.0
230
1.0
 70
     8
 71
     3
 72
    13
 73
     9
 74
     0
 42
0.000000001
 43
0.0000000001
 40
0.0
 40
0.0
 40
0.0
 40
0.0
 40
0.3333333333333333
 40
0.4166666666666666
 40
0.5
 40
0.6666666666666666
 40
0.8333333333333332
 40
1.0
 40
1.0
 40
1.0
 40
1.0
 10
791.9603536054942
 20
1982.196152422702
 30
0.0
 10
792.0745660548749
 20
1982.34367263688
 30
0.0
 10
792.1998327943002
 20
1982.535721260711
 30
0.0
 10
792.3287089274318
 20
1982.778257530945
 30
0.0
 10
792.4100006997691
 20
1982.943221260461
 30
0.0
 10
792.4940638254104
 20
1983.155488351971
 30
0.0
 10
792.5578890445559
 20
1983.419951939649
 30
0.0
 10
792.5805619558202
 20
1983.602954688547
 30
0.0
 10
792.5865271761121
 20
1983.696152422701
 30
0.0
  0
SPLINE
  5
15F
330
87
100
AcDbEntity
  8
P-SANR-FIXT
100
AcDbSpline
210
0.0
220
0.0
230
1.0
 70
     8
 71
     3
 72
     9
 73
     5
 74
     0
 42
0.000000001
 43
0.0000000001
 40
0.0
 40
0.0
 40
0.0
 40
0.0
 40
0.5
 40
1.0
 40
1.0
 40
1.0
 40
1.0
 10
792.2506837641466
 20
1987.499999999995
 30
0.0
 10
792.2099166325089
 20
1987.752472800794
 30
0.0
 10
792.2095600386252
 20
1988.255714419843
 30
0.0
 10
792.3715587835257
 20
1988.753215157903
 30
0.0
 10
792.493146990672
 20
1988.999999999995
 30
0.0
  0
SPLINE
  5
160
330
87
100
AcDbEntity
  8
P-SANR-FIXT
100
AcDbSpline
210
0.0
220
0.0
230
1.0
 70
     8
 71
     3
 72
    22
 73
    18
 74
     0
 42
0.000000001
 43
0.0000000001
 40
0.0
 40
0.0
 40
0.0
 40
0.0
 40
0.0714285714285714
 40
0.1428571428571428
 40
0.2142857142857143
 40
0.25
 40
0.2857142857142857
 40
0.3571428571428571
 40
0.4285714285714286
 40
0.5714285714285714
 40
0.6785714285714287
 40
0.7053571428571429
 40
0.7321428571428572
 40
0.7857142857142857
 40
0.8392857142857142
 40
0.8928571428571427
 40
1.0
 40
1.0
 40
1.0
 40
1.0
 10
793.1664074431851
 20
2009.499999999995
 30
0.0
 10
793.1067299977173
 20
2009.6299727067
 30
0.0
 10
792.9743628925924
 20
2009.881069231314
 30
0.0
 10
792.7394536458921
 20
2010.231885183857
 30
0.0
 10
792.5067019822429
 20
2010.502588583188
 30
0.0
 10
792.3032168556792
 20
2010.706829479229
 30
0.0
 10
792.0938469193542
 20
2010.903348672638
 30
0.0
 10
791.8161899450174
 20
2011.13455443474
 30
0.0
 10
791.3424887250047
 20
2011.473684745335
 30
0.0
 10
790.769938381414
 20
2011.805516648988
 30
0.0
 10
790.2410507728643
 20
2012.040349577608
 30
0.0
 10
789.9243614496172
 20
2012.157058599735
 30
0.0
 10
789.7110180591831
 20
2012.228956446743
 30
0.0
 10
789.4385195360301
 20
2012.311698465194
 30
0.0
 10
789.1051392973917
 20
2012.392659332781
 30
0.0
 10
788.6553253724699
 20
2012.468670469864
 30
0.0
 10
788.309644137429
 20
2012.495650816131
 30
0.0
 10
788.0756481205422
 20
2012.499999999995
 30
0.0
  0
SPLINE
  5
161
330
87
100
AcDbEntity
  8
P-SANR-FIXT
100
AcDbSpline
210
0.0
220
0.0
230
1.0
 70
     8
 71
     3
 72
    13
 73
     9
 74
     0
 42
0.000000001
 43
0.0000000001
 40
0.0
 40
0.0
 40
0.0
 40
0.0
 40
0.1428571428571428
 40
0.2142857142857143
 40
0.2857142857142857
 40
0.4285714285714286
 40
0.5714285714285714
 40
1.0
 40
1.0
 40
1.0
 40
1.0
 10
788.0756481205422
 20
2012.499999999995
 30
0.0
 10
787.7557432784827
 20
2012.504629040243
 30
0.0
 10
787.2889779797457
 20
2012.550952929327
 30
0.0
 10
786.6841227249667
 20
2012.700340626826
 30
0.0
 10
786.1001673388833
 20
2012.89688099199
 30
0.0
 10
785.4184930335772
 20
2013.21992329713
 30
0.0
 10
784.2097892844597
 20
2014.029166474281
 30
0.0
 10
783.5347326533362
 20
2014.859659209083
 30
0.0
 10
783.2280042765677
 20
2015.499999999995
 30
0.0
  0
ENDBLK
  5
163
330
87
100
AcDbEntity
  8
0
100
AcDbBlockEnd
  0
BLOCK
  5
261
330
165
100
AcDbEntity
  8
0
100
AcDbBlockBegin
  2
Automatic flow rate regulator valve_Caleffi_121 DN15 - 1 1_4___Pressure gauge-V1-Est - Idraulica
 70
     0
 10
0.0
 20
0.0
 30
0.0
  3
Automatic flow rate regulator valve_Caleffi_121 DN15 - 1 1_4___Pressure gauge-V1-Est - Idraulica
  1

  0
LINE
  5
166
330
165
100
AcDbEntity
  8
M-PIPE
100
AcDbLine
 10
842.166407443157
 20
1707.245878730053
 30
0.0
 11
842.166407443157
 21
1705.245878730053
 31
0.0
1001
REVIT
1002
{
1070
     3
1000
923159
1002
}
  0
LINE
  5
167
330
165
100
AcDbEntity
  8
M-PIPE
100
AcDbLine
 10
849.166407443157
 20
1705.245878730054
 30
0.0
 11
849.1664074431568
 21
1707.245878730054
 31
0.0
1001
REVIT
1002
{
1070
     3
1000
923159
1002
}
  0
LINE
  5
168
330
165
100
AcDbEntity
  8
M-PIPE
100
AcDbLine
 10
842.1664074431552
 20
1705.245878730053
 30
0.0
 11
849.1664074431552
 21
1705.245878730053
 31
0.0
1001
REVIT
1002
{
1070
     3
1000
923159
1002
}
  0
LINE
  5
169
330
165
100
AcDbEntity
  8
M-PIPE
100
AcDbLine
 10
839.1164074431632
 20
1754.245878730036
 30
0.0
 11
839.1164074431634
 21
1743.245878730036
 31
0.0
1001
REVIT
1002
{
1070
     3
1000
923159
1002
}
  0
LINE
  5
16A
330
165
100
AcDbEntity
  8
M-PIPE
100
AcDbLine
 10
852.2164074431488
 20
1743.245878730037
 30
0.0
 11
852.2164074431488
 21
1754.245878730037
 31
0.0
1001
REVIT
1002
{
1070
     3
1000
923159
1002
}
  0
LINE
  5
16B
330
165
100
AcDbEntity
  8
M-PIPE
100
AcDbLine
 10
838.6664074431671
 20
1743.245878730036
 30
0.0
 11
852.6664074431669
 21
1743.245878730036
 31
0.0
1001
REVIT
1002
{
1070
     3
1000
923159
1002
}
  0
LINE
  5
16C
330
165
100
AcDbEntity
  8
M-PIPE
100
AcDbLine
 10
852.6664074431669
 20
1743.245878730036
 30
0.0
 11
852.6664074431673
 21
1737.245878730053
 31
0.0
1001
REVIT
1002
{
1070
     3
1000
923159
1002
}
  0
LINE
  5
16D
330
165
100
AcDbEntity
  8
M-PIPE
100
AcDbLine
 10
838.6664074431671
 20
1743.245878730036
 30
0.0
 11
838.6664074431671
 21
1737.245878730053
 31
0.0
1001
REVIT
1002
{
1070
     3
1000
923159
1002
}
  0
LINE
  5
16E
330
165
100
AcDbEntity
  8
M-PIPE
100
AcDbLine
 10
814.6664074431447
 20
1734.245878730054
 30
0.0
 11
814.666407443145
 21
1707.245878730053
 31
0.0
1001
REVIT
1002
{
1070
     3
1000
923159
1002
}
  0
LINE
  5
16F
330
165
100
AcDbEntity
  8
M-PIPE
100
AcDbLine
 10
876.6664074431687
 20
1707.245878730054
 30
0.0
 11
876.6664074431684
 21
1734.245878730054
 31
0.0
1001
REVIT
1002
{
1070
     3
1000
923159
1002
}
  0
LWPOLYLINE
  5
170
330
165
100
AcDbEntity
  8
M-PIPE
100
AcDbPolyline
 90
       80
 70
   128
 43
0.0
 10
873.6664074431688
 20
1737.245878730055
 10
873.6440104296761
 20
1737.245878730055
 10
873.576855219642
 20
1737.245878730055
 10
873.4650492470768
 20
1737.245878730055
 10
873.308771377686
 20
1737.245878730055
 10
873.1082716227232
 20
1737.245878730055
 10
872.8638707390253
 20
1737.245878730054
 10
872.5759597158699
 20
1737.245878730054
 10
872.2449991494766
 20
1737.245878730054
 10
871.8715185061501
 20
1737.245878730054
 10
871.4561152752485
 20
1737.245878730054
 10
870.9994540133266
 20
1737.245878730054
 10
870.5022652809875
 20
1737.245878730054
 10
869.9653444741413
 20
1737.245878730054
 10
869.3895505515426
 20
1737.245878730054
 10
868.7758046606376
 20
1737.245878730054
 10
868.1250886639265
 20
1737.245878730054
 10
867.4384435681922
 20
1737.245878730054
 10
866.7169678591109
 20
1737.245878730054
 10
865.9618157439107
 20
1737.245878730054
 10
865.1741953048855
 20
1737.245878730054
 10
864.3553665667212
 20
1737.245878730054
 10
863.5066394807244
 20
1737.245878730054
 10
862.629371829181
 20
1737.245878730054
 10
861.7249670531924
 20
1737.245878730054
 10
860.7948720074709
 20
1737.245878730054
 10
859.8405746456805
 20
1737.245878730054
 10
858.863601640027
 20
1737.245878730054
 10
857.8655159389098
 20
1737.245878730054
 10
856.8479142665371
 20
1737.245878730054
 10
855.8124245685078
 20
1737.245878730054
 10
854.7607034074461
 20
1737.245878730054
 10
853.6944333128547
 20
1737.245878730054
 10
852.615320089426
 20
1737.245878730053
 10
851.5250900881188
 20
1737.245878730054
 10
850.4254874443653
 20
1737.245878730054
 10
849.318271287826
 20
1737.245878730054
 10
848.2052129281582
 20
1737.245878730053
 10
847.0880930212972
 20
1737.245878730053
 10
845.9686987207881
 20
1737.245878730053
 10
844.84882081872
 20
1737.245878730053
 10
843.7302508808418
 20
1737.245878730053
 10
842.6147783804388
 20
1737.245878730053
 10
841.5041878355564
 20
1737.245878730053
 10
840.4002559541535
 20
1737.245878730053
 10
839.3047487917472
 20
1737.245878730053
 10
838.2194189261017
 20
1737.245878730053
 10
837.1460026534773
 20
1737.245878730053
 10
836.0862172109271
 20
1737.245878730053
 10
835.0417580290834
 20
1737.245878730053
 10
834.0142960198313
 20
1737.245878730053
 10
833.0054749032054
 20
1737.245878730053
 10
832.0169085777884
 20
1737.245878730053
 10
831.0501785388181
 20
1737.245878730053
 10
830.1068313481325
 20
1737.245878730053
 10
829.1883761599995
 20
1737.245878730053
 10
828.2962823067936
 20
1737.245878730053
 10
827.4319769483771
 20
1737.245878730053
 10
826.5968427889477
 20
1737.245878730053
 10
825.7922158650083
 20
1737.245878730053
 10
825.0193834079924
 20
1737.245878730053
 10
824.2795817849694
 20
1737.245878730053
 10
823.5739945207198
 20
1737.245878730053
 10
822.9037504043496
 20
1737.245878730053
 10
822.2699216834667
 20
1737.245878730053
 10
821.6735223488154
 20
1737.245878730053
 10
821.1155065121058
 20
1737.245878730053
 10
820.5967668796397
 20
1737.245878730053
 10
820.1181333241704
 20
1737.245878730053
 10
819.6803715572837
 20
1737.245878730053
 10
819.2841819044224
 20
1737.245878730053
 10
818.9301981845151
 20
1737.245878730053
 10
818.6189866960011
 20
1737.245878730053
 10
818.3510453108741
 20
1737.245878730053
 10
818.1268026781921
 20
1737.245878730053
 10
817.9466175383318
 20
1737.245878730053
 10
817.8107781490794
 20
1737.245878730053
 10
817.7195018244802
 20
1737.245878730053
 10
817.6729345871823
 20
1737.245878730053
 10
817.6664074431441
 20
1737.245878730053
1001
REVIT
1002
{
1070
     3
1000
923159
1002
}
  0
LWPOLYLINE
  5
171
330
165
100
AcDbEntity
  8
M-PIPE
100
AcDbPolyline
 90
       41
 70
   128
 43
0.0
 10
873.6959280995378
 20
1737.245288238193
 10
873.7863754457288
 20
1737.243479050038
 10
873.9061515250764
 20
1737.236283848962
 10
874.0255440650354
 20
1737.224304637616
 10
874.1443620630114
 20
1737.207560580181
 10
874.2624154355539
 20
1737.186078463578
 10
874.37951532245
 20
1737.159892654611
 10
874.4954743888611
 20
1737.129045044987
 10
874.6101071250171
 20
1737.093584984302
 10
874.723230142994
 20
1737.053569201088
 10
874.8346624700946
 20
1737.009061712063
 10
874.9442258383668
 20
1736.960133719714
 10
875.0517449697932
 20
1736.906863498392
 10
875.1570478567
 20
1736.849336269087
 10
875.2599660369314
 20
1736.787644063095
 10
875.3603348633538
 20
1736.721885574783
 10
875.4579937672559
 20
1736.652166003707
 10
875.552786515224
 20
1736.578596886307
 10
875.644561459083
 20
1736.501295917477
 10
875.7331717785003
 20
1736.420386762277
 10
875.8184757158673
 20
1736.335998858096
 10
875.9003368030812
 20
1736.248267207578
 10
875.9786240798657
 20
1736.15733216265
 10
876.0532123032778
 20
1736.063339199985
 10
876.1239821480717
 20
1735.966438688272
 10
876.1908203975925
 20
1735.866785647659
 10
876.2536201248988
 20
1735.764539501753
 10
876.3122808638238
 20
1735.659863822576
 10
876.3667087696985
 20
1735.552926068885
 10
876.416816769484
 20
1735.443897318273
 10
876.4625247010705
 20
1735.332951993485
 10
876.5037594415174
 20
1735.220267583371
 10
876.5404550240365
 20
1735.10602435895
 10
876.5725527435234
 20
1734.990405085012
 10
876.6000012504749
 20
1734.873594727729
 10
876.6227566331341
 20
1734.755780158755
 10
876.640782487744
 20
1734.637149856269
 10
876.6540499767817
 20
1734.517893603448
 10
876.6625378750955
 20
1734.398202184855
 10
876.6662326038586
 20
1734.278267081229
 10
876.6664074431687
 20
1734.245878730054
1001
REVIT
1002
{
1070
     3
1000
923159
1002
}
  0
LWPOLYLINE
  5
172
330
165
100
AcDbEntity
  8
M-PIPE
100
AcDbPolyline
 90
       41
 70
   128
 43
0.0
 10
814.6664074431443
 20
1734.245878730054
 10
814.6688071231613
 20
1734.365846732614
 10
814.6760023242363
 20
1734.485622811961
 10
814.6879815355825
 20
1734.60501535192
 10
814.7047255930173
 20
1734.723833349896
 10
814.7262077096206
 20
1734.841886722439
 10
814.7523935185882
 20
1734.958986609335
 10
814.7832411282118
 20
1735.074945675746
 10
814.8187011888968
 20
1735.189578411902
 10
814.8587169721103
 20
1735.302701429879
 10
814.9032244611357
 20
1735.414133756979
 10
814.9521524534844
 20
1735.523697125252
 10
815.0054226748064
 20
1735.631216256678
 10
815.0629499041112
 20
1735.736519143585
 10
815.1246421101038
 20
1735.839437323816
 10
815.1904005984151
 20
1735.939806150239
 10
815.2601201694913
 20
1736.037465054141
 10
815.3336892868916
 20
1736.132257802109
 10
815.4109902557214
 20
1736.224032745968
 10
815.4918994109214
 20
1736.312643065385
 10
815.5762873151028
 20
1736.397947002752
 10
815.6640189656203
 20
1736.479808089966
 10
815.7549540105485
 20
1736.558095366751
 10
815.8489469732137
 20
1736.632683590163
 10
815.9458474849268
 20
1736.703453434957
 10
816.0455005255396
 20
1736.770291684478
 10
816.1477466714458
 20
1736.833091411783
 10
816.2524223506229
 20
1736.891752150708
 10
816.3593601043141
 20
1736.946180056583
 10
816.4683888549253
 20
1736.996288056369
 10
816.579334179714
 20
1737.041995987955
 10
816.6920185898279
 20
1737.083230728402
 10
816.8062618142483
 20
1737.119926310921
 10
816.921881088187
 20
1737.152024030408
 10
817.0386914454699
 20
1737.179472537359
 10
817.1565060144434
 20
1737.202227920019
 10
817.2751363169297
 20
1737.220253774629
 10
817.3943925697511
 20
1737.233521263666
 10
817.5140839883434
 20
1737.24200916198
 10
817.6340190919693
 20
1737.245703890744
 10
817.6664074431441
 20
1737.245878730053
1001
REVIT
1002
{
1070
     3
1000
923159
1002
}
  0
LWPOLYLINE
  5
173
330
165
100
AcDbEntity
  8
M-PIPE
100
AcDbPolyline
 90
        4
 70
   128
 43
0.0
 10
817.6664074431441
 20
1737.245878730053
 10
817.6888044566368
 20
1737.245878730053
 10
817.7559596666709
 20
1737.245878730053
 10
817.7702512685685
 20
1737.245878730053
1001
REVIT
1002
{
1070
     3
1000
923159
1002
}
  0
LWPOLYLINE
  5
174
330
165
100
AcDbEntity
  8
M-PIPE
100
AcDbPolyline
 90
        4
 70
   128
 43
0.0
 10
873.554874329355
 20
1737.245878730055
 10
873.6133130618329
 20
1737.245878730055
 10
873.6598802991307
 20
1737.245878730054
 10
873.6664074431688
 20
1737.245878730055
1001
REVIT
1002
{
1070
     3
1000
923159
1002
}
  0
LINE
  5
175
330
165
100
AcDbEntity
  8
M-PIPE
100
AcDbLine
 10
814.6664074431434
 20
1707.245878730052
 30
0.0
 11
876.666407443167
 21
1707.245878730053
 31
0.0
1001
REVIT
1002
{
1070
     3
1000
923159
1002
}
  0
LINE
  5
176
330
165
100
AcDbEntity
  8
P-SANR-FIXT
100
AcDbLine
 10
836.1664074432438
 20
1833.295453246155
 30
0.0
 11
836.1664074432438
 21
1828.245878730038
 31
0.0
  0
LINE
  5
177
330
165
100
AcDbEntity
  8
P-SANR-FIXT
100
AcDbLine
 10
855.1664074431293
 20
1828.245878730038
 30
0.0
 11
855.1664074431293
 21
1833.295453246156
 31
0.0
  0
LINE
  5
178
330
165
100
AcDbEntity
  8
P-SANR-FIXT
100
AcDbLine
 10
837.1168329271773
 20
1834.245878730088
 30
0.0
 11
836.1664074432438
 21
1833.295453246155
 31
0.0
  0
LINE
  5
179
330
165
100
AcDbEntity
  8
P-SANR-FIXT
100
AcDbLine
 10
855.1664074431293
 20
1833.295453246156
 30
0.0
 11
854.2159819591958
 21
1834.245878730089
 31
0.0
  0
LINE
  5
17A
330
165
100
AcDbEntity
  8
P-SANR-FIXT
100
AcDbLine
 10
845.6664074431847
 20
1833.295453246154
 30
0.0
 11
836.166407443242
 21
1833.295453246154
 31
0.0
  0
LINE
  5
17B
330
165
100
AcDbEntity
  8
P-SANR-FIXT
100
AcDbLine
 10
855.1664074431275
 20
1833.295453246154
 30
0.0
 11
845.6664074431849
 21
1833.295453246154
 31
0.0
  0
LINE
  5
17C
330
165
100
AcDbEntity
  8
P-SANR-FIXT
100
AcDbLine
 10
836.166407443242
 20
1828.245878730037
 30
0.0
 11
845.6664074431847
 21
1828.245878730037
 31
0.0
  0
LINE
  5
17D
330
165
100
AcDbEntity
  8
P-SANR-FIXT
100
AcDbLine
 10
845.6664074431847
 20
1828.245878730037
 30
0.0
 11
855.1664074431275
 21
1828.245878730037
 31
0.0
  0
LINE
  5
17E
330
165
100
AcDbEntity
  8
P-SANR-FIXT
100
AcDbLine
 10
837.1168329271755
 20
1834.245878730088
 30
0.0
 11
845.6664074431847
 21
1834.245878730088
 31
0.0
  0
LINE
  5
17F
330
165
100
AcDbEntity
  8
P-SANR-FIXT
100
AcDbLine
 10
845.6664074431847
 20
1834.245878730088
 30
0.0
 11
854.215981959194
 21
1834.245878730088
 31
0.0
  0
LWPOLYLINE
  5
180
330
165
100
AcDbEntity
  8
P-SANR-FIXT
100
AcDbPolyline
 90
       80
 70
   128
 43
0.0
 10
851.1664074431868
 20
1791.245878730071
 10
851.1380112296514
 20
1792.665500093697
 10
851.0528680169295
 20
1794.082850365977
 10
850.9111140159991
 20
1795.495662088828
 10
850.7129760030215
 20
1796.901675064877
 10
850.4587709565509
 20
1798.298639973296
 10
850.1489055504336
 20
1799.684321968235
 10
849.7838755032191
 20
1801.056504254097
 10
849.3642647851133
 20
1802.412991631943
 10
848.8907446837535
 20
1803.751614011337
 10
848.3640727302891
 20
1805.070229882028
 10
847.7850914874954
 20
1806.366729739914
 10
847.1547272018513
 20
1807.639039461794
 10
846.4739883217429
 20
1808.885123623523
 10
845.7439638841627
 20
1810.102988756263
 10
844.9658217724799
 20
1811.290686535595
 10
844.1408068480789
 20
1812.446316898436
 10
843.2702389588445
 20
1813.568031082727
 10
842.3555108276882
 20
1814.654034585058
 10
841.3980858244885
 20
1815.702590031495
 10
840.3994956250109
 20
1816.712019957004
 10
839.3613377605529
 20
1817.680709489037
 10
838.285273062236
 20
1818.607108930984
 10
837.1730230040292
 20
1819.489736241362
 10
836.0263669487586
 20
1820.327179404756
 10
834.8471393015053
 20
1821.118098690751
 10
833.6372265749501
 20
1821.861228797209
 10
832.3985643713541
 20
1822.555380874487
 10
831.1331342860096
 20
1823.199444427337
 10
829.842960737109
 20
1823.792389091468
 10
828.5301077271082
 20
1824.333266281908
 10
827.1966755407628
 20
1824.82121071053
 10
825.8447973851206
 20
1825.255441770339
 10
824.4766359768455
 20
1825.63526478427
 10
823.0943800823318
 20
1825.960072116525
 10
821.7002410161448
 20
1826.229344144661
 10
820.2964491033904
 20
1826.442650090876
 10
818.8852501116693
 20
1826.599648711157
 10
817.4689016583283
 20
1826.700088841204
 10
816.0496695987548
 20
1826.743809798235
 10
814.6298244014905
 20
1826.730741638044
 10
813.211637515967
 20
1826.660905266902
 10
811.7973777386707
 20
1826.534412408103
 10
810.3893075835529
 20
1826.351465423238
 10
808.989679662489
 20
1826.112356988456
 10
807.6007330815816
 20
1825.817469626247
 10
806.2246898590673
 20
1825.467275093483
 10
804.8637513705621
 20
1825.062333626712
 10
803.5200948273294
 20
1824.6032930459
 10
802.1958697932069
 20
1824.090887718051
 10
800.8931947457627
 20
1823.525937382382
 10
799.6141536871837
 20
1822.909345838916
 10
798.3607928103165
 20
1822.242099502588
 10
797.135117225194
 20
1821.525265825198
 10
795.9390877512896
 20
1820.759991587714
 10
794.7746177806213
 20
1819.947501065666
 10
793.6435702167361
 20
1819.089094070568
 10
792.5477544944583
 20
1818.186143870494
 10
791.4889236851823
 20
1817.240094993145
 10
790.4687716923308
 20
1816.252460914912
 10
789.488930541472
 20
1815.224821639637
 10
788.5509677694252
 20
1814.158821170941
 10
787.6563839165379
 20
1813.056164882174
 10
786.8066101261401
 20
1811.918616788176
 10
786.0030058550212
 20
1810.747996723234
 10
785.2468566985886
 20
1809.546177429733
 10
784.5393723341892
 20
1808.315081562168
 10
783.8816845858844
 20
1807.056678611307
 10
783.2748456137718
 20
1805.772981753428
 10
782.7198262307551
 20
1804.46604462966
 10
782.2175143494491
 20
1803.137958060605
 10
781.7687135617096
 20
1801.790846701463
 10
781.3741418530583
 20
1800.42686564304
 10
781.0344304540579
 20
1799.048196964062
 10
780.7501228304793
 20
1797.657046240316
 10
780.5216738138706
 20
1796.255639016196
 10
780.3494488739256
 20
1794.84621724431
 10
780.2337235338086
 20
1793.431035698832
 10
780.1746829293773
 20
1792.012358368347
 10
780.1664074431863
 20
1791.245878730071
  0
LWPOLYLINE
  5
181
330
165
100
AcDbEntity
  8
P-SANR-FIXT
100
AcDbPolyline
 90
       80
 70
   128
 43
0.0
 10
780.1664074431863
 20
1791.24587873007
 10
780.1948036567217
 20
1789.826257366445
 10
780.2799468694435
 20
1788.408907094165
 10
780.4217008703741
 20
1786.996095371313
 10
780.6198388833516
 20
1785.590082395264
 10
780.8740439298222
 20
1784.193117486845
 10
781.1839093359394
 20
1782.807435491907
 10
781.5489393831541
 20
1781.435253206044
 10
781.9685501012599
 20
1780.078765828198
 10
782.4420702026198
 20
1778.740143448805
 10
782.9687421560841
 20
1777.421527578113
 10
783.5477233988779
 20
1776.125027720227
 10
784.1780876845218
 20
1774.852717998348
 10
784.8588265646301
 20
1773.606633836618
 10
785.5888510022105
 20
1772.388768703879
 10
786.3669931138931
 20
1771.201070924547
 10
787.1920080382944
 20
1770.045440561705
 10
788.0625759275289
 20
1768.923726377415
 10
788.977304058685
 20
1767.837722875083
 10
789.9347290618846
 20
1766.789167428646
 10
790.9333192613624
 20
1765.779737503137
 10
791.9714771258203
 20
1764.811047971105
 10
793.0475418241374
 20
1763.884648529157
 10
794.1597918823439
 20
1763.002021218779
 10
795.3064479376147
 20
1762.164578055385
 10
796.4856755848678
 20
1761.37365876939
 10
797.6955883114233
 20
1760.630528662932
 10
798.9342505150191
 20
1759.936376585655
 10
800.1996806003635
 20
1759.292313032804
 10
801.4898541492641
 20
1758.699368368673
 10
802.8027071592651
 20
1758.158491178234
 10
804.1361393456103
 20
1757.670546749612
 10
805.4880175012526
 20
1757.236315689803
 10
806.8561789095276
 20
1756.856492675872
 10
808.2384348040417
 20
1756.531685343617
 10
809.6325738702285
 20
1756.26241331548
 10
811.0363657829829
 20
1756.049107369266
 10
812.4475647747042
 20
1755.892108748984
 10
813.8639132280447
 20
1755.791668618937
 10
815.2831452876183
 20
1755.747947661907
 10
816.7029904848828
 20
1755.761015822097
 10
818.1211773704061
 20
1755.83085219324
 10
819.5354371477023
 20
1755.957345052039
 10
820.9435073028204
 20
1756.140292036904
 10
822.3431352238842
 20
1756.379400471685
 10
823.7320818047916
 20
1756.674287833895
 10
825.1081250273058
 20
1757.024482366659
 10
826.4690635158112
 20
1757.429423833429
 10
827.8127200590439
 20
1757.888464414241
 10
829.1369450931664
 20
1758.400869742091
 10
830.4396201406106
 20
1758.965820077759
 10
831.7186611991893
 20
1759.582411621226
 10
832.9720220760567
 20
1760.249657957554
 10
834.1976976611791
 20
1760.966491634944
 10
835.3937271350837
 20
1761.731765872428
 10
836.5581971057519
 20
1762.544256394475
 10
837.6892446696372
 20
1763.402663389574
 10
838.7850603919149
 20
1764.305613589648
 10
839.8438912011911
 20
1765.251662466997
 10
840.8640431940424
 20
1766.239296545229
 10
841.8438843449013
 20
1767.266935820505
 10
842.7818471169482
 20
1768.332936289201
 10
843.6764309698354
 20
1769.435592577968
 10
844.5262047602332
 20
1770.573140671966
 10
845.329809031352
 20
1771.743760736908
 10
846.0859581877848
 20
1772.945580030409
 10
846.7934425521841
 20
1774.176675897974
 10
847.4511303004888
 20
1775.435078848835
 10
848.0579692726013
 20
1776.718775706714
 10
848.6129886556181
 20
1778.025712830482
 10
849.1153005369241
 20
1779.353799399537
 10
849.5641013246634
 20
1780.700910758678
 10
849.9586730333149
 20
1782.064891817102
 10
850.2983844323152
 20
1783.44356049608
 10
850.5826920558941
 20
1784.834711219826
 10
850.8111410725025
 20
1786.236118443946
 10
850.9833660124478
 20
1787.645540215832
 10
851.0990913525644
 20
1789.06072176131
 10
851.1581319569957
 20
1790.479399091795
 10
851.1664074431868
 20
1791.245878730071
  0
ARC
  5
182
330
165
100
AcDbEntity
  8
P-SANR-FIXT
100
AcDbCircle
 10
815.6664074431844
 20
1791.245878730071
 30
0.0
 40
23.00000000000016
100
AcDbArc
 50
180.0000000000019
 51
185.9293853773289
  0
ARC
  5
183
330
165
100
AcDbEntity
  8
P-SANR-FIXT
100
AcDbCircle
 10
815.6664074431844
 20
1791.245878730071
 30
0.0
 40
23.00000000000011
100
AcDbArc
 50
174.0706146226701
 51
180.0000000000019
  0
SPLINE
  5
184
330
165
100
AcDbEntity
  8
P-SANR-FIXT
100
AcDbSpline
210
0.0
220
0.0
230
1.0
 70
    24
 71
     3
 72
     9
 73
     5
 74
     0
 42
0.000000001
 43
0.0000000001
 40
0.0
 40
0.0
 40
0.0
 40
0.0
 40
0.5
 40
1.0
 40
1.0
 40
1.0
 40
1.0
 10
802.1702897235682
 20
1772.621840325411
 30
0.0
 10
800.6320976794617
 20
1775.286067097601
 30
0.0
 10
797.530433715408
 20
1780.658306671348
 30
0.0
 10
794.378209999672
 20
1786.118118303826
 30
0.0
 10
792.7894582038834
 20
1788.869917134748
 30
0.0
  0
ARC
  5
185
330
165
100
AcDbEntity
  8
P-SANR-FIXT
100
AcDbCircle
 10
815.6664074431844
 20
1791.245878730071
 30
0.0
 40
23.00000000000018
100
AcDbArc
 50
234.0706146226684
 51
245.9293853773286
  0
SPLINE
  5
186
330
165
100
AcDbEntity
  8
P-SANR-FIXT
100
AcDbSpline
210
0.0
220
0.0
230
1.0
 70
    24
 71
     3
 72
     9
 73
     5
 74
     0
 42
0.000000001
 43
0.0000000001
 40
0.0
 40
0.0
 40
0.0
 40
0.0
 40
0.5
 40
1.0
 40
1.0
 40
1.0
 40
1.0
 10
825.047238962869
 20
1770.245878730088
 30
0.0
 10
821.9708548746563
 20
1770.245878730088
 30
0.0
 10
815.7675269465489
 20
1770.245878730088
 30
0.0
 10
809.4630795150768
 20
1770.245878730088
 30
0.0
 10
806.2855759234997
 20
1770.245878730088
 30
0.0
  0
ARC
  5
187
330
165
100
AcDbEntity
  8
P-SANR-FIXT
100
AcDbCircle
 10
815.6664074431844
 20
1791.245878730071
 30
0.0
 40
23.00000000000022
100
AcDbArc
 50
294.0706146226684
 51
305.9293853773288
  0
SPLINE
  5
188
330
165
100
AcDbEntity
  8
P-SANR-FIXT
100
AcDbSpline
210
0.0
220
0.0
230
1.0
 70
    24
 71
     3
 72
     9
 73
     5
 74
     0
 42
0.000000001
 43
0.0000000001
 40
0.0
 40
0.0
 40
0.0
 40
0.0
 40
0.5
 40
1.0
 40
1.0
 40
1.0
 40
1.0
 10
838.5433566824854
 20
1788.869917134748
 30
0.0
 10
837.0051646383791
 20
1786.205690362557
 30
0.0
 10
833.9035006743252
 20
1780.833450788811
 30
0.0
 10
830.7512769585892
 20
1775.373639156332
 30
0.0
 10
829.1625251628007
 20
1772.62184032541
 30
0.0
  0
ARC
  5
189
330
165
100
AcDbEntity
  8
P-SANR-FIXT
100
AcDbCircle
 10
815.6664074431844
 20
1791.245878730071
 30
0.0
 40
23.00000000000017
100
AcDbArc
 50
359.9999999999968
 51
5.929385377329894
  0
ARC
  5
18A
330
165
100
AcDbEntity
  8
P-SANR-FIXT
100
AcDbCircle
 10
815.6664074431844
 20
1791.245878730071
 30
0.0
 40
23.00000000000004
100
AcDbArc
 50
354.0706146226689
 51
359.9999999999965
  0
SPLINE
  5
18B
330
165
100
AcDbEntity
  8
P-SANR-FIXT
100
AcDbSpline
210
0.0
220
0.0
230
1.0
 70
    24
 71
     3
 72
     9
 73
     5
 74
     0
 42
0.000000001
 43
0.0000000001
 40
0.0
 40
0.0
 40
0.0
 40
0.0
 40
0.5
 40
1.0
 40
1.0
 40
1.0
 40
1.0
 10
829.1625251628007
 20
1809.869917134731
 30
0.0
 10
830.7007172069072
 20
1807.205690362541
 30
0.0
 10
833.8023811709609
 20
1801.833450788794
 30
0.0
 10
836.954604886697
 20
1796.373639156316
 30
0.0
 10
838.5433566824856
 20
1793.621840325393
 30
0.0
  0
ARC
  5
18C
330
165
100
AcDbEntity
  8
P-SANR-FIXT
100
AcDbCircle
 10
815.6664074431844
 20
1791.245878730071
 30
0.0
 40
23.00000000000005
100
AcDbArc
 50
54.07061462266966
 51
65.92938537733044
  0
SPLINE
  5
18D
330
165
100
AcDbEntity
  8
P-SANR-FIXT
100
AcDbSpline
210
0.0
220
0.0
230
1.0
 70
    24
 71
     3
 72
     9
 73
     5
 74
     0
 42
0.000000001
 43
0.0000000001
 40
0.0
 40
0.0
 40
0.0
 40
0.0
 40
0.5
 40
1.0
 40
1.0
 40
1.0
 40
1.0
 10
806.2855759234997
 20
1812.245878730054
 30
0.0
 10
809.3619600117124
 20
1812.245878730054
 30
0.0
 10
815.56528793982
 20
1812.245878730054
 30
0.0
 10
821.8697353712922
 20
1812.245878730054
 30
0.0
 10
825.0472389628694
 20
1812.245878730054
 30
0.0
  0
ARC
  5
18E
330
165
100
AcDbEntity
  8
P-SANR-FIXT
100
AcDbCircle
 10
815.6664074431844
 20
1791.245878730071
 30
0.0
 40
23.00000000000013
100
AcDbArc
 50
114.0706146226698
 51
125.9293853773307
  0
SPLINE
  5
18F
330
165
100
AcDbEntity
  8
P-SANR-FIXT
100
AcDbSpline
210
0.0
220
0.0
230
1.0
 70
    24
 71
     3
 72
     9
 73
     5
 74
     0
 42
0.000000001
 43
0.0000000001
 40
0.0
 40
0.0
 40
0.0
 40
0.0
 40
0.5
 40
1.0
 40
1.0
 40
1.0
 40
1.0
 10
792.7894582038836
 20
1793.621840325394
 30
0.0
 10
794.378209999672
 20
1796.373639156316
 30
0.0
 10
797.5304337154081
 20
1801.833450788794
 30
0.0
 10
800.6320976794619
 20
1807.205690362541
 30
0.0
 10
802.1702897235682
 20
1809.869917134731
 30
0.0
  0
ARC
  5
190
330
165
100
AcDbEntity
  8
P-SANR-FIXT
100
AcDbCircle
 10
815.666407443185
 20
1791.24587873007
 30
0.0
 40
20.49999999999965
100
AcDbArc
 50
174.3721186371939
 51
175.0000000000001
  0
ARC
  5
191
330
165
100
AcDbEntity
  8
P-SANR-FIXT
100
AcDbCircle
 10
815.666407443185
 20
1791.24587873007
 30
0.0
 40
20.49999999999961
100
AcDbArc
 50
168.7412277815879
 51
169.9999999999999
  0
ARC
  5
192
330
165
100
AcDbEntity
  8
P-SANR-FIXT
100
AcDbCircle
 10
815.666407443185
 20
1791.24587873007
 30
0.0
 40
20.49999999999966
100
AcDbArc
 50
150.0000000000011
 51
165.0000000000002
  0
ARC
  5
193
330
165
100
AcDbEntity
  8
P-SANR-FIXT
100
AcDbCircle
 10
815.666407443185
 20
1791.24587873007
 30
0.0
 40
20.49999999999954
100
AcDbArc
 50
145.000000000001
 51
146.2236392671651
  0
ARC
  5
194
330
165
100
AcDbEntity
  8
P-SANR-FIXT
100
AcDbCircle
 10
815.666407443185
 20
1791.24587873007
 30
0.0
 40
20.49999999999962
100
AcDbArc
 50
140.0000000000008
 51
140.6064284940095
  0
ARC
  5
195
330
165
100
AcDbEntity
  8
P-SANR-FIXT
100
AcDbCircle
 10
815.666407443185
 20
1791.24587873007
 30
0.0
 40
20.49999999999962
100
AcDbArc
 50
129.3935715059909
 51
130.0000000000008
  0
ARC
  5
196
330
165
100
AcDbEntity
  8
P-SANR-FIXT
100
AcDbCircle
 10
815.666407443185
 20
1791.24587873007
 30
0.0
 40
20.49999999999976
100
AcDbArc
 50
123.7763607328343
 51
125.0000000000013
  0
ARC
  5
197
330
165
100
AcDbEntity
  8
P-SANR-FIXT
100
AcDbCircle
 10
815.666407443185
 20
1791.24587873007
 30
0.0
 40
20.49999999999973
100
AcDbArc
 50
105.0000000000011
 51
120.0000000000011
  0
ARC
  5
198
330
165
100
AcDbEntity
  8
P-SANR-FIXT
100
AcDbCircle
 10
815.666407443185
 20
1791.24587873007
 30
0.0
 40
20.49999999999962
100
AcDbArc
 50
100.0000000000015
 51
101.2587722184123
  0
ARC
  5
199
330
165
100
AcDbEntity
  8
P-SANR-FIXT
100
AcDbCircle
 10
815.666407443185
 20
1791.24587873007
 30
0.0
 40
20.49999999999964
100
AcDbArc
 50
95.00000000000149
 51
95.62788136280635
  0
ARC
  5
19A
330
165
100
AcDbEntity
  8
P-SANR-FIXT
100
AcDbCircle
 10
815.666407443185
 20
1791.24587873007
 30
0.0
 40
20.49999999999974
100
AcDbArc
 50
84.37211863719468
 51
85.00000000000142
  0
ARC
  5
19B
330
165
100
AcDbEntity
  8
P-SANR-FIXT
100
AcDbCircle
 10
815.666407443185
 20
1791.24587873007
 30
0.0
 40
20.49999999999957
100
AcDbArc
 50
78.74122778158866
 51
80.0000000000014
  0
ARC
  5
19C
330
165
100
AcDbEntity
  8
P-SANR-FIXT
100
AcDbCircle
 10
815.666407443185
 20
1791.24587873007
 30
0.0
 40
20.49999999999969
100
AcDbArc
 50
60.00000000000119
 51
75.00000000000166
  0
ARC
  5
19D
330
165
100
AcDbEntity
  8
P-SANR-FIXT
100
AcDbCircle
 10
815.666407443185
 20
1791.24587873007
 30
0.0
 40
20.49999999999958
100
AcDbArc
 50
55.00000000000083
 51
56.22363926716588
  0
ARC
  5
19E
330
165
100
AcDbEntity
  8
P-SANR-FIXT
100
AcDbCircle
 10
815.666407443185
 20
1791.24587873007
 30
0.0
 40
20.49999999999971
100
AcDbArc
 50
50.00000000000071
 51
50.60642849400964
  0
ARC
  5
19F
330
165
100
AcDbEntity
  8
P-SANR-FIXT
100
AcDbCircle
 10
815.666407443185
 20
1791.24587873007
 30
0.0
 40
20.49999999999962
100
AcDbArc
 50
39.3935715059909
 51
40.0000000000005
  0
ARC
  5
1A0
330
165
100
AcDbEntity
  8
P-SANR-FIXT
100
AcDbCircle
 10
815.666407443185
 20
1791.24587873007
 30
0.0
 40
20.49999999999972
100
AcDbArc
 50
33.7763607328362
 51
35.00000000000115
  0
ARC
  5
1A1
330
165
100
AcDbEntity
  8
P-SANR-FIXT
100
AcDbCircle
 10
815.666407443185
 20
1791.24587873007
 30
0.0
 40
20.49999999999967
100
AcDbArc
 50
15.00000000000066
 51
30.00000000000123
  0
ARC
  5
1A2
330
165
100
AcDbEntity
  8
P-SANR-FIXT
100
AcDbCircle
 10
815.666407443185
 20
1791.24587873007
 30
0.0
 40
20.49999999999966
100
AcDbArc
 50
10.00000000000083
 51
11.25877221841296
  0
ARC
  5
1A3
330
165
100
AcDbEntity
  8
P-SANR-FIXT
100
AcDbCircle
 10
815.666407443185
 20
1791.24587873007
 30
0.0
 40
20.49999999999965
100
AcDbArc
 50
5.000000000000534
 51
5.627881362806676
  0
ARC
  5
1A4
330
165
100
AcDbEntity
  8
P-SANR-FIXT
100
AcDbCircle
 10
815.666407443185
 20
1791.24587873007
 30
0.0
 40
20.49999999999953
100
AcDbArc
 50
354.3721186371949
 51
354.9999999999998
  0
ARC
  5
1A5
330
165
100
AcDbEntity
  8
P-SANR-FIXT
100
AcDbCircle
 10
815.666407443185
 20
1791.24587873007
 30
0.0
 40
20.49999999999961
100
AcDbArc
 50
348.7412277815881
 51
350.0000000000002
  0
ARC
  5
1A6
330
165
100
AcDbEntity
  8
P-SANR-FIXT
100
AcDbCircle
 10
815.666407443185
 20
1791.24587873007
 30
0.0
 40
20.49999999999972
100
AcDbArc
 50
330.000000000001
 51
345.0000000000009
  0
ARC
  5
1A7
330
165
100
AcDbEntity
  8
P-SANR-FIXT
100
AcDbCircle
 10
815.666407443185
 20
1791.24587873007
 30
0.0
 40
20.49999999999958
100
AcDbArc
 50
325.0000000000016
 51
326.2236392671655
  0
ARC
  5
1A8
330
165
100
AcDbEntity
  8
P-SANR-FIXT
100
AcDbCircle
 10
815.666407443185
 20
1791.24587873007
 30
0.0
 40
20.49999999999971
100
AcDbArc
 50
320.0000000000013
 51
320.6064284940098
  0
ARC
  5
1A9
330
165
100
AcDbEntity
  8
P-SANR-FIXT
100
AcDbCircle
 10
815.666407443185
 20
1791.24587873007
 30
0.0
 40
20.49999999999958
100
AcDbArc
 50
309.3935715059912
 51
310.0000000000018
  0
ARC
  5
1AA
330
165
100
AcDbEntity
  8
P-SANR-FIXT
100
AcDbCircle
 10
815.666407443185
 20
1791.24587873007
 30
0.0
 40
20.49999999999977
100
AcDbArc
 50
303.7763607328346
 51
305.0000000000021
  0
ARC
  5
1AB
330
165
100
AcDbEntity
  8
P-SANR-FIXT
100
AcDbCircle
 10
815.666407443185
 20
1791.24587873007
 30
0.0
 40
20.49999999999976
100
AcDbArc
 50
285.0000000000019
 51
300.0000000000023
  0
ARC
  5
1AC
330
165
100
AcDbEntity
  8
P-SANR-FIXT
100
AcDbCircle
 10
815.666407443185
 20
1791.24587873007
 30
0.0
 40
20.49999999999975
100
AcDbArc
 50
280.0000000000019
 51
281.2587722184122
  0
ARC
  5
1AD
330
165
100
AcDbEntity
  8
P-SANR-FIXT
100
AcDbCircle
 10
815.666407443185
 20
1791.24587873007
 30
0.0
 40
20.49999999999963
100
AcDbArc
 50
275.000000000002
 51
275.6278813628057
  0
ARC
  5
1AE
330
165
100
AcDbEntity
  8
P-SANR-FIXT
100
AcDbCircle
 10
815.666407443185
 20
1791.24587873007
 30
0.0
 40
20.49999999999971
100
AcDbArc
 50
264.3721186371949
 51
265.000000000002
  0
ARC
  5
1AF
330
165
100
AcDbEntity
  8
P-SANR-FIXT
100
AcDbCircle
 10
815.666407443185
 20
1791.24587873007
 30
0.0
 40
20.49999999999974
100
AcDbArc
 50
258.7412277815883
 51
260.0000000000021
  0
ARC
  5
1B0
330
165
100
AcDbEntity
  8
P-SANR-FIXT
100
AcDbCircle
 10
815.666407443185
 20
1791.24587873007
 30
0.0
 40
20.4999999999996
100
AcDbArc
 50
240.000000000002
 51
255.0000000000022
  0
ARC
  5
1B1
330
165
100
AcDbEntity
  8
P-SANR-FIXT
100
AcDbCircle
 10
815.666407443185
 20
1791.24587873007
 30
0.0
 40
20.49999999999974
100
AcDbArc
 50
235.0000000000022
 51
236.2236392671651
  0
ARC
  5
1B2
330
165
100
AcDbEntity
  8
P-SANR-FIXT
100
AcDbCircle
 10
815.666407443185
 20
1791.24587873007
 30
0.0
 40
20.49999999999965
100
AcDbArc
 50
230.0000000000016
 51
230.6064284940099
  0
ARC
  5
1B3
330
165
100
AcDbEntity
  8
P-SANR-FIXT
100
AcDbCircle
 10
815.666407443185
 20
1791.24587873007
 30
0.0
 40
20.49999999999974
100
AcDbArc
 50
219.3935715059903
 51
220.0000000000015
  0
ARC
  5
1B4
330
165
100
AcDbEntity
  8
P-SANR-FIXT
100
AcDbCircle
 10
815.666407443185
 20
1791.24587873007
 30
0.0
 40
20.4999999999998
100
AcDbArc
 50
213.7763607328344
 51
215.0000000000016
  0
ARC
  5
1B5
330
165
100
AcDbEntity
  8
P-SANR-FIXT
100
AcDbCircle
 10
815.666407443185
 20
1791.24587873007
 30
0.0
 40
20.4999999999998
100
AcDbArc
 50
195.0000000000009
 51
210.0000000000012
  0
ARC
  5
1B6
330
165
100
AcDbEntity
  8
P-SANR-FIXT
100
AcDbCircle
 10
815.666407443185
 20
1791.24587873007
 30
0.0
 40
20.49999999999973
100
AcDbArc
 50
190.0000000000011
 51
191.2587722184112
  0
ARC
  5
1B7
330
165
100
AcDbEntity
  8
P-SANR-FIXT
100
AcDbCircle
 10
815.666407443185
 20
1791.24587873007
 30
0.0
 40
20.49999999999964
100
AcDbArc
 50
185.0000000000007
 51
185.6278813628056
  0
ARC
  5
1B8
330
165
100
AcDbEntity
  8
P-SANR-FIXT
100
AcDbCircle
 10
815.666407443185
 20
1791.24587873007
 30
0.0
 40
23.00000000000064
100
AcDbArc
 50
125.9293853773289
 51
174.0706146226668
  0
ARC
  5
1B9
330
165
100
AcDbEntity
  8
P-SANR-FIXT
100
AcDbCircle
 10
815.666407443185
 20
1791.24587873007
 30
0.0
 40
23.00000000000115
100
AcDbArc
 50
65.92938537733191
 51
114.0706146226693
  0
ARC
  5
1BA
330
165
100
AcDbEntity
  8
P-SANR-FIXT
100
AcDbCircle
 10
815.666407443185
 20
1791.24587873007
 30
0.0
 40
23.00000000000062
100
AcDbArc
 50
5.929385377332534
 51
54.07061462267171
  0
ARC
  5
1BB
330
165
100
AcDbEntity
  8
P-SANR-FIXT
100
AcDbCircle
 10
815.666407443185
 20
1791.24587873007
 30
0.0
 40
22.99999999999965
100
AcDbArc
 50
305.9293853773302
 51
354.0706146226719
  0
ARC
  5
1BC
330
165
100
AcDbEntity
  8
P-SANR-FIXT
100
AcDbCircle
 10
815.666407443185
 20
1791.24587873007
 30
0.0
 40
22.99999999999893
100
AcDbArc
 50
245.9293853773273
 51
294.070614622669
  0
ARC
  5
1BD
330
165
100
AcDbEntity
  8
P-SANR-FIXT
100
AcDbCircle
 10
815.666407443185
 20
1791.24587873007
 30
0.0
 40
22.99999999999947
100
AcDbArc
 50
185.9293853773263
 51
234.0706146226666
  0
ARC
  5
1BE
330
165
100
AcDbEntity
  8
P-SANR-FIXT
100
AcDbCircle
 10
815.666407443185
 20
1791.24587873007
 30
0.0
 40
19.92002104838451
100
AcDbArc
 50
0.0000000000001654
 51
180.0000000000001
  0
ARC
  5
1BF
330
165
100
AcDbEntity
  8
P-SANR-FIXT
100
AcDbCircle
 10
815.666407443185
 20
1791.24587873007
 30
0.0
 40
19.92002104838429
100
AcDbArc
 50
180.0000000000003
 51
0.0000000000003562
  0
ARC
  5
1C0
330
165
100
AcDbEntity
  8
P-SANR-FIXT
100
AcDbCircle
 10
815.666407443185
 20
1791.24587873007
 30
0.0
 40
20.49999999999898
100
AcDbArc
 50
0.0
 51
180.0
  0
ARC
  5
1C1
330
165
100
AcDbEntity
  8
P-SANR-FIXT
100
AcDbCircle
 10
815.666407443185
 20
1791.24587873007
 30
0.0
 40
20.49999999999895
100
AcDbArc
 50
180.0000000000001
 51
0.0000000000001527
  0
LINE
  5
1C2
330
165
100
AcDbEntity
  8
P-SANR-FIXT
100
AcDbLine
 10
757.9667006544093
 20
1764.245878730019
 30
0.0
 11
773.3575695063022
 21
1764.245878730019
 31
0.0
  0
LINE
  5
1C3
330
165
100
AcDbEntity
  8
P-SANR-FIXT
100
AcDbLine
 10
773.3575695063836
 20
1818.245878729968
 30
0.0
 11
757.9667006543271
 21
1818.245878729968
 31
0.0
  0
LINE
  5
1C4
330
165
100
AcDbEntity
  8
P-SANR-FIXT
100
AcDbLine
 10
756.6620990886249
 20
1818.24601991401
 30
0.0
 11
754.6664074431171
 21
1814.79943464387
 31
0.0
  0
LINE
  5
1C5
330
165
100
AcDbEntity
  8
P-SANR-FIXT
100
AcDbLine
 10
754.6664074431173
 20
1767.692322816271
 30
0.0
 11
756.6620990887138
 21
1764.245737545978
 31
0.0
  0
LINE
  5
1C6
330
165
100
AcDbEntity
  8
P-SANR-FIXT
100
AcDbLine
 10
754.6664074431157
 20
1791.24587873007
 30
0.0
 11
754.6664074431156
 21
1814.799434643869
 31
0.0
  0
LINE
  5
1C7
330
165
100
AcDbEntity
  8
P-SANR-FIXT
100
AcDbLine
 10
754.6664074431158
 20
1767.69232281627
 30
0.0
 11
754.6664074431157
 21
1791.245878730069
 31
0.0
  0
LINE
  5
1C8
330
165
100
AcDbEntity
  8
P-SANR-FIXT
100
AcDbLine
 10
774.666407443127
 20
1818.197075110752
 30
0.0
 11
774.666407443127
 21
1818.245878729982
 31
0.0
  0
LINE
  5
1C9
330
165
100
AcDbEntity
  8
P-SANR-FIXT
100
AcDbLine
 10
774.666407443127
 20
1818.245878729982
 30
0.0
 11
774.6664074431271
 21
1804.745878730026
 31
0.0
  0
LINE
  5
1CA
330
165
100
AcDbEntity
  8
P-SANR-FIXT
100
AcDbLine
 10
774.6664074431271
 20
1804.745878730026
 30
0.0
 11
774.6664074431271
 21
1791.24587873007
 31
0.0
  0
LINE
  5
1CB
330
165
100
AcDbEntity
  8
P-SANR-FIXT
100
AcDbLine
 10
774.6664074431271
 20
1791.245878730069
 30
0.0
 11
774.6664074431271
 21
1777.745878730112
 31
0.0
  0
LINE
  5
1CC
330
165
100
AcDbEntity
  8
P-SANR-FIXT
100
AcDbLine
 10
774.6664074431271
 20
1777.745878730112
 30
0.0
 11
774.6664074431272
 21
1764.245878730157
 31
0.0
  0
LINE
  5
1CD
330
165
100
AcDbEntity
  8
P-SANR-FIXT
100
AcDbLine
 10
774.6664074431272
 20
1764.245878730157
 30
0.0
 11
774.6664074431272
 21
1764.294682349374
 31
0.0
  0
SPLINE
  5
1CE
330
165
100
AcDbEntity
  8
P-SANR-FIXT
100
AcDbSpline
210
0.0
220
0.0
230
1.0
 70
     8
 71
     3
 72
    10
 73
     6
 74
     0
 42
0.000000001
 43
0.0000000001
 40
0.0
 40
0.0
 40
0.0
 40
0.0
 40
0.4
 40
0.7
 40
1.0
 40
1.0
 40
1.0
 40
1.0
 10
773.3575695063006
 20
1764.245878730018
 30
0.0
 10
773.1245434267597
 20
1764.245878730018
 30
0.0
 10
772.8714149755456
 20
1764.6271695484
 30
0.0
 10
772.9342383342932
 20
1766.092066594434
 30
0.0
 10
773.1830664932049
 20
1767.326590110541
 30
0.0
 10
773.3575695063063
 20
1767.995878730018
 30
0.0
  0
SPLINE
  5
1CF
330
165
100
AcDbEntity
  8
P-SANR-FIXT
100
AcDbSpline
210
0.0
220
0.0
230
1.0
 70
     8
 71
     3
 72
    10
 73
     6
 74
     0
 42
0.000000001
 43
0.0000000001
 40
0.0
 40
0.0
 40
0.0
 40
0.0
 40
0.4
 40
0.7
 40
1.0
 40
1.0
 40
1.0
 40
1.0
 10
757.9667006544021
 20
1767.995878730018
 30
0.0
 10
758.1986462892675
 20
1767.103416021462
 30
0.0
 10
758.4511316059936
 20
1765.703662662626
 30
0.0
 10
758.3890039306602
 20
1764.487774632413
 30
0.0
 10
758.1409252861468
 20
1764.245878730018
 30
0.0
 10
757.9667006544077
 20
1764.245878730018
 30
0.0
  0
SPLINE
  5
1D0
330
165
100
AcDbEntity
  8
P-SANR-FIXT
100
AcDbSpline
210
0.0
220
0.0
230
1.0
 70
    24
 71
     3
 72
     8
 73
     4
 74
     0
 42
0.000000001
 43
0.0000000001
 40
0.0
 40
0.0
 40
0.0
 40
0.0
 40
0.5
 40
0.5
 40
0.5
 40
0.5
 10
757.9667006544077
 20
1764.245878730018
 30
0.0
 10
757.0969381141543
 20
1764.245878730018
 30
0.0
 10
756.6620568440277
 20
1764.245878730018
 30
0.0
 10
756.6620568440277
 20
1764.245878730019
 30
0.0
  0
SPLINE
  5
1D1
330
165
100
AcDbEntity
  8
P-SANR-FIXT
100
AcDbSpline
210
0.0
220
0.0
230
1.0
 70
    24
 71
     3
 72
     8
 73
     4
 74
     0
 42
0.000000001
 43
0.0000000001
 40
0.8147929618098554
 40
0.8147929618098554
 40
0.8147929618098554
 40
0.8147929618098554
 40
0.8795859236192303
 40
0.8795859236192303
 40
0.8795859236192303
 40
0.8795859236192303
 10
774.6129177966614
 20
1764.245878730019
 30
0.0
 10
774.6241630063934
 20
1764.245878730019
 30
0.0
 10
774.6313783818017
 20
1764.245878730019
 30
0.0
 10
774.6369547081663
 20
1764.245878730019
 30
0.0
  0
SPLINE
  5
1D2
330
165
100
AcDbEntity
  8
P-SANR-FIXT
100
AcDbSpline
210
0.0
220
0.0
230
1.0
 70
    24
 71
     3
 72
     9
 73
     5
 74
     0
 42
0.000000001
 43
0.0000000001
 40
0.0
 40
0.0
 40
0.0
 40
0.0
 40
0.5
 40
1.0
 40
1.0
 40
1.0
 40
1.0
 10
774.6664074431272
 20
1764.245878730019
 30
0.0
 10
774.6569154588727
 20
1764.245878730018
 30
0.0
 10
774.4292838184803
 20
1764.245878730018
 30
0.0
 10
773.7843568343215
 20
1764.245878730018
 30
0.0
 10
773.3575695063006
 20
1764.245878730018
 30
0.0
  0
SPLINE
  5
1D3
330
165
100
AcDbEntity
  8
P-SANR-FIXT
100
AcDbSpline
210
0.0
220
0.0
230
1.0
 70
    24
 71
     3
 72
     9
 73
     5
 74
     0
 42
0.000000001
 43
0.0000000001
 40
0.4971548179432425
 40
0.4971548179432425
 40
0.4971548179432425
 40
0.4971548179432425
 40
0.5
 40
1.0
 40
1.0
 40
1.0
 40
1.0
 10
756.6620990886235
 20
1818.245878729968
 30
0.0
 10
756.6620709255004
 20
1818.245878729968
 30
0.0
 10
756.6595822111649
 20
1818.245878729968
 30
0.0
 10
757.0969381138624
 20
1818.245878729968
 30
0.0
 10
757.9667006543257
 20
1818.245878729967
 30
0.0
  0
SPLINE
  5
1D4
330
165
100
AcDbEntity
  8
P-SANR-FIXT
100
AcDbSpline
210
0.0
220
0.0
230
1.0
 70
    24
 71
     3
 72
     9
 73
     5
 74
     0
 42
0.000000001
 43
0.0000000001
 40
0.0
 40
0.0
 40
0.0
 40
0.0
 40
0.5
 40
1.0
 40
1.0
 40
1.0
 40
1.0
 10
773.3575695063822
 20
1818.245878729967
 30
0.0
 10
773.7843568344199
 20
1818.245878729967
 30
0.0
 10
774.4292838185818
 20
1818.245878729967
 30
0.0
 10
774.6569154589165
 20
1818.245878729968
 30
0.0
 10
774.666407443127
 20
1818.245878729968
 30
0.0
  0
SPLINE
  5
1D5
330
165
100
AcDbEntity
  8
P-SANR-FIXT
100
AcDbSpline
210
0.0
220
0.0
230
1.0
 70
    24
 71
     3
 72
     8
 73
     4
 74
     0
 42
0.000000001
 43
0.0000000001
 40
0.1204140765985718
 40
0.1204140765985718
 40
0.1204140765985718
 40
0.1204140765985718
 40
0.1852070382995262
 40
0.1852070382995262
 40
0.1852070382995262
 40
0.1852070382995262
 10
774.641397848133
 20
1818.245878729968
 30
0.0
 10
774.6336563568571
 20
1818.245878729968
 30
0.0
 10
774.6257858183282
 20
1818.245878729968
 30
0.0
 10
774.616955220748
 20
1818.245878729968
 30
0.0
  0
SPLINE
  5
1D6
330
165
100
AcDbEntity
  8
P-SANR-FIXT
100
AcDbSpline
210
0.0
220
0.0
230
1.0
 70
     8
 71
     3
 72
    10
 73
     6
 74
     0
 42
0.000000001
 43
0.0000000001
 40
0.0
 40
0.0
 40
0.0
 40
0.0
 40
0.4
 40
0.7
 40
1.0
 40
1.0
 40
1.0
 40
1.0
 10
757.9667006543257
 20
1818.245878729967
 30
0.0
 10
758.1990001633124
 20
1818.245878729967
 30
0.0
 10
758.4513075092452
 20
1817.864536338715
 30
0.0
 10
758.3886965179478
 20
1816.399757171274
 30
0.0
 10
758.1406598804792
 20
1815.165225761384
 30
0.0
 10
757.9667006543314
 20
1814.495878729967
 30
0.0
  0
SPLINE
  5
1D7
330
165
100
AcDbEntity
  8
P-SANR-FIXT
100
AcDbSpline
210
0.0
220
0.0
230
1.0
 70
     8
 71
     3
 72
    10
 73
     6
 74
     0
 42
0.000000001
 43
0.0000000001
 40
0.0
 40
0.0
 40
0.0
 40
0.0
 40
0.4
 40
0.7
 40
1.0
 40
1.0
 40
1.0
 40
1.0
 10
773.3575695063766
 20
1814.495878729967
 30
0.0
 10
773.1248988222432
 20
1815.388263555936
 30
0.0
 10
772.871591869099
 20
1816.788060927868
 30
0.0
 10
772.9339294190618
 20
1818.004025145371
 30
0.0
 10
773.1827999467257
 20
1818.245878729967
 30
0.0
 10
773.3575695063822
 20
1818.245878729967
 30
0.0
  0
SPLINE
  5
1D8
330
165
100
AcDbEntity
  8
P-SANR-FIXT
100
AcDbSpline
210
0.0
220
0.0
230
1.0
 70
     8
 71
     3
 72
     9
 73
     5
 74
     0
 42
0.000000001
 43
0.0000000001
 40
0.0
 40
0.0
 40
0.0
 40
0.0
 40
0.5
 40
1.0
 40
1.0
 40
1.0
 40
1.0
 10
757.9667006543314
 20
1814.495878729967
 30
0.0
 10
757.0969381140794
 20
1811.210834668957
 30
0.0
 10
756.2271755738326
 20
1804.675790607952
 30
0.0
 10
757.0969381140992
 20
1798.210834668974
 30
0.0
 10
757.9667006543608
 20
1794.995878729993
 30
0.0
  0
SPLINE
  5
1D9
330
165
100
AcDbEntity
  8
P-SANR-FIXT
100
AcDbSpline
210
0.0
220
0.0
230
1.0
 70
     8
 71
     3
 72
     9
 73
     5
 74
     0
 42
0.000000001
 43
0.0000000001
 40
0.0
 40
0.0
 40
0.0
 40
0.0
 40
0.5
 40
1.0
 40
1.0
 40
1.0
 40
1.0
 10
773.3575695063473
 20
1794.995878729993
 30
0.0
 10
773.7843568343856
 20
1796.600435819143
 30
0.0
 10
774.4292838185539
 20
1799.829992908301
 30
0.0
 10
774.6569154589056
 20
1803.100435819172
 30
0.0
 10
774.6664074431271
 20
1804.745878730037
 30
0.0
  0
SPLINE
  5
1DA
330
165
100
AcDbEntity
  8
P-SANR-FIXT
100
AcDbSpline
210
0.0
220
0.0
230
1.0
 70
     8
 71
     3
 72
     9
 73
     5
 74
     0
 42
0.000000001
 43
0.0000000001
 40
0.0
 40
0.0
 40
0.0
 40
0.0
 40
0.5
 40
1.0
 40
1.0
 40
1.0
 40
1.0
 10
774.6664074431271
 20
1804.745878730037
 30
0.0
 10
774.6569154589059
 20
1806.391321640882
 30
0.0
 10
774.4292838185596
 20
1809.661764551715
 30
0.0
 10
773.7843568344056
 20
1812.891321640835
 30
0.0
 10
773.3575695063766
 20
1814.495878729967
 30
0.0
  0
SPLINE
  5
1DB
330
165
100
AcDbEntity
  8
P-SANR-FIXT
100
AcDbSpline
210
0.0
220
0.0
230
1.0
 70
     8
 71
     3
 72
     9
 73
     5
 74
     0
 42
0.000000001
 43
0.0000000001
 40
0.0
 40
0.0
 40
0.0
 40
0.0
 40
0.5
 40
1.0
 40
1.0
 40
1.0
 40
1.0
 10
757.9667006543608
 20
1794.995878729992
 30
0.0
 10
758.1124922246329
 20
1794.436714135968
 30
0.0
 10
758.331961640029
 20
1793.226665721937
 30
0.0
 10
758.4072036051288
 20
1791.909208011276
 30
0.0
 10
758.4087677251046
 20
1791.24587873007
 30
0.0
  0
SPLINE
  5
1DC
330
165
100
AcDbEntity
  8
P-SANR-FIXT
100
AcDbSpline
210
0.0
220
0.0
230
1.0
 70
     8
 71
     3
 72
     9
 73
     5
 74
     0
 42
0.000000001
 43
0.0000000001
 40
0.0
 40
0.0
 40
0.0
 40
0.0
 40
0.5
 40
1.0
 40
1.0
 40
1.0
 40
1.0
 10
758.4087677251046
 20
1791.24587873007
 30
0.0
 10
758.4072036051365
 20
1790.582549448836
 30
0.0
 10
758.3319616400463
 20
1789.265091738119
 30
0.0
 10
758.1124922246482
 20
1788.055043324038
 30
0.0
 10
757.9667006543722
 20
1787.495878729992
 30
0.0
  0
SPLINE
  5
1DD
330
165
100
AcDbEntity
  8
P-SANR-FIXT
100
AcDbSpline
210
0.0
220
0.0
230
1.0
 70
     8
 71
     3
 72
     9
 73
     5
 74
     0
 42
0.000000001
 43
0.0000000001
 40
0.0
 40
0.0
 40
0.0
 40
0.0
 40
0.5
 40
1.0
 40
1.0
 40
1.0
 40
1.0
 10
773.3575695063359
 20
1787.495878729992
 30
0.0
 10
773.2113195350266
 20
1788.054998939348
 30
0.0
 10
772.9911570995953
 20
1789.264991112629
 30
0.0
 10
772.9156696785382
 20
1790.58249819781
 30
0.0
 10
772.9140947216032
 20
1791.24587873007
 30
0.0
  0
SPLINE
  5
1DE
330
165
100
AcDbEntity
  8
P-SANR-FIXT
100
AcDbSpline
210
0.0
220
0.0
230
1.0
 70
     8
 71
     3
 72
     9
 73
     5
 74
     0
 42
0.000000001
 43
0.0000000001
 40
0.0
 40
0.0
 40
0.0
 40
0.0
 40
0.5
 40
1.0
 40
1.0
 40
1.0
 40
1.0
 10
772.9140947216032
 20
1791.24587873007
 30
0.0
 10
772.915669678546
 20
1791.909259262302
 30
0.0
 10
772.9911570996125
 20
1793.226766347427
 30
0.0
 10
773.211319535042
 20
1794.436758520658
 30
0.0
 10
773.3575695063473
 20
1794.995878729992
 30
0.0
  0
SPLINE
  5
1DF
330
165
100
AcDbEntity
  8
P-SANR-FIXT
100
AcDbSpline
210
0.0
220
0.0
230
1.0
 70
     8
 71
     3
 72
     9
 73
     5
 74
     0
 42
0.000000001
 43
0.0000000001
 40
0.0
 40
0.0
 40
0.0
 40
0.0
 40
0.5
 40
1.0
 40
1.0
 40
1.0
 40
1.0
 10
757.9667006543722
 20
1787.495878729992
 30
0.0
 10
757.0969381141225
 20
1784.210834668982
 30
0.0
 10
756.227175573878
 20
1777.675790607977
 30
0.0
 10
757.0969381141424
 20
1771.210834669
 30
0.0
 10
757.9667006544021
 20
1767.995878730018
 30
0.0
  0
SPLINE
  5
1E0
330
165
100
AcDbEntity
  8
P-SANR-FIXT
100
AcDbSpline
210
0.0
220
0.0
230
1.0
 70
     8
 71
     3
 72
     9
 73
     5
 74
     0
 42
0.000000001
 43
0.0000000001
 40
0.0
 40
0.0
 40
0.0
 40
0.0
 40
0.5
 40
1.0
 40
1.0
 40
1.0
 40
1.0
 10
773.3575695063063
 20
1767.995878730018
 30
0.0
 10
773.7843568343362
 20
1769.600435819169
 30
0.0
 10
774.4292838185031
 20
1772.829992908328
 30
0.0
 10
774.6569154588835
 20
1776.100435819199
 30
0.0
 10
774.6664074431271
 20
1777.745878730063
 30
0.0
  0
SPLINE
  5
1E1
330
165
100
AcDbEntity
  8
P-SANR-FIXT
100
AcDbSpline
210
0.0
220
0.0
230
1.0
 70
     8
 71
     3
 72
     9
 73
     5
 74
     0
 42
0.000000001
 43
0.0000000001
 40
0.0
 40
0.0
 40
0.0
 40
0.0
 40
0.5
 40
1.0
 40
1.0
 40
1.0
 40
1.0
 10
774.6664074431271
 20
1777.745878730063
 30
0.0
 10
774.6569154588838
 20
1779.391321640907
 30
0.0
 10
774.4292838185088
 20
1782.661764551739
 30
0.0
 10
773.7843568343564
 20
1785.89132164086
 30
0.0
 10
773.3575695063359
 20
1787.495878729992
 30
0.0
  0
LINE
  5
1E2
330
165
100
AcDbEntity
  8
P-SANR-FIXT
100
AcDbLine
 10
865.9752453800633
 20
1764.24587873002
 30
0.0
 11
881.366114231956
 21
1764.24587873002
 31
0.0
  0
LINE
  5
1E3
330
165
100
AcDbEntity
  8
P-SANR-FIXT
100
AcDbLine
 10
881.3661142320373
 20
1818.245878729969
 30
0.0
 11
865.9752453799809
 21
1818.245878729969
 31
0.0
  0
LINE
  5
1E4
330
165
100
AcDbEntity
  8
P-SANR-FIXT
100
AcDbLine
 10
884.6664074432476
 20
1814.79943464387
 30
0.0
 11
882.6707157977397
 21
1818.246019914011
 31
0.0
  0
LINE
  5
1E5
330
165
100
AcDbEntity
  8
P-SANR-FIXT
100
AcDbLine
 10
882.6707157976514
 20
1764.245737545978
 30
0.0
 11
884.666407443248
 21
1767.692322816272
 31
0.0
  0
LINE
  5
1E6
330
165
100
AcDbEntity
  8
P-SANR-FIXT
100
AcDbLine
 10
884.6664074432458
 20
1814.799434643869
 30
0.0
 11
884.666407443246
 21
1791.24587873007
 31
0.0
  0
LINE
  5
1E7
330
165
100
AcDbEntity
  8
P-SANR-FIXT
100
AcDbLine
 10
884.666407443246
 20
1791.24587873007
 30
0.0
 11
884.6664074432462
 21
1767.692322816271
 31
0.0
  0
LINE
  5
1E8
330
165
100
AcDbEntity
  8
P-SANR-FIXT
100
AcDbLine
 10
864.6664074432345
 20
1791.24587873007
 30
0.0
 11
864.6664074432345
 21
1804.745878730026
 31
0.0
  0
LINE
  5
1E9
330
165
100
AcDbEntity
  8
P-SANR-FIXT
100
AcDbLine
 10
864.6664074432345
 20
1804.745878730026
 30
0.0
 11
864.6664074432344
 21
1818.245878729983
 31
0.0
  0
LINE
  5
1EA
330
165
100
AcDbEntity
  8
P-SANR-FIXT
100
AcDbLine
 10
864.6664074432344
 20
1818.245878729983
 30
0.0
 11
864.6664074432344
 21
1818.197075110757
 31
0.0
  0
LINE
  5
1EB
330
165
100
AcDbEntity
  8
P-SANR-FIXT
100
AcDbLine
 10
864.6664074432347
 20
1764.29468234933
 30
0.0
 11
864.6664074432347
 21
1764.245878730157
 31
0.0
  0
LINE
  5
1EC
330
165
100
AcDbEntity
  8
P-SANR-FIXT
100
AcDbLine
 10
864.6664074432347
 20
1764.245878730157
 30
0.0
 11
864.6664074432345
 21
1777.745878730113
 31
0.0
  0
LINE
  5
1ED
330
165
100
AcDbEntity
  8
P-SANR-FIXT
100
AcDbLine
 10
864.6664074432345
 20
1777.745878730113
 30
0.0
 11
864.6664074432345
 21
1791.24587873007
 31
0.0
  0
SPLINE
  5
1EE
330
165
100
AcDbEntity
  8
P-SANR-FIXT
100
AcDbSpline
210
0.0
220
0.0
230
1.0
 70
     8
 71
     3
 72
    10
 73
     6
 74
     0
 42
0.000000001
 43
0.0000000001
 40
0.0
 40
0.0
 40
0.0
 40
0.0
 40
0.4
 40
0.7
 40
1.0
 40
1.0
 40
1.0
 40
1.0
 10
865.9752453800557
 20
1767.995878730019
 30
0.0
 10
866.208271459598
 20
1767.101652716579
 30
0.0
 10
866.4613999108148
 20
1765.702456283595
 30
0.0
 10
866.3985765520711
 20
1764.486878416804
 30
0.0
 10
866.1497483931617
 20
1764.245878730019
 30
0.0
 10
865.9752453800614
 20
1764.245878730019
 30
0.0
  0
SPLINE
  5
1EF
330
165
100
AcDbEntity
  8
P-SANR-FIXT
100
AcDbSpline
210
0.0
220
0.0
230
1.0
 70
     8
 71
     3
 72
    10
 73
     6
 74
     0
 42
0.000000001
 43
0.0000000001
 40
0.0
 40
0.0
 40
0.0
 40
0.0
 40
0.4
 40
0.7
 40
1.0
 40
1.0
 40
1.0
 40
1.0
 10
881.3661142319542
 20
1764.245878730019
 30
0.0
 10
881.13416859709
 20
1764.245878730019
 30
0.0
 10
880.8816832803666
 20
1764.62642713923
 30
0.0
 10
880.9438109557042
 20
1766.090240585677
 30
0.0
 10
881.1918896002197
 20
1767.325152004952
 30
0.0
 10
881.3661142319599
 20
1767.995878730019
 30
0.0
  0
SPLINE
  5
1F0
330
165
100
AcDbEntity
  8
P-SANR-FIXT
100
AcDbSpline
210
0.0
220
0.0
230
1.0
 70
    24
 71
     3
 72
     9
 73
     5
 74
     0
 42
0.000000001
 43
0.0000000001
 40
0.0
 40
0.0
 40
0.0
 40
0.0
 40
0.5
 40
1.0
 40
1.0
 40
1.0
 40
1.0
 10
865.9752453800614
 20
1764.245878730019
 30
0.0
 10
865.5484580520404
 20
1764.245878730019
 30
0.0
 10
864.9035310678817
 20
1764.245878730019
 30
0.0
 10
864.6758994274891
 20
1764.245878730019
 30
0.0
 10
864.6664074432347
 20
1764.245878730019
 30
0.0
  0
SPLINE
  5
1F1
330
165
100
AcDbEntity
  8
P-SANR-FIXT
100
AcDbSpline
210
0.0
220
0.0
230
1.0
 70
    24
 71
     3
 72
     8
 73
     4
 74
     0
 42
0.000000001
 43
0.0000000001
 40
0.1204140764689614
 40
0.1204140764689614
 40
0.1204140764689614
 40
0.1204140764689614
 40
0.1852070382342404
 40
0.1852070382342404
 40
0.1852070382342404
 40
0.1852070382342404
 10
864.6914170382116
 20
1764.245878730019
 30
0.0
 10
864.6991585294927
 20
1764.245878730019
 30
0.0
 10
864.7070290680273
 20
1764.245878730019
 30
0.0
 10
864.7158596656158
 20
1764.245878730019
 30
0.0
  0
SPLINE
  5
1F2
330
165
100
AcDbEntity
  8
P-SANR-FIXT
100
AcDbSpline
210
0.0
220
0.0
230
1.0
 70
    24
 71
     3
 72
     8
 73
     4
 74
     0
 42
0.000000001
 43
0.0000000001
 40
0.5
 40
0.5
 40
0.5
 40
0.5
 40
1.0
 40
1.0
 40
1.0
 40
1.0
 10
882.6707580423343
 20
1764.245878730019
 30
0.0
 10
882.6707580423343
 20
1764.245878730019
 30
0.0
 10
882.2358767722077
 20
1764.245878730019
 30
0.0
 10
881.3661142319542
 20
1764.245878730019
 30
0.0
  0
SPLINE
  5
1F3
330
165
100
AcDbEntity
  8
P-SANR-FIXT
100
AcDbSpline
210
0.0
220
0.0
230
1.0
 70
    24
 71
     3
 72
     8
 73
     4
 74
     0
 42
0.000000001
 43
0.0000000001
 40
0.8147929616960231
 40
0.8147929616960231
 40
0.8147929616960231
 40
0.8147929616960231
 40
0.8795859233920463
 40
0.8795859233920463
 40
0.8795859233920463
 40
0.8795859233920463
 10
864.7198970897168
 20
1818.245878729968
 30
0.0
 10
864.7086518800024
 20
1818.245878729968
 30
0.0
 10
864.7014365046016
 20
1818.245878729968
 30
0.0
 10
864.6958601782442
 20
1818.245878729968
 30
0.0
  0
SPLINE
  5
1F4
330
165
100
AcDbEntity
  8
P-SANR-FIXT
100
AcDbSpline
210
0.0
220
0.0
230
1.0
 70
    24
 71
     3
 72
     9
 73
     5
 74
     0
 42
0.000000001
 43
0.0000000001
 40
0.0
 40
0.0
 40
0.0
 40
0.0
 40
0.5
 40
1.0
 40
1.0
 40
1.0
 40
1.0
 10
864.6664074432344
 20
1818.245878729968
 30
0.0
 10
864.6758994274449
 20
1818.245878729968
 30
0.0
 10
864.9035310677797
 20
1818.245878729968
 30
0.0
 10
865.5484580519415
 20
1818.245878729968
 30
0.0
 10
865.9752453799793
 20
1818.245878729968
 30
0.0
  0
SPLINE
  5
1F5
330
165
100
AcDbEntity
  8
P-SANR-FIXT
100
AcDbSpline
210
0.0
220
0.0
230
1.0
 70
    24
 71
     3
 72
     9
 73
     5
 74
     0
 42
0.000000001
 43
0.0000000001
 40
0.0
 40
0.0
 40
0.0
 40
0.0
 40
0.5
 40
0.5028451820567571
 40
0.5028451820567571
 40
0.5028451820567571
 40
0.5028451820567571
 10
881.3661142320356
 20
1818.245878729968
 30
0.0
 10
882.2358767722937
 20
1818.245878729968
 30
0.0
 10
882.6732326751956
 20
1818.245878729968
 30
0.0
 10
882.6707439608611
 20
1818.245878729968
 30
0.0
 10
882.6707157977379
 20
1818.245878729968
 30
0.0
  0
SPLINE
  5
1F6
330
165
100
AcDbEntity
  8
P-SANR-FIXT
100
AcDbSpline
210
0.0
220
0.0
230
1.0
 70
     8
 71
     3
 72
    10
 73
     6
 74
     0
 42
0.000000001
 43
0.0000000001
 40
0.0
 40
0.0
 40
0.0
 40
0.0
 40
0.4
 40
0.7
 40
1.0
 40
1.0
 40
1.0
 40
1.0
 10
865.9752453799793
 20
1818.245878729968
 30
0.0
 10
866.2082714595211
 20
1818.245878729968
 30
0.0
 10
866.4613999107375
 20
1817.864587911586
 30
0.0
 10
866.3985765519941
 20
1816.399690865553
 30
0.0
 10
866.1497483930849
 20
1815.165167349445
 30
0.0
 10
865.9752453799848
 20
1814.495878729968
 30
0.0
  0
SPLINE
  5
1F7
330
165
100
AcDbEntity
  8
P-SANR-FIXT
100
AcDbSpline
210
0.0
220
0.0
230
1.0
 70
     8
 71
     3
 72
    10
 73
     6
 74
     0
 42
0.000000001
 43
0.0000000001
 40
0.0
 40
0.0
 40
0.0
 40
0.0
 40
0.4
 40
0.7
 40
1.0
 40
1.0
 40
1.0
 40
1.0
 10
881.3661142320301
 20
1814.495878729968
 30
0.0
 10
881.1341685971662
 20
1815.388341438524
 30
0.0
 10
880.8816832804431
 20
1816.788094797361
 30
0.0
 10
880.9438109557806
 20
1818.003982827573
 30
0.0
 10
881.1918896002957
 20
1818.245878729968
 30
0.0
 10
881.3661142320356
 20
1818.245878729968
 30
0.0
  0
SPLINE
  5
1F8
330
165
100
AcDbEntity
  8
P-SANR-FIXT
100
AcDbSpline
210
0.0
220
0.0
230
1.0
 70
     8
 71
     3
 72
     9
 73
     5
 74
     0
 42
0.000000001
 43
0.0000000001
 40
0.0
 40
0.0
 40
0.0
 40
0.0
 40
0.5
 40
1.0
 40
1.0
 40
1.0
 40
1.0
 10
865.9752453799848
 20
1814.495878729968
 30
0.0
 10
865.5484580519559
 20
1812.891321640836
 30
0.0
 10
864.9035310678019
 20
1809.661764551715
 30
0.0
 10
864.6758994274557
 20
1806.391321640882
 30
0.0
 10
864.6664074432345
 20
1804.745878730037
 30
0.0
  0
SPLINE
  5
1F9
330
165
100
AcDbEntity
  8
P-SANR-FIXT
100
AcDbSpline
210
0.0
220
0.0
230
1.0
 70
     8
 71
     3
 72
     9
 73
     5
 74
     0
 42
0.000000001
 43
0.0000000001
 40
0.0
 40
0.0
 40
0.0
 40
0.0
 40
0.5
 40
1.0
 40
1.0
 40
1.0
 40
1.0
 10
864.6664074432345
 20
1804.745878730037
 30
0.0
 10
864.6758994274561
 20
1803.100435819173
 30
0.0
 10
864.9035310678078
 20
1799.829992908301
 30
0.0
 10
865.5484580519761
 20
1796.600435819144
 30
0.0
 10
865.9752453800145
 20
1794.995878729993
 30
0.0
  0
SPLINE
  5
1FA
330
165
100
AcDbEntity
  8
P-SANR-FIXT
100
AcDbSpline
210
0.0
220
0.0
230
1.0
 70
     8
 71
     3
 72
     9
 73
     5
 74
     0
 42
0.000000001
 43
0.0000000001
 40
0.0
 40
0.0
 40
0.0
 40
0.0
 40
0.5
 40
1.0
 40
1.0
 40
1.0
 40
1.0
 10
881.3661142320009
 20
1794.995878729993
 30
0.0
 10
882.2358767722626
 20
1798.210834668975
 30
0.0
 10
883.1056393125292
 20
1804.675790607952
 30
0.0
 10
882.2358767722819
 20
1811.210834668958
 30
0.0
 10
881.3661142320301
 20
1814.495878729968
 30
0.0
  0
SPLINE
  5
1FB
330
165
100
AcDbEntity
  8
P-SANR-FIXT
100
AcDbSpline
210
0.0
220
0.0
230
1.0
 70
     8
 71
     3
 72
     9
 73
     5
 74
     0
 42
0.000000001
 43
0.0000000001
 40
0.0
 40
0.0
 40
0.0
 40
0.0
 40
0.5
 40
1.0
 40
1.0
 40
1.0
 40
1.0
 10
865.9752453800145
 20
1794.995878729993
 30
0.0
 10
866.1214953513198
 20
1794.436758520659
 30
0.0
 10
866.3416577867492
 20
1793.226766347428
 30
0.0
 10
866.4171452078157
 20
1791.909259262303
 30
0.0
 10
866.4187201647585
 20
1791.24587873007
 30
0.0
  0
SPLINE
  5
1FC
330
165
100
AcDbEntity
  8
P-SANR-FIXT
100
AcDbSpline
210
0.0
220
0.0
230
1.0
 70
     8
 71
     3
 72
     9
 73
     5
 74
     0
 42
0.000000001
 43
0.0000000001
 40
0.0
 40
0.0
 40
0.0
 40
0.0
 40
0.5
 40
1.0
 40
1.0
 40
1.0
 40
1.0
 10
866.4187201647585
 20
1791.24587873007
 30
0.0
 10
866.4171452078234
 20
1790.58249819781
 30
0.0
 10
866.3416577867664
 20
1789.26499111263
 30
0.0
 10
866.1214953513351
 20
1788.054998939349
 30
0.0
 10
865.9752453800258
 20
1787.495878729993
 30
0.0
  0
SPLINE
  5
1FD
330
165
100
AcDbEntity
  8
P-SANR-FIXT
100
AcDbSpline
210
0.0
220
0.0
230
1.0
 70
     8
 71
     3
 72
     9
 73
     5
 74
     0
 42
0.000000001
 43
0.0000000001
 40
0.0
 40
0.0
 40
0.0
 40
0.0
 40
0.5
 40
1.0
 40
1.0
 40
1.0
 40
1.0
 10
881.3661142319896
 20
1787.495878729993
 30
0.0
 10
881.2203226617134
 20
1788.055043324039
 30
0.0
 10
881.0008532463154
 20
1789.26509173812
 30
0.0
 10
880.9256112812253
 20
1790.582549448836
 30
0.0
 10
880.9240471612572
 20
1791.24587873007
 30
0.0
  0
SPLINE
  5
1FE
330
165
100
AcDbEntity
  8
P-SANR-FIXT
100
AcDbSpline
210
0.0
220
0.0
230
1.0
 70
     8
 71
     3
 72
     9
 73
     5
 74
     0
 42
0.000000001
 43
0.0000000001
 40
0.0
 40
0.0
 40
0.0
 40
0.0
 40
0.5
 40
1.0
 40
1.0
 40
1.0
 40
1.0
 10
880.9240471612572
 20
1791.24587873007
 30
0.0
 10
880.9256112812329
 20
1791.909208011277
 30
0.0
 10
881.0008532463328
 20
1793.226665721937
 30
0.0
 10
881.2203226617286
 20
1794.436714135968
 30
0.0
 10
881.3661142320009
 20
1794.995878729993
 30
0.0
  0
SPLINE
  5
1FF
330
165
100
AcDbEntity
  8
P-SANR-FIXT
100
AcDbSpline
210
0.0
220
0.0
230
1.0
 70
     8
 71
     3
 72
     9
 73
     5
 74
     0
 42
0.000000001
 43
0.0000000001
 40
0.0
 40
0.0
 40
0.0
 40
0.0
 40
0.5
 40
1.0
 40
1.0
 40
1.0
 40
1.0
 10
881.3661142319599
 20
1767.995878730019
 30
0.0
 10
882.2358767722196
 20
1771.280922791027
 30
0.0
 10
883.1056393124839
 20
1777.815966852032
 30
0.0
 10
882.2358767722393
 20
1784.28092279101
 30
0.0
 10
881.3661142319896
 20
1787.495878729993
 30
0.0
  0
SPLINE
  5
200
330
165
100
AcDbEntity
  8
P-SANR-FIXT
100
AcDbSpline
210
0.0
220
0.0
230
1.0
 70
     8
 71
     3
 72
     9
 73
     5
 74
     0
 42
0.000000001
 43
0.0000000001
 40
0.0
 40
0.0
 40
0.0
 40
0.0
 40
0.5
 40
1.0
 40
1.0
 40
1.0
 40
1.0
 10
865.9752453800258
 20
1787.495878729993
 30
0.0
 10
865.5484580520052
 20
1785.89132164086
 30
0.0
 10
864.9035310678529
 20
1782.661764551739
 30
0.0
 10
864.6758994274778
 20
1779.391321640907
 30
0.0
 10
864.6664074432345
 20
1777.745878730063
 30
0.0
  0
SPLINE
  5
201
330
165
100
AcDbEntity
  8
P-SANR-FIXT
100
AcDbSpline
210
0.0
220
0.0
230
1.0
 70
     8
 71
     3
 72
     9
 73
     5
 74
     0
 42
0.000000001
 43
0.0000000001
 40
0.0
 40
0.0
 40
0.0
 40
0.0
 40
0.5
 40
1.0
 40
1.0
 40
1.0
 40
1.0
 10
864.6664074432345
 20
1777.745878730063
 30
0.0
 10
864.6758994274783
 20
1776.1004358192
 30
0.0
 10
864.9035310678589
 20
1772.829992908329
 30
0.0
 10
865.5484580520255
 20
1769.60043581917
 30
0.0
 10
865.9752453800557
 20
1767.995878730019
 30
0.0
  0
LINE
  5
202
330
165
100
AcDbEntity
  8
P-SANR-FIXT
100
AcDbLine
 10
921.0664074432221
 20
1812.195878730028
 30
0.0
 11
897.1664074431837
 21
1812.195878730027
 31
0.0
  0
LINE
  5
203
330
165
100
AcDbEntity
  8
P-SANR-FIXT
100
AcDbLine
 10
897.1664074431842
 20
1770.295878730115
 30
0.0
 11
921.0664074432227
 21
1770.295878730115
 31
0.0
  0
LINE
  5
204
330
165
100
AcDbEntity
  8
P-SANR-FIXT
100
AcDbLine
 10
921.6664074432223
 20
1811.595878730027
 30
0.0
 11
921.1309893015132
 21
1812.131296871737
 31
0.0
  0
LINE
  5
205
330
165
100
AcDbEntity
  8
P-SANR-FIXT
100
AcDbLine
 10
921.1134848123183
 20
1812.148801360931
 30
0.0
 11
921.0664074432221
 21
1812.195878730028
 31
0.0
  0
LINE
  5
206
330
165
100
AcDbEntity
  8
P-SANR-FIXT
100
AcDbLine
 10
921.0664074432227
 20
1770.295878730115
 30
0.0
 11
921.110455865738
 21
1770.339927152631
 31
0.0
  0
LINE
  5
207
330
165
100
AcDbEntity
  8
P-SANR-FIXT
100
AcDbLine
 10
921.1309893015133
 20
1770.360460588406
 30
0.0
 11
921.6664074432227
 21
1770.895878730115
 31
0.0
  0
LINE
  5
208
330
165
100
AcDbEntity
  8
P-SANR-FIXT
100
AcDbLine
 10
897.1664074431821
 20
1810.74587873005
 30
0.0
 11
897.1664074431821
 21
1812.195878730026
 31
0.0
  0
LINE
  5
209
330
165
100
AcDbEntity
  8
P-SANR-FIXT
100
AcDbLine
 10
897.1664074431823
 20
1794.363430087275
 30
0.0
 11
897.1664074431823
 21
1807.628327372846
 31
0.0
  0
LINE
  5
20A
330
165
100
AcDbEntity
  8
P-SANR-FIXT
100
AcDbLine
 10
897.1664074431823
 20
1774.863430087366
 30
0.0
 11
897.1664074431823
 21
1788.128327372752
 31
0.0
  0
LINE
  5
20B
330
165
100
AcDbEntity
  8
P-SANR-FIXT
100
AcDbLine
 10
897.1664074431824
 20
1770.295878730114
 30
0.0
 11
897.1664074431824
 21
1771.745878730006
 31
0.0
  0
LINE
  5
20C
330
165
100
AcDbEntity
  8
P-SANR-FIXT
100
AcDbLine
 10
921.0664074432205
 20
1791.24587873007
 30
0.0
 11
921.0664074432203
 21
1812.195878730026
 31
0.0
  0
LINE
  5
20D
330
165
100
AcDbEntity
  8
P-SANR-FIXT
100
AcDbLine
 10
921.0664074432207
 20
1770.295878730114
 30
0.0
 11
921.0664074432205
 21
1791.24587873007
 31
0.0
  0
LINE
  5
20E
330
165
100
AcDbEntity
  8
P-SANR-FIXT
100
AcDbLine
 10
921.6664074432207
 20
1811.595878730026
 30
0.0
 11
921.6664074432207
 21
1791.24587873007
 31
0.0
  0
LINE
  5
20F
330
165
100
AcDbEntity
  8
P-SANR-FIXT
100
AcDbLine
 10
921.6664074432207
 20
1791.24587873007
 30
0.0
 11
921.6664074432209
 21
1770.895878730114
 31
0.0
  0
LINE
  5
210
330
165
100
AcDbEntity
  8
P-SANR-FIXT
100
AcDbLine
 10
884.666407443246
 20
1774.863430087267
 30
0.0
 11
897.1664074431823
 21
1774.863430087267
 31
0.0
  0
LINE
  5
211
330
165
100
AcDbEntity
  8
P-SANR-FIXT
100
AcDbLine
 10
884.6664074432462
 20
1771.745878730006
 30
0.0
 11
897.1664074431824
 21
1771.745878730006
 31
0.0
  0
LINE
  5
212
330
165
100
AcDbEntity
  8
P-SANR-FIXT
100
AcDbLine
 10
884.6664074432458
 20
1810.74587873005
 30
0.0
 11
897.1664074431821
 21
1810.74587873005
 31
0.0
  0
LINE
  5
213
330
165
100
AcDbEntity
  8
P-SANR-FIXT
100
AcDbLine
 10
884.666407443246
 20
1807.628327372789
 30
0.0
 11
897.1664074431823
 21
1807.628327372789
 31
0.0
  0
LINE
  5
214
330
165
100
AcDbEntity
  8
P-SANR-FIXT
100
AcDbLine
 10
884.666407443246
 20
1794.363430087289
 30
0.0
 11
897.1664074431823
 21
1794.363430087289
 31
0.0
  0
LINE
  5
215
330
165
100
AcDbEntity
  8
P-SANR-FIXT
100
AcDbLine
 10
897.1664074431823
 20
1788.128327372767
 30
0.0
 11
884.666407443246
 21
1788.128327372767
 31
0.0
  0
LINE
  5
216
330
165
100
AcDbEntity
  8
P-SANR-FIXT
100
AcDbLine
 10
742.1664074431877
 20
1812.195878730027
 30
0.0
 11
718.26640744315
 21
1812.195878730027
 31
0.0
  0
LINE
  5
217
330
165
100
AcDbEntity
  8
P-SANR-FIXT
100
AcDbLine
 10
718.2664074431504
 20
1770.295878730114
 30
0.0
 11
742.166407443188
 21
1770.295878730114
 31
0.0
  0
LINE
  5
218
330
165
100
AcDbEntity
  8
P-SANR-FIXT
100
AcDbLine
 10
718.26640744315
 20
1812.195878730027
 30
0.0
 11
717.6664074431498
 21
1811.595878730027
 31
0.0
  0
LINE
  5
219
330
165
100
AcDbEntity
  8
P-SANR-FIXT
100
AcDbLine
 10
717.66640744315
 20
1770.895878730114
 30
0.0
 11
718.2664074431504
 21
1770.295878730114
 31
0.0
  0
LINE
  5
21A
330
165
100
AcDbEntity
  8
P-SANR-FIXT
100
AcDbLine
 10
754.6664074431236
 20
1788.128327372767
 30
0.0
 11
742.1664074431862
 21
1788.128327372767
 31
0.0
  0
LINE
  5
21B
330
165
100
AcDbEntity
  8
P-SANR-FIXT
100
AcDbLine
 10
742.1664074431862
 20
1774.863430087266
 30
0.0
 11
754.6664074431236
 21
1774.863430087266
 31
0.0
  0
LINE
  5
21C
330
165
100
AcDbEntity
  8
P-SANR-FIXT
100
AcDbLine
 10
742.1664074431864
 20
1771.745878730006
 30
0.0
 11
754.6664074431238
 21
1771.745878730006
 31
0.0
  0
LINE
  5
21D
330
165
100
AcDbEntity
  8
P-SANR-FIXT
100
AcDbLine
 10
742.1664074431861
 20
1810.745878730049
 30
0.0
 11
754.6664074431236
 21
1810.745878730049
 31
0.0
  0
LINE
  5
21E
330
165
100
AcDbEntity
  8
P-SANR-FIXT
100
AcDbLine
 10
742.1664074431862
 20
1807.628327372789
 30
0.0
 11
754.6664074431236
 21
1807.628327372789
 31
0.0
  0
LINE
  5
21F
330
165
100
AcDbEntity
  8
P-SANR-FIXT
100
AcDbLine
 10
742.1664074431862
 20
1794.363430087289
 30
0.0
 11
754.6664074431236
 21
1794.363430087289
 31
0.0
  0
LINE
  5
220
330
165
100
AcDbEntity
  8
P-SANR-FIXT
100
AcDbLine
 10
717.6664074431485
 20
1791.24587873007
 30
0.0
 11
717.6664074431483
 21
1811.595878730025
 31
0.0
  0
LINE
  5
221
330
165
100
AcDbEntity
  8
P-SANR-FIXT
100
AcDbLine
 10
717.6664074431486
 20
1770.895878730113
 30
0.0
 11
717.6664074431485
 21
1791.24587873007
 31
0.0
  0
LINE
  5
222
330
165
100
AcDbEntity
  8
P-SANR-FIXT
100
AcDbLine
 10
742.1664074431862
 20
1807.628327372808
 30
0.0
 11
742.1664074431862
 21
1794.36343008729
 31
0.0
  0
LINE
  5
223
330
165
100
AcDbEntity
  8
P-SANR-FIXT
100
AcDbLine
 10
742.1664074431861
 20
1812.195878730026
 30
0.0
 11
742.1664074431861
 21
1810.745878730072
 31
0.0
  0
LINE
  5
224
330
165
100
AcDbEntity
  8
P-SANR-FIXT
100
AcDbLine
 10
742.1664074431864
 20
1771.745878730056
 30
0.0
 11
742.1664074431864
 21
1770.295878730113
 31
0.0
  0
LINE
  5
225
330
165
100
AcDbEntity
  8
P-SANR-FIXT
100
AcDbLine
 10
742.1664074431862
 20
1788.128327372768
 30
0.0
 11
742.1664074431862
 21
1774.863430087299
 31
0.0
  0
LINE
  5
226
330
165
100
AcDbEntity
  8
P-SANR-FIXT
100
AcDbLine
 10
718.2664074431486
 20
1812.195878730026
 30
0.0
 11
718.2664074431487
 21
1791.24587873007
 31
0.0
  0
LINE
  5
227
330
165
100
AcDbEntity
  8
P-SANR-FIXT
100
AcDbLine
 10
718.2664074431487
 20
1791.24587873007
 30
0.0
 11
718.2664074431488
 21
1770.295878730113
 31
0.0
  0
LINE
  5
228
330
165
100
AcDbEntity
  8
P-SANR-FIXT
100
AcDbLine
 10
864.6664074432361
 20
1815.395878730071
 30
0.0
 11
863.6664074431864
 21
1815.395878730071
 31
0.0
  0
LINE
  5
229
330
165
100
AcDbEntity
  8
P-SANR-FIXT
100
AcDbLine
 10
863.666407443187
 20
1767.095878730071
 30
0.0
 11
864.6664074432363
 21
1767.095878730071
 31
0.0
  0
LINE
  5
22A
330
165
100
AcDbEntity
  8
P-SANR-FIXT
100
AcDbLine
 10
863.6664074431864
 20
1815.395878730071
 30
0.0
 11
863.6305600093129
 21
1815.333789153281
 31
0.0
  0
LINE
  5
22B
330
165
100
AcDbEntity
  8
P-SANR-FIXT
100
AcDbLine
 10
863.6234257996807
 20
1815.321432339726
 30
0.0
 11
863.0024546336182
 21
1814.245878730071
 31
0.0
  0
LINE
  5
22C
330
165
100
AcDbEntity
  8
P-SANR-FIXT
100
AcDbLine
 10
863.0024546336185
 20
1768.245878730072
 30
0.0
 11
863.6234257996811
 21
1767.170325120416
 31
0.0
  0
LINE
  5
22D
330
165
100
AcDbEntity
  8
P-SANR-FIXT
100
AcDbLine
 10
863.630560009313
 20
1767.157968306862
 30
0.0
 11
863.666407443187
 21
1767.095878730071
 31
0.0
  0
LINE
  5
22E
330
165
100
AcDbEntity
  8
P-SANR-FIXT
100
AcDbLine
 10
861.2704038260494
 20
1813.245878730071
 30
0.0
 11
854.6664074431866
 21
1813.245878730071
 31
0.0
  0
LINE
  5
22F
330
165
100
AcDbEntity
  8
P-SANR-FIXT
100
AcDbLine
 10
787.2137831302055
 20
1813.245878730071
 30
0.0
 11
778.0624110603233
 21
1813.24587873007
 31
0.0
  0
LINE
  5
230
330
165
100
AcDbEntity
  8
P-SANR-FIXT
100
AcDbLine
 10
778.0624110603236
 20
1769.24587873007
 30
0.0
 11
787.2137831302057
 21
1769.245878730071
 31
0.0
  0
LINE
  5
231
330
165
100
AcDbEntity
  8
P-SANR-FIXT
100
AcDbLine
 10
854.6664074431868
 20
1769.245878730071
 30
0.0
 11
861.2704038260497
 21
1769.245878730071
 31
0.0
  0
LINE
  5
232
330
165
100
AcDbEntity
  8
P-SANR-FIXT
100
AcDbLine
 10
776.3303602527545
 20
1814.245878730071
 30
0.0
 11
775.7093890866923
 21
1815.321432339725
 31
0.0
  0
LINE
  5
233
330
165
100
AcDbEntity
  8
P-SANR-FIXT
100
AcDbLine
 10
775.7022548770601
 20
1815.33378915328
 30
0.0
 11
775.6664074431864
 21
1815.395878730071
 31
0.0
  0
LINE
  5
234
330
165
100
AcDbEntity
  8
P-SANR-FIXT
100
AcDbLine
 10
775.6664074431868
 20
1767.095878730071
 30
0.0
 11
775.7022548770606
 21
1767.157968306861
 31
0.0
  0
LINE
  5
235
330
165
100
AcDbEntity
  8
P-SANR-FIXT
100
AcDbLine
 10
775.7093890866928
 20
1767.170325120416
 30
0.0
 11
776.3303602527547
 21
1768.24587873007
 31
0.0
  0
LINE
  5
236
330
165
100
AcDbEntity
  8
P-SANR-FIXT
100
AcDbLine
 10
775.6664074431864
 20
1815.395878730071
 30
0.0
 11
774.6664074431286
 21
1815.39587873007
 31
0.0
  0
LINE
  5
237
330
165
100
AcDbEntity
  8
P-SANR-FIXT
100
AcDbLine
 10
774.666407443129
 20
1767.095878730071
 30
0.0
 11
775.6664074431868
 21
1767.095878730071
 31
0.0
  0
LWPOLYLINE
  5
238
330
165
100
AcDbEntity
  8
P-SANR-FIXT
100
AcDbPolyline
 90
       28
 70
   128
 43
0.0
 10
861.2704038260494
 20
1813.245878730071
 10
861.3503824944228
 20
1813.247478516749
 10
861.4302332139876
 20
1813.252275317466
 10
861.5098282406272
 20
1813.260261458363
 10
861.5890402392777
 20
1813.271424163319
 10
861.6677424876396
 20
1813.285745574388
 10
861.7458090789037
 20
1813.303202780367
 10
861.8231151231775
 20
1813.323767853449
 10
861.8995369472816
 20
1813.347407893906
 10
861.9749522925994
 20
1813.374085082715
 10
862.0492405106668
 20
1813.403756742065
 10
862.1222827561814
 20
1813.436375403631
 10
862.1939621771323
 20
1813.471888884512
 10
862.2641641017368
 20
1813.510240370716
 10
862.3327762218911
 20
1813.551368508044
 10
862.3996887728393
 20
1813.595207500251
 10
862.4647947087742
 20
1813.641687214303
 10
862.5279898740863
 20
1813.690733292569
 10
862.5891731699923
 20
1813.742267271789
 10
862.6482467162704
 20
1813.796206708589
 10
862.7051160078485
 20
1813.852465311376
 10
862.7596900659909
 20
1813.910953078388
 10
862.8118815838474
 20
1813.971576441674
 10
862.861607066122
 20
1814.034238416784
 10
862.9087869626514
 20
1814.098838757926
 10
862.9533457956652
 20
1814.165274118334
 10
862.9952122805359
 20
1814.233438215605
 10
863.0024546336182
 20
1814.245878730071
  0
LWPOLYLINE
  5
239
330
165
100
AcDbEntity
  8
P-SANR-FIXT
100
AcDbPolyline
 90
       28
 70
   128
 43
0.0
 10
863.0024546336185
 20
1768.245878730072
 10
862.9610798435281
 20
1768.314342395304
 10
862.9170003324679
 20
1768.3810967466
 10
862.8702866182528
 20
1768.446034991236
 10
862.8210134328602
 20
1768.509053241874
 10
862.7692596028758
 20
1768.570050682755
 10
862.7151079233874
 20
1768.628929730988
 10
862.6586450255301
 20
1768.685596192653
 10
862.5999612378963
 20
1768.739959413503
 10
862.5391504420273
 20
1768.791932423979
 10
862.4763099222239
 20
1768.841432078352
 10
862.4115402099132
 20
1768.888379187734
 10
862.3449449228177
 20
1768.932698646766
 10
862.2766305991904
 20
1768.974319553766
 10
862.2067065273764
 20
1769.013175324163
 10
862.1352845709745
 20
1769.049203797013
 10
862.0624789898782
 20
1769.082347334444
 10
861.9884062574874
 20
1769.112552913867
 10
861.9131848743718
 20
1769.139772212799
 10
861.8369351786979
 20
1769.163961686167
 10
861.7597791537136
 20
1769.185082635975
 10
861.6818402325995
 20
1769.203101273209
 10
861.6032431010033
 20
1769.217988771892
 10
861.5241134975692
 20
1769.229721315202
 10
861.4445780127823
 20
1769.238280133573
 10
861.364763886452
 20
1769.243651534722
 10
861.284798804154
 20
1769.245826925552
 10
861.2704038260497
 20
1769.245878730071
  0
LWPOLYLINE
  5
23A
330
165
100
AcDbEntity
  8
P-SANR-FIXT
100
AcDbPolyline
 90
       28
 70
   128
 43
0.0
 10
776.3303602527545
 20
1814.245878730071
 10
776.371735042845
 20
1814.177415064838
 10
776.415814553905
 20
1814.110660713542
 10
776.46252826812
 20
1814.045722468906
 10
776.5118014535127
 20
1813.982704218268
 10
776.5635552834972
 20
1813.921706777387
 10
776.6177069629858
 20
1813.862827729154
 10
776.6741698608427
 20
1813.806161267488
 10
776.7328536484768
 20
1813.751798046639
 10
776.7936644443458
 20
1813.699825036163
 10
776.856504964149
 20
1813.65032538179
 10
776.92127467646
 20
1813.603378272407
 10
776.9878699635555
 20
1813.559058813376
 10
777.0561842871825
 20
1813.517437906376
 10
777.1261083589966
 20
1813.478582135979
 10
777.1975303153988
 20
1813.442553663129
 10
777.2703358964946
 20
1813.409410125698
 10
777.3444086288857
 20
1813.379204546275
 10
777.4196300120015
 20
1813.351985247343
 10
777.495879707675
 20
1813.327795773975
 10
777.5730357326594
 20
1813.306674824167
 10
777.6509746537735
 20
1813.288656186933
 10
777.7295717853696
 20
1813.27376868825
 10
777.8087013888039
 20
1813.26203614494
 10
777.8882368735906
 20
1813.253477326569
 10
777.968050999921
 20
1813.24810592542
 10
778.0480160822188
 20
1813.24593053459
 10
778.0624110603233
 20
1813.24587873007
  0
LWPOLYLINE
  5
23B
330
165
100
AcDbEntity
  8
P-SANR-FIXT
100
AcDbPolyline
 90
       28
 70
   128
 43
0.0
 10
778.0624110603236
 20
1769.24587873007
 10
777.9824323919504
 20
1769.244278943392
 10
777.9025816723853
 20
1769.239482142676
 10
777.8229866457458
 20
1769.231496001778
 10
777.7437746470952
 20
1769.220333296822
 10
777.6650723987335
 20
1769.206011885753
 10
777.5870058074693
 20
1769.188554679774
 10
777.5096997631954
 20
1769.167989606692
 10
777.4332779390913
 20
1769.144349566235
 10
777.3578625937735
 20
1769.117672377426
 10
777.2835743757064
 20
1769.088000718076
 10
777.2105321301916
 20
1769.05538205651
 10
777.1388527092407
 20
1769.019868575629
 10
777.0686507846362
 20
1768.981517089426
 10
777.0000386644818
 20
1768.940388952097
 10
776.9331261135335
 20
1768.89654995989
 10
776.8680201775987
 20
1768.850070245839
 10
776.8048250122866
 20
1768.801024167572
 10
776.7436417163807
 20
1768.749490188352
 10
776.6845681701026
 20
1768.695550751552
 10
776.6276988785246
 20
1768.639292148765
 10
776.573124820382
 20
1768.580804381753
 10
776.5209333025256
 20
1768.520181018467
 10
776.4712078202509
 20
1768.457519043357
 10
776.4240279237216
 20
1768.392918702215
 10
776.3794690907078
 20
1768.326483341807
 10
776.3376026058369
 20
1768.258319244536
 10
776.3303602527547
 20
1768.24587873007
  0
LINE
  5
23C
330
165
100
AcDbEntity
  8
P-SANR-FIXT
100
AcDbLine
 10
836.6664074431866
 20
1828.245878730038
 30
0.0
 11
836.6664074431865
 21
1820.465830031031
 31
0.0
  0
LINE
  5
23D
330
165
100
AcDbEntity
  8
P-SANR-FIXT
100
AcDbLine
 10
836.6664074431868
 20
1762.02592742911
 30
0.0
 11
836.6664074431866
 21
1754.245878730071
 31
0.0
  0
LINE
  5
23E
330
165
100
AcDbEntity
  8
P-SANR-FIXT
100
AcDbLine
 10
854.6664074431866
 20
1754.245878730071
 30
0.0
 11
854.6664074431868
 21
1769.245878730071
 31
0.0
  0
LINE
  5
23F
330
165
100
AcDbEntity
  8
P-SANR-FIXT
100
AcDbLine
 10
854.6664074431866
 20
1813.245878730071
 30
0.0
 11
854.6664074431866
 21
1828.245878730038
 31
0.0
  0
SPLINE
  5
240
330
165
100
AcDbEntity
  8
P-SANR-FIXT
100
AcDbSpline
210
0.0
220
0.0
230
1.0
 70
     8
 71
     3
 72
     8
 73
     4
 74
     0
 42
0.000000001
 43
0.0000000001
 40
0.0
 40
0.0
 40
0.0
 40
0.0
 40
0.0833333333333333
 40
0.0833333333333333
 40
0.0833333333333333
 40
0.0833333333333333
 10
783.2280042765677
 20
1806.858373726066
 30
0.0
 10
783.0675816212798
 20
1806.525060263316
 30
0.0
 10
782.9090490047598
 20
1806.182664508262
 30
0.0
 10
782.7531095683694
 20
1805.83085970853
 30
0.0
  0
SPLINE
  5
241
330
165
100
AcDbEntity
  8
P-SANR-FIXT
100
AcDbSpline
210
0.0
220
0.0
230
1.0
 70
     8
 71
     3
 72
     9
 73
     5
 74
     0
 42
0.000000001
 43
0.0000000001
 40
0.1666666666666666
 40
0.1666666666666666
 40
0.1666666666666666
 40
0.1666666666666666
 40
0.25
 40
0.3333333333333333
 40
0.3333333333333333
 40
0.3333333333333333
 40
0.3333333333333333
 10
782.2937739409485
 20
1804.746891422929
 30
0.0
 10
782.143724006179
 20
1804.375941781469
 30
0.0
 10
781.8479117910567
 20
1803.616142075938
 30
0.0
 10
781.57731738161
 20
1802.80980748673
 30
0.0
 10
781.4467013628727
 20
1802.397562443038
 30
0.0
  0
SPLINE
  5
242
330
165
100
AcDbEntity
  8
P-SANR-FIXT
100
AcDbSpline
210
0.0
220
0.0
230
1.0
 70
     8
 71
     3
 72
     8
 73
     4
 74
     0
 42
0.000000001
 43
0.0000000001
 40
0.4166666666666666
 40
0.4166666666666666
 40
0.4166666666666666
 40
0.4166666666666666
 40
0.5
 40
0.5
 40
0.5
 40
0.5
 10
781.0542119973131
 20
1801.145053341661
 30
0.0
 10
780.9317192498764
 20
1800.71694690971
 30
0.0
 10
780.8188791727669
 20
1800.278396022715
 30
0.0
 10
780.7061933588213
 20
1799.835606966485
 30
0.0
  0
SPLINE
  5
243
330
165
100
AcDbEntity
  8
P-SANR-FIXT
100
AcDbSpline
210
0.0
220
0.0
230
1.0
 70
     8
 71
     3
 72
     8
 73
     4
 74
     0
 42
0.000000001
 43
0.0000000001
 40
0.5833333333333333
 40
0.5833333333333333
 40
0.5833333333333333
 40
0.5833333333333333
 40
0.6666666666666666
 40
0.6666666666666666
 40
0.6666666666666666
 40
0.6666666666666666
 10
780.401027579683
 20
1798.479479946899
 30
0.0
 10
780.3069934385287
 20
1798.020480338857
 30
0.0
 10
780.2131492195459
 20
1797.558062207178
 30
0.0
 10
780.1318456993664
 20
1797.089024483496
 30
0.0
  0
SPLINE
  5
244
330
165
100
AcDbEntity
  8
P-SANR-FIXT
100
AcDbSpline
210
0.0
220
0.0
230
1.0
 70
     8
 71
     3
 72
     8
 73
     4
 74
     0
 42
0.000000001
 43
0.0000000001
 40
0.75
 40
0.75
 40
0.75
 40
0.75
 40
1.0
 40
1.0
 40
1.0
 40
1.0
 10
779.9379080118683
 20
1795.658851468079
 30
0.0
 10
779.7598348196539
 20
1794.220840609257
 30
0.0
 10
779.6664074431848
 20
1792.749713015119
 30
0.0
 10
779.6664074431848
 20
1791.24587873007
 30
0.0
  0
ARC
  5
245
330
165
100
AcDbEntity
  8
P-SANR-FIXT
100
AcDbCircle
 10
815.666407443185
 20
1791.24587873007
 30
0.0
 40
36.00000000000008
100
AcDbArc
 50
0.0000000000011673
 51
180.0000000000004
  0
SPLINE
  5
246
330
165
100
AcDbEntity
  8
P-SANR-FIXT
100
AcDbSpline
210
0.0
220
0.0
230
1.0
 70
     8
 71
     3
 72
     8
 73
     4
 74
     0
 42
0.000000001
 43
0.0000000001
 40
0.0
 40
0.0
 40
0.0
 40
0.0
 40
0.25
 40
0.25
 40
0.25
 40
0.25
 10
851.6664074431849
 20
1791.24587873007
 30
0.0
 10
851.6664074431849
 20
1792.751480485339
 30
0.0
 10
851.5727640161244
 20
1794.223907738083
 30
0.0
 10
851.3944230545435
 20
1795.662766828553
 30
0.0
  0
SPLINE
  5
247
330
165
100
AcDbEntity
  8
P-SANR-FIXT
100
AcDbSpline
210
0.0
220
0.0
230
1.0
 70
     8
 71
     3
 72
     8
 73
     4
 74
     0
 42
0.000000001
 43
0.0000000001
 40
0.3333333333333333
 40
0.3333333333333333
 40
0.3333333333333333
 40
0.3333333333333333
 40
0.4166666666666666
 40
0.4166666666666666
 40
0.4166666666666666
 40
0.4166666666666666
 10
851.1885932351724
 20
1797.089028883916
 30
0.0
 10
851.1110682273573
 20
1797.55978134144
 30
0.0
 10
851.0231368650673
 20
1798.02207503158
 30
0.0
 10
850.9281515585522
 20
1798.479484292493
 30
0.0
  0
SPLINE
  5
248
330
165
100
AcDbEntity
  8
P-SANR-FIXT
100
AcDbSpline
210
0.0
220
0.0
230
1.0
 70
     8
 71
     3
 72
     8
 73
     4
 74
     0
 42
0.000000001
 43
0.0000000001
 40
0.5
 40
0.5
 40
0.5
 40
0.5
 40
0.5833333333333333
 40
0.5833333333333333
 40
0.5833333333333333
 40
0.5833333333333333
 10
850.6253862165801
 20
1799.840633125707
 30
0.0
 10
850.5161670898194
 20
1800.285205218536
 30
0.0
 10
850.4029091455731
 20
1800.729749212618
 30
0.0
 10
850.2835386866735
 20
1801.165629148962
 30
0.0
  0
SPLINE
  5
249
330
165
100
AcDbEntity
  8
P-SANR-FIXT
100
AcDbSpline
210
0.0
220
0.0
230
1.0
 70
     8
 71
     3
 72
     9
 73
     5
 74
     0
 42
0.000000001
 43
0.0000000001
 40
0.6666666666666666
 40
0.6666666666666666
 40
0.6666666666666666
 40
0.6666666666666666
 40
0.75
 40
0.8333333333333333
 40
0.8333333333333333
 40
0.8333333333333333
 40
0.8333333333333333
 10
849.8924518347099
 20
1802.406942265353
 30
0.0
 10
849.7587826493361
 20
1802.816858127231
 30
0.0
 10
849.4839196167683
 20
1803.627375571434
 30
0.0
 10
849.1828828375115
 20
1804.359800338894
 30
0.0
 10
849.029520337006
 20
1804.717823883645
 30
0.0
  0
SPLINE
  5
24A
330
165
100
AcDbEntity
  8
P-SANR-FIXT
100
AcDbSpline
210
0.0
220
0.0
230
1.0
 70
     8
 71
     3
 72
     8
 73
     4
 74
     0
 42
0.000000001
 43
0.0000000001
 40
0.9166666666666667
 40
0.9166666666666667
 40
0.9166666666666667
 40
0.9166666666666667
 40
1.0
 40
1.0
 40
1.0
 40
1.0
 10
848.5791384822494
 20
1805.832135682055
 30
0.0
 10
848.4233594783251
 20
1806.183543133441
 30
0.0
 10
848.2650148296482
 20
1806.525514111143
 30
0.0
 10
848.1048106098022
 20
1806.858373726066
 30
0.0
  0
SPLINE
  5
24B
330
165
100
AcDbEntity
  8
P-SANR-FIXT
100
AcDbSpline
210
0.0
220
0.0
230
1.0
 70
     8
 71
     3
 72
     8
 73
     4
 74
     0
 42
0.000000001
 43
0.0000000001
 40
0.0
 40
0.0
 40
0.0
 40
0.0
 40
0.0833333333333265
 40
0.0833333333333265
 40
0.0833333333333265
 40
0.0833333333333265
 10
848.104810609802
 20
1775.633383734073
 30
0.0
 10
848.2650148296482
 20
1775.966243348997
 30
0.0
 10
848.4233594783251
 20
1776.308214326698
 30
0.0
 10
848.5791384822492
 20
1776.659621778085
 30
0.0
  0
SPLINE
  5
24C
330
165
100
AcDbEntity
  8
P-SANR-FIXT
100
AcDbSpline
210
0.0
220
0.0
230
1.0
 70
     8
 71
     3
 72
     9
 73
     5
 74
     0
 42
0.000000001
 43
0.0000000001
 40
0.1666666666666666
 40
0.1666666666666666
 40
0.1666666666666666
 40
0.1666666666666666
 40
0.25
 40
0.3333333333333333
 40
0.3333333333333333
 40
0.3333333333333333
 40
0.3333333333333333
 10
849.0380724861811
 20
1777.742478664209
 30
0.0
 10
849.1880141270167
 20
1778.113084173875
 30
0.0
 10
849.4836586131429
 20
1778.8722329936
 30
0.0
 10
849.7541733670818
 20
1779.678070070491
 30
0.0
 10
849.8847696976193
 20
1780.090099757423
 30
0.0
  0
SPLINE
  5
24D
330
165
100
AcDbEntity
  8
P-SANR-FIXT
100
AcDbSpline
210
0.0
220
0.0
230
1.0
 70
     8
 71
     3
 72
     8
 73
     4
 74
     0
 42
0.000000001
 43
0.0000000001
 40
0.4166666666666666
 40
0.4166666666666666
 40
0.4166666666666666
 40
0.4166666666666666
 40
0.5
 40
0.5
 40
0.5
 40
0.5
 10
850.2772565696048
 20
1781.341977591396
 30
0.0
 10
850.3997680870389
 20
1781.769932887631
 30
0.0
 10
850.512643892182
 20
1782.208400472537
 30
0.0
 10
850.6253862165801
 20
1782.651124334433
 30
0.0
  0
SPLINE
  5
24E
330
165
100
AcDbEntity
  8
P-SANR-FIXT
100
AcDbSpline
210
0.0
220
0.0
230
1.0
 70
     8
 71
     3
 72
     8
 73
     4
 74
     0
 42
0.000000001
 43
0.0000000001
 40
0.5833333333333333
 40
0.5833333333333333
 40
0.5833333333333333
 40
0.5833333333333333
 40
0.6666666666666666
 40
0.6666666666666666
 40
0.6666666666666666
 40
0.6666666666666666
 10
850.9307603150853
 20
1784.007291181807
 30
0.0
 10
851.0248760360893
 20
1784.466361104666
 30
0.0
 10
851.1188207281387
 20
1784.928864639277
 30
0.0
 10
851.2002219863447
 20
1785.398061357089
 30
0.0
  0
SPLINE
  5
24F
330
165
100
AcDbEntity
  8
P-SANR-FIXT
100
AcDbSpline
210
0.0
220
0.0
230
1.0
 70
     8
 71
     3
 72
     8
 73
     4
 74
     0
 42
0.000000001
 43
0.0000000001
 40
0.75
 40
0.75
 40
0.75
 40
0.75
 40
1.0
 40
1.0
 40
1.0
 40
1.0
 10
851.3944230545435
 20
1786.828990631586
 30
0.0
 10
851.5727640161244
 20
1788.267849722056
 30
0.0
 10
851.6664074431849
 20
1789.740276974801
 30
0.0
 10
851.6664074431849
 20
1791.24587873007
 30
0.0
  0
ARC
  5
250
330
165
100
AcDbEntity
  8
P-SANR-FIXT
100
AcDbCircle
 10
815.666407443185
 20
1791.24587873007
 30
0.0
 40
36.0
100
AcDbArc
 50
180.0
 51
0.0
  0
SPLINE
  5
251
330
165
100
AcDbEntity
  8
P-SANR-FIXT
100
AcDbSpline
210
0.0
220
0.0
230
1.0
 70
     8
 71
     3
 72
     8
 73
     4
 74
     0
 42
0.000000001
 43
0.0000000001
 40
0.0
 40
0.0
 40
0.0
 40
0.0
 40
0.25
 40
0.25
 40
0.25
 40
0.25
 10
779.6664074431848
 20
1791.24587873007
 30
0.0
 10
779.6664074431848
 20
1789.7402769748
 30
0.0
 10
779.7600508702454
 20
1788.267849722056
 30
0.0
 10
779.9383918318263
 20
1786.828990631586
 30
0.0
  0
SPLINE
  5
252
330
165
100
AcDbEntity
  8
P-SANR-FIXT
100
AcDbSpline
210
0.0
220
0.0
230
1.0
 70
     8
 71
     3
 72
     8
 73
     4
 74
     0
 42
0.000000001
 43
0.0000000001
 40
0.3333333333333333
 40
0.3333333333333333
 40
0.3333333333333333
 40
0.3333333333333333
 40
0.4166666666666666
 40
0.4166666666666666
 40
0.4166666666666666
 40
0.4166666666666666
 10
780.1442216511975
 20
1785.402728576224
 30
0.0
 10
780.2217466590126
 20
1784.9319761187
 30
0.0
 10
780.3096780213025
 20
1784.469682428559
 30
0.0
 10
780.4046633278178
 20
1784.012273167646
 30
0.0
  0
SPLINE
  5
253
330
165
100
AcDbEntity
  8
P-SANR-FIXT
100
AcDbSpline
210
0.0
220
0.0
230
1.0
 70
     8
 71
     3
 72
     8
 73
     4
 74
     0
 42
0.000000001
 43
0.0000000001
 40
0.5
 40
0.5
 40
0.5
 40
0.5
 40
0.5833333333333333
 40
0.5833333333333333
 40
0.5833333333333333
 40
0.5833333333333333
 10
780.7074286697898
 20
1782.651124334433
 30
0.0
 10
780.8166477965503
 20
1782.206552241603
 30
0.0
 10
780.9299057407967
 20
1781.762008247522
 30
0.0
 10
781.0492761996965
 20
1781.326128311178
 30
0.0
  0
SPLINE
  5
254
330
165
100
AcDbEntity
  8
P-SANR-FIXT
100
AcDbSpline
210
0.0
220
0.0
230
1.0
 70
     8
 71
     3
 72
     9
 73
     5
 74
     0
 42
0.000000001
 43
0.0000000001
 40
0.6666666666666666
 40
0.6666666666666666
 40
0.6666666666666666
 40
0.6666666666666666
 40
0.75
 40
0.8333333333333333
 40
0.8333333333333333
 40
0.8333333333333333
 40
0.8333333333333333
 10
781.44036305166
 20
1780.084815194786
 30
0.0
 10
781.5740322370337
 20
1779.674899332909
 30
0.0
 10
781.8488952696015
 20
1778.864381888705
 30
0.0
 10
782.1499320488583
 20
1778.131957121245
 30
0.0
 10
782.3032945493641
 20
1777.773933576494
 30
0.0
  0
SPLINE
  5
255
330
165
100
AcDbEntity
  8
P-SANR-FIXT
100
AcDbSpline
210
0.0
220
0.0
230
1.0
 70
     8
 71
     3
 72
     8
 73
     4
 74
     0
 42
0.000000001
 43
0.0000000001
 40
0.9166666666666667
 40
0.9166666666666667
 40
0.9166666666666667
 40
0.9166666666666667
 40
1.0
 40
1.0
 40
1.0
 40
1.0
 10
782.7536764041203
 20
1776.659621778085
 30
0.0
 10
782.9094554080447
 20
1776.308214326698
 30
0.0
 10
783.0678000567217
 20
1775.966243348997
 30
0.0
 10
783.2280042765676
 20
1775.633383734074
 30
0.0
  0
LINE
  5
256
330
165
100
AcDbEntity
  8
P-SANR-FIXT
100
AcDbLine
 10
864.6664074432345
 20
1806.113607615911
 30
0.0
 11
864.6664074432345
 21
1803.39703017414
 31
0.0
  0
LINE
  5
257
330
165
100
AcDbEntity
  8
P-SANR-FIXT
100
AcDbLine
 10
864.6664074432345
 20
1779.094727285269
 30
0.0
 11
864.6664074432345
 21
1776.378149844076
 31
0.0
  0
LINE
  5
258
330
165
100
AcDbEntity
  8
P-SANR-FIXT
100
AcDbLine
 10
863.6664074431848
 20
1815.39587873007
 30
0.0
 11
863.666407443185
 21
1791.24587873007
 31
0.0
  0
LINE
  5
259
330
165
100
AcDbEntity
  8
P-SANR-FIXT
100
AcDbLine
 10
863.666407443185
 20
1791.24587873007
 30
0.0
 11
863.666407443185
 21
1767.09587873007
 31
0.0
  0
SPLINE
  5
25A
330
165
100
AcDbEntity
  8
P-SANR-FIXT
100
AcDbSpline
210
0.0
220
0.0
230
1.0
 70
     8
 71
     3
 72
    15
 73
    11
 74
     0
 42
0.000000001
 43
0.0000000001
 40
0.0
 40
0.0
 40
0.0
 40
0.0
 40
0.1111111111111111
 40
0.2222222222222222
 40
0.2777777777777778
 40
0.3333333333333333
 40
0.3888888888888888
 40
0.4444444444444445
 40
0.4791666666666666
 40
0.5052230132641361
 40
0.5052230132641361
 40
0.5052230132641361
 40
0.5052230132641361
 10
854.6664074431848
 20
1813.24587873007
 30
0.0
 10
854.6506996782579
 20
1813.24587873007
 30
0.0
 10
854.2926819742644
 20
1813.086224434323
 30
0.0
 10
852.9566417785211
 20
1812.586070203968
 30
0.0
 10
851.4843215171994
 20
1812.137017787103
 30
0.0
 10
850.2111069437733
 20
1811.813611135317
 30
0.0
 10
848.7813928168531
 20
1811.546533732611
 30
0.0
 10
847.4431100626608
 20
1811.384236195401
 30
0.0
 10
846.3558041959412
 20
1811.328768927755
 30
0.0
 10
845.7681492623514
 20
1811.322610570193
 30
0.0
 10
845.5169635250491
 20
1811.324276846589
 30
0.0
  0
SPLINE
  5
25B
330
165
100
AcDbEntity
  8
P-SANR-FIXT
100
AcDbSpline
210
0.0
220
0.0
230
1.0
 70
     8
 71
     3
 72
    17
 73
    13
 74
     0
 42
0.000000001
 43
0.0000000001
 40
0.4947769867358656
 40
0.4947769867358656
 40
0.4947769867358656
 40
0.4947769867358656
 40
0.5138888888888889
 40
0.5486111111111111
 40
0.5833333333333333
 40
0.6180555555555555
 40
0.6527777777777777
 40
0.6875
 40
0.7222222222222223
 40
0.7916666666666668
 40
0.861111111111111
 40
1.0
 40
1.0
 40
1.0
 40
1.0
 10
845.5163371880457
 20
1771.167438391841
 30
0.0
 10
845.7005093647497
 20
1771.16870779117
 30
0.0
 10
846.2207747266134
 20
1771.165824074706
 30
0.0
 10
847.0610989444306
 20
1771.130593927907
 30
0.0
 10
848.009422073612
 20
1771.041900879283
 30
0.0
 10
848.9583422014879
 20
1770.907413433092
 30
0.0
 10
849.8594795771923
 20
1770.742618774371
 30
0.0
 10
850.6820147312122
 20
1770.559823934864
 30
0.0
 10
851.7319177864777
 20
1770.283643531952
 30
0.0
 10
852.8450530800462
 20
1769.935726981506
 30
0.0
 10
854.2303752939876
 20
1769.433781937448
 30
0.0
 10
854.6467727370266
 20
1769.24587873007
 30
0.0
 10
854.6664074431852
 20
1769.24587873007
 30
0.0
  0
LINE
  5
25C
330
165
100
AcDbEntity
  8
P-SANR-FIXT
100
AcDbLine
 10
775.6664074431848
 20
1815.395878730069
 30
0.0
 11
775.6664074431849
 21
1791.24587873007
 31
0.0
  0
LINE
  5
25D
330
165
100
AcDbEntity
  8
P-SANR-FIXT
100
AcDbLine
 10
775.6664074431849
 20
1791.24587873007
 30
0.0
 11
775.6664074431851
 21
1767.09587873007
 31
0.0
  0
LINE
  5
25E
330
165
100
AcDbEntity
  8
P-SANR-FIXT
100
AcDbLine
 10
774.6664074431271
 20
1806.113607615906
 30
0.0
 11
774.6664074431271
 21
1803.397030174142
 31
0.0
  0
LINE
  5
25F
330
165
100
AcDbEntity
  8
P-SANR-FIXT
100
AcDbLine
 10
774.6664074431271
 20
1779.094727285282
 30
0.0
 11
774.6664074431271
 21
1776.378149844054
 31
0.0
  0
LINE
  5
260
330
165
100
AcDbEntity
  8
P-SANR-FIXT
100
AcDbLine
 10
854.6664074431852
 20
1754.24587873007
 30
0.0
 11
836.6664074431851
 21
1754.24587873007
 31
0.0
  0
ENDBLK
  5
262
330
165
100
AcDbEntity
  8
0
100
AcDbBlockEnd
  0
BLOCK
  5
315
330
264
100
AcDbEntity
  8
0
100
AcDbBlockBegin
  2
Automatic flow rate regulator valve_Caleffi_121 DN15 - 1 1_4___Pressure gauge-V2-Est - Idraulica
 70
     0
 10
0.0
 20
0.0
 30
0.0
  3
Automatic flow rate regulator valve_Caleffi_121 DN15 - 1 1_4___Pressure gauge-V2-Est - Idraulica
  1

  0
LINE
  5
265
330
264
100
AcDbEntity
  8
M-PIPE
100
AcDbLine
 10
1268.114353943097
 20
2003.482558850052
 30
0.0
 11
1266.114353943098
 21
2003.482558850052
 31
0.0
1001
REVIT
1002
{
1070
     3
1000
923159
1002
}
  0
LINE
  5
266
330
264
100
AcDbEntity
  8
M-PIPE
100
AcDbLine
 10
1266.114353943098
 20
1996.482558850052
 30
0.0
 11
1268.114353943097
 21
1996.482558850052
 31
0.0
1001
REVIT
1002
{
1070
     3
1000
923159
1002
}
  0
LINE
  5
267
330
264
100
AcDbEntity
  8
M-PIPE
100
AcDbLine
 10
1268.114353943095
 20
1999.982558850051
 30
0.0
 11
1268.114353943095
 21
2003.482558850051
 31
0.0
1001
REVIT
1002
{
1070
     3
1000
923159
1002
}
  0
LINE
  5
268
330
264
100
AcDbEntity
  8
M-PIPE
100
AcDbLine
 10
1268.114353943095
 20
1996.482558850051
 30
0.0
 11
1268.114353943095
 21
1999.982558850051
 31
0.0
1001
REVIT
1002
{
1070
     3
1000
923159
1002
}
  0
LINE
  5
269
330
264
100
AcDbEntity
  8
M-PIPE
100
AcDbLine
 10
1230.114353943115
 20
2006.532558850045
 30
0.0
 11
1219.114353943115
 21
2006.532558850045
 31
0.0
1001
REVIT
1002
{
1070
     3
1000
923159
1002
}
  0
LINE
  5
26A
330
264
100
AcDbEntity
  8
M-PIPE
100
AcDbLine
 10
1219.114353943115
 20
1993.43255885006
 30
0.0
 11
1230.114353943115
 21
1993.432558850059
 31
0.0
1001
REVIT
1002
{
1070
     3
1000
923159
1002
}
  0
LINE
  5
26B
330
264
100
AcDbEntity
  8
M-PIPE
100
AcDbLine
 10
1230.114353943112
 20
1992.982558850035
 30
0.0
 11
1230.114353943112
 21
2006.982558850035
 31
0.0
1001
REVIT
1002
{
1070
     3
1000
923159
1002
}
  0
LINE
  5
26C
330
264
100
AcDbEntity
  8
M-PIPE
100
AcDbLine
 10
1230.114353943112
 20
2006.982558850035
 30
0.0
 11
1236.114353943095
 21
2006.982558850035
 31
0.0
1001
REVIT
1002
{
1070
     3
1000
923159
1002
}
  0
LINE
  5
26D
330
264
100
AcDbEntity
  8
M-PIPE
100
AcDbLine
 10
1230.114353943112
 20
1992.982558850035
 30
0.0
 11
1236.114353943095
 21
1992.982558850035
 31
0.0
1001
REVIT
1002
{
1070
     3
1000
923159
1002
}
  0
LINE
  5
26E
330
264
100
AcDbEntity
  8
M-PIPE
100
AcDbLine
 10
1266.114353943098
 20
2030.982558850064
 30
0.0
 11
1239.114353943098
 21
2030.982558850064
 31
0.0
1001
REVIT
1002
{
1070
     3
1000
923159
1002
}
  0
LINE
  5
26F
330
264
100
AcDbEntity
  8
M-PIPE
100
AcDbLine
 10
1239.114353943097
 20
1968.98255885004
 30
0.0
 11
1266.114353943098
 21
1968.98255885004
 31
0.0
1001
REVIT
1002
{
1070
     3
1000
923159
1002
}
  0
LWPOLYLINE
  5
270
330
264
100
AcDbEntity
  8
M-PIPE
100
AcDbPolyline
 90
       41
 70
   128
 43
0.0
 10
1236.114353943098
 20
2027.982558850065
 10
1236.116753623115
 20
2028.102526852624
 10
1236.12394882419
 20
2028.222302931972
 10
1236.135928035536
 20
2028.341695471931
 10
1236.152672092971
 20
2028.460513469907
 10
1236.174154209574
 20
2028.57856684245
 10
1236.200340018542
 20
2028.695666729346
 10
1236.231187628166
 20
2028.811625795757
 10
1236.266647688851
 20
2028.926258531913
 10
1236.306663472064
 20
2029.03938154989
 10
1236.35117096109
 20
2029.150813876991
 10
1236.400098953438
 20
2029.260377245263
 10
1236.453369174761
 20
2029.367896376689
 10
1236.510896404065
 20
2029.473199263596
 10
1236.572588610058
 20
2029.576117443827
 10
1236.638347098369
 20
2029.67648627025
 10
1236.708066669445
 20
2029.774145174152
 10
1236.781635786845
 20
2029.86893792212
 10
1236.858936755675
 20
2029.960712865979
 10
1236.939845910876
 20
2030.049323185396
 10
1237.024233815056
 20
2030.134627122763
 10
1237.111965465574
 20
2030.216488209978
 10
1237.202900510502
 20
2030.294775486761
 10
1237.296893473168
 20
2030.369363710173
 10
1237.393793984881
 20
2030.440133554968
 10
1237.493447025494
 20
2030.506971804488
 10
1237.5956931714
 20
2030.569771531795
 10
1237.700368850577
 20
2030.62843227072
 10
1237.807306604268
 20
2030.682860176594
 10
1237.916335354879
 20
2030.73296817638
 10
1238.027280679668
 20
2030.778676107966
 10
1238.139965089781
 20
2030.819910848413
 10
1238.254208314202
 20
2030.856606430933
 10
1238.369827588141
 20
2030.888704150419
 10
1238.486637945424
 20
2030.916152657371
 10
1238.604452514397
 20
2030.93890804003
 10
1238.723082816884
 20
2030.95693389464
 10
1238.842339069705
 20
2030.970201383678
 10
1238.962030488298
 20
2030.978689281992
 10
1239.081965591923
 20
2030.982384010755
 10
1239.114353943098
 20
2030.982558850065
1001
REVIT
1002
{
1070
     3
1000
923159
1002
}
  0
LWPOLYLINE
  5
271
330
264
100
AcDbEntity
  8
M-PIPE
100
AcDbPolyline
 90
       35
 70
   128
 43
0.0
 10
1236.114353943098
 20
2006.982558850036
 10
1236.114353943098
 20
2007.720517009851
 10
1236.114353943098
 20
2008.790422547308
 10
1236.114353943098
 20
2009.84623738176
 10
1236.114353943098
 20
2010.886272434699
 10
1236.114353943098
 20
2011.908863871906
 10
1236.114353943098
 20
2012.912375765219
 10
1236.114353943098
 20
2013.895202709683
 10
1236.114353943098
 20
2014.855772391844
 10
1236.114353943098
 20
2015.79254810512
 10
1236.114353943098
 20
2016.704031208206
 10
1236.114353943098
 20
2017.588763522577
 10
1236.114353943098
 20
2018.445329665262
 10
1236.114353943098
 20
2019.272359313156
 10
1236.114353943098
 20
2020.068529395248
 10
1236.114353943098
 20
2020.832566209246
 10
1236.114353943098
 20
2021.563247459233
 10
1236.114353943098
 20
2022.259404211081
 10
1236.114353943098
 20
2022.91992276249
 10
1236.114353943098
 20
2023.543746424683
 10
1236.114353943098
 20
2024.129877212876
 10
1236.114353943098
 20
2024.677377442841
 10
1236.114353943098
 20
2025.185371231005
 10
1236.114353943098
 20
2025.653045895673
 10
1236.114353943098
 20
2026.079653257146
 10
1236.114353943098
 20
2026.464510834651
 10
1236.114353943098
 20
2026.807002938162
 10
1236.114353943098
 20
2027.106581653376
 10
1236.114353943098
 20
2027.362767718253
 10
1236.114353943098
 20
2027.575151289741
 10
1236.114353943098
 20
2027.743392599432
 10
1236.114353943098
 20
2027.867222497119
 10
1236.114353943098
 20
2027.946442881381
 10
1236.114353943098
 20
2027.980927016503
 10
1236.114353943098
 20
2027.982558850065
1001
REVIT
1002
{
1070
     3
1000
923159
1002
}
  0
LWPOLYLINE
  5
272
330
264
100
AcDbEntity
  8
M-PIPE
100
AcDbPolyline
 90
       41
 70
   128
 43
0.0
 10
1236.114353943098
 20
2027.982558850065
 10
1236.114353943098
 20
2027.960161836572
 10
1236.114353943098
 20
2027.893006626538
 10
1236.114353943098
 20
2027.781200653973
 10
1236.114353943098
 20
2027.624922784582
 10
1236.114353943098
 20
2027.42442302962
 10
1236.114353943098
 20
2027.180022145921
 10
1236.114353943098
 20
2026.892111122766
 10
1236.114353943098
 20
2026.561150556373
 10
1236.114353943098
 20
2026.187669913046
 10
1236.114353943098
 20
2025.772266682144
 10
1236.114353943098
 20
2025.315605420222
 10
1236.114353943098
 20
2024.818416687883
 10
1236.114353943098
 20
2024.281495881037
 10
1236.114353943098
 20
2023.705701958439
 10
1236.114353943098
 20
2023.091956067534
 10
1236.114353943098
 20
2022.441240070822
 10
1236.114353943098
 20
2021.754594975088
 10
1236.114353943098
 20
2021.033119266007
 10
1236.114353943098
 20
2020.277967150807
 10
1236.114353943098
 20
2019.490346711782
 10
1236.114353943098
 20
2018.671517973617
 10
1236.114353943098
 20
2017.82279088762
 10
1236.114353943098
 20
2016.945523236077
 10
1236.114353943098
 20
2016.041118460088
 10
1236.114353943098
 20
2015.111023414367
 10
1236.114353943098
 20
2014.156726052576
 10
1236.114353943098
 20
2013.179753046923
 10
1236.114353943098
 20
2012.181667345806
 10
1236.114353943098
 20
2011.164065673433
 10
1236.114353943098
 20
2010.128575975404
 10
1236.114353943098
 20
2009.076854814342
 10
1236.114353943098
 20
2008.01058471975
 10
1236.114353943098
 20
2006.931471496322
 10
1236.114353943098
 20
2005.841241495015
 10
1236.114353943097
 20
2004.741638851261
 10
1236.114353943097
 20
2003.634422694722
 10
1236.114353943097
 20
2002.521364335054
 10
1236.114353943097
 20
2001.404244428193
 10
1236.114353943097
 20
2000.284850127684
 10
1236.114353943097
 20
1999.982558850052
1001
REVIT
1002
{
1070
     3
1000
923159
1002
}
  0
LWPOLYLINE
  5
273
330
264
100
AcDbEntity
  8
M-PIPE
100
AcDbPolyline
 90
       41
 70
   128
 43
0.0
 10
1239.114353943097
 20
1968.98255885004
 10
1238.994385940538
 20
1968.984958530057
 10
1238.87460986119
 20
1968.992153731132
 10
1238.755217321231
 20
1969.004132942478
 10
1238.636399323255
 20
1969.020876999913
 10
1238.518345950712
 20
1969.042359116516
 10
1238.401246063816
 20
1969.068544925484
 10
1238.285286997405
 20
1969.099392535107
 10
1238.170654261249
 20
1969.134852595793
 10
1238.057531243272
 20
1969.174868379006
 10
1237.946098916172
 20
1969.219375868031
 10
1237.836535547899
 20
1969.26830386038
 10
1237.729016416473
 20
1969.321574081702
 10
1237.623713529566
 20
1969.379101311007
 10
1237.520795349335
 20
1969.440793517
 10
1237.420426522912
 20
1969.506552005311
 10
1237.322767619011
 20
1969.576271576387
 10
1237.227974871042
 20
1969.649840693787
 10
1237.136199927183
 20
1969.727141662617
 10
1237.047589607766
 20
1969.808050817817
 10
1236.962285670399
 20
1969.892438721998
 10
1236.880424583185
 20
1969.980170372516
 10
1236.802137306401
 20
1970.071105417444
 10
1236.727549082988
 20
1970.16509838011
 10
1236.656779238195
 20
1970.261998891822
 10
1236.589940988674
 20
1970.361651932435
 10
1236.527141261367
 20
1970.463898078341
 10
1236.468480522442
 20
1970.568573757519
 10
1236.414052616568
 20
1970.67551151121
 10
1236.363944616782
 20
1970.784540261821
 10
1236.318236685195
 20
1970.89548558661
 10
1236.277001944749
 20
1971.008169996724
 10
1236.24030636223
 20
1971.122413221144
 10
1236.208208642742
 20
1971.238032495083
 10
1236.180760135791
 20
1971.354842852366
 10
1236.158004753132
 20
1971.472657421339
 10
1236.139978898522
 20
1971.591287723826
 10
1236.126711409484
 20
1971.710543976647
 10
1236.11822351117
 20
1971.830235395239
 10
1236.114528782408
 20
1971.950170498865
 10
1236.114353943097
 20
1971.98255885004
1001
REVIT
1002
{
1070
     3
1000
923159
1002
}
  0
LWPOLYLINE
  5
274
330
264
100
AcDbEntity
  8
M-PIPE
100
AcDbPolyline
 90
       41
 70
   128
 43
0.0
 10
1236.114353943097
 20
1999.982558850052
 10
1236.114353943097
 20
1998.862857492826
 10
1236.114353943097
 20
1997.744947418915
 10
1236.114353943097
 20
1996.630617045961
 10
1236.114353943097
 20
1995.521649064851
 10
1236.114353943097
 20
1994.419817587788
 10
1236.114353943097
 20
1993.32688531009
 10
1236.114353943097
 20
1992.244600690253
 10
1236.114353943097
 20
1991.174695152797
 10
1236.114353943097
 20
1990.118880318345
 10
1236.114353943097
 20
1989.078845265406
 10
1236.114353943097
 20
1988.056253828199
 10
1236.114353943097
 20
1987.052741934885
 10
1236.114353943097
 20
1986.069914990421
 10
1236.114353943097
 20
1985.109345308261
 10
1236.114353943097
 20
1984.172569594984
 10
1236.114353943097
 20
1983.261086491898
 10
1236.114353943097
 20
1982.376354177527
 10
1236.114353943097
 20
1981.519788034843
 10
1236.114353943097
 20
1980.692758386948
 10
1236.114353943097
 20
1979.896588304857
 10
1236.114353943097
 20
1979.132551490859
 10
1236.114353943097
 20
1978.401870240871
 10
1236.114353943097
 20
1977.705713489024
 10
1236.114353943097
 20
1977.045194937614
 10
1236.114353943097
 20
1976.421371275421
 10
1236.114353943097
 20
1975.835240487228
 10
1236.114353943097
 20
1975.287740257263
 10
1236.114353943097
 20
1974.779746469099
 10
1236.114353943097
 20
1974.312071804432
 10
1236.114353943097
 20
1973.885464442959
 10
1236.114353943097
 20
1973.500606865454
 10
1236.114353943097
 20
1973.158114761942
 10
1236.114353943097
 20
1972.858536046729
 10
1236.114353943097
 20
1972.602349981851
 10
1236.114353943097
 20
1972.389966410363
 10
1236.114353943097
 20
1972.221725100673
 10
1236.114353943097
 20
1972.097895202986
 10
1236.114353943097
 20
1972.018674818724
 10
1236.114353943097
 20
1971.984190683601
 10
1236.114353943097
 20
1971.98255885004
1001
REVIT
1002
{
1070
     3
1000
923159
1002
}
  0
LWPOLYLINE
  5
275
330
264
100
AcDbEntity
  8
M-PIPE
100
AcDbPolyline
 90
       34
 70
   128
 43
0.0
 10
1236.114353943097
 20
1971.98255885004
 10
1236.114353943097
 20
1972.004955863533
 10
1236.114353943097
 20
1972.072111073567
 10
1236.114353943097
 20
1972.183917046132
 10
1236.114353943097
 20
1972.340194915522
 10
1236.114353943097
 20
1972.540694670485
 10
1236.114353943097
 20
1972.785095554183
 10
1236.114353943097
 20
1973.073006577339
 10
1236.114353943097
 20
1973.403967143732
 10
1236.114353943097
 20
1973.777447787059
 10
1236.114353943097
 20
1974.19285101796
 10
1236.114353943097
 20
1974.649512279882
 10
1236.114353943097
 20
1975.146701012221
 10
1236.114353943097
 20
1975.683621819067
 10
1236.114353943097
 20
1976.259415741666
 10
1236.114353943097
 20
1976.873161632571
 10
1236.114353943097
 20
1977.523877629282
 10
1236.114353943097
 20
1978.210522725017
 10
1236.114353943097
 20
1978.931998434098
 10
1236.114353943097
 20
1979.687150549298
 10
1236.114353943097
 20
1980.474770988323
 10
1236.114353943097
 20
1981.293599726487
 10
1236.114353943097
 20
1982.142326812484
 10
1236.114353943097
 20
1983.019594464028
 10
1236.114353943097
 20
1983.923999240016
 10
1236.114353943097
 20
1984.854094285737
 10
1236.114353943097
 20
1985.808391647528
 10
1236.114353943097
 20
1986.785364653181
 10
1236.114353943097
 20
1987.783450354299
 10
1236.114353943097
 20
1988.801052026672
 10
1236.114353943097
 20
1989.836541724701
 10
1236.114353943097
 20
1990.888262885762
 10
1236.114353943097
 20
1991.954532980354
 10
1236.114353943097
 20
1992.982558850036
1001
REVIT
1002
{
1070
     3
1000
923159
1002
}
  0
LINE
  5
276
330
264
100
AcDbEntity
  8
M-PIPE
100
AcDbLine
 10
1266.114353943095
 20
1999.982558850051
 30
0.0
 11
1266.114353943096
 21
2030.982558850063
 31
0.0
1001
REVIT
1002
{
1070
     3
1000
923159
1002
}
  0
LINE
  5
277
330
264
100
AcDbEntity
  8
M-PIPE
100
AcDbLine
 10
1266.114353943095
 20
1968.982558850039
 30
0.0
 11
1266.114353943095
 21
1999.982558850051
 31
0.0
1001
REVIT
1002
{
1070
     3
1000
923159
1002
}
  0
LINE
  5
278
330
264
100
AcDbEntity
  8
P-SANR-FIXT
100
AcDbLine
 10
1140.064779426996
 20
1990.482558850069
 30
0.0
 11
1145.114353943114
 21
1990.482558850069
 31
0.0
  0
LINE
  5
279
330
264
100
AcDbEntity
  8
P-SANR-FIXT
100
AcDbLine
 10
1145.114353943114
 20
2009.482558849954
 30
0.0
 11
1140.064779426996
 21
2009.482558849954
 31
0.0
  0
LINE
  5
27A
330
264
100
AcDbEntity
  8
P-SANR-FIXT
100
AcDbLine
 10
1139.114353943063
 20
1991.432984334002
 30
0.0
 11
1140.064779426996
 21
1990.482558850069
 31
0.0
  0
LINE
  5
27B
330
264
100
AcDbEntity
  8
P-SANR-FIXT
100
AcDbLine
 10
1140.064779426996
 20
2009.482558849954
 30
0.0
 11
1139.114353943063
 21
2008.532133366021
 31
0.0
  0
LINE
  5
27C
330
264
100
AcDbEntity
  8
P-SANR-FIXT
100
AcDbLine
 10
1140.064779426994
 20
2009.482558849953
 30
0.0
 11
1140.064779426994
 21
1990.482558850068
 31
0.0
  0
LINE
  5
27D
330
264
100
AcDbEntity
  8
P-SANR-FIXT
100
AcDbLine
 10
1145.114353943111
 20
1990.482558850068
 30
0.0
 11
1145.114353943111
 21
2009.482558849953
 31
0.0
  0
LINE
  5
27E
330
264
100
AcDbEntity
  8
P-SANR-FIXT
100
AcDbLine
 10
1139.114353943061
 20
1991.432984334001
 30
0.0
 11
1139.114353943061
 21
2008.53213336602
 31
0.0
  0
LINE
  5
27F
330
264
100
AcDbEntity
  8
P-SANR-FIXT
100
AcDbLine
 10
1161.61435394308
 20
2061.982558850039
 30
0.0
 11
1161.114069239476
 21
2061.693719341741
 31
0.0
  0
LINE
  5
280
330
264
100
AcDbEntity
  8
P-SANR-FIXT
100
AcDbLine
 10
1203.114638646683
 20
2061.693719341743
 30
0.0
 11
1202.61435394308
 21
2061.982558850039
 31
0.0
  0
LINE
  5
281
330
264
100
AcDbEntity
  8
P-SANR-FIXT
100
AcDbLine
 10
1146.61435394308
 20
2043.975620520633
 30
0.0
 11
1146.61435394308
 21
2042.982558850011
 31
0.0
  0
LINE
  5
282
330
264
100
AcDbEntity
  8
P-SANR-FIXT
100
AcDbLine
 10
1217.614353943081
 20
2042.982558850011
 30
0.0
 11
1217.614353943081
 21
2043.975620520633
 31
0.0
  0
LINE
  5
283
330
264
100
AcDbEntity
  8
P-SANR-FIXT
100
AcDbLine
 10
1159.114353943079
 20
2048.331923755434
 30
0.0
 11
1147.586981680941
 21
2045.243173666941
 31
0.0
  0
LINE
  5
284
330
264
100
AcDbEntity
  8
P-SANR-FIXT
100
AcDbLine
 10
1216.641726205221
 20
2045.243173666941
 30
0.0
 11
1205.11435394308
 21
2048.331923755435
 31
0.0
  0
LWPOLYLINE
  5
285
330
264
100
AcDbEntity
  8
P-SANR-FIXT
100
AcDbPolyline
 90
       34
 70
   128
 43
0.0
 10
1146.61435394308
 20
2043.975620520633
 10
1146.615403617176
 20
2044.028097227422
 10
1146.61855096021
 20
2044.080489982676
 10
1146.623790937104
 20
2044.132714969161
 10
1146.631115165012
 20
2044.18468863804
 10
1146.640511926733
 20
2044.236327842531
 10
1146.651966189453
 20
2044.28754997092
 10
1146.665459628794
 20
2044.338273078731
 10
1146.680970658132
 20
2044.388416019811
 10
1146.698474463129
 20
2044.43789857615
 10
1146.71794304143
 20
2044.486641586215
 10
1146.739345247464
 20
2044.534567071586
 10
1146.762646842267
 20
2044.581598361712
 10
1146.787810548258
 20
2044.62766021656
 10
1146.814796108874
 20
2044.672678946989
 10
1146.843560352976
 20
2044.716582532634
 10
1146.874057263909
 20
2044.759300737123
 10
1146.906238053121
 20
2044.800765220442
 10
1146.940051238215
 20
2044.840909648263
 10
1146.975442725307
 20
2044.879669798064
 10
1147.012355895568
 20
2044.916983661876
 10
1147.0507316958
 20
2044.952791545474
 10
1147.090508732907
 20
2044.987036163885
 10
1147.131623372119
 20
2045.019662733024
 10
1147.174009838781
 20
2045.050619057341
 10
1147.217600323588
 20
2045.079855613319
 10
1147.262325091064
 20
2045.107325628707
 10
1147.308112591123
 20
2045.132985157339
 10
1147.354889573531
 20
2045.156793149443
 10
1147.402581205094
 20
2045.178711517313
 10
1147.451111189377
 20
2045.198705196233
 10
1147.500401888757
 20
2045.216742200582
 10
1147.550374448629
 20
2045.232793675002
 10
1147.586981680941
 20
2045.243173666941
  0
LWPOLYLINE
  5
286
330
264
100
AcDbEntity
  8
P-SANR-FIXT
100
AcDbPolyline
 90
       34
 70
   128
 43
0.0
 10
1216.641726205221
 20
2045.243173666941
 10
1216.692143135941
 20
2045.228577788481
 10
1216.741936059032
 20
2045.211977445676
 10
1216.79102531644
 20
2045.193399195532
 10
1216.839332375823
 20
2045.172872759288
 10
1216.886779956194
 20
2045.150430974862
 10
1216.933292151544
 20
2045.126109744322
 10
1216.978794552282
 20
2045.099947976449
 10
1217.023214364276
 20
2045.07198752449
 10
1217.066480525299
 20
2045.042273119205
 10
1217.108523818726
 20
2045.010852297302
 10
1217.149276984255
 20
2044.977775325393
 10
1217.188674825515
 20
2044.94309511958
 10
1217.226654314364
 20
2044.906867160791
 10
1217.263154691722
 20
2044.869149406033
 10
1217.298117564771
 20
2044.830002195668
 10
1217.331487000374
 20
2044.789488156882
 10
1217.363209614551
 20
2044.747672103493
 10
1217.393234657886
 20
2044.704620932267
 10
1217.421514096716
 20
2044.660403515894
 10
1217.448002689972
 20
2044.615090592808
 10
1217.472658061554
 20
2044.56875465402
 10
1217.495440768127
 20
2044.521469827147
 10
1217.516314362221
 20
2044.473311757825
 10
1217.535245450539
 20
2044.424357488692
 10
1217.552203747376
 20
2044.374685336135
 10
1217.567162123077
 20
2044.324374765004
 10
1217.580096647431
 20
2044.273506261478
 10
1217.590986627957
 20
2044.222161204312
 10
1217.599814643011
 20
2044.170421734645
 10
1217.606566569652
 20
2044.118370624591
 10
1217.611231606236
 20
2044.066091144822
 10
1217.613802289701
 20
2044.013666931354
 10
1217.614353943081
 20
2043.975620520633
  0
LINE
  5
287
330
264
100
AcDbEntity
  8
P-SANR-FIXT
100
AcDbLine
 10
1161.61435394308
 20
2125.982558850038
 30
0.0
 11
1161.61435394308
 21
2061.982558850039
 31
0.0
  0
LINE
  5
288
330
264
100
AcDbEntity
  8
P-SANR-FIXT
100
AcDbLine
 10
1202.61435394308
 20
2061.982558850039
 30
0.0
 11
1202.61435394308
 21
2125.982558850038
 31
0.0
  0
LINE
  5
289
330
264
100
AcDbEntity
  8
P-SANR-FIXT
100
AcDbLine
 10
1179.738392347754
 20
2060.539183177063
 30
0.0
 11
1179.738392347754
 21
2048.331923755434
 31
0.0
  0
LINE
  5
28A
330
264
100
AcDbEntity
  8
P-SANR-FIXT
100
AcDbLine
 10
1179.738392347754
 20
2048.331923755434
 30
0.0
 11
1182.114353943077
 21
2048.331923755434
 31
0.0
  0
LINE
  5
28B
330
264
100
AcDbEntity
  8
P-SANR-FIXT
100
AcDbLine
 10
1182.114353943078
 20
2048.331923755434
 30
0.0
 11
1184.490315538399
 21
2048.331923755434
 31
0.0
  0
LINE
  5
28C
330
264
100
AcDbEntity
  8
P-SANR-FIXT
100
AcDbLine
 10
1184.490315538399
 20
2060.539183177064
 30
0.0
 11
1182.114353943078
 21
2060.539183177064
 31
0.0
  0
LINE
  5
28D
330
264
100
AcDbEntity
  8
P-SANR-FIXT
100
AcDbLine
 10
1182.114353943078
 20
2060.539183177064
 30
0.0
 11
1179.738392347754
 21
2060.539183177064
 31
0.0
  0
LINE
  5
28E
330
264
100
AcDbEntity
  8
P-SANR-FIXT
100
AcDbLine
 10
1184.490315538399
 20
2048.331923755434
 30
0.0
 11
1184.490315538399
 21
2060.539183177064
 31
0.0
  0
SPLINE
  5
28F
330
264
100
AcDbEntity
  8
P-SANR-FIXT
100
AcDbSpline
210
0.0
220
0.0
230
1.0
 70
     8
 71
     3
 72
     9
 73
     5
 74
     0
 42
0.000000001
 43
0.0000000001
 40
0.0
 40
0.0
 40
0.0
 40
0.0
 40
0.5
 40
1.0
 40
1.0
 40
1.0
 40
1.0
 10
1200.738392347737
 20
2060.539183177064
 30
0.0
 10
1198.074165575547
 20
2061.308930826381
 30
0.0
 10
1192.7019260018
 20
2062.078678475699
 30
0.0
 10
1187.242114369321
 20
2061.308930826381
 30
0.0
 10
1184.490315538399
 20
2060.539183177064
 30
0.0
  0
LINE
  5
290
330
264
100
AcDbEntity
  8
P-SANR-FIXT
100
AcDbLine
 10
1200.738392347737
 20
2048.331923755434
 30
0.0
 11
1200.738392347737
 21
2060.539183177064
 31
0.0
  0
LINE
  5
291
330
264
100
AcDbEntity
  8
P-SANR-FIXT
100
AcDbLine
 10
1200.738392347737
 20
2048.331923755434
 30
0.0
 11
1203.11435394306
 21
2048.331923755434
 31
0.0
  0
LINE
  5
292
330
264
100
AcDbEntity
  8
P-SANR-FIXT
100
AcDbLine
 10
1203.11435394306
 20
2060.539183177064
 30
0.0
 11
1200.738392347737
 21
2060.539183177064
 31
0.0
  0
LINE
  5
293
330
264
100
AcDbEntity
  8
P-SANR-FIXT
100
AcDbLine
 10
1203.11435394306
 20
2048.331923755434
 30
0.0
 11
1203.11435394306
 21
2060.539183177064
 31
0.0
  0
SPLINE
  5
294
330
264
100
AcDbEntity
  8
P-SANR-FIXT
100
AcDbSpline
210
0.0
220
0.0
230
1.0
 70
    24
 71
     3
 72
     8
 73
     4
 74
     0
 42
0.000000001
 43
0.0000000001
 40
0.5
 40
0.5
 40
0.5
 40
0.5
 40
1.0
 40
1.0
 40
1.0
 40
1.0
 10
1203.11435394306
 20
2061.69380465104
 30
0.0
 10
1203.11435394306
 20
2061.69380465104
 30
0.0
 10
1203.11435394306
 20
2061.308930826382
 30
0.0
 10
1203.11435394306
 20
2060.539183177064
 30
0.0
  0
SPLINE
  5
295
330
264
100
AcDbEntity
  8
P-SANR-FIXT
100
AcDbSpline
210
0.0
220
0.0
230
1.0
 70
    24
 71
     3
 72
     9
 73
     5
 74
     0
 42
0.000000001
 43
0.0000000001
 40
0.0
 40
0.0
 40
0.0
 40
0.0
 40
0.5
 40
0.5042978215234078
 40
0.5042978215234078
 40
0.5042978215234078
 40
0.5042978215234078
 10
1161.114353943093
 20
2060.539183177063
 30
0.0
 10
1161.114353943094
 20
2061.30893082638
 30
0.0
 10
1161.114353943094
 20
2061.697112889055
 30
0.0
 10
1161.114353943094
 20
2061.693776214606
 30
0.0
 10
1161.114353943094
 20
2061.69371934174
 30
0.0
  0
LINE
  5
296
330
264
100
AcDbEntity
  8
P-SANR-FIXT
100
AcDbLine
 10
1161.114353943093
 20
2048.331923755434
 30
0.0
 11
1161.114353943093
 21
2060.539183177063
 31
0.0
  0
LINE
  5
297
330
264
100
AcDbEntity
  8
P-SANR-FIXT
100
AcDbLine
 10
1161.114353943094
 20
2048.331923755434
 30
0.0
 11
1163.490315538417
 21
2048.331923755434
 31
0.0
  0
LINE
  5
298
330
264
100
AcDbEntity
  8
P-SANR-FIXT
100
AcDbLine
 10
1163.490315538417
 20
2060.539183177064
 30
0.0
 11
1161.114353943094
 21
2060.539183177064
 31
0.0
  0
SPLINE
  5
299
330
264
100
AcDbEntity
  8
P-SANR-FIXT
100
AcDbSpline
210
0.0
220
0.0
230
1.0
 70
     8
 71
     3
 72
     9
 73
     5
 74
     0
 42
0.000000001
 43
0.0000000001
 40
0.0
 40
0.0
 40
0.0
 40
0.0
 40
0.5
 40
1.0
 40
1.0
 40
1.0
 40
1.0
 10
1179.738392347754
 20
2060.539183177063
 30
0.0
 10
1176.986593516832
 20
2061.308930826381
 30
0.0
 10
1171.526781884353
 20
2062.078678475698
 30
0.0
 10
1166.154542310607
 20
2061.308930826381
 30
0.0
 10
1163.490315538416
 20
2060.539183177063
 30
0.0
  0
LINE
  5
29A
330
264
100
AcDbEntity
  8
P-SANR-FIXT
100
AcDbLine
 10
1163.490315538416
 20
2048.331923755434
 30
0.0
 11
1163.490315538416
 21
2060.539183177063
 31
0.0
  0
LINE
  5
29B
330
264
100
AcDbEntity
  8
P-SANR-FIXT
100
AcDbLine
 10
1182.114353943078
 20
2061.982558850038
 30
0.0
 11
1167.618664928754
 21
2061.982558850038
 31
0.0
  0
LINE
  5
29C
330
264
100
AcDbEntity
  8
P-SANR-FIXT
100
AcDbLine
 10
1167.618664928754
 20
2061.982558850038
 30
0.0
 11
1161.614353943078
 21
2061.982558850038
 31
0.0
  0
LINE
  5
29D
330
264
100
AcDbEntity
  8
P-SANR-FIXT
100
AcDbLine
 10
1202.614353943078
 20
2061.982558850038
 30
0.0
 11
1196.610042957402
 21
2061.982558850038
 31
0.0
  0
LINE
  5
29E
330
264
100
AcDbEntity
  8
P-SANR-FIXT
100
AcDbLine
 10
1196.610042957402
 20
2061.982558850038
 30
0.0
 11
1182.114353943078
 21
2061.982558850038
 31
0.0
  0
LINE
  5
29F
330
264
100
AcDbEntity
  8
P-SANR-FIXT
100
AcDbLine
 10
1146.614353943078
 20
2042.982558850011
 30
0.0
 11
1182.114353943077
 21
2042.982558850011
 31
0.0
  0
LINE
  5
2A0
330
264
100
AcDbEntity
  8
P-SANR-FIXT
100
AcDbLine
 10
1182.114353943078
 20
2042.982558850011
 30
0.0
 11
1217.614353943078
 21
2042.982558850011
 31
0.0
  0
LINE
  5
2A1
330
264
100
AcDbEntity
  8
P-SANR-FIXT
100
AcDbLine
 10
1163.490315538417
 20
2048.331923755434
 30
0.0
 11
1179.738392347754
 21
2048.331923755434
 31
0.0
  0
LINE
  5
2A2
330
264
100
AcDbEntity
  8
P-SANR-FIXT
100
AcDbLine
 10
1159.114353943077
 20
2048.331923755433
 30
0.0
 11
1161.114353943094
 21
2048.331923755433
 31
0.0
  0
LINE
  5
2A3
330
264
100
AcDbEntity
  8
P-SANR-FIXT
100
AcDbLine
 10
1203.11435394306
 20
2048.331923755434
 30
0.0
 11
1205.114353943077
 21
2048.331923755434
 31
0.0
  0
LINE
  5
2A4
330
264
100
AcDbEntity
  8
P-SANR-FIXT
100
AcDbLine
 10
1184.490315538399
 20
2048.331923755434
 30
0.0
 11
1200.738392347737
 21
2048.331923755434
 31
0.0
  0
LINE
  5
2A5
330
264
100
AcDbEntity
  8
P-SANR-FIXT
100
AcDbLine
 10
1161.614353943078
 20
2125.982558850037
 30
0.0
 11
1182.114353943078
 21
2125.982558850037
 31
0.0
  0
LINE
  5
2A6
330
264
100
AcDbEntity
  8
P-SANR-FIXT
100
AcDbLine
 10
1182.114353943078
 20
2125.982558850037
 30
0.0
 11
1202.614353943078
 21
2125.982558850037
 31
0.0
  0
LINE
  5
2A7
330
264
100
AcDbEntity
  8
P-SANR-FIXT
100
AcDbLine
 10
1169.460764104622
 20
1942.182558850011
 30
0.0
 11
1168.614165852153
 21
1941.693775121053
 31
0.0
  0
LINE
  5
2A8
330
264
100
AcDbEntity
  8
P-SANR-FIXT
100
AcDbLine
 10
1195.614542034005
 20
1941.693775121054
 30
0.0
 11
1194.767943781539
 21
1942.182558850011
 31
0.0
  0
LINE
  5
2A9
330
264
100
AcDbEntity
  8
P-SANR-FIXT
100
AcDbLine
 10
1168.614165852153
 20
1937.271342578938
 30
0.0
 11
1169.114353943081
 21
1936.982558849995
 31
0.0
  0
LINE
  5
2AA
330
264
100
AcDbEntity
  8
P-SANR-FIXT
100
AcDbLine
 10
1195.11435394308
 20
1936.982558849995
 30
0.0
 11
1195.614542034005
 21
1937.271342578936
 31
0.0
  0
LINE
  5
2AB
330
264
100
AcDbEntity
  8
P-SANR-FIXT
100
AcDbLine
 10
1182.114353943078
 20
1936.982558849994
 30
0.0
 11
1169.114353943078
 21
1936.982558849994
 31
0.0
  0
LINE
  5
2AC
330
264
100
AcDbEntity
  8
P-SANR-FIXT
100
AcDbLine
 10
1195.114353943078
 20
1936.982558849994
 30
0.0
 11
1182.114353943078
 21
1936.982558849994
 31
0.0
  0
LINE
  5
2AD
330
264
100
AcDbEntity
  8
P-SANR-FIXT
100
AcDbLine
 10
1180.510651155586
 20
1940.972195878914
 30
0.0
 11
1180.510651155586
 21
1937.992921821075
 31
0.0
  0
LINE
  5
2AE
330
264
100
AcDbEntity
  8
P-SANR-FIXT
100
AcDbLine
 10
1180.510651155586
 20
1937.992921821075
 30
0.0
 11
1182.114353943078
 21
1937.992921821075
 31
0.0
  0
LINE
  5
2AF
330
264
100
AcDbEntity
  8
P-SANR-FIXT
100
AcDbLine
 10
1182.114353943078
 20
1937.992921821075
 30
0.0
 11
1183.718056730568
 21
1937.992921821075
 31
0.0
  0
LINE
  5
2B0
330
264
100
AcDbEntity
  8
P-SANR-FIXT
100
AcDbLine
 10
1183.718056730568
 20
1940.972195878914
 30
0.0
 11
1182.114353943078
 21
1940.972195878914
 31
0.0
  0
LINE
  5
2B1
330
264
100
AcDbEntity
  8
P-SANR-FIXT
100
AcDbLine
 10
1182.114353943078
 20
1940.972195878914
 30
0.0
 11
1180.510651155586
 21
1940.972195878914
 31
0.0
  0
LINE
  5
2B2
330
264
100
AcDbEntity
  8
P-SANR-FIXT
100
AcDbLine
 10
1183.718056730568
 20
1937.992921821075
 30
0.0
 11
1183.718056730568
 21
1940.972195878914
 31
0.0
  0
SPLINE
  5
2B3
330
264
100
AcDbEntity
  8
P-SANR-FIXT
100
AcDbSpline
210
0.0
220
0.0
230
1.0
 70
     8
 71
     3
 72
     9
 73
     5
 74
     0
 42
0.000000001
 43
0.0000000001
 40
0.0
 40
0.0
 40
0.0
 40
0.0
 40
0.5
 40
1.0
 40
1.0
 40
1.0
 40
1.0
 10
1183.718056730568
 20
1937.992921821075
 30
0.0
 10
1185.462039467941
 20
1937.511831456688
 30
0.0
 10
1188.921454609487
 20
1937.030741092301
 30
0.0
 10
1192.323769084631
 20
1937.511831456687
 30
0.0
 10
1194.010651155603
 20
1937.992921821074
 30
0.0
  0
SPLINE
  5
2B4
330
264
100
AcDbEntity
  8
P-SANR-FIXT
100
AcDbSpline
210
0.0
220
0.0
230
1.0
 70
     8
 71
     3
 72
     9
 73
     5
 74
     0
 42
0.000000001
 43
0.0000000001
 40
0.0
 40
0.0
 40
0.0
 40
0.0
 40
0.5
 40
1.0
 40
1.0
 40
1.0
 40
1.0
 10
1194.010651155603
 20
1940.972195878915
 30
0.0
 10
1192.323769084631
 20
1941.453286243302
 30
0.0
 10
1188.921454609487
 20
1941.934376607688
 30
0.0
 10
1185.462039467941
 20
1941.453286243301
 30
0.0
 10
1183.718056730568
 20
1940.972195878914
 30
0.0
  0
LINE
  5
2B5
330
264
100
AcDbEntity
  8
P-SANR-FIXT
100
AcDbLine
 10
1194.010651155603
 20
1937.992921821074
 30
0.0
 11
1194.010651155603
 21
1940.972195878915
 31
0.0
  0
LINE
  5
2B6
330
264
100
AcDbEntity
  8
P-SANR-FIXT
100
AcDbLine
 10
1194.010651155603
 20
1937.992921821075
 30
0.0
 11
1195.614353943095
 21
1937.992921821075
 31
0.0
  0
LINE
  5
2B7
330
264
100
AcDbEntity
  8
P-SANR-FIXT
100
AcDbLine
 10
1195.614353943095
 20
1940.972195878914
 30
0.0
 11
1194.010651155603
 21
1940.972195878914
 31
0.0
  0
LINE
  5
2B8
330
264
100
AcDbEntity
  8
P-SANR-FIXT
100
AcDbLine
 10
1195.614353943095
 20
1937.992921821074
 30
0.0
 11
1195.614353943095
 21
1940.972195878915
 31
0.0
  0
SPLINE
  5
2B9
330
264
100
AcDbEntity
  8
P-SANR-FIXT
100
AcDbSpline
210
0.0
220
0.0
230
1.0
 70
    24
 71
     3
 72
     8
 73
     4
 74
     0
 42
0.000000001
 43
0.0000000001
 40
0.0
 40
0.0
 40
0.0
 40
0.0
 40
0.5
 40
0.5
 40
0.5
 40
0.5
 10
1195.614353943095
 20
1937.992921821074
 30
0.0
 10
1195.614353943095
 20
1937.511831456687
 30
0.0
 10
1195.614353943095
 20
1937.271286274494
 30
0.0
 10
1195.614353943095
 20
1937.271286274494
 30
0.0
  0
SPLINE
  5
2BA
330
264
100
AcDbEntity
  8
P-SANR-FIXT
100
AcDbSpline
210
0.0
220
0.0
230
1.0
 70
    24
 71
     3
 72
     8
 73
     4
 74
     0
 42
0.000000001
 43
0.0000000001
 40
0.5
 40
0.5
 40
0.5
 40
0.5
 40
1.0
 40
1.0
 40
1.0
 40
1.0
 10
1195.614353943095
 20
1941.693831425495
 30
0.0
 10
1195.614353943095
 20
1941.693831425495
 30
0.0
 10
1195.614353943095
 20
1941.453286243302
 30
0.0
 10
1195.614353943095
 20
1940.972195878915
 30
0.0
  0
SPLINE
  5
2BB
330
264
100
AcDbEntity
  8
P-SANR-FIXT
100
AcDbSpline
210
0.0
220
0.0
230
1.0
 70
    24
 71
     3
 72
     9
 73
     5
 74
     0
 42
0.000000001
 43
0.0000000001
 40
0.4955834579152974
 40
0.4955834579152974
 40
0.4955834579152974
 40
0.4955834579152974
 40
0.5
 40
1.0
 40
1.0
 40
1.0
 40
1.0
 10
1168.614353943059
 20
1937.271342578936
 30
0.0
 10
1168.614353943059
 20
1937.271305042642
 30
0.0
 10
1168.614353943059
 20
1937.269161518655
 30
0.0
 10
1168.614353943059
 20
1937.511831456682
 30
0.0
 10
1168.614353943059
 20
1937.992921821076
 30
0.0
  0
SPLINE
  5
2BC
330
264
100
AcDbEntity
  8
P-SANR-FIXT
100
AcDbSpline
210
0.0
220
0.0
230
1.0
 70
    24
 71
     3
 72
     9
 73
     5
 74
     0
 42
0.000000001
 43
0.0000000001
 40
0.0
 40
0.0
 40
0.0
 40
0.0
 40
0.5
 40
0.5044165420847025
 40
0.5044165420847025
 40
0.5044165420847025
 40
0.5044165420847025
 10
1168.614353943059
 20
1940.972195878913
 30
0.0
 10
1168.614353943059
 20
1941.4532862433
 30
0.0
 10
1168.614353943059
 20
1941.695956181334
 30
0.0
 10
1168.614353943059
 20
1941.693812657346
 30
0.0
 10
1168.614353943059
 20
1941.693775121052
 30
0.0
  0
LINE
  5
2BD
330
264
100
AcDbEntity
  8
P-SANR-FIXT
100
AcDbLine
 10
1168.614353943059
 20
1937.992921821076
 30
0.0
 11
1168.614353943059
 21
1940.972195878913
 31
0.0
  0
LINE
  5
2BE
330
264
100
AcDbEntity
  8
P-SANR-FIXT
100
AcDbLine
 10
1168.614353943059
 20
1937.992921821075
 30
0.0
 11
1170.218056730548
 21
1937.992921821075
 31
0.0
  0
LINE
  5
2BF
330
264
100
AcDbEntity
  8
P-SANR-FIXT
100
AcDbLine
 10
1170.218056730549
 20
1940.972195878914
 30
0.0
 11
1168.614353943059
 21
1940.972195878914
 31
0.0
  0
SPLINE
  5
2C0
330
264
100
AcDbEntity
  8
P-SANR-FIXT
100
AcDbSpline
210
0.0
220
0.0
230
1.0
 70
     8
 71
     3
 72
     9
 73
     5
 74
     0
 42
0.000000001
 43
0.0000000001
 40
0.0
 40
0.0
 40
0.0
 40
0.0
 40
0.5
 40
1.0
 40
1.0
 40
1.0
 40
1.0
 10
1180.510651155586
 20
1940.972195878914
 30
0.0
 10
1178.766668418212
 20
1941.453286243301
 30
0.0
 10
1175.307253276666
 20
1941.934376607687
 30
0.0
 10
1171.904938801521
 20
1941.4532862433
 30
0.0
 10
1170.218056730548
 20
1940.972195878913
 30
0.0
  0
LINE
  5
2C1
330
264
100
AcDbEntity
  8
P-SANR-FIXT
100
AcDbLine
 10
1170.218056730548
 20
1937.992921821076
 30
0.0
 11
1170.218056730548
 21
1940.972195878913
 31
0.0
  0
SPLINE
  5
2C2
330
264
100
AcDbEntity
  8
P-SANR-FIXT
100
AcDbSpline
210
0.0
220
0.0
230
1.0
 70
     8
 71
     3
 72
     9
 73
     5
 74
     0
 42
0.000000001
 43
0.0000000001
 40
0.0
 40
0.0
 40
0.0
 40
0.0
 40
0.5
 40
1.0
 40
1.0
 40
1.0
 40
1.0
 10
1170.218056730548
 20
1937.992921821076
 30
0.0
 10
1171.904938801521
 20
1937.511831456689
 30
0.0
 10
1175.307253276666
 20
1937.030741092302
 30
0.0
 10
1178.766668418212
 20
1937.511831456689
 30
0.0
 10
1180.510651155586
 20
1937.992921821075
 30
0.0
  0
LINE
  5
2C3
330
264
100
AcDbEntity
  8
P-SANR-FIXT
100
AcDbLine
 10
1162.194332894696
 20
2129.982558850059
 30
0.0
 11
1161.614353943081
 21
2129.402579898444
 31
0.0
  0
LINE
  5
2C4
330
264
100
AcDbEntity
  8
P-SANR-FIXT
100
AcDbLine
 10
1202.61435394308
 20
2129.402579898444
 30
0.0
 11
1202.034374991465
 21
2129.982558850059
 31
0.0
  0
LINE
  5
2C5
330
264
100
AcDbEntity
  8
P-SANR-FIXT
100
AcDbLine
 10
1161.614353943081
 20
2129.402579898444
 30
0.0
 11
1161.614353943081
 21
2126.48255885006
 31
0.0
  0
LINE
  5
2C6
330
264
100
AcDbEntity
  8
P-SANR-FIXT
100
AcDbLine
 10
1202.61435394308
 20
2126.48255885006
 30
0.0
 11
1202.61435394308
 21
2129.402579898444
 31
0.0
  0
LINE
  5
2C7
330
264
100
AcDbEntity
  8
P-SANR-FIXT
100
AcDbLine
 10
1161.614353943081
 20
2126.48255885006
 30
0.0
 11
1162.254324759206
 21
2125.982558850038
 31
0.0
  0
LINE
  5
2C8
330
264
100
AcDbEntity
  8
P-SANR-FIXT
100
AcDbLine
 10
1201.974383126956
 20
2125.982558850038
 30
0.0
 11
1202.61435394308
 21
2126.48255885006
 31
0.0
  0
LINE
  5
2C9
330
264
100
AcDbEntity
  8
P-SANR-FIXT
100
AcDbLine
 10
1182.114353943078
 20
2129.982558850057
 30
0.0
 11
1162.194332894693
 21
2129.982558850057
 31
0.0
  0
LINE
  5
2CA
330
264
100
AcDbEntity
  8
P-SANR-FIXT
100
AcDbLine
 10
1202.034374991463
 20
2129.982558850057
 30
0.0
 11
1182.114353943078
 21
2129.982558850057
 31
0.0
  0
LINE
  5
2CB
330
264
100
AcDbEntity
  8
P-SANR-FIXT
100
AcDbLine
 10
1161.614353943079
 20
2129.402579898443
 30
0.0
 11
1182.114353943078
 21
2129.402579898443
 31
0.0
  0
LINE
  5
2CC
330
264
100
AcDbEntity
  8
P-SANR-FIXT
100
AcDbLine
 10
1182.114353943078
 20
2129.402579898443
 30
0.0
 11
1202.614353943077
 21
2129.402579898443
 31
0.0
  0
LINE
  5
2CD
330
264
100
AcDbEntity
  8
P-SANR-FIXT
100
AcDbLine
 10
1161.614353943079
 20
2126.482558850059
 30
0.0
 11
1182.114353943078
 21
2126.482558850059
 31
0.0
  0
LINE
  5
2CE
330
264
100
AcDbEntity
  8
P-SANR-FIXT
100
AcDbLine
 10
1182.114353943078
 20
2126.482558850059
 30
0.0
 11
1202.614353943077
 21
2126.482558850059
 31
0.0
  0
ARC
  5
2CF
330
264
100
AcDbEntity
  8
P-SANR-FIXT
100
AcDbCircle
 10
1182.114353943078
 20
1999.982558850011
 30
0.0
 40
23.55355591379902
100
AcDbArc
 50
90.00000000000028
 51
269.9999999999988
  0
ARC
  5
2D0
330
264
100
AcDbEntity
  8
P-SANR-FIXT
100
AcDbCircle
 10
1182.114353943078
 20
1999.982558850011
 30
0.0
 40
23.55355591379935
100
AcDbArc
 50
269.9999999999994
 51
89.99999999999973
  0
ARC
  5
2D1
330
264
100
AcDbEntity
  8
P-SANR-FIXT
100
AcDbCircle
 10
1182.114353943078
 20
1999.982558850011
 30
0.0
 40
26.99999999991296
100
AcDbArc
 50
239.8676959381708
 51
239.9999999999995
  0
ARC
  5
2D2
330
264
100
AcDbEntity
  8
P-SANR-FIXT
100
AcDbCircle
 10
1182.114353943078
 20
1999.982558850011
 30
0.0
 40
26.99999999991292
100
AcDbArc
 50
179.8710310134875
 51
179.9999999999995
  0
ARC
  5
2D3
330
264
100
AcDbEntity
  8
P-SANR-FIXT
100
AcDbCircle
 10
1182.114353943078
 20
1999.982558850011
 30
0.0
 40
26.99999999991304
100
AcDbArc
 50
119.874202084105
 51
119.9999999999996
  0
ARC
  5
2D4
330
264
100
AcDbEntity
  8
P-SANR-FIXT
100
AcDbCircle
 10
1182.114353943078
 20
1999.982558850011
 30
0.0
 40
26.99999999991311
100
AcDbArc
 50
59.86769593778284
 51
59.99999999999822
  0
ARC
  5
2D5
330
264
100
AcDbEntity
  8
P-SANR-FIXT
100
AcDbCircle
 10
1182.114353943078
 20
1999.982558850011
 30
0.0
 40
26.9999999999128
100
AcDbArc
 50
359.8710310134841
 51
359.9999999999984
  0
ARC
  5
2D6
330
264
100
AcDbEntity
  8
P-SANR-FIXT
100
AcDbCircle
 10
1182.114353943078
 20
1999.982558850011
 30
0.0
 40
26.99999999991282
100
AcDbArc
 50
299.8742020844737
 51
299.9999999999985
  0
SPLINE
  5
2D7
330
264
100
AcDbEntity
  8
P-SANR-FIXT
100
AcDbSpline
210
0.0
220
0.0
230
1.0
 70
     8
 71
     3
 72
    10
 73
     6
 74
     0
 42
0.000000001
 43
0.0000000001
 40
0.0
 40
0.0
 40
0.0
 40
0.0
 40
0.4
 40
0.7
 40
1.0
 40
1.0
 40
1.0
 40
1.0
 10
1205.364353943129
 20
2017.736079627576
 30
0.0
 10
1206.256816651685
 20
2017.220816042549
 30
0.0
 10
1207.656570010521
 20
2015.973248611031
 30
0.0
 10
1208.872458040734
 20
2013.580989154784
 30
0.0
 10
1209.114353943129
 20
2012.015377609733
 30
0.0
 10
1209.114353943129
 20
2011.240889099193
 30
0.0
  0
SPLINE
  5
2D8
330
264
100
AcDbEntity
  8
P-SANR-FIXT
100
AcDbSpline
210
0.0
220
0.0
230
1.0
 70
    24
 71
     3
 72
     9
 73
     5
 74
     0
 42
0.000000001
 43
0.0000000001
 40
0.0
 40
0.0
 40
0.0
 40
0.0
 40
0.5
 40
1.0
 40
1.0
 40
1.0
 40
1.0
 10
1209.114353943129
 20
2011.240889099193
 30
0.0
 10
1209.114353943129
 20
2007.447646953345
 30
0.0
 10
1209.114353943128
 20
1999.90162805777
 30
0.0
 10
1209.114353943128
 20
1992.436539954434
 30
0.0
 10
1209.114353943128
 20
1988.724228600826
 30
0.0
  0
SPLINE
  5
2D9
330
264
100
AcDbEntity
  8
P-SANR-FIXT
100
AcDbSpline
210
0.0
220
0.0
230
1.0
 70
     8
 71
     3
 72
    10
 73
     6
 74
     0
 42
0.000000001
 43
0.0000000001
 40
0.0
 40
0.0
 40
0.0
 40
0.0
 40
0.4
 40
0.7
 40
1.0
 40
1.0
 40
1.0
 40
1.0
 10
1209.114353943128
 20
1988.724228600826
 30
0.0
 10
1209.114353943128
 20
1987.69157725344
 30
0.0
 10
1208.733011551875
 20
1985.855809299074
 30
0.0
 10
1207.268232384435
 20
1983.606575193306
 30
0.0
 10
1206.033700974545
 20
1982.615485761213
 30
0.0
 10
1205.364353943128
 20
1982.229038072443
 30
0.0
  0
SPLINE
  5
2DA
330
264
100
AcDbEntity
  8
P-SANR-FIXT
100
AcDbSpline
210
0.0
220
0.0
230
1.0
 70
    24
 71
     3
 72
     9
 73
     5
 74
     0
 42
0.000000001
 43
0.0000000001
 40
0.0
 40
0.0
 40
0.0
 40
0.0
 40
0.5
 40
1.0
 40
1.0
 40
1.0
 40
1.0
 10
1205.364353943128
 20
1982.229038072443
 30
0.0
 10
1202.079309882119
 20
1980.33241699952
 30
0.0
 10
1195.544265821115
 20
1976.559407551733
 30
0.0
 10
1189.079309882136
 20
1972.826863500065
 30
0.0
 10
1185.864353943153
 20
1970.97070782326
 30
0.0
  0
SPLINE
  5
2DB
330
264
100
AcDbEntity
  8
P-SANR-FIXT
100
AcDbSpline
210
0.0
220
0.0
230
1.0
 70
     8
 71
     3
 72
     9
 73
     5
 74
     0
 42
0.000000001
 43
0.0000000001
 40
0.0
 40
0.0
 40
0.0
 40
0.0
 40
0.5
 40
1.0
 40
1.0
 40
1.0
 40
1.0
 10
1185.864353943153
 20
1970.970707823261
 30
0.0
 10
1185.305189349108
 20
1970.647873994367
 30
0.0
 10
1184.095140935027
 20
1970.142902476939
 30
0.0
 10
1182.777683224311
 20
1969.965898351637
 30
0.0
 10
1182.114353943077
 20
1969.965898351644
 30
0.0
  0
SPLINE
  5
2DC
330
264
100
AcDbEntity
  8
P-SANR-FIXT
100
AcDbSpline
210
0.0
220
0.0
230
1.0
 70
     8
 71
     3
 72
     9
 73
     5
 74
     0
 42
0.000000001
 43
0.0000000001
 40
0.0
 40
0.0
 40
0.0
 40
0.0
 40
0.5
 40
1.0
 40
1.0
 40
1.0
 40
1.0
 10
1182.114353943077
 20
1969.965898351644
 30
0.0
 10
1181.45102466187
 20
1969.965898351651
 30
0.0
 10
1180.133566951209
 20
1970.142902476965
 30
0.0
 10
1178.923518537178
 20
1970.64787399438
 30
0.0
 10
1178.364353943154
 20
1970.970707823261
 30
0.0
  0
SPLINE
  5
2DD
330
264
100
AcDbEntity
  8
P-SANR-FIXT
100
AcDbSpline
210
0.0
220
0.0
230
1.0
 70
    24
 71
     3
 72
     9
 73
     5
 74
     0
 42
0.000000001
 43
0.0000000001
 40
0.0
 40
0.0
 40
0.0
 40
0.0
 40
0.5
 40
1.0
 40
1.0
 40
1.0
 40
1.0
 10
1178.364353943154
 20
1970.970707823261
 30
0.0
 10
1175.079309882145
 20
1972.867328896184
 30
0.0
 10
1168.54426582114
 20
1976.640338343971
 30
0.0
 10
1162.079309882162
 20
1980.37288239564
 30
0.0
 10
1158.864353943179
 20
1982.229038072444
 30
0.0
  0
SPLINE
  5
2DE
330
264
100
AcDbEntity
  8
P-SANR-FIXT
100
AcDbSpline
210
0.0
220
0.0
230
1.0
 70
     8
 71
     3
 72
    10
 73
     6
 74
     0
 42
0.000000001
 43
0.0000000001
 40
0.0
 40
0.0
 40
0.0
 40
0.0
 40
0.4
 40
0.7
 40
1.0
 40
1.0
 40
1.0
 40
1.0
 10
1158.864353943179
 20
1982.229038072444
 30
0.0
 10
1157.97005164309
 20
1982.745363746138
 30
0.0
 10
1156.570901154782
 20
1983.993499921685
 30
0.0
 10
1155.355396863849
 20
1986.386652944507
 30
0.0
 10
1155.114353943179
 20
1987.951333223288
 30
0.0
 10
1155.114353943179
 20
1988.724228600828
 30
0.0
  0
SPLINE
  5
2DF
330
264
100
AcDbEntity
  8
P-SANR-FIXT
100
AcDbSpline
210
0.0
220
0.0
230
1.0
 70
    24
 71
     3
 72
     9
 73
     5
 74
     0
 42
0.000000001
 43
0.0000000001
 40
0.0
 40
0.0
 40
0.0
 40
0.0
 40
0.5
 40
1.0
 40
1.0
 40
1.0
 40
1.0
 10
1155.114353943179
 20
1988.724228600828
 30
0.0
 10
1155.114353943179
 20
1992.517470746675
 30
0.0
 10
1155.11435394318
 20
2000.063489642249
 30
0.0
 10
1155.11435394318
 20
2007.528577745585
 30
0.0
 10
1155.11435394318
 20
2011.240889099194
 30
0.0
  0
SPLINE
  5
2E0
330
264
100
AcDbEntity
  8
P-SANR-FIXT
100
AcDbSpline
210
0.0
220
0.0
230
1.0
 70
     8
 71
     3
 72
    10
 73
     6
 74
     0
 42
0.000000001
 43
0.0000000001
 40
0.0
 40
0.0
 40
0.0
 40
0.0
 40
0.4
 40
0.7
 40
1.0
 40
1.0
 40
1.0
 40
1.0
 10
1155.11435394318
 20
2011.240889099194
 30
0.0
 10
1155.11435394318
 20
2012.27354044658
 30
0.0
 10
1155.495696334432
 20
2014.109308400946
 30
0.0
 10
1156.960475501872
 20
2016.358542506714
 30
0.0
 10
1158.195006911763
 20
2017.349631938807
 30
0.0
 10
1158.86435394318
 20
2017.736079627577
 30
0.0
  0
SPLINE
  5
2E1
330
264
100
AcDbEntity
  8
P-SANR-FIXT
100
AcDbSpline
210
0.0
220
0.0
230
1.0
 70
    24
 71
     3
 72
     9
 73
     5
 74
     0
 42
0.000000001
 43
0.0000000001
 40
0.0
 40
0.0
 40
0.0
 40
0.0
 40
0.5
 40
1.0
 40
1.0
 40
1.0
 40
1.0
 10
1158.86435394318
 20
2017.736079627577
 30
0.0
 10
1162.14939800419
 20
2019.632700700501
 30
0.0
 10
1168.684442065195
 20
2023.405710148288
 30
0.0
 10
1175.149398004173
 20
2027.138254199956
 30
0.0
 10
1178.364353943155
 20
2028.99440987676
 30
0.0
  0
SPLINE
  5
2E2
330
264
100
AcDbEntity
  8
P-SANR-FIXT
100
AcDbSpline
210
0.0
220
0.0
230
1.0
 70
     8
 71
     3
 72
     9
 73
     5
 74
     0
 42
0.000000001
 43
0.0000000001
 40
0.0
 40
0.0
 40
0.0
 40
0.0
 40
0.5
 40
1.0
 40
1.0
 40
1.0
 40
1.0
 10
1178.364353943155
 20
2028.99440987676
 30
0.0
 10
1178.92351853718
 20
2029.317243705641
 30
0.0
 10
1180.13356695121
 20
2029.822215223055
 30
0.0
 10
1181.451024661871
 20
2029.999219348369
 30
0.0
 10
1182.114353943078
 20
2029.999219348376
 30
0.0
  0
SPLINE
  5
2E3
330
264
100
AcDbEntity
  8
P-SANR-FIXT
100
AcDbSpline
210
0.0
220
0.0
230
1.0
 70
     8
 71
     3
 72
     9
 73
     5
 74
     0
 42
0.000000001
 43
0.0000000001
 40
0.0
 40
0.0
 40
0.0
 40
0.0
 40
0.5
 40
1.0
 40
1.0
 40
1.0
 40
1.0
 10
1182.114353943078
 20
2029.999219348376
 30
0.0
 10
1182.777683224311
 20
2029.999219348383
 30
0.0
 10
1184.095140935028
 20
2029.822215223081
 30
0.0
 10
1185.305189349109
 20
2029.317243705653
 30
0.0
 10
1185.864353943155
 20
2028.994409876759
 30
0.0
  0
SPLINE
  5
2E4
330
264
100
AcDbEntity
  8
P-SANR-FIXT
100
AcDbSpline
210
0.0
220
0.0
230
1.0
 70
    24
 71
     3
 72
     9
 73
     5
 74
     0
 42
0.000000001
 43
0.0000000001
 40
0.0
 40
0.0
 40
0.0
 40
0.0
 40
0.5
 40
1.0
 40
1.0
 40
1.0
 40
1.0
 10
1185.864353943155
 20
2028.994409876759
 30
0.0
 10
1189.149398004164
 20
2027.097788803835
 30
0.0
 10
1195.68444206517
 20
2023.324779356048
 30
0.0
 10
1202.149398004147
 20
2019.59223530438
 30
0.0
 10
1205.364353943129
 20
2017.736079627576
 30
0.0
  0
ARC
  5
2E5
330
264
100
AcDbEntity
  8
P-SANR-FIXT
100
AcDbCircle
 10
1182.114353943077
 20
1999.982558850011
 30
0.0
 40
20.3499999999558
100
AcDbArc
 50
90.0
 51
269.9999999999997
  0
ARC
  5
2E6
330
264
100
AcDbEntity
  8
P-SANR-FIXT
100
AcDbCircle
 10
1182.114353943077
 20
1999.982558850011
 30
0.0
 40
20.34999999995603
100
AcDbArc
 50
269.9999999999997
 51
89.99999999999936
  0
ARC
  5
2E7
330
264
100
AcDbEntity
  8
P-SANR-FIXT
100
AcDbCircle
 10
1182.114353943077
 20
1999.982558850011
 30
0.0
 40
20.94999999995616
100
AcDbArc
 50
90.0
 51
269.9999999999997
  0
ARC
  5
2E8
330
264
100
AcDbEntity
  8
P-SANR-FIXT
100
AcDbCircle
 10
1182.114353943077
 20
1999.982558850011
 30
0.0
 40
20.94999999995639
100
AcDbArc
 50
270.0000000000002
 51
90.0
  0
LINE
  5
2E9
330
264
100
AcDbEntity
  8
P-SANR-FIXT
100
AcDbLine
 10
1166.639997287721
 20
1949.126230490276
 30
0.0
 11
1167.757348548993
 21
1942.789416596103
 31
0.0
  0
LINE
  5
2EA
330
264
100
AcDbEntity
  8
P-SANR-FIXT
100
AcDbLine
 10
1196.471359337168
 20
1942.789416596103
 30
0.0
 11
1197.588710598439
 21
1949.126230490276
 31
0.0
  0
LINE
  5
2EB
330
264
100
AcDbEntity
  8
P-SANR-FIXT
100
AcDbLine
 10
1155.11435394308
 20
1982.178711272718
 30
0.0
 11
1155.11435394308
 21
1961.182558850011
 31
0.0
  0
LINE
  5
2EC
330
264
100
AcDbEntity
  8
P-SANR-FIXT
100
AcDbLine
 10
1209.11435394308
 20
1961.182558850011
 30
0.0
 11
1209.11435394308
 21
1982.178711272718
 31
0.0
  0
LINE
  5
2ED
330
264
100
AcDbEntity
  8
P-SANR-FIXT
100
AcDbLine
 10
1152.516277731727
 20
1987.482558850011
 30
0.0
 11
1154.712430154434
 21
1983.678711272718
 31
0.0
  0
LINE
  5
2EE
330
264
100
AcDbEntity
  8
P-SANR-FIXT
100
AcDbLine
 10
1209.516277731727
 20
1983.678711272718
 30
0.0
 11
1211.712430154434
 21
1987.482558850011
 31
0.0
  0
LINE
  5
2EF
330
264
100
AcDbEntity
  8
P-SANR-FIXT
100
AcDbLine
 10
1152.11435394308
 20
2009.482558850011
 30
0.0
 11
1152.11435394308
 21
1988.982558850011
 31
0.0
  0
LINE
  5
2F0
330
264
100
AcDbEntity
  8
P-SANR-FIXT
100
AcDbLine
 10
1212.114353943081
 20
1988.982558850011
 30
0.0
 11
1212.114353943081
 21
2009.482558850011
 31
0.0
  0
LINE
  5
2F1
330
264
100
AcDbEntity
  8
P-SANR-FIXT
100
AcDbLine
 10
1146.11435394308
 20
2042.482558850012
 30
0.0
 11
1146.11435394308
 21
2015.482558850012
 31
0.0
  0
LINE
  5
2F2
330
264
100
AcDbEntity
  8
P-SANR-FIXT
100
AcDbLine
 10
1218.114353943081
 20
2015.482558850012
 30
0.0
 11
1218.114353943081
 21
2042.482558850012
 31
0.0
  0
LINE
  5
2F3
330
264
100
AcDbEntity
  8
P-SANR-FIXT
100
AcDbLine
 10
1146.61435394308
 20
2042.982558850011
 30
0.0
 11
1146.11435394308
 21
2042.482558850012
 31
0.0
  0
LINE
  5
2F4
330
264
100
AcDbEntity
  8
P-SANR-FIXT
100
AcDbLine
 10
1218.114353943081
 20
2042.482558850012
 30
0.0
 11
1217.614353943081
 21
2042.982558850011
 31
0.0
  0
LWPOLYLINE
  5
2F5
330
264
100
AcDbEntity
  8
P-SANR-FIXT
100
AcDbPolyline
 90
       34
 70
   128
 43
0.0
 10
1166.639997287721
 20
1949.126230490276
 10
1166.601338206874
 20
1949.322445021897
 10
1166.554863560691
 20
1949.516956651917
 10
1166.500647698691
 20
1949.709454203224
 10
1166.438777354689
 20
1949.899629720796
 10
1166.369351508037
 20
1950.087178964377
 10
1166.292481225279
 20
1950.271801895184
 10
1166.20828948247
 20
1950.453203155913
 10
1166.116910968438
 20
1950.631092543242
 10
1166.018491869312
 20
1950.8051854721
 10
1165.913189634657
 20
1950.975203430939
 10
1165.801172725584
 20
1951.140874427293
 10
1165.682620345252
 20
1951.301933422908
 10
1165.55772215218
 20
1951.45812275775
 10
1165.426677956833
 20
1951.609192562202
 10
1165.289697401969
 20
1951.754901156802
 10
1165.146999627256
 20
1951.895015438882
 10
1164.998812918692
 20
1952.029311255482
 10
1164.845374343399
 20
1952.15757376194
 10
1164.686929370366
 20
1952.27959776561
 10
1164.523731477749
 20
1952.395188054116
 10
1164.356041747365
 20
1952.504159707653
 10
1164.184128447008
 20
1952.606338394822
 10
1164.008266601288
 20
1952.701560651521
 10
1163.828737551641
 20
1952.789674142452
 10
1163.64582850625
 20
1952.870537904826
 10
1163.459832080569
 20
1952.944022573873
 10
1163.271045829201
 20
1953.010010589799
 10
1163.079771769878
 20
1953.068396385855
 10
1162.886315900291
 20
1953.119086557221
 10
1162.690987708562
 20
1953.162000010438
 10
1162.494099678131
 20
1953.197068093135
 10
1162.295966787845
 20
1953.224234703859
 10
1162.25380291513
 20
1953.228977774276
  0
LWPOLYLINE
  5
2F6
330
264
100
AcDbEntity
  8
P-SANR-FIXT
100
AcDbPolyline
 90
       34
 70
   128
 43
0.0
 10
1201.974904971031
 20
1953.228977774276
 10
1201.776548681917
 20
1953.203493474798
 10
1201.579370156846
 20
1953.170097424108
 10
1201.383684839395
 20
1953.128843048762
 10
1201.189805784327
 20
1953.079796346962
 10
1200.998043156774
 20
1953.023035782967
 10
1200.808703736032
 20
1952.958652161571
 10
1200.622090424783
 20
1952.886748482835
 10
1200.438501764517
 20
1952.807439777305
 10
1200.258231457927
 20
1952.720852921992
 10
1200.081567899047
 20
1952.627126437393
 10
1199.908793711887
 20
1952.526410265891
 10
1199.740185298288
 20
1952.418865531874
 10
1199.576012395745
 20
1952.304664283976
 10
1199.416537645879
 20
1952.183989219831
 10
1199.262016174272
 20
1952.057033393798
 10
1199.112695182315
 20
1951.923999908119
 10
1198.968813551741
 20
1951.78510158799
 10
1198.830601462467
 20
1951.640560641094
 10
1198.698280024352
 20
1951.490608302112
 10
1198.572060923469
 20
1951.335484462799
 10
1198.452146083455
 20
1951.175437288205
 10
1198.338727342473
 20
1951.010722819668
 10
1198.231986146314
 20
1950.841604565202
 10
1198.132093258122
 20
1950.668353077936
 10
1198.039208485208
 20
1950.491245523293
 10
1197.953480423396
 20
1950.310565235577
 10
1197.875046219295
 20
1950.126601264707
 10
1197.804031350901
 20
1949.939647913793
 10
1197.740549426854
 20
1949.750004268315
 10
1197.684702004691
 20
1949.557973717649
 10
1197.636578428373
 20
1949.363863469714
 10
1197.596255685357
 20
1949.167984059497
 10
1197.588710598439
 20
1949.126230490276
  0
LWPOLYLINE
  5
2F7
330
264
100
AcDbEntity
  8
P-SANR-FIXT
100
AcDbPolyline
 90
       38
 70
   128
 43
0.0
 10
1162.25380291513
 20
1953.228977774276
 10
1161.936432852547
 20
1953.269752653442
 10
1161.620947212433
 20
1953.323186334546
 10
1161.307850704511
 20
1953.389193335098
 10
1160.997644216403
 20
1953.467668057979
 10
1160.690824012319
 20
1953.558484960371
 10
1160.387880939131
 20
1953.661498754604
 10
1160.089299641133
 20
1953.776544640582
 10
1159.795557784707
 20
1953.90343856943
 10
1159.507125294163
 20
1954.041977537931
 10
1159.224463599956
 20
1954.191939913289
 10
1158.948024900499
 20
1954.353085787692
 10
1158.67825143874
 20
1954.525157362119
 10
1158.415574794671
 20
1954.707879358757
 10
1158.160415194886
 20
1954.900959461389
 10
1157.913180840314
 20
1955.10408878304
 10
1157.674267253183
 20
1955.316942360127
 10
1157.444056644266
 20
1955.539179672333
 10
1157.222917301427
 20
1955.770445187367
 10
1157.011203000442
 20
1956.010368929738
 10
1156.80925243903
 20
1956.25856707264
 10
1156.617388695007
 20
1956.51464255199
 10
1156.435918709436
 20
1956.778185701649
 10
1156.265132795582
 20
1957.048774908794
 10
1156.105304174475
 20
1957.325977288419
 10
1155.956688537813
 20
1957.609349375849
 10
1155.819523638913
 20
1957.898437836194
 10
1155.694028912352
 20
1958.192780189586
 10
1155.580405122921
 20
1958.491905551049
 10
1155.478834044446
 20
1958.795335383814
 10
1155.389478168985
 20
1959.102584264879
 10
1155.312480446877
 20
1959.413160661576
 10
1155.247964058052
 20
1959.726567717922
 10
1155.196032214969
 20
1960.042304049485
 10
1155.1567679975
 20
1960.359864545488
 10
1155.130234220015
 20
1960.678741176879
 10
1155.1164733309
 20
1960.998423809071
 10
1155.114353943081
 20
1961.182558850011
  0
LWPOLYLINE
  5
2F8
330
264
100
AcDbEntity
  8
P-SANR-FIXT
100
AcDbPolyline
 90
       38
 70
   128
 43
0.0
 10
1209.11435394308
 20
1961.182558850011
 10
1209.107954796368
 20
1960.862644176518
 10
1209.088767593501
 20
1960.543241298258
 10
1209.056823029911
 20
1960.2248611917
 10
1209.012172210085
 20
1959.908013197097
 10
1208.95488656581
 20
1959.593204203651
 10
1208.885057741897
 20
1959.280937838594
 10
1208.802797449566
 20
1958.971713661498
 10
1208.70823728774
 20
1958.666026365082
 10
1208.601528532504
 20
1958.36436498381
 10
1208.482841895104
 20
1958.067212111542
 10
1208.35236724884
 20
1957.775043129483
 10
1208.210313325315
 20
1957.48832544568
 10
1208.056907380502
 20
1957.207517747261
 10
1207.892394831188
 20
1956.933069266644
 10
1207.717038862358
 20
1956.665419062851
 10
1207.531120006155
 20
1956.404995319112
 10
1207.334935693088
 20
1956.152214657863
 10
1207.128799776208
 20
1955.907481474239
 10
1206.913042029008
 20
1955.671187289127
 10
1206.688007617858
 20
1955.443710122815
 10
1206.454056549811
 20
1955.225413890244
 10
1206.211563096669
 20
1955.016647818819
 10
1205.960915196228
 20
1954.817745889721
 10
1205.70251383166
 20
1954.629026303603
 10
1205.436772390025
 20
1954.450790971548
 10
1205.164116000943
 20
1954.283325032065
 10
1204.88498085647
 20
1954.126896394932
 10
1204.599813513294
 20
1953.981755312599
 10
1204.309070178331
 20
1953.848133979837
 10
1204.013215978894
 20
1953.726246162274
 10
1203.71272421859
 20
1953.616286854415
 10
1203.408075620136
 20
1953.518431967697
 10
1203.099757556299
 20
1953.432838049065
 10
1202.788263270212
 20
1953.359642030529
 10
1202.474091086283
 20
1953.298961010103
 10
1202.157743612986
 20
1953.250892064478
 10
1201.974904971031
 20
1953.228977774276
  0
LWPOLYLINE
  5
2F9
330
264
100
AcDbEntity
  8
P-SANR-FIXT
100
AcDbPolyline
 90
       15
 70
   128
 43
0.0
 10
1155.114353943081
 20
1982.178711272718
 10
1155.111954263064
 20
1982.298679275278
 10
1155.104759061988
 20
1982.418455354626
 10
1155.092779850642
 20
1982.537847894585
 10
1155.076035793207
 20
1982.656665892561
 10
1155.054553676604
 20
1982.774719265103
 10
1155.028367867637
 20
1982.891819151999
 10
1154.997520258013
 20
1983.00777821841
 10
1154.962060197328
 20
1983.122410954566
 10
1154.922044414115
 20
1983.235533972543
 10
1154.87753692509
 20
1983.346966299644
 10
1154.82860893274
 20
1983.456529667916
 10
1154.775338711419
 20
1983.564048799342
 10
1154.717811482114
 20
1983.669351686249
 10
1154.712430154434
 20
1983.678711272718
  0
LWPOLYLINE
  5
2FA
330
264
100
AcDbEntity
  8
P-SANR-FIXT
100
AcDbPolyline
 90
       15
 70
   128
 43
0.0
 10
1209.516277731727
 20
1983.678711272718
 10
1209.458371914303
 20
1983.573616094851
 10
1209.404715101546
 20
1983.466289366833
 10
1209.355393132909
 20
1983.356902788533
 10
1209.310484913022
 20
1983.245631355141
 10
1209.270062285456
 20
1983.132653077216
 10
1209.234189917793
 20
1983.018148695899
 10
1209.202925198168
 20
1982.902301393776
 10
1209.176318143462
 20
1982.785296501818
 10
1209.15441131929
 20
1982.66732120289
 10
1209.137239771893
 20
1982.548564232305
 10
1209.124830972088
 20
1982.429215575884
 10
1209.117204771305
 20
1982.309466166014
 10
1209.114373369838
 20
1982.189507576208
 10
1209.114353943081
 20
1982.178711272718
  0
LWPOLYLINE
  5
2FB
330
264
100
AcDbEntity
  8
P-SANR-FIXT
100
AcDbPolyline
 90
       15
 70
   128
 43
0.0
 10
1152.516277731727
 20
1987.482558850011
 10
1152.458371914303
 20
1987.587654027878
 10
1152.404715101545
 20
1987.694980755896
 10
1152.355393132909
 20
1987.804367334197
 10
1152.310484913022
 20
1987.915638767588
 10
1152.270062285456
 20
1988.028617045514
 10
1152.234189917793
 20
1988.14312142683
 10
1152.202925198167
 20
1988.258968728953
 10
1152.176318143462
 20
1988.375973620912
 10
1152.154411319289
 20
1988.493948919839
 10
1152.137239771893
 20
1988.612705890424
 10
1152.124830972087
 20
1988.732054546846
 10
1152.117204771304
 20
1988.851803956715
 10
1152.114373369838
 20
1988.97176254652
 10
1152.114353943081
 20
1988.982558850011
  0
LWPOLYLINE
  5
2FC
330
264
100
AcDbEntity
  8
P-SANR-FIXT
100
AcDbPolyline
 90
       15
 70
   128
 43
0.0
 10
1212.11435394308
 20
1988.982558850011
 10
1212.111954263063
 20
1988.862590847451
 10
1212.104759061988
 20
1988.742814768104
 10
1212.092779850642
 20
1988.623422228145
 10
1212.076035793207
 20
1988.504604230169
 10
1212.054553676604
 20
1988.386550857626
 10
1212.028367867637
 20
1988.26945097073
 10
1211.997520258013
 20
1988.153491904319
 10
1211.962060197328
 20
1988.038859168163
 10
1211.922044414114
 20
1987.925736150186
 10
1211.877536925089
 20
1987.814303823085
 10
1211.82860893274
 20
1987.704740454813
 10
1211.775338711418
 20
1987.597221323387
 10
1211.717811482114
 20
1987.49191843648
 10
1211.712430154434
 20
1987.482558850011
  0
LWPOLYLINE
  5
2FD
330
264
100
AcDbEntity
  8
P-SANR-FIXT
100
AcDbPolyline
 90
       41
 70
   128
 43
0.0
 10
1152.114353943081
 20
2009.482558850011
 10
1152.111954263064
 20
2009.602526852571
 10
1152.104759061988
 20
2009.722302931919
 10
1152.092779850642
 20
2009.841695471878
 10
1152.076035793208
 20
2009.960513469854
 10
1152.054553676604
 20
2010.078566842397
 10
1152.028367867637
 20
2010.195666729293
 10
1151.997520258013
 20
2010.311625795704
 10
1151.962060197328
 20
2010.42625853186
 10
1151.922044414114
 20
2010.539381549837
 10
1151.877536925089
 20
2010.650813876937
 10
1151.82860893274
 20
2010.76037724521
 10
1151.775338711418
 20
2010.867896376636
 10
1151.717811482114
 20
2010.973199263543
 10
1151.656119276121
 20
2011.076117443774
 10
1151.59036078781
 20
2011.176486270197
 10
1151.520641216734
 20
2011.274145174099
 10
1151.447072099333
 20
2011.368937922067
 10
1151.369771130503
 20
2011.460712865926
 10
1151.288861975303
 20
2011.549323185343
 10
1151.204474071122
 20
2011.63462712271
 10
1151.116742420605
 20
2011.716488209924
 10
1151.025807375676
 20
2011.794775486709
 10
1150.931814413011
 20
2011.869363710121
 10
1150.834913901298
 20
2011.940133554915
 10
1150.735260860685
 20
2012.006971804435
 10
1150.633014714779
 20
2012.069771531741
 10
1150.528339035602
 20
2012.128432270666
 10
1150.421401281911
 20
2012.182860176541
 10
1150.3123725313
 20
2012.232968176327
 10
1150.201427206511
 20
2012.278676107913
 10
1150.088742796397
 20
2012.31991084836
 10
1149.974499571976
 20
2012.356606430879
 10
1149.858880298038
 20
2012.388704150366
 10
1149.742069940755
 20
2012.416152657317
 10
1149.624255371781
 20
2012.438908039977
 10
1149.505625069295
 20
2012.456933894587
 10
1149.386368816473
 20
2012.470201383624
 10
1149.266677397881
 20
2012.478689281938
 10
1149.146742294255
 20
2012.482384010702
 10
1149.114353943081
 20
2012.482558850011
  0
LWPOLYLINE
  5
2FE
330
264
100
AcDbEntity
  8
P-SANR-FIXT
100
AcDbPolyline
 90
       41
 70
   128
 43
0.0
 10
1215.114353943081
 20
2012.482558850011
 10
1214.994385940521
 20
2012.480159169995
 10
1214.874609861173
 20
2012.47296396892
 10
1214.755217321214
 20
2012.460984757574
 10
1214.636399323238
 20
2012.444240700139
 10
1214.518345950695
 20
2012.422758583535
 10
1214.401246063799
 20
2012.396572774568
 10
1214.285286997389
 20
2012.365725164944
 10
1214.170654261232
 20
2012.330265104259
 10
1214.057531243255
 20
2012.290249321045
 10
1213.946098916155
 20
2012.24574183202
 10
1213.836535547883
 20
2012.196813839671
 10
1213.729016416456
 20
2012.14354361835
 10
1213.62371352955
 20
2012.086016389044
 10
1213.520795349318
 20
2012.024324183052
 10
1213.420426522896
 20
2011.958565694741
 10
1213.322767618994
 20
2011.888846123664
 10
1213.227974871025
 20
2011.815277006264
 10
1213.136199927166
 20
2011.737976037434
 10
1213.047589607749
 20
2011.657066882234
 10
1212.962285670382
 20
2011.572678978053
 10
1212.880424583168
 20
2011.484947327535
 10
1212.802137306384
 20
2011.394012282607
 10
1212.727549082972
 20
2011.300019319942
 10
1212.656779238178
 20
2011.203118808229
 10
1212.589940988657
 20
2011.103465767616
 10
1212.527141261351
 20
2011.00121962171
 10
1212.468480522426
 20
2010.896543942533
 10
1212.414052616551
 20
2010.789606188842
 10
1212.363944616765
 20
2010.680577438231
 10
1212.318236685179
 20
2010.569632113442
 10
1212.277001944732
 20
2010.456947703328
 10
1212.240306362213
 20
2010.342704478908
 10
1212.208208642726
 20
2010.227085204969
 10
1212.180760135775
 20
2010.110274847686
 10
1212.158004753115
 20
2009.992460278712
 10
1212.139978898506
 20
2009.873829976226
 10
1212.126711409468
 20
2009.754573723404
 10
1212.118223511154
 20
2009.634882304812
 10
1212.114528782391
 20
2009.514947201186
 10
1212.114353943081
 20
2009.482558850011
  0
LWPOLYLINE
  5
2FF
330
264
100
AcDbEntity
  8
P-SANR-FIXT
100
AcDbPolyline
 90
       41
 70
   128
 43
0.0
 10
1149.114353943081
 20
2012.482558850011
 10
1148.994385940521
 20
2012.484958530029
 10
1148.874609861173
 20
2012.492153731104
 10
1148.755217321214
 20
2012.50413294245
 10
1148.636399323238
 20
2012.520876999885
 10
1148.518345950695
 20
2012.542359116488
 10
1148.401246063799
 20
2012.568544925455
 10
1148.285286997388
 20
2012.599392535079
 10
1148.170654261232
 20
2012.634852595764
 10
1148.057531243255
 20
2012.674868378978
 10
1147.946098916155
 20
2012.719375868003
 10
1147.836535547883
 20
2012.768303860352
 10
1147.729016416456
 20
2012.821574081673
 10
1147.623713529549
 20
2012.879101310979
 10
1147.520795349318
 20
2012.940793516971
 10
1147.420426522895
 20
2013.006552005283
 10
1147.322767618993
 20
2013.076271576359
 10
1147.227974871025
 20
2013.149840693759
 10
1147.136199927166
 20
2013.227141662589
 10
1147.047589607749
 20
2013.308050817789
 10
1146.962285670382
 20
2013.39243872197
 10
1146.880424583168
 20
2013.480170372488
 10
1146.802137306383
 20
2013.571105417416
 10
1146.727549082971
 20
2013.665098380081
 10
1146.656779238177
 20
2013.761998891794
 10
1146.589940988657
 20
2013.861651932407
 10
1146.52714126135
 20
2013.963898078313
 10
1146.468480522425
 20
2014.068573757491
 10
1146.414052616551
 20
2014.175511511181
 10
1146.363944616765
 20
2014.284540261793
 10
1146.318236685178
 20
2014.395485586581
 10
1146.277001944732
 20
2014.508169996695
 10
1146.240306362213
 20
2014.622413221116
 10
1146.208208642725
 20
2014.738032495055
 10
1146.180760135774
 20
2014.854842852337
 10
1146.158004753115
 20
2014.972657421311
 10
1146.139978898505
 20
2015.091287723797
 10
1146.126711409467
 20
2015.210543976619
 10
1146.118223511153
 20
2015.330235395211
 10
1146.114528782391
 20
2015.450170498837
 10
1146.11435394308
 20
2015.482558850012
  0
LWPOLYLINE
  5
300
330
264
100
AcDbEntity
  8
P-SANR-FIXT
100
AcDbPolyline
 90
        4
 70
   128
 43
0.0
 10
1149.218600799138
 20
2012.482558850011
 10
1149.195413592078
 20
2012.482558850011
 10
1149.129306998854
 20
2012.482558850011
 10
1149.114353943081
 20
2012.482558850011
  0
LWPOLYLINE
  5
301
330
264
100
AcDbEntity
  8
P-SANR-FIXT
100
AcDbPolyline
 90
       17
 70
   128
 43
0.0
 10
1149.114353943081
 20
2012.482558850011
 10
1149.140750423268
 20
2012.482558850011
 10
1149.219897635094
 20
2012.482558850011
 10
1149.351668959903
 20
2012.482558850011
 10
1149.535853591685
 20
2012.482558850011
 10
1149.77215687432
 20
2012.482558850011
 10
1150.060200772963
 20
2012.482558850011
 10
1150.399524478825
 20
2012.482558850011
 10
1150.78958514636
 20
2012.482558850011
 10
1151.229758761709
 20
2012.482558850011
 10
1151.719341140985
 20
2012.482558850011
 10
1152.257549056822
 20
2012.482558850011
 10
1152.843521491364
 20
2012.482558850011
 10
1153.476321013718
 20
2012.482558850011
 10
1154.154935279638
 20
2012.482558850011
 10
1154.878278651061
 20
2012.482558850011
 10
1155.243827182477
 20
2012.482558850011
  0
LWPOLYLINE
  5
302
330
264
100
AcDbEntity
  8
P-SANR-FIXT
100
AcDbPolyline
 90
       41
 70
   128
 43
0.0
 10
1218.11435394308
 20
2015.482558850012
 10
1218.111954263063
 20
2015.362590847451
 10
1218.104759061988
 20
2015.242814768104
 10
1218.092779850642
 20
2015.123422228144
 10
1218.076035793207
 20
2015.004604230169
 10
1218.054553676604
 20
2014.886550857626
 10
1218.028367867637
 20
2014.76945097073
 10
1217.997520258013
 20
2014.653491904319
 10
1217.962060197328
 20
2014.538859168164
 10
1217.922044414114
 20
2014.425736150187
 10
1217.87753692509
 20
2014.314303823086
 10
1217.828608932741
 20
2014.204740454813
 10
1217.775338711418
 20
2014.097221323387
 10
1217.717811482114
 20
2013.99191843648
 10
1217.656119276121
 20
2013.889000256249
 10
1217.59036078781
 20
2013.788631429827
 10
1217.520641216734
 20
2013.690972525925
 10
1217.447072099333
 20
2013.596179777956
 10
1217.369771130503
 20
2013.504404834097
 10
1217.288861975303
 20
2013.41579451468
 10
1217.204474071122
 20
2013.330490577313
 10
1217.116742420605
 20
2013.248629490099
 10
1217.025807375677
 20
2013.170342213315
 10
1216.931814413011
 20
2013.095753989903
 10
1216.834913901298
 20
2013.024984145109
 10
1216.735260860685
 20
2012.958145895588
 10
1216.633014714779
 20
2012.895346168281
 10
1216.528339035602
 20
2012.836685429357
 10
1216.421401281911
 20
2012.782257523482
 10
1216.312372531299
 20
2012.732149523696
 10
1216.201427206511
 20
2012.68644159211
 10
1216.088742796397
 20
2012.645206851663
 10
1215.974499571977
 20
2012.608511269144
 10
1215.858880298038
 20
2012.576413549657
 10
1215.742069940755
 20
2012.548965042705
 10
1215.624255371781
 20
2012.526209660046
 10
1215.505625069295
 20
2012.508183805437
 10
1215.386368816474
 20
2012.494916316398
 10
1215.266677397881
 20
2012.486428418085
 10
1215.146742294256
 20
2012.482733689322
 10
1215.114353943081
 20
2012.482558850011
  0
LWPOLYLINE
  5
303
330
264
100
AcDbEntity
  8
P-SANR-FIXT
100
AcDbPolyline
 90
       17
 70
   128
 43
0.0
 10
1208.984880703837
 20
2012.482558850011
 10
1209.53346742686
 20
2012.482558850011
 10
1210.245850979857
 20
2012.482558850011
 10
1210.913230138661
 20
2012.482558850011
 10
1211.534537238985
 20
2012.482558850011
 10
1212.108778322006
 20
2012.482558850011
 10
1212.635034724491
 20
2012.482558850011
 10
1213.112464548456
 20
2012.482558850011
 10
1213.540304008031
 20
2012.482558850011
 10
1213.917868651346
 20
2012.482558850011
 10
1214.244554455517
 20
2012.482558850011
 10
1214.519838792945
 20
2012.482558850011
 10
1214.743281267414
 20
2012.482558850011
 10
1214.914524418631
 20
2012.482558850011
 10
1215.033294294084
 20
2012.482558850011
 10
1215.099400887307
 20
2012.482558850011
 10
1215.114353943081
 20
2012.482558850011
  0
LWPOLYLINE
  5
304
330
264
100
AcDbEntity
  8
P-SANR-FIXT
100
AcDbPolyline
 90
        3
 70
   128
 43
0.0
 10
1215.114353943081
 20
2012.482558850011
 10
1215.087957462893
 20
2012.482558850011
 10
1215.008810251067
 20
2012.482558850011
  0
LINE
  5
305
330
264
100
AcDbEntity
  8
P-SANR-FIXT
100
AcDbLine
 10
1167.757348548993
 20
1942.789416596103
 30
0.0
 11
1168.364206295085
 21
1942.182558850011
 31
0.0
  0
LINE
  5
306
330
264
100
AcDbEntity
  8
P-SANR-FIXT
100
AcDbLine
 10
1195.864501591076
 20
1942.182558850011
 30
0.0
 11
1196.471359337168
 21
1942.789416596103
 31
0.0
  0
LINE
  5
307
330
264
100
AcDbEntity
  8
P-SANR-FIXT
100
AcDbLine
 10
1145.114353943114
 20
1990.982558850011
 30
0.0
 11
1152.126592046404
 21
1990.982558850011
 31
0.0
  0
LINE
  5
308
330
264
100
AcDbEntity
  8
P-SANR-FIXT
100
AcDbLine
 10
1212.102115839758
 20
1990.982558850011
 30
0.0
 11
1219.114353943081
 21
1990.982558850011
 31
0.0
  0
LINE
  5
309
330
264
100
AcDbEntity
  8
P-SANR-FIXT
100
AcDbLine
 10
1219.114353943081
 20
2008.982558850012
 30
0.0
 11
1212.113764485016
 21
2008.982558850012
 31
0.0
  0
LINE
  5
30A
330
264
100
AcDbEntity
  8
P-SANR-FIXT
100
AcDbLine
 10
1152.114943401145
 20
2008.982558850012
 30
0.0
 11
1145.114353943114
 21
2008.982558850012
 31
0.0
  0
LINE
  5
30B
330
264
100
AcDbEntity
  8
P-SANR-FIXT
100
AcDbLine
 10
1182.114353943078
 20
1942.182558850011
 30
0.0
 11
1168.364206295082
 21
1942.182558850011
 31
0.0
  0
LINE
  5
30C
330
264
100
AcDbEntity
  8
P-SANR-FIXT
100
AcDbLine
 10
1195.864501591074
 20
1942.182558850011
 30
0.0
 11
1182.114353943078
 21
1942.182558850011
 31
0.0
  0
LINE
  5
30D
330
264
100
AcDbEntity
  8
P-SANR-FIXT
100
AcDbLine
 10
1167.75734854899
 20
1942.789416596103
 30
0.0
 11
1182.114353943078
 21
1942.789416596103
 31
0.0
  0
LINE
  5
30E
330
264
100
AcDbEntity
  8
P-SANR-FIXT
100
AcDbLine
 10
1182.114353943078
 20
1942.789416596103
 30
0.0
 11
1196.471359337166
 21
1942.789416596103
 31
0.0
  0
LINE
  5
30F
330
264
100
AcDbEntity
  8
P-SANR-FIXT
100
AcDbLine
 10
1182.114353943078
 20
2042.482558850011
 30
0.0
 11
1146.114353943078
 21
2042.482558850011
 31
0.0
  0
LINE
  5
310
330
264
100
AcDbEntity
  8
P-SANR-FIXT
100
AcDbLine
 10
1218.114353943078
 20
2042.482558850011
 30
0.0
 11
1182.114353943078
 21
2042.482558850011
 31
0.0
  0
LINE
  5
311
330
264
100
AcDbEntity
  8
P-SANR-FIXT
100
AcDbLine
 10
1146.614353943078
 20
2042.982558850011
 30
0.0
 11
1182.114353943078
 21
2042.982558850011
 31
0.0
  0
LINE
  5
312
330
264
100
AcDbEntity
  8
P-SANR-FIXT
100
AcDbLine
 10
1182.114353943078
 20
2042.982558850011
 30
0.0
 11
1217.614353943078
 21
2042.982558850011
 31
0.0
  0
LINE
  5
313
330
264
100
AcDbEntity
  8
P-SANR-FIXT
100
AcDbLine
 10
1219.114353943078
 20
1999.982558850011
 30
0.0
 11
1219.114353943078
 21
1990.982558850011
 31
0.0
  0
LINE
  5
314
330
264
100
AcDbEntity
  8
P-SANR-FIXT
100
AcDbLine
 10
1219.114353943078
 20
2008.982558850011
 30
0.0
 11
1219.114353943078
 21
1999.982558850011
 31
0.0
  0
ENDBLK
  5
316
330
264
100
AcDbEntity
  8
0
100
AcDbBlockEnd
  0
ENDSEC
  0
SECTION
  2
ENTITIES
  0
INSERT
  5
164
330
71
100
AcDbEntity
  8
P-SANR-FIXT
100
AcDbBlockReference
  2
Automatic flow rate regulator valve_Caleffi_121 DN15 - 1 1_4___Pressure gauge-925399-Est - Idraulica
 10
0.0
 20
0.0
 30
0.0
1001
REVIT
1002
{
1070
     1
1000
863131
1002
}
1002
{
1070
     5
1000
925399
1002
}
1002
{
1070
     2
1000
-2001160
1002
}
  0
INSERT
  5
263
330
71
100
AcDbEntity
  8
P-SANR-FIXT
100
AcDbBlockReference
  2
Automatic flow rate regulator valve_Caleffi_121 DN15 - 1 1_4___Pressure gauge-V1-Est - Idraulica
 10
0.0
 20
0.0
 30
0.0
1001
REVIT
1002
{
1070
     1
1000
863152
1002
}
1002
{
1070
     5
1000
925399
1002
}
1002
{
1070
     2
1000
-2001160
1002
}
  0
INSERT
  5
317
330
71
100
AcDbEntity
  8
P-SANR-FIXT
100
AcDbBlockReference
  2
Automatic flow rate regulator valve_Caleffi_121 DN15 - 1 1_4___Pressure gauge-V2-Est - Idraulica
 10
0.0
 20
0.0
 30
0.0
1001
REVIT
1002
{
1070
     1
1000
863172
1002
}
1002
{
1070
     5
1000
925399
1002
}
1002
{
1070
     2
1000
-2001160
1002
}
  0
ENDSEC
  0
SECTION
  2
OBJECTS
  0
DICTIONARY
  5
C
330
0
100
AcDbDictionary
281
     1
  3
ACAD_CIP_PREVIOUS_PRODUCT_INFO
350
7A
  3
ACAD_COLOR
350
63
  3
ACAD_DETAILVIEWSTYLE
350
6B
  3
ACAD_GROUP
350
D
  3
ACAD_IMAGE_VARS
350
7B
  3
ACAD_LAYOUT
350
62
  3
ACAD_MATERIAL
350
10
  3
ACAD_MLEADERSTYLE
350
66
  3
ACAD_MLINESTYLE
350
5F
  3
ACAD_PLOTSETTINGS
350
61
  3
ACAD_PLOTSTYLENAME
350
E
  3
ACAD_SCALELIST
350
42
  3
ACAD_SECTIONVIEWSTYLE
350
68
  3
ACAD_TABLESTYLE
350
64
  3
ACAD_VISUALSTYLE
350
29
  3
ACDB_RECOMPOSE_DATA
350
322
  3
AcDbVariableDictionary
350
7C
  3
REVIT_DICTIONARY
350
319
  0
DICTIONARY
  5
31E
330
71
100
AcDbDictionary
280
     1
281
     1
  3
ACAD_SORTENTS
360
31F
  0
XRECORD
  5
7A
102
{ACAD_REACTORS
330
C
102
}
330
C
100
AcDbXrecord
280
     1
300
RVT
300
2013
300
RVT2013
  0
DICTIONARY
  5
63
102
{ACAD_REACTORS
330
C
102
}
330
C
100
AcDbDictionary
281
     1
  0
DICTIONARY
  5
6B
102
{ACAD_REACTORS
330
C
102
}
330
C
100
AcDbDictionary
281
     1
  3
Imperial24
350
6C
  0
DICTIONARY
  5
D
102
{ACAD_REACTORS
330
C
102
}
330
C
100
AcDbDictionary
281
     1
  0
RASTERVARIABLES
  5
7B
102
{ACAD_REACTORS
330
C
102
}
330
C
100
AcDbRasterVariables
 90
        0
 70
     0
 71
     1
 72
     1
  0
DICTIONARY
  5
62
102
{ACAD_REACTORS
330
C
102
}
330
C
100
AcDbDictionary
281
     1
  3
Layout1
350
70
  3
Layout2
350
78
  3
Model
350
74
  0
DICTIONARY
  5
10
102
{ACAD_REACTORS
330
C
102
}
330
C
100
AcDbDictionary
281
     1
  3
ByBlock
350
19
  3
ByLayer
350
11
  3
Global
350
21
  0
DICTIONARY
  5
66
102
{ACAD_REACTORS
330
C
102
}
330
C
100
AcDbDictionary
281
     1
  3
Standard
350
67
  0
DICTIONARY
  5
5F
102
{ACAD_REACTORS
330
C
102
}
330
C
100
AcDbDictionary
281
     1
  3
Standard
350
60
  0
DICTIONARY
  5
61
102
{ACAD_REACTORS
330
C
102
}
330
C
100
AcDbDictionary
281
     1
  0
ACDBDICTIONARYWDFLT
  5
E
102
{ACAD_REACTORS
330
C
102
}
330
C
100
AcDbDictionary
281
     1
  3
Normal
350
F
100
AcDbDictionaryWithDefault
340
F
  0
DICTIONARY
  5
42
102
{ACAD_REACTORS
330
C
102
}
330
C
100
AcDbDictionary
281
     1
  3
A0
350
43
  3
A1
350
44
  3
A2
350
45
  3
A3
350
46
  3
A4
350
47
  3
A5
350
48
  3
A6
350
49
  3
A7
350
4A
  3
A8
350
4B
  3
A9
350
4C
  3
B0
350
4D
  3
B1
350
4E
  3
B2
350
4F
  3
B3
350
50
  3
B4
350
51
  3
B5
350
52
  3
B6
350
53
  0
DICTIONARY
  5
68
102
{ACAD_REACTORS
330
C
102
}
330
C
100
AcDbDictionary
281
     1
  3
Imperial24
350
6A
  0
DICTIONARY
  5
64
102
{ACAD_REACTORS
330
C
102
}
330
C
100
AcDbDictionary
281
     1
  3
Standard
350
65
  0
DICTIONARY
  5
29
102
{ACAD_REACTORS
330
C
102
}
330
C
100
AcDbDictionary
281
     1
  3
2dWireframe
350
2F
  3
Basic
350
2E
  3
Brighten
350
35
  3
ColorChange
350
39
  3
Conceptual
350
32
  3
Dim
350
34
  3
EdgeColorOff
350
41
  3
Facepattern
350
38
  3
Flat
350
2A
  3
FlatWithEdges
350
2B
  3
Gouraud
350
2C
  3
GouraudWithEdges
350
2D
  3
Hidden
350
31
  3
JitterOff
350
3F
  3
Linepattern
350
37
  3
OverhangOff
350
40
  3
Realistic
350
33
  3
Shaded
350
3E
  3
Shaded with edges
350
3D
  3
Shades of Gray
350
3A
  3
Sketchy
350
3B
  3
Thicken
350
36
  3
Wireframe
350
30
  3
X-Ray
350
3C
  0
XRECORD
  5
322
102
{ACAD_REACTORS
330
C
102
}
330
C
100
AcDbXrecord
280
     1
 90
        1
330
65
  0
DICTIONARY
  5
7C
102
{ACAD_REACTORS
330
C
102
}
330
C
100
AcDbDictionary
281
     1
  3
CANNOSCALE
350
81
  3
CMLEADERSTYLE
350
7E
  3
CTABLESTYLE
350
7D
  3
CVIEWDETAILSTYLE
350
7F
  3
CVIEWSECTIONSTYLE
350
80
  0
DICTIONARY
  5
319
102
{ACAD_REACTORS
330
C
102
}
330
C
100
AcDbDictionary
281
     1
  3
DRAWING_TOOL
350
31D
  3
REVIT_CATEGORY_MAPPING
350
31B
  3
REVIT_SUB_CATEGORY_MAPPING
350
31C
  3
REVIT_TYPE_MAPPING
350
31A
  0
SORTENTSTABLE
  5
31F
102
{ACAD_REACTORS
330
31E
102
}
330
31E
100
AcDbSortentsTable
330
71
  0
ACDBDETAILVIEWSTYLE
  5
6C
102
{ACAD_REACTORS
330
6B
102
}
330
6B
100
AcDbModelDocViewStyle
 70
     0
  3
Imperial24
290
     1
100
AcDbDetailViewStyle
 70
     0
 71
     0
 90
        3
 71
     1
340
55
 62
   256
 40
0.24
340
0
 62
   256
 40
0.24
300

 40
0.36
280
     3
 71
     2
340
5D
 90
       25
 62
   256
 71
     3
340
55
 62
   256
 40
0.24
 90
        1
 40
0.75
 90
        1
300
%<\AcVar ViewType \f "%tc1">% %<\AcVar ViewDetailId>%\PSCALA %<\AcVar ViewScale \f "%sn">%
 71
     4
340
5D
 90
       25
 62
   256
340
5D
 90
       25
 62
   256
280
     0
  0
LAYOUT
  5
70
102
{ACAD_REACTORS
330
62
102
}
330
62
100
AcDbPlotSettings
  1

  2

  4

  6

 40
0.0
 41
0.0
 42
0.0
 43
0.0
 44
0.0
 45
0.0
 46
0.0
 47
0.0
 48
0.0
 49
0.0
140
0.0
141
0.0
142
1.0
143
1.0
 70
   688
 72
     0
 73
     0
 74
     5
  7

 75
    16
147
1.0
 76
     0
 77
     2
 78
   300
148
0.0
149
0.0
100
AcDbLayout
  1
Layout1
 70
     1
 71
     1
 10
0.0
 20
0.0
 11
12.0
 21
9.0
 12
0.0
 22
0.0
 32
0.0
 14
0.0
 24
0.0
 34
0.0
 15
0.0
 25
0.0
 35
0.0
146
0.0
 13
0.0
 23
0.0
 33
0.0
 16
1.0
 26
0.0
 36
0.0
 17
0.0
 27
1.0
 37
0.0
 76
     0
330
6D
  0
LAYOUT
  5
78
102
{ACAD_REACTORS
330
62
102
}
330
62
100
AcDbPlotSettings
  1

  2

  4

  6

 40
0.0
 41
0.0
 42
0.0
 43
0.0
 44
0.0
 45
0.0
 46
0.0
 47
0.0
 48
0.0
 49
0.0
140
0.0
141
0.0
142
1.0
143
1.0
 70
   688
 72
     0
 73
     0
 74
     5
  7

 75
    16
147
1.0
 76
     0
 77
     2
 78
   300
148
0.0
149
0.0
100
AcDbLayout
  1
Layout2
 70
     1
 71
     2
 10
0.0
 20
0.0
 11
12.0
 21
9.0
 12
0.0
 22
0.0
 32
0.0
 14
0.0
 24
0.0
 34
0.0
 15
0.0
 25
0.0
 35
0.0
146
0.0
 13
0.0
 23
0.0
 33
0.0
 16
1.0
 26
0.0
 36
0.0
 17
0.0
 27
1.0
 37
0.0
 76
     0
330
75
  0
LAYOUT
  5
74
102
{ACAD_REACTORS
330
62
102
}
330
62
100
AcDbPlotSettings
  1

  2

  4

  6

 40
0.0
 41
0.0
 42
0.0
 43
0.0
 44
0.0
 45
0.0
 46
0.0
 47
0.0
 48
0.0
 49
0.0
140
0.0
141
0.0
142
1.0
143
1.0
 70
  1712
 72
     0
 73
     0
 74
     0
  7

 75
     0
147
1.0
 76
     0
 77
     2
 78
   300
148
0.0
149
0.0
100
AcDbLayout
  1
Model
 70
     1
 71
     0
 10
0.0
 20
0.0
 11
12.0
 21
9.0
 12
0.0
 22
0.0
 32
0.0
 14
0.0
 24
0.0
 34
0.0
 15
0.0
 25
0.0
 35
0.0
146
0.0
 13
0.0
 23
0.0
 33
0.0
 16
1.0
 26
0.0
 36
0.0
 17
0.0
 27
1.0
 37
0.0
 76
     0
330
71
  0
MATERIAL
  5
19
102
{ACAD_XDICTIONARY
360
1A
102
}
102
{ACAD_REACTORS
330
10
102
}
330
10
100
AcDbMaterial
  1
ByBlock
 72
     0
 43
0.0208333333333333
 43
0.0
 43
0.0
 43
0.0
 43
0.0
 43
0.0208333333333333
 43
0.0
 43
0.0
 43
0.0
 43
0.0
 43
1.0
 43
0.0
 43
0.0
 43
0.0
 43
0.0
 43
1.0
 77
     0
 47
0.0208333333333333
 47
0.0
 47
0.0
 47
0.0
 47
0.0
 47
0.0208333333333333
 47
0.0
 47
0.0
 47
0.0
 47
0.0
 47
1.0
 47
0.0
 47
0.0
 47
0.0
 47
0.0
 47
1.0
171
     0
 49
0.0208333333333333
 49
0.0
 49
0.0
 49
0.0
 49
0.0
 49
0.0208333333333333
 49
0.0
 49
0.0
 49
0.0
 49
0.0
 49
1.0
 49
0.0
 49
0.0
 49
0.0
 49
0.0
 49
1.0
175
     0
142
0.0208333333333333
142
0.0
142
0.0
142
0.0
142
0.0
142
0.0208333333333333
142
0.0
142
0.0
142
0.0
142
0.0
142
1.0
142
0.0
142
0.0
142
0.0
142
0.0
142
1.0
179
     0
144
0.0208333333333333
144
0.0
144
0.0
144
0.0
144
0.0
144
0.0208333333333333
144
0.0
144
0.0
144
0.0
144
0.0
144
1.0
144
0.0
144
0.0
144
0.0
144
0.0
144
1.0
147
0.0208333333333333
147
0.0
147
0.0
147
0.0
147
0.0
147
0.0208333333333333
147
0.0
147
0.0
147
0.0
147
0.0
147
1.0
147
0.0
147
0.0
147
0.0
147
0.0
147
1.0
  0
MATERIAL
  5
11
102
{ACAD_XDICTIONARY
360
12
102
}
102
{ACAD_REACTORS
330
10
102
}
330
10
100
AcDbMaterial
  1
ByLayer
 72
     0
 43
0.0208333333333333
 43
0.0
 43
0.0
 43
0.0
 43
0.0
 43
0.0208333333333333
 43
0.0
 43
0.0
 43
0.0
 43
0.0
 43
1.0
 43
0.0
 43
0.0
 43
0.0
 43
0.0
 43
1.0
 77
     0
 47
0.0208333333333333
 47
0.0
 47
0.0
 47
0.0
 47
0.0
 47
0.0208333333333333
 47
0.0
 47
0.0
 47
0.0
 47
0.0
 47
1.0
 47
0.0
 47
0.0
 47
0.0
 47
0.0
 47
1.0
171
     0
 49
0.0208333333333333
 49
0.0
 49
0.0
 49
0.0
 49
0.0
 49
0.0208333333333333
 49
0.0
 49
0.0
 49
0.0
 49
0.0
 49
1.0
 49
0.0
 49
0.0
 49
0.0
 49
0.0
 49
1.0
175
     0
142
0.0208333333333333
142
0.0
142
0.0
142
0.0
142
0.0
142
0.0208333333333333
142
0.0
142
0.0
142
0.0
142
0.0
142
1.0
142
0.0
142
0.0
142
0.0
142
0.0
142
1.0
179
     0
144
0.0208333333333333
144
0.0
144
0.0
144
0.0
144
0.0
144
0.0208333333333333
144
0.0
144
0.0
144
0.0
144
0.0
144
1.0
144
0.0
144
0.0
144
0.0
144
0.0
144
1.0
147
0.0208333333333333
147
0.0
147
0.0
147
0.0
147
0.0
147
0.0208333333333333
147
0.0
147
0.0
147
0.0
147
0.0
147
1.0
147
0.0
147
0.0
147
0.0
147
0.0
147
1.0
  0
MATERIAL
  5
21
102
{ACAD_XDICTIONARY
360
22
102
}
102
{ACAD_REACTORS
330
10
102
}
330
10
100
AcDbMaterial
  1
Global
 72
     0
 43
0.0208333333333333
 43
0.0
 43
0.0
 43
0.0
 43
0.0
 43
0.0208333333333333
 43
0.0
 43
0.0
 43
0.0
 43
0.0
 43
1.0
 43
0.0
 43
0.0
 43
0.0
 43
0.0
 43
1.0
 77
     0
 47
0.0208333333333333
 47
0.0
 47
0.0
 47
0.0
 47
0.0
 47
0.0208333333333333
 47
0.0
 47
0.0
 47
0.0
 47
0.0
 47
1.0
 47
0.0
 47
0.0
 47
0.0
 47
0.0
 47
1.0
171
     0
 49
0.0208333333333333
 49
0.0
 49
0.0
 49
0.0
 49
0.0
 49
0.0208333333333333
 49
0.0
 49
0.0
 49
0.0
 49
0.0
 49
1.0
 49
0.0
 49
0.0
 49
0.0
 49
0.0
 49
1.0
175
     0
142
0.0208333333333333
142
0.0
142
0.0
142
0.0
142
0.0
142
0.0208333333333333
142
0.0
142
0.0
142
0.0
142
0.0
142
1.0
142
0.0
142
0.0
142
0.0
142
0.0
142
1.0
179
     0
144
0.0208333333333333
144
0.0
144
0.0
144
0.0
144
0.0
144
0.0208333333333333
144
0.0
144
0.0
144
0.0
144
0.0
144
1.0
144
0.0
144
0.0
144
0.0
144
0.0
144
1.0
147
0.0208333333333333
147
0.0
147
0.0
147
0.0
147
0.0
147
0.0208333333333333
147
0.0
147
0.0
147
0.0
147
0.0
147
1.0
147
0.0
147
0.0
147
0.0
147
0.0
147
1.0
  0
MLEADERSTYLE
  5
67
102
{ACAD_REACTORS
330
66
102
}
330
66
100
AcDbMLeaderStyle
179
     2
170
     2
171
     1
172
     0
 90
        2
 40
0.0
 41
0.0
173
     1
 91
-1056964608
340
5B
 92
       -2
290
     1
 42
0.09
291
     1
 43
0.36
  3
Standard
 44
0.18
300

342
55
174
     1
178
     6
175
     1
176
     0
 93
-1056964608
 45
0.18
292
     0
297
     0
 46
0.18
 94
-1056964608
 47
1.0
 49
1.0
140
1.0
293
     1
141
0.0
294
     1
177
     0
142
1.0
295
     1
296
     0
143
0.125
271
     0
272
     9
273
     9
298
     1
  0
MLINESTYLE
  5
60
102
{ACAD_REACTORS
330
5F
102
}
330
5F
100
AcDbMlineStyle
  2
STANDARD
 70
     0
  3

 62
   256
 51
90.0
 52
90.0
 71
     2
 49
0.5
 62
   256
  6
BYLAYER
 49
-0.5
 62
   256
  6
BYLAYER
  0
ACDBPLACEHOLDER
  5
F
102
{ACAD_REACTORS
330
E
102
}
330
E
  0
SCALE
  5
43
102
{ACAD_REACTORS
330
42
102
}
330
42
100
AcDbScale
 70
     0
300
1:1
140
1.0
141
1.0
290
     1
  0
SCALE
  5
44
102
{ACAD_REACTORS
330
42
102
}
330
42
100
AcDbScale
 70
     0
300
1/128" = 1'-0"
140
0.0078125
141
12.0
290
     0
  0
SCALE
  5
45
102
{ACAD_REACTORS
330
42
102
}
330
42
100
AcDbScale
 70
     0
300
1/64" = 1'-0"
140
0.015625
141
12.0
290
     0
  0
SCALE
  5
46
102
{ACAD_REACTORS
330
42
102
}
330
42
100
AcDbScale
 70
     0
300
1/32" = 1'-0"
140
0.03125
141
12.0
290
     0
  0
SCALE
  5
47
102
{ACAD_REACTORS
330
42
102
}
330
42
100
AcDbScale
 70
     0
300
1/16" = 1'-0"
140
0.0625
141
12.0
290
     0
  0
SCALE
  5
48
102
{ACAD_REACTORS
330
42
102
}
330
42
100
AcDbScale
 70
     0
300
3/32" = 1'-0"
140
0.09375
141
12.0
290
     0
  0
SCALE
  5
49
102
{ACAD_REACTORS
330
42
102
}
330
42
100
AcDbScale
 70
     0
300
1/8" = 1'-0"
140
0.125
141
12.0
290
     0
  0
SCALE
  5
4A
102
{ACAD_REACTORS
330
42
102
}
330
42
100
AcDbScale
 70
     0
300
3/16" = 1'-0"
140
0.1875
141
12.0
290
     0
  0
SCALE
  5
4B
102
{ACAD_REACTORS
330
42
102
}
330
42
100
AcDbScale
 70
     0
300
1/4" = 1'-0"
140
0.25
141
12.0
290
     0
  0
SCALE
  5
4C
102
{ACAD_REACTORS
330
42
102
}
330
42
100
AcDbScale
 70
     0
300
3/8" = 1'-0"
140
0.375
141
12.0
290
     0
  0
SCALE
  5
4D
102
{ACAD_REACTORS
330
42
102
}
330
42
100
AcDbScale
 70
     0
300
1/2" = 1'-0"
140
0.5
141
12.0
290
     0
  0
SCALE
  5
4E
102
{ACAD_REACTORS
330
42
102
}
330
42
100
AcDbScale
 70
     0
300
3/4" = 1'-0"
140
0.75
141
12.0
290
     0
  0
SCALE
  5
4F
102
{ACAD_REACTORS
330
42
102
}
330
42
100
AcDbScale
 70
     0
300
1" = 1'-0"
140
1.0
141
12.0
290
     0
  0
SCALE
  5
50
102
{ACAD_REACTORS
330
42
102
}
330
42
100
AcDbScale
 70
     0
300
1-1/2" = 1'-0"
140
1.5
141
12.0
290
     0
  0
SCALE
  5
51
102
{ACAD_REACTORS
330
42
102
}
330
42
100
AcDbScale
 70
     0
300
3" = 1'-0"
140
3.0
141
12.0
290
     0
  0
SCALE
  5
52
102
{ACAD_REACTORS
330
42
102
}
330
42
100
AcDbScale
 70
     0
300
6" = 1'-0"
140
6.0
141
12.0
290
     0
  0
SCALE
  5
53
102
{ACAD_REACTORS
330
42
102
}
330
42
100
AcDbScale
 70
     0
300
1'-0" = 1'-0"
140
12.0
141
12.0
290
     0
  0
ACDBSECTIONVIEWSTYLE
  5
6A
102
{ACAD_REACTORS
330
68
102
}
330
68
100
AcDbModelDocViewStyle
 70
     0
  3
Imperial24
290
     1
100
AcDbSectionViewStyle
 70
     0
 71
     0
 90
       78
 71
     1
340
55
 62
   256
 40
0.24
340
0
340
0
 62
   256
 40
0.24
300
I, O, Q, S, X, Z
 40
0.48
 90
        3
 40
0.18
 90
        1
 71
     2
340
69
 90
       25
 62
   256
340
5D
 90
       50
 62
   256
 40
0.24
 40
0.0
 40
0.24
 71
     3
340
55
 62
   256
 40
0.24
 90
        1
 40
0.75
 90
        1
300
%<\AcVar ViewType \f "%tc1">% %<\AcVar ViewSectionStartId>%-%<\AcVar ViewSectionEndId>%\PSCALA %<\AcVar ViewScale \f "%sn">%
 71
     4
 62
   256
 62
   257
300
ANSI31
 40
1.0
 90
        0
290
     0
290
     0
 90
        6
 40
0.0
 40
1.570796326794896
 40
0.2617993877991494
 40
1.308996938995747
 40
-0.2617993877991494
 40
1.832595714594046
  0
TABLESTYLE
  5
65
102
{ACAD_XDICTIONARY
360
320
102
}
102
{ACAD_REACTORS
330
64
102
}
330
64
100
AcDbTableStyle
280
     0
  3
Standard
 70
     0
 71
     0
 40
0.06
 41
0.06
280
     0
281
     0
  7
Standard
140
0.18
170
     2
 62
     0
 63
     7
283
     0
 90
      512
 91
        0
  1

274
    -2
284
     1
 64
     0
275
    -2
285
     1
 65
     0
276
    -2
286
     1
 66
     0
277
    -2
287
     1
 67
     0
278
    -2
288
     1
 68
     0
279
    -2
289
     1
 69
     0
  7
Standard
140
0.25
170
     5
 62
     0
 63
     7
283
     0
 90
      512
 91
        0
  1

274
    -2
284
     1
 64
     0
275
    -2
285
     1
 65
     0
276
    -2
286
     1
 66
     0
277
    -2
287
     1
 67
     0
278
    -2
288
     1
 68
     0
279
    -2
289
     1
 69
     0
  7
Standard
140
0.18
170
     5
 62
     0
 63
     7
283
     0
 90
      512
 91
        0
  1

274
    -2
284
     1
 64
     0
275
    -2
285
     1
 65
     0
276
    -2
286
     1
 66
     0
277
    -2
287
     1
 67
     0
278
    -2
288
     1
 68
     0
279
    -2
289
     1
 69
     0
  0
VISUALSTYLE
  5
2F
102
{ACAD_REACTORS
330
29
102
}
330
29
100
AcDbVisualStyle
  2
2dWireframe
 70
     4
177
     3
291
     0
 70
    58
 90
        0
176
     1
 90
        2
176
     1
 90
        0
176
     1
 90
        0
176
     1
 40
0.6
176
     1
 40
30.0
176
     1
 62
     7
420
 16777215
176
     1
 90
        1
176
     1
 90
        4
176
     1
 62
     7
176
     1
 62
   257
176
     1
 90
        1
176
     1
 90
        1
176
     1
 40
1.0
176
     1
 90
        0
176
     1
 62
   257
176
     1
 40
1.0
176
     1
 90
        1
176
     1
 90
        6
176
     1
 90
        2
176
     1
 62
     7
176
     1
 90
        5
176
     1
 90
        0
176
     1
 90
        0
176
     1
290
     0
176
     1
 90
        1
176
     1
 40
0.0
176
     1
 90
        0
176
     1
290
     1
176
     1
290
     1
176
     1
290
     0
176
     1
290
     0
176
     1
290
     0
176
     1
290
     0
176
     1
290
     0
176
     1
290
     0
176
     1
290
     0
176
     1
 90
       50
176
     1
 40
0.0
176
     1
 40
1.0
176
     1
 90
        0
176
     1
 62
    18
420
        0
176
     1
 90
       50
176
     1
 90
        3
176
     1
 62
     5
420
      255
176
     1
290
     0
176
     1
 90
       50
176
     1
 90
       50
176
     1
 90
       50
176
     1
290
     0
176
     1
 90
       50
176
     1
 62
   256
176
     0
 40
1.0
176
     0
 90
        2
176
     1
  1
strokes_ogs.tif
176
     1
290
     0
176
     1
 40
1.0
176
     1
 40
1.0
176
     1
  0
VISUALSTYLE
  5
2E
102
{ACAD_REACTORS
330
29
102
}
330
29
100
AcDbVisualStyle
  2
Basic
 70
     7
177
     3
291
     1
 70
    58
 90
        1
176
     1
 90
        0
176
     1
 90
        1
176
     1
 90
        0
176
     1
 40
0.6
176
     1
 40
30.0
176
     1
 62
     7
420
 16777215
176
     1
 90
        0
176
     1
 90
        4
176
     1
 62
     7
176
     1
 62
   257
176
     1
 90
        1
176
     1
 90
        1
176
     1
 40
1.0
176
     1
 90
        8
176
     1
 62
     7
176
     1
 40
1.0
176
     1
 90
        1
176
     1
 90
        6
176
     1
 90
        2
176
     1
 62
     7
176
     1
 90
        5
176
     1
 90
        0
176
     1
 90
        0
176
     1
290
     0
176
     1
 90
        1
176
     1
 40
0.0
176
     1
 90
        0
176
     1
290
     0
176
     1
290
     1
176
     1
290
     1
176
     1
290
     0
176
     1
290
     0
176
     1
290
     0
176
     1
290
     0
176
     1
290
     0
176
     1
290
     0
176
     1
 90
       50
176
     1
 40
0.0
176
     1
 40
1.0
176
     1
 90
        0
176
     1
 62
    18
420
        0
176
     1
 90
       50
176
     1
 90
        3
176
     1
 62
     5
420
      255
176
     1
290
     0
176
     1
 90
       50
176
     1
 90
       50
176
     1
 90
       50
176
     1
290
     0
176
     1
 90
       50
176
     1
 62
   256
176
     0
 40
1.0
176
     0
 90
        2
176
     1
  1
strokes_ogs.tif
176
     1
290
     0
176
     1
 40
1.0
176
     1
 40
1.0
176
     1
  0
VISUALSTYLE
  5
35
102
{ACAD_REACTORS
330
29
102
}
330
29
100
AcDbVisualStyle
  2
Brighten
 70
    12
177
     3
291
     1
 70
    58
 90
        2
176
     1
 90
        2
176
     1
 90
        0
176
     1
 90
        0
176
     1
 40
0.6
176
     1
 40
30.0
176
     1
 62
     7
420
 16777215
176
     1
 90
        1
176
     1
 90
        4
176
     1
 62
     7
176
     1
 62
   257
176
     1
 90
        1
176
     1
 90
        1
176
     1
 40
1.0
176
     1
 90
        8
176
     1
 62
     7
176
     1
 40
1.0
176
     1
 90
        1
176
     1
 90
        6
176
     1
 90
        2
176
     1
 62
     7
176
     1
 90
        5
176
     1
 90
        0
176
     1
 90
        0
176
     1
290
     0
176
     1
 90
        1
176
     1
 40
50.0
176
     1
 90
        0
176
     1
290
     0
176
     1
290
     1
176
     1
290
     1
176
     1
290
     0
176
     1
290
     0
176
     1
290
     0
176
     1
290
     0
176
     1
290
     0
176
     1
290
     0
176
     1
 90
       50
176
     1
 40
0.0
176
     1
 40
1.0
176
     1
 90
        0
176
     1
 62
    18
420
        0
176
     1
 90
       50
176
     1
 90
        3
176
     1
 62
     5
420
      255
176
     1
290
     0
176
     1
 90
       50
176
     1
 90
       50
176
     1
 90
       50
176
     1
290
     0
176
     1
 90
       50
176
     1
 62
   256
176
     0
 40
1.0
176
     0
 90
        2
176
     1
  1
strokes_ogs.tif
176
     1
290
     0
176
     1
 40
1.0
176
     1
 40
1.0
176
     1
  0
VISUALSTYLE
  5
39
102
{ACAD_REACTORS
330
29
102
}
330
29
100
AcDbVisualStyle
  2
ColorChange
 70
    16
177
     3
291
     1
 70
    58
 90
        2
176
     1
 90
        2
176
     1
 90
        3
176
     1
 90
        0
176
     1
 40
0.6
176
     1
 40
30.0
176
     1
 62
     8
420
  8421504
176
     1
 90
        1
176
     1
 90
        4
176
     1
 62
     7
176
     1
 62
   257
176
     1
 90
        1
176
     1
 90
        1
176
     1
 40
1.0
176
     1
 90
        8
176
     1
 62
     8
420
  8421504
176
     1
 40
1.0
176
     1
 90
        1
176
     1
 90
        6
176
     1
 90
        2
176
     1
 62
     7
176
     1
 90
        5
176
     1
 90
        0
176
     1
 90
        0
176
     1
290
     0
176
     1
 90
        1
176
     1
 40
0.0
176
     1
 90
        0
176
     1
290
     0
176
     1
290
     1
176
     1
290
     1
176
     1
290
     0
176
     1
290
     0
176
     1
290
     0
176
     1
290
     0
176
     1
290
     0
176
     1
290
     0
176
     1
 90
       50
176
     1
 40
0.0
176
     1
 40
1.0
176
     1
 90
        0
176
     1
 62
    18
420
        0
176
     1
 90
       50
176
     1
 90
        3
176
     1
 62
     5
420
      255
176
     1
290
     0
176
     1
 90
       50
176
     1
 90
       50
176
     1
 90
       50
176
     1
290
     0
176
     1
 90
       50
176
     1
 62
   256
176
     0
 40
1.0
176
     0
 90
        2
176
     1
  1
strokes_ogs.tif
176
     1
290
     0
176
     1
 40
1.0
176
     1
 40
1.0
176
     1
  0
VISUALSTYLE
  5
32
102
{ACAD_REACTORS
330
29
102
}
330
29
100
AcDbVisualStyle
  2
Conceptual
 70
     9
177
     3
291
     0
 70
    58
 90
        3
176
     1
 90
        2
176
     1
 90
        0
176
     1
 90
        0
176
     1
 40
0.6
176
     1
 40
30.0
176
     1
 62
     7
420
 16777215
176
     1
 90
        2
176
     1
 90
        2
176
     1
 62
     7
176
     1
 62
   257
176
     1
 90
        1
176
     1
 90
        1
176
     1
 40
179.0
176
     1
 90
        8
176
     1
 62
     7
176
     1
 40
1.0
176
     1
 90
        1
176
     1
 90
        6
176
     1
 90
        2
176
     1
 62
     7
176
     1
 90
        3
176
     1
 90
        0
176
     1
 90
        0
176
     1
290
     0
176
     1
 90
        1
176
     1
 40
0.0
176
     1
 90
        0
176
     1
290
     0
176
     1
290
     1
176
     1
290
     1
176
     1
290
     0
176
     1
290
     0
176
     1
290
     0
176
     1
290
     0
176
     1
290
     0
176
     1
290
     0
176
     1
 90
       50
176
     1
 40
0.0
176
     1
 40
1.0
176
     1
 90
        0
176
     1
 62
    18
420
        0
176
     1
 90
       50
176
     1
 90
        3
176
     1
 62
     5
420
      255
176
     1
290
     0
176
     1
 90
       50
176
     1
 90
       50
176
     1
 90
       50
176
     1
290
     0
176
     1
 90
       50
176
     1
 62
   256
176
     0
 40
1.0
176
     0
 90
        2
176
     1
  1
strokes_ogs.tif
176
     1
290
     0
176
     1
 40
1.0
176
     1
 40
1.0
176
     1
  0
VISUALSTYLE
  5
34
102
{ACAD_REACTORS
330
29
102
}
330
29
100
AcDbVisualStyle
  2
Dim
 70
    11
177
     3
291
     1
 70
    58
 90
        2
176
     1
 90
        2
176
     1
 90
        0
176
     1
 90
        0
176
     1
 40
0.6
176
     1
 40
30.0
176
     1
 62
     7
420
 16777215
176
     1
 90
        1
176
     1
 90
        4
176
     1
 62
     7
176
     1
 62
   257
176
     1
 90
        1
176
     1
 90
        1
176
     1
 40
1.0
176
     1
 90
        8
176
     1
 62
     7
176
     1
 40
1.0
176
     1
 90
        1
176
     1
 90
        6
176
     1
 90
        2
176
     1
 62
     7
176
     1
 90
        5
176
     1
 90
        0
176
     1
 90
        0
176
     1
290
     0
176
     1
 90
        1
176
     1
 40
-50.0
176
     1
 90
        0
176
     1
290
     0
176
     1
290
     1
176
     1
290
     1
176
     1
290
     0
176
     1
290
     0
176
     1
290
     0
176
     1
290
     0
176
     1
290
     0
176
     1
290
     0
176
     1
 90
       50
176
     1
 40
0.0
176
     1
 40
1.0
176
     1
 90
        0
176
     1
 62
    18
420
        0
176
     1
 90
       50
176
     1
 90
        3
176
     1
 62
     5
420
      255
176
     1
290
     0
176
     1
 90
       50
176
     1
 90
       50
176
     1
 90
       50
176
     1
290
     0
176
     1
 90
       50
176
     1
 62
   256
176
     0
 40
1.0
176
     0
 90
        2
176
     1
  1
strokes_ogs.tif
176
     1
290
     0
176
     1
 40
1.0
176
     1
 40
1.0
176
     1
  0
VISUALSTYLE
  5
41
102
{ACAD_REACTORS
330
29
102
}
330
29
100
AcDbVisualStyle
  2
EdgeColorOff
 70
    22
177
     3
291
     1
 70
    58
 90
        2
176
     0
 90
        2
176
     0
 90
        0
176
     0
 90
        0
176
     0
 40
0.6
176
     0
 40
30.0
176
     0
 62
     7
420
 16777215
176
     0
 90
        1
176
     0
 90
        4
176
     0
 62
     7
176
     0
 62
   257
176
     0
 90
        1
176
     0
 90
        1
176
     0
 40
1.0
176
     0
 90
        8
176
     2
 62
     7
176
     0
 40
1.0
176
     0
 90
        1
176
     0
 90
        6
176
     0
 90
        2
176
     0
 62
     7
176
     0
 90
        5
176
     0
 90
        0
176
     0
 90
        0
176
     0
290
     0
176
     0
 90
        1
176
     0
 40
0.0
176
     0
 90
        0
176
     0
290
     0
176
     0
290
     1
176
     0
290
     1
176
     0
290
     0
176
     0
290
     0
176
     0
290
     0
176
     0
290
     0
176
     0
290
     0
176
     0
290
     0
176
     0
 90
       50
176
     0
 40
0.0
176
     0
 40
1.0
176
     0
 90
        0
176
     0
 62
    18
420
        0
176
     0
 90
       50
176
     0
 90
        3
176
     0
 62
     5
420
      255
176
     0
290
     0
176
     0
 90
       50
176
     0
 90
       50
176
     0
 90
       50
176
     0
290
     0
176
     0
 90
       50
176
     0
 62
   256
176
     0
 40
1.0
176
     0
 90
        2
176
     0
  1
strokes_ogs.tif
176
     0
290
     0
176
     0
 40
1.0
176
     0
 40
1.0
176
     0
  0
VISUALSTYLE
  5
38
102
{ACAD_REACTORS
330
29
102
}
330
29
100
AcDbVisualStyle
  2
Facepattern
 70
    15
177
     3
291
     1
 70
    58
 90
        2
176
     1
 90
        2
176
     1
 90
        0
176
     1
 90
        0
176
     1
 40
0.6
176
     1
 40
30.0
176
     1
 62
     7
420
 16777215
176
     1
 90
        1
176
     1
 90
        4
176
     1
 62
     7
176
     1
 62
   257
176
     1
 90
        1
176
     1
 90
        1
176
     1
 40
1.0
176
     1
 90
        8
176
     1
 62
     7
176
     1
 40
1.0
176
     1
 90
        1
176
     1
 90
        6
176
     1
 90
        2
176
     1
 62
     7
176
     1
 90
        5
176
     1
 90
        0
176
     1
 90
        0
176
     1
290
     0
176
     1
 90
        1
176
     1
 40
0.0
176
     1
 90
        0
176
     1
290
     0
176
     1
290
     1
176
     1
290
     1
176
     1
290
     0
176
     1
290
     0
176
     1
290
     0
176
     1
290
     0
176
     1
290
     0
176
     1
290
     0
176
     1
 90
       50
176
     1
 40
0.0
176
     1
 40
1.0
176
     1
 90
        0
176
     1
 62
    18
420
        0
176
     1
 90
       50
176
     1
 90
        3
176
     1
 62
     5
420
      255
176
     1
290
     0
176
     1
 90
       50
176
     1
 90
       50
176
     1
 90
       50
176
     1
290
     0
176
     1
 90
       50
176
     1
 62
   256
176
     0
 40
1.0
176
     0
 90
        2
176
     1
  1
strokes_ogs.tif
176
     1
290
     0
176
     1
 40
1.0
176
     1
 40
1.0
176
     1
  0
VISUALSTYLE
  5
2A
102
{ACAD_REACTORS
330
29
102
}
330
29
100
AcDbVisualStyle
  2
Flat
 70
     0
177
     3
291
     1
 70
    58
 90
        2
176
     1
 90
        1
176
     1
 90
        1
176
     1
 90
        2
176
     1
 40
0.6
176
     1
 40
30.0
176
     1
 62
     7
420
 16777215
176
     1
 90
        0
176
     1
 90
        0
176
     1
 62
     7
176
     1
 62
   257
176
     1
 90
        1
176
     1
 90
        1
176
     1
 40
1.0
176
     1
 90
        8
176
     1
 62
     7
176
     1
 40
1.0
176
     1
 90
        1
176
     1
 90
        6
176
     1
 90
        2
176
     1
 62
     7
176
     1
 90
        5
176
     1
 90
        0
176
     1
 90
        0
176
     1
290
     0
176
     1
 90
       13
176
     1
 40
0.0
176
     1
 90
        0
176
     1
290
     0
176
     1
290
     1
176
     1
290
     1
176
     1
290
     0
176
     1
290
     0
176
     1
290
     0
176
     1
290
     0
176
     1
290
     0
176
     1
290
     0
176
     1
 90
       50
176
     1
 40
0.0
176
     1
 40
1.0
176
     1
 90
        0
176
     1
 62
    18
420
        0
176
     1
 90
       50
176
     1
 90
        3
176
     1
 62
     5
420
      255
176
     1
290
     0
176
     1
 90
       50
176
     1
 90
       50
176
     1
 90
       50
176
     1
290
     0
176
     1
 90
       50
176
     1
 62
   256
176
     0
 40
1.0
176
     0
 90
        2
176
     1
  1
strokes_ogs.tif
176
     1
290
     0
176
     1
 40
1.0
176
     1
 40
1.0
176
     1
  0
VISUALSTYLE
  5
2B
102
{ACAD_REACTORS
330
29
102
}
330
29
100
AcDbVisualStyle
  2
FlatWithEdges
 70
     1
177
     3
291
     1
 70
    58
 90
        2
176
     1
 90
        1
176
     1
 90
        1
176
     1
 90
        2
176
     1
 40
0.6
176
     1
 40
30.0
176
     1
 62
     7
420
 16777215
176
     1
 90
        1
176
     1
 90
        0
176
     1
 62
     7
176
     1
 62
   257
176
     1
 90
        1
176
     1
 90
        1
176
     1
 40
1.0
176
     1
 90
        0
176
     1
 62
   257
176
     1
 40
1.0
176
     1
 90
        1
176
     1
 90
        6
176
     1
 90
        2
176
     1
 62
     7
176
     1
 90
        5
176
     1
 90
        0
176
     1
 90
        0
176
     1
290
     0
176
     1
 90
       13
176
     1
 40
0.0
176
     1
 90
        0
176
     1
290
     0
176
     1
290
     1
176
     1
290
     1
176
     1
290
     0
176
     1
290
     0
176
     1
290
     0
176
     1
290
     0
176
     1
290
     0
176
     1
290
     0
176
     1
 90
       50
176
     1
 40
0.0
176
     1
 40
1.0
176
     1
 90
        0
176
     1
 62
    18
420
        0
176
     1
 90
       50
176
     1
 90
        3
176
     1
 62
     5
420
      255
176
     1
290
     0
176
     1
 90
       50
176
     1
 90
       50
176
     1
 90
       50
176
     1
290
     0
176
     1
 90
       50
176
     1
 62
   256
176
     0
 40
1.0
176
     0
 90
        2
176
     1
  1
strokes_ogs.tif
176
     1
290
     0
176
     1
 40
1.0
176
     1
 40
1.0
176
     1
  0
VISUALSTYLE
  5
2C
102
{ACAD_REACTORS
330
29
102
}
330
29
100
AcDbVisualStyle
  2
Gouraud
 70
     2
177
     3
291
     1
 70
    58
 90
        2
176
     1
 90
        2
176
     1
 90
        1
176
     1
 90
        2
176
     1
 40
0.6
176
     1
 40
30.0
176
     1
 62
     7
420
 16777215
176
     1
 90
        0
176
     1
 90
        0
176
     1
 62
     7
176
     1
 62
   257
176
     1
 90
        1
176
     1
 90
        1
176
     1
 40
1.0
176
     1
 90
        0
176
     1
 62
     7
176
     1
 40
1.0
176
     1
 90
        1
176
     1
 90
        6
176
     1
 90
        2
176
     1
 62
     7
176
     1
 90
        5
176
     1
 90
        0
176
     1
 90
        0
176
     1
290
     0
176
     1
 90
       13
176
     1
 40
0.0
176
     1
 90
        0
176
     1
290
     0
176
     1
290
     1
176
     1
290
     1
176
     1
290
     0
176
     1
290
     0
176
     1
290
     0
176
     1
290
     0
176
     1
290
     0
176
     1
290
     0
176
     1
 90
       50
176
     1
 40
0.0
176
     1
 40
1.0
176
     1
 90
        0
176
     1
 62
    18
420
        0
176
     1
 90
       50
176
     1
 90
        3
176
     1
 62
     5
420
      255
176
     1
290
     0
176
     1
 90
       50
176
     1
 90
       50
176
     1
 90
       50
176
     1
290
     0
176
     1
 90
       50
176
     1
 62
   256
176
     0
 40
1.0
176
     0
 90
        2
176
     1
  1
strokes_ogs.tif
176
     1
290
     0
176
     1
 40
1.0
176
     1
 40
1.0
176
     1
  0
VISUALSTYLE
  5
2D
102
{ACAD_REACTORS
330
29
102
}
330
29
100
AcDbVisualStyle
  2
GouraudWithEdges
 70
     3
177
     3
291
     1
 70
    58
 90
        2
176
     1
 90
        2
176
     1
 90
        1
176
     1
 90
        2
176
     1
 40
0.6
176
     1
 40
30.0
176
     1
 62
     7
420
 16777215
176
     1
 90
        1
176
     1
 90
        0
176
     1
 62
     7
176
     1
 62
   257
176
     1
 90
        1
176
     1
 90
        1
176
     1
 40
1.0
176
     1
 90
        0
176
     1
 62
   257
176
     1
 40
1.0
176
     1
 90
        1
176
     1
 90
        6
176
     1
 90
        2
176
     1
 62
     7
176
     1
 90
        5
176
     1
 90
        0
176
     1
 90
        0
176
     1
290
     0
176
     1
 90
       13
176
     1
 40
0.0
176
     1
 90
        0
176
     1
290
     0
176
     1
290
     1
176
     1
290
     1
176
     1
290
     0
176
     1
290
     0
176
     1
290
     0
176
     1
290
     0
176
     1
290
     0
176
     1
290
     0
176
     1
 90
       50
176
     1
 40
0.0
176
     1
 40
1.0
176
     1
 90
        0
176
     1
 62
    18
420
        0
176
     1
 90
       50
176
     1
 90
        3
176
     1
 62
     5
420
      255
176
     1
290
     0
176
     1
 90
       50
176
     1
 90
       50
176
     1
 90
       50
176
     1
290
     0
176
     1
 90
       50
176
     1
 62
   256
176
     0
 40
1.0
176
     0
 90
        2
176
     1
  1
strokes_ogs.tif
176
     1
290
     0
176
     1
 40
1.0
176
     1
 40
1.0
176
     1
  0
VISUALSTYLE
  5
31
102
{ACAD_REACTORS
330
29
102
}
330
29
100
AcDbVisualStyle
  2
Hidden
 70
     6
177
     3
291
     0
 70
    58
 90
        1
176
     1
 90
        2
176
     1
 90
        2
176
     1
 90
        0
176
     1
 40
0.6
176
     1
 40
30.0
176
     1
 62
     7
420
 16777215
176
     1
 90
        2
176
     1
 90
        2
176
     1
 62
     7
176
     1
 62
   257
176
     1
 90
        2
176
     1
 90
        1
176
     1
 40
40.0
176
     1
 90
        0
176
     1
 62
   257
176
     1
 40
1.0
176
     1
 90
        1
176
     1
 90
        6
176
     1
 90
        2
176
     1
 62
     7
176
     1
 90
        3
176
     1
 90
        0
176
     1
 90
        0
176
     1
290
     0
176
     1
 90
        1
176
     1
 40
0.0
176
     1
 90
        0
176
     1
290
     0
176
     1
290
     1
176
     1
290
     1
176
     1
290
     0
176
     1
290
     0
176
     1
290
     0
176
     1
290
     0
176
     1
290
     0
176
     1
290
     0
176
     1
 90
       50
176
     1
 40
0.0
176
     1
 40
1.0
176
     1
 90
        0
176
     1
 62
    18
420
        0
176
     1
 90
       50
176
     1
 90
        3
176
     1
 62
     5
420
      255
176
     1
290
     0
176
     1
 90
       50
176
     1
 90
       50
176
     1
 90
       50
176
     1
290
     0
176
     1
 90
       50
176
     1
 62
   256
176
     0
 40
1.0
176
     0
 90
        2
176
     1
  1
strokes_ogs.tif
176
     1
290
     0
176
     1
 40
1.0
176
     1
 40
1.0
176
     1
  0
VISUALSTYLE
  5
3F
102
{ACAD_REACTORS
330
29
102
}
330
29
100
AcDbVisualStyle
  2
JitterOff
 70
    20
177
     3
291
     1
 70
    58
 90
        2
176
     0
 90
        2
176
     0
 90
        0
176
     0
 90
        0
176
     0
 40
0.6
176
     0
 40
30.0
176
     0
 62
     7
420
 16777215
176
     0
 90
        1
176
     0
 90
        4
176
     0
 62
     7
176
     0
 62
   257
176
     0
 90
        1
176
     0
 90
        1
176
     0
 40
1.0
176
     0
 90
       10
176
     2
 62
     7
176
     0
 40
1.0
176
     0
 90
        1
176
     0
 90
        6
176
     0
 90
        2
176
     0
 62
     7
176
     0
 90
        5
176
     0
 90
        0
176
     0
 90
        0
176
     0
290
     0
176
     0
 90
        1
176
     0
 40
0.0
176
     0
 90
        0
176
     0
290
     0
176
     0
290
     1
176
     0
290
     1
176
     0
290
     0
176
     0
290
     0
176
     0
290
     0
176
     0
290
     0
176
     0
290
     0
176
     0
290
     0
176
     0
 90
       50
176
     0
 40
0.0
176
     0
 40
1.0
176
     0
 90
        0
176
     0
 62
    18
420
        0
176
     0
 90
       50
176
     0
 90
        3
176
     0
 62
     5
420
      255
176
     0
290
     0
176
     0
 90
       50
176
     0
 90
       50
176
     0
 90
       50
176
     0
290
     0
176
     0
 90
       50
176
     0
 62
   256
176
     0
 40
1.0
176
     0
 90
        2
176
     0
  1
strokes_ogs.tif
176
     0
290
     0
176
     0
 40
1.0
176
     0
 40
1.0
176
     0
  0
VISUALSTYLE
  5
37
102
{ACAD_REACTORS
330
29
102
}
330
29
100
AcDbVisualStyle
  2
Linepattern
 70
    14
177
     3
291
     1
 70
    58
 90
        2
176
     1
 90
        2
176
     1
 90
        0
176
     1
 90
        0
176
     1
 40
0.6
176
     1
 40
30.0
176
     1
 62
     7
420
 16777215
176
     1
 90
        1
176
     1
 90
        4
176
     1
 62
     7
176
     1
 62
   257
176
     1
 90
        7
176
     1
 90
        7
176
     1
 40
1.0
176
     1
 90
        8
176
     1
 62
     7
176
     1
 40
1.0
176
     1
 90
        1
176
     1
 90
        6
176
     1
 90
        2
176
     1
 62
     7
176
     1
 90
        5
176
     1
 90
        0
176
     1
 90
        0
176
     1
290
     0
176
     1
 90
        1
176
     1
 40
0.0
176
     1
 90
        0
176
     1
290
     0
176
     1
290
     1
176
     1
290
     1
176
     1
290
     0
176
     1
290
     0
176
     1
290
     0
176
     1
290
     0
176
     1
290
     0
176
     1
290
     0
176
     1
 90
       50
176
     1
 40
0.0
176
     1
 40
1.0
176
     1
 90
        0
176
     1
 62
    18
420
        0
176
     1
 90
       50
176
     1
 90
        3
176
     1
 62
     5
420
      255
176
     1
290
     0
176
     1
 90
       50
176
     1
 90
       50
176
     1
 90
       50
176
     1
290
     0
176
     1
 90
       50
176
     1
 62
   256
176
     0
 40
1.0
176
     0
 90
        2
176
     1
  1
strokes_ogs.tif
176
     1
290
     0
176
     1
 40
1.0
176
     1
 40
1.0
176
     1
  0
VISUALSTYLE
  5
40
102
{ACAD_REACTORS
330
29
102
}
330
29
100
AcDbVisualStyle
  2
OverhangOff
 70
    21
177
     3
291
     1
 70
    58
 90
        2
176
     0
 90
        2
176
     0
 90
        0
176
     0
 90
        0
176
     0
 40
0.6
176
     0
 40
30.0
176
     0
 62
     7
420
 16777215
176
     0
 90
        1
176
     0
 90
        4
176
     0
 62
     7
176
     0
 62
   257
176
     0
 90
        1
176
     0
 90
        1
176
     0
 40
1.0
176
     0
 90
        9
176
     2
 62
     7
176
     0
 40
1.0
176
     0
 90
        1
176
     0
 90
        6
176
     0
 90
        2
176
     0
 62
     7
176
     0
 90
        5
176
     0
 90
        0
176
     0
 90
        0
176
     0
290
     0
176
     0
 90
        1
176
     0
 40
0.0
176
     0
 90
        0
176
     0
290
     0
176
     0
290
     1
176
     0
290
     1
176
     0
290
     0
176
     0
290
     0
176
     0
290
     0
176
     0
290
     0
176
     0
290
     0
176
     0
290
     0
176
     0
 90
       50
176
     0
 40
0.0
176
     0
 40
1.0
176
     0
 90
        0
176
     0
 62
    18
420
        0
176
     0
 90
       50
176
     0
 90
        3
176
     0
 62
     5
420
      255
176
     0
290
     0
176
     0
 90
       50
176
     0
 90
       50
176
     0
 90
       50
176
     0
290
     0
176
     0
 90
       50
176
     0
 62
   256
176
     0
 40
1.0
176
     0
 90
        2
176
     0
  1
strokes_ogs.tif
176
     0
290
     0
176
     0
 40
1.0
176
     0
 40
1.0
176
     0
  0
VISUALSTYLE
  5
33
102
{ACAD_REACTORS
330
29
102
}
330
29
100
AcDbVisualStyle
  2
Realistic
 70
     8
177
     3
291
     0
 70
    58
 90
        2
176
     1
 90
        3
176
     1
 90
        0
176
     1
 90
        2
176
     1
 40
0.6
176
     1
 40
30.0
176
     1
 62
     7
420
 16777215
176
     1
 90
        0
176
     1
 90
        0
176
     1
 62
     7
176
     1
 62
   257
176
     1
 90
        1
176
     1
 90
        1
176
     1
 40
1.0
176
     1
 90
        8
176
     1
 62
   257
176
     1
 40
1.0
176
     1
 90
        1
176
     1
 90
        6
176
     1
 90
        2
176
     1
 62
     7
176
     1
 90
        3
176
     1
 90
        0
176
     1
 90
        0
176
     1
290
     0
176
     1
 90
       13
176
     1
 40
0.0
176
     1
 90
        0
176
     1
290
     0
176
     1
290
     1
176
     1
290
     1
176
     1
290
     0
176
     1
290
     0
176
     1
290
     0
176
     1
290
     0
176
     1
290
     0
176
     1
290
     0
176
     1
 90
       50
176
     1
 40
0.0
176
     1
 40
1.0
176
     1
 90
        0
176
     1
 62
    18
420
        0
176
     1
 90
       50
176
     1
 90
        3
176
     1
 62
     5
420
      255
176
     1
290
     0
176
     1
 90
       50
176
     1
 90
       50
176
     1
 90
       50
176
     1
290
     0
176
     1
 90
       50
176
     1
 62
   256
176
     0
 40
1.0
176
     0
 90
        2
176
     1
  1
strokes_ogs.tif
176
     1
290
     0
176
     1
 40
1.0
176
     1
 40
1.0
176
     1
  0
VISUALSTYLE
  5
3E
102
{ACAD_REACTORS
330
29
102
}
330
29
100
AcDbVisualStyle
  2
Shaded
 70
    27
177
     3
291
     0
 70
    58
 90
        2
176
     1
 90
        2
176
     1
 90
        1
176
     1
 90
        2
176
     1
 40
0.6
176
     1
 40
30.0
176
     1
 62
     7
420
 16777215
176
     1
 90
        0
176
     1
 90
        4
176
     1
 62
     7
176
     1
 62
   257
176
     1
 90
        1
176
     1
 90
        1
176
     1
 40
1.0
176
     1
 90
        8
176
     1
 62
   257
176
     1
 40
1.0
176
     1
 90
        1
176
     1
 90
        6
176
     1
 90
        2
176
     1
 62
     8
420
  7895160
176
     1
 90
        3
176
     1
 90
        0
176
     1
 90
        0
176
     1
290
     0
176
     1
 90
        5
176
     1
 40
0.0
176
     1
 90
        0
176
     1
290
     0
176
     1
290
     1
176
     1
290
     1
176
     1
290
     0
176
     1
290
     0
176
     1
290
     0
176
     1
290
     0
176
     1
290
     0
176
     1
290
     0
176
     1
 90
       50
176
     1
 40
0.0
176
     1
 40
1.0
176
     1
 90
        0
176
     1
 62
    18
420
        0
176
     1
 90
       50
176
     1
 90
        3
176
     1
 62
     5
420
      255
176
     1
290
     0
176
     1
 90
       50
176
     1
 90
       50
176
     1
 90
       50
176
     1
290
     0
176
     1
 90
       50
176
     1
 62
   256
176
     0
 40
1.0
176
     0
 90
        2
176
     1
  1
strokes_ogs.tif
176
     1
290
     0
176
     1
 40
1.0
176
     1
 40
1.0
176
     1
  0
VISUALSTYLE
  5
3D
102
{ACAD_REACTORS
330
29
102
}
330
29
100
AcDbVisualStyle
  2
Shaded with edges
 70
    26
177
     3
291
     0
 70
    58
 90
        2
176
     1
 90
        2
176
     1
 90
        1
176
     1
 90
        2
176
     1
 40
0.6
176
     1
 40
30.0
176
     1
 62
     7
420
 16777215
176
     1
 90
        1
176
     1
 90
       10
176
     1
 62
     7
176
     1
 62
   257
176
     1
 90
        2
176
     1
 90
        1
176
     1
 40
1.0
176
     1
 90
        8
176
     1
 62
   257
176
     1
 40
1.0
176
     1
 90
        1
176
     1
 90
        6
176
     1
 90
        2
176
     1
 62
     7
176
     1
 90
        3
176
     1
 90
        0
176
     1
 90
        0
176
     1
290
     0
176
     1
 90
        5
176
     1
 40
0.0
176
     1
 90
        0
176
     1
290
     0
176
     1
290
     1
176
     1
290
     1
176
     1
290
     0
176
     1
290
     0
176
     1
290
     0
176
     1
290
     0
176
     1
290
     0
176
     1
290
     0
176
     1
 90
       50
176
     1
 40
0.0
176
     1
 40
1.0
176
     1
 90
        0
176
     1
 62
    18
420
        0
176
     1
 90
       50
176
     1
 90
        3
176
     1
 62
     5
420
      255
176
     1
290
     0
176
     1
 90
       50
176
     1
 90
       50
176
     1
 90
       50
176
     1
290
     0
176
     1
 90
       50
176
     1
 62
   256
176
     0
 40
1.0
176
     0
 90
        2
176
     1
  1
strokes_ogs.tif
176
     1
290
     0
176
     1
 40
1.0
176
     1
 40
1.0
176
     1
  0
VISUALSTYLE
  5
3A
102
{ACAD_REACTORS
330
29
102
}
330
29
100
AcDbVisualStyle
  2
Shades of Gray
 70
    23
177
     3
291
     0
 70
    58
 90
        2
176
     1
 90
        2
176
     1
 90
        3
176
     1
 90
        0
176
     1
 40
0.6
176
     1
 40
30.0
176
     1
 62
     7
420
 16777215
176
     1
 90
        2
176
     1
 90
        2
176
     1
 62
     7
176
     1
 62
     7
176
     1
 90
        1
176
     1
 90
        1
176
     1
 40
40.0
176
     1
 90
        8
176
     1
 62
     7
176
     1
 40
1.0
176
     1
 90
        1
176
     1
 90
        6
176
     1
 90
        2
176
     1
 62
     7
176
     1
 90
        3
176
     1
 90
        0
176
     1
 90
        0
176
     1
290
     0
176
     1
 90
        1
176
     1
 40
0.0
176
     1
 90
        0
176
     1
290
     0
176
     1
290
     1
176
     1
290
     1
176
     1
290
     0
176
     1
290
     0
176
     1
290
     0
176
     1
290
     0
176
     1
290
     0
176
     1
290
     0
176
     1
 90
       50
176
     1
 40
0.0
176
     1
 40
1.0
176
     1
 90
        0
176
     1
 62
    18
420
        0
176
     1
 90
       50
176
     1
 90
        3
176
     1
 62
     5
420
      255
176
     1
290
     0
176
     1
 90
       50
176
     1
 90
       50
176
     1
 90
       50
176
     1
290
     0
176
     1
 90
       50
176
     1
 62
   256
176
     0
 40
1.0
176
     0
 90
        2
176
     1
  1
strokes_ogs.tif
176
     1
290
     0
176
     1
 40
1.0
176
     1
 40
1.0
176
     1
  0
VISUALSTYLE
  5
3B
102
{ACAD_REACTORS
330
29
102
}
330
29
100
AcDbVisualStyle
  2
Sketchy
 70
    24
177
     3
291
     0
 70
    58
 90
        1
176
     1
 90
        2
176
     1
 90
        2
176
     1
 90
        0
176
     1
 40
0.6
176
     1
 40
30.0
176
     1
 62
     7
420
 16777215
176
     1
 90
        2
176
     1
 90
        2
176
     1
 62
     7
176
     1
 62
     7
176
     1
 90
        1
176
     1
 90
        1
176
     1
 40
40.0
176
     1
 90
       11
176
     1
 62
     7
176
     1
 40
1.0
176
     1
 90
        1
176
     1
 90
        6
176
     1
 90
        2
176
     1
 62
     7
176
     1
 90
        6
176
     1
 90
        0
176
     1
 90
        0
176
     1
290
     0
176
     1
 90
        1
176
     1
 40
0.0
176
     1
 90
        0
176
     1
290
     0
176
     1
290
     1
176
     1
290
     1
176
     1
290
     0
176
     1
290
     0
176
     1
290
     0
176
     1
290
     0
176
     1
290
     0
176
     1
290
     0
176
     1
 90
       50
176
     1
 40
0.0
176
     1
 40
1.0
176
     1
 90
        0
176
     1
 62
    18
420
        0
176
     1
 90
       50
176
     1
 90
        3
176
     1
 62
     5
420
      255
176
     1
290
     0
176
     1
 90
       50
176
     1
 90
       50
176
     1
 90
       50
176
     1
290
     0
176
     1
 90
       50
176
     1
 62
   256
176
     0
 40
1.0
176
     0
 90
        2
176
     1
  1
strokes_ogs.tif
176
     1
290
     0
176
     1
 40
1.0
176
     1
 40
1.0
176
     1
  0
VISUALSTYLE
  5
36
102
{ACAD_REACTORS
330
29
102
}
330
29
100
AcDbVisualStyle
  2
Thicken
 70
    13
177
     3
291
     1
 70
    58
 90
        2
176
     1
 90
        2
176
     1
 90
        0
176
     1
 90
        0
176
     1
 40
0.6
176
     1
 40
30.0
176
     1
 62
     7
420
 16777215
176
     1
 90
        1
176
     1
 90
        4
176
     1
 62
     7
176
     1
 62
   257
176
     1
 90
        1
176
     1
 90
        1
176
     1
 40
1.0
176
     1
 90
       12
176
     1
 62
     7
176
     1
 40
1.0
176
     1
 90
        1
176
     1
 90
        6
176
     1
 90
        2
176
     1
 62
     7
176
     1
 90
        5
176
     1
 90
        0
176
     1
 90
        0
176
     1
290
     0
176
     1
 90
        1
176
     1
 40
0.0
176
     1
 90
        0
176
     1
290
     0
176
     1
290
     1
176
     1
290
     1
176
     1
290
     0
176
     1
290
     0
176
     1
290
     0
176
     1
290
     0
176
     1
290
     0
176
     1
290
     0
176
     1
 90
       50
176
     1
 40
0.0
176
     1
 40
1.0
176
     1
 90
        0
176
     1
 62
    18
420
        0
176
     1
 90
       50
176
     1
 90
        3
176
     1
 62
     5
420
      255
176
     1
290
     0
176
     1
 90
       50
176
     1
 90
       50
176
     1
 90
       50
176
     1
290
     0
176
     1
 90
       50
176
     1
 62
   256
176
     0
 40
1.0
176
     0
 90
        2
176
     1
  1
strokes_ogs.tif
176
     1
290
     0
176
     1
 40
1.0
176
     1
 40
1.0
176
     1
  0
VISUALSTYLE
  5
30
102
{ACAD_REACTORS
330
29
102
}
330
29
100
AcDbVisualStyle
  2
Wireframe
 70
     5
177
     3
291
     0
 70
    58
 90
        0
176
     1
 90
        2
176
     1
 90
        0
176
     1
 90
        0
176
     1
 40
0.6
176
     1
 40
30.0
176
     1
 62
     7
420
 16777215
176
     1
 90
        1
176
     1
 90
        4
176
     1
 62
     7
176
     1
 62
   257
176
     1
 90
        1
176
     1
 90
        1
176
     1
 40
1.0
176
     1
 90
        0
176
     1
 62
   257
176
     1
 40
1.0
176
     1
 90
        1
176
     1
 90
        6
176
     1
 90
        2
176
     1
 62
     7
176
     1
 90
        3
176
     1
 90
        0
176
     1
 90
        0
176
     1
290
     0
176
     1
 90
        1
176
     1
 40
0.0
176
     1
 90
        0
176
     1
290
     0
176
     1
290
     1
176
     1
290
     1
176
     1
290
     0
176
     1
290
     0
176
     1
290
     0
176
     1
290
     0
176
     1
290
     0
176
     1
290
     0
176
     1
 90
       50
176
     1
 40
0.0
176
     1
 40
1.0
176
     1
 90
        0
176
     1
 62
    18
420
        0
176
     1
 90
       50
176
     1
 90
        3
176
     1
 62
     5
420
      255
176
     1
290
     0
176
     1
 90
       50
176
     1
 90
       50
176
     1
 90
       50
176
     1
290
     0
176
     1
 90
       50
176
     1
 62
   256
176
     0
 40
1.0
176
     0
 90
        2
176
     1
  1
strokes_ogs.tif
176
     1
290
     0
176
     1
 40
1.0
176
     1
 40
1.0
176
     1
  0
VISUALSTYLE
  5
3C
102
{ACAD_REACTORS
330
29
102
}
330
29
100
AcDbVisualStyle
  2
X-Ray
 70
    25
177
     3
291
     0
 70
    58
 90
        2
176
     1
 90
        2
176
     1
 90
        1
176
     1
 90
        1
176
     1
 40
0.5
176
     1
 40
30.0
176
     1
 62
     7
420
 16777215
176
     1
 90
        1
176
     1
 90
        0
176
     1
 62
     7
176
     1
 62
   257
176
     1
 90
        1
176
     1
 90
        1
176
     1
 40
1.0
176
     1
 90
        8
176
     1
 62
     7
176
     1
 40
1.0
176
     1
 90
        1
176
     1
 90
        6
176
     1
 90
        2
176
     1
 62
     7
176
     1
 90
        3
176
     1
 90
        0
176
     1
 90
        0
176
     1
290
     0
176
     1
 90
       13
176
     1
 40
0.0
176
     1
 90
        0
176
     1
290
     0
176
     1
290
     1
176
     1
290
     1
176
     1
290
     0
176
     1
290
     0
176
     1
290
     0
176
     1
290
     0
176
     1
290
     0
176
     1
290
     0
176
     1
 90
       50
176
     1
 40
0.0
176
     1
 40
1.0
176
     1
 90
        0
176
     1
 62
    18
420
        0
176
     1
 90
       50
176
     1
 90
        3
176
     1
 62
     5
420
      255
176
     1
290
     0
176
     1
 90
       50
176
     1
 90
       50
176
     1
 90
       50
176
     1
290
     0
176
     1
 90
       50
176
     1
 62
   256
176
     0
 40
1.0
176
     0
 90
        2
176
     1
  1
strokes_ogs.tif
176
     1
290
     0
176
     1
 40
1.0
176
     1
 40
1.0
176
     1
  0
DICTIONARYVAR
  5
81
102
{ACAD_REACTORS
330
7C
102
}
330
7C
100
DictionaryVariables
280
     0
  1
1:1
  0
DICTIONARYVAR
  5
7E
102
{ACAD_REACTORS
330
7C
102
}
330
7C
100
DictionaryVariables
280
     0
  1
STANDARD
  0
DICTIONARYVAR
  5
7D
102
{ACAD_REACTORS
330
7C
102
}
330
7C
100
DictionaryVariables
280
     0
  1
STANDARD
  0
DICTIONARYVAR
  5
7F
102
{ACAD_REACTORS
330
7C
102
}
330
7C
100
DictionaryVariables
280
     0
  1
Imperial24
  0
DICTIONARYVAR
  5
80
102
{ACAD_REACTORS
330
7C
102
}
330
7C
100
DictionaryVariables
280
     0
  1
Imperial24
  0
XRECORD
  5
31D
102
{ACAD_REACTORS
330
319
102
}
330
319
100
AcDbXrecord
280
     1
  1
BUILDING_ID
  1
Progetto per messa in tavola DXF, DWG
  1
FLOOR_ID
  1
694395
  0
XRECORD
  5
31B
102
{ACAD_REACTORS
330
319
102
}
330
319
100
AcDbXrecord
280
     1
  1
-2001160
  1
Apparecchi idraulici
  0
XRECORD
  5
31C
102
{ACAD_REACTORS
330
319
102
}
330
319
100
AcDbXrecord
280
     1
  1
923159
  1
Pressure gauge
  0
XRECORD
  5
31A
102
{ACAD_REACTORS
330
319
102
}
330
319
100
AcDbXrecord
280
     1
  1
925399
  1
Automatic flow rate regulator valve_Caleffi_121 DN15 : 1 1/4''_Pressure gauge
  0
DICTIONARY
  5
1A
330
19
100
AcDbDictionary
280
     1
281
     1
  3
BUMPTILE
360
1C
  3
DIFFUSETILE
360
1B
  3
OPACITYTILE
360
1F
  3
REFLECTIONTILE
360
1E
  3
REFRACTIONTILE
360
20
  3
SPECULARTILE
360
1D
  0
DICTIONARY
  5
12
330
11
100
AcDbDictionary
280
     1
281
     1
  3
BUMPTILE
360
14
  3
DIFFUSETILE
360
13
  3
OPACITYTILE
360
17
  3
REFLECTIONTILE
360
16
  3
REFRACTIONTILE
360
18
  3
SPECULARTILE
360
15
  0
DICTIONARY
  5
22
330
21
100
AcDbDictionary
280
     1
281
     1
  3
BUMPTILE
360
24
  3
DIFFUSETILE
360
23
  3
OPACITYTILE
360
27
  3
REFLECTIONTILE
360
26
  3
REFRACTIONTILE
360
28
  3
SPECULARTILE
360
25
  0
DICTIONARY
  5
320
330
65
100
AcDbDictionary
280
     1
281
     1
  3
ACAD_ROUNDTRIP_2008_TABLESTYLE_CELLSTYLEMAP
360
321
  0
XRECORD
  5
1C
102
{ACAD_REACTORS
330
1A
102
}
330
1A
100
AcDbXrecord
280
     1
270
     1
271
     1
  0
XRECORD
  5
1B
102
{ACAD_REACTORS
330
1A
102
}
330
1A
100
AcDbXrecord
280
     1
270
     1
271
     1
  0
XRECORD
  5
1F
102
{ACAD_REACTORS
330
1A
102
}
330
1A
100
AcDbXrecord
280
     1
270
     1
271
     1
  0
XRECORD
  5
1E
102
{ACAD_REACTORS
330
1A
102
}
330
1A
100
AcDbXrecord
280
     1
270
     1
271
     1
  0
XRECORD
  5
20
102
{ACAD_REACTORS
330
1A
102
}
330
1A
100
AcDbXrecord
280
     1
270
     1
271
     1
  0
XRECORD
  5
1D
102
{ACAD_REACTORS
330
1A
102
}
330
1A
100
AcDbXrecord
280
     1
270
     1
271
     1
  0
XRECORD
  5
14
102
{ACAD_REACTORS
330
12
102
}
330
12
100
AcDbXrecord
280
     1
270
     1
271
     1
  0
XRECORD
  5
13
102
{ACAD_REACTORS
330
12
102
}
330
12
100
AcDbXrecord
280
     1
270
     1
271
     1
  0
XRECORD
  5
17
102
{ACAD_REACTORS
330
12
102
}
330
12
100
AcDbXrecord
280
     1
270
     1
271
     1
  0
XRECORD
  5
16
102
{ACAD_REACTORS
330
12
102
}
330
12
100
AcDbXrecord
280
     1
270
     1
271
     1
  0
XRECORD
  5
18
102
{ACAD_REACTORS
330
12
102
}
330
12
100
AcDbXrecord
280
     1
270
     1
271
     1
  0
XRECORD
  5
15
102
{ACAD_REACTORS
330
12
102
}
330
12
100
AcDbXrecord
280
     1
270
     1
271
     1
  0
XRECORD
  5
24
102
{ACAD_REACTORS
330
22
102
}
330
22
100
AcDbXrecord
280
     1
270
     1
271
     1
  0
XRECORD
  5
23
102
{ACAD_REACTORS
330
22
102
}
330
22
100
AcDbXrecord
280
     1
270
     1
271
     1
  0
XRECORD
  5
27
102
{ACAD_REACTORS
330
22
102
}
330
22
100
AcDbXrecord
280
     1
270
     1
271
     1
  0
XRECORD
  5
26
102
{ACAD_REACTORS
330
22
102
}
330
22
100
AcDbXrecord
280
     1
270
     1
271
     1
  0
XRECORD
  5
28
102
{ACAD_REACTORS
330
22
102
}
330
22
100
AcDbXrecord
280
     1
270
     1
271
     1
  0
XRECORD
  5
25
102
{ACAD_REACTORS
330
22
102
}
330
22
100
AcDbXrecord
280
     1
270
     1
271
     1
  0
CELLSTYLEMAP
  5
321
102
{ACAD_REACTORS
330
320
102
}
330
320
100
AcDbCellStyleMap
 90
        3
300
CELLSTYLE
  1
TABLEFORMAT_BEGIN
 90
        5
170
     1
 91
        0
 92
    32768
 62
   257
 93
        1
300
CONTENTFORMAT
  1
CONTENTFORMAT_BEGIN
 90
        0
 91
        0
 92
      512
 93
        0
300

 40
0.0
140
1.0
 94
        5
 62
     0
340
55
144
0.25
309
CONTENTFORMAT_END
171
     0
 94
        0
309
TABLEFORMAT_END
  1
CELLSTYLE_BEGIN
 90
        1
 91
        1
300
_TITLE
309
CELLSTYLE_END
300
CELLSTYLE
  1
TABLEFORMAT_BEGIN
 90
        5
170
     1
 91
        0
 92
        0
 62
   257
 93
        1
300
CONTENTFORMAT
  1
CONTENTFORMAT_BEGIN
 90
        0
 91
        0
 92
      512
 93
        0
300

 40
0.0
140
1.0
 94
        5
 62
     0
340
55
144
0.18
309
CONTENTFORMAT_END
171
     0
 94
        0
309
TABLEFORMAT_END
  1
CELLSTYLE_BEGIN
 90
        2
 91
        1
300
_HEADER
309
CELLSTYLE_END
300
CELLSTYLE
  1
TABLEFORMAT_BEGIN
 90
        5
170
     1
 91
        0
 92
        0
 62
   257
 93
        1
300
CONTENTFORMAT
  1
CONTENTFORMAT_BEGIN
 90
        0
 91
        0
 92
      512
 93
        0
300

 40
0.0
140
1.0
 94
        2
 62
     0
340
55
144
0.18
309
CONTENTFORMAT_END
171
     0
 94
        0
309
TABLEFORMAT_END
  1
CELLSTYLE_BEGIN
 90
        3
 91
        2
300
_DATA
309
CELLSTYLE_END
  0
ENDSEC
  0
EOF
