  0
SECTION
  2
HEADER
  9
$ACADVER
  1
AC1027
  9
$ACADMAINTVER
 70
    20
  9
$DWGCODEPAGE
  3
ANSI_1252
  9
$REQUIREDVERSIONS
160
                 0
  9
$INSBASE
 10
0.0
 20
0.0
 30
0.0
  9
$EXTMIN
 10
728.1664074431487
 20
1734.245878730009
 30
-0.00000001
  9
$EXTMAX
 10
1156.614353943141
 20
2111.500000000043
 30
0.00000001
  9
$LIMMIN
 10
0.0
 20
0.0
  9
$LIMMAX
 10
12.0
 20
9.0
  9
$ORTHOMODE
 70
     0
  9
$REGENMODE
 70
     1
  9
$FILLMODE
 70
     1
  9
$QTEXTMODE
 70
     0
  9
$MIRRTEXT
 70
     0
  9
$LTSCALE
 40
1.0
  9
$ATTMODE
 70
     1
  9
$TEXTSIZE
 40
0.2
  9
$TRACEWID
 40
0.05
  9
$TEXTSTYLE
  7
Standard
  9
$CLAYER
  8
0
  9
$CELTYPE
  6
ByLayer
  9
$CECOLOR
 62
   256
  9
$CELTSCALE
 40
1.0
  9
$DISPSILH
 70
     0
  9
$DIMSCALE
 40
1.0
  9
$DIMASZ
 40
0.18
  9
$DIMEXO
 40
0.0625
  9
$DIMDLI
 40
0.38
  9
$DIMRND
 40
0.0
  9
$DIMDLE
 40
0.0
  9
$DIMEXE
 40
0.18
  9
$DIMTP
 40
0.0
  9
$DIMTM
 40
0.0
  9
$DIMTXT
 40
0.18
  9
$DIMCEN
 40
0.09
  9
$DIMTSZ
 40
0.0
  9
$DIMTOL
 70
     0
  9
$DIMLIM
 70
     0
  9
$DIMTIH
 70
     1
  9
$DIMTOH
 70
     1
  9
$DIMSE1
 70
     0
  9
$DIMSE2
 70
     0
  9
$DIMTAD
 70
     0
  9
$DIMZIN
 70
     0
  9
$DIMBLK
  1

  9
$DIMASO
 70
     1
  9
$DIMSHO
 70
     1
  9
$DIMPOST
  1

  9
$DIMAPOST
  1

  9
$DIMALT
 70
     0
  9
$DIMALTD
 70
     2
  9
$DIMALTF
 40
25.4
  9
$DIMLFAC
 40
1.0
  9
$DIMTOFL
 70
     0
  9
$DIMTVP
 40
0.0
  9
$DIMTIX
 70
     0
  9
$DIMSOXD
 70
     0
  9
$DIMSAH
 70
     0
  9
$DIMBLK1
  1

  9
$DIMBLK2
  1

  9
$DIMSTYLE
  2
Standard
  9
$DIMCLRD
 70
     0
  9
$DIMCLRE
 70
     0
  9
$DIMCLRT
 70
     0
  9
$DIMTFAC
 40
1.0
  9
$DIMGAP
 40
0.09
  9
$DIMJUST
 70
     0
  9
$DIMSD1
 70
     0
  9
$DIMSD2
 70
     0
  9
$DIMTOLJ
 70
     1
  9
$DIMTZIN
 70
     0
  9
$DIMALTZ
 70
     0
  9
$DIMALTTZ
 70
     0
  9
$DIMUPT
 70
     0
  9
$DIMDEC
 70
     4
  9
$DIMTDEC
 70
     4
  9
$DIMALTU
 70
     2
  9
$DIMALTTD
 70
     2
  9
$DIMTXSTY
  7
Standard
  9
$DIMAUNIT
 70
     0
  9
$DIMADEC
 70
     0
  9
$DIMALTRND
 40
0.0
  9
$DIMAZIN
 70
     0
  9
$DIMDSEP
 70
    46
  9
$DIMATFIT
 70
     3
  9
$DIMFRAC
 70
     0
  9
$DIMLDRBLK
  1

  9
$DIMLUNIT
 70
     2
  9
$DIMLWD
 70
    -2
  9
$DIMLWE
 70
    -2
  9
$DIMTMOVE
 70
     0
  9
$DIMFXL
 40
1.0
  9
$DIMFXLON
 70
     0
  9
$DIMJOGANG
 40
0.7853981633974483
  9
$DIMTFILL
 70
     0
  9
$DIMTFILLCLR
 70
     0
  9
$DIMARCSYM
 70
     0
  9
$DIMLTYPE
  6

  9
$DIMLTEX1
  6

  9
$DIMLTEX2
  6

  9
$DIMTXTDIRECTION
 70
     0
  9
$LUNITS
 70
     2
  9
$LUPREC
 70
     4
  9
$SKETCHINC
 40
0.1
  9
$FILLETRAD
 40
0.0
  9
$AUNITS
 70
     0
  9
$AUPREC
 70
     0
  9
$MENU
  1
.
  9
$ELEVATION
 40
0.0
  9
$PELEVATION
 40
0.0
  9
$THICKNESS
 40
0.0
  9
$LIMCHECK
 70
     0
  9
$CHAMFERA
 40
0.0
  9
$CHAMFERB
 40
0.0
  9
$CHAMFERC
 40
0.0
  9
$CHAMFERD
 40
0.0
  9
$SKPOLY
 70
     0
  9
$TDCREATE
 40
2457575.692118715
  9
$TDUCREATE
 40
2457575.608785382
  9
$TDUPDATE
 40
2457575.692118715
  9
$TDUUPDATE
 40
2457575.608785382
  9
$TDINDWG
 40
0.0000131134
  9
$TDUSRTIMER
 40
0.0000131134
  9
$USRTIMER
 70
     1
  9
$ANGBASE
 50
0.0
  9
$ANGDIR
 70
     0
  9
$PDMODE
 70
     0
  9
$PDSIZE
 40
0.0
  9
$PLINEWID
 40
0.0
  9
$SPLFRAME
 70
     0
  9
$SPLINETYPE
 70
     6
  9
$SPLINESEGS
 70
     8
  9
$HANDSEED
  5
390
  9
$SURFTAB1
 70
     6
  9
$SURFTAB2
 70
     6
  9
$SURFTYPE
 70
     6
  9
$SURFU
 70
     6
  9
$SURFV
 70
     6
  9
$UCSBASE
  2

  9
$UCSNAME
  2

  9
$UCSORG
 10
0.0
 20
0.0
 30
0.0
  9
$UCSXDIR
 10
1.0
 20
0.0
 30
0.0
  9
$UCSYDIR
 10
0.0
 20
1.0
 30
0.0
  9
$UCSORTHOREF
  2

  9
$UCSORTHOVIEW
 70
     0
  9
$UCSORGTOP
 10
0.0
 20
0.0
 30
0.0
  9
$UCSORGBOTTOM
 10
0.0
 20
0.0
 30
0.0
  9
$UCSORGLEFT
 10
0.0
 20
0.0
 30
0.0
  9
$UCSORGRIGHT
 10
0.0
 20
0.0
 30
0.0
  9
$UCSORGFRONT
 10
0.0
 20
0.0
 30
0.0
  9
$UCSORGBACK
 10
0.0
 20
0.0
 30
0.0
  9
$PUCSBASE
  2

  9
$PUCSNAME
  2

  9
$PUCSORG
 10
0.0
 20
0.0
 30
0.0
  9
$PUCSXDIR
 10
1.0
 20
0.0
 30
0.0
  9
$PUCSYDIR
 10
0.0
 20
1.0
 30
0.0
  9
$PUCSORTHOREF
  2

  9
$PUCSORTHOVIEW
 70
     0
  9
$PUCSORGTOP
 10
0.0
 20
0.0
 30
0.0
  9
$PUCSORGBOTTOM
 10
0.0
 20
0.0
 30
0.0
  9
$PUCSORGLEFT
 10
0.0
 20
0.0
 30
0.0
  9
$PUCSORGRIGHT
 10
0.0
 20
0.0
 30
0.0
  9
$PUCSORGFRONT
 10
0.0
 20
0.0
 30
0.0
  9
$PUCSORGBACK
 10
0.0
 20
0.0
 30
0.0
  9
$USERI1
 70
     0
  9
$USERI2
 70
     0
  9
$USERI3
 70
     0
  9
$USERI4
 70
     0
  9
$USERI5
 70
     0
  9
$USERR1
 40
0.0
  9
$USERR2
 40
0.0
  9
$USERR3
 40
0.0
  9
$USERR4
 40
0.0
  9
$USERR5
 40
0.0
  9
$WORLDVIEW
 70
     1
  9
$SHADEDGE
 70
     3
  9
$SHADEDIF
 70
    70
  9
$TILEMODE
 70
     1
  9
$MAXACTVP
 70
    64
  9
$PINSBASE
 10
0.0
 20
0.0
 30
0.0
  9
$PLIMCHECK
 70
     0
  9
$PEXTMIN
 10
1.000000000000000E+20
 20
1.000000000000000E+20
 30
1.000000000000000E+20
  9
$PEXTMAX
 10
-1.000000000000000E+20
 20
-1.000000000000000E+20
 30
-1.000000000000000E+20
  9
$PLIMMIN
 10
0.0
 20
0.0
  9
$PLIMMAX
 10
12.0
 20
9.0
  9
$UNITMODE
 70
     0
  9
$VISRETAIN
 70
     1
  9
$PLINEGEN
 70
     0
  9
$PSLTSCALE
 70
     1
  9
$TREEDEPTH
 70
  3020
  9
$CMLSTYLE
  2
Standard
  9
$CMLJUST
 70
     0
  9
$CMLSCALE
 40
1.0
  9
$PROXYGRAPHICS
 70
     1
  9
$MEASUREMENT
 70
     1
  9
$CELWEIGHT
370
    -1
  9
$ENDCAPS
280
     0
  9
$JOINSTYLE
280
     0
  9
$LWDISPLAY
290
     0
  9
$INSUNITS
 70
     4
  9
$HYPERLINKBASE
  1

  9
$STYLESHEET
  1

  9
$XEDIT
290
     1
  9
$CEPSNTYPE
380
     0
  9
$PSTYLEMODE
290
     1
  9
$FINGERPRINTGUID
  2
{2A86A8A8-CADE-4FFD-A960-3CB1894A6385}
  9
$VERSIONGUID
  2
{E522BC8C-A137-458F-8773-68D0E09AC828}
  9
$EXTNAMES
290
     1
  9
$PSVPSCALE
 40
0.0
  9
$OLESTARTUP
290
     0
  9
$SORTENTS
280
   127
  9
$INDEXCTL
280
     0
  9
$HIDETEXT
280
     1
  9
$XCLIPFRAME
280
     2
  9
$HALOGAP
280
     0
  9
$OBSCOLOR
 70
   257
  9
$OBSLTYPE
280
     0
  9
$INTERSECTIONDISPLAY
280
     0
  9
$INTERSECTIONCOLOR
 70
   257
  9
$DIMASSOC
280
     2
  9
$PROJECTNAME
  1

  9
$CAMERADISPLAY
290
     0
  9
$LENSLENGTH
 40
50.0
  9
$CAMERAHEIGHT
 40
0.0
  9
$STEPSPERSEC
 40
2.0
  9
$STEPSIZE
 40
6.0
  9
$3DDWFPREC
 40
2.0
  9
$PSOLWIDTH
 40
0.25
  9
$PSOLHEIGHT
 40
4.0
  9
$LOFTANG1
 40
1.570796326794896
  9
$LOFTANG2
 40
1.570796326794896
  9
$LOFTMAG1
 40
0.0
  9
$LOFTMAG2
 40
0.0
  9
$LOFTPARAM
 70
     7
  9
$LOFTNORMALS
280
     1
  9
$LATITUDE
 40
37.795
  9
$LONGITUDE
 40
-122.394
  9
$NORTHDIRECTION
 40
0.0
  9
$TIMEZONE
 70
 -8000
  9
$LIGHTGLYPHDISPLAY
280
     1
  9
$TILEMODELIGHTSYNCH
280
     1
  9
$CMATERIAL
347
11
  9
$SOLIDHIST
280
     0
  9
$SHOWHIST
280
     1
  9
$DWFFRAME
280
     2
  9
$DGNFRAME
280
     0
  9
$REALWORLDSCALE
290
     1
  9
$INTERFERECOLOR
 62
     1
  9
$INTERFEREOBJVS
345
33
  9
$INTERFEREVPVS
346
30
  9
$CSHADOW
280
     0
  9
$SHADOWPLANELOCATION
 40
0.0
  0
ENDSEC
  0
SECTION
  2
CLASSES
  0
CLASS
  1
ACDBDICTIONARYWDFLT
  2
AcDbDictionaryWithDefault
  3
ObjectDBX Classes
 90
        0
 91
        1
280
     0
281
     0
  0
CLASS
  1
MATERIAL
  2
AcDbMaterial
  3
ObjectDBX Classes
 90
     1153
 91
        3
280
     0
281
     0
  0
CLASS
  1
VISUALSTYLE
  2
AcDbVisualStyle
  3
ObjectDBX Classes
 90
     4095
 91
       24
280
     0
281
     0
  0
CLASS
  1
SCALE
  2
AcDbScale
  3
ObjectDBX Classes
 90
     1153
 91
       17
280
     0
281
     0
  0
CLASS
  1
TABLESTYLE
  2
AcDbTableStyle
  3
ObjectDBX Classes
 90
     4095
 91
        1
280
     0
281
     0
  0
CLASS
  1
MLEADERSTYLE
  2
AcDbMLeaderStyle
  3
ACDB_MLEADERSTYLE_CLASS
 90
     4095
 91
        1
280
     0
281
     0
  0
CLASS
  1
ACDBSECTIONVIEWSTYLE
  2
AcDbSectionViewStyle
  3
ObjectDBX Classes
 90
     1025
 91
        1
280
     0
281
     0
  0
CLASS
  1
ACDBDETAILVIEWSTYLE
  2
AcDbDetailViewStyle
  3
ObjectDBX Classes
 90
     1025
 91
        1
280
     0
281
     0
  0
CLASS
  1
RASTERVARIABLES
  2
AcDbRasterVariables
  3
ISM
 90
        0
 91
        1
280
     0
281
     0
  0
CLASS
  1
DICTIONARYVAR
  2
AcDbDictionaryVar
  3
ObjectDBX Classes
 90
        0
 91
        5
280
     0
281
     0
  0
CLASS
  1
CELLSTYLEMAP
  2
AcDbCellStyleMap
  3
ObjectDBX Classes
 90
     1152
 91
        2
280
     0
281
     0
  0
CLASS
  1
SORTENTSTABLE
  2
AcDbSortentsTable
  3
ObjectDBX Classes
 90
        0
 91
        1
280
     0
281
     0
  0
ENDSEC
  0
SECTION
  2
TABLES
  0
TABLE
  2
VPORT
  5
8
330
0
100
AcDbSymbolTable
 70
     1
  0
VPORT
  5
57
330
8
100
AcDbSymbolTableRecord
100
AcDbViewportTableRecord
  2
*Active
 70
     0
 10
0.0
 20
0.0
 11
1.0
 21
1.0
 12
942.3903806931448
 22
1922.872939365026
 13
0.0
 23
0.0
 14
1.0
 24
1.0
 15
0.0
 25
0.0
 16
0.0
 26
0.0
 36
1.0
 17
0.0
 27
0.0
 37
0.0
 40
377.2541212700346
 41
1.135701168903371
 42
50.0
 43
0.0
 44
0.0
 50
0.0
 51
0.0
 71
     0
 72
  1000
 73
     1
 74
     1
 75
     0
 76
     0
 77
     0
 78
     0
281
     0
 65
     1
110
0.0
120
0.0
130
0.0
111
1.0
121
0.0
131
0.0
112
0.0
122
1.0
132
0.0
 79
     0
146
0.0
 60
     3
 61
     5
292
     1
282
     1
141
0.0
142
0.0
 63
   250
421
  3355443
  0
ENDTAB
  0
TABLE
  2
LTYPE
  5
5
330
0
100
AcDbSymbolTable
 70
     3
  0
LTYPE
  5
5B
330
5
100
AcDbSymbolTableRecord
100
AcDbLinetypeTableRecord
  2
ByBlock
 70
     0
  3

 72
    65
 73
     0
 40
0.0
  0
LTYPE
  5
5C
330
5
100
AcDbSymbolTableRecord
100
AcDbLinetypeTableRecord
  2
ByLayer
 70
     0
  3

 72
    65
 73
     0
 40
0.0
  0
LTYPE
  5
5D
330
5
100
AcDbSymbolTableRecord
100
AcDbLinetypeTableRecord
  2
Continuous
 70
     0
  3
Solid line
 72
    65
 73
     0
 40
0.0
  0
LTYPE
  5
69
330
5
100
AcDbSymbolTableRecord
100
AcDbLinetypeTableRecord
  2
PHANTOM2
 70
     0
  3
___ _ _ ___ _ _ ___ _ _ ___ _ _
 72
    65
 73
     6
 40
1.25
 49
0.625
 74
     0
 49
-0.125
 74
     0
 49
0.125
 74
     0
 49
-0.125
 74
     0
 49
0.125
 74
     0
 49
-0.125
 74
     0
  0
LTYPE
  5
86
330
5
100
AcDbSymbolTableRecord
100
AcDbLinetypeTableRecord
  2
Nascosto 1_5 mm
 70
     0
  3

 72
    65
 73
     2
 40
2.2
 49
1.5
 74
     0
 49
-0.7000000000000001
 74
     0
  0
ENDTAB
  0
TABLE
  2
LAYER
  5
2
330
0
100
AcDbSymbolTable
 70
     4
  0
LAYER
  5
54
330
2
100
AcDbSymbolTableRecord
100
AcDbLayerTableRecord
  2
0
 70
     0
 62
     7
  6
Continuous
370
    -3
390
F
347
21
348
0
  0
LAYER
  5
85
330
2
100
AcDbSymbolTableRecord
100
AcDbLayerTableRecord
  2
P-SANR-FIXT
 70
     0
 62
     6
  6
Continuous
370
    18
390
F
347
21
348
0
  0
LAYER
  5
88
330
2
100
AcDbSymbolTableRecord
100
AcDbLayerTableRecord
  2
M-PIPE
 70
     0
 62
     3
  6
Continuous
370
    18
390
F
347
21
348
0
  0
ENDTAB
  0
TABLE
  2
STYLE
  5
3
330
0
100
AcDbSymbolTable
 70
     2
  0
STYLE
  5
55
330
3
100
AcDbSymbolTableRecord
100
AcDbTextStyleTableRecord
  2
Standard
 70
     0
 40
0.0
 41
1.0
 50
0.0
 71
     0
 42
0.2
  3
txt
  4

  0
STYLE
  5
5A
330
3
100
AcDbSymbolTableRecord
100
AcDbTextStyleTableRecord
  2
Annotative
 70
     0
 40
0.0
 41
1.0
 50
0.0
 71
     0
 42
0.2
  3
txt
  4

1001
AcadAnnotative
1000
AnnotativeData
1002
{
1070
     1
1070
     1
1002
}
  0
ENDTAB
  0
TABLE
  2
VIEW
  5
6
330
0
100
AcDbSymbolTable
 70
     0
  0
ENDTAB
  0
TABLE
  2
UCS
  5
7
330
0
100
AcDbSymbolTable
 70
     0
  0
ENDTAB
  0
TABLE
  2
APPID
  5
9
330
0
100
AcDbSymbolTable
 70
     3
  0
APPID
  5
56
330
9
100
AcDbSymbolTableRecord
100
AcDbRegAppTableRecord
  2
ACAD
 70
     0
  0
APPID
  5
5E
330
9
100
AcDbSymbolTableRecord
100
AcDbRegAppTableRecord
  2
AcadAnnotative
 70
     0
  0
APPID
  5
79
330
9
100
AcDbSymbolTableRecord
100
AcDbRegAppTableRecord
  2
REVIT
 70
     0
  0
ENDTAB
  0
TABLE
  2
DIMSTYLE
  5
A
330
0
100
AcDbSymbolTable
 70
     2
100
AcDbDimStyleTable
 71
     0
  0
DIMSTYLE
105
58
330
A
100
AcDbSymbolTableRecord
100
AcDbDimStyleTableRecord
  2
Standard
 70
     0
340
55
  0
DIMSTYLE
105
59
330
A
100
AcDbSymbolTableRecord
100
AcDbDimStyleTableRecord
  2
Annotative
 70
     0
340
55
1001
AcadAnnotative
1000
AnnotativeData
1002
{
1070
     1
1070
     1
1002
}
  0
ENDTAB
  0
TABLE
  2
BLOCK_RECORD
  5
1
330
0
100
AcDbSymbolTable
 70
     4
  0
BLOCK_RECORD
  5
71
102
{ACAD_XDICTIONARY
360
38B
102
}
330
1
100
AcDbSymbolTableRecord
100
AcDbBlockTableRecord
  2
*Model_Space
340
74
 70
     0
280
     1
281
     0
  0
BLOCK_RECORD
  5
6D
330
1
100
AcDbSymbolTableRecord
100
AcDbBlockTableRecord
  2
*Paper_Space
340
70
 70
     0
280
     1
281
     0
  0
BLOCK_RECORD
  5
75
330
1
100
AcDbSymbolTableRecord
100
AcDbBlockTableRecord
  2
*Paper_Space0
340
78
 70
     0
280
     1
281
     0
  0
BLOCK_RECORD
  5
87
330
1
100
AcDbSymbolTableRecord
100
AcDbBlockTableRecord
  2
Automatic flow rate regulator valve_Caleffi_121 DN15 - 1___Pressure gauge-932181-Est - Idraulica
340
0
102
{BLKREFS
331
17F
102
}
 70
     0
280
     1
281
     0
  0
BLOCK_RECORD
  5
180
330
1
100
AcDbSymbolTableRecord
100
AcDbBlockTableRecord
  2
Automatic flow rate regulator valve_Caleffi_121 DN15 - 1___Pressure gauge-V1-Est - Idraulica
340
0
102
{BLKREFS
331
294
102
}
 70
     0
280
     1
281
     0
  0
BLOCK_RECORD
  5
295
330
1
100
AcDbSymbolTableRecord
100
AcDbBlockTableRecord
  2
Automatic flow rate regulator valve_Caleffi_121 DN15 - 1___Pressure gauge-V2-Est - Idraulica
340
0
102
{BLKREFS
331
384
102
}
 70
     0
280
     1
281
     0
  0
ENDTAB
  0
ENDSEC
  0
SECTION
  2
BLOCKS
  0
BLOCK
  5
72
330
71
100
AcDbEntity
  8
0
100
AcDbBlockBegin
  2
*Model_Space
 70
     0
 10
0.0
 20
0.0
 30
0.0
  3
*Model_Space
  1

  0
ENDBLK
  5
73
330
71
100
AcDbEntity
  8
0
100
AcDbBlockEnd
  0
BLOCK
  5
6E
330
6D
100
AcDbEntity
 67
     1
  8
0
100
AcDbBlockBegin
  2
*Paper_Space
 70
     0
 10
0.0
 20
0.0
 30
0.0
  3
*Paper_Space
  1

  0
ENDBLK
  5
6F
330
6D
100
AcDbEntity
 67
     1
  8
0
100
AcDbBlockEnd
  0
BLOCK
  5
76
330
75
100
AcDbEntity
 67
     1
  8
0
100
AcDbBlockBegin
  2
*Paper_Space0
 70
     0
 10
0.0
 20
0.0
 30
0.0
  3
*Paper_Space0
  1

  0
ENDBLK
  5
77
330
75
100
AcDbEntity
 67
     1
  8
0
100
AcDbBlockEnd
  0
BLOCK
  5
17D
330
87
100
AcDbEntity
  8
0
100
AcDbBlockBegin
  2
Automatic flow rate regulator valve_Caleffi_121 DN15 - 1___Pressure gauge-932181-Est - Idraulica
 70
     0
 10
0.0
 20
0.0
 30
0.0
  3
Automatic flow rate regulator valve_Caleffi_121 DN15 - 1___Pressure gauge-932181-Est - Idraulica
  1

  0
ARC
  5
89
330
87
100
AcDbEntity
  8
M-PIPE
100
AcDbCircle
 10
838.666407443155
 20
2000.000000000037
 30
0.0
 40
3.5
100
AcDbArc
 50
0.0
 51
180.0
1001
REVIT
1002
{
1070
     3
1000
924018
1002
}
  0
ARC
  5
8A
330
87
100
AcDbEntity
  8
M-PIPE
100
AcDbCircle
 10
838.666407443155
 20
2000.000000000037
 30
0.0
 40
3.5
100
AcDbArc
 50
180.0
 51
0.0
1001
REVIT
1002
{
1070
     3
1000
924018
1002
}
  0
ARC
  5
8B
330
87
100
AcDbEntity
  8
M-PIPE
100
AcDbCircle
 10
838.666407443155
 20
2000.000000000037
 30
0.0
 40
31.00000000001201
100
AcDbArc
 50
359.9999999999993
 51
180.0000000000005
1001
REVIT
1002
{
1070
     3
1000
924018
1002
}
  0
ARC
  5
8C
330
87
100
AcDbEntity
  8
M-PIPE
100
AcDbCircle
 10
838.666407443155
 20
2000.000000000037
 30
0.0
 40
31.00000000001176
100
AcDbArc
 50
180.0000000000013
 51
359.9999999999992
1001
REVIT
1002
{
1070
     3
1000
924018
1002
}
  0
LINE
  5
8D
330
87
100
AcDbEntity
  8
P-SANR-FIXT
100
AcDbLine
 10
765.1664074431814
 20
1973.947441116764
 30
0.0
 11
777.3942109806377
 21
1973.947441116764
 31
0.0
  0
LINE
  5
8E
330
87
100
AcDbEntity
  8
P-SANR-FIXT
100
AcDbLine
 10
777.3942109806299
 20
2026.052558883241
 30
0.0
 11
765.1664074431888
 21
2026.052558883241
 31
0.0
  0
LINE
  5
8F
330
87
100
AcDbEntity
  8
P-SANR-FIXT
100
AcDbLine
 10
761.1664074431883
 20
1980.87564434702
 30
0.0
 11
765.0269376890702
 21
1974.189009817003
 31
0.0
  0
LINE
  5
90
330
87
100
AcDbEntity
  8
P-SANR-FIXT
100
AcDbLine
 10
765.0485245934162
 20
1974.151620201898
 30
0.0
 11
765.1664074431814
 21
1973.947441116764
 31
0.0
  0
LINE
  5
91
330
87
100
AcDbEntity
  8
P-SANR-FIXT
100
AcDbLine
 10
765.1664074431888
 20
2026.052558883241
 30
0.0
 11
765.0485245934237
 21
2025.848379798107
 31
0.0
  0
LINE
  5
92
330
87
100
AcDbEntity
  8
P-SANR-FIXT
100
AcDbLine
 10
765.0269376890777
 20
2025.810990183001
 30
0.0
 11
761.1664074431883
 21
2019.124355652971
 31
0.0
  0
LINE
  5
93
330
87
100
AcDbEntity
  8
P-SANR-FIXT
100
AcDbLine
 10
779.1664074431876
 20
2022.999999999945
 30
0.0
 11
777.5344743192688
 21
2025.810959202049
 31
0.0
  0
LINE
  5
94
330
87
100
AcDbEntity
  8
P-SANR-FIXT
100
AcDbLine
 10
777.5123955942103
 20
2025.848989188979
 30
0.0
 11
777.3942109806299
 21
2026.052558883241
 31
0.0
  0
LINE
  5
95
330
87
100
AcDbEntity
  8
P-SANR-FIXT
100
AcDbLine
 10
777.3942109806377
 20
1973.947441116764
 30
0.0
 11
777.5123955942178
 21
1974.151010811025
 31
0.0
  0
LINE
  5
96
330
87
100
AcDbEntity
  8
P-SANR-FIXT
100
AcDbLine
 10
777.5344743192765
 20
1974.189040797955
 30
0.0
 11
779.1664074431876
 21
1977.000000000046
 31
0.0
  0
LINE
  5
97
330
87
100
AcDbEntity
  8
P-SANR-FIXT
100
AcDbLine
 10
761.1664074431875
 20
1980.87564434702
 30
0.0
 11
761.1664074431875
 21
2019.12435565297
 31
0.0
  0
LINE
  5
98
330
87
100
AcDbEntity
  8
P-SANR-FIXT
100
AcDbLine
 10
779.1664074431869
 20
2022.999999999945
 30
0.0
 11
779.1664074431869
 21
1977.000000000045
 31
0.0
  0
SPLINE
  5
99
330
87
100
AcDbEntity
  8
P-SANR-FIXT
100
AcDbSpline
210
0.0
220
0.0
230
1.0
 70
     8
 71
     3
 72
    10
 73
     6
 74
     0
 42
0.000000001
 43
0.0000000001
 40
0.0
 40
0.0
 40
0.0
 40
0.0
 40
0.4
 40
0.7
 40
1.0
 40
1.0
 40
1.0
 40
1.0
 10
777.7977671456555
 20
2009.526279441621
 30
0.0
 10
777.5855611253263
 20
2010.490550125383
 30
0.0
 10
777.3554261529826
 20
2012.203801364763
 30
0.0
 10
777.4124423170774
 20
2014.302280136013
 30
0.0
 10
777.6388542309194
 20
2015.227601678455
 30
0.0
 10
777.797767145658
 20
2015.588457268112
 30
0.0
  0
SPLINE
  5
9A
330
87
100
AcDbEntity
  8
P-SANR-FIXT
100
AcDbSpline
210
0.0
220
0.0
230
1.0
 70
     8
 71
     3
 72
    10
 73
     6
 74
     0
 42
0.000000001
 43
0.0000000001
 40
0.0
 40
0.0
 40
0.0
 40
0.0
 40
0.4
 40
0.7
 40
1.0
 40
1.0
 40
1.0
 40
1.0
 10
764.7650830628767
 20
2015.588457268112
 30
0.0
 10
764.9758154959329
 20
2015.107246907096
 30
0.0
 10
765.2048182077982
 20
2013.942559240525
 30
0.0
 10
765.1485626987501
 20
2011.711036644115
 30
0.0
 10
764.9233722191034
 20
2010.249584755704
 30
0.0
 10
764.7650830628791
 20
2009.526279441621
 30
0.0
  0
SPLINE
  5
9B
330
87
100
AcDbEntity
  8
P-SANR-FIXT
100
AcDbSpline
210
0.0
220
0.0
230
1.0
 70
     8
 71
     3
 72
     9
 73
     5
 74
     0
 42
0.000000001
 43
0.0000000001
 40
0.0
 40
0.0
 40
0.0
 40
0.0
 40
0.5
 40
1.0
 40
1.0
 40
1.0
 40
1.0
 10
764.7650830628791
 20
2009.526279441621
 30
0.0
 10
764.0501926494993
 20
2006.304044525463
 30
0.0
 10
763.3353022361188
 20
1999.906383128766
 30
0.0
 10
764.0501926494973
 20
1993.602338603304
 30
0.0
 10
764.7650830628762
 20
1990.473720558382
 30
0.0
  0
SPLINE
  5
9C
330
87
100
AcDbEntity
  8
P-SANR-FIXT
100
AcDbSpline
210
0.0
220
0.0
230
1.0
 70
     8
 71
     3
 72
     9
 73
     5
 74
     0
 42
0.000000001
 43
0.0000000001
 40
0.0
 40
0.0
 40
0.0
 40
0.0
 40
0.5
 40
1.0
 40
1.0
 40
1.0
 40
1.0
 10
777.7977671456582
 20
1990.473720558382
 30
0.0
 10
778.516633416556
 20
1993.602521478524
 30
0.0
 10
779.2354996874532
 20
1999.906748879205
 30
0.0
 10
778.5166334165542
 20
2006.304227400683
 30
0.0
 10
777.7977671456555
 20
2009.526279441621
 30
0.0
  0
SPLINE
  5
9D
330
87
100
AcDbEntity
  8
P-SANR-FIXT
100
AcDbSpline
210
0.0
220
0.0
230
1.0
 70
     8
 71
     3
 72
    10
 73
     6
 74
     0
 42
0.000000001
 43
0.0000000001
 40
0.0
 40
0.0
 40
0.0
 40
0.0
 40
0.4
 40
0.7
 40
1.0
 40
1.0
 40
1.0
 40
1.0
 10
764.7650830628762
 20
1990.473720558382
 30
0.0
 10
764.9761352711752
 20
1989.509313472938
 30
0.0
 10
765.2049710231554
 20
1987.796098557825
 30
0.0
 10
765.1482896601225
 20
1985.697856208577
 30
0.0
 10
764.9231323876643
 20
1984.772450502653
 30
0.0
 10
764.7650830628719
 20
1984.411542731891
 30
0.0
  0
SPLINE
  5
9E
330
87
100
AcDbEntity
  8
P-SANR-FIXT
100
AcDbSpline
210
0.0
220
0.0
230
1.0
 70
     8
 71
     3
 72
    10
 73
     6
 74
     0
 42
0.000000001
 43
0.0000000001
 40
0.0
 40
0.0
 40
0.0
 40
0.0
 40
0.4
 40
0.7
 40
1.0
 40
1.0
 40
1.0
 40
1.0
 10
777.7977671456625
 20
1984.411542731891
 30
0.0
 10
777.5858832593444
 20
1984.8926835181
 30
0.0
 10
777.3555804661153
 20
1986.057315309266
 30
0.0
 10
777.4121669775556
 20
1988.289114043519
 30
0.0
 10
777.6386126304116
 20
1989.750517545561
 30
0.0
 10
777.7977671456582
 20
1990.473720558382
 30
0.0
  0
SPLINE
  5
9F
330
87
100
AcDbEntity
  8
P-SANR-FIXT
100
AcDbSpline
210
0.0
220
0.0
230
1.0
 70
     8
 71
     3
 72
     9
 73
     5
 74
     0
 42
0.000000001
 43
0.0000000001
 40
0.0
 40
0.0
 40
0.0
 40
0.0
 40
0.5
 40
1.0
 40
1.0
 40
1.0
 40
1.0
 10
764.7650830628719
 20
1984.411542731891
 30
0.0
 10
764.050192649489
 20
1982.800425273812
 30
0.0
 10
763.3353022361031
 20
1979.601594575464
 30
0.0
 10
764.0501926494776
 20
1976.449572312733
 30
0.0
 10
764.7650830628548
 20
1974.885263290272
 30
0.0
  0
SPLINE
  5
A0
330
87
100
AcDbEntity
  8
P-SANR-FIXT
100
AcDbSpline
210
0.0
220
0.0
230
1.0
 70
     8
 71
     3
 72
     9
 73
     5
 74
     0
 42
0.000000001
 43
0.0000000001
 40
0.0
 40
0.0
 40
0.0
 40
0.0
 40
0.5
 40
1.0
 40
1.0
 40
1.0
 40
1.0
 10
777.79776714568
 20
1974.885263290272
 30
0.0
 10
778.5166334165761
 20
1976.449663750343
 30
0.0
 10
779.2354996874694
 20
1979.601777450684
 30
0.0
 10
778.5166334165644
 20
1982.800516711422
 30
0.0
 10
777.7977671456625
 20
1984.411542731891
 30
0.0
  0
SPLINE
  5
A1
330
87
100
AcDbEntity
  8
P-SANR-FIXT
100
AcDbSpline
210
0.0
220
0.0
230
1.0
 70
     8
 71
     3
 72
     9
 73
     5
 74
     0
 42
0.000000001
 43
0.0000000001
 40
0.0
 40
0.0
 40
0.0
 40
0.0
 40
0.5
 40
1.0
 40
1.0
 40
1.0
 40
1.0
 10
764.7650830628548
 20
1974.885263290272
 30
0.0
 10
764.897515826385
 20
1974.58374584848
 30
0.0
 10
765.096835986636
 20
1974.112426151385
 30
0.0
 10
765.1650654132687
 20
1973.947441116759
 30
0.0
 10
765.1664074431805
 20
1973.947441116763
 30
0.0
  0
SPLINE
  5
A2
330
87
100
AcDbEntity
  8
P-SANR-FIXT
100
AcDbSpline
210
0.0
220
0.0
230
1.0
 70
     8
 71
     3
 72
     9
 73
     5
 74
     0
 42
0.000000001
 43
0.0000000001
 40
0.0
 40
0.0
 40
0.0
 40
0.0
 40
0.5
 40
1.0
 40
1.0
 40
1.0
 40
1.0
 10
777.3942109806369
 20
1973.947441116763
 30
0.0
 10
777.3955693028061
 20
1973.947441116759
 30
0.0
 10
777.4641869858161
 20
1974.112468287838
 30
0.0
 10
777.6646067461683
 20
1974.583785499383
 30
0.0
 10
777.79776714568
 20
1974.885263290272
 30
0.0
  0
SPLINE
  5
A3
330
87
100
AcDbEntity
  8
P-SANR-FIXT
100
AcDbSpline
210
0.0
220
0.0
230
1.0
 70
     8
 71
     3
 72
     9
 73
     5
 74
     0
 42
0.000000001
 43
0.0000000001
 40
0.0
 40
0.0
 40
0.0
 40
0.0
 40
0.5
 40
1.0
 40
1.0
 40
1.0
 40
1.0
 10
765.1664074431882
 20
2026.05255888324
 30
0.0
 10
765.1650654132764
 20
2026.052558883244
 30
0.0
 10
765.0968359866435
 20
2025.887573848618
 30
0.0
 10
764.8975158263924
 20
2025.416254151522
 30
0.0
 10
764.7650830628622
 20
2025.114736709731
 30
0.0
  0
SPLINE
  5
A4
330
87
100
AcDbEntity
  8
P-SANR-FIXT
100
AcDbSpline
210
0.0
220
0.0
230
1.0
 70
     8
 71
     3
 72
     9
 73
     5
 74
     0
 42
0.000000001
 43
0.0000000001
 40
0.0
 40
0.0
 40
0.0
 40
0.0
 40
0.5
 40
1.0
 40
1.0
 40
1.0
 40
1.0
 10
777.7977671456725
 20
2025.114736709731
 30
0.0
 10
777.6646067461607
 20
2025.41621450062
 30
0.0
 10
777.4641869858087
 20
2025.887531712165
 30
0.0
 10
777.3955693027986
 20
2026.052558883244
 30
0.0
 10
777.3942109806292
 20
2026.05255888324
 30
0.0
  0
SPLINE
  5
A5
330
87
100
AcDbEntity
  8
P-SANR-FIXT
100
AcDbSpline
210
0.0
220
0.0
230
1.0
 70
     8
 71
     3
 72
     9
 73
     5
 74
     0
 42
0.000000001
 43
0.0000000001
 40
0.0
 40
0.0
 40
0.0
 40
0.0
 40
0.5
 40
1.0
 40
1.0
 40
1.0
 40
1.0
 10
764.7650830628622
 20
2025.114736709731
 30
0.0
 10
764.0501926494851
 20
2023.503619251652
 30
0.0
 10
763.3353022361101
 20
2020.304788553303
 30
0.0
 10
764.0501926494945
 20
2017.152766290573
 30
0.0
 10
764.7650830628767
 20
2015.588457268112
 30
0.0
  0
SPLINE
  5
A6
330
87
100
AcDbEntity
  8
P-SANR-FIXT
100
AcDbSpline
210
0.0
220
0.0
230
1.0
 70
     8
 71
     3
 72
     9
 73
     5
 74
     0
 42
0.000000001
 43
0.0000000001
 40
0.0
 40
0.0
 40
0.0
 40
0.0
 40
0.5
 40
1.0
 40
1.0
 40
1.0
 40
1.0
 10
777.797767145658
 20
2015.588457268112
 30
0.0
 10
778.5166334165588
 20
2017.152857728182
 30
0.0
 10
779.2354996874625
 20
2020.304971428523
 30
0.0
 10
778.5166334165688
 20
2023.503710689262
 30
0.0
 10
777.7977671456725
 20
2025.114736709731
 30
0.0
  0
LINE
  5
A7
330
87
100
AcDbEntity
  8
P-SANR-FIXT
100
AcDbLine
 10
858.9386039057346
 20
1973.947441116764
 30
0.0
 11
871.1664074431908
 21
1973.947441116764
 31
0.0
  0
LINE
  5
A8
330
87
100
AcDbEntity
  8
P-SANR-FIXT
100
AcDbLine
 10
871.1664074431833
 20
2026.052558883241
 30
0.0
 11
858.9386039057421
 21
2026.052558883241
 31
0.0
  0
LINE
  5
A9
330
87
100
AcDbEntity
  8
P-SANR-FIXT
100
AcDbLine
 10
875.1664074431841
 20
2019.124355652971
 30
0.0
 11
871.3058771972946
 21
2025.810990183001
 31
0.0
  0
LINE
  5
AA
330
87
100
AcDbEntity
  8
P-SANR-FIXT
100
AcDbLine
 10
871.2842902929484
 20
2025.848379798107
 30
0.0
 11
871.1664074431833
 21
2026.052558883241
 31
0.0
  0
LINE
  5
AB
330
87
100
AcDbEntity
  8
P-SANR-FIXT
100
AcDbLine
 10
871.1664074431908
 20
1973.947441116764
 30
0.0
 11
871.2842902929558
 21
1974.151620201898
 31
0.0
  0
LINE
  5
AC
330
87
100
AcDbEntity
  8
P-SANR-FIXT
100
AcDbLine
 10
871.3058771973022
 20
1974.189009817003
 30
0.0
 11
875.1664074431841
 21
1980.87564434702
 31
0.0
  0
LINE
  5
AD
330
87
100
AcDbEntity
  8
P-SANR-FIXT
100
AcDbLine
 10
857.9071454270607
 20
1975.724099522504
 30
0.0
 11
858.7983405670957
 21
1974.189040797955
 31
0.0
  0
LINE
  5
AE
330
87
100
AcDbEntity
  8
P-SANR-FIXT
100
AcDbLine
 10
858.8204192921542
 20
1974.151010811025
 30
0.0
 11
858.9386039057346
 21
1973.947441116764
 31
0.0
  0
LINE
  5
AF
330
87
100
AcDbEntity
  8
P-SANR-FIXT
100
AcDbLine
 10
858.9386039057421
 20
2026.052558883241
 30
0.0
 11
858.8204192921619
 21
2025.848989188979
 31
0.0
  0
LINE
  5
B0
330
87
100
AcDbEntity
  8
P-SANR-FIXT
100
AcDbLine
 10
858.7983405671035
 20
2025.810959202049
 30
0.0
 11
857.9071454270941
 21
2024.275900477545
 31
0.0
  0
LINE
  5
B1
330
87
100
AcDbEntity
  8
P-SANR-FIXT
100
AcDbLine
 10
875.1664074431831
 20
2019.12435565297
 30
0.0
 11
875.1664074431831
 21
1980.87564434702
 31
0.0
  0
SPLINE
  5
B2
330
87
100
AcDbEntity
  8
P-SANR-FIXT
100
AcDbSpline
210
0.0
220
0.0
230
1.0
 70
     8
 71
     3
 72
    10
 73
     6
 74
     0
 42
0.000000001
 43
0.0000000001
 40
0.0
 40
0.0
 40
0.0
 40
0.0
 40
0.4
 40
0.7
 40
1.0
 40
1.0
 40
1.0
 40
1.0
 10
871.5677318234913
 20
2009.526279441621
 30
0.0
 10
871.3569993904355
 20
2010.488700163653
 30
0.0
 10
871.1279966785715
 20
2012.202231100034
 30
0.0
 10
871.1842521876212
 20
2014.300302816889
 30
0.0
 10
871.4094426672689
 20
2015.22680461107
 30
0.0
 10
871.5677318234938
 20
2015.588457268112
 30
0.0
  0
SPLINE
  5
B3
330
87
100
AcDbEntity
  8
P-SANR-FIXT
100
AcDbSpline
210
0.0
220
0.0
230
1.0
 70
     8
 71
     3
 72
     9
 73
     5
 74
     0
 42
0.000000001
 43
0.0000000001
 40
0.0
 40
0.0
 40
0.0
 40
0.0
 40
0.5
 40
1.0
 40
1.0
 40
1.0
 40
1.0
 10
871.5677318234941
 20
1990.473720558382
 30
0.0
 10
872.282622236873
 20
1993.602338603304
 30
0.0
 10
872.9975126502512
 20
1999.906383128766
 30
0.0
 10
872.2826222368711
 20
2006.304044525463
 30
0.0
 10
871.5677318234913
 20
2009.526279441621
 30
0.0
  0
SPLINE
  5
B4
330
87
100
AcDbEntity
  8
P-SANR-FIXT
100
AcDbSpline
210
0.0
220
0.0
230
1.0
 70
     8
 71
     3
 72
    10
 73
     6
 74
     0
 42
0.000000001
 43
0.0000000001
 40
0.0
 40
0.0
 40
0.0
 40
0.0
 40
0.4
 40
0.7
 40
1.0
 40
1.0
 40
1.0
 40
1.0
 10
871.5677318234984
 20
1984.411542731891
 30
0.0
 10
871.3569993904419
 20
1984.892753092907
 30
0.0
 10
871.1279966785761
 20
1986.057440759478
 30
0.0
 10
871.1842521876235
 20
1988.288963355888
 30
0.0
 10
871.40944266727
 20
1989.750415244299
 30
0.0
 10
871.5677318234941
 20
1990.473720558382
 30
0.0
  0
SPLINE
  5
B5
330
87
100
AcDbEntity
  8
P-SANR-FIXT
100
AcDbSpline
210
0.0
220
0.0
230
1.0
 70
     8
 71
     3
 72
     8
 73
     4
 74
     0
 42
0.000000001
 43
0.0000000001
 40
0.8958431137443618
 40
0.8958431137443618
 40
0.8958431137443618
 40
0.8958431137443618
 40
1.0
 40
1.0
 40
1.0
 40
1.0
 10
858.1325909076408
 20
1975.86443924907
 30
0.0
 10
858.2511457181858
 20
1975.537541438094
 30
0.0
 10
858.385297995869
 20
1975.211149451828
 30
0.0
 10
858.5350477406906
 20
1974.885263290272
 30
0.0
  0
SPLINE
  5
B6
330
87
100
AcDbEntity
  8
P-SANR-FIXT
100
AcDbSpline
210
0.0
220
0.0
230
1.0
 70
     8
 71
     3
 72
     9
 73
     5
 74
     0
 42
0.000000001
 43
0.0000000001
 40
0.0
 40
0.0
 40
0.0
 40
0.0
 40
0.5
 40
1.0
 40
1.0
 40
1.0
 40
1.0
 10
871.5677318235158
 20
1974.885263290272
 30
0.0
 10
872.2826222368931
 20
1976.449572312733
 30
0.0
 10
872.9975126502674
 20
1979.601594575464
 30
0.0
 10
872.2826222368814
 20
1982.800425273812
 30
0.0
 10
871.5677318234984
 20
1984.411542731891
 30
0.0
  0
SPLINE
  5
B7
330
87
100
AcDbEntity
  8
P-SANR-FIXT
100
AcDbSpline
210
0.0
220
0.0
230
1.0
 70
     8
 71
     3
 72
     9
 73
     5
 74
     0
 42
0.000000001
 43
0.0000000001
 40
0.0
 40
0.0
 40
0.0
 40
0.0
 40
0.5
 40
1.0
 40
1.0
 40
1.0
 40
1.0
 10
858.5350477406906
 20
1974.885263290272
 30
0.0
 10
858.6682081402022
 20
1974.583785499383
 30
0.0
 10
858.8686279005544
 20
1974.112468287838
 30
0.0
 10
858.9372455835645
 20
1973.947441116759
 30
0.0
 10
858.9386039057339
 20
1973.947441116763
 30
0.0
  0
SPLINE
  5
B8
330
87
100
AcDbEntity
  8
P-SANR-FIXT
100
AcDbSpline
210
0.0
220
0.0
230
1.0
 70
     8
 71
     3
 72
     9
 73
     5
 74
     0
 42
0.000000001
 43
0.0000000001
 40
0.0
 40
0.0
 40
0.0
 40
0.0
 40
0.5
 40
1.0
 40
1.0
 40
1.0
 40
1.0
 10
871.1664074431901
 20
1973.947441116763
 30
0.0
 10
871.1677494731018
 20
1973.947441116759
 30
0.0
 10
871.2359788997344
 20
1974.112426151385
 30
0.0
 10
871.4352990599856
 20
1974.583745848481
 30
0.0
 10
871.5677318235158
 20
1974.885263290272
 30
0.0
  0
SPLINE
  5
B9
330
87
100
AcDbEntity
  8
P-SANR-FIXT
100
AcDbSpline
210
0.0
220
0.0
230
1.0
 70
     8
 71
     3
 72
     9
 73
     5
 74
     0
 42
0.000000001
 43
0.0000000001
 40
0.0
 40
0.0
 40
0.0
 40
0.0
 40
0.5
 40
1.0
 40
1.0
 40
1.0
 40
1.0
 10
858.9386039057414
 20
2026.05255888324
 30
0.0
 10
858.937245583572
 20
2026.052558883244
 30
0.0
 10
858.8686279005621
 20
2025.887531712165
 30
0.0
 10
858.6682081402098
 20
2025.41621450062
 30
0.0
 10
858.5350477406981
 20
2025.114736709731
 30
0.0
  0
SPLINE
  5
BA
330
87
100
AcDbEntity
  8
P-SANR-FIXT
100
AcDbSpline
210
0.0
220
0.0
230
1.0
 70
     8
 71
     3
 72
     9
 73
     5
 74
     0
 42
0.000000001
 43
0.0000000001
 40
0.0
 40
0.0
 40
0.0
 40
0.0
 40
0.5
 40
1.0
 40
1.0
 40
1.0
 40
1.0
 10
871.5677318235083
 20
2025.114736709731
 30
0.0
 10
871.4352990599781
 20
2025.416254151522
 30
0.0
 10
871.2359788997272
 20
2025.887573848618
 30
0.0
 10
871.1677494730944
 20
2026.052558883244
 30
0.0
 10
871.1664074431825
 20
2026.05255888324
 30
0.0
  0
SPLINE
  5
BB
330
87
100
AcDbEntity
  8
P-SANR-FIXT
100
AcDbSpline
210
0.0
220
0.0
230
1.0
 70
     8
 71
     3
 72
     9
 73
     5
 74
     0
 42
0.000000001
 43
0.0000000001
 40
0.0
 40
0.0
 40
0.0
 40
0.0
 40
0.5
 40
1.0
 40
1.0
 40
1.0
 40
1.0
 10
871.5677318234938
 20
2015.588457268112
 30
0.0
 10
872.2826222368761
 20
2017.199574726191
 30
0.0
 10
872.9975126502607
 20
2020.398405424539
 30
0.0
 10
872.2826222368858
 20
2023.55042768727
 30
0.0
 10
871.5677318235083
 20
2025.114736709731
 30
0.0
  0
SPLINE
  5
BC
330
87
100
AcDbEntity
  8
P-SANR-FIXT
100
AcDbSpline
210
0.0
220
0.0
230
1.0
 70
     8
 71
     3
 72
     8
 73
     4
 74
     0
 42
0.000000001
 43
0.0000000001
 40
0.0
 40
0.0
 40
0.0
 40
0.0
 40
0.1041568862505837
 40
0.1041568862505837
 40
0.1041568862505837
 40
0.1041568862505837
 10
858.5350477406981
 20
2025.114736709731
 30
0.0
 10
858.3852979958839
 20
2024.788850548191
 30
0.0
 10
858.2511457182063
 20
2024.462458561941
 30
0.0
 10
858.1325909076655
 20
2024.135560750981
 30
0.0
  0
LINE
  5
BD
330
87
100
AcDbEntity
  8
P-SANR-FIXT
100
AcDbLine
 10
729.7073020779741
 20
2016.624999999997
 30
0.0
 11
728.1664074431495
 21
2015.084105365173
 31
0.0
  0
LINE
  5
BE
330
87
100
AcDbEntity
  8
P-SANR-FIXT
100
AcDbLine
 10
728.1664074431495
 20
1984.915894634819
 30
0.0
 11
729.7073020779741
 21
1983.374999999994
 31
0.0
  0
LINE
  5
BF
330
87
100
AcDbEntity
  8
P-SANR-FIXT
100
AcDbLine
 10
761.1664074431877
 20
2016.624999999997
 30
0.0
 11
729.7073020779741
 21
2016.624999999997
 31
0.0
  0
LINE
  5
C0
330
87
100
AcDbEntity
  8
P-SANR-FIXT
100
AcDbLine
 10
729.7073020779741
 20
1983.374999999994
 30
0.0
 11
761.1664074431877
 21
1983.374999999994
 31
0.0
  0
LINE
  5
C1
330
87
100
AcDbEntity
  8
P-SANR-FIXT
100
AcDbLine
 10
728.1664074431487
 20
1984.915894634818
 30
0.0
 11
728.1664074431487
 21
2015.084105365172
 31
0.0
  0
LINE
  5
C2
330
87
100
AcDbEntity
  8
P-SANR-FIXT
100
AcDbLine
 10
729.7073020779734
 20
1983.374999999994
 30
0.0
 11
729.7073020779734
 21
2016.624999999996
 31
0.0
  0
LINE
  5
C3
330
87
100
AcDbEntity
  8
P-SANR-FIXT
100
AcDbLine
 10
908.1664074432223
 20
2015.084105365173
 30
0.0
 11
906.6255128083977
 21
2016.624999999997
 31
0.0
  0
LINE
  5
C4
330
87
100
AcDbEntity
  8
P-SANR-FIXT
100
AcDbLine
 10
906.6255128083977
 20
1983.374999999994
 30
0.0
 11
908.1664074432223
 21
1984.915894634819
 31
0.0
  0
LINE
  5
C5
330
87
100
AcDbEntity
  8
P-SANR-FIXT
100
AcDbLine
 10
906.6255128083977
 20
2016.624999999997
 30
0.0
 11
875.1664074431841
 21
2016.624999999997
 31
0.0
  0
LINE
  5
C6
330
87
100
AcDbEntity
  8
P-SANR-FIXT
100
AcDbLine
 10
875.1664074431841
 20
1983.374999999994
 30
0.0
 11
906.6255128083977
 21
1983.374999999994
 31
0.0
  0
LINE
  5
C7
330
87
100
AcDbEntity
  8
P-SANR-FIXT
100
AcDbLine
 10
908.1664074432215
 20
2015.084105365172
 30
0.0
 11
908.1664074432215
 21
1984.915894634818
 31
0.0
  0
LINE
  5
C8
330
87
100
AcDbEntity
  8
P-SANR-FIXT
100
AcDbLine
 10
906.6255128083966
 20
2016.624999999996
 30
0.0
 11
906.6255128083966
 21
1983.374999999994
 31
0.0
  0
LINE
  5
C9
330
87
100
AcDbEntity
  8
P-SANR-FIXT
100
AcDbLine
 10
800.9164074431861
 20
1949.989637028898
 30
0.0
 11
800.9164074431861
 21
1947.010362971061
 31
0.0
  0
LINE
  5
CA
330
87
100
AcDbEntity
  8
P-SANR-FIXT
100
AcDbLine
 10
830.4164074431849
 20
1947.010362971061
 30
0.0
 11
830.4164074431849
 21
1949.989637028898
 31
0.0
  0
LINE
  5
CB
330
87
100
AcDbEntity
  8
P-SANR-FIXT
100
AcDbLine
 10
802.6664074432138
 20
1950.999999999996
 30
0.0
 11
801.0038484111005
 21
1950.040121095261
 31
0.0
  0
LINE
  5
CC
330
87
100
AcDbEntity
  8
P-SANR-FIXT
100
AcDbLine
 10
800.9735867471182
 20
1950.022649515415
 30
0.0
 11
800.9164074431861
 21
1949.989637028897
 31
0.0
  0
LINE
  5
CD
330
87
100
AcDbEntity
  8
P-SANR-FIXT
100
AcDbLine
 10
830.4164074431849
 20
1949.989637028898
 30
0.0
 11
830.3592281392534
 21
1950.022649515415
 31
0.0
  0
LINE
  5
CE
330
87
100
AcDbEntity
  8
P-SANR-FIXT
100
AcDbLine
 10
830.3289664752705
 20
1950.040121095262
 30
0.0
 11
828.6664074431579
 21
1950.999999999996
 31
0.0
  0
LINE
  5
CF
330
87
100
AcDbEntity
  8
P-SANR-FIXT
100
AcDbLine
 10
828.6664074431856
 20
1945.999999999979
 30
0.0
 11
830.3289664752705
 21
1946.959878904697
 31
0.0
  0
LINE
  5
D0
330
87
100
AcDbEntity
  8
P-SANR-FIXT
100
AcDbLine
 10
830.3592281392534
 20
1946.977350484544
 30
0.0
 11
830.4164074431851
 21
1947.010362971061
 31
0.0
  0
LINE
  5
D1
330
87
100
AcDbEntity
  8
P-SANR-FIXT
100
AcDbLine
 10
800.9164074431861
 20
1947.010362971061
 30
0.0
 11
800.9735867471182
 21
1946.977350484544
 31
0.0
  0
LINE
  5
D2
330
87
100
AcDbEntity
  8
P-SANR-FIXT
100
AcDbLine
 10
801.0038484111005
 20
1946.959878904698
 30
0.0
 11
802.6664074431863
 21
1945.999999999979
 31
0.0
  0
LINE
  5
D3
330
87
100
AcDbEntity
  8
P-SANR-FIXT
100
AcDbLine
 10
828.6664074431847
 20
1945.999999999979
 30
0.0
 11
802.6664074431854
 21
1945.999999999979
 31
0.0
  0
LINE
  5
D4
330
87
100
AcDbEntity
  8
P-SANR-FIXT
100
AcDbLine
 10
800.9164074431854
 20
1947.01036297106
 30
0.0
 11
801.0038484110998
 21
1947.01036297106
 31
0.0
  0
LINE
  5
D5
330
87
100
AcDbEntity
  8
P-SANR-FIXT
100
AcDbLine
 10
801.0038484110998
 20
1949.989637028897
 30
0.0
 11
800.9164074431854
 21
1949.989637028897
 31
0.0
  0
LINE
  5
D6
330
87
100
AcDbEntity
  8
P-SANR-FIXT
100
AcDbLine
 10
801.0038484110998
 20
1947.010362971061
 30
0.0
 11
801.0038484110998
 21
1949.989637028897
 31
0.0
  0
SPLINE
  5
D7
330
87
100
AcDbEntity
  8
P-SANR-FIXT
100
AcDbSpline
210
0.0
220
0.0
230
1.0
 70
     8
 71
     3
 72
     9
 73
     5
 74
     0
 42
0.000000001
 43
0.0000000001
 40
0.0
 40
0.0
 40
0.0
 40
0.0
 40
0.5
 40
1.0
 40
1.0
 40
1.0
 40
1.0
 10
801.0038484110998
 20
1947.010362971061
 30
0.0
 10
802.0107373139847
 20
1946.529272606673
 30
0.0
 10
804.0080315771955
 20
1946.048182242287
 30
0.0
 10
805.9723587552888
 20
1946.529272606673
 30
0.0
 10
806.9462805730559
 20
1947.010362971061
 30
0.0
  0
SPLINE
  5
D8
330
87
100
AcDbEntity
  8
P-SANR-FIXT
100
AcDbSpline
210
0.0
220
0.0
230
1.0
 70
     8
 71
     3
 72
     9
 73
     5
 74
     0
 42
0.000000001
 43
0.0000000001
 40
0.0
 40
0.0
 40
0.0
 40
0.0
 40
0.5
 40
1.0
 40
1.0
 40
1.0
 40
1.0
 10
806.9462805730559
 20
1949.989637028897
 30
0.0
 10
805.9723587552888
 20
1950.470727393284
 30
0.0
 10
804.0080315771955
 20
1950.951817757671
 30
0.0
 10
802.0107373139847
 20
1950.470727393284
 30
0.0
 10
801.0038484110998
 20
1949.989637028897
 30
0.0
  0
LINE
  5
D9
330
87
100
AcDbEntity
  8
P-SANR-FIXT
100
AcDbLine
 10
806.9462805730559
 20
1947.010362971061
 30
0.0
 11
806.9462805730559
 21
1949.989637028897
 31
0.0
  0
LINE
  5
DA
330
87
100
AcDbEntity
  8
P-SANR-FIXT
100
AcDbLine
 10
806.9462805730557
 20
1947.01036297106
 30
0.0
 11
809.7239752812281
 21
1947.01036297106
 31
0.0
  0
LINE
  5
DB
330
87
100
AcDbEntity
  8
P-SANR-FIXT
100
AcDbLine
 10
809.7239752812281
 20
1949.989637028897
 30
0.0
 11
806.9462805730557
 21
1949.989637028897
 31
0.0
  0
LINE
  5
DC
330
87
100
AcDbEntity
  8
P-SANR-FIXT
100
AcDbLine
 10
809.7239752812285
 20
1947.010362971061
 30
0.0
 11
809.7239752812285
 21
1949.989637028897
 31
0.0
  0
SPLINE
  5
DD
330
87
100
AcDbEntity
  8
P-SANR-FIXT
100
AcDbSpline
210
0.0
220
0.0
230
1.0
 70
     8
 71
     3
 72
     9
 73
     5
 74
     0
 42
0.000000001
 43
0.0000000001
 40
0.0
 40
0.0
 40
0.0
 40
0.0
 40
0.5
 40
1.0
 40
1.0
 40
1.0
 40
1.0
 10
809.7239752812285
 20
1947.010362971061
 30
0.0
 10
811.7377530869983
 20
1946.529272606673
 30
0.0
 10
815.7323416134202
 20
1946.048182242287
 30
0.0
 10
819.6609959696065
 20
1946.529272606673
 30
0.0
 10
821.6088396051407
 20
1947.010362971061
 30
0.0
  0
SPLINE
  5
DE
330
87
100
AcDbEntity
  8
P-SANR-FIXT
100
AcDbSpline
210
0.0
220
0.0
230
1.0
 70
     8
 71
     3
 72
     9
 73
     5
 74
     0
 42
0.000000001
 43
0.0000000001
 40
0.0
 40
0.0
 40
0.0
 40
0.0
 40
0.5
 40
1.0
 40
1.0
 40
1.0
 40
1.0
 10
821.6088396051407
 20
1949.989637028897
 30
0.0
 10
819.6609959696065
 20
1950.470727393284
 30
0.0
 10
815.7323416134202
 20
1950.951817757671
 30
0.0
 10
811.7377530869983
 20
1950.470727393284
 30
0.0
 10
809.7239752812285
 20
1949.989637028897
 30
0.0
  0
LINE
  5
DF
330
87
100
AcDbEntity
  8
P-SANR-FIXT
100
AcDbLine
 10
821.6088396051407
 20
1947.010362971061
 30
0.0
 11
821.6088396051407
 21
1949.989637028897
 31
0.0
  0
LINE
  5
E0
330
87
100
AcDbEntity
  8
P-SANR-FIXT
100
AcDbLine
 10
821.6088396051407
 20
1947.01036297106
 30
0.0
 11
824.3865343133133
 21
1947.01036297106
 31
0.0
  0
LINE
  5
E1
330
87
100
AcDbEntity
  8
P-SANR-FIXT
100
AcDbLine
 10
824.3865343133133
 20
1949.989637028897
 30
0.0
 11
821.6088396051407
 21
1949.989637028897
 31
0.0
  0
LINE
  5
E2
330
87
100
AcDbEntity
  8
P-SANR-FIXT
100
AcDbLine
 10
824.3865343133133
 20
1947.010362971061
 30
0.0
 11
824.3865343133133
 21
1949.989637028897
 31
0.0
  0
SPLINE
  5
E3
330
87
100
AcDbEntity
  8
P-SANR-FIXT
100
AcDbSpline
210
0.0
220
0.0
230
1.0
 70
     8
 71
     3
 72
     9
 73
     5
 74
     0
 42
0.000000001
 43
0.0000000001
 40
0.0
 40
0.0
 40
0.0
 40
0.0
 40
0.5
 40
1.0
 40
1.0
 40
1.0
 40
1.0
 10
824.3865343133133
 20
1947.010362971061
 30
0.0
 10
825.3934232161983
 20
1946.529272606673
 30
0.0
 10
827.3907174794095
 20
1946.048182242286
 30
0.0
 10
829.3550446575025
 20
1946.529272606673
 30
0.0
 10
830.3289664752698
 20
1947.01036297106
 30
0.0
  0
SPLINE
  5
E4
330
87
100
AcDbEntity
  8
P-SANR-FIXT
100
AcDbSpline
210
0.0
220
0.0
230
1.0
 70
     8
 71
     3
 72
     9
 73
     5
 74
     0
 42
0.000000001
 43
0.0000000001
 40
0.0
 40
0.0
 40
0.0
 40
0.0
 40
0.5
 40
1.0
 40
1.0
 40
1.0
 40
1.0
 10
830.3289664752698
 20
1949.989637028897
 30
0.0
 10
829.3550446575025
 20
1950.470727393284
 30
0.0
 10
827.3907174794095
 20
1950.951817757671
 30
0.0
 10
825.3934232161983
 20
1950.470727393284
 30
0.0
 10
824.3865343133133
 20
1949.989637028897
 30
0.0
  0
LINE
  5
E5
330
87
100
AcDbEntity
  8
P-SANR-FIXT
100
AcDbLine
 10
830.3289664752698
 20
1947.01036297106
 30
0.0
 11
830.3289664752698
 21
1949.989637028897
 31
0.0
  0
LINE
  5
E6
330
87
100
AcDbEntity
  8
P-SANR-FIXT
100
AcDbLine
 10
830.3289664752698
 20
1947.01036297106
 30
0.0
 11
830.4164074431842
 21
1947.01036297106
 31
0.0
  0
LINE
  5
E7
330
87
100
AcDbEntity
  8
P-SANR-FIXT
100
AcDbLine
 10
830.4164074431842
 20
1949.989637028897
 30
0.0
 11
830.3289664752698
 21
1949.989637028897
 31
0.0
  0
LINE
  5
E8
330
87
100
AcDbEntity
  8
P-SANR-FIXT
100
AcDbLine
 10
795.6664074431866
 20
2052.145299461644
 30
0.0
 11
795.6664074431866
 21
2039.845517328122
 31
0.0
  0
LINE
  5
E9
330
87
100
AcDbEntity
  8
P-SANR-FIXT
100
AcDbLine
 10
835.6664074431845
 20
2039.845517328122
 30
0.0
 11
835.6664074431845
 21
2052.145299461644
 31
0.0
  0
LINE
  5
EA
330
87
100
AcDbEntity
  8
P-SANR-FIXT
100
AcDbLine
 10
835.6664074431845
 20
2052.145299461644
 30
0.0
 11
833.6664074431855
 21
2053.300000000022
 31
0.0
  0
LINE
  5
EB
330
87
100
AcDbEntity
  8
P-SANR-FIXT
100
AcDbLine
 10
797.6664074431863
 20
2053.300000000022
 30
0.0
 11
795.6664074431868
 21
2052.145299461644
 31
0.0
  0
LINE
  5
EC
330
87
100
AcDbEntity
  8
P-SANR-FIXT
100
AcDbLine
 10
795.6664074431866
 20
2039.845517328122
 30
0.0
 11
787.2781788755321
 21
2037.597898257491
 31
0.0
  0
LINE
  5
ED
330
87
100
AcDbEntity
  8
P-SANR-FIXT
100
AcDbLine
 10
844.0546360108397
 20
2037.597898257491
 30
0.0
 11
835.6664074431844
 21
2039.845517328122
 31
0.0
  0
LWPOLYLINE
  5
EE
330
87
100
AcDbEntity
  8
P-SANR-FIXT
100
AcDbPolyline
 90
       34
 70
   128
 43
0.0
 10
844.0546360108397
 20
2037.597898257491
 10
844.1122655653947
 20
2037.581214299107
 10
844.1691818420659
 20
2037.562239118594
 10
844.2252937869513
 20
2037.541003072192
 10
844.2805116329097
 20
2037.517540133047
 10
844.3347470431664
 20
2037.491887836856
 10
844.3879132526346
 20
2037.46408722182
 10
844.4399252067205
 20
2037.434182762992
 10
844.4906996973934
 20
2037.402222301129
 10
844.5401554962991
 20
2037.36825696615
 10
844.5882134847092
 20
2037.332341095347
 10
844.6347967800946
 20
2037.294532146451
 10
844.6798308591198
 20
2037.254890605714
 10
844.7232436768645
 20
2037.213479891146
 10
844.764965782082
 20
2037.170366251056
 10
844.8049304283038
 20
2037.125618658071
 10
844.8430736806216
 20
2037.079308698794
 10
844.879334517968
 20
2037.031510459281
 10
844.9136549307388
 20
2036.982300406519
 10
844.9459800135947
 20
2036.931757266095
 10
844.976258053299
 20
2036.879961896251
 10
845.004440611447
 20
2036.82699715853
 10
845.0304826019575
 20
2036.772947785214
 10
845.0543423632012
 20
2036.71790024377
 10
845.0759817246499
 20
2036.661942598522
 10
845.0953660679413
 20
2036.605164369766
 10
845.1124643822614
 20
2036.547656390554
 10
845.1272493139548
 20
2036.489510661387
 10
845.1396972102845
 20
2036.430820203026
 10
845.149788157272
 20
2036.371678907686
 10
845.1575060115546
 20
2036.312181388823
 10
845.1628384262118
 20
2036.252422829774
 10
845.1657768705176
 20
2036.192498831488
 10
845.166407443186
 20
2036.149009518057
  0
LWPOLYLINE
  5
EF
330
87
100
AcDbEntity
  8
P-SANR-FIXT
100
AcDbPolyline
 90
       34
 70
   128
 43
0.0
 10
786.1664074431859
 20
2036.149009518057
 10
786.1676072831945
 20
2036.208993519338
 10
786.1712048837319
 20
2036.268881559012
 10
786.1771944894051
 20
2036.328577828991
 10
786.1855665181226
 20
2036.387986827979
 10
786.1963075764241
 20
2036.44701351425
 10
786.2094004809079
 20
2036.505563457698
 10
786.2248242857197
 20
2036.563542990904
 10
786.2425543160624
 20
2036.620859358981
 10
786.262562207669
 20
2036.67742086797
 10
786.2848159521815
 20
2036.733137031521
 10
786.309279948356
 20
2036.787918715657
 10
786.335915059017
 20
2036.84167828137
 10
786.3646786736695
 20
2036.894329724823
 10
786.3955247766657
 20
2036.945788814939
 10
786.4284040208214
 20
2036.99597322815
 10
786.4632638063595
 20
2037.044802680101
 10
786.5000483650596
 20
2037.092199054086
 10
786.5386988494746
 20
2037.138086526015
 10
786.5791534270745
 20
2037.182391685723
 10
786.621347379165
 20
2037.225043654407
 10
786.6652132044237
 20
2037.265974198014
 10
786.710680726888
 20
2037.305117836406
 10
786.7576772082206
 20
2037.342411948112
 10
786.8061274640772
 20
2037.377796870509
 10
786.8559539843837
 20
2037.41121599527
 10
786.9070770573367
 20
2037.442615858922
 10
786.9594148969254
 20
2037.471946228385
 10
787.0128837737707
 20
2037.499160181322
 10
787.0673981490764
 20
2037.524214181215
 10
787.1228708114708
 20
2037.547068147008
 10
787.1792130165277
 20
2037.567685517232
 10
787.2363346287378
 20
2037.586033308491
 10
787.2781788755321
 20
2037.597898257491
  0
LINE
  5
F0
330
87
100
AcDbEntity
  8
P-SANR-FIXT
100
AcDbLine
 10
786.1664074431862
 20
2036.149009518057
 30
0.0
 11
786.1664074431862
 21
2034.799999999993
 31
0.0
  0
LINE
  5
F1
330
87
100
AcDbEntity
  8
P-SANR-FIXT
100
AcDbLine
 10
845.1664074431855
 20
2034.799999999993
 30
0.0
 11
845.1664074431855
 21
2036.149009518057
 31
0.0
  0
LINE
  5
F2
330
87
100
AcDbEntity
  8
P-SANR-FIXT
100
AcDbLine
 10
797.6664074431863
 20
2107.300000000023
 30
0.0
 11
797.6664074431863
 21
2053.300000000022
 31
0.0
  0
LINE
  5
F3
330
87
100
AcDbEntity
  8
P-SANR-FIXT
100
AcDbLine
 10
833.6664074431855
 20
2053.300000000022
 30
0.0
 11
833.6664074431855
 21
2107.300000000023
 31
0.0
  0
LINE
  5
F4
330
87
100
AcDbEntity
  8
P-SANR-FIXT
100
AcDbLine
 10
795.6664074431858
 20
2039.845517328121
 30
0.0
 11
795.7706767811275
 21
2039.845517328121
 31
0.0
  0
LINE
  5
F5
330
87
100
AcDbEntity
  8
P-SANR-FIXT
100
AcDbLine
 10
795.7706767811275
 20
2052.145299461642
 30
0.0
 11
795.6664074431858
 21
2052.145299461642
 31
0.0
  0
LINE
  5
F6
330
87
100
AcDbEntity
  8
P-SANR-FIXT
100
AcDbLine
 10
795.7706767811275
 20
2039.845517328121
 30
0.0
 11
795.7706767811275
 21
2052.145299461642
 31
0.0
  0
SPLINE
  5
F7
330
87
100
AcDbEntity
  8
P-SANR-FIXT
100
AcDbSpline
210
0.0
220
0.0
230
1.0
 70
     8
 71
     3
 72
     9
 73
     5
 74
     0
 42
0.000000001
 43
0.0000000001
 40
0.0
 40
0.0
 40
0.0
 40
0.0
 40
0.5
 40
1.0
 40
1.0
 40
1.0
 40
1.0
 10
803.9522108671388
 20
2052.145299461643
 30
0.0
 10
802.6110657343778
 20
2052.818826968624
 30
0.0
 10
799.9063315872817
 20
2053.492354475604
 30
0.0
 10
797.156709677037
 20
2052.818826968624
 30
0.0
 10
795.7706767811275
 20
2052.145299461642
 30
0.0
  0
LINE
  5
F8
330
87
100
AcDbEntity
  8
P-SANR-FIXT
100
AcDbLine
 10
803.9522108671386
 20
2039.845517328121
 30
0.0
 11
803.9522108671386
 21
2052.145299461643
 31
0.0
  0
LINE
  5
F9
330
87
100
AcDbEntity
  8
P-SANR-FIXT
100
AcDbLine
 10
803.9522108671386
 20
2039.845517328121
 30
0.0
 11
807.4848733571727
 21
2039.845517328121
 31
0.0
  0
LINE
  5
FA
330
87
100
AcDbEntity
  8
P-SANR-FIXT
100
AcDbLine
 10
807.4848733571727
 20
2052.145299461642
 30
0.0
 11
803.9522108671386
 21
2052.145299461642
 31
0.0
  0
LINE
  5
FB
330
87
100
AcDbEntity
  8
P-SANR-FIXT
100
AcDbLine
 10
807.4848733571728
 20
2039.845517328121
 30
0.0
 11
807.4848733571728
 21
2052.145299461643
 31
0.0
  0
SPLINE
  5
FC
330
87
100
AcDbEntity
  8
P-SANR-FIXT
100
AcDbSpline
210
0.0
220
0.0
230
1.0
 70
     8
 71
     3
 72
     9
 73
     5
 74
     0
 42
0.000000001
 43
0.0000000001
 40
0.0
 40
0.0
 40
0.0
 40
0.0
 40
0.5
 40
1.0
 40
1.0
 40
1.0
 40
1.0
 10
823.8479415291958
 20
2052.145299461644
 30
0.0
 10
821.1656512636739
 20
2052.818826968624
 30
0.0
 10
815.7561829694815
 20
2053.492354475604
 30
0.0
 10
810.2569391489918
 20
2052.818826968624
 30
0.0
 10
807.4848733571728
 20
2052.145299461643
 30
0.0
  0
LINE
  5
FD
330
87
100
AcDbEntity
  8
P-SANR-FIXT
100
AcDbLine
 10
823.8479415291958
 20
2039.845517328121
 30
0.0
 11
823.8479415291958
 21
2052.145299461644
 31
0.0
  0
LINE
  5
FE
330
87
100
AcDbEntity
  8
P-SANR-FIXT
100
AcDbLine
 10
823.8479415291958
 20
2039.845517328121
 30
0.0
 11
827.3806040192297
 21
2039.845517328121
 31
0.0
  0
LINE
  5
FF
330
87
100
AcDbEntity
  8
P-SANR-FIXT
100
AcDbLine
 10
827.3806040192297
 20
2052.145299461642
 30
0.0
 11
823.8479415291958
 21
2052.145299461642
 31
0.0
  0
LINE
  5
100
330
87
100
AcDbEntity
  8
P-SANR-FIXT
100
AcDbLine
 10
827.3806040192301
 20
2039.845517328121
 30
0.0
 11
827.3806040192301
 21
2052.145299461643
 31
0.0
  0
SPLINE
  5
101
330
87
100
AcDbEntity
  8
P-SANR-FIXT
100
AcDbSpline
210
0.0
220
0.0
230
1.0
 70
     8
 71
     3
 72
     9
 73
     5
 74
     0
 42
0.000000001
 43
0.0000000001
 40
0.0
 40
0.0
 40
0.0
 40
0.0
 40
0.5
 40
1.0
 40
1.0
 40
1.0
 40
1.0
 10
835.5621381052419
 20
2052.145299461643
 30
0.0
 10
834.2209929724809
 20
2052.818826968624
 30
0.0
 10
831.5162588253846
 20
2053.492354475604
 30
0.0
 10
828.7666369151395
 20
2052.818826968624
 30
0.0
 10
827.3806040192301
 20
2052.145299461643
 30
0.0
  0
LINE
  5
102
330
87
100
AcDbEntity
  8
P-SANR-FIXT
100
AcDbLine
 10
835.5621381052419
 20
2039.845517328121
 30
0.0
 11
835.5621381052419
 21
2052.145299461643
 31
0.0
  0
LINE
  5
103
330
87
100
AcDbEntity
  8
P-SANR-FIXT
100
AcDbLine
 10
835.5621381052419
 20
2039.845517328121
 30
0.0
 11
835.6664074431837
 21
2039.845517328121
 31
0.0
  0
LINE
  5
104
330
87
100
AcDbEntity
  8
P-SANR-FIXT
100
AcDbLine
 10
835.6664074431837
 20
2052.145299461642
 30
0.0
 11
835.5621381052419
 21
2052.145299461642
 31
0.0
  0
LINE
  5
105
330
87
100
AcDbEntity
  8
P-SANR-FIXT
100
AcDbLine
 10
833.6664074431846
 20
2053.300000000021
 30
0.0
 11
828.3943295045427
 21
2053.300000000021
 31
0.0
  0
LINE
  5
106
330
87
100
AcDbEntity
  8
P-SANR-FIXT
100
AcDbLine
 10
828.3943295045427
 20
2053.300000000021
 30
0.0
 11
815.6664074431848
 21
2053.300000000021
 31
0.0
  0
LINE
  5
107
330
87
100
AcDbEntity
  8
P-SANR-FIXT
100
AcDbLine
 10
815.6664074431848
 20
2053.300000000021
 30
0.0
 11
802.9384853818275
 21
2053.300000000021
 31
0.0
  0
LINE
  5
108
330
87
100
AcDbEntity
  8
P-SANR-FIXT
100
AcDbLine
 10
802.9384853818273
 20
2053.300000000021
 30
0.0
 11
797.6664074431855
 21
2053.300000000021
 31
0.0
  0
LINE
  5
109
330
87
100
AcDbEntity
  8
P-SANR-FIXT
100
AcDbLine
 10
845.1664074431848
 20
2034.799999999993
 30
0.0
 11
845.0644514514413
 21
2034.799999999993
 31
0.0
  0
LINE
  5
10A
330
87
100
AcDbEntity
  8
P-SANR-FIXT
100
AcDbLine
 10
844.9863779363997
 20
2034.799999999993
 30
0.0
 11
844.7589607866214
 21
2034.799999999993
 31
0.0
  0
LINE
  5
10B
330
87
100
AcDbEntity
  8
P-SANR-FIXT
100
AcDbLine
 10
844.5844396489581
 20
2034.799999999993
 30
0.0
 11
844.25133037057
 21
2034.799999999993
 31
0.0
  0
LINE
  5
10C
330
87
100
AcDbEntity
  8
P-SANR-FIXT
100
AcDbLine
 10
843.9827883397564
 20
2034.799999999993
 30
0.0
 11
843.5438441279556
 21
2034.799999999993
 31
0.0
  0
LINE
  5
10D
330
87
100
AcDbEntity
  8
P-SANR-FIXT
100
AcDbLine
 10
843.1865682887531
 20
2034.799999999993
 30
0.0
 11
842.6391134072947
 21
2034.799999999993
 31
0.0
  0
LINE
  5
10E
330
87
100
AcDbEntity
  8
P-SANR-FIXT
100
AcDbLine
 10
842.2014339183652
 20
2034.799999999993
 30
0.0
 11
841.2321475448344
 21
2034.799999999993
 31
0.0
  0
LINE
  5
10F
330
87
100
AcDbEntity
  8
P-SANR-FIXT
100
AcDbLine
 10
840.8192922916304
 20
2034.799999999993
 30
0.0
 11
839.8448200954554
 21
2034.799999999993
 31
0.0
  0
LINE
  5
110
330
87
100
AcDbEntity
  8
P-SANR-FIXT
100
AcDbLine
 10
839.5324087772456
 20
2034.799999999993
 30
0.0
 11
838.2719855196327
 21
2034.799999999993
 31
0.0
  0
LINE
  5
111
330
87
100
AcDbEntity
  8
P-SANR-FIXT
100
AcDbLine
 10
838.0983834283856
 20
2034.799999999993
 30
0.0
 11
834.8251248689253
 21
2034.799999999993
 31
0.0
  0
LINE
  5
112
330
87
100
AcDbEntity
  8
P-SANR-FIXT
100
AcDbLine
 10
834.6341385189756
 20
2034.799999999993
 30
0.0
 11
833.0060723858128
 21
2034.799999999993
 31
0.0
  0
LINE
  5
113
330
87
100
AcDbEntity
  8
P-SANR-FIXT
100
AcDbLine
 10
832.595613075866
 20
2034.799999999993
 30
0.0
 11
831.0801151023053
 21
2034.799999999993
 31
0.0
  0
LINE
  5
114
330
87
100
AcDbEntity
  8
P-SANR-FIXT
100
AcDbLine
 10
830.426290030957
 20
2034.799999999993
 30
0.0
 11
828.1430626074476
 21
2034.799999999993
 31
0.0
  0
LINE
  5
115
330
87
100
AcDbEntity
  8
P-SANR-FIXT
100
AcDbLine
 10
826.9555686979551
 20
2034.799999999993
 30
0.0
 11
825.7637597022903
 21
2034.799999999993
 31
0.0
  0
LINE
  5
116
330
87
100
AcDbEntity
  8
P-SANR-FIXT
100
AcDbLine
 10
824.7824087772459
 20
2034.799999999993
 30
0.0
 11
823.3069925740592
 21
2034.799999999993
 31
0.0
  0
LINE
  5
117
330
87
100
AcDbEntity
  8
P-SANR-FIXT
100
AcDbLine
 10
823.2165235395486
 20
2034.799999999993
 30
0.0
 11
820.7919968378545
 21
2034.799999999993
 31
0.0
  0
LINE
  5
118
330
87
100
AcDbEntity
  8
P-SANR-FIXT
100
AcDbLine
 10
820.2812241618719
 20
2034.799999999993
 30
0.0
 11
818.2384702944387
 21
2034.799999999993
 31
0.0
  0
LINE
  5
119
330
87
100
AcDbEntity
  8
P-SANR-FIXT
100
AcDbLine
 10
817.9809507671565
 20
2034.799999999993
 30
0.0
 11
813.3518641192136
 21
2034.799999999993
 31
0.0
  0
LINE
  5
11A
330
87
100
AcDbEntity
  8
P-SANR-FIXT
100
AcDbLine
 10
813.0943445919301
 20
2034.799999999993
 30
0.0
 11
811.0515907244982
 21
2034.799999999993
 31
0.0
  0
LINE
  5
11B
330
87
100
AcDbEntity
  8
P-SANR-FIXT
100
AcDbLine
 10
810.5408180485145
 20
2034.799999999993
 30
0.0
 11
808.7797692094358
 21
2034.799999999993
 31
0.0
  0
LINE
  5
11C
330
87
100
AcDbEntity
  8
P-SANR-FIXT
100
AcDbLine
 10
808.0258223123099
 20
2034.799999999993
 30
0.0
 11
806.5504061091242
 21
2034.799999999993
 31
0.0
  0
LINE
  5
11D
330
87
100
AcDbEntity
  8
P-SANR-FIXT
100
AcDbLine
 10
805.5690551840788
 20
2034.799999999993
 30
0.0
 11
804.3772461884151
 21
2034.799999999993
 31
0.0
  0
LINE
  5
11E
330
87
100
AcDbEntity
  8
P-SANR-FIXT
100
AcDbLine
 10
803.1897522789217
 20
2034.799999999993
 30
0.0
 11
800.9065248554122
 21
2034.799999999993
 31
0.0
  0
LINE
  5
11F
330
87
100
AcDbEntity
  8
P-SANR-FIXT
100
AcDbLine
 10
800.2526997840648
 20
2034.799999999993
 30
0.0
 11
798.7372018105032
 21
2034.799999999993
 31
0.0
  0
LINE
  5
120
330
87
100
AcDbEntity
  8
P-SANR-FIXT
100
AcDbLine
 10
798.3267425005573
 20
2034.799999999993
 30
0.0
 11
796.6986763673937
 21
2034.799999999993
 31
0.0
  0
LINE
  5
121
330
87
100
AcDbEntity
  8
P-SANR-FIXT
100
AcDbLine
 10
796.5076900174448
 20
2034.799999999993
 30
0.0
 11
793.2344314579843
 21
2034.799999999993
 31
0.0
  0
LINE
  5
122
330
87
100
AcDbEntity
  8
P-SANR-FIXT
100
AcDbLine
 10
793.0608293667367
 20
2034.799999999993
 30
0.0
 11
791.6843520509924
 21
2034.799999999993
 31
0.0
  0
LINE
  5
123
330
87
100
AcDbEntity
  8
P-SANR-FIXT
100
AcDbLine
 10
791.4879947909139
 20
2034.799999999993
 30
0.0
 11
790.5135225947397
 21
2034.799999999993
 31
0.0
  0
LINE
  5
124
330
87
100
AcDbEntity
  8
P-SANR-FIXT
100
AcDbLine
 10
790.100667341535
 20
2034.799999999993
 30
0.0
 11
789.1313809680045
 21
2034.799999999993
 31
0.0
  0
LINE
  5
125
330
87
100
AcDbEntity
  8
P-SANR-FIXT
100
AcDbLine
 10
788.6937014790761
 20
2034.799999999993
 30
0.0
 11
788.146246597617
 21
2034.799999999993
 31
0.0
  0
LINE
  5
126
330
87
100
AcDbEntity
  8
P-SANR-FIXT
100
AcDbLine
 10
787.7377456202175
 20
2034.799999999993
 30
0.0
 11
787.3500265466138
 21
2034.799999999993
 31
0.0
  0
LINE
  5
127
330
87
100
AcDbEntity
  8
P-SANR-FIXT
100
AcDbLine
 10
787.0814845157994
 20
2034.799999999993
 30
0.0
 11
786.7483752374155
 21
2034.799999999993
 31
0.0
  0
LINE
  5
128
330
87
100
AcDbEntity
  8
P-SANR-FIXT
100
AcDbLine
 10
786.5738540997487
 20
2034.799999999993
 30
0.0
 11
786.3464369499691
 21
2034.799999999993
 31
0.0
  0
LINE
  5
129
330
87
100
AcDbEntity
  8
P-SANR-FIXT
100
AcDbLine
 10
786.2721358970634
 20
2034.799999999993
 30
0.0
 11
786.1664074431854
 21
2034.799999999993
 31
0.0
  0
LINE
  5
12A
330
87
100
AcDbEntity
  8
P-SANR-FIXT
100
AcDbLine
 10
827.3806040192305
 20
2039.845517328121
 30
0.0
 11
835.5621381052419
 21
2039.845517328121
 31
0.0
  0
LINE
  5
12B
330
87
100
AcDbEntity
  8
P-SANR-FIXT
100
AcDbLine
 10
807.4848733571728
 20
2039.845517328122
 30
0.0
 11
823.847941529196
 21
2039.845517328122
 31
0.0
  0
LINE
  5
12C
330
87
100
AcDbEntity
  8
P-SANR-FIXT
100
AcDbLine
 10
795.7706767811282
 20
2039.845517328121
 30
0.0
 11
803.9522108671388
 21
2039.845517328121
 31
0.0
  0
LINE
  5
12D
330
87
100
AcDbEntity
  8
P-SANR-FIXT
100
AcDbLine
 10
797.6664074431855
 20
2107.300000000023
 30
0.0
 11
833.6664074431846
 21
2107.300000000023
 31
0.0
  0
LINE
  5
12E
330
87
100
AcDbEntity
  8
P-SANR-FIXT
100
AcDbLine
 10
797.916407443186
 20
2110.930329354033
 30
0.0
 11
797.916407443186
 21
2108.000000000044
 31
0.0
  0
LINE
  5
12F
330
87
100
AcDbEntity
  8
P-SANR-FIXT
100
AcDbLine
 10
833.4164074431857
 20
2108.000000000044
 30
0.0
 11
833.4164074431857
 21
2110.930329354033
 31
0.0
  0
LINE
  5
130
330
87
100
AcDbEntity
  8
P-SANR-FIXT
100
AcDbLine
 10
797.916407443186
 20
2108.000000000044
 30
0.0
 11
798.616407443207
 21
2107.300000000023
 31
0.0
  0
LINE
  5
131
330
87
100
AcDbEntity
  8
P-SANR-FIXT
100
AcDbLine
 10
832.7164074431646
 20
2107.300000000023
 30
0.0
 11
833.4164074431857
 21
2108.000000000044
 31
0.0
  0
LINE
  5
132
330
87
100
AcDbEntity
  8
P-SANR-FIXT
100
AcDbLine
 10
798.4860780891974
 20
2111.500000000043
 30
0.0
 11
797.916407443186
 21
2110.930329354033
 31
0.0
  0
LINE
  5
133
330
87
100
AcDbEntity
  8
P-SANR-FIXT
100
AcDbLine
 10
833.4164074431857
 20
2110.930329354033
 30
0.0
 11
832.8467367971743
 21
2111.500000000043
 31
0.0
  0
LINE
  5
134
330
87
100
AcDbEntity
  8
P-SANR-FIXT
100
AcDbLine
 10
833.416407443185
 20
2110.930329354031
 30
0.0
 11
797.9164074431852
 21
2110.930329354031
 31
0.0
  0
LINE
  5
135
330
87
100
AcDbEntity
  8
P-SANR-FIXT
100
AcDbLine
 10
797.9164074431852
 20
2108.000000000044
 30
0.0
 11
833.416407443185
 21
2108.000000000044
 31
0.0
  0
LINE
  5
136
330
87
100
AcDbEntity
  8
P-SANR-FIXT
100
AcDbLine
 10
798.4860780891966
 20
2111.500000000043
 30
0.0
 11
832.8467367971736
 21
2111.500000000043
 31
0.0
  0
LINE
  5
137
330
87
100
AcDbEntity
  8
P-SANR-FIXT
100
AcDbLine
 10
829.9164074431859
 20
1951.499999999995
 30
0.0
 11
829.9164074431859
 21
1960.256412365043
 31
0.0
  0
LINE
  5
138
330
87
100
AcDbEntity
  8
P-SANR-FIXT
100
AcDbLine
 10
801.4164074431858
 20
1960.256412365043
 30
0.0
 11
801.4164074431858
 21
1951.499999999995
 31
0.0
  0
LINE
  5
139
330
87
100
AcDbEntity
  8
P-SANR-FIXT
100
AcDbLine
 10
793.6664074431859
 20
1980.749999999996
 30
0.0
 11
793.6664074431859
 21
1969.999999999996
 31
0.0
  0
LINE
  5
13A
330
87
100
AcDbEntity
  8
P-SANR-FIXT
100
AcDbLine
 10
845.6664074431859
 20
2030.190571230044
 30
0.0
 11
845.6664074431859
 21
2034.299999999996
 31
0.0
  0
LINE
  5
13B
330
87
100
AcDbEntity
  8
P-SANR-FIXT
100
AcDbLine
 10
785.6664074431858
 20
2034.299999999996
 30
0.0
 11
785.6664074431858
 21
2019.249999999995
 31
0.0
  0
LINE
  5
13C
330
87
100
AcDbEntity
  8
P-SANR-FIXT
100
AcDbLine
 10
785.6664074431858
 20
2019.249999999995
 30
0.0
 11
782.4469410064848
 21
2019.249999999995
 31
0.0
  0
LINE
  5
13D
330
87
100
AcDbEntity
  8
P-SANR-FIXT
100
AcDbLine
 10
782.4469410064848
 20
1980.749999999996
 30
0.0
 11
793.6664074431859
 21
1980.749999999996
 31
0.0
  0
LINE
  5
13E
330
87
100
AcDbEntity
  8
P-SANR-FIXT
100
AcDbLine
 10
780.7148901989159
 20
2020.249999999996
 30
0.0
 11
780.2041387410046
 21
2021.134647475138
 31
0.0
  0
LINE
  5
13F
330
87
100
AcDbEntity
  8
P-SANR-FIXT
100
AcDbLine
 10
780.1999912423602
 20
2021.141831153515
 30
0.0
 11
780.1664074431859
 21
2021.199999999996
 31
0.0
  0
LINE
  5
140
330
87
100
AcDbEntity
  8
P-SANR-FIXT
100
AcDbLine
 10
780.1664074431859
 20
1978.799999999996
 30
0.0
 11
780.1999912423602
 21
1978.858168846477
 31
0.0
  0
LINE
  5
141
330
87
100
AcDbEntity
  8
P-SANR-FIXT
100
AcDbLine
 10
780.2041387410046
 20
1978.865352524853
 30
0.0
 11
780.7148901989159
 21
1979.749999999996
 31
0.0
  0
LINE
  5
142
330
87
100
AcDbEntity
  8
P-SANR-FIXT
100
AcDbLine
 10
780.1664074431859
 20
2021.199999999996
 30
0.0
 11
779.1664074431876
 21
2021.199999999996
 31
0.0
  0
LINE
  5
143
330
87
100
AcDbEntity
  8
P-SANR-FIXT
100
AcDbLine
 10
779.1664074431876
 20
1978.799999999996
 30
0.0
 11
780.1664074431859
 21
1978.799999999996
 31
0.0
  0
LWPOLYLINE
  5
144
330
87
100
AcDbEntity
  8
P-SANR-FIXT
100
AcDbPolyline
 90
       28
 70
   128
 43
0.0
 10
782.4469410064848
 20
1980.749999999996
 10
782.3669623381116
 20
1980.748400213318
 10
782.2871116185466
 20
1980.743603412601
 10
782.2075165919069
 20
1980.735617271703
 10
782.1283045932564
 20
1980.724454566747
 10
782.0496023448948
 20
1980.710133155678
 10
781.9715357536306
 20
1980.6926759497
 10
781.8942297093566
 20
1980.672110876617
 10
781.8178078852526
 20
1980.64847083616
 10
781.7423925399347
 20
1980.621793647352
 10
781.6681043218675
 20
1980.592121988001
 10
781.595062076353
 20
1980.559503326436
 10
781.5233826554019
 20
1980.523989845554
 10
781.4531807307974
 20
1980.485638359351
 10
781.384568610643
 20
1980.444510222022
 10
781.3176560596948
 20
1980.400671229815
 10
781.2525501237602
 20
1980.354191515764
 10
781.1893549584478
 20
1980.305145437498
 10
781.128171662542
 20
1980.253611458277
 10
781.0690981162639
 20
1980.199672021478
 10
781.0122288246859
 20
1980.14341341869
 10
780.9576547665431
 20
1980.084925651678
 10
780.9054632486869
 20
1980.024302288393
 10
780.8557377664123
 20
1979.961640313282
 10
780.8085578698828
 20
1979.897039972141
 10
780.7639990368692
 20
1979.830604611732
 10
780.7221325519982
 20
1979.762440514461
 10
780.7148901989159
 20
1979.749999999996
  0
LWPOLYLINE
  5
145
330
87
100
AcDbEntity
  8
P-SANR-FIXT
100
AcDbPolyline
 90
       28
 70
   128
 43
0.0
 10
780.7148901989159
 20
2020.249999999996
 10
780.7562649890065
 20
2020.181536334763
 10
780.8003445000665
 20
2020.114781983467
 10
780.8470582142817
 20
2020.049843738831
 10
780.8963313996742
 20
2019.986825488194
 10
780.9480852296588
 20
2019.925828047312
 10
781.0022369091472
 20
2019.86694899908
 10
781.0586998070044
 20
2019.810282537413
 10
781.1173835946383
 20
2019.755919316564
 10
781.1781943905075
 20
2019.703946306088
 10
781.2410349103108
 20
2019.654446651715
 10
781.3058046226215
 20
2019.607499542333
 10
781.372399909717
 20
2019.563180083301
 10
781.4407142333441
 20
2019.521559176301
 10
781.5106383051583
 20
2019.482703405904
 10
781.5820602615602
 20
2019.446674933055
 10
781.6548658426563
 20
2019.413531395624
 10
781.7289385750472
 20
2019.3833258162
 10
781.804159958163
 20
2019.356106517268
 10
781.8804096538366
 20
2019.3319170439
 10
781.9575656788209
 20
2019.310796094092
 10
782.0355045999352
 20
2019.292777456858
 10
782.1141017315312
 20
2019.277889958175
 10
782.1932313349654
 20
2019.266157414866
 10
782.2727668197523
 20
2019.257598596494
 10
782.3525809460826
 20
2019.252227195345
 10
782.4325460283805
 20
2019.250051804515
 10
782.4469410064848
 20
2019.249999999995
  0
LWPOLYLINE
  5
146
330
87
100
AcDbEntity
  8
P-SANR-FIXT
100
AcDbPolyline
 90
       35
 70
   128
 43
0.0
 10
801.4164074431858
 20
1960.256412365043
 10
801.4148076565078
 20
1960.336391033416
 10
801.4100108557911
 20
1960.416241752981
 10
801.4020247148936
 20
1960.495836779621
 10
801.3908620099373
 20
1960.575048778272
 10
801.3765405988685
 20
1960.653751026633
 10
801.3590833928899
 20
1960.731817617897
 10
801.3385183198073
 20
1960.809123662171
 10
801.3148782793505
 20
1960.885545486275
 10
801.2882010905418
 20
1960.960960831593
 10
801.2585294311916
 20
1961.03524904966
 10
801.2259107696259
 20
1961.108291295175
 10
801.1903972887445
 20
1961.179970716126
 10
801.1520458025412
 20
1961.25017264073
 10
801.1109176652126
 20
1961.318784760885
 10
801.0670786730052
 20
1961.385697311833
 10
801.0205989589545
 20
1961.450803247768
 10
800.9715528806875
 20
1961.51399841308
 10
800.9200189014675
 20
1961.575181708986
 10
800.8660794646676
 20
1961.634255255264
 10
800.8098208618802
 20
1961.691124546842
 10
800.7513330948684
 20
1961.745698604985
 10
800.6907097315831
 20
1961.797890122841
 10
800.6280477564727
 20
1961.847615605116
 10
800.5634474153309
 20
1961.894795501645
 10
800.4970120549222
 20
1961.939354334659
 10
800.4288479576514
 20
1961.98122081953
 10
800.3590641715334
 20
1962.020327978813
 10
800.2877723357393
 20
1962.056613249396
 10
800.2150865019983
 20
1962.090018582587
 10
800.1411229521393
 20
1962.120490536977
 10
800.0660000120635
 20
1962.147980363942
 10
799.9898378624497
 20
1962.172444085621
 10
799.9127583464906
 20
1962.19384256528
 10
799.8664074431858
 20
1962.205129892033
  0
LWPOLYLINE
  5
147
330
87
100
AcDbEntity
  8
P-SANR-FIXT
100
AcDbPolyline
 90
       35
 70
   128
 43
0.0
 10
831.466407443186
 20
1962.205129892033
 10
831.3888394787662
 20
1962.18557592548
 10
831.3121155105479
 20
1962.162935708763
 10
831.2363582805129
 20
1962.137245461399
 10
831.1616889840689
 20
1962.108546282304
 10
831.0882270761615
 20
1962.076884084042
 10
831.016090080172
 20
1962.042309519377
 10
830.9453933999064
 20
1962.004877900235
 10
830.8762501349709
 20
1961.964649109223
 10
830.8087708998407
 20
1961.921687503825
 10
830.7430636468961
 20
1961.876061813445
 10
830.6792334937259
 20
1961.827845029454
 10
830.6173825549585
 20
1961.777114288421
 10
830.5576097789014
 20
1961.72395074871
 10
830.500010789246
 20
1961.668439460643
 10
830.4446777320883
 20
1961.610669230439
 10
830.3916991285163
 20
1961.550732478144
 10
830.3411597329937
 20
1961.488725089774
 10
830.2931403977728
 20
1961.424746263925
 10
830.2477179435459
 20
1961.358898353068
 10
830.2049650365503
 20
1961.291286699815
 10
830.164950072317
 20
1961.222019468388
 10
830.1277370662532
 20
1961.15120747158
 10
830.0933855512294
 20
1961.078963993482
 10
830.0619504823423
 20
1961.005404608247
 10
830.0334821489961
 20
1960.930646995198
 10
830.0080260944513
 20
1960.854810750571
 10
829.985623042965
 20
1960.778017196178
 10
829.9663088346402
 20
1960.700389185325
 10
829.9501143680901
 20
1960.62205090627
 10
829.937065551007
 20
1960.543127683547
 10
829.9271832587139
 20
1960.463745777478
 10
829.920483300771
 20
1960.384032182178
 10
829.9169763956816
 20
1960.304114422394
 10
829.9164074431859
 20
1960.256412365043
  0
LWPOLYLINE
  5
148
330
87
100
AcDbEntity
  8
P-SANR-FIXT
100
AcDbPolyline
 90
       35
 70
   128
 43
0.0
 10
799.8664074431859
 20
1962.205129892033
 10
799.5561355855074
 20
1962.283345758247
 10
799.2492397126339
 20
1962.373906625116
 10
798.9462107924945
 20
1962.476667614572
 10
798.6475336067183
 20
1962.591464330952
 10
798.3536859750884
 20
1962.718113123999
 10
798.0651379911313
 20
1962.856411382662
 10
797.7823512700677
 20
1963.006137859228
 10
797.5057782103265
 20
1963.167053023275
 10
797.2358612698043
 20
1963.338899444867
 10
796.9730322580269
 20
1963.521402206388
 10
796.7177116453456
 20
1963.714269342352
 10
796.4703078902756
 20
1963.917192306484
 10
796.231216786048
 20
1964.129846465329
 10
796.0008208274262
 20
1964.351891617597
 10
795.7794885987959
 20
1964.58297253841
 10
795.5675741845071
 20
1964.822719547592
 10
795.3654166024176
 20
1965.070749101071
 10
795.1733392615335
 20
1965.326664404469
 10
794.9916494446259
 20
1965.590056047896
 10
794.8206378166437
 20
1965.860502660908
 10
794.6605779597112
 20
1966.137571586617
 10
794.5117259354547
 20
1966.420819573846
 10
794.37431987536
 20
1966.70979348624
 10
794.2485795998114
 20
1967.004031027182
 10
794.1347062664267
 20
1967.303061479375
 10
794.0328820482477
 20
1967.606406457885
 10
793.9432698423019
 20
1967.913580675456
 10
793.8660130090028
 20
1968.224092718867
 10
793.8012351428028
 20
1968.537445835088
 10
793.7490398744698
 20
1968.853138725978
 10
793.7095107052981
 20
1969.170666350256
 10
793.6827108735265
 20
1969.489520731458
 10
793.6686832531683
 20
1969.809191770593
 10
793.6664074431859
 20
1969.999999999996
  0
LWPOLYLINE
  5
149
330
87
100
AcDbEntity
  8
P-SANR-FIXT
100
AcDbPolyline
 90
       33
 70
   128
 43
0.0
 10
837.6072831250615
 20
1969.041613107818
 10
837.5935157768287
 20
1968.922524493688
 10
837.5440874075751
 20
1968.606386574881
 10
837.4820564308608
 20
1968.292478140265
 10
837.4075220830158
 20
1967.981301376374
 10
837.3206036030968
 20
1967.673354099647
 10
837.2214400421297
 20
1967.369128960037
 10
837.1101900406589
 20
1967.069112652867
 10
836.9870315749544
 20
1966.77378514023
 10
836.8521616722889
 20
1966.483618883147
 10
836.7057960957357
 20
1966.199078085729
 10
836.548168998995
 20
1965.920617952554
 10
836.3795325517955
 20
1965.648683960433
 10
836.2001565364796
 20
1965.383711145744
 10
836.0103279164063
 20
1965.126123408467
 10
835.8103503768735
 20
1964.87633283403
 10
835.6005438392845
 20
1964.634739034069
 10
835.3812439493434
 20
1964.401728507125
 10
835.1528015400928
 20
1964.177674020336
 10
834.9155820706553
 20
1963.962934013083
 10
834.6699650415779
 20
1963.757852023572
 10
834.416343387712
 20
1963.562756139235
 10
834.1551228496003
 20
1963.37795847187
 10
833.8867213243799
 20
1963.203754658323
 10
833.6115681972353
 20
1963.040423387535
 10
833.3301036544737
 20
1962.888225954696
 10
833.0427779793208
 20
1962.747405843232
 10
832.750050831564
 20
1962.618188335281
 10
832.4523905121946
 20
1962.500780151291
 10
832.1502732142262
 20
1962.395369119312
 10
831.8441822608871
 20
1962.302123874506
 10
831.5346073324072
 20
1962.221193589375
 10
831.4664074431858
 20
1962.205129892033
  0
LWPOLYLINE
  5
14A
330
87
100
AcDbEntity
  8
P-SANR-FIXT
100
AcDbPolyline
 90
       19
 70
   128
 43
0.0
 10
793.396753202493
 20
2010.499999999996
 10
794.0597625781972
 20
2010.499999999996
 10
794.7573379765134
 20
2010.499999999996
 10
795.4883634256129
 20
2010.499999999996
 10
796.2516694407207
 20
2010.499999999996
 10
797.0460348950423
 20
2010.499999999996
 10
797.8701889733068
 20
2010.499999999996
 10
798.7228132047991
 20
2010.499999999996
 10
799.602543572632
 20
2010.499999999996
 10
800.5079726958827
 20
2010.499999999996
 10
801.4376520811026
 20
2010.499999999996
 10
802.3900944395958
 20
2010.499999999996
 10
803.3637760667655
 20
2010.499999999996
 10
804.3571392797163
 20
2010.499999999996
 10
805.3685949092132
 20
2010.499999999996
 10
806.3965248420151
 20
2010.499999999996
 10
807.4392846095095
 20
2010.499999999996
 10
808.4952060185115
 20
2010.499999999996
 10
809.5232359201625
 20
2010.499999999996
  0
LINE
  5
14B
330
87
100
AcDbEntity
  8
P-SANR-FIXT
100
AcDbLine
 10
845.6664074431859
 20
2034.299999999996
 30
0.0
 11
845.166407443186
 21
2034.799999999996
 31
0.0
  0
LINE
  5
14C
330
87
100
AcDbEntity
  8
P-SANR-FIXT
100
AcDbLine
 10
786.1664074431859
 20
2034.799999999996
 30
0.0
 11
785.6664074431858
 21
2034.299999999996
 31
0.0
  0
LINE
  5
14D
330
87
100
AcDbEntity
  8
P-SANR-FIXT
100
AcDbLine
 10
801.4164074431858
 20
1951.499999999995
 30
0.0
 11
801.4597208127167
 21
1951.456686630464
 31
0.0
  0
LINE
  5
14E
330
87
100
AcDbEntity
  8
P-SANR-FIXT
100
AcDbLine
 10
801.4706329953787
 20
1951.445774447803
 30
0.0
 11
801.9164074431859
 21
1950.999999999996
 31
0.0
  0
LINE
  5
14F
330
87
100
AcDbEntity
  8
P-SANR-FIXT
100
AcDbLine
 10
829.4164074431858
 20
1950.999999999996
 30
0.0
 11
829.8621818909932
 21
1951.445774447803
 31
0.0
  0
LINE
  5
150
330
87
100
AcDbEntity
  8
P-SANR-FIXT
100
AcDbLine
 10
829.8730940736554
 20
1951.456686630464
 30
0.0
 11
829.9164074431859
 21
1951.499999999995
 31
0.0
  0
LINE
  5
151
330
87
100
AcDbEntity
  8
P-SANR-FIXT
100
AcDbLine
 10
829.4164074431851
 20
1950.999999999995
 30
0.0
 11
801.916407443185
 21
1950.999999999995
 31
0.0
  0
LINE
  5
152
330
87
100
AcDbEntity
  8
P-SANR-FIXT
100
AcDbLine
 10
801.4164074431851
 20
1951.499999999995
 30
0.0
 11
829.9164074431852
 21
1951.499999999995
 31
0.0
  0
SPLINE
  5
153
330
87
100
AcDbEntity
  8
P-SANR-FIXT
100
AcDbSpline
210
0.0
220
0.0
230
1.0
 70
     8
 71
     3
 72
    13
 73
     9
 74
     0
 42
0.000000001
 43
0.0000000001
 40
0.0
 40
0.0
 40
0.0
 40
0.0
 40
0.25
 40
0.375
 40
0.5
 40
0.625
 40
0.75
 40
1.0
 40
1.0
 40
1.0
 40
1.0
 10
798.4899196507877
 20
1986.524309558226
 30
0.0
 10
797.8284480738275
 20
1985.6707381702
 30
0.0
 10
796.8803323930434
 20
1984.519501866911
 30
0.0
 10
795.775455395942
 20
1983.197409373081
 30
0.0
 10
795.0528333548971
 20
1982.349277468931
 30
0.0
 10
794.4546520237564
 20
1981.65774700272
 30
0.0
 10
793.8587485144765
 20
1980.965390328393
 30
0.0
 10
793.6664074431851
 20
1980.761447424461
 30
0.0
 10
793.6664074431851
 20
1980.749999999995
 30
0.0
  0
SPLINE
  5
154
330
87
100
AcDbEntity
  8
P-SANR-FIXT
100
AcDbSpline
210
0.0
220
0.0
230
1.0
 70
     8
 71
     3
 72
    23
 73
    19
 74
     0
 42
0.000000001
 43
0.0000000001
 40
0.0
 40
0.0
 40
0.0
 40
0.0
 40
0.1
 40
0.2
 40
0.3
 40
0.4
 40
0.5
 40
0.55
 40
0.575
 40
0.6
 40
0.625
 40
0.65
 40
0.7
 40
0.75
 40
0.8
 40
0.85
 40
0.9
 40
1.0
 40
1.0
 40
1.0
 40
1.0
 10
799.9919856037677
 20
2007.999999999995
 30
0.0
 10
800.3222335820543
 20
2007.395149404211
 30
0.0
 10
800.922811279509
 20
2006.146431042223
 30
0.0
 10
801.5950461257292
 20
2004.183571858737
 30
0.0
 10
802.0653896930639
 20
2002.049121422471
 30
0.0
 10
802.2563381636812
 20
1999.87601251054
 30
0.0
 10
802.067299492266
 20
1998.075527943794
 30
0.0
 10
801.8101248102194
 20
1996.822269799875
 30
0.0
 10
801.635432488519
 20
1996.124629054139
 30
0.0
 10
801.4943923056264
 20
1995.613169396736
 30
0.0
 10
801.3382439570978
 20
1995.111553964848
 30
0.0
 10
801.1039885588465
 20
1994.449858749612
 30
0.0
 10
800.7739285588664
 20
1993.639873379741
 30
0.0
 10
800.3375363083664
 20
1992.696725619898
 30
0.0
 10
799.8861593110894
 20
1991.785749173094
 30
0.0
 10
799.4240882220242
 20
1990.9072625576
 30
0.0
 10
798.7775104164628
 20
1989.776471660239
 30
0.0
 10
798.2684977112255
 20
1988.974754796742
 30
0.0
 10
797.9226590166897
 20
1988.46080123133
 30
0.0
  0
LINE
  5
155
330
87
100
AcDbEntity
  8
P-SANR-FIXT
100
AcDbLine
 10
845.666407443185
 20
2034.299999999995
 30
0.0
 11
785.6664074431851
 21
2034.299999999995
 31
0.0
  0
SPLINE
  5
156
330
87
100
AcDbEntity
  8
P-SANR-FIXT
100
AcDbSpline
210
0.0
220
0.0
230
1.0
 70
     8
 71
     3
 72
    11
 73
     7
 74
     0
 42
0.000000001
 43
0.0000000001
 40
0.0
 40
0.0
 40
0.0
 40
0.0
 40
0.25
 40
0.5
 40
0.75
 40
1.0
 40
1.0
 40
1.0
 40
1.0
 10
785.6664074431851
 20
2019.249999999995
 30
0.0
 10
785.6664074431851
 20
2019.241937289515
 30
0.0
 10
785.8585796426535
 20
2018.956131495258
 30
0.0
 10
786.6627048527712
 20
2017.67212562253
 30
0.0
 10
787.8478719364734
 20
2015.671590752821
 30
0.0
 10
788.767000694989
 20
2013.959151609711
 30
0.0
 10
789.2384393033524
 20
2012.999999999995
 30
0.0
  0
LINE
  5
157
330
87
100
AcDbEntity
  8
P-SANR-FIXT
100
AcDbLine
 10
786.2786638494786
 20
2034.799999999995
 30
0.0
 11
786.3464580987888
 21
2034.799999999995
 31
0.0
  0
LINE
  5
158
330
87
100
AcDbEntity
  8
P-SANR-FIXT
100
AcDbLine
 10
786.5737853706117
 20
2034.799999999995
 30
0.0
 11
786.7484403487763
 21
2034.799999999995
 31
0.0
  0
LINE
  5
159
330
87
100
AcDbEntity
  8
P-SANR-FIXT
100
AcDbLine
 10
787.0813592381584
 20
2034.799999999995
 30
0.0
 11
787.3501490932642
 21
2034.799999999995
 31
0.0
  0
LINE
  5
15A
330
87
100
AcDbEntity
  8
P-SANR-FIXT
100
AcDbLine
 10
787.72990393626
 20
2034.799999999995
 30
0.0
 11
788.1464297160546
 21
2034.799999999995
 31
0.0
  0
LINE
  5
15B
330
87
100
AcDbEntity
  8
P-SANR-FIXT
100
AcDbLine
 10
788.6934955906435
 20
2034.799999999995
 30
0.0
 11
789.131614673488
 21
2034.799999999995
 31
0.0
  0
LINE
  5
15C
330
87
100
AcDbEntity
  8
P-SANR-FIXT
100
AcDbLine
 10
790.118658031544
 20
2034.799999999995
 30
0.0
 11
790.4941217038352
 21
2034.799999999995
 31
0.0
  0
LINE
  5
15D
330
87
100
AcDbEntity
  8
P-SANR-FIXT
100
AcDbLine
 10
791.5014221366596
 20
2034.799999999995
 30
0.0
 11
791.6807071005516
 21
2034.799999999995
 31
0.0
  0
LINE
  5
15E
330
87
100
AcDbEntity
  8
P-SANR-FIXT
100
AcDbLine
 10
791.7865529535505
 20
2034.799999999995
 30
0.0
 11
793.068096371175
 21
2034.799999999995
 31
0.0
  0
LINE
  5
15F
330
87
100
AcDbEntity
  8
P-SANR-FIXT
100
AcDbLine
 10
793.227191161948
 20
2034.799999999995
 30
0.0
 11
796.5007358682738
 21
2034.799999999995
 31
0.0
  0
LINE
  5
160
330
87
100
AcDbEntity
  8
P-SANR-FIXT
100
AcDbLine
 10
796.7041729574319
 20
2034.799999999995
 30
0.0
 11
798.3157131953739
 21
2034.799999999995
 31
0.0
  0
LINE
  5
161
330
87
100
AcDbEntity
  8
P-SANR-FIXT
100
AcDbLine
 10
798.7459025708289
 20
2034.799999999995
 30
0.0
 11
800.240003829943
 21
2034.799999999995
 31
0.0
  0
LINE
  5
162
330
87
100
AcDbEntity
  8
P-SANR-FIXT
100
AcDbLine
 10
800.9164074431847
 20
2034.799999999995
 30
0.0
 11
802.2612529930066
 21
2034.799999999995
 31
0.0
  0
LINE
  5
163
330
87
100
AcDbEntity
  8
P-SANR-FIXT
100
AcDbLine
 10
803.199168721834
 20
2034.799999999995
 30
0.0
 11
804.366498876336
 21
2034.799999999995
 31
0.0
  0
LINE
  5
164
330
87
100
AcDbEntity
  8
P-SANR-FIXT
100
AcDbLine
 10
805.5768132150776
 20
2034.799999999995
 30
0.0
 11
806.5422466594961
 21
2034.799999999995
 31
0.0
  0
LINE
  5
165
330
87
100
AcDbEntity
  8
P-SANR-FIXT
100
AcDbLine
 10
807.4449070842742
 20
2034.799999999995
 30
0.0
 11
808.0312456126604
 21
2034.799999999995
 31
0.0
  0
LINE
  5
166
330
87
100
AcDbEntity
  8
P-SANR-FIXT
100
AcDbLine
 10
808.7745501539698
 20
2034.799999999995
 30
0.0
 11
810.5437862020101
 21
2034.799999999995
 31
0.0
  0
LINE
  5
167
330
87
100
AcDbEntity
  8
P-SANR-FIXT
100
AcDbLine
 10
811.0490985826702
 20
2034.799999999995
 30
0.0
 11
813.0953130321287
 21
2034.799999999995
 31
0.0
  0
LINE
  5
168
330
87
100
AcDbEntity
  8
P-SANR-FIXT
100
AcDbLine
 10
813.351306779699
 20
2034.799999999995
 30
0.0
 11
817.9815081066713
 21
2034.799999999995
 31
0.0
  0
LINE
  5
169
330
87
100
AcDbEntity
  8
P-SANR-FIXT
100
AcDbLine
 10
818.2375018542405
 20
2034.799999999995
 30
0.0
 11
820.2837163037001
 21
2034.799999999995
 31
0.0
  0
LINE
  5
16A
330
87
100
AcDbEntity
  8
P-SANR-FIXT
100
AcDbLine
 10
820.7890286843591
 20
2034.799999999995
 30
0.0
 11
822.5582647324005
 21
2034.799999999995
 31
0.0
  0
LINE
  5
16B
330
87
100
AcDbEntity
  8
P-SANR-FIXT
100
AcDbLine
 10
823.2123734338122
 20
2034.799999999995
 30
0.0
 11
823.301569273709
 21
2034.799999999995
 31
0.0
  0
LINE
  5
16C
330
87
100
AcDbEntity
  8
P-SANR-FIXT
100
AcDbLine
 10
824.7905682268743
 20
2034.799999999995
 30
0.0
 11
825.7560016712918
 21
2034.799999999995
 31
0.0
  0
LINE
  5
16D
330
87
100
AcDbEntity
  8
P-SANR-FIXT
100
AcDbLine
 10
826.9663160100346
 20
2034.799999999995
 30
0.0
 11
828.1336461645352
 21
2034.799999999995
 31
0.0
  0
LINE
  5
16E
330
87
100
AcDbEntity
  8
P-SANR-FIXT
100
AcDbLine
 10
829.0715618933639
 20
2034.799999999995
 30
0.0
 11
832.5869123155404
 21
2034.799999999995
 31
0.0
  0
LINE
  5
16F
330
87
100
AcDbEntity
  8
P-SANR-FIXT
100
AcDbLine
 10
833.0171016909963
 20
2034.799999999995
 30
0.0
 11
834.6286419289377
 21
2034.799999999995
 31
0.0
  0
LINE
  5
170
330
87
100
AcDbEntity
  8
P-SANR-FIXT
100
AcDbLine
 10
834.8320790180963
 20
2034.799999999995
 30
0.0
 11
838.1056237244221
 21
2034.799999999995
 31
0.0
  0
LINE
  5
171
330
87
100
AcDbEntity
  8
P-SANR-FIXT
100
AcDbLine
 10
838.2647185151945
 20
2034.799999999995
 30
0.0
 11
839.5462619328197
 21
2034.799999999995
 31
0.0
  0
LINE
  5
172
330
87
100
AcDbEntity
  8
P-SANR-FIXT
100
AcDbLine
 10
840.8386931825349
 20
2034.799999999995
 30
0.0
 11
841.2141568548257
 21
2034.799999999995
 31
0.0
  0
LINE
  5
173
330
87
100
AcDbEntity
  8
P-SANR-FIXT
100
AcDbLine
 10
842.2012002128822
 20
2034.799999999995
 30
0.0
 11
842.6393192957267
 21
2034.799999999995
 31
0.0
  0
LINE
  5
174
330
87
100
AcDbEntity
  8
P-SANR-FIXT
100
AcDbLine
 10
843.1863851703152
 20
2034.799999999995
 30
0.0
 11
843.5440190645296
 21
2034.799999999995
 31
0.0
  0
LINE
  5
175
330
87
100
AcDbEntity
  8
P-SANR-FIXT
100
AcDbLine
 10
843.9826657931044
 20
2034.799999999995
 30
0.0
 11
844.2514556482121
 21
2034.799999999995
 31
0.0
  0
LINE
  5
176
330
87
100
AcDbEntity
  8
P-SANR-FIXT
100
AcDbLine
 10
844.5843745375965
 20
2034.799999999995
 30
0.0
 11
844.7590295157576
 21
2034.799999999995
 31
0.0
  0
LINE
  5
177
330
87
100
AcDbEntity
  8
P-SANR-FIXT
100
AcDbLine
 10
844.9863567875818
 20
2034.799999999995
 30
0.0
 11
845.0541510368916
 21
2034.799999999995
 31
0.0
  0
LINE
  5
178
330
87
100
AcDbEntity
  8
P-SANR-FIXT
100
AcDbLine
 10
780.1664074431851
 20
2021.199999999995
 30
0.0
 11
780.1664074431851
 21
1978.799999999995
 31
0.0
  0
SPLINE
  5
179
330
87
100
AcDbEntity
  8
P-SANR-FIXT
100
AcDbSpline
210
0.0
220
0.0
230
1.0
 70
     8
 71
     3
 72
    14
 73
    10
 74
     0
 42
0.000000001
 43
0.0000000001
 40
0.0
 40
0.0
 40
0.0
 40
0.0
 40
0.15
 40
0.3
 40
0.4125
 40
0.55
 40
0.7
 40
0.85
 40
1.0
 40
1.0
 40
1.0
 40
1.0
 10
798.4899196507878
 20
1986.524309558226
 30
0.0
 10
798.5299635904896
 20
1986.572963925137
 30
0.0
 10
798.5982286667802
 20
1986.673105851189
 30
0.0
 10
798.6698749760861
 20
1986.821610863302
 30
0.0
 10
798.7055953117728
 20
1986.970235038796
 30
0.0
 10
798.7077884164611
 20
1987.129762777777
 30
0.0
 10
798.6251048051367
 20
1987.291018962774
 30
0.0
 10
798.4694545706771
 20
1987.424889452588
 30
0.0
 10
798.3283385598732
 20
1987.474919079248
 30
0.0
 10
798.2469880914224
 20
1987.492555394778
 30
0.0
  0
SPLINE
  5
17A
330
87
100
AcDbEntity
  8
P-SANR-FIXT
100
AcDbSpline
210
0.0
220
0.0
230
1.0
 70
     8
 71
     3
 72
    14
 73
    10
 74
     0
 42
0.000000001
 43
0.0000000001
 40
0.0
 40
0.0
 40
0.0
 40
0.0
 40
0.15
 40
0.3
 40
0.475
 40
0.5875
 40
0.7
 40
0.8125
 40
1.0
 40
1.0
 40
1.0
 40
1.0
 10
798.2469880914224
 20
1987.492555394778
 30
0.0
 10
798.1710311464573
 20
1987.509266357473
 30
0.0
 10
798.0368576472775
 20
1987.556099138428
 30
0.0
 10
797.8703496143829
 20
1987.685178221886
 30
0.0
 10
797.7812558981678
 20
1987.840143974938
 30
0.0
 10
797.7618736666547
 20
1987.997982495183
 30
0.0
 10
797.7743283116807
 20
1988.127373710533
 30
0.0
 10
797.8223971418957
 20
1988.285963410717
 30
0.0
 10
797.8776010010408
 20
1988.394360315711
 30
0.0
 10
797.9226590166897
 20
1988.46080123133
 30
0.0
  0
SPLINE
  5
17B
330
87
100
AcDbEntity
  8
P-SANR-FIXT
100
AcDbSpline
210
0.0
220
0.0
230
1.0
 70
     8
 71
     3
 72
    22
 73
    18
 74
     0
 42
0.000000001
 43
0.0000000001
 40
0.0
 40
0.0
 40
0.0
 40
0.0
 40
0.0714285714285714
 40
0.1428571428571428
 40
0.2142857142857143
 40
0.25
 40
0.2857142857142857
 40
0.3214285714285714
 40
0.3571428571428571
 40
0.4285714285714286
 40
0.5714285714285714
 40
0.6785714285714287
 40
0.7321428571428572
 40
0.7857142857142857
 40
0.8392857142857142
 40
0.8928571428571427
 40
1.0
 40
1.0
 40
1.0
 40
1.0
 10
799.9919856037678
 20
2007.999999999995
 30
0.0
 10
799.9290389467009
 20
2008.112213728208
 30
0.0
 10
799.7921707280732
 20
2008.327938483882
 30
0.0
 10
799.5565586205224
 20
2008.626578474514
 30
0.0
 10
799.3284197132088
 20
2008.853368919554
 30
0.0
 10
799.1317097790002
 20
2009.023069477607
 30
0.0
 10
798.9808593796319
 20
2009.145489320178
 30
0.0
 10
798.8260597111076
 20
2009.262977013176
 30
0.0
 10
798.6118290495617
 20
2009.412466424652
 30
0.0
 10
798.224119191552
 20
2009.65702772509
 30
0.0
 10
797.6957090352451
 20
2009.929502436055
 30
0.0
 10
797.1679242621686
 20
2010.14136323714
 30
0.0
 10
796.7849261157152
 20
2010.26375628251
 30
0.0
 10
796.4915356086913
 20
2010.34499310498
 30
0.0
 10
796.1934367649392
 20
2010.411519524098
 30
0.0
 10
795.7921523284372
 20
2010.474028233673
 30
0.0
 10
795.4851868069462
 20
2010.496323162724
 30
0.0
 10
795.2779916145828
 20
2010.499999999995
 30
0.0
  0
SPLINE
  5
17C
330
87
100
AcDbEntity
  8
P-SANR-FIXT
100
AcDbSpline
210
0.0
220
0.0
230
1.0
 70
     8
 71
     3
 72
    12
 73
     8
 74
     0
 42
0.000000001
 43
0.0000000001
 40
0.0
 40
0.0
 40
0.0
 40
0.0
 40
0.1428571428571428
 40
0.2857142857142857
 40
0.4285714285714286
 40
0.5714285714285714
 40
1.0
 40
1.0
 40
1.0
 40
1.0
 10
793.3967532024923
 20
2010.499999999995
 30
0.0
 10
793.1292767329219
 20
2010.503367710816
 30
0.0
 10
792.6069260512327
 20
2010.552867828359
 30
0.0
 10
791.8502001756086
 20
2010.765286112912
 30
0.0
 10
791.1532943232308
 20
2011.079216939749
 30
0.0
 10
790.1111186200535
 20
2011.744675039008
 30
0.0
 10
789.5127135454243
 20
2012.446511882913
 30
0.0
 10
789.2384393033526
 20
2012.999999999995
 30
0.0
  0
ENDBLK
  5
17E
330
87
100
AcDbEntity
  8
0
100
AcDbBlockEnd
  0
BLOCK
  5
292
330
180
100
AcDbEntity
  8
0
100
AcDbBlockBegin
  2
Automatic flow rate regulator valve_Caleffi_121 DN15 - 1___Pressure gauge-V1-Est - Idraulica
 70
     0
 10
0.0
 20
0.0
 30
0.0
  3
Automatic flow rate regulator valve_Caleffi_121 DN15 - 1___Pressure gauge-V1-Est - Idraulica
  1

  0
LINE
  5
181
330
180
100
AcDbEntity
  8
M-PIPE
100
AcDbLine
 10
835.1664074431573
 20
1736.245878730009
 30
0.0
 11
835.1664074431573
 21
1734.24587873001
 31
0.0
1001
REVIT
1002
{
1070
     3
1000
924018
1002
}
  0
LINE
  5
182
330
180
100
AcDbEntity
  8
M-PIPE
100
AcDbLine
 10
842.1664074431571
 20
1734.24587873001
 30
0.0
 11
842.1664074431571
 21
1736.245878730009
 31
0.0
1001
REVIT
1002
{
1070
     3
1000
924018
1002
}
  0
LINE
  5
183
330
180
100
AcDbEntity
  8
M-PIPE
100
AcDbLine
 10
835.1664074431559
 20
1734.245878730009
 30
0.0
 11
842.1664074431559
 21
1734.245878730009
 31
0.0
1001
REVIT
1002
{
1070
     3
1000
924018
1002
}
  0
LINE
  5
184
330
180
100
AcDbEntity
  8
M-PIPE
100
AcDbLine
 10
832.116407443163
 20
1789.245878730059
 30
0.0
 11
832.1164074431635
 21
1772.245878729992
 31
0.0
1001
REVIT
1002
{
1070
     3
1000
924018
1002
}
  0
LINE
  5
185
330
180
100
AcDbEntity
  8
M-PIPE
100
AcDbLine
 10
845.216407443149
 20
1772.245878729993
 30
0.0
 11
845.2164074431486
 21
1789.245878730059
 31
0.0
1001
REVIT
1002
{
1070
     3
1000
924018
1002
}
  0
LINE
  5
186
330
180
100
AcDbEntity
  8
M-PIPE
100
AcDbLine
 10
831.6664074431674
 20
1772.245878729991
 30
0.0
 11
845.6664074431675
 21
1772.245878729992
 31
0.0
1001
REVIT
1002
{
1070
     3
1000
924018
1002
}
  0
LINE
  5
187
330
180
100
AcDbEntity
  8
M-PIPE
100
AcDbLine
 10
845.6664074431675
 20
1772.245878729992
 30
0.0
 11
845.6664074431676
 21
1766.245878730009
 31
0.0
1001
REVIT
1002
{
1070
     3
1000
924018
1002
}
  0
LINE
  5
188
330
180
100
AcDbEntity
  8
M-PIPE
100
AcDbLine
 10
831.6664074431674
 20
1772.245878729991
 30
0.0
 11
831.6664074431674
 21
1766.245878730009
 31
0.0
1001
REVIT
1002
{
1070
     3
1000
924018
1002
}
  0
LINE
  5
189
330
180
100
AcDbEntity
  8
M-PIPE
100
AcDbLine
 10
807.6664074431445
 20
1763.245878730009
 30
0.0
 11
807.6664074431452
 21
1736.245878730009
 31
0.0
1001
REVIT
1002
{
1070
     3
1000
924018
1002
}
  0
LINE
  5
18A
330
180
100
AcDbEntity
  8
M-PIPE
100
AcDbLine
 10
869.6664074431691
 20
1736.245878730011
 30
0.0
 11
869.6664074431684
 21
1763.24587873001
 31
0.0
1001
REVIT
1002
{
1070
     3
1000
924018
1002
}
  0
LWPOLYLINE
  5
18B
330
180
100
AcDbEntity
  8
M-PIPE
100
AcDbPolyline
 90
       80
 70
   128
 43
0.0
 10
866.6664074431688
 20
1766.24587873001
 10
866.6440104296761
 20
1766.24587873001
 10
866.5768552196421
 20
1766.24587873001
 10
866.4650492470768
 20
1766.24587873001
 10
866.3087713776862
 20
1766.24587873001
 10
866.1082716227232
 20
1766.24587873001
 10
865.8638707390251
 20
1766.24587873001
 10
865.5759597158697
 20
1766.24587873001
 10
865.2449991494764
 20
1766.24587873001
 10
864.8715185061501
 20
1766.24587873001
 10
864.4561152752485
 20
1766.24587873001
 10
863.9994540133265
 20
1766.24587873001
 10
863.5022652809873
 20
1766.24587873001
 10
862.9653444741414
 20
1766.24587873001
 10
862.3895505515424
 20
1766.24587873001
 10
861.7758046606375
 20
1766.24587873001
 10
861.1250886639265
 20
1766.24587873001
 10
860.438443568192
 20
1766.24587873001
 10
859.7169678591107
 20
1766.24587873001
 10
858.9618157439106
 20
1766.24587873001
 10
858.1741953048856
 20
1766.24587873001
 10
857.3553665667212
 20
1766.24587873001
 10
856.5066394807244
 20
1766.245878730009
 10
855.6293718291808
 20
1766.245878730009
 10
854.7249670531922
 20
1766.245878730009
 10
853.7948720074711
 20
1766.245878730009
 10
852.8405746456805
 20
1766.245878730009
 10
851.8636016400268
 20
1766.245878730009
 10
850.8655159389096
 20
1766.245878730009
 10
849.8479142665368
 20
1766.245878730009
 10
848.8124245685076
 20
1766.245878730009
 10
847.7607034074461
 20
1766.245878730009
 10
846.6944333128546
 20
1766.245878730009
 10
845.6153200894259
 20
1766.245878730009
 10
844.5250900881186
 20
1766.245878730009
 10
843.4254874443652
 20
1766.245878730009
 10
842.3182712878261
 20
1766.245878730009
 10
841.2052129281583
 20
1766.245878730009
 10
840.0880930212972
 20
1766.245878730009
 10
838.9686987207879
 20
1766.245878730009
 10
837.8488208187199
 20
1766.245878730009
 10
836.7302508808419
 20
1766.245878730009
 10
835.6147783804386
 20
1766.245878730009
 10
834.5041878355564
 20
1766.245878730009
 10
833.4002559541534
 20
1766.245878730009
 10
832.3047487917472
 20
1766.245878730009
 10
831.2194189261017
 20
1766.245878730009
 10
830.1460026534773
 20
1766.245878730009
 10
829.0862172109271
 20
1766.245878730009
 10
828.0417580290833
 20
1766.245878730009
 10
827.0142960198313
 20
1766.245878730009
 10
826.0054749032052
 20
1766.245878730009
 10
825.0169085777882
 20
1766.245878730009
 10
824.0501785388181
 20
1766.245878730009
 10
823.1068313481323
 20
1766.245878730009
 10
822.1883761599995
 20
1766.245878730009
 10
821.2962823067938
 20
1766.245878730009
 10
820.431976948377
 20
1766.245878730009
 10
819.5968427889479
 20
1766.245878730009
 10
818.7922158650083
 20
1766.245878730009
 10
818.0193834079924
 20
1766.245878730009
 10
817.2795817849692
 20
1766.245878730009
 10
816.5739945207199
 20
1766.245878730009
 10
815.9037504043494
 20
1766.245878730009
 10
815.2699216834667
 20
1766.245878730009
 10
814.6735223488153
 20
1766.245878730009
 10
814.1155065121058
 20
1766.245878730009
 10
813.5967668796396
 20
1766.245878730009
 10
813.1181333241704
 20
1766.245878730009
 10
812.6803715572838
 20
1766.245878730009
 10
812.2841819044223
 20
1766.245878730009
 10
811.9301981845151
 20
1766.245878730009
 10
811.6189866960013
 20
1766.245878730009
 10
811.3510453108743
 20
1766.245878730009
 10
811.1268026781923
 20
1766.245878730009
 10
810.9466175383317
 20
1766.245878730009
 10
810.8107781490794
 20
1766.245878730009
 10
810.71950182448
 20
1766.245878730009
 10
810.6729345871823
 20
1766.245878730009
 10
810.6664074431442
 20
1766.245878730009
1001
REVIT
1002
{
1070
     3
1000
924018
1002
}
  0
LWPOLYLINE
  5
18C
330
180
100
AcDbEntity
  8
M-PIPE
100
AcDbPolyline
 90
       41
 70
   128
 43
0.0
 10
866.6906401348802
 20
1766.245394011545
 10
866.7863754457284
 20
1766.243479049993
 10
866.906151525076
 20
1766.236283848918
 10
867.0255440650354
 20
1766.224304637572
 10
867.1443620630114
 20
1766.207560580137
 10
867.2624154355538
 20
1766.186078463534
 10
867.3795153224501
 20
1766.159892654567
 10
867.495474388861
 20
1766.129045044943
 10
867.6101071250171
 20
1766.093584984258
 10
867.7232301429938
 20
1766.053569201044
 10
867.8346624700948
 20
1766.009061712019
 10
867.9442258383668
 20
1765.960133719671
 10
868.0517449697932
 20
1765.906863498348
 10
868.1570478566998
 20
1765.849336269044
 10
868.2599660369314
 20
1765.787644063051
 10
868.3603348633537
 20
1765.72188557474
 10
868.4579937672559
 20
1765.652166003663
 10
868.5527865152241
 20
1765.578596886263
 10
868.6445614590832
 20
1765.501295917433
 10
868.7331717785003
 20
1765.420386762233
 10
868.8184757158673
 20
1765.335998858052
 10
868.9003368030812
 20
1765.248267207535
 10
868.9786240798657
 20
1765.157332162606
 10
869.0532123032779
 20
1765.063339199941
 10
869.1239821480719
 20
1764.966438688228
 10
869.1908203975923
 20
1764.866785647615
 10
869.2536201248987
 20
1764.764539501709
 10
869.3122808638236
 20
1764.659863822532
 10
869.3667087696981
 20
1764.552926068841
 10
869.416816769484
 20
1764.443897318229
 10
869.4625247010705
 20
1764.332951993441
 10
869.5037594415174
 20
1764.220267583327
 10
869.5404550240365
 20
1764.106024358907
 10
869.5725527435236
 20
1763.990405084968
 10
869.6000012504747
 20
1763.873594727685
 10
869.6227566331341
 20
1763.755780158712
 10
869.6407824877438
 20
1763.637149856225
 10
869.6540499767817
 20
1763.517893603404
 10
869.6625378750955
 20
1763.398202184811
 10
869.6662326038588
 20
1763.278267081186
 10
869.6664074431687
 20
1763.24587873001
1001
REVIT
1002
{
1070
     3
1000
924018
1002
}
  0
LWPOLYLINE
  5
18D
330
180
100
AcDbEntity
  8
M-PIPE
100
AcDbPolyline
 90
       41
 70
   128
 43
0.0
 10
807.6664074431443
 20
1763.245878730009
 10
807.6688071231613
 20
1763.365846732569
 10
807.6760023242364
 20
1763.485622811917
 10
807.6879815355825
 20
1763.605015351876
 10
807.7047255930173
 20
1763.723833349852
 10
807.7262077096204
 20
1763.841886722394
 10
807.7523935185883
 20
1763.95898660929
 10
807.783241128212
 20
1764.074945675701
 10
807.8187011888967
 20
1764.189578411857
 10
807.8587169721103
 20
1764.302701429835
 10
807.9032244611356
 20
1764.414133756935
 10
807.9521524534841
 20
1764.523697125207
 10
808.0054226748064
 20
1764.631216256634
 10
808.0629499041112
 20
1764.73651914354
 10
808.124642110104
 20
1764.839437323772
 10
808.1904005984151
 20
1764.939806150194
 10
808.2601201694913
 20
1765.037465054096
 10
808.3336892868913
 20
1765.132257802064
 10
808.4109902557216
 20
1765.224032745923
 10
808.4918994109214
 20
1765.312643065341
 10
808.5762873151027
 20
1765.397947002708
 10
808.6640189656202
 20
1765.479808089922
 10
808.7549540105484
 20
1765.558095366706
 10
808.8489469732138
 20
1765.632683590118
 10
808.9458474849267
 20
1765.703453434912
 10
809.0455005255398
 20
1765.770291684433
 10
809.147746671446
 20
1765.833091411739
 10
809.2524223506229
 20
1765.891752150664
 10
809.3593601043142
 20
1765.946180056539
 10
809.4683888549253
 20
1765.996288056324
 10
809.5793341797142
 20
1766.041995987911
 10
809.6920185898278
 20
1766.083230728358
 10
809.8062618142483
 20
1766.119926310877
 10
809.921881088187
 20
1766.152024030364
 10
810.0386914454698
 20
1766.179472537315
 10
810.1565060144434
 20
1766.202227919975
 10
810.2751363169298
 20
1766.220253774584
 10
810.3943925697512
 20
1766.233521263622
 10
810.5140839883434
 20
1766.242009161936
 10
810.6340190919693
 20
1766.245703890699
 10
810.6664074431442
 20
1766.245878730009
1001
REVIT
1002
{
1070
     3
1000
924018
1002
}
  0
LWPOLYLINE
  5
18E
330
180
100
AcDbEntity
  8
M-PIPE
100
AcDbPolyline
 90
        4
 70
   128
 43
0.0
 10
810.6664074431442
 20
1766.245878730009
 10
810.6888044566368
 20
1766.245878730009
 10
810.7559596666707
 20
1766.245878730009
 10
810.7702512685687
 20
1766.245878730009
1001
REVIT
1002
{
1070
     3
1000
924018
1002
}
  0
LWPOLYLINE
  5
18F
330
180
100
AcDbEntity
  8
M-PIPE
100
AcDbPolyline
 90
        4
 70
   128
 43
0.0
 10
866.5532033347142
 20
1766.245878730011
 10
866.6133130618327
 20
1766.245878730011
 10
866.6598802991307
 20
1766.245878730011
 10
866.6664074431688
 20
1766.24587873001
1001
REVIT
1002
{
1070
     3
1000
924018
1002
}
  0
LINE
  5
190
330
180
100
AcDbEntity
  8
M-PIPE
100
AcDbLine
 10
807.6664074431441
 20
1736.245878730008
 30
0.0
 11
869.6664074431678
 21
1736.24587873001
 31
0.0
1001
REVIT
1002
{
1070
     3
1000
924018
1002
}
  0
LINE
  5
191
330
180
100
AcDbEntity
  8
P-SANR-FIXT
100
AcDbLine
 10
830.1168329270931
 20
1864.245878730045
 30
0.0
 11
829.1664074431592
 21
1863.295453246111
 31
0.0
  0
LINE
  5
192
330
180
100
AcDbEntity
  8
P-SANR-FIXT
100
AcDbLine
 10
848.1664074431487
 20
1863.295453246111
 30
0.0
 11
847.2159819592148
 21
1864.245878730045
 31
0.0
  0
LINE
  5
193
330
180
100
AcDbEntity
  8
P-SANR-FIXT
100
AcDbLine
 10
829.1664074431592
 20
1863.295453246111
 30
0.0
 11
829.1664074431592
 21
1858.245878730044
 31
0.0
  0
LINE
  5
194
330
180
100
AcDbEntity
  8
P-SANR-FIXT
100
AcDbLine
 10
848.166407443149
 20
1858.245878730045
 30
0.0
 11
848.1664074431487
 21
1863.295453246111
 31
0.0
  0
LINE
  5
195
330
180
100
AcDbEntity
  8
P-SANR-FIXT
100
AcDbLine
 10
830.1168329270916
 20
1864.245878730044
 30
0.0
 11
838.6664074431527
 21
1864.245878730044
 31
0.0
  0
LINE
  5
196
330
180
100
AcDbEntity
  8
P-SANR-FIXT
100
AcDbLine
 10
838.6664074431527
 20
1864.245878730044
 30
0.0
 11
847.2159819592135
 21
1864.245878730045
 31
0.0
  0
LINE
  5
197
330
180
100
AcDbEntity
  8
P-SANR-FIXT
100
AcDbLine
 10
829.1664074431579
 20
1863.29545324611
 30
0.0
 11
838.6664074431527
 21
1863.29545324611
 31
0.0
  0
LINE
  5
198
330
180
100
AcDbEntity
  8
P-SANR-FIXT
100
AcDbLine
 10
838.6664074431527
 20
1863.29545324611
 30
0.0
 11
848.1664074431476
 21
1863.295453246111
 31
0.0
  0
LINE
  5
199
330
180
100
AcDbEntity
  8
P-SANR-FIXT
100
AcDbLine
 10
829.1664074431579
 20
1858.245878730044
 30
0.0
 11
838.6664074431529
 21
1858.245878730044
 31
0.0
  0
LINE
  5
19A
330
180
100
AcDbEntity
  8
P-SANR-FIXT
100
AcDbLine
 10
838.6664074431529
 20
1858.245878730044
 30
0.0
 11
848.1664074431476
 21
1858.245878730044
 31
0.0
  0
LINE
  5
19B
330
180
100
AcDbEntity
  8
P-SANR-FIXT
100
AcDbLine
 10
764.7650830628806
 20
1800.245878730044
 30
0.0
 11
777.7977671456572
 21
1800.245878730044
 31
0.0
  0
LINE
  5
19C
330
180
100
AcDbEntity
  8
P-SANR-FIXT
100
AcDbLine
 10
777.7977671457022
 20
1847.245878730011
 30
0.0
 11
764.7650830628355
 21
1847.245878730011
 31
0.0
  0
LINE
  5
19D
330
180
100
AcDbEntity
  8
P-SANR-FIXT
100
AcDbLine
 10
763.6928119718914
 20
1847.246095387226
 30
0.0
 11
761.1664074431887
 21
1842.870234383045
 31
0.0
  0
LINE
  5
19E
330
180
100
AcDbEntity
  8
P-SANR-FIXT
100
AcDbLine
 10
761.1664074431888
 20
1804.621523077095
 30
0.0
 11
763.6928119719402
 21
1800.24566207283
 31
0.0
  0
LINE
  5
19F
330
180
100
AcDbEntity
  8
P-SANR-FIXT
100
AcDbLine
 10
779.1664074431879
 20
1846.745878730019
 30
0.0
 11
778.8760021700124
 21
1847.246093697783
 31
0.0
  0
LINE
  5
1A0
330
180
100
AcDbEntity
  8
P-SANR-FIXT
100
AcDbLine
 10
778.8760021699637
 20
1800.245663762273
 30
0.0
 11
779.1664074431884
 21
1800.74587873012
 31
0.0
  0
LINE
  5
1A1
330
180
100
AcDbEntity
  8
P-SANR-FIXT
100
AcDbLine
 10
761.1664074431875
 20
1823.745878730069
 30
0.0
 11
761.1664074431874
 21
1842.870234383044
 31
0.0
  0
LINE
  5
1A2
330
180
100
AcDbEntity
  8
P-SANR-FIXT
100
AcDbLine
 10
761.1664074431875
 20
1804.621523077094
 30
0.0
 11
761.1664074431875
 21
1823.745878730069
 31
0.0
  0
LINE
  5
1A3
330
180
100
AcDbEntity
  8
P-SANR-FIXT
100
AcDbLine
 10
779.1664074431869
 20
1846.745878730019
 30
0.0
 11
779.166407443187
 21
1823.745878730069
 31
0.0
  0
LINE
  5
1A4
330
180
100
AcDbEntity
  8
P-SANR-FIXT
100
AcDbLine
 10
779.166407443187
 20
1823.745878730069
 30
0.0
 11
779.1664074431872
 21
1800.745878730119
 31
0.0
  0
SPLINE
  5
1A5
330
180
100
AcDbEntity
  8
P-SANR-FIXT
100
AcDbSpline
210
0.0
220
0.0
230
1.0
 70
     8
 71
     3
 72
    10
 73
     6
 74
     0
 42
0.000000001
 43
0.0000000001
 40
0.0
 40
0.0
 40
0.0
 40
0.0
 40
0.4
 40
0.7
 40
1.0
 40
1.0
 40
1.0
 40
1.0
 10
777.7977671456559
 20
1800.245878730043
 30
0.0
 10
777.5855611253267
 20
1800.245878730043
 30
0.0
 10
777.3554261529831
 20
1800.602068678482
 30
0.0
 10
777.4124423170778
 20
1801.968561764641
 30
0.0
 10
777.6388542309198
 20
1803.120858514563
 30
0.0
 10
777.7977671456583
 20
1803.745878730044
 30
0.0
  0
SPLINE
  5
1A6
330
180
100
AcDbEntity
  8
P-SANR-FIXT
100
AcDbSpline
210
0.0
220
0.0
230
1.0
 70
     8
 71
     3
 72
    10
 73
     6
 74
     0
 42
0.000000001
 43
0.0000000001
 40
0.0
 40
0.0
 40
0.0
 40
0.0
 40
0.4
 40
0.7
 40
1.0
 40
1.0
 40
1.0
 40
1.0
 10
764.7650830628769
 20
1803.745878730044
 30
0.0
 10
764.9758154959333
 20
1802.912397935635
 30
0.0
 10
765.2048182077985
 20
1801.606215578683
 30
0.0
 10
765.1485626987505
 20
1800.471941209413
 30
0.0
 10
764.923372219104
 20
1800.245878730043
 30
0.0
 10
764.7650830628795
 20
1800.245878730043
 30
0.0
  0
SPLINE
  5
1A7
330
180
100
AcDbEntity
  8
P-SANR-FIXT
100
AcDbSpline
210
0.0
220
0.0
230
1.0
 70
    24
 71
     3
 72
     8
 73
     4
 74
     0
 42
0.000000001
 43
0.0000000001
 40
0.0
 40
0.0
 40
0.0
 40
0.0
 40
0.5
 40
0.5
 40
0.5
 40
0.5
 10
764.7650830628795
 20
1800.245878730043
 30
0.0
 10
764.0501926494996
 20
1800.245878730043
 30
0.0
 10
763.6927474428095
 20
1800.245878730043
 30
0.0
 10
763.6927474428091
 20
1800.245878730043
 30
0.0
  0
SPLINE
  5
1A8
330
180
100
AcDbEntity
  8
P-SANR-FIXT
100
AcDbSpline
210
0.0
220
0.0
230
1.0
 70
    24
 71
     3
 72
     8
 73
     4
 74
     0
 42
0.000000001
 43
0.0000000001
 40
0.5
 40
0.5
 40
0.5
 40
0.5
 40
1.0
 40
1.0
 40
1.0
 40
1.0
 10
778.8760665520046
 20
1800.245878730043
 30
0.0
 10
778.876066552004
 20
1800.245878730043
 30
0.0
 10
778.5166334165546
 20
1800.245878730043
 30
0.0
 10
777.7977671456559
 20
1800.245878730043
 30
0.0
  0
SPLINE
  5
1A9
330
180
100
AcDbEntity
  8
P-SANR-FIXT
100
AcDbSpline
210
0.0
220
0.0
230
1.0
 70
    24
 71
     3
 72
     9
 73
     5
 74
     0
 42
0.000000001
 43
0.0000000001
 40
0.4961213325710569
 40
0.4961213325710569
 40
0.4961213325710569
 40
0.4961213325710569
 40
0.5
 40
1.0
 40
1.0
 40
1.0
 40
1.0
 10
763.6928119718901
 20
1847.24587873001
 30
0.0
 10
763.6927689524703
 20
1847.24587873001
 30
0.0
 10
763.6899746205999
 20
1847.24587873001
 30
0.0
 10
764.0501926492818
 20
1847.24587873001
 30
0.0
 10
764.7650830628341
 20
1847.24587873001
 30
0.0
  0
SPLINE
  5
1AA
330
180
100
AcDbEntity
  8
P-SANR-FIXT
100
AcDbSpline
210
0.0
220
0.0
230
1.0
 70
    24
 71
     3
 72
     9
 73
     5
 74
     0
 42
0.000000001
 43
0.0000000001
 40
0.0
 40
0.0
 40
0.0
 40
0.0
 40
0.5
 40
0.5038635158202542
 40
0.5038635158202542
 40
0.5038635158202542
 40
0.5038635158202542
 10
777.7977671457009
 20
1847.24587873001
 30
0.0
 10
778.5166334166019
 20
1847.24587873001
 30
0.0
 10
778.878843903263
 20
1847.24587873001
 30
0.0
 10
778.8760450913725
 20
1847.24587873001
 30
0.0
 10
778.8760021700111
 20
1847.24587873001
 30
0.0
  0
SPLINE
  5
1AB
330
180
100
AcDbEntity
  8
P-SANR-FIXT
100
AcDbSpline
210
0.0
220
0.0
230
1.0
 70
     8
 71
     3
 72
    10
 73
     6
 74
     0
 42
0.000000001
 43
0.0000000001
 40
0.0
 40
0.0
 40
0.0
 40
0.0
 40
0.4
 40
0.7
 40
1.0
 40
1.0
 40
1.0
 40
1.0
 10
764.7650830628341
 20
1847.24587873001
 30
0.0
 10
764.9761352711339
 20
1847.24587873001
 30
0.0
 10
765.2049710231159
 20
1846.889609077397
 30
0.0
 10
765.1482896600862
 20
1845.523298176846
 30
0.0
 10
764.9231323876298
 20
1844.370989325816
 30
0.0
 10
764.7650830628383
 20
1843.74587873001
 30
0.0
  0
SPLINE
  5
1AC
330
180
100
AcDbEntity
  8
P-SANR-FIXT
100
AcDbSpline
210
0.0
220
0.0
230
1.0
 70
     8
 71
     3
 72
    10
 73
     6
 74
     0
 42
0.000000001
 43
0.0000000001
 40
0.0
 40
0.0
 40
0.0
 40
0.0
 40
0.4
 40
0.7
 40
1.0
 40
1.0
 40
1.0
 40
1.0
 10
777.7977671456966
 20
1843.74587873001
 30
0.0
 10
777.5858832593797
 20
1844.579239017318
 30
0.0
 10
777.3555804661529
 20
1845.885489585116
 30
0.0
 10
777.4121669775961
 20
1847.019881702547
 30
0.0
 10
777.6386126304535
 20
1847.24587873001
 30
0.0
 10
777.7977671457009
 20
1847.24587873001
 30
0.0
  0
SPLINE
  5
1AD
330
180
100
AcDbEntity
  8
P-SANR-FIXT
100
AcDbSpline
210
0.0
220
0.0
230
1.0
 70
     8
 71
     3
 72
     9
 73
     5
 74
     0
 42
0.000000001
 43
0.0000000001
 40
0.0
 40
0.0
 40
0.0
 40
0.0
 40
0.5
 40
1.0
 40
1.0
 40
1.0
 40
1.0
 10
764.7650830628383
 20
1843.74587873001
 30
0.0
 10
764.0501926494604
 20
1840.955341435656
 30
0.0
 10
763.3353022360853
 20
1835.414804141305
 30
0.0
 10
764.0501926494719
 20
1829.955341435668
 30
0.0
 10
764.7650830628557
 20
1827.245878730027
 30
0.0
  0
SPLINE
  5
1AE
330
180
100
AcDbEntity
  8
P-SANR-FIXT
100
AcDbSpline
210
0.0
220
0.0
230
1.0
 70
     8
 71
     3
 72
     9
 73
     5
 74
     0
 42
0.000000001
 43
0.0000000001
 40
0.0
 40
0.0
 40
0.0
 40
0.0
 40
0.5
 40
1.0
 40
1.0
 40
1.0
 40
1.0
 10
777.7977671456794
 20
1827.245878730027
 30
0.0
 10
778.516633416582
 20
1829.955499810253
 30
0.0
 10
779.2354996874876
 20
1835.415120890477
 30
0.0
 10
778.5166334165936
 20
1840.955499810242
 30
0.0
 10
777.7977671456966
 20
1843.74587873001
 30
0.0
  0
SPLINE
  5
1AF
330
180
100
AcDbEntity
  8
P-SANR-FIXT
100
AcDbSpline
210
0.0
220
0.0
230
1.0
 70
     8
 71
     3
 72
     9
 73
     5
 74
     0
 42
0.000000001
 43
0.0000000001
 40
0.0
 40
0.0
 40
0.0
 40
0.0
 40
0.5
 40
1.0
 40
1.0
 40
1.0
 40
1.0
 10
764.7650830628557
 20
1827.245878730027
 30
0.0
 10
764.8975158263838
 20
1826.723635201488
 30
0.0
 10
765.096835986634
 20
1825.593804843111
 30
0.0
 10
765.1650654132723
 20
1824.364574322882
 30
0.0
 10
765.1664074431883
 20
1823.745878730069
 30
0.0
  0
SPLINE
  5
1B0
330
180
100
AcDbEntity
  8
P-SANR-FIXT
100
AcDbSpline
210
0.0
220
0.0
230
1.0
 70
     8
 71
     3
 72
     9
 73
     5
 74
     0
 42
0.000000001
 43
0.0000000001
 40
0.0
 40
0.0
 40
0.0
 40
0.0
 40
0.5
 40
1.0
 40
1.0
 40
1.0
 40
1.0
 10
765.1664074431883
 20
1823.745878730069
 30
0.0
 10
765.1650654132764
 20
1823.127183137242
 30
0.0
 10
765.0968359866436
 20
1821.897952616982
 30
0.0
 10
764.8975158263927
 20
1820.768122258578
 30
0.0
 10
764.7650830628625
 20
1820.245878730027
 30
0.0
  0
SPLINE
  5
1B1
330
180
100
AcDbEntity
  8
P-SANR-FIXT
100
AcDbSpline
210
0.0
220
0.0
230
1.0
 70
     8
 71
     3
 72
     9
 73
     5
 74
     0
 42
0.000000001
 43
0.0000000001
 40
0.0
 40
0.0
 40
0.0
 40
0.0
 40
0.5
 40
1.0
 40
1.0
 40
1.0
 40
1.0
 10
777.7977671456727
 20
1820.245878730027
 30
0.0
 10
777.664606746161
 20
1820.768053581201
 30
0.0
 10
777.4641869858088
 20
1821.897796911758
 30
0.0
 10
777.3955693027988
 20
1823.127103835438
 30
0.0
 10
777.3942109806293
 20
1823.745878730069
 30
0.0
  0
SPLINE
  5
1B2
330
180
100
AcDbEntity
  8
P-SANR-FIXT
100
AcDbSpline
210
0.0
220
0.0
230
1.0
 70
     8
 71
     3
 72
     9
 73
     5
 74
     0
 42
0.000000001
 43
0.0000000001
 40
0.0
 40
0.0
 40
0.0
 40
0.0
 40
0.5
 40
1.0
 40
1.0
 40
1.0
 40
1.0
 10
777.3942109806293
 20
1823.745878730069
 30
0.0
 10
777.3955693028031
 20
1824.364653624686
 30
0.0
 10
777.4641869858184
 20
1825.593960548335
 30
0.0
 10
777.6646067461697
 20
1826.723703878865
 30
0.0
 10
777.7977671456794
 20
1827.245878730027
 30
0.0
  0
SPLINE
  5
1B3
330
180
100
AcDbEntity
  8
P-SANR-FIXT
100
AcDbSpline
210
0.0
220
0.0
230
1.0
 70
     8
 71
     3
 72
     9
 73
     5
 74
     0
 42
0.000000001
 43
0.0000000001
 40
0.0
 40
0.0
 40
0.0
 40
0.0
 40
0.5
 40
1.0
 40
1.0
 40
1.0
 40
1.0
 10
764.7650830628625
 20
1820.245878730027
 30
0.0
 10
764.0501926494851
 20
1817.455341435673
 30
0.0
 10
763.3353022361102
 20
1811.914804141322
 30
0.0
 10
764.0501926494949
 20
1806.455341435684
 30
0.0
 10
764.7650830628769
 20
1803.745878730044
 30
0.0
  0
SPLINE
  5
1B4
330
180
100
AcDbEntity
  8
P-SANR-FIXT
100
AcDbSpline
210
0.0
220
0.0
230
1.0
 70
     8
 71
     3
 72
     9
 73
     5
 74
     0
 42
0.000000001
 43
0.0000000001
 40
0.0
 40
0.0
 40
0.0
 40
0.0
 40
0.5
 40
1.0
 40
1.0
 40
1.0
 40
1.0
 10
777.7977671456583
 20
1803.745878730044
 30
0.0
 10
778.5166334165593
 20
1806.45549981027
 30
0.0
 10
779.2354996874625
 20
1811.915120890494
 30
0.0
 10
778.516633416569
 20
1817.455499810259
 30
0.0
 10
777.7977671456727
 20
1820.245878730027
 30
0.0
  0
LINE
  5
1B5
330
180
100
AcDbEntity
  8
P-SANR-FIXT
100
AcDbLine
 10
858.5350477407166
 20
1800.245878730045
 30
0.0
 11
871.5677318234931
 21
1800.245878730045
 31
0.0
  0
LINE
  5
1B6
330
180
100
AcDbEntity
  8
P-SANR-FIXT
100
AcDbLine
 10
871.5677318235378
 20
1847.245878730011
 30
0.0
 11
858.5350477406711
 21
1847.245878730011
 31
0.0
  0
LINE
  5
1B7
330
180
100
AcDbEntity
  8
P-SANR-FIXT
100
AcDbLine
 10
875.1664074431845
 20
1842.870234383045
 30
0.0
 11
872.6400029144818
 21
1847.246095387226
 31
0.0
  0
LINE
  5
1B8
330
180
100
AcDbEntity
  8
P-SANR-FIXT
100
AcDbLine
 10
872.6400029144336
 20
1800.24566207283
 30
0.0
 11
875.1664074431849
 21
1804.621523077095
 31
0.0
  0
LINE
  5
1B9
330
180
100
AcDbEntity
  8
P-SANR-FIXT
100
AcDbLine
 10
857.4568127163608
 20
1847.246093697783
 30
0.0
 11
857.1664074431852
 21
1846.74587873002
 31
0.0
  0
LINE
  5
1BA
330
180
100
AcDbEntity
  8
P-SANR-FIXT
100
AcDbLine
 10
857.1664074431854
 20
1800.74587873012
 30
0.0
 11
857.4568127164097
 21
1800.245663762273
 31
0.0
  0
LINE
  5
1BB
330
180
100
AcDbEntity
  8
P-SANR-FIXT
100
AcDbLine
 10
875.1664074431831
 20
1842.870234383045
 30
0.0
 11
875.1664074431834
 21
1823.74587873007
 31
0.0
  0
LINE
  5
1BC
330
180
100
AcDbEntity
  8
P-SANR-FIXT
100
AcDbLine
 10
875.1664074431834
 20
1823.74587873007
 30
0.0
 11
875.1664074431834
 21
1804.621523077095
 31
0.0
  0
LINE
  5
1BD
330
180
100
AcDbEntity
  8
P-SANR-FIXT
100
AcDbLine
 10
857.166407443184
 20
1823.74587873007
 30
0.0
 11
857.1664074431836
 21
1846.745878730019
 31
0.0
  0
LINE
  5
1BE
330
180
100
AcDbEntity
  8
P-SANR-FIXT
100
AcDbLine
 10
857.166407443184
 20
1800.74587873012
 30
0.0
 11
857.166407443184
 21
1823.745878730069
 31
0.0
  0
SPLINE
  5
1BF
330
180
100
AcDbEntity
  8
P-SANR-FIXT
100
AcDbSpline
210
0.0
220
0.0
230
1.0
 70
     8
 71
     3
 72
    10
 73
     6
 74
     0
 42
0.000000001
 43
0.0000000001
 40
0.0
 40
0.0
 40
0.0
 40
0.0
 40
0.4
 40
0.7
 40
1.0
 40
1.0
 40
1.0
 40
1.0
 10
858.5350477407128
 20
1803.745878730044
 30
0.0
 10
858.7472537610427
 20
1802.910795821782
 30
0.0
 10
858.9773887333874
 20
1801.605171699633
 30
0.0
 10
858.9203725692945
 20
1800.471082317507
 30
0.0
 10
858.6939606554535
 20
1800.245878730044
 30
0.0
 10
858.5350477407153
 20
1800.245878730044
 30
0.0
  0
SPLINE
  5
1C0
330
180
100
AcDbEntity
  8
P-SANR-FIXT
100
AcDbSpline
210
0.0
220
0.0
230
1.0
 70
     8
 71
     3
 72
    10
 73
     6
 74
     0
 42
0.000000001
 43
0.0000000001
 40
0.0
 40
0.0
 40
0.0
 40
0.0
 40
0.4
 40
0.7
 40
1.0
 40
1.0
 40
1.0
 40
1.0
 10
871.5677318234916
 20
1800.245878730044
 30
0.0
 10
871.3569993904361
 20
1800.245878730044
 30
0.0
 10
871.1279966785721
 20
1800.601436658293
 30
0.0
 10
871.1842521876217
 20
1801.966854731268
 30
0.0
 10
871.4094426672692
 20
1803.119477953356
 30
0.0
 10
871.5677318234941
 20
1803.745878730044
 30
0.0
  0
SPLINE
  5
1C1
330
180
100
AcDbEntity
  8
P-SANR-FIXT
100
AcDbSpline
210
0.0
220
0.0
230
1.0
 70
    24
 71
     3
 72
     8
 73
     4
 74
     0
 42
0.000000001
 43
0.0000000001
 40
0.0
 40
0.0
 40
0.0
 40
0.0
 40
0.5
 40
0.5
 40
0.5
 40
0.5
 10
858.5350477407153
 20
1800.245878730044
 30
0.0
 10
857.8161814698166
 20
1800.245878730044
 30
0.0
 10
857.456748334367
 20
1800.245878730044
 30
0.0
 10
857.4567483343667
 20
1800.245878730044
 30
0.0
  0
SPLINE
  5
1C2
330
180
100
AcDbEntity
  8
P-SANR-FIXT
100
AcDbSpline
210
0.0
220
0.0
230
1.0
 70
    24
 71
     3
 72
     8
 73
     4
 74
     0
 42
0.000000001
 43
0.0000000001
 40
0.5
 40
0.5
 40
0.5
 40
0.5
 40
1.0
 40
1.0
 40
1.0
 40
1.0
 10
872.6400674435621
 20
1800.245878730044
 30
0.0
 10
872.6400674435618
 20
1800.245878730044
 30
0.0
 10
872.2826222368716
 20
1800.245878730044
 30
0.0
 10
871.5677318234916
 20
1800.245878730044
 30
0.0
  0
SPLINE
  5
1C3
330
180
100
AcDbEntity
  8
P-SANR-FIXT
100
AcDbSpline
210
0.0
220
0.0
230
1.0
 70
    24
 71
     3
 72
     9
 73
     5
 74
     0
 42
0.000000001
 43
0.0000000001
 40
0.4961364841797483
 40
0.4961364841797483
 40
0.4961364841797483
 40
0.4961364841797483
 40
0.5
 40
1.0
 40
1.0
 40
1.0
 40
1.0
 10
857.4568127163596
 20
1847.245878730011
 30
0.0
 10
857.4567697949982
 20
1847.245878730011
 30
0.0
 10
857.4539709831073
 20
1847.245878730011
 30
0.0
 10
857.8161814696658
 20
1847.245878730011
 30
0.0
 10
858.5350477406699
 20
1847.245878730011
 30
0.0
  0
SPLINE
  5
1C4
330
180
100
AcDbEntity
  8
P-SANR-FIXT
100
AcDbSpline
210
0.0
220
0.0
230
1.0
 70
    24
 71
     3
 72
     9
 73
     5
 74
     0
 42
0.000000001
 43
0.0000000001
 40
0.0
 40
0.0
 40
0.0
 40
0.0
 40
0.5
 40
0.503878667428941
 40
0.503878667428941
 40
0.503878667428941
 40
0.503878667428941
 10
871.5677318235366
 20
1847.245878730011
 30
0.0
 10
872.2826222369187
 20
1847.245878730011
 30
0.0
 10
872.6428402657724
 20
1847.245878730011
 30
0.0
 10
872.6400459339004
 20
1847.245878730011
 30
0.0
 10
872.6400029144803
 20
1847.245878730011
 30
0.0
  0
SPLINE
  5
1C5
330
180
100
AcDbEntity
  8
P-SANR-FIXT
100
AcDbSpline
210
0.0
220
0.0
230
1.0
 70
     8
 71
     3
 72
    10
 73
     6
 74
     0
 42
0.000000001
 43
0.0000000001
 40
0.0
 40
0.0
 40
0.0
 40
0.0
 40
0.4
 40
0.7
 40
1.0
 40
1.0
 40
1.0
 40
1.0
 10
858.5350477406699
 20
1847.245878730011
 30
0.0
 10
858.7472537609995
 20
1847.245878730011
 30
0.0
 10
858.9773887333446
 20
1846.889688781573
 30
0.0
 10
858.9203725692524
 20
1845.523195695414
 30
0.0
 10
858.6939606554118
 20
1844.370898945492
 30
0.0
 10
858.5350477406739
 20
1843.745878730011
 30
0.0
  0
SPLINE
  5
1C6
330
180
100
AcDbEntity
  8
P-SANR-FIXT
100
AcDbSpline
210
0.0
220
0.0
230
1.0
 70
     8
 71
     3
 72
    10
 73
     6
 74
     0
 42
0.000000001
 43
0.0000000001
 40
0.0
 40
0.0
 40
0.0
 40
0.0
 40
0.4
 40
0.7
 40
1.0
 40
1.0
 40
1.0
 40
1.0
 10
871.5677318235321
 20
1843.745878730011
 30
0.0
 10
871.3569993904769
 20
1844.579359524419
 30
0.0
 10
871.1279966786136
 20
1845.885541881372
 30
0.0
 10
871.1842521876638
 20
1847.019816250642
 30
0.0
 10
871.4094426673117
 20
1847.245878730011
 30
0.0
 10
871.5677318235366
 20
1847.245878730011
 30
0.0
  0
SPLINE
  5
1C7
330
180
100
AcDbEntity
  8
P-SANR-FIXT
100
AcDbSpline
210
0.0
220
0.0
230
1.0
 70
     8
 71
     3
 72
     9
 73
     5
 74
     0
 42
0.000000001
 43
0.0000000001
 40
0.0
 40
0.0
 40
0.0
 40
0.0
 40
0.5
 40
1.0
 40
1.0
 40
1.0
 40
1.0
 10
858.5350477406739
 20
1843.745878730011
 30
0.0
 10
857.8161814697772
 20
1840.955499810243
 30
0.0
 10
857.0973151988832
 20
1835.415120890478
 30
0.0
 10
857.8161814697887
 20
1829.955499810254
 30
0.0
 10
858.5350477406915
 20
1827.245878730028
 30
0.0
  0
SPLINE
  5
1C8
330
180
100
AcDbEntity
  8
P-SANR-FIXT
100
AcDbSpline
210
0.0
220
0.0
230
1.0
 70
     8
 71
     3
 72
     9
 73
     5
 74
     0
 42
0.000000001
 43
0.0000000001
 40
0.0
 40
0.0
 40
0.0
 40
0.0
 40
0.5
 40
1.0
 40
1.0
 40
1.0
 40
1.0
 10
871.5677318235151
 20
1827.245878730028
 30
0.0
 10
872.2826222368988
 20
1829.955341435668
 30
0.0
 10
872.9975126502857
 20
1835.414804141306
 30
0.0
 10
872.2826222369102
 20
1840.955341435657
 30
0.0
 10
871.5677318235321
 20
1843.745878730011
 30
0.0
  0
SPLINE
  5
1C9
330
180
100
AcDbEntity
  8
P-SANR-FIXT
100
AcDbSpline
210
0.0
220
0.0
230
1.0
 70
     8
 71
     3
 72
     9
 73
     5
 74
     0
 42
0.000000001
 43
0.0000000001
 40
0.0
 40
0.0
 40
0.0
 40
0.0
 40
0.5
 40
1.0
 40
1.0
 40
1.0
 40
1.0
 10
858.5350477406915
 20
1827.245878730028
 30
0.0
 10
858.6682081402013
 20
1826.723703878865
 30
0.0
 10
858.8686279005525
 20
1825.593960548336
 30
0.0
 10
858.9372455835679
 20
1824.364653624687
 30
0.0
 10
858.9386039057416
 20
1823.74587873007
 30
0.0
  0
SPLINE
  5
1CA
330
180
100
AcDbEntity
  8
P-SANR-FIXT
100
AcDbSpline
210
0.0
220
0.0
230
1.0
 70
     8
 71
     3
 72
     9
 73
     5
 74
     0
 42
0.000000001
 43
0.0000000001
 40
0.0
 40
0.0
 40
0.0
 40
0.0
 40
0.5
 40
1.0
 40
1.0
 40
1.0
 40
1.0
 10
858.9386039057416
 20
1823.74587873007
 30
0.0
 10
858.9372455835722
 20
1823.127103835438
 30
0.0
 10
858.8686279005621
 20
1821.897796911758
 30
0.0
 10
858.6682081402098
 20
1820.768053581202
 30
0.0
 10
858.5350477406983
 20
1820.245878730028
 30
0.0
  0
SPLINE
  5
1CB
330
180
100
AcDbEntity
  8
P-SANR-FIXT
100
AcDbSpline
210
0.0
220
0.0
230
1.0
 70
     8
 71
     3
 72
     9
 73
     5
 74
     0
 42
0.000000001
 43
0.0000000001
 40
0.0
 40
0.0
 40
0.0
 40
0.0
 40
0.5
 40
1.0
 40
1.0
 40
1.0
 40
1.0
 10
871.5677318235083
 20
1820.245878730028
 30
0.0
 10
871.4352990599783
 20
1820.768122258579
 30
0.0
 10
871.2359788997272
 20
1821.897952616982
 30
0.0
 10
871.1677494730944
 20
1823.127183137242
 30
0.0
 10
871.1664074431826
 20
1823.74587873007
 30
0.0
  0
SPLINE
  5
1CC
330
180
100
AcDbEntity
  8
P-SANR-FIXT
100
AcDbSpline
210
0.0
220
0.0
230
1.0
 70
     8
 71
     3
 72
     9
 73
     5
 74
     0
 42
0.000000001
 43
0.0000000001
 40
0.0
 40
0.0
 40
0.0
 40
0.0
 40
0.5
 40
1.0
 40
1.0
 40
1.0
 40
1.0
 10
871.1664074431826
 20
1823.74587873007
 30
0.0
 10
871.1677494730986
 20
1824.364574322882
 30
0.0
 10
871.2359788997368
 20
1825.593804843112
 30
0.0
 10
871.435299059987
 20
1826.723635201489
 30
0.0
 10
871.5677318235151
 20
1827.245878730028
 30
0.0
  0
SPLINE
  5
1CD
330
180
100
AcDbEntity
  8
P-SANR-FIXT
100
AcDbSpline
210
0.0
220
0.0
230
1.0
 70
     8
 71
     3
 72
     9
 73
     5
 74
     0
 42
0.000000001
 43
0.0000000001
 40
0.0
 40
0.0
 40
0.0
 40
0.0
 40
0.5
 40
1.0
 40
1.0
 40
1.0
 40
1.0
 10
871.5677318234941
 20
1803.745878730044
 30
0.0
 10
872.2826222368764
 20
1806.536416024398
 30
0.0
 10
872.9975126502608
 20
1812.076953318749
 30
0.0
 10
872.2826222368858
 20
1817.536416024387
 30
0.0
 10
871.5677318235083
 20
1820.245878730028
 30
0.0
  0
SPLINE
  5
1CE
330
180
100
AcDbEntity
  8
P-SANR-FIXT
100
AcDbSpline
210
0.0
220
0.0
230
1.0
 70
     8
 71
     3
 72
     9
 73
     5
 74
     0
 42
0.000000001
 43
0.0000000001
 40
0.0
 40
0.0
 40
0.0
 40
0.0
 40
0.5
 40
1.0
 40
1.0
 40
1.0
 40
1.0
 10
858.5350477406983
 20
1820.245878730028
 30
0.0
 10
857.816181469802
 20
1817.5362576498
 30
0.0
 10
857.0973151989081
 20
1812.076636569576
 30
0.0
 10
857.8161814698118
 20
1806.536257649812
 30
0.0
 10
858.5350477407128
 20
1803.745878730044
 30
0.0
  0
LINE
  5
1CF
330
180
100
AcDbEntity
  8
P-SANR-FIXT
100
AcDbLine
 10
729.7073020779745
 20
1840.370878730071
 30
0.0
 11
728.1664074431497
 21
1838.829984095246
 31
0.0
  0
LINE
  5
1D0
330
180
100
AcDbEntity
  8
P-SANR-FIXT
100
AcDbLine
 10
728.1664074431501
 20
1808.661773364893
 30
0.0
 11
729.7073020779747
 21
1807.120878730068
 31
0.0
  0
LINE
  5
1D1
330
180
100
AcDbEntity
  8
P-SANR-FIXT
100
AcDbLine
 10
761.166407443188
 20
1840.370878730071
 30
0.0
 11
729.7073020779745
 21
1840.370878730071
 31
0.0
  0
LINE
  5
1D2
330
180
100
AcDbEntity
  8
P-SANR-FIXT
100
AcDbLine
 10
729.7073020779747
 20
1807.120878730068
 30
0.0
 11
761.1664074431883
 21
1807.120878730068
 31
0.0
  0
LINE
  5
1D3
330
180
100
AcDbEntity
  8
P-SANR-FIXT
100
AcDbLine
 10
728.1664074431488
 20
1823.745878730069
 30
0.0
 11
728.1664074431487
 21
1838.829984095246
 31
0.0
  0
LINE
  5
1D4
330
180
100
AcDbEntity
  8
P-SANR-FIXT
100
AcDbLine
 10
728.1664074431489
 20
1808.661773364892
 30
0.0
 11
728.1664074431488
 21
1823.745878730069
 31
0.0
  0
LINE
  5
1D5
330
180
100
AcDbEntity
  8
P-SANR-FIXT
100
AcDbLine
 10
729.7073020779735
 20
1823.745878730069
 30
0.0
 11
729.7073020779734
 21
1840.370878730071
 31
0.0
  0
LINE
  5
1D6
330
180
100
AcDbEntity
  8
P-SANR-FIXT
100
AcDbLine
 10
729.7073020779737
 20
1807.120878730068
 30
0.0
 11
729.7073020779735
 21
1823.745878730069
 31
0.0
  0
LINE
  5
1D7
330
180
100
AcDbEntity
  8
P-SANR-FIXT
100
AcDbLine
 10
908.1664074432227
 20
1838.829984095247
 30
0.0
 11
906.6255128083978
 21
1840.370878730072
 31
0.0
  0
LINE
  5
1D8
330
180
100
AcDbEntity
  8
P-SANR-FIXT
100
AcDbLine
 10
906.6255128083984
 20
1807.120878730069
 30
0.0
 11
908.1664074432229
 21
1808.661773364894
 31
0.0
  0
LINE
  5
1D9
330
180
100
AcDbEntity
  8
P-SANR-FIXT
100
AcDbLine
 10
906.6255128083978
 20
1840.370878730072
 30
0.0
 11
875.1664074431843
 21
1840.370878730072
 31
0.0
  0
LINE
  5
1DA
330
180
100
AcDbEntity
  8
P-SANR-FIXT
100
AcDbLine
 10
875.1664074431849
 20
1807.120878730069
 30
0.0
 11
906.6255128083984
 21
1807.120878730069
 31
0.0
  0
LINE
  5
1DB
330
180
100
AcDbEntity
  8
P-SANR-FIXT
100
AcDbLine
 10
908.1664074432215
 20
1838.829984095247
 30
0.0
 11
908.1664074432216
 21
1823.74587873007
 31
0.0
  0
LINE
  5
1DC
330
180
100
AcDbEntity
  8
P-SANR-FIXT
100
AcDbLine
 10
908.1664074432216
 20
1823.74587873007
 30
0.0
 11
908.1664074432216
 21
1808.661773364893
 31
0.0
  0
LINE
  5
1DD
330
180
100
AcDbEntity
  8
P-SANR-FIXT
100
AcDbLine
 10
906.6255128083966
 20
1840.370878730071
 30
0.0
 11
906.625512808397
 21
1823.74587873007
 31
0.0
  0
LINE
  5
1DE
330
180
100
AcDbEntity
  8
P-SANR-FIXT
100
AcDbLine
 10
906.625512808397
 20
1823.74587873007
 30
0.0
 11
906.625512808397
 21
1807.120878730069
 31
0.0
  0
LWPOLYLINE
  5
1DF
330
180
100
AcDbEntity
  8
P-SANR-FIXT
100
AcDbPolyline
 90
       80
 70
   128
 43
0.0
 10
845.1664074431864
 20
1823.74587873007
 10
845.1428105896852
 20
1824.925564088576
 10
845.0720577791138
 20
1826.103362202161
 10
844.9542622008756
 20
1827.277388845093
 10
844.7896123027675
 20
1828.44576582519
 10
844.578371489503
 20
1829.606623988524
 10
844.3208777013213
 20
1830.758106209671
 10
844.0175428733542
 20
1831.898370362711
 10
843.6688522766184
 20
1833.025592268246
 10
843.2753637416853
 20
1834.137968611685
 10
842.8377067662715
 20
1835.233719828175
 10
842.3565815081753
 20
1836.311092949517
 10
841.8327576651753
 20
1837.368364408544
 10
841.2670732436771
 20
1838.40384279646
 10
840.6604332180821
 20
1839.415871568736
 10
840.0138080830217
 20
1840.402831695224
 10
839.328232300773
 20
1841.363144250261
 10
838.6048026463386
 20
1842.295272938615
 10
837.8446764528426
 20
1843.197726553229
 10
837.049069760043
 20
1844.069061360831
 10
836.2192553689277
 20
1844.907883411606
 10
835.3565608055049
 20
1845.71285076921
 10
834.4623661970443
 20
1846.482675657589
 10
833.5381020641685
 20
1847.216126521143
 10
832.5852470323237
 20
1847.912029994949
 10
831.6053254662964
 20
1848.569272781903
 10
830.5999050315532
 20
1849.186803433749
 10
829.5705941863117
 20
1849.763634033176
 10
828.5190396083494
 20
1850.298841774277
 10
827.4469235606714
 20
1850.791570438837
 10
826.3559612002481
 20
1851.241031766103
 10
825.2478978341303
 20
1851.646506713831
 10
824.1245061273289
 20
1852.007346608602
 10
822.9875832669312
 20
1852.322974183559
 10
821.8389480869831
 20
1852.592884501912
 10
820.6804381587433
 20
1852.81664576473
 10
819.5139068509615
 20
1852.993900001725
 10
818.3412203648833
 20
1853.124363643931
 10
817.1642547487268
 20
1853.20782797735
 10
815.984892896405
 20
1853.244159476854
 10
814.8050215352983
 20
1853.233300019795
 10
813.6265282078914
 20
1853.175266978986
 10
812.4512982521101
 20
1853.070153194913
 10
811.2812117851808
 20
1852.918126827209
 10
810.1181406958462
 20
1852.71943108563
 10
808.9639456497403
 20
1852.474383840977
 10
807.8204731127213
 20
1852.183377116567
 10
806.6895523969211
 20
1851.846876461082
 10
805.5729927342348
 20
1851.465420203787
 10
804.4725803819357
 20
1851.039618593321
 10
803.3900757650455
 20
1850.570152821427
 10
802.3272106600295
 20
1850.057773933195
 10
801.2856854243226
 20
1849.503301625542
 10
800.2671662761223
 20
1848.90762293588
 10
799.2732826287934
 20
1848.271690823041
 10
798.3056244841535
 20
1847.596522642748
 10
797.3657398888122
 20
1846.88319852006
 10
796.4551324576237
 20
1846.132859621407
 10
795.5752589682254
 20
1845.346706328962
 10
794.7275270305038
 20
1844.52599632029
 10
793.9132928347195
 20
1843.672042556329
 10
793.133858981892
 20
1842.786211180934
 10
792.3904723999152
 20
1841.869919335338
 10
791.6843223487395
 20
1840.924632891031
 10
791.0165385178097
 20
1839.95186410467
 10
790.3881892188024
 20
1838.953169198803
 10
789.8002796765551
 20
1837.930145872235
 10
789.2537504209212
 20
1836.884430744055
 10
788.7494757821237
 20
1835.817696735394
 10
788.2882624920112
 20
1834.731650393109
 10
787.870848393461
 20
1833.628029159669
 10
787.4979012599874
 20
1832.508598593621
 10
787.170017727446
 20
1831.375149545072
 10
786.8877223395444
 20
1830.229495290711
 10
786.6514667086833
 20
1829.07346863295
 10
786.4616287934734
 20
1827.908918967836
 10
786.3185122940824
 20
1826.73770932641
 10
786.2223461663798
 20
1825.561713394252
 10
786.1732842556551
 20
1824.38281251399
 10
786.1664074431866
 20
1823.74587873007
  0
LWPOLYLINE
  5
1E0
330
180
100
AcDbEntity
  8
P-SANR-FIXT
100
AcDbPolyline
 90
       80
 70
   128
 43
0.0
 10
786.1664074431866
 20
1823.74587873007
 10
786.1900042966878
 20
1822.566193371564
 10
786.2607571072592
 20
1821.388395257979
 10
786.3785526854974
 20
1820.214368615047
 10
786.5432025836055
 20
1819.04599163495
 10
786.7544433968699
 20
1817.885133471616
 10
787.0119371850517
 20
1816.733651250469
 10
787.3152720130187
 20
1815.593387097429
 10
787.6639626097547
 20
1814.466165191894
 10
788.0574511446877
 20
1813.353788848455
 10
788.4951081201015
 20
1812.258037631965
 10
788.9762333781976
 20
1811.180664510623
 10
789.5000572211976
 20
1810.123393051596
 10
790.0657416426959
 20
1809.087914663679
 10
790.6723816682909
 20
1808.075885891404
 10
791.319006803351
 20
1807.088925764916
 10
792.0045825856001
 20
1806.128613209879
 10
792.7280122400343
 20
1805.196484521525
 10
793.4881384335303
 20
1804.294030906912
 10
794.2837451263299
 20
1803.422696099309
 10
795.1135595174453
 20
1802.583874048534
 10
795.976254080868
 20
1801.778906690929
 10
796.8704486893287
 20
1801.00908180255
 10
797.7947128222045
 20
1800.275630938997
 10
798.7475678540493
 20
1799.57972746519
 10
799.7274894200767
 20
1798.922484678237
 10
800.7329098548199
 20
1798.304954026392
 10
801.7622207000615
 20
1797.728123426964
 10
802.8137752780239
 20
1797.192915685863
 10
803.8858913257017
 20
1796.700187021303
 10
804.976853686125
 20
1796.250725694037
 10
806.0849170522429
 20
1795.845250746308
 10
807.208308759044
 20
1795.484410851537
 10
808.3452316194419
 20
1795.168783276581
 10
809.4938667993901
 20
1794.898872958228
 10
810.6523767276296
 20
1794.675111695411
 10
811.8189080354115
 20
1794.497857458415
 10
812.9915945214897
 20
1794.367393816209
 10
814.1685601376462
 20
1794.28392948279
 10
815.3479219899681
 20
1794.247597983286
 10
816.5277933510749
 20
1794.258457440346
 10
817.7062866784817
 20
1794.316490481154
 10
818.8815166342632
 20
1794.421604265227
 10
820.0516031011922
 20
1794.573630632931
 10
821.2146741905268
 20
1794.77232637451
 10
822.3688692366332
 20
1795.017373619163
 10
823.5123417736517
 20
1795.308380343573
 10
824.6432624894518
 20
1795.644880999058
 10
825.7598221521384
 20
1796.026337256353
 10
826.8602345044374
 20
1796.452138866819
 10
827.9427391213275
 20
1796.921604638713
 10
829.0056042263438
 20
1797.433983526946
 10
830.0471294620503
 20
1797.988455834598
 10
831.0656486102507
 20
1798.58413452426
 10
832.0595322575799
 20
1799.220066637099
 10
833.0271904022195
 20
1799.895234817392
 10
833.9670749975608
 20
1800.60855894008
 10
834.8776824287494
 20
1801.358897838733
 10
835.7575559181478
 20
1802.145051131178
 10
836.6052878558692
 20
1802.96576113985
 10
837.4195220516535
 20
1803.819714903811
 10
838.1989559044811
 20
1804.705546279206
 10
838.9423424864579
 20
1805.621838124802
 10
839.6484925376336
 20
1806.56712456911
 10
840.3162763685632
 20
1807.53989335547
 10
840.9446256675707
 20
1808.538588261337
 10
841.5325352098179
 20
1809.561611587905
 10
842.0790644654516
 20
1810.607326716085
 10
842.5833391042495
 20
1811.674060724746
 10
843.0445523943621
 20
1812.760107067031
 10
843.4619664929121
 20
1813.863728300471
 10
843.8349136263855
 20
1814.983158866519
 10
844.1627971589269
 20
1816.116607915067
 10
844.4450925468286
 20
1817.262262169429
 10
844.6813481776898
 20
1818.41828882719
 10
844.8711860928996
 20
1819.582838492304
 10
845.0143025922907
 20
1820.75404813373
 10
845.1104687199933
 20
1821.930044065888
 10
845.1595306307179
 20
1823.108944946151
 10
845.1664074431864
 20
1823.74587873007
  0
ARC
  5
1E1
330
180
100
AcDbEntity
  8
P-SANR-FIXT
100
AcDbCircle
 10
815.6664074431848
 20
1823.74587873007
 30
0.0
 40
19.99999999999883
100
AcDbArc
 50
180.0000000000016
 51
185.8531520033863
  0
ARC
  5
1E2
330
180
100
AcDbEntity
  8
P-SANR-FIXT
100
AcDbCircle
 10
815.6664074431848
 20
1823.74587873007
 30
0.0
 40
19.99999999999875
100
AcDbArc
 50
174.1468479966131
 51
180.0000000000023
  0
SPLINE
  5
1E3
330
180
100
AcDbEntity
  8
P-SANR-FIXT
100
AcDbSpline
210
0.0
220
0.0
230
1.0
 70
    24
 71
     3
 72
     9
 73
     5
 74
     0
 42
0.000000001
 43
0.0000000001
 40
0.0
 40
0.0
 40
0.0
 40
0.0
 40
0.5
 40
1.0
 40
1.0
 40
1.0
 40
1.0
 10
803.9522108671391
 20
1807.535462369665
 30
0.0
 10
802.611065734378
 20
1809.858393879931
 30
0.0
 10
799.9063315872819
 20
1814.543130843668
 30
0.0
 10
797.1567096770371
 20
1819.305615693816
 30
0.0
 10
795.7706767811276
 20
1821.706295090493
 30
0.0
  0
ARC
  5
1E4
330
180
100
AcDbEntity
  8
P-SANR-FIXT
100
AcDbCircle
 10
815.6664074431848
 20
1823.74587873007
 30
0.0
 40
19.9999999999989
100
AcDbArc
 50
234.1468479966117
 51
245.8531520033856
  0
SPLINE
  5
1E5
330
180
100
AcDbEntity
  8
P-SANR-FIXT
100
AcDbSpline
210
0.0
220
0.0
230
1.0
 70
    24
 71
     3
 72
     9
 73
     5
 74
     0
 42
0.000000001
 43
0.0000000001
 40
0.0
 40
0.0
 40
0.0
 40
0.0
 40
0.5
 40
1.0
 40
1.0
 40
1.0
 40
1.0
 10
823.8479415291962
 20
1805.495878730087
 30
0.0
 10
821.1656512636743
 20
1805.495878730087
 30
0.0
 10
815.7561829694818
 20
1805.495878730087
 30
0.0
 10
810.2569391489922
 20
1805.495878730087
 30
0.0
 10
807.4848733571734
 20
1805.495878730087
 30
0.0
  0
ARC
  5
1E6
330
180
100
AcDbEntity
  8
P-SANR-FIXT
100
AcDbCircle
 10
815.6664074431848
 20
1823.74587873007
 30
0.0
 40
19.99999999999895
100
AcDbArc
 50
294.1468479966117
 51
305.8531520033857
  0
SPLINE
  5
1E7
330
180
100
AcDbEntity
  8
P-SANR-FIXT
100
AcDbSpline
210
0.0
220
0.0
230
1.0
 70
    24
 71
     3
 72
     9
 73
     5
 74
     0
 42
0.000000001
 43
0.0000000001
 40
0.0
 40
0.0
 40
0.0
 40
0.0
 40
0.5
 40
1.0
 40
1.0
 40
1.0
 40
1.0
 10
835.5621381052419
 20
1821.706295090493
 30
0.0
 10
834.2209929724811
 20
1819.383363580227
 30
0.0
 10
831.5162588253848
 20
1814.69862661649
 30
0.0
 10
828.7666369151398
 20
1809.936141766342
 30
0.0
 10
827.3806040192305
 20
1807.535462369664
 30
0.0
  0
ARC
  5
1E8
330
180
100
AcDbEntity
  8
P-SANR-FIXT
100
AcDbCircle
 10
815.6664074431848
 20
1823.74587873007
 30
0.0
 40
19.99999999999884
100
AcDbArc
 50
359.999999999997
 51
5.853152003385974
  0
ARC
  5
1E9
330
180
100
AcDbEntity
  8
P-SANR-FIXT
100
AcDbCircle
 10
815.6664074431848
 20
1823.74587873007
 30
0.0
 40
19.99999999999884
100
AcDbArc
 50
354.1468479966119
 51
359.9999999999965
  0
SPLINE
  5
1EA
330
180
100
AcDbEntity
  8
P-SANR-FIXT
100
AcDbSpline
210
0.0
220
0.0
230
1.0
 70
    24
 71
     3
 72
     9
 73
     5
 74
     0
 42
0.000000001
 43
0.0000000001
 40
0.0
 40
0.0
 40
0.0
 40
0.0
 40
0.5
 40
1.0
 40
1.0
 40
1.0
 40
1.0
 10
827.3806040192305
 20
1839.956295090476
 30
0.0
 10
828.7217491519916
 20
1837.63336358021
 30
0.0
 10
831.4264832990879
 20
1832.948626616473
 30
0.0
 10
834.1761052093326
 20
1828.186141766325
 30
0.0
 10
835.562138105242
 20
1825.785462369647
 30
0.0
  0
ARC
  5
1EB
330
180
100
AcDbEntity
  8
P-SANR-FIXT
100
AcDbCircle
 10
815.6664074431848
 20
1823.74587873007
 30
0.0
 40
19.99999999999886
100
AcDbArc
 50
54.14684799661309
 51
65.85315200338701
  0
SPLINE
  5
1EC
330
180
100
AcDbEntity
  8
P-SANR-FIXT
100
AcDbSpline
210
0.0
220
0.0
230
1.0
 70
    24
 71
     3
 72
     9
 73
     5
 74
     0
 42
0.000000001
 43
0.0000000001
 40
0.0
 40
0.0
 40
0.0
 40
0.0
 40
0.5
 40
1.0
 40
1.0
 40
1.0
 40
1.0
 10
807.4848733571734
 20
1841.995878730054
 30
0.0
 10
810.1671636226953
 20
1841.995878730054
 30
0.0
 10
815.5766319168877
 20
1841.995878730054
 30
0.0
 10
821.0758757373774
 20
1841.995878730054
 30
0.0
 10
823.8479415291966
 20
1841.995878730054
 30
0.0
  0
ARC
  5
1ED
330
180
100
AcDbEntity
  8
P-SANR-FIXT
100
AcDbCircle
 10
815.6664074431848
 20
1823.74587873007
 30
0.0
 40
19.99999999999896
100
AcDbArc
 50
114.1468479966135
 51
125.8531520033873
  0
SPLINE
  5
1EE
330
180
100
AcDbEntity
  8
P-SANR-FIXT
100
AcDbSpline
210
0.0
220
0.0
230
1.0
 70
    24
 71
     3
 72
     9
 73
     5
 74
     0
 42
0.000000001
 43
0.0000000001
 40
0.0
 40
0.0
 40
0.0
 40
0.0
 40
0.5
 40
1.0
 40
1.0
 40
1.0
 40
1.0
 10
795.7706767811276
 20
1825.785462369648
 30
0.0
 10
797.1567096770372
 20
1828.186141766325
 30
0.0
 10
799.9063315872819
 20
1832.948626616473
 30
0.0
 10
802.6110657343783
 20
1837.633363580211
 30
0.0
 10
803.9522108671391
 20
1839.956295090476
 30
0.0
  0
ARC
  5
1EF
330
180
100
AcDbEntity
  8
P-SANR-FIXT
100
AcDbCircle
 10
815.6664074431851
 20
1823.745878730069
 30
0.0
 40
17.9999999999995
100
AcDbArc
 50
174.3721186371942
 51
175.0
  0
ARC
  5
1F0
330
180
100
AcDbEntity
  8
P-SANR-FIXT
100
AcDbCircle
 10
815.6664074431851
 20
1823.745878730069
 30
0.0
 40
17.9999999999996
100
AcDbArc
 50
168.7412277815879
 51
169.9999999999997
  0
ARC
  5
1F1
330
180
100
AcDbEntity
  8
P-SANR-FIXT
100
AcDbCircle
 10
815.6664074431851
 20
1823.745878730069
 30
0.0
 40
17.99999999999955
100
AcDbArc
 50
149.9999999999988
 51
164.9999999999997
  0
ARC
  5
1F2
330
180
100
AcDbEntity
  8
P-SANR-FIXT
100
AcDbCircle
 10
815.6664074431851
 20
1823.745878730069
 30
0.0
 40
17.99999999999955
100
AcDbArc
 50
144.9999999999992
 51
146.2236392671651
  0
ARC
  5
1F3
330
180
100
AcDbEntity
  8
P-SANR-FIXT
100
AcDbCircle
 10
815.6664074431851
 20
1823.745878730069
 30
0.0
 40
17.9999999999995
100
AcDbArc
 50
139.9999999999986
 51
140.6064284940094
  0
ARC
  5
1F4
330
180
100
AcDbEntity
  8
P-SANR-FIXT
100
AcDbCircle
 10
815.6664074431851
 20
1823.745878730069
 30
0.0
 40
17.9999999999996
100
AcDbArc
 50
129.3935715059901
 51
129.9999999999983
  0
ARC
  5
1F5
330
180
100
AcDbEntity
  8
P-SANR-FIXT
100
AcDbCircle
 10
815.6664074431851
 20
1823.745878730069
 30
0.0
 40
17.99999999999956
100
AcDbArc
 50
123.7763607328342
 51
124.9999999999985
  0
ARC
  5
1F6
330
180
100
AcDbEntity
  8
P-SANR-FIXT
100
AcDbCircle
 10
815.6664074431851
 20
1823.745878730069
 30
0.0
 40
17.99999999999967
100
AcDbArc
 50
104.9999999999989
 51
119.9999999999987
  0
ARC
  5
1F7
330
180
100
AcDbEntity
  8
P-SANR-FIXT
100
AcDbCircle
 10
815.6664074431851
 20
1823.745878730069
 30
0.0
 40
17.99999999999959
100
AcDbArc
 50
99.99999999999861
 51
101.2587722184122
  0
ARC
  5
1F8
330
180
100
AcDbEntity
  8
P-SANR-FIXT
100
AcDbCircle
 10
815.6664074431851
 20
1823.745878730069
 30
0.0
 40
17.99999999999964
100
AcDbArc
 50
94.99999999999884
 51
95.62788136280609
  0
ARC
  5
1F9
330
180
100
AcDbEntity
  8
P-SANR-FIXT
100
AcDbCircle
 10
815.6664074431851
 20
1823.745878730069
 30
0.0
 40
17.99999999999965
100
AcDbArc
 50
84.37211863719465
 51
84.99999999999864
  0
ARC
  5
1FA
330
180
100
AcDbEntity
  8
P-SANR-FIXT
100
AcDbCircle
 10
815.6664074431851
 20
1823.745878730069
 30
0.0
 40
17.99999999999957
100
AcDbArc
 50
78.74122778158796
 51
79.99999999999864
  0
ARC
  5
1FB
330
180
100
AcDbEntity
  8
P-SANR-FIXT
100
AcDbCircle
 10
815.6664074431851
 20
1823.745878730069
 30
0.0
 40
17.99999999999953
100
AcDbArc
 50
59.99999999999853
 51
74.99999999999875
  0
ARC
  5
1FC
330
180
100
AcDbEntity
  8
P-SANR-FIXT
100
AcDbCircle
 10
815.6664074431851
 20
1823.745878730069
 30
0.0
 40
17.99999999999958
100
AcDbArc
 50
54.99999999999801
 51
56.22363926716555
  0
ARC
  5
1FD
330
180
100
AcDbEntity
  8
P-SANR-FIXT
100
AcDbCircle
 10
815.6664074431851
 20
1823.745878730069
 30
0.0
 40
17.9999999999996
100
AcDbArc
 50
49.99999999999872
 51
50.60642849400984
  0
ARC
  5
1FE
330
180
100
AcDbEntity
  8
P-SANR-FIXT
100
AcDbCircle
 10
815.6664074431851
 20
1823.745878730069
 30
0.0
 40
17.9999999999996
100
AcDbArc
 50
39.39357150599079
 51
39.99999999999802
  0
ARC
  5
1FF
330
180
100
AcDbEntity
  8
P-SANR-FIXT
100
AcDbCircle
 10
815.6664074431851
 20
1823.745878730069
 30
0.0
 40
17.99999999999963
100
AcDbArc
 50
33.77636073283527
 51
34.9999999999984
  0
ARC
  5
200
330
180
100
AcDbEntity
  8
P-SANR-FIXT
100
AcDbCircle
 10
815.6664074431851
 20
1823.745878730069
 30
0.0
 40
17.99999999999969
100
AcDbArc
 50
14.99999999999931
 51
29.99999999999913
  0
ARC
  5
201
330
180
100
AcDbEntity
  8
P-SANR-FIXT
100
AcDbCircle
 10
815.6664074431851
 20
1823.745878730069
 30
0.0
 40
17.99999999999968
100
AcDbArc
 50
9.999999999999543
 51
11.25877221841263
  0
ARC
  5
202
330
180
100
AcDbEntity
  8
P-SANR-FIXT
100
AcDbCircle
 10
815.6664074431851
 20
1823.745878730069
 30
0.0
 40
17.99999999999967
100
AcDbArc
 50
4.99999999999988
 51
5.627881362805712
  0
ARC
  5
203
330
180
100
AcDbEntity
  8
P-SANR-FIXT
100
AcDbCircle
 10
815.6664074431851
 20
1823.745878730069
 30
0.0
 40
17.9999999999996
100
AcDbArc
 50
354.3721186371939
 51
354.9999999999998
  0
ARC
  5
204
330
180
100
AcDbEntity
  8
P-SANR-FIXT
100
AcDbCircle
 10
815.6664074431851
 20
1823.745878730069
 30
0.0
 40
17.99999999999958
100
AcDbArc
 50
348.7412277815878
 51
349.9999999999994
  0
ARC
  5
205
330
180
100
AcDbEntity
  8
P-SANR-FIXT
100
AcDbCircle
 10
815.6664074431851
 20
1823.745878730069
 30
0.0
 40
17.9999999999996
100
AcDbArc
 50
329.9999999999994
 51
344.9999999999991
  0
ARC
  5
206
330
180
100
AcDbEntity
  8
P-SANR-FIXT
100
AcDbCircle
 10
815.6664074431851
 20
1823.745878730069
 30
0.0
 40
17.99999999999945
100
AcDbArc
 50
325.0000000000002
 51
326.2236392671651
  0
ARC
  5
207
330
180
100
AcDbEntity
  8
P-SANR-FIXT
100
AcDbCircle
 10
815.6664074431851
 20
1823.745878730069
 30
0.0
 40
17.99999999999969
100
AcDbArc
 50
319.9999999999992
 51
320.6064284940095
  0
ARC
  5
208
330
180
100
AcDbEntity
  8
P-SANR-FIXT
100
AcDbCircle
 10
815.6664074431851
 20
1823.745878730069
 30
0.0
 40
17.99999999999964
100
AcDbArc
 50
309.3935715059911
 51
309.9999999999994
  0
ARC
  5
209
330
180
100
AcDbEntity
  8
P-SANR-FIXT
100
AcDbCircle
 10
815.6664074431851
 20
1823.745878730069
 30
0.0
 40
17.99999999999957
100
AcDbArc
 50
303.7763607328358
 51
304.9999999999993
  0
ARC
  5
20A
330
180
100
AcDbEntity
  8
P-SANR-FIXT
100
AcDbCircle
 10
815.6664074431851
 20
1823.745878730069
 30
0.0
 40
17.99999999999965
100
AcDbArc
 50
285.0
 51
300.0
  0
ARC
  5
20B
330
180
100
AcDbEntity
  8
P-SANR-FIXT
100
AcDbCircle
 10
815.6664074431851
 20
1823.745878730069
 30
0.0
 40
17.99999999999952
100
AcDbArc
 50
279.9999999999999
 51
281.2587722184126
  0
ARC
  5
20C
330
180
100
AcDbEntity
  8
P-SANR-FIXT
100
AcDbCircle
 10
815.6664074431851
 20
1823.745878730069
 30
0.0
 40
17.99999999999955
100
AcDbArc
 50
275.0
 51
275.6278813628065
  0
ARC
  5
20D
330
180
100
AcDbEntity
  8
P-SANR-FIXT
100
AcDbCircle
 10
815.6664074431851
 20
1823.745878730069
 30
0.0
 40
17.9999999999995
100
AcDbArc
 50
264.3721186371946
 51
264.9999999999997
  0
ARC
  5
20E
330
180
100
AcDbEntity
  8
P-SANR-FIXT
100
AcDbCircle
 10
815.6664074431851
 20
1823.745878730069
 30
0.0
 40
17.9999999999996
100
AcDbArc
 50
258.7412277815878
 51
259.9999999999998
  0
ARC
  5
20F
330
180
100
AcDbEntity
  8
P-SANR-FIXT
100
AcDbCircle
 10
815.6664074431851
 20
1823.745878730069
 30
0.0
 40
17.99999999999952
100
AcDbArc
 50
240.0
 51
254.9999999999998
  0
ARC
  5
210
330
180
100
AcDbEntity
  8
P-SANR-FIXT
100
AcDbCircle
 10
815.6664074431851
 20
1823.745878730069
 30
0.0
 40
17.99999999999952
100
AcDbArc
 50
234.9999999999994
 51
236.2236392671656
  0
ARC
  5
211
330
180
100
AcDbEntity
  8
P-SANR-FIXT
100
AcDbCircle
 10
815.6664074431851
 20
1823.745878730069
 30
0.0
 40
17.99999999999951
100
AcDbArc
 50
229.9999999999999
 51
230.6064284940095
  0
ARC
  5
212
330
180
100
AcDbEntity
  8
P-SANR-FIXT
100
AcDbCircle
 10
815.6664074431851
 20
1823.745878730069
 30
0.0
 40
17.99999999999957
100
AcDbArc
 50
219.393571505991
 51
219.9999999999993
  0
ARC
  5
213
330
180
100
AcDbEntity
  8
P-SANR-FIXT
100
AcDbCircle
 10
815.6664074431851
 20
1823.745878730069
 30
0.0
 40
17.99999999999957
100
AcDbArc
 50
213.776360732835
 51
214.9999999999997
  0
ARC
  5
214
330
180
100
AcDbEntity
  8
P-SANR-FIXT
100
AcDbCircle
 10
815.6664074431851
 20
1823.745878730069
 30
0.0
 40
17.9999999999997
100
AcDbArc
 50
195.0000000000011
 51
210.0000000000002
  0
ARC
  5
215
330
180
100
AcDbEntity
  8
P-SANR-FIXT
100
AcDbCircle
 10
815.6664074431851
 20
1823.745878730069
 30
0.0
 40
17.9999999999995
100
AcDbArc
 50
190.0000000000007
 51
191.2587722184116
  0
ARC
  5
216
330
180
100
AcDbEntity
  8
P-SANR-FIXT
100
AcDbCircle
 10
815.6664074431851
 20
1823.745878730069
 30
0.0
 40
17.99999999999953
100
AcDbArc
 50
185.0000000000017
 51
185.6278813628061
  0
ARC
  5
217
330
180
100
AcDbEntity
  8
P-SANR-FIXT
100
AcDbCircle
 10
815.6664074431851
 20
1823.745878730069
 30
0.0
 40
19.99999999999938
100
AcDbArc
 50
125.8531520033855
 51
174.1468479966095
  0
ARC
  5
218
330
180
100
AcDbEntity
  8
P-SANR-FIXT
100
AcDbCircle
 10
815.6664074431851
 20
1823.745878730069
 30
0.0
 40
19.99999999999975
100
AcDbArc
 50
65.85315200338851
 51
114.1468479966123
  0
ARC
  5
219
330
180
100
AcDbEntity
  8
P-SANR-FIXT
100
AcDbCircle
 10
815.6664074431851
 20
1823.745878730069
 30
0.0
 40
19.99999999999949
100
AcDbArc
 50
5.853152003388365
 51
54.14684799661523
  0
ARC
  5
21A
330
180
100
AcDbEntity
  8
P-SANR-FIXT
100
AcDbCircle
 10
815.6664074431851
 20
1823.745878730069
 30
0.0
 40
19.99999999999862
100
AcDbArc
 50
305.8531520033868
 51
354.1468479966149
  0
ARC
  5
21B
330
180
100
AcDbEntity
  8
P-SANR-FIXT
100
AcDbCircle
 10
815.6664074431851
 20
1823.745878730069
 30
0.0
 40
19.99999999999786
100
AcDbArc
 50
245.8531520033842
 51
294.146847996613
  0
ARC
  5
21C
330
180
100
AcDbEntity
  8
P-SANR-FIXT
100
AcDbCircle
 10
815.6664074431851
 20
1823.745878730069
 30
0.0
 40
19.99999999999839
100
AcDbArc
 50
185.8531520033837
 51
234.1468479966102
  0
ARC
  5
21D
330
180
100
AcDbEntity
  8
P-SANR-FIXT
100
AcDbCircle
 10
815.6664074431851
 20
1823.74587873007
 30
0.0
 40
17.99999999999954
100
AcDbArc
 50
0.0
 51
180.0
  0
ARC
  5
21E
330
180
100
AcDbEntity
  8
P-SANR-FIXT
100
AcDbCircle
 10
815.6664074431851
 20
1823.74587873007
 30
0.0
 40
17.99999999999953
100
AcDbArc
 50
180.0000000000001
 51
0.0000000000002036
  0
ARC
  5
21F
330
180
100
AcDbEntity
  8
P-SANR-FIXT
100
AcDbCircle
 10
815.6664074431851
 20
1823.74587873007
 30
0.0
 40
17.74999999999975
100
AcDbArc
 50
0.0000000000001781
 51
180.0000000000002
  0
ARC
  5
220
330
180
100
AcDbEntity
  8
P-SANR-FIXT
100
AcDbCircle
 10
815.6664074431851
 20
1823.74587873007
 30
0.0
 40
17.74999999999965
100
AcDbArc
 50
180.0000000000006
 51
0.0000000000005598
  0
ARC
  5
221
330
180
100
AcDbEntity
  8
P-SANR-FIXT
100
AcDbCircle
 10
815.6664074431851
 20
1823.74587873007
 30
0.0
 40
17.18032935398844
100
AcDbArc
 50
0.0
 51
180.0
  0
ARC
  5
222
330
180
100
AcDbEntity
  8
P-SANR-FIXT
100
AcDbCircle
 10
815.6664074431851
 20
1823.74587873007
 30
0.0
 40
17.1803293539883
100
AcDbArc
 50
180.0000000000002
 51
0.0000000000002036
  0
LINE
  5
223
330
180
100
AcDbEntity
  8
P-SANR-FIXT
100
AcDbLine
 10
857.1664074431852
 20
1844.94587873007
 30
0.0
 11
856.1664074431865
 21
1844.94587873007
 31
0.0
  0
LINE
  5
224
330
180
100
AcDbEntity
  8
P-SANR-FIXT
100
AcDbLine
 10
856.1664074431865
 20
1802.54587873007
 30
0.0
 11
857.1664074431854
 21
1802.54587873007
 31
0.0
  0
LINE
  5
225
330
180
100
AcDbEntity
  8
P-SANR-FIXT
100
AcDbLine
 10
856.1664074431865
 20
1844.94587873007
 30
0.0
 11
856.132823644012
 21
1844.887709883589
 31
0.0
  0
LINE
  5
226
330
180
100
AcDbEntity
  8
P-SANR-FIXT
100
AcDbLine
 10
856.1286761453677
 20
1844.880526205213
 30
0.0
 11
855.6179246874561
 21
1843.99587873007
 31
0.0
  0
LINE
  5
227
330
180
100
AcDbEntity
  8
P-SANR-FIXT
100
AcDbLine
 10
855.6179246874563
 20
1803.49587873007
 30
0.0
 11
856.1286761453679
 21
1802.611231254928
 31
0.0
  0
LINE
  5
228
330
180
100
AcDbEntity
  8
P-SANR-FIXT
100
AcDbLine
 10
856.1328236440125
 20
1802.604047576551
 30
0.0
 11
856.1664074431865
 21
1802.54587873007
 31
0.0
  0
LINE
  5
229
330
180
100
AcDbEntity
  8
P-SANR-FIXT
100
AcDbLine
 10
853.8858738798873
 20
1842.99587873007
 30
0.0
 11
847.6664074431864
 21
1842.99587873007
 31
0.0
  0
LINE
  5
22A
330
180
100
AcDbEntity
  8
P-SANR-FIXT
100
AcDbLine
 10
792.6850741496171
 20
1842.99587873007
 30
0.0
 11
782.4469410064854
 21
1842.99587873007
 31
0.0
  0
LINE
  5
22B
330
180
100
AcDbEntity
  8
P-SANR-FIXT
100
AcDbLine
 10
782.4469410064855
 20
1804.49587873007
 30
0.0
 11
792.6850741496171
 21
1804.49587873007
 31
0.0
  0
LINE
  5
22C
330
180
100
AcDbEntity
  8
P-SANR-FIXT
100
AcDbLine
 10
847.6664074431866
 20
1804.49587873007
 30
0.0
 11
853.8858738798875
 21
1804.49587873007
 31
0.0
  0
LINE
  5
22D
330
180
100
AcDbEntity
  8
P-SANR-FIXT
100
AcDbLine
 10
780.7148901989165
 20
1843.99587873007
 30
0.0
 11
780.204138741005
 21
1844.880526205212
 31
0.0
  0
LINE
  5
22E
330
180
100
AcDbEntity
  8
P-SANR-FIXT
100
AcDbLine
 10
780.1999912423606
 20
1844.887709883589
 30
0.0
 11
780.1664074431863
 21
1844.94587873007
 31
0.0
  0
LINE
  5
22F
330
180
100
AcDbEntity
  8
P-SANR-FIXT
100
AcDbLine
 10
780.1664074431867
 20
1802.54587873007
 30
0.0
 11
780.199991242361
 21
1802.604047576551
 31
0.0
  0
LINE
  5
230
330
180
100
AcDbEntity
  8
P-SANR-FIXT
100
AcDbLine
 10
780.2041387410054
 20
1802.611231254927
 30
0.0
 11
780.7148901989166
 21
1803.49587873007
 31
0.0
  0
LINE
  5
231
330
180
100
AcDbEntity
  8
P-SANR-FIXT
100
AcDbLine
 10
780.1664074431863
 20
1844.94587873007
 30
0.0
 11
779.1664074431879
 21
1844.94587873007
 31
0.0
  0
LINE
  5
232
330
180
100
AcDbEntity
  8
P-SANR-FIXT
100
AcDbLine
 10
779.1664074431884
 20
1802.545878730069
 30
0.0
 11
780.1664074431867
 21
1802.545878730069
 31
0.0
  0
LWPOLYLINE
  5
233
330
180
100
AcDbEntity
  8
P-SANR-FIXT
100
AcDbPolyline
 90
       28
 70
   128
 43
0.0
 10
780.7148901989165
 20
1843.99587873007
 10
780.7562649890069
 20
1843.927415064837
 10
780.8003445000671
 20
1843.860660713541
 10
780.8470582142823
 20
1843.795722468905
 10
780.8963313996748
 20
1843.732704218268
 10
780.9480852296592
 20
1843.671706777386
 10
781.0022369091478
 20
1843.612827729153
 10
781.058699807005
 20
1843.556161267487
 10
781.1173835946389
 20
1843.501798046638
 10
781.1781943905079
 20
1843.449825036162
 10
781.2410349103112
 20
1843.400325381789
 10
781.305804622622
 20
1843.353378272407
 10
781.3723999097176
 20
1843.309058813375
 10
781.4407142333448
 20
1843.267437906375
 10
781.5106383051586
 20
1843.228582135978
 10
781.5820602615607
 20
1843.192553663129
 10
781.6548658426565
 20
1843.159410125697
 10
781.7289385750479
 20
1843.129204546274
 10
781.8041599581635
 20
1843.101985247342
 10
781.8804096538372
 20
1843.077795773974
 10
781.9575656788214
 20
1843.056674824165
 10
782.0355045999356
 20
1843.038656186933
 10
782.1141017315318
 20
1843.023768688249
 10
782.1932313349659
 20
1843.012036144939
 10
782.2727668197526
 20
1843.003477326568
 10
782.3525809460832
 20
1842.998105925419
 10
782.432546028381
 20
1842.995930534589
 10
782.4469410064854
 20
1842.99587873007
  0
LWPOLYLINE
  5
234
330
180
100
AcDbEntity
  8
P-SANR-FIXT
100
AcDbPolyline
 90
       28
 70
   128
 43
0.0
 10
782.4469410064855
 20
1804.49587873007
 10
782.3669623381122
 20
1804.494278943392
 10
782.2871116185472
 20
1804.489482142675
 10
782.2075165919078
 20
1804.481496001777
 10
782.1283045932572
 20
1804.470333296821
 10
782.0496023448954
 20
1804.456011885752
 10
781.9715357536312
 20
1804.438554679774
 10
781.8942297093573
 20
1804.417989606691
 10
781.8178078852533
 20
1804.394349566235
 10
781.7423925399354
 20
1804.367672377425
 10
781.6681043218683
 20
1804.338000718075
 10
781.5950620763535
 20
1804.305382056509
 10
781.5233826554027
 20
1804.269868575628
 10
781.4531807307981
 20
1804.231517089425
 10
781.3845686106438
 20
1804.190388952097
 10
781.3176560596955
 20
1804.146549959889
 10
781.2525501237607
 20
1804.100070245838
 10
781.1893549584486
 20
1804.051024167572
 10
781.1281716625426
 20
1803.999490188351
 10
781.0690981162645
 20
1803.945550751551
 10
781.0122288246865
 20
1803.889292148764
 10
780.9576547665439
 20
1803.830804381752
 10
780.9054632486876
 20
1803.770181018467
 10
780.8557377664127
 20
1803.707519043356
 10
780.8085578698836
 20
1803.642918702214
 10
780.7639990368699
 20
1803.576483341806
 10
780.7221325519989
 20
1803.508319244535
 10
780.7148901989166
 20
1803.49587873007
  0
LINE
  5
235
330
180
100
AcDbEntity
  8
P-SANR-FIXT
100
AcDbLine
 10
829.6664074431863
 20
1858.245878730026
 30
0.0
 11
829.6664074431863
 21
1850.247207894155
 31
0.0
  0
LINE
  5
236
330
180
100
AcDbEntity
  8
P-SANR-FIXT
100
AcDbLine
 10
829.6664074431866
 20
1797.244549565985
 30
0.0
 11
829.6664074431866
 21
1789.245878730059
 31
0.0
  0
LINE
  5
237
330
180
100
AcDbEntity
  8
P-SANR-FIXT
100
AcDbLine
 10
847.6664074431866
 20
1789.245878730059
 30
0.0
 11
847.6664074431866
 21
1804.49587873007
 31
0.0
  0
LINE
  5
238
330
180
100
AcDbEntity
  8
P-SANR-FIXT
100
AcDbLine
 10
847.6664074431864
 20
1842.99587873007
 30
0.0
 11
847.6664074431862
 21
1858.245878730027
 31
0.0
  0
LWPOLYLINE
  5
239
330
180
100
AcDbEntity
  8
P-SANR-FIXT
100
AcDbPolyline
 90
       28
 70
   128
 43
0.0
 10
853.8858738798873
 20
1842.99587873007
 10
853.9658525482606
 20
1842.997478516748
 10
854.0457032678258
 20
1843.002275317465
 10
854.1252982944653
 20
1843.010261458362
 10
854.204510293116
 20
1843.021424163319
 10
854.2832125414774
 20
1843.035745574388
 10
854.3612791327419
 20
1843.053202780366
 10
854.4385851770156
 20
1843.073767853448
 10
854.5150070011196
 20
1843.097407893905
 10
854.5904223464376
 20
1843.124085082714
 10
854.6647105645048
 20
1843.153756742064
 10
854.7377528100193
 20
1843.18637540363
 10
854.8094322309703
 20
1843.221888884512
 10
854.879634155575
 20
1843.260240370715
 10
854.9482462757291
 20
1843.301368508043
 10
855.0151588266773
 20
1843.345207500251
 10
855.0802647626122
 20
1843.391687214301
 10
855.1434599279243
 20
1843.440733292568
 10
855.2046432238302
 20
1843.492267271788
 10
855.2637167701085
 20
1843.546206708588
 10
855.3205860616865
 20
1843.602465311376
 10
855.3751601198291
 20
1843.660953078387
 10
855.4273516376852
 20
1843.721576441673
 10
855.4770771199601
 20
1843.784238416783
 10
855.5242570164894
 20
1843.848838757925
 10
855.5688158495032
 20
1843.915274118334
 10
855.6106823343739
 20
1843.983438215605
 10
855.6179246874561
 20
1843.99587873007
  0
LWPOLYLINE
  5
23A
330
180
100
AcDbEntity
  8
P-SANR-FIXT
100
AcDbPolyline
 90
       28
 70
   128
 43
0.0
 10
855.6179246874565
 20
1803.49587873007
 10
855.5765498973661
 20
1803.564342395304
 10
855.532470386306
 20
1803.631096746599
 10
855.4857566720908
 20
1803.696034991235
 10
855.4364834866984
 20
1803.759053241873
 10
855.3847296567138
 20
1803.820050682755
 10
855.3305779772253
 20
1803.878929730987
 10
855.274115079368
 20
1803.935596192653
 10
855.2154312917343
 20
1803.989959413502
 10
855.1546204958649
 20
1804.041932423978
 10
855.0917799760618
 20
1804.091432078351
 10
855.027010263751
 20
1804.138379187733
 10
854.9604149766555
 20
1804.182698646765
 10
854.8921006530283
 20
1804.224319553765
 10
854.8221765812142
 20
1804.263175324162
 10
854.7507546248121
 20
1804.299203797012
 10
854.6779490437161
 20
1804.332347334443
 10
854.6038763113251
 20
1804.362552913866
 10
854.5286549282096
 20
1804.389772212798
 10
854.4524052325359
 20
1804.413961686167
 10
854.3752492075515
 20
1804.435082635975
 10
854.2973102864372
 20
1804.453101273208
 10
854.2187131548413
 20
1804.467988771891
 10
854.1395835514071
 20
1804.479721315201
 10
854.0600480666201
 20
1804.488280133572
 10
853.98023394029
 20
1804.493651534721
 10
853.900268857992
 20
1804.495826925551
 10
853.8858738798875
 20
1804.495878730071
  0
SPLINE
  5
23B
330
180
100
AcDbEntity
  8
P-SANR-FIXT
100
AcDbSpline
210
0.0
220
0.0
230
1.0
 70
     8
 71
     3
 72
     8
 73
     4
 74
     0
 42
0.000000001
 43
0.0000000001
 40
0.0833333333333333
 40
0.0833333333333333
 40
0.0833333333333333
 40
0.0833333333333333
 40
0.1666666666666666
 40
0.1666666666666666
 40
0.1666666666666666
 40
0.1666666666666666
 10
788.7707744332571
 20
1837.036128104217
 30
0.0
 10
788.6167557902433
 20
1836.724528086857
 30
0.0
 10
788.4638078074044
 20
1836.40448455833
 30
0.0
 10
788.3142562063514
 20
1836.074250017631
 30
0.0
  0
SPLINE
  5
23C
330
180
100
AcDbEntity
  8
P-SANR-FIXT
100
AcDbSpline
210
0.0
220
0.0
230
1.0
 70
     8
 71
     3
 72
     9
 73
     5
 74
     0
 42
0.000000001
 43
0.0000000001
 40
0.25
 40
0.25
 40
0.25
 40
0.25
 40
0.5
 40
0.5833333333333333
 40
0.5833333333333333
 40
0.5833333333333333
 40
0.5833333333333333
 10
787.8781162701586
 20
1835.051225858004
 30
0.0
 10
787.4505200130252
 20
1833.999727698822
 30
0.0
 10
786.9493260328566
 20
1832.465357395726
 30
0.0
 10
786.4934368615555
 20
1830.831198449383
 30
0.0
 10
786.3894884248974
 20
1830.415009733618
 30
0.0
  0
SPLINE
  5
23D
330
180
100
AcDbEntity
  8
P-SANR-FIXT
100
AcDbSpline
210
0.0
220
0.0
230
1.0
 70
     8
 71
     3
 72
     8
 73
     4
 74
     0
 42
0.000000001
 43
0.0000000001
 40
0.6666666666666666
 40
0.6666666666666666
 40
0.6666666666666666
 40
0.6666666666666666
 40
0.75
 40
0.75
 40
0.75
 40
0.75
 10
786.1530921290339
 20
1829.124854326905
 30
0.0
 10
786.0742623136562
 20
1828.692912693415
 30
0.0
 10
785.9965955047004
 20
1828.258507101863
 30
0.0
 10
785.9436225238563
 20
1827.814792177086
 30
0.0
  0
SPLINE
  5
23E
330
180
100
AcDbEntity
  8
P-SANR-FIXT
100
AcDbSpline
210
0.0
220
0.0
230
1.0
 70
     8
 71
     3
 72
     8
 73
     4
 74
     0
 42
0.000000001
 43
0.0000000001
 40
0.8333333333333333
 40
0.8333333333333333
 40
0.8333333333333333
 40
0.8333333333333333
 40
1.0
 40
1.0
 40
1.0
 40
1.0
 10
785.791031214671
 20
1826.480688490986
 30
0.0
 10
785.7088934129907
 20
1825.583813150993
 30
0.0
 10
785.6664074431853
 20
1824.672064662992
 30
0.0
 10
785.6664074431853
 20
1823.745878730069
 30
0.0
  0
ARC
  5
23F
330
180
100
AcDbEntity
  8
P-SANR-FIXT
100
AcDbCircle
 10
815.6664074431851
 20
1823.745878730069
 30
0.0
 40
29.99999999999989
100
AcDbArc
 50
0.0000000000008685
 51
180.0000000000001
  0
SPLINE
  5
240
330
180
100
AcDbEntity
  8
P-SANR-FIXT
100
AcDbSpline
210
0.0
220
0.0
230
1.0
 70
     8
 71
     3
 72
     8
 73
     4
 74
     0
 42
0.000000001
 43
0.0000000001
 40
0.0
 40
0.0
 40
0.0
 40
0.0
 40
0.1666666666666666
 40
0.1666666666666666
 40
0.1666666666666666
 40
0.1666666666666666
 10
845.6664074431852
 20
1823.74587873007
 30
0.0
 10
845.6664074431852
 20
1824.674282363018
 30
0.0
 10
845.6237025099699
 20
1825.587830934546
 30
0.0
 10
845.5412876898353
 20
1826.485988891073
 30
0.0
  0
SPLINE
  5
241
330
180
100
AcDbEntity
  8
P-SANR-FIXT
100
AcDbSpline
210
0.0
220
0.0
230
1.0
 70
     8
 71
     3
 72
     8
 73
     4
 74
     0
 42
0.000000001
 43
0.0000000001
 40
0.25
 40
0.25
 40
0.25
 40
0.25
 40
0.3333333333333333
 40
0.3333333333333333
 40
0.3333333333333333
 40
0.3333333333333333
 10
845.3882574252309
 20
1827.821615920416
 30
0.0
 10
845.3275694524908
 20
1828.262932646981
 30
0.0
 10
845.2555909598862
 20
1828.697233883928
 30
0.0
 10
845.1748916296555
 20
1829.126197989363
 30
0.0
  0
SPLINE
  5
242
330
180
100
AcDbEntity
  8
P-SANR-FIXT
100
AcDbSpline
210
0.0
220
0.0
230
1.0
 70
     8
 71
     3
 72
     9
 73
     5
 74
     0
 42
0.000000001
 43
0.0000000001
 40
0.4166666666666666
 40
0.4166666666666666
 40
0.4166666666666666
 40
0.4166666666666666
 40
0.5
 40
0.75
 40
0.75
 40
0.75
 40
0.75
 10
844.9161505240111
 20
1830.411160835933
 30
0.0
 10
844.8205792007669
 20
1830.831129036456
 30
0.0
 10
844.404841567481
 20
1832.47653486
 30
0.0
 10
843.8913866629032
 20
1834.050452051359
 30
0.0
 10
843.4526886075516
 20
1835.056165156804
 30
0.0
  0
SPLINE
  5
243
330
180
100
AcDbEntity
  8
P-SANR-FIXT
100
AcDbSpline
210
0.0
220
0.0
230
1.0
 70
     8
 71
     3
 72
     8
 73
     4
 74
     0
 42
0.000000001
 43
0.0000000001
 40
0.8333333333333333
 40
0.8333333333333333
 40
0.8333333333333333
 40
0.8333333333333333
 40
0.9166666666666667
 40
0.9166666666666667
 40
0.9166666666666667
 40
0.9166666666666667
 10
843.0153819421995
 20
1836.076418473473
 30
0.0
 10
842.8665324506052
 20
1836.406611581036
 30
0.0
 10
842.7131571939098
 20
1836.717792718603
 30
0.0
 10
842.5585561435628
 20
1837.024176400633
 30
0.0
  0
SPLINE
  5
244
330
180
100
AcDbEntity
  8
P-SANR-FIXT
100
AcDbSpline
210
0.0
220
0.0
230
1.0
 70
     8
 71
     3
 72
     8
 73
     4
 74
     0
 42
0.000000001
 43
0.0000000001
 40
0.0833333333333333
 40
0.0833333333333333
 40
0.0833333333333333
 40
0.0833333333333333
 40
0.1666666666666666
 40
0.1666666666666666
 40
0.1666666666666666
 40
0.1666666666666666
 10
842.5611012960036
 20
1810.453722249348
 30
0.0
 10
842.7148539622036
 20
1810.764725534764
 30
0.0
 10
842.8675806864614
 20
1811.0842021558
 30
0.0
 10
843.0169542959838
 20
1811.413923401712
 30
0.0
  0
SPLINE
  5
245
330
180
100
AcDbEntity
  8
P-SANR-FIXT
100
AcDbSpline
210
0.0
220
0.0
230
1.0
 70
     8
 71
     3
 72
     9
 73
     5
 74
     0
 42
0.000000001
 43
0.0000000001
 40
0.25
 40
0.25
 40
0.25
 40
0.25
 40
0.5
 40
0.5833333333333333
 40
0.5833333333333333
 40
0.5833333333333333
 40
0.5833333333333333
 10
843.4526886075516
 20
1812.435592303335
 30
0.0
 10
843.8799986444642
 20
1813.485875318285
 30
0.0
 10
844.3812538843555
 20
1815.019589912808
 30
0.0
 10
844.8375696582328
 20
1816.652764669735
 30
0.0
 10
844.9416362102095
 20
1817.068800993285
 30
0.0
  0
SPLINE
  5
246
330
180
100
AcDbEntity
  8
P-SANR-FIXT
100
AcDbSpline
210
0.0
220
0.0
230
1.0
 70
     8
 71
     3
 72
     8
 73
     4
 74
     0
 42
0.000000001
 43
0.0000000001
 40
0.6666666666666666
 40
0.6666666666666666
 40
0.6666666666666666
 40
0.6666666666666666
 40
0.75
 40
0.75
 40
0.75
 40
0.75
 10
845.1783664874991
 20
1818.359357687432
 30
0.0
 10
845.257328388808
 20
1818.791422684539
 30
0.0
 10
845.3351554490835
 20
1819.225964176919
 30
0.0
 10
845.3882574252309
 20
1819.670141539723
 30
0.0
  0
SPLINE
  5
247
330
180
100
AcDbEntity
  8
P-SANR-FIXT
100
AcDbSpline
210
0.0
220
0.0
230
1.0
 70
     8
 71
     3
 72
     8
 73
     4
 74
     0
 42
0.000000001
 43
0.0000000001
 40
0.8333333333333333
 40
0.8333333333333333
 40
0.8333333333333333
 40
0.8333333333333333
 40
1.0
 40
1.0
 40
1.0
 40
1.0
 10
845.5412876898353
 20
1821.005768569066
 30
0.0
 10
845.6237025099699
 20
1821.903926525593
 30
0.0
 10
845.6664074431852
 20
1822.817475097121
 30
0.0
 10
845.6664074431852
 20
1823.745878730069
 30
0.0
  0
ARC
  5
248
330
180
100
AcDbEntity
  8
P-SANR-FIXT
100
AcDbCircle
 10
815.6664074431851
 20
1823.745878730069
 30
0.0
 40
30.0
100
AcDbArc
 50
180.0000000000001
 51
0.0
  0
SPLINE
  5
249
330
180
100
AcDbEntity
  8
P-SANR-FIXT
100
AcDbSpline
210
0.0
220
0.0
230
1.0
 70
     8
 71
     3
 72
     8
 73
     4
 74
     0
 42
0.000000001
 43
0.0000000001
 40
0.0
 40
0.0
 40
0.0
 40
0.0
 40
0.1666666666666666
 40
0.1666666666666666
 40
0.1666666666666666
 40
0.1666666666666666
 10
785.6664074431853
 20
1823.745878730069
 30
0.0
 10
785.6664074431853
 20
1822.817475097121
 30
0.0
 10
785.7091123764003
 20
1821.903926525593
 30
0.0
 10
785.791527196535
 20
1821.005768569066
 30
0.0
  0
SPLINE
  5
24A
330
180
100
AcDbEntity
  8
P-SANR-FIXT
100
AcDbSpline
210
0.0
220
0.0
230
1.0
 70
     8
 71
     3
 72
     8
 73
     4
 74
     0
 42
0.000000001
 43
0.0000000001
 40
0.25
 40
0.25
 40
0.25
 40
0.25
 40
0.3333333333333333
 40
0.3333333333333333
 40
0.3333333333333333
 40
0.3333333333333333
 10
785.9445574611395
 20
1819.670141539723
 30
0.0
 10
786.0052454338796
 20
1819.228824813157
 30
0.0
 10
786.0772239264841
 20
1818.794523576211
 30
0.0
 10
786.1579232567147
 20
1818.365559470776
 30
0.0
  0
SPLINE
  5
24B
330
180
100
AcDbEntity
  8
P-SANR-FIXT
100
AcDbSpline
210
0.0
220
0.0
230
1.0
 70
     8
 71
     3
 72
     9
 73
     5
 74
     0
 42
0.000000001
 43
0.0000000001
 40
0.4166666666666666
 40
0.4166666666666666
 40
0.4166666666666666
 40
0.4166666666666666
 40
0.5
 40
0.75
 40
0.75
 40
0.75
 40
0.75
 10
786.4166643623592
 20
1817.080596624206
 30
0.0
 10
786.5122356856034
 20
1816.660628423683
 30
0.0
 10
786.9279733188895
 20
1815.015222600139
 30
0.0
 10
787.4414282234672
 20
1813.44130540878
 30
0.0
 10
787.8801262788187
 20
1812.435592303335
 30
0.0
  0
SPLINE
  5
24C
330
180
100
AcDbEntity
  8
P-SANR-FIXT
100
AcDbSpline
210
0.0
220
0.0
230
1.0
 70
     8
 71
     3
 72
     8
 73
     4
 74
     0
 42
0.000000001
 43
0.0000000001
 40
0.8333333333333333
 40
0.8333333333333333
 40
0.8333333333333333
 40
0.8333333333333333
 40
0.9166666666666667
 40
0.9166666666666667
 40
0.9166666666666667
 40
0.9166666666666667
 10
788.3174329441708
 20
1811.415338986666
 30
0.0
 10
788.4662824357652
 20
1811.085145879102
 30
0.0
 10
788.6196576924605
 20
1810.773964741535
 30
0.0
 10
788.7742587428077
 20
1810.467581059506
 30
0.0
  0
ARC
  5
24D
330
180
100
AcDbEntity
  8
P-SANR-FIXT
100
AcDbCircle
 10
815.6664074431851
 20
1823.745878730069
 30
0.0
 40
29.50000000000001
100
AcDbArc
 50
4.512045372412835
 51
5.000000000000246
  0
ARC
  5
24E
330
180
100
AcDbEntity
  8
P-SANR-FIXT
100
AcDbCircle
 10
815.6664074431851
 20
1823.745878730069
 30
0.0
 40
29.50000000000012
100
AcDbArc
 50
9.004900680460119
 51
10.0000000000003
  0
ARC
  5
24F
330
180
100
AcDbEntity
  8
P-SANR-FIXT
100
AcDbCircle
 10
815.6664074431851
 20
1823.745878730069
 30
0.0
 40
29.5000000000001
100
AcDbArc
 50
13.51042486647166
 51
15.00000000000058
  0
ARC
  5
250
330
180
100
AcDbEntity
  8
P-SANR-FIXT
100
AcDbCircle
 10
815.6664074431851
 20
1823.745878730069
 30
0.0
 40
29.49999999999998
100
AcDbArc
 50
18.01666386288506
 51
27.0271086372937
  0
ARC
  5
251
330
180
100
AcDbEntity
  8
P-SANR-FIXT
100
AcDbCircle
 10
815.6664074431851
 20
1823.745878730069
 30
0.0
 40
29.50000000000001
100
AcDbArc
 50
30.00000000000018
 51
31.52892460084712
  0
ARC
  5
252
330
180
100
AcDbEntity
  8
P-SANR-FIXT
100
AcDbCircle
 10
815.6664074431851
 20
1823.745878730069
 30
0.0
 40
29.50000000000001
100
AcDbArc
 50
35.00000000000026
 51
36.02648281026503
  0
ARC
  5
253
330
180
100
AcDbEntity
  8
P-SANR-FIXT
100
AcDbCircle
 10
815.6664074431851
 20
1823.745878730069
 30
0.0
 40
29.49999999999992
100
AcDbArc
 50
40.00000000000002
 51
40.51776464841773
  0
ARC
  5
254
330
180
100
AcDbEntity
  8
P-SANR-FIXT
100
AcDbCircle
 10
815.6664074431851
 20
1823.745878730069
 30
0.0
 40
29.49999999999994
100
AcDbArc
 50
49.4822353515825
 51
50.0000000000005
  0
ARC
  5
255
330
180
100
AcDbEntity
  8
P-SANR-FIXT
100
AcDbCircle
 10
815.6664074431851
 20
1823.745878730069
 30
0.0
 40
29.50000000000005
100
AcDbArc
 50
53.97351718973546
 51
55.0000000000004
  0
ARC
  5
256
330
180
100
AcDbEntity
  8
P-SANR-FIXT
100
AcDbCircle
 10
815.6664074431851
 20
1823.745878730069
 30
0.0
 40
29.50000000000006
100
AcDbArc
 50
58.47107539915353
 51
60.00000000000044
  0
ARC
  5
257
330
180
100
AcDbEntity
  8
P-SANR-FIXT
100
AcDbCircle
 10
815.6664074431851
 20
1823.745878730069
 30
0.0
 40
29.50000000000001
100
AcDbArc
 50
62.97289136270607
 51
71.98333613711492
  0
ARC
  5
258
330
180
100
AcDbEntity
  8
P-SANR-FIXT
100
AcDbCircle
 10
815.6664074431851
 20
1823.745878730069
 30
0.0
 40
29.49999999999994
100
AcDbArc
 50
75.00000000000023
 51
76.48957513352818
  0
ARC
  5
259
330
180
100
AcDbEntity
  8
P-SANR-FIXT
100
AcDbCircle
 10
815.6664074431851
 20
1823.745878730069
 30
0.0
 40
29.49999999999994
100
AcDbArc
 50
80.0000000000004
 51
80.99509931953985
  0
ARC
  5
25A
330
180
100
AcDbEntity
  8
P-SANR-FIXT
100
AcDbCircle
 10
815.6664074431851
 20
1823.745878730069
 30
0.0
 40
29.49999999999993
100
AcDbArc
 50
85.00000000000019
 51
85.49891417052091
  0
ARC
  5
25B
330
180
100
AcDbEntity
  8
P-SANR-FIXT
100
AcDbCircle
 10
815.6664074431851
 20
1823.745878730069
 30
0.0
 40
29.49999999999999
100
AcDbArc
 50
94.50108582947933
 51
95.00000000000028
  0
ARC
  5
25C
330
180
100
AcDbEntity
  8
P-SANR-FIXT
100
AcDbCircle
 10
815.6664074431851
 20
1823.745878730069
 30
0.0
 40
29.49999999999999
100
AcDbArc
 50
99.00490068046032
 51
100.0000000000003
  0
ARC
  5
25D
330
180
100
AcDbEntity
  8
P-SANR-FIXT
100
AcDbCircle
 10
815.6664074431851
 20
1823.745878730069
 30
0.0
 40
29.50000000000002
100
AcDbArc
 50
103.5104248664721
 51
105.0000000000003
  0
ARC
  5
25E
330
180
100
AcDbEntity
  8
P-SANR-FIXT
100
AcDbCircle
 10
815.6664074431851
 20
1823.745878730069
 30
0.0
 40
29.49999999999998
100
AcDbArc
 50
108.0166638628853
 51
117.0271086372939
  0
ARC
  5
25F
330
180
100
AcDbEntity
  8
P-SANR-FIXT
100
AcDbCircle
 10
815.6664074431851
 20
1823.745878730069
 30
0.0
 40
29.50000000000001
100
AcDbArc
 50
120.0000000000002
 51
121.5289246008465
  0
ARC
  5
260
330
180
100
AcDbEntity
  8
P-SANR-FIXT
100
AcDbCircle
 10
815.6664074431851
 20
1823.745878730069
 30
0.0
 40
29.49999999999992
100
AcDbArc
 50
125.0000000000003
 51
126.0264828102648
  0
ARC
  5
261
330
180
100
AcDbEntity
  8
P-SANR-FIXT
100
AcDbCircle
 10
815.6664074431851
 20
1823.745878730069
 30
0.0
 40
29.49999999999992
100
AcDbArc
 50
130.0000000000003
 51
130.5177646484181
  0
ARC
  5
262
330
180
100
AcDbEntity
  8
P-SANR-FIXT
100
AcDbCircle
 10
815.6664074431851
 20
1823.745878730069
 30
0.0
 40
29.49999999999993
100
AcDbArc
 50
139.4822353515821
 51
140.0000000000004
  0
ARC
  5
263
330
180
100
AcDbEntity
  8
P-SANR-FIXT
100
AcDbCircle
 10
815.6664074431851
 20
1823.745878730069
 30
0.0
 40
29.50000000000005
100
AcDbArc
 50
143.9735171897353
 51
145.0000000000001
  0
ARC
  5
264
330
180
100
AcDbEntity
  8
P-SANR-FIXT
100
AcDbCircle
 10
815.6664074431851
 20
1823.745878730069
 30
0.0
 40
29.49999999999997
100
AcDbArc
 50
148.4710753991532
 51
150.0000000000003
  0
ARC
  5
265
330
180
100
AcDbEntity
  8
P-SANR-FIXT
100
AcDbCircle
 10
815.6664074431851
 20
1823.745878730069
 30
0.0
 40
29.49999999999996
100
AcDbArc
 50
152.9728913627061
 51
161.9833361371144
  0
ARC
  5
266
330
180
100
AcDbEntity
  8
P-SANR-FIXT
100
AcDbCircle
 10
815.6664074431851
 20
1823.745878730069
 30
0.0
 40
29.49999999999994
100
AcDbArc
 50
165.0000000000001
 51
166.4895751335281
  0
ARC
  5
267
330
180
100
AcDbEntity
  8
P-SANR-FIXT
100
AcDbCircle
 10
815.6664074431851
 20
1823.745878730069
 30
0.0
 40
29.49999999999996
100
AcDbArc
 50
169.9999999999998
 51
170.9950993195399
  0
ARC
  5
268
330
180
100
AcDbEntity
  8
P-SANR-FIXT
100
AcDbCircle
 10
815.6664074431851
 20
1823.745878730069
 30
0.0
 40
29.49999999999994
100
AcDbArc
 50
175.0000000000002
 51
175.4879546275867
  0
ARC
  5
269
330
180
100
AcDbEntity
  8
P-SANR-FIXT
100
AcDbCircle
 10
815.6664074431851
 20
1823.745878730069
 30
0.0
 40
29.50000000000002
100
AcDbArc
 50
184.5010858294794
 51
184.9999999999999
  0
ARC
  5
26A
330
180
100
AcDbEntity
  8
P-SANR-FIXT
100
AcDbCircle
 10
815.6664074431851
 20
1823.745878730069
 30
0.0
 40
29.49999999999995
100
AcDbArc
 50
189.0049006804606
 51
189.9999999999994
  0
ARC
  5
26B
330
180
100
AcDbEntity
  8
P-SANR-FIXT
100
AcDbCircle
 10
815.6664074431851
 20
1823.745878730069
 30
0.0
 40
29.49999999999999
100
AcDbArc
 50
193.5104248664724
 51
194.9999999999995
  0
ARC
  5
26C
330
180
100
AcDbEntity
  8
P-SANR-FIXT
100
AcDbCircle
 10
815.6664074431851
 20
1823.745878730069
 30
0.0
 40
29.50000000000001
100
AcDbArc
 50
198.016663862886
 51
207.0271086372942
  0
ARC
  5
26D
330
180
100
AcDbEntity
  8
P-SANR-FIXT
100
AcDbCircle
 10
815.6664074431851
 20
1823.745878730069
 30
0.0
 40
29.5
100
AcDbArc
 50
209.9999999999996
 51
211.5289246008474
  0
ARC
  5
26E
330
180
100
AcDbEntity
  8
P-SANR-FIXT
100
AcDbCircle
 10
815.6664074431851
 20
1823.745878730069
 30
0.0
 40
29.49999999999988
100
AcDbArc
 50
214.9999999999992
 51
216.0264828102653
  0
ARC
  5
26F
330
180
100
AcDbEntity
  8
P-SANR-FIXT
100
AcDbCircle
 10
815.6664074431851
 20
1823.745878730069
 30
0.0
 40
29.50000000000003
100
AcDbArc
 50
219.9999999999993
 51
220.5177646484182
  0
ARC
  5
270
330
180
100
AcDbEntity
  8
P-SANR-FIXT
100
AcDbCircle
 10
815.6664074431851
 20
1823.745878730069
 30
0.0
 40
29.50000000000004
100
AcDbArc
 50
229.4822353515826
 51
229.9999999999994
  0
ARC
  5
271
330
180
100
AcDbEntity
  8
P-SANR-FIXT
100
AcDbCircle
 10
815.6664074431851
 20
1823.745878730069
 30
0.0
 40
29.50000000000006
100
AcDbArc
 50
233.973517189736
 51
234.9999999999994
  0
ARC
  5
272
330
180
100
AcDbEntity
  8
P-SANR-FIXT
100
AcDbCircle
 10
815.6664074431851
 20
1823.745878730069
 30
0.0
 40
29.50000000000008
100
AcDbArc
 50
238.4710753991538
 51
239.9999999999998
  0
ARC
  5
273
330
180
100
AcDbEntity
  8
P-SANR-FIXT
100
AcDbCircle
 10
815.6664074431851
 20
1823.745878730069
 30
0.0
 40
29.4999999999999
100
AcDbArc
 50
242.9728913627065
 51
251.9833361371154
  0
ARC
  5
274
330
180
100
AcDbEntity
  8
P-SANR-FIXT
100
AcDbCircle
 10
815.6664074431851
 20
1823.745878730069
 30
0.0
 40
29.49999999999989
100
AcDbArc
 50
254.9999999999994
 51
256.4895751335285
  0
ARC
  5
275
330
180
100
AcDbEntity
  8
P-SANR-FIXT
100
AcDbCircle
 10
815.6664074431851
 20
1823.745878730069
 30
0.0
 40
29.50000000000002
100
AcDbArc
 50
259.9999999999992
 51
260.9950993195398
  0
ARC
  5
276
330
180
100
AcDbEntity
  8
P-SANR-FIXT
100
AcDbCircle
 10
815.6664074431851
 20
1823.745878730069
 30
0.0
 40
29.49999999999995
100
AcDbArc
 50
264.9999999999994
 51
265.4989141705212
  0
ARC
  5
277
330
180
100
AcDbEntity
  8
P-SANR-FIXT
100
AcDbCircle
 10
815.6664074431851
 20
1823.745878730069
 30
0.0
 40
29.50000000000002
100
AcDbArc
 50
274.5010858294798
 51
274.9999999999994
  0
ARC
  5
278
330
180
100
AcDbEntity
  8
P-SANR-FIXT
100
AcDbCircle
 10
815.6664074431851
 20
1823.745878730069
 30
0.0
 40
29.50000000000017
100
AcDbArc
 50
279.0049006804608
 51
279.9999999999991
  0
ARC
  5
279
330
180
100
AcDbEntity
  8
P-SANR-FIXT
100
AcDbCircle
 10
815.6664074431851
 20
1823.745878730069
 30
0.0
 40
29.50000000000018
100
AcDbArc
 50
283.5104248664722
 51
284.9999999999992
  0
ARC
  5
27A
330
180
100
AcDbEntity
  8
P-SANR-FIXT
100
AcDbCircle
 10
815.6664074431851
 20
1823.745878730069
 30
0.0
 40
29.50000000000009
100
AcDbArc
 50
288.0166638628855
 51
297.027108637294
  0
ARC
  5
27B
330
180
100
AcDbEntity
  8
P-SANR-FIXT
100
AcDbCircle
 10
815.6664074431851
 20
1823.745878730069
 30
0.0
 40
29.50000000000014
100
AcDbArc
 50
299.9999999999989
 51
301.5289246008468
  0
ARC
  5
27C
330
180
100
AcDbEntity
  8
P-SANR-FIXT
100
AcDbCircle
 10
815.6664074431851
 20
1823.745878730069
 30
0.0
 40
29.50000000000001
100
AcDbArc
 50
304.9999999999989
 51
306.0264828102646
  0
ARC
  5
27D
330
180
100
AcDbEntity
  8
P-SANR-FIXT
100
AcDbCircle
 10
815.6664074431851
 20
1823.745878730069
 30
0.0
 40
29.50000000000004
100
AcDbArc
 50
309.9999999999991
 51
310.5177646484175
  0
ARC
  5
27E
330
180
100
AcDbEntity
  8
P-SANR-FIXT
100
AcDbCircle
 10
815.6664074431851
 20
1823.745878730069
 30
0.0
 40
29.50000000000003
100
AcDbArc
 50
319.4822353515822
 51
319.9999999999989
  0
ARC
  5
27F
330
180
100
AcDbEntity
  8
P-SANR-FIXT
100
AcDbCircle
 10
815.6664074431851
 20
1823.745878730069
 30
0.0
 40
29.50000000000008
100
AcDbArc
 50
323.9735171897353
 51
324.9999999999986
  0
ARC
  5
280
330
180
100
AcDbEntity
  8
P-SANR-FIXT
100
AcDbCircle
 10
815.6664074431851
 20
1823.745878730069
 30
0.0
 40
29.50000000000016
100
AcDbArc
 50
328.4710753991532
 51
329.9999999999984
  0
ARC
  5
281
330
180
100
AcDbEntity
  8
P-SANR-FIXT
100
AcDbCircle
 10
815.6664074431851
 20
1823.745878730069
 30
0.0
 40
29.49999999999996
100
AcDbArc
 50
332.9728913627061
 51
341.9833361371146
  0
ARC
  5
282
330
180
100
AcDbEntity
  8
P-SANR-FIXT
100
AcDbCircle
 10
815.6664074431851
 20
1823.745878730069
 30
0.0
 40
29.49999999999995
100
AcDbArc
 50
344.9999999999984
 51
346.4895751335277
  0
ARC
  5
283
330
180
100
AcDbEntity
  8
P-SANR-FIXT
100
AcDbCircle
 10
815.6664074431851
 20
1823.745878730069
 30
0.0
 40
29.50000000000004
100
AcDbArc
 50
349.9999999999981
 51
350.9950993195396
  0
ARC
  5
284
330
180
100
AcDbEntity
  8
P-SANR-FIXT
100
AcDbCircle
 10
815.6664074431851
 20
1823.745878730069
 30
0.0
 40
29.49999999999997
100
AcDbArc
 50
354.9999999999985
 51
355.4989141705203
  0
LINE
  5
285
330
180
100
AcDbEntity
  8
P-SANR-FIXT
100
AcDbLine
 10
856.1664074431851
 20
1844.945878730069
 30
0.0
 11
856.1664074431853
 21
1823.74587873007
 31
0.0
  0
LINE
  5
286
330
180
100
AcDbEntity
  8
P-SANR-FIXT
100
AcDbLine
 10
856.1664074431853
 20
1823.74587873007
 30
0.0
 11
856.1664074431853
 21
1802.54587873007
 31
0.0
  0
SPLINE
  5
287
330
180
100
AcDbEntity
  8
P-SANR-FIXT
100
AcDbSpline
210
0.0
220
0.0
230
1.0
 70
     8
 71
     3
 72
     8
 73
     4
 74
     0
 42
0.000000001
 43
0.0000000001
 40
0.5116001151008503
 40
0.5116001151008503
 40
0.5116001151008503
 40
0.5116001151008503
 40
0.513720641066954
 40
0.513720641066954
 40
0.513720641066954
 40
0.513720641066954
 10
843.5942873385441
 20
1834.71485007122
 30
0.0
 10
843.582809786157
 20
1834.725679803435
 30
0.0
 10
843.5713075799359
 20
1834.736479919947
 30
0.0
 10
843.5597806354852
 20
1834.747250337224
 30
0.0
  0
SPLINE
  5
288
330
180
100
AcDbEntity
  8
P-SANR-FIXT
100
AcDbSpline
210
0.0
220
0.0
230
1.0
 70
     8
 71
     3
 72
    14
 73
    10
 74
     0
 42
0.000000001
 43
0.0000000001
 40
0.0
 40
0.0
 40
0.0
 40
0.0
 40
0.1111111111111111
 40
0.2222222222222222
 40
0.2777777777777778
 40
0.3333333333333333
 40
0.3611111111111111
 40
0.3888888888888888
 40
0.4422869741794392
 40
0.4422869741794392
 40
0.4422869741794392
 40
0.4422869741794392
 10
847.666407443185
 20
1842.99587873007
 30
0.0
 10
847.6491531756321
 20
1842.99587873007
 30
0.0
 10
847.2900031944019
 20
1842.811882320533
 30
0.0
 10
845.950217371171
 20
1842.237094247467
 30
0.0
 10
844.4865202210589
 20
1841.718627369863
 30
0.0
 10
843.4239295940354
 20
1841.404190459268
 30
0.0
 10
842.5096684015155
 20
1841.18899322528
 30
0.0
 10
841.5478881964066
 20
1840.995501551244
 30
0.0
 10
840.8070238544446
 20
1840.888766640646
 30
0.0
 10
840.3116907194124
 20
1840.841684649993
 30
0.0
  0
SPLINE
  5
289
330
180
100
AcDbEntity
  8
P-SANR-FIXT
100
AcDbSpline
210
0.0
220
0.0
230
1.0
 70
     8
 71
     3
 72
     8
 73
     4
 74
     0
 42
0.000000001
 43
0.0000000001
 40
0.4862793589330354
 40
0.4862793589330354
 40
0.4862793589330354
 40
0.4862793589330354
 40
0.4883998848991497
 40
0.4883998848991497
 40
0.4883998848991497
 40
0.4883998848991497
 10
843.5597820935168
 20
1812.74448756483
 30
0.0
 10
843.571308914794
 20
1812.755258717868
 30
0.0
 10
843.582811026398
 20
1812.766059555838
 30
0.0
 10
843.5942885204147
 20
1812.776889987343
 30
0.0
  0
SPLINE
  5
28A
330
180
100
AcDbEntity
  8
P-SANR-FIXT
100
AcDbSpline
210
0.0
220
0.0
230
1.0
 70
     8
 71
     3
 72
    15
 73
    11
 74
     0
 42
0.000000001
 43
0.0000000001
 40
0.5577130258205609
 40
0.5577130258205609
 40
0.5577130258205609
 40
0.5577130258205609
 40
0.5833333333333333
 40
0.6180555555555555
 40
0.6527777777777777
 40
0.6875
 40
0.7222222222222223
 40
0.7916666666666668
 40
0.861111111111111
 40
1.0
 40
1.0
 40
1.0
 40
1.0
 10
840.312618112612
 20
1806.649845685625
 30
0.0
 10
840.5489645352771
 20
1806.627417970843
 30
0.0
 10
841.0988382304916
 20
1806.562726833767
 30
0.0
 10
841.9648587874355
 20
1806.417656242639
 30
0.0
 10
842.8650768972412
 20
1806.224140746539
 30
0.0
 10
843.686134394351
 20
1806.011596479594
 30
0.0
 10
844.7315010130601
 20
1805.691207456622
 30
0.0
 10
845.8402825019827
 20
1805.289287182841
 30
0.0
 10
847.2271588776017
 20
1804.712434026305
 30
0.0
 10
847.6448396087441
 20
1804.49587873007
 30
0.0
 10
847.6664074431853
 20
1804.49587873007
 30
0.0
  0
LINE
  5
28B
330
180
100
AcDbEntity
  8
P-SANR-FIXT
100
AcDbLine
 10
780.1664074431851
 20
1844.945878730069
 30
0.0
 11
780.1664074431852
 21
1823.745878730069
 31
0.0
  0
LINE
  5
28C
330
180
100
AcDbEntity
  8
P-SANR-FIXT
100
AcDbLine
 10
780.1664074431852
 20
1823.745878730069
 30
0.0
 11
780.1664074431853
 21
1802.545878730069
 31
0.0
  0
SPLINE
  5
28D
330
180
100
AcDbEntity
  8
P-SANR-FIXT
100
AcDbSpline
210
0.0
220
0.0
230
1.0
 70
     8
 71
     3
 72
     8
 73
     4
 74
     0
 42
0.000000001
 43
0.0000000001
 40
0.9483810280477204
 40
0.9483810280477204
 40
0.9483810280477204
 40
0.9483810280477204
 40
1.0
 40
1.0
 40
1.0
 40
1.0
 10
841.9877493473929
 20
1838.122503071813
 30
0.0
 10
842.0257741931843
 20
1838.063984641464
 30
0.0
 10
842.0613408227305
 20
1838.004192180281
 30
0.0
 10
842.0943755830176
 20
1837.94314959457
 30
0.0
  0
SPLINE
  5
28E
330
180
100
AcDbEntity
  8
P-SANR-FIXT
100
AcDbSpline
210
0.0
220
0.0
230
1.0
 70
     8
 71
     3
 72
     8
 73
     4
 74
     0
 42
0.000000001
 43
0.0000000001
 40
0.0
 40
0.0
 40
0.0
 40
0.0
 40
0.0516189719520127
 40
0.0516189719520127
 40
0.0516189719520127
 40
0.0516189719520127
 10
789.2384393033528
 20
1837.94314959457
 30
0.0
 10
789.2714740636396
 20
1838.004192180281
 30
0.0
 10
789.3070004687156
 20
1838.063963751662
 30
0.0
 10
789.3449601410237
 20
1838.122447747237
 30
0.0
  0
SPLINE
  5
28F
330
180
100
AcDbEntity
  8
P-SANR-FIXT
100
AcDbSpline
210
0.0
220
0.0
230
1.0
 70
     8
 71
     3
 72
     8
 73
     4
 74
     0
 42
0.000000001
 43
0.0000000001
 40
0.9483810280481961
 40
0.9483810280481961
 40
0.9483810280481961
 40
0.9483810280481961
 40
1.0
 40
1.0
 40
1.0
 40
1.0
 10
789.3450655389765
 20
1809.369254388327
 30
0.0
 10
789.3070406931854
 20
1809.427772818676
 30
0.0
 10
789.2714740636395
 20
1809.487565279858
 30
0.0
 10
789.2384393033528
 20
1809.548607865568
 30
0.0
  0
SPLINE
  5
290
330
180
100
AcDbEntity
  8
P-SANR-FIXT
100
AcDbSpline
210
0.0
220
0.0
230
1.0
 70
     8
 71
     3
 72
     8
 73
     4
 74
     0
 42
0.000000001
 43
0.0000000001
 40
0.0
 40
0.0
 40
0.0
 40
0.0
 40
0.0516189719520346
 40
0.0516189719520346
 40
0.0516189719520346
 40
0.0516189719520346
 10
842.0943755830176
 20
1809.548607865568
 30
0.0
 10
842.0613408227307
 20
1809.487565279858
 30
0.0
 10
842.0258144176546
 20
1809.427793708477
 30
0.0
 10
841.9878547453466
 20
1809.369309712902
 30
0.0
  0
LINE
  5
291
330
180
100
AcDbEntity
  8
P-SANR-FIXT
100
AcDbLine
 10
847.6664074431853
 20
1789.245878730058
 30
0.0
 11
829.6664074431854
 21
1789.245878730058
 31
0.0
  0
ENDBLK
  5
293
330
180
100
AcDbEntity
  8
0
100
AcDbBlockEnd
  0
BLOCK
  5
382
330
295
100
AcDbEntity
  8
0
100
AcDbBlockBegin
  2
Automatic flow rate regulator valve_Caleffi_121 DN15 - 1___Pressure gauge-V2-Est - Idraulica
 70
     0
 10
0.0
 20
0.0
 30
0.0
  3
Automatic flow rate regulator valve_Caleffi_121 DN15 - 1___Pressure gauge-V2-Est - Idraulica
  1

  0
LINE
  5
296
330
295
100
AcDbEntity
  8
M-PIPE
100
AcDbLine
 10
1156.614353943141
 20
2003.482558850053
 30
0.0
 11
1154.614353943142
 21
2003.482558850053
 31
0.0
1001
REVIT
1002
{
1070
     3
1000
924018
1002
}
  0
LINE
  5
297
330
295
100
AcDbEntity
  8
M-PIPE
100
AcDbLine
 10
1154.614353943141
 20
1996.482558850053
 30
0.0
 11
1156.614353943141
 21
1996.482558850053
 31
0.0
1001
REVIT
1002
{
1070
     3
1000
924018
1002
}
  0
LINE
  5
298
330
295
100
AcDbEntity
  8
M-PIPE
100
AcDbLine
 10
1156.614353943139
 20
1999.982558850052
 30
0.0
 11
1156.614353943139
 21
2003.482558850052
 31
0.0
1001
REVIT
1002
{
1070
     3
1000
924018
1002
}
  0
LINE
  5
299
330
295
100
AcDbEntity
  8
M-PIPE
100
AcDbLine
 10
1156.614353943139
 20
1996.482558850052
 30
0.0
 11
1156.614353943139
 21
1999.982558850052
 31
0.0
1001
REVIT
1002
{
1070
     3
1000
924018
1002
}
  0
LINE
  5
29A
330
295
100
AcDbEntity
  8
M-PIPE
100
AcDbLine
 10
1118.614353943159
 20
2006.532558850047
 30
0.0
 11
1101.614353943091
 21
2006.532558850047
 31
0.0
1001
REVIT
1002
{
1070
     3
1000
924018
1002
}
  0
LINE
  5
29B
330
295
100
AcDbEntity
  8
M-PIPE
100
AcDbLine
 10
1101.614353943091
 20
1993.432558850062
 30
0.0
 11
1118.614353943158
 21
1993.432558850061
 31
0.0
1001
REVIT
1002
{
1070
     3
1000
924018
1002
}
  0
LINE
  5
29C
330
295
100
AcDbEntity
  8
M-PIPE
100
AcDbLine
 10
1118.614353943157
 20
1992.982558850037
 30
0.0
 11
1118.614353943157
 21
2006.982558850037
 31
0.0
1001
REVIT
1002
{
1070
     3
1000
924018
1002
}
  0
LINE
  5
29D
330
295
100
AcDbEntity
  8
M-PIPE
100
AcDbLine
 10
1118.614353943157
 20
2006.982558850037
 30
0.0
 11
1124.614353943139
 21
2006.982558850037
 31
0.0
1001
REVIT
1002
{
1070
     3
1000
924018
1002
}
  0
LINE
  5
29E
330
295
100
AcDbEntity
  8
M-PIPE
100
AcDbLine
 10
1118.614353943157
 20
1992.982558850037
 30
0.0
 11
1124.614353943139
 21
1992.982558850037
 31
0.0
1001
REVIT
1002
{
1070
     3
1000
924018
1002
}
  0
LINE
  5
29F
330
295
100
AcDbEntity
  8
M-PIPE
100
AcDbLine
 10
1154.614353943142
 20
2030.982558850065
 30
0.0
 11
1127.614353943142
 21
2030.982558850066
 31
0.0
1001
REVIT
1002
{
1070
     3
1000
924018
1002
}
  0
LINE
  5
2A0
330
295
100
AcDbEntity
  8
M-PIPE
100
AcDbLine
 10
1127.61435394314
 20
1968.982558850042
 30
0.0
 11
1154.61435394314
 21
1968.982558850041
 31
0.0
1001
REVIT
1002
{
1070
     3
1000
924018
1002
}
  0
LWPOLYLINE
  5
2A1
330
295
100
AcDbEntity
  8
M-PIPE
100
AcDbPolyline
 90
       41
 70
   128
 43
0.0
 10
1124.614353943142
 20
2027.982558850066
 10
1124.616753623159
 20
2028.102526852626
 10
1124.623948824233
 20
2028.222302931974
 10
1124.63592803558
 20
2028.341695471933
 10
1124.652672093015
 20
2028.460513469909
 10
1124.674154209618
 20
2028.578566842452
 10
1124.700340018586
 20
2028.695666729348
 10
1124.73118762821
 20
2028.811625795759
 10
1124.766647688895
 20
2028.926258531915
 10
1124.806663472108
 20
2029.039381549892
 10
1124.851170961133
 20
2029.150813876992
 10
1124.900098953482
 20
2029.260377245265
 10
1124.953369174804
 20
2029.367896376691
 10
1125.010896404109
 20
2029.473199263597
 10
1125.072588610101
 20
2029.576117443829
 10
1125.138347098413
 20
2029.676486270251
 10
1125.208066669489
 20
2029.774145174153
 10
1125.281635786889
 20
2029.868937922122
 10
1125.358936755719
 20
2029.96071286598
 10
1125.439845910919
 20
2030.049323185398
 10
1125.5242338151
 20
2030.134627122765
 10
1125.611965465618
 20
2030.216488209979
 10
1125.702900510546
 20
2030.294775486763
 10
1125.796893473211
 20
2030.369363710176
 10
1125.893793984924
 20
2030.440133554969
 10
1125.993447025537
 20
2030.50697180449
 10
1126.095693171443
 20
2030.569771531796
 10
1126.200368850621
 20
2030.628432270721
 10
1126.307306604312
 20
2030.682860176596
 10
1126.416335354923
 20
2030.732968176382
 10
1126.527280679712
 20
2030.778676107968
 10
1126.639965089825
 20
2030.819910848415
 10
1126.754208314246
 20
2030.856606430934
 10
1126.869827588184
 20
2030.888704150421
 10
1126.986637945468
 20
2030.916152657372
 10
1127.104452514441
 20
2030.938908040032
 10
1127.223082816927
 20
2030.956933894641
 10
1127.342339069749
 20
2030.970201383679
 10
1127.462030488341
 20
2030.978689281993
 10
1127.581965591967
 20
2030.982384010756
 10
1127.614353943142
 20
2030.982558850066
1001
REVIT
1002
{
1070
     3
1000
924018
1002
}
  0
LWPOLYLINE
  5
2A2
330
295
100
AcDbEntity
  8
M-PIPE
100
AcDbPolyline
 90
       35
 70
   128
 43
0.0
 10
1124.614353943141
 20
2006.982558850038
 10
1124.614353943141
 20
2007.720517009853
 10
1124.614353943141
 20
2008.790422547309
 10
1124.614353943141
 20
2009.846237381761
 10
1124.614353943141
 20
2010.886272434701
 10
1124.614353943141
 20
2011.908863871907
 10
1124.614353943141
 20
2012.912375765221
 10
1124.614353943141
 20
2013.895202709685
 10
1124.614353943141
 20
2014.855772391845
 10
1124.614353943141
 20
2015.792548105122
 10
1124.614353943141
 20
2016.704031208208
 10
1124.614353943141
 20
2017.588763522579
 10
1124.614353943141
 20
2018.445329665263
 10
1124.614353943141
 20
2019.272359313158
 10
1124.614353943141
 20
2020.06852939525
 10
1124.614353943141
 20
2020.832566209247
 10
1124.614353943141
 20
2021.563247459235
 10
1124.614353943141
 20
2022.259404211082
 10
1124.614353943141
 20
2022.919922762492
 10
1124.614353943141
 20
2023.543746424685
 10
1124.614353943141
 20
2024.129877212878
 10
1124.614353943141
 20
2024.677377442843
 10
1124.614353943141
 20
2025.185371231007
 10
1124.614353943141
 20
2025.653045895674
 10
1124.614353943141
 20
2026.079653257148
 10
1124.614353943141
 20
2026.464510834653
 10
1124.614353943141
 20
2026.807002938165
 10
1124.614353943141
 20
2027.106581653377
 10
1124.614353943141
 20
2027.362767718255
 10
1124.614353943141
 20
2027.575151289743
 10
1124.614353943141
 20
2027.743392599433
 10
1124.614353943141
 20
2027.86722249712
 10
1124.614353943141
 20
2027.946442881383
 10
1124.614353943142
 20
2027.980927016505
 10
1124.614353943142
 20
2027.982558850066
1001
REVIT
1002
{
1070
     3
1000
924018
1002
}
  0
LWPOLYLINE
  5
2A3
330
295
100
AcDbEntity
  8
M-PIPE
100
AcDbPolyline
 90
       41
 70
   128
 43
0.0
 10
1124.614353943142
 20
2027.982558850066
 10
1124.614353943142
 20
2027.960161836574
 10
1124.614353943142
 20
2027.89300662654
 10
1124.614353943142
 20
2027.781200653975
 10
1124.614353943142
 20
2027.624922784584
 10
1124.614353943142
 20
2027.424423029621
 10
1124.614353943142
 20
2027.180022145923
 10
1124.614353943142
 20
2026.892111122768
 10
1124.614353943142
 20
2026.561150556374
 10
1124.614353943142
 20
2026.187669913048
 10
1124.614353943142
 20
2025.772266682146
 10
1124.614353943142
 20
2025.315605420224
 10
1124.614353943142
 20
2024.818416687885
 10
1124.614353943142
 20
2024.281495881039
 10
1124.614353943142
 20
2023.70570195844
 10
1124.614353943142
 20
2023.091956067535
 10
1124.614353943142
 20
2022.441240070824
 10
1124.614353943142
 20
2021.75459497509
 10
1124.614353943142
 20
2021.033119266008
 10
1124.614353943142
 20
2020.277967150808
 10
1124.614353943142
 20
2019.490346711783
 10
1124.614353943142
 20
2018.671517973619
 10
1124.614353943142
 20
2017.822790887622
 10
1124.614353943142
 20
2016.945523236078
 10
1124.614353943142
 20
2016.04111846009
 10
1124.614353943142
 20
2015.111023414368
 10
1124.614353943142
 20
2014.156726052578
 10
1124.614353943142
 20
2013.179753046925
 10
1124.614353943142
 20
2012.181667345807
 10
1124.614353943142
 20
2011.164065673435
 10
1124.614353943142
 20
2010.128575975405
 10
1124.614353943142
 20
2009.076854814344
 10
1124.614353943142
 20
2008.010584719753
 10
1124.614353943141
 20
2006.931471496324
 10
1124.614353943141
 20
2005.841241495016
 10
1124.614353943141
 20
2004.741638851263
 10
1124.614353943141
 20
2003.634422694724
 10
1124.614353943141
 20
2002.521364335056
 10
1124.614353943141
 20
2001.404244428195
 10
1124.614353943141
 20
2000.284850127686
 10
1124.614353943141
 20
1999.982558850054
1001
REVIT
1002
{
1070
     3
1000
924018
1002
}
  0
LWPOLYLINE
  5
2A4
330
295
100
AcDbEntity
  8
M-PIPE
100
AcDbPolyline
 90
       41
 70
   128
 43
0.0
 10
1127.61435394314
 20
1968.982558850041
 10
1127.49438594058
 20
1968.984958530059
 10
1127.374609861232
 20
1968.992153731134
 10
1127.255217321273
 20
1969.00413294248
 10
1127.136399323297
 20
1969.020876999914
 10
1127.018345950755
 20
1969.042359116517
 10
1126.901246063858
 20
1969.068544925486
 10
1126.785286997448
 20
1969.099392535109
 10
1126.670654261292
 20
1969.134852595794
 10
1126.557531243315
 20
1969.174868379008
 10
1126.446098916214
 20
1969.219375868033
 10
1126.336535547942
 20
1969.268303860381
 10
1126.229016416516
 20
1969.321574081704
 10
1126.123713529609
 20
1969.379101311008
 10
1126.020795349377
 20
1969.440793517001
 10
1125.920426522955
 20
1969.506552005313
 10
1125.822767619053
 20
1969.576271576389
 10
1125.727974871084
 20
1969.649840693789
 10
1125.636199927225
 20
1969.727141662619
 10
1125.547589607808
 20
1969.808050817819
 10
1125.462285670441
 20
1969.892438722
 10
1125.380424583227
 20
1969.980170372518
 10
1125.302137306443
 20
1970.071105417446
 10
1125.227549083031
 20
1970.165098380111
 10
1125.156779238237
 20
1970.261998891824
 10
1125.089940988716
 20
1970.361651932437
 10
1125.02714126141
 20
1970.463898078343
 10
1124.968480522485
 20
1970.56857375752
 10
1124.914052616611
 20
1970.675511511212
 10
1124.863944616825
 20
1970.784540261823
 10
1124.818236685238
 20
1970.895485586612
 10
1124.777001944791
 20
1971.008169996725
 10
1124.740306362272
 20
1971.122413221146
 10
1124.708208642785
 20
1971.238032495084
 10
1124.680760135834
 20
1971.354842852367
 10
1124.658004753174
 20
1971.472657421341
 10
1124.639978898565
 20
1971.591287723827
 10
1124.626711409527
 20
1971.710543976649
 10
1124.618223511213
 20
1971.830235395241
 10
1124.61452878245
 20
1971.950170498867
 10
1124.61435394314
 20
1971.982558850042
1001
REVIT
1002
{
1070
     3
1000
924018
1002
}
  0
LWPOLYLINE
  5
2A5
330
295
100
AcDbEntity
  8
M-PIPE
100
AcDbPolyline
 90
       41
 70
   128
 43
0.0
 10
1124.614353943141
 20
1999.982558850054
 10
1124.614353943141
 20
1998.862857492828
 10
1124.614353943141
 20
1997.744947418916
 10
1124.614353943141
 20
1996.630617045963
 10
1124.614353943141
 20
1995.521649064853
 10
1124.614353943141
 20
1994.41981758779
 10
1124.614353943141
 20
1993.326885310091
 10
1124.614353943141
 20
1992.244600690255
 10
1124.614353943141
 20
1991.174695152799
 10
1124.614353943141
 20
1990.118880318347
 10
1124.614353943141
 20
1989.078845265407
 10
1124.614353943141
 20
1988.056253828201
 10
1124.614353943141
 20
1987.052741934887
 10
1124.614353943141
 20
1986.069914990423
 10
1124.614353943141
 20
1985.109345308263
 10
1124.614353943141
 20
1984.172569594986
 10
1124.614353943141
 20
1983.2610864919
 10
1124.614353943141
 20
1982.376354177529
 10
1124.614353943141
 20
1981.519788034845
 10
1124.614353943141
 20
1980.69275838695
 10
1124.614353943141
 20
1979.896588304859
 10
1124.614353943141
 20
1979.132551490861
 10
1124.614353943141
 20
1978.401870240873
 10
1124.614353943141
 20
1977.705713489026
 10
1124.614353943141
 20
1977.045194937616
 10
1124.614353943141
 20
1976.421371275423
 10
1124.614353943141
 20
1975.83524048723
 10
1124.614353943141
 20
1975.287740257265
 10
1124.614353943141
 20
1974.779746469101
 10
1124.614353943141
 20
1974.312071804433
 10
1124.614353943141
 20
1973.88546444296
 10
1124.61435394314
 20
1973.500606865455
 10
1124.61435394314
 20
1973.158114761944
 10
1124.61435394314
 20
1972.858536046731
 10
1124.61435394314
 20
1972.602349981853
 10
1124.61435394314
 20
1972.389966410365
 10
1124.61435394314
 20
1972.221725100675
 10
1124.61435394314
 20
1972.097895202988
 10
1124.61435394314
 20
1972.018674818725
 10
1124.61435394314
 20
1971.984190683603
 10
1124.61435394314
 20
1971.982558850042
1001
REVIT
1002
{
1070
     3
1000
924018
1002
}
  0
LWPOLYLINE
  5
2A6
330
295
100
AcDbEntity
  8
M-PIPE
100
AcDbPolyline
 90
       34
 70
   128
 43
0.0
 10
1124.61435394314
 20
1971.982558850042
 10
1124.61435394314
 20
1972.004955863534
 10
1124.61435394314
 20
1972.072111073568
 10
1124.61435394314
 20
1972.183917046134
 10
1124.61435394314
 20
1972.340194915524
 10
1124.61435394314
 20
1972.540694670487
 10
1124.61435394314
 20
1972.785095554185
 10
1124.61435394314
 20
1973.07300657734
 10
1124.61435394314
 20
1973.403967143734
 10
1124.61435394314
 20
1973.77744778706
 10
1124.61435394314
 20
1974.192851017962
 10
1124.61435394314
 20
1974.649512279883
 10
1124.61435394314
 20
1975.146701012223
 10
1124.61435394314
 20
1975.683621819069
 10
1124.61435394314
 20
1976.259415741668
 10
1124.61435394314
 20
1976.873161632573
 10
1124.61435394314
 20
1977.523877629284
 10
1124.61435394314
 20
1978.210522725018
 10
1124.61435394314
 20
1978.9319984341
 10
1124.61435394314
 20
1979.6871505493
 10
1124.61435394314
 20
1980.474770988324
 10
1124.61435394314
 20
1981.293599726489
 10
1124.61435394314
 20
1982.142326812486
 10
1124.61435394314
 20
1983.019594464029
 10
1124.61435394314
 20
1983.923999240018
 10
1124.61435394314
 20
1984.854094285739
 10
1124.61435394314
 20
1985.80839164753
 10
1124.61435394314
 20
1986.785364653183
 10
1124.61435394314
 20
1987.7834503543
 10
1124.61435394314
 20
1988.801052026673
 10
1124.61435394314
 20
1989.836541724702
 10
1124.61435394314
 20
1990.888262885764
 10
1124.61435394314
 20
1991.954532980356
 10
1124.61435394314
 20
1992.982558850038
1001
REVIT
1002
{
1070
     3
1000
924018
1002
}
  0
LINE
  5
2A7
330
295
100
AcDbEntity
  8
M-PIPE
100
AcDbLine
 10
1154.61435394314
 20
1999.982558850052
 30
0.0
 11
1154.61435394314
 21
2030.982558850064
 31
0.0
1001
REVIT
1002
{
1070
     3
1000
924018
1002
}
  0
LINE
  5
2A8
330
295
100
AcDbEntity
  8
M-PIPE
100
AcDbLine
 10
1154.614353943139
 20
1968.982558850041
 30
0.0
 11
1154.61435394314
 21
1999.982558850052
 31
0.0
1001
REVIT
1002
{
1070
     3
1000
924018
1002
}
  0
LINE
  5
2A9
330
295
100
AcDbEntity
  8
P-SANR-FIXT
100
AcDbLine
 10
1026.614353943106
 20
1991.43298433395
 30
0.0
 11
1027.564779427039
 21
1990.482558850017
 31
0.0
  0
LINE
  5
2AA
330
295
100
AcDbEntity
  8
P-SANR-FIXT
100
AcDbLine
 10
1027.564779427039
 20
2009.482558850006
 30
0.0
 11
1026.614353943106
 21
2008.532133366072
 31
0.0
  0
LINE
  5
2AB
330
295
100
AcDbEntity
  8
P-SANR-FIXT
100
AcDbLine
 10
1027.564779427039
 20
1990.482558850017
 30
0.0
 11
1032.614353943106
 21
1990.482558850017
 31
0.0
  0
LINE
  5
2AC
330
295
100
AcDbEntity
  8
P-SANR-FIXT
100
AcDbLine
 10
1032.614353943106
 20
2009.482558850006
 30
0.0
 11
1027.564779427039
 21
2009.482558850006
 31
0.0
  0
LINE
  5
2AD
330
295
100
AcDbEntity
  8
P-SANR-FIXT
100
AcDbLine
 10
1026.614353943105
 20
1991.43298433395
 30
0.0
 11
1026.614353943105
 21
2008.532133366072
 31
0.0
  0
LINE
  5
2AE
330
295
100
AcDbEntity
  8
P-SANR-FIXT
100
AcDbLine
 10
1027.564779427038
 20
1990.482558850015
 30
0.0
 11
1027.564779427038
 21
2009.482558850006
 31
0.0
  0
LINE
  5
2AF
330
295
100
AcDbEntity
  8
P-SANR-FIXT
100
AcDbLine
 10
1032.614353943105
 20
1990.482558850015
 30
0.0
 11
1032.614353943105
 21
2009.482558850006
 31
0.0
  0
ARC
  5
2B0
330
295
100
AcDbEntity
  8
P-SANR-FIXT
100
AcDbCircle
 10
1067.114353943079
 20
1999.982558850011
 30
0.0
 40
19.12435565297471
100
AcDbArc
 50
90.00000000000035
 51
269.9999999999993
  0
ARC
  5
2B1
330
295
100
AcDbEntity
  8
P-SANR-FIXT
100
AcDbCircle
 10
1067.114353943079
 20
1999.982558850011
 30
0.0
 40
19.12435565297483
100
AcDbArc
 50
269.9999999999997
 51
89.99999999999934
  0
SPLINE
  5
2B2
330
295
100
AcDbEntity
  8
P-SANR-FIXT
100
AcDbSpline
210
0.0
220
0.0
230
1.0
 70
     8
 71
     3
 72
    10
 73
     6
 74
     0
 42
0.000000001
 43
0.0000000001
 40
0.0
 40
0.0
 40
0.0
 40
0.0
 40
0.4
 40
0.7
 40
1.0
 40
1.0
 40
1.0
 40
1.0
 10
1087.114353943104
 20
2015.571016118127
 30
0.0
 10
1087.947834737513
 20
2015.089805757111
 30
0.0
 10
1089.254017094465
 20
2013.92511809054
 30
0.0
 10
1090.388291463736
 20
2011.693595494131
 30
0.0
 10
1090.614353943105
 20
2010.232143605719
 30
0.0
 10
1090.614353943105
 20
2009.508838291637
 30
0.0
  0
SPLINE
  5
2B3
330
295
100
AcDbEntity
  8
P-SANR-FIXT
100
AcDbSpline
210
0.0
220
0.0
230
1.0
 70
    24
 71
     3
 72
     9
 73
     5
 74
     0
 42
0.000000001
 43
0.0000000001
 40
0.0
 40
0.0
 40
0.0
 40
0.0
 40
0.5
 40
1.0
 40
1.0
 40
1.0
 40
1.0
 10
1090.614353943105
 20
2009.508838291637
 30
0.0
 10
1090.614353943105
 20
2006.286603375479
 30
0.0
 10
1090.614353943105
 20
1999.888941978781
 30
0.0
 10
1090.614353943105
 20
1993.58489745332
 30
0.0
 10
1090.614353943105
 20
1990.456279408398
 30
0.0
  0
SPLINE
  5
2B4
330
295
100
AcDbEntity
  8
P-SANR-FIXT
100
AcDbSpline
210
0.0
220
0.0
230
1.0
 70
     8
 71
     3
 72
    10
 73
     6
 74
     0
 42
0.000000001
 43
0.0000000001
 40
0.0
 40
0.0
 40
0.0
 40
0.0
 40
0.4
 40
0.7
 40
1.0
 40
1.0
 40
1.0
 40
1.0
 10
1090.614353943105
 20
1990.456279408398
 30
0.0
 10
1090.614353943105
 20
1989.491872322953
 30
0.0
 10
1090.258084290491
 20
1987.778657407841
 30
0.0
 10
1088.89177338994
 20
1985.680415058593
 30
0.0
 10
1087.739464538911
 20
1984.755009352669
 30
0.0
 10
1087.114353943104
 20
1984.394101581907
 30
0.0
  0
SPLINE
  5
2B5
330
295
100
AcDbEntity
  8
P-SANR-FIXT
100
AcDbSpline
210
0.0
220
0.0
230
1.0
 70
    24
 71
     3
 72
     9
 73
     5
 74
     0
 42
0.000000001
 43
0.0000000001
 40
0.0
 40
0.0
 40
0.0
 40
0.0
 40
0.5
 40
1.0
 40
1.0
 40
1.0
 40
1.0
 10
1087.114353943104
 20
1984.394101581907
 30
0.0
 10
1084.323816648751
 20
1982.782984123828
 30
0.0
 10
1078.7832793544
 20
1979.58415342548
 30
0.0
 10
1073.323816648763
 20
1976.432131162749
 30
0.0
 10
1070.614353943122
 20
1974.867822140288
 30
0.0
  0
SPLINE
  5
2B6
330
295
100
AcDbEntity
  8
P-SANR-FIXT
100
AcDbSpline
210
0.0
220
0.0
230
1.0
 70
     8
 71
     3
 72
     9
 73
     5
 74
     0
 42
0.000000001
 43
0.0000000001
 40
0.0
 40
0.0
 40
0.0
 40
0.0
 40
0.5
 40
1.0
 40
1.0
 40
1.0
 40
1.0
 10
1070.614353943122
 20
1974.867822140288
 30
0.0
 10
1070.09211041457
 20
1974.566304698496
 30
0.0
 10
1068.962280056166
 20
1974.094985001401
 30
0.0
 10
1067.733049535906
 20
1973.929999966775
 30
0.0
 10
1067.114353943079
 20
1973.929999966779
 30
0.0
  0
SPLINE
  5
2B7
330
295
100
AcDbEntity
  8
P-SANR-FIXT
100
AcDbSpline
210
0.0
220
0.0
230
1.0
 70
     8
 71
     3
 72
     9
 73
     5
 74
     0
 42
0.000000001
 43
0.0000000001
 40
0.0
 40
0.0
 40
0.0
 40
0.0
 40
0.5
 40
1.0
 40
1.0
 40
1.0
 40
1.0
 10
1067.114353943079
 20
1973.929999966779
 30
0.0
 10
1066.495658350266
 20
1973.929999966782
 30
0.0
 10
1065.266427830037
 20
1974.094985001415
 30
0.0
 10
1064.136597471661
 20
1974.566304698503
 30
0.0
 10
1063.614353943121
 20
1974.867822140288
 30
0.0
  0
SPLINE
  5
2B8
330
295
100
AcDbEntity
  8
P-SANR-FIXT
100
AcDbSpline
210
0.0
220
0.0
230
1.0
 70
    24
 71
     3
 72
     9
 73
     5
 74
     0
 42
0.000000001
 43
0.0000000001
 40
0.0
 40
0.0
 40
0.0
 40
0.0
 40
0.5
 40
1.0
 40
1.0
 40
1.0
 40
1.0
 10
1063.614353943121
 20
1974.867822140288
 30
0.0
 10
1060.823816648768
 20
1976.478939598366
 30
0.0
 10
1055.283279354417
 20
1979.677770296715
 30
0.0
 10
1049.823816648779
 20
1982.829792559445
 30
0.0
 10
1047.114353943138
 20
1984.394101581907
 30
0.0
  0
SPLINE
  5
2B9
330
295
100
AcDbEntity
  8
P-SANR-FIXT
100
AcDbSpline
210
0.0
220
0.0
230
1.0
 70
     8
 71
     3
 72
    10
 73
     6
 74
     0
 42
0.000000001
 43
0.0000000001
 40
0.0
 40
0.0
 40
0.0
 40
0.0
 40
0.4
 40
0.7
 40
1.0
 40
1.0
 40
1.0
 40
1.0
 10
1047.114353943138
 20
1984.394101581907
 30
0.0
 10
1046.279152907554
 20
1984.876305124629
 30
0.0
 10
1044.97360009523
 20
1986.041451151946
 30
0.0
 10
1043.839624367761
 20
1988.273832275915
 30
0.0
 10
1043.614353943138
 20
1989.734463866874
 30
0.0
 10
1043.614353943138
 20
1990.456279408398
 30
0.0
  0
SPLINE
  5
2BA
330
295
100
AcDbEntity
  8
P-SANR-FIXT
100
AcDbSpline
210
0.0
220
0.0
230
1.0
 70
    24
 71
     3
 72
     9
 73
     5
 74
     0
 42
0.000000001
 43
0.0000000001
 40
0.0
 40
0.0
 40
0.0
 40
0.0
 40
0.5
 40
1.0
 40
1.0
 40
1.0
 40
1.0
 10
1043.614353943138
 20
1990.456279408398
 30
0.0
 10
1043.614353943138
 20
1993.678514324556
 30
0.0
 10
1043.614353943138
 20
2000.076175721253
 30
0.0
 10
1043.614353943138
 20
2006.380220246715
 30
0.0
 10
1043.614353943138
 20
2009.508838291636
 30
0.0
  0
SPLINE
  5
2BB
330
295
100
AcDbEntity
  8
P-SANR-FIXT
100
AcDbSpline
210
0.0
220
0.0
230
1.0
 70
     8
 71
     3
 72
    10
 73
     6
 74
     0
 42
0.000000001
 43
0.0000000001
 40
0.0
 40
0.0
 40
0.0
 40
0.0
 40
0.4
 40
0.7
 40
1.0
 40
1.0
 40
1.0
 40
1.0
 10
1043.614353943138
 20
2009.508838291636
 30
0.0
 10
1043.614353943138
 20
2010.473245377081
 30
0.0
 10
1043.970623595752
 20
2012.186460292193
 30
0.0
 10
1045.336934496303
 20
2014.284702641441
 30
0.0
 10
1046.489243347332
 20
2015.210108347365
 30
0.0
 10
1047.114353943138
 20
2015.571016118127
 30
0.0
  0
SPLINE
  5
2BC
330
295
100
AcDbEntity
  8
P-SANR-FIXT
100
AcDbSpline
210
0.0
220
0.0
230
1.0
 70
    24
 71
     3
 72
     9
 73
     5
 74
     0
 42
0.000000001
 43
0.0000000001
 40
0.0
 40
0.0
 40
0.0
 40
0.0
 40
0.5
 40
1.0
 40
1.0
 40
1.0
 40
1.0
 10
1047.114353943138
 20
2015.571016118127
 30
0.0
 10
1049.904891237492
 20
2017.182133576207
 30
0.0
 10
1055.445428531843
 20
2020.380964274555
 30
0.0
 10
1060.904891237481
 20
2023.532986537286
 30
0.0
 10
1063.614353943121
 20
2025.097295559747
 30
0.0
  0
SPLINE
  5
2BD
330
295
100
AcDbEntity
  8
P-SANR-FIXT
100
AcDbSpline
210
0.0
220
0.0
230
1.0
 70
     8
 71
     3
 72
     9
 73
     5
 74
     0
 42
0.000000001
 43
0.0000000001
 40
0.0
 40
0.0
 40
0.0
 40
0.0
 40
0.5
 40
1.0
 40
1.0
 40
1.0
 40
1.0
 10
1063.614353943121
 20
2025.097295559747
 30
0.0
 10
1064.136597471661
 20
2025.398813001531
 30
0.0
 10
1065.266427830037
 20
2025.870132698619
 30
0.0
 10
1066.495658350267
 20
2026.035117733252
 30
0.0
 10
1067.114353943079
 20
2026.035117733256
 30
0.0
  0
SPLINE
  5
2BE
330
295
100
AcDbEntity
  8
P-SANR-FIXT
100
AcDbSpline
210
0.0
220
0.0
230
1.0
 70
     8
 71
     3
 72
     9
 73
     5
 74
     0
 42
0.000000001
 43
0.0000000001
 40
0.0
 40
0.0
 40
0.0
 40
0.0
 40
0.5
 40
1.0
 40
1.0
 40
1.0
 40
1.0
 10
1067.114353943079
 20
2026.035117733256
 30
0.0
 10
1067.733049535906
 20
2026.035117733259
 30
0.0
 10
1068.962280056166
 20
2025.870132698633
 30
0.0
 10
1070.09211041457
 20
2025.398813001538
 30
0.0
 10
1070.614353943121
 20
2025.097295559747
 30
0.0
  0
SPLINE
  5
2BF
330
295
100
AcDbEntity
  8
P-SANR-FIXT
100
AcDbSpline
210
0.0
220
0.0
230
1.0
 70
    24
 71
     3
 72
     9
 73
     5
 74
     0
 42
0.000000001
 43
0.0000000001
 40
0.0
 40
0.0
 40
0.0
 40
0.0
 40
0.5
 40
1.0
 40
1.0
 40
1.0
 40
1.0
 10
1070.614353943121
 20
2025.097295559747
 30
0.0
 10
1073.404891237475
 20
2023.486178101668
 30
0.0
 10
1078.945428531826
 20
2020.287347403319
 30
0.0
 10
1084.404891237464
 20
2017.135325140588
 30
0.0
 10
1087.114353943104
 20
2015.571016118128
 30
0.0
  0
ARC
  5
2C0
330
295
100
AcDbEntity
  8
P-SANR-FIXT
100
AcDbCircle
 10
1067.114353943079
 20
1999.982558850011
 30
0.0
 40
15.08410536517658
100
AcDbArc
 50
90.0
 51
269.9999999999997
  0
ARC
  5
2C1
330
295
100
AcDbEntity
  8
P-SANR-FIXT
100
AcDbCircle
 10
1067.114353943079
 20
1999.982558850011
 30
0.0
 40
15.08410536517681
100
AcDbArc
 50
269.9999999999997
 51
89.99999999999912
  0
ARC
  5
2C2
330
295
100
AcDbEntity
  8
P-SANR-FIXT
100
AcDbCircle
 10
1067.114353943079
 20
1999.982558850011
 30
0.0
 40
16.62500000000136
100
AcDbArc
 50
90.0
 51
269.9999999999997
  0
ARC
  5
2C3
330
295
100
AcDbEntity
  8
P-SANR-FIXT
100
AcDbCircle
 10
1067.114353943079
 20
1999.982558850011
 30
0.0
 40
16.62500000000159
100
AcDbArc
 50
269.9999999999997
 51
89.99999999999921
  0
LINE
  5
2C4
330
295
100
AcDbEntity
  8
P-SANR-FIXT
100
AcDbLine
 10
1054.114353943108
 20
1950.982558850011
 30
0.0
 11
1053.614165852153
 21
1950.693775121053
 31
0.0
  0
LINE
  5
2C5
330
295
100
AcDbEntity
  8
P-SANR-FIXT
100
AcDbLine
 10
1080.614542034009
 20
1950.693775121052
 30
0.0
 11
1080.114353943053
 21
1950.982558850011
 31
0.0
  0
LINE
  5
2C6
330
295
100
AcDbEntity
  8
P-SANR-FIXT
100
AcDbLine
 10
1053.614165852153
 20
1946.271342578937
 30
0.0
 11
1054.114353943081
 21
1945.982558849995
 31
0.0
  0
LINE
  5
2C7
330
295
100
AcDbEntity
  8
P-SANR-FIXT
100
AcDbLine
 10
1080.114353943081
 20
1945.982558849995
 30
0.0
 11
1080.614542034009
 21
1946.271342578938
 31
0.0
  0
LINE
  5
2C8
330
295
100
AcDbEntity
  8
P-SANR-FIXT
100
AcDbLine
 10
1067.114353943079
 20
1945.982558849994
 30
0.0
 11
1054.11435394308
 21
1945.982558849994
 31
0.0
  0
LINE
  5
2C9
330
295
100
AcDbEntity
  8
P-SANR-FIXT
100
AcDbLine
 10
1080.114353943079
 20
1945.982558849994
 30
0.0
 11
1067.11435394308
 21
1945.982558849994
 31
0.0
  0
LINE
  5
2CA
330
295
100
AcDbEntity
  8
P-SANR-FIXT
100
AcDbLine
 10
1055.21805673055
 20
1949.972195878913
 30
0.0
 11
1055.21805673055
 21
1946.992921821076
 31
0.0
  0
SPLINE
  5
2CB
330
295
100
AcDbEntity
  8
P-SANR-FIXT
100
AcDbSpline
210
0.0
220
0.0
230
1.0
 70
     8
 71
     3
 72
     9
 73
     5
 74
     0
 42
0.000000001
 43
0.0000000001
 40
0.0
 40
0.0
 40
0.0
 40
0.0
 40
0.5
 40
1.0
 40
1.0
 40
1.0
 40
1.0
 10
1055.21805673055
 20
1946.992921821076
 30
0.0
 10
1056.962039467924
 20
1946.511831456689
 30
0.0
 10
1060.421454609471
 20
1946.030741092302
 30
0.0
 10
1063.823769084617
 20
1946.511831456689
 30
0.0
 10
1065.51065115559
 20
1946.992921821076
 30
0.0
  0
SPLINE
  5
2CC
330
295
100
AcDbEntity
  8
P-SANR-FIXT
100
AcDbSpline
210
0.0
220
0.0
230
1.0
 70
     8
 71
     3
 72
     9
 73
     5
 74
     0
 42
0.000000001
 43
0.0000000001
 40
0.0
 40
0.0
 40
0.0
 40
0.0
 40
0.5
 40
1.0
 40
1.0
 40
1.0
 40
1.0
 10
1065.51065115559
 20
1949.972195878913
 30
0.0
 10
1063.823769084617
 20
1950.4532862433
 30
0.0
 10
1060.421454609471
 20
1950.934376607687
 30
0.0
 10
1056.962039467924
 20
1950.4532862433
 30
0.0
 10
1055.21805673055
 20
1949.972195878913
 30
0.0
  0
LINE
  5
2CD
330
295
100
AcDbEntity
  8
P-SANR-FIXT
100
AcDbLine
 10
1065.51065115559
 20
1946.992921821076
 30
0.0
 11
1065.51065115559
 21
1949.972195878913
 31
0.0
  0
LINE
  5
2CE
330
295
100
AcDbEntity
  8
P-SANR-FIXT
100
AcDbLine
 10
1065.51065115559
 20
1946.992921821076
 30
0.0
 11
1067.114353943079
 21
1946.992921821076
 31
0.0
  0
LINE
  5
2CF
330
295
100
AcDbEntity
  8
P-SANR-FIXT
100
AcDbLine
 10
1067.114353943079
 20
1946.992921821076
 30
0.0
 11
1068.71805673057
 21
1946.992921821076
 31
0.0
  0
LINE
  5
2D0
330
295
100
AcDbEntity
  8
P-SANR-FIXT
100
AcDbLine
 10
1068.71805673057
 20
1949.972195878913
 30
0.0
 11
1067.11435394308
 21
1949.972195878913
 31
0.0
  0
LINE
  5
2D1
330
295
100
AcDbEntity
  8
P-SANR-FIXT
100
AcDbLine
 10
1067.114353943079
 20
1949.972195878913
 30
0.0
 11
1065.51065115559
 21
1949.972195878913
 31
0.0
  0
LINE
  5
2D2
330
295
100
AcDbEntity
  8
P-SANR-FIXT
100
AcDbLine
 10
1068.71805673057
 20
1946.992921821076
 30
0.0
 11
1068.71805673057
 21
1949.972195878913
 31
0.0
  0
SPLINE
  5
2D3
330
295
100
AcDbEntity
  8
P-SANR-FIXT
100
AcDbSpline
210
0.0
220
0.0
230
1.0
 70
     8
 71
     3
 72
     9
 73
     5
 74
     0
 42
0.000000001
 43
0.0000000001
 40
0.0
 40
0.0
 40
0.0
 40
0.0
 40
0.5
 40
1.0
 40
1.0
 40
1.0
 40
1.0
 10
1068.71805673057
 20
1946.992921821076
 30
0.0
 10
1070.462039467944
 20
1946.511831456689
 30
0.0
 10
1073.921454609491
 20
1946.030741092302
 30
0.0
 10
1077.323769084637
 20
1946.511831456689
 30
0.0
 10
1079.010651155609
 20
1946.992921821076
 30
0.0
  0
SPLINE
  5
2D4
330
295
100
AcDbEntity
  8
P-SANR-FIXT
100
AcDbSpline
210
0.0
220
0.0
230
1.0
 70
     8
 71
     3
 72
     9
 73
     5
 74
     0
 42
0.000000001
 43
0.0000000001
 40
0.0
 40
0.0
 40
0.0
 40
0.0
 40
0.5
 40
1.0
 40
1.0
 40
1.0
 40
1.0
 10
1079.010651155609
 20
1949.972195878913
 30
0.0
 10
1077.323769084637
 20
1950.4532862433
 30
0.0
 10
1073.921454609491
 20
1950.934376607687
 30
0.0
 10
1070.462039467944
 20
1950.4532862433
 30
0.0
 10
1068.71805673057
 20
1949.972195878913
 30
0.0
  0
LINE
  5
2D5
330
295
100
AcDbEntity
  8
P-SANR-FIXT
100
AcDbLine
 10
1079.010651155609
 20
1946.992921821076
 30
0.0
 11
1079.010651155609
 21
1949.972195878913
 31
0.0
  0
LINE
  5
2D6
330
295
100
AcDbEntity
  8
P-SANR-FIXT
100
AcDbLine
 10
1079.010651155609
 20
1946.992921821076
 30
0.0
 11
1080.614353943099
 21
1946.992921821076
 31
0.0
  0
LINE
  5
2D7
330
295
100
AcDbEntity
  8
P-SANR-FIXT
100
AcDbLine
 10
1080.614353943099
 20
1949.972195878913
 30
0.0
 11
1079.010651155609
 21
1949.972195878913
 31
0.0
  0
LINE
  5
2D8
330
295
100
AcDbEntity
  8
P-SANR-FIXT
100
AcDbLine
 10
1080.614353943099
 20
1946.992921821076
 30
0.0
 11
1080.614353943099
 21
1949.972195878913
 31
0.0
  0
SPLINE
  5
2D9
330
295
100
AcDbEntity
  8
P-SANR-FIXT
100
AcDbSpline
210
0.0
220
0.0
230
1.0
 70
    24
 71
     3
 72
     8
 73
     4
 74
     0
 42
0.000000001
 43
0.0000000001
 40
0.0
 40
0.0
 40
0.0
 40
0.0
 40
0.5
 40
0.5
 40
0.5
 40
0.5
 10
1080.614353943099
 20
1946.992921821076
 30
0.0
 10
1080.614353943099
 20
1946.511831456689
 30
0.0
 10
1080.614353943099
 20
1946.271286274496
 30
0.0
 10
1080.614353943099
 20
1946.271286274496
 30
0.0
  0
SPLINE
  5
2DA
330
295
100
AcDbEntity
  8
P-SANR-FIXT
100
AcDbSpline
210
0.0
220
0.0
230
1.0
 70
    24
 71
     3
 72
     8
 73
     4
 74
     0
 42
0.000000001
 43
0.0000000001
 40
0.5
 40
0.5
 40
0.5
 40
0.5
 40
1.0
 40
1.0
 40
1.0
 40
1.0
 10
1080.614353943099
 20
1950.693831425493
 30
0.0
 10
1080.614353943099
 20
1950.693831425493
 30
0.0
 10
1080.614353943099
 20
1950.4532862433
 30
0.0
 10
1080.614353943099
 20
1949.972195878913
 30
0.0
  0
SPLINE
  5
2DB
330
295
100
AcDbEntity
  8
P-SANR-FIXT
100
AcDbSpline
210
0.0
220
0.0
230
1.0
 70
    24
 71
     3
 72
     9
 73
     5
 74
     0
 42
0.000000001
 43
0.0000000001
 40
0.4955834579152582
 40
0.4955834579152582
 40
0.4955834579152582
 40
0.4955834579152582
 40
0.5
 40
1.0
 40
1.0
 40
1.0
 40
1.0
 10
1053.61435394306
 20
1946.271342578937
 30
0.0
 10
1053.61435394306
 20
1946.271305042643
 30
0.0
 10
1053.61435394306
 20
1946.269161518655
 30
0.0
 10
1053.614353943037
 20
1946.511831456837
 30
0.0
 10
1053.61435394306
 20
1946.992921821076
 30
0.0
  0
SPLINE
  5
2DC
330
295
100
AcDbEntity
  8
P-SANR-FIXT
100
AcDbSpline
210
0.0
220
0.0
230
1.0
 70
    24
 71
     3
 72
     9
 73
     5
 74
     0
 42
0.000000001
 43
0.0000000001
 40
0.0
 40
0.0
 40
0.0
 40
0.0
 40
0.5
 40
0.5044165420847529
 40
0.5044165420847529
 40
0.5044165420847529
 40
0.5044165420847529
 10
1053.61435394306
 20
1949.972195878913
 30
0.0
 10
1053.61435394306
 20
1950.4532862433
 30
0.0
 10
1053.61435394306
 20
1950.695956181335
 30
0.0
 10
1053.61435394306
 20
1950.693812657347
 30
0.0
 10
1053.61435394306
 20
1950.693775121052
 30
0.0
  0
LINE
  5
2DD
330
295
100
AcDbEntity
  8
P-SANR-FIXT
100
AcDbLine
 10
1055.21805673055
 20
1949.972195878913
 30
0.0
 11
1053.61435394306
 21
1949.972195878913
 31
0.0
  0
LINE
  5
2DE
330
295
100
AcDbEntity
  8
P-SANR-FIXT
100
AcDbLine
 10
1053.61435394306
 20
1946.992921821076
 30
0.0
 11
1053.61435394306
 21
1949.972195878913
 31
0.0
  0
LINE
  5
2DF
330
295
100
AcDbEntity
  8
P-SANR-FIXT
100
AcDbLine
 10
1053.61435394306
 20
1946.992921821076
 30
0.0
 11
1055.21805673055
 21
1946.992921821076
 31
0.0
  0
LINE
  5
2E0
330
295
100
AcDbEntity
  8
P-SANR-FIXT
100
AcDbLine
 10
1049.114353943081
 20
2053.282558850038
 30
0.0
 11
1048.864095653633
 21
2053.138072159258
 31
0.0
  0
LINE
  5
2E1
330
295
100
AcDbEntity
  8
P-SANR-FIXT
100
AcDbLine
 10
1085.364612232526
 20
2053.13807215926
 30
0.0
 11
1085.11435394308
 21
2053.282558850038
 31
0.0
  0
LINE
  5
2E2
330
295
100
AcDbEntity
  8
P-SANR-FIXT
100
AcDbLine
 10
1047.114353943081
 20
2039.828076178137
 30
0.0
 11
1038.726125375427
 21
2037.580457107507
 31
0.0
  0
LINE
  5
2E3
330
295
100
AcDbEntity
  8
P-SANR-FIXT
100
AcDbLine
 10
1095.502582510734
 20
2037.580457107507
 30
0.0
 11
1087.114353943079
 21
2039.828076178138
 31
0.0
  0
LWPOLYLINE
  5
2E4
330
295
100
AcDbEntity
  8
P-SANR-FIXT
100
AcDbPolyline
 90
       34
 70
   128
 43
0.0
 10
1037.61435394308
 20
2036.131568368073
 10
1037.615553783089
 20
2036.191552369353
 10
1037.619151383627
 20
2036.251440409027
 10
1037.6251409893
 20
2036.311136679007
 10
1037.633513018017
 20
2036.370545677995
 10
1037.644254076319
 20
2036.429572364266
 10
1037.657346980803
 20
2036.488122307714
 10
1037.672770785614
 20
2036.546101840919
 10
1037.690500815957
 20
2036.603418208997
 10
1037.710508707563
 20
2036.659979717986
 10
1037.732762452076
 20
2036.715695881536
 10
1037.757226448251
 20
2036.770477565672
 10
1037.783861558912
 20
2036.824237131385
 10
1037.812625173564
 20
2036.876888574838
 10
1037.84347127656
 20
2036.928347664954
 10
1037.876350520716
 20
2036.978532078165
 10
1037.911210306254
 20
2037.027361530117
 10
1037.947994864954
 20
2037.0747579041
 10
1037.986645349369
 20
2037.12064537603
 10
1038.027099926969
 20
2037.164950535739
 10
1038.06929387906
 20
2037.207602504422
 10
1038.113159704318
 20
2037.24853304803
 10
1038.158627226783
 20
2037.287676686422
 10
1038.205623708115
 20
2037.324970798128
 10
1038.254073963972
 20
2037.360355720525
 10
1038.303900484278
 20
2037.393774845285
 10
1038.355023557231
 20
2037.425174708938
 10
1038.40736139682
 20
2037.454505078401
 10
1038.460830273665
 20
2037.481719031338
 10
1038.515344648971
 20
2037.506773031231
 10
1038.570817311366
 20
2037.529626997024
 10
1038.627159516422
 20
2037.550244367247
 10
1038.684281128632
 20
2037.568592158507
 10
1038.726125375427
 20
2037.580457107507
  0
LWPOLYLINE
  5
2E5
330
295
100
AcDbEntity
  8
P-SANR-FIXT
100
AcDbPolyline
 90
       34
 70
   128
 43
0.0
 10
1095.502582510734
 20
2037.580457107507
 10
1095.56021206529
 20
2037.563773149122
 10
1095.61712834196
 20
2037.544797968609
 10
1095.673240286846
 20
2037.523561922208
 10
1095.728458132804
 20
2037.500098983063
 10
1095.782693543061
 20
2037.474446686871
 10
1095.835859752529
 20
2037.446646071835
 10
1095.887871706615
 20
2037.416741613008
 10
1095.938646197288
 20
2037.384781151144
 10
1095.988101996194
 20
2037.350815816166
 10
1096.036159984604
 20
2037.314899945363
 10
1096.08274327999
 20
2037.277090996466
 10
1096.127777359015
 20
2037.23744945573
 10
1096.171190176759
 20
2037.196038741162
 10
1096.212912281977
 20
2037.152925101072
 10
1096.252876928199
 20
2037.108177508087
 10
1096.291020180516
 20
2037.06186754881
 10
1096.327281017863
 20
2037.014069309297
 10
1096.361601430633
 20
2036.964859256535
 10
1096.393926513489
 20
2036.91431611611
 10
1096.424204553194
 20
2036.862520746266
 10
1096.452387111342
 20
2036.809556008546
 10
1096.478429101852
 20
2036.75550663523
 10
1096.502288863096
 20
2036.700459093786
 10
1096.523928224545
 20
2036.644501448538
 10
1096.543312567836
 20
2036.587723219781
 10
1096.560410882156
 20
2036.53021524057
 10
1096.57519581385
 20
2036.472069511402
 10
1096.587643710179
 20
2036.413379053042
 10
1096.597734657167
 20
2036.354237757702
 10
1096.605452511449
 20
2036.294740238838
 10
1096.610784926106
 20
2036.23498167979
 10
1096.613723370412
 20
2036.175057681504
 10
1096.614353943081
 20
2036.131568368073
  0
LINE
  5
2E6
330
295
100
AcDbEntity
  8
P-SANR-FIXT
100
AcDbLine
 10
1037.614353943081
 20
2036.131568368073
 30
0.0
 11
1037.614353943081
 21
2034.782558850009
 31
0.0
  0
LINE
  5
2E7
330
295
100
AcDbEntity
  8
P-SANR-FIXT
100
AcDbLine
 10
1096.61435394308
 20
2034.782558850009
 30
0.0
 11
1096.61435394308
 21
2036.131568368073
 31
0.0
  0
LINE
  5
2E8
330
295
100
AcDbEntity
  8
P-SANR-FIXT
100
AcDbLine
 10
1049.114353943081
 20
2107.282558850039
 30
0.0
 11
1049.114353943081
 21
2053.282558850038
 31
0.0
  0
LINE
  5
2E9
330
295
100
AcDbEntity
  8
P-SANR-FIXT
100
AcDbLine
 10
1085.11435394308
 20
2053.282558850038
 30
0.0
 11
1085.11435394308
 21
2107.282558850039
 31
0.0
  0
LINE
  5
2EA
330
295
100
AcDbEntity
  8
P-SANR-FIXT
100
AcDbLine
 10
1065.074770303501
 20
2052.127858311658
 30
0.0
 11
1065.074770303501
 21
2039.828076178137
 31
0.0
  0
LINE
  5
2EB
330
295
100
AcDbEntity
  8
P-SANR-FIXT
100
AcDbLine
 10
1065.074770303501
 20
2039.828076178137
 30
0.0
 11
1067.114353943079
 21
2039.828076178137
 31
0.0
  0
LINE
  5
2EC
330
295
100
AcDbEntity
  8
P-SANR-FIXT
100
AcDbLine
 10
1067.114353943079
 20
2039.828076178137
 30
0.0
 11
1069.153937582655
 21
2039.828076178137
 31
0.0
  0
LINE
  5
2ED
330
295
100
AcDbEntity
  8
P-SANR-FIXT
100
AcDbLine
 10
1069.153937582655
 20
2052.127858311658
 30
0.0
 11
1067.114353943079
 21
2052.127858311658
 31
0.0
  0
LINE
  5
2EE
330
295
100
AcDbEntity
  8
P-SANR-FIXT
100
AcDbLine
 10
1067.114353943079
 20
2052.127858311658
 30
0.0
 11
1065.074770303501
 21
2052.127858311658
 31
0.0
  0
LINE
  5
2EF
330
295
100
AcDbEntity
  8
P-SANR-FIXT
100
AcDbLine
 10
1069.153937582655
 20
2039.828076178137
 30
0.0
 11
1069.153937582655
 21
2052.127858311658
 31
0.0
  0
LINE
  5
2F0
330
295
100
AcDbEntity
  8
P-SANR-FIXT
100
AcDbLine
 10
1083.261809766074
 20
2039.828076178137
 30
0.0
 11
1083.324770303484
 21
2039.828076178137
 31
0.0
  0
SPLINE
  5
2F1
330
295
100
AcDbEntity
  8
P-SANR-FIXT
100
AcDbSpline
210
0.0
220
0.0
230
1.0
 70
     8
 71
     3
 72
     9
 73
     5
 74
     0
 42
0.000000001
 43
0.0000000001
 40
0.0
 40
0.0
 40
0.0
 40
0.0
 40
0.5
 40
1.0
 40
1.0
 40
1.0
 40
1.0
 10
1083.324770303484
 20
2052.127858311659
 30
0.0
 10
1081.001838793218
 20
2052.801385818639
 30
0.0
 10
1076.317101829481
 20
2053.47491332562
 30
0.0
 10
1071.554616979332
 20
2052.801385818639
 30
0.0
 10
1069.153937582655
 20
2052.127858311658
 30
0.0
  0
LINE
  5
2F2
330
295
100
AcDbEntity
  8
P-SANR-FIXT
100
AcDbLine
 10
1083.324770303484
 20
2039.828076178137
 30
0.0
 11
1083.324770303484
 21
2052.127858311659
 31
0.0
  0
LINE
  5
2F3
330
295
100
AcDbEntity
  8
P-SANR-FIXT
100
AcDbLine
 10
1083.324770303484
 20
2039.828076178137
 30
0.0
 11
1085.364353943061
 21
2039.828076178137
 31
0.0
  0
LINE
  5
2F4
330
295
100
AcDbEntity
  8
P-SANR-FIXT
100
AcDbLine
 10
1085.364353943061
 20
2052.127858311658
 30
0.0
 11
1083.324770303484
 21
2052.127858311658
 31
0.0
  0
LINE
  5
2F5
330
295
100
AcDbEntity
  8
P-SANR-FIXT
100
AcDbLine
 10
1085.364353943061
 20
2039.828076178137
 30
0.0
 11
1085.364353943061
 21
2052.127858311659
 31
0.0
  0
SPLINE
  5
2F6
330
295
100
AcDbEntity
  8
P-SANR-FIXT
100
AcDbSpline
210
0.0
220
0.0
230
1.0
 70
    24
 71
     3
 72
     8
 73
     4
 74
     0
 42
0.000000001
 43
0.0000000001
 40
0.5
 40
0.5
 40
0.5
 40
0.5
 40
1.0
 40
1.0
 40
1.0
 40
1.0
 10
1085.364353943061
 20
2053.13814957213
 30
0.0
 10
1085.364353943061
 20
2053.13814957213
 30
0.0
 10
1085.364353943061
 20
2052.801385818639
 30
0.0
 10
1085.364353943061
 20
2052.127858311659
 30
0.0
  0
SPLINE
  5
2F7
330
295
100
AcDbEntity
  8
P-SANR-FIXT
100
AcDbSpline
210
0.0
220
0.0
230
1.0
 70
    24
 71
     3
 72
     9
 73
     5
 74
     0
 42
0.000000001
 43
0.0000000001
 40
0.0
 40
0.0
 40
0.0
 40
0.0
 40
0.5
 40
0.5043767656529142
 40
0.5043767656529142
 40
0.5043767656529142
 40
0.5043767656529142
 10
1048.864353943095
 20
2052.127858311658
 30
0.0
 10
1048.864353943095
 20
2052.801385818638
 30
0.0
 10
1048.864353943095
 20
2053.141097444188
 30
0.0
 10
1048.864353943095
 20
2053.138123767839
 30
0.0
 10
1048.864353943095
 20
2053.138072159258
 30
0.0
  0
LINE
  5
2F8
330
295
100
AcDbEntity
  8
P-SANR-FIXT
100
AcDbLine
 10
1048.864353943095
 20
2039.828076178137
 30
0.0
 11
1048.864353943095
 21
2052.127858311658
 31
0.0
  0
LINE
  5
2F9
330
295
100
AcDbEntity
  8
P-SANR-FIXT
100
AcDbLine
 10
1048.864353943095
 20
2039.828076178137
 30
0.0
 11
1050.903937582672
 21
2039.828076178137
 31
0.0
  0
LINE
  5
2FA
330
295
100
AcDbEntity
  8
P-SANR-FIXT
100
AcDbLine
 10
1050.903937582672
 20
2052.127858311658
 30
0.0
 11
1048.864353943095
 21
2052.127858311658
 31
0.0
  0
SPLINE
  5
2FB
330
295
100
AcDbEntity
  8
P-SANR-FIXT
100
AcDbSpline
210
0.0
220
0.0
230
1.0
 70
     8
 71
     3
 72
     9
 73
     5
 74
     0
 42
0.000000001
 43
0.0000000001
 40
0.0
 40
0.0
 40
0.0
 40
0.0
 40
0.5
 40
1.0
 40
1.0
 40
1.0
 40
1.0
 10
1065.074770303501
 20
2052.127858311658
 30
0.0
 10
1062.674090906824
 20
2052.801385818639
 30
0.0
 10
1057.911606056675
 20
2053.474913325619
 30
0.0
 10
1053.226869092938
 20
2052.801385818638
 30
0.0
 10
1050.903937582672
 20
2052.127858311658
 30
0.0
  0
LINE
  5
2FC
330
295
100
AcDbEntity
  8
P-SANR-FIXT
100
AcDbLine
 10
1050.903937582672
 20
2039.828076178137
 30
0.0
 11
1050.903937582672
 21
2052.127858311658
 31
0.0
  0
LINE
  5
2FD
330
295
100
AcDbEntity
  8
P-SANR-FIXT
100
AcDbLine
 10
1067.114353943079
 20
2053.282558850037
 30
0.0
 11
1054.386431881721
 21
2053.282558850037
 31
0.0
  0
LINE
  5
2FE
330
295
100
AcDbEntity
  8
P-SANR-FIXT
100
AcDbLine
 10
1054.386431881721
 20
2053.282558850037
 30
0.0
 11
1049.11435394308
 21
2053.282558850037
 31
0.0
  0
LINE
  5
2FF
330
295
100
AcDbEntity
  8
P-SANR-FIXT
100
AcDbLine
 10
1085.114353943079
 20
2053.282558850037
 30
0.0
 11
1079.842276004437
 21
2053.282558850037
 31
0.0
  0
LINE
  5
300
330
295
100
AcDbEntity
  8
P-SANR-FIXT
100
AcDbLine
 10
1079.842276004437
 20
2053.282558850037
 30
0.0
 11
1067.11435394308
 21
2053.282558850037
 31
0.0
  0
LINE
  5
301
330
295
100
AcDbEntity
  8
P-SANR-FIXT
100
AcDbLine
 10
1067.114353943079
 20
2034.782558850008
 30
0.0
 11
1064.799810619108
 21
2034.782558850008
 31
0.0
  0
LINE
  5
302
330
295
100
AcDbEntity
  8
P-SANR-FIXT
100
AcDbLine
 10
1064.542291091825
 20
2034.782558850008
 30
0.0
 11
1062.499537224393
 21
2034.782558850008
 31
0.0
  0
LINE
  5
303
330
295
100
AcDbEntity
  8
P-SANR-FIXT
100
AcDbLine
 10
1061.988764548409
 20
2034.782558850008
 30
0.0
 11
1059.616082353382
 21
2034.782558850008
 31
0.0
  0
LINE
  5
304
330
295
100
AcDbEntity
  8
P-SANR-FIXT
100
AcDbLine
 10
1059.473768812205
 20
2034.782558850008
 30
0.0
 11
1057.998352609018
 21
2034.782558850008
 31
0.0
  0
LINE
  5
305
330
295
100
AcDbEntity
  8
P-SANR-FIXT
100
AcDbLine
 10
1057.017001683973
 20
2034.782558850008
 30
0.0
 11
1055.825192688309
 21
2034.782558850008
 31
0.0
  0
LINE
  5
306
330
295
100
AcDbEntity
  8
P-SANR-FIXT
100
AcDbLine
 10
1054.637698778816
 20
2034.782558850008
 30
0.0
 11
1052.354471355307
 21
2034.782558850008
 31
0.0
  0
LINE
  5
307
330
295
100
AcDbEntity
  8
P-SANR-FIXT
100
AcDbLine
 10
1051.73967818338
 20
2034.782558850008
 30
0.0
 11
1050.185148310398
 21
2034.782558850008
 31
0.0
  0
LINE
  5
308
330
295
100
AcDbEntity
  8
P-SANR-FIXT
100
AcDbLine
 10
1049.774689000452
 20
2034.782558850008
 30
0.0
 11
1048.146622867288
 21
2034.782558850008
 31
0.0
  0
LINE
  5
309
330
295
100
AcDbEntity
  8
P-SANR-FIXT
100
AcDbLine
 10
1047.955636517339
 20
2034.782558850008
 30
0.0
 11
1044.682377957879
 21
2034.782558850008
 31
0.0
  0
LINE
  5
30A
330
295
100
AcDbEntity
  8
P-SANR-FIXT
100
AcDbLine
 10
1044.508775866631
 20
2034.782558850008
 30
0.0
 11
1043.248352609019
 21
2034.782558850008
 31
0.0
  0
LINE
  5
30B
330
295
100
AcDbEntity
  8
P-SANR-FIXT
100
AcDbLine
 10
1042.935941290808
 20
2034.782558850008
 30
0.0
 11
1041.961469094634
 21
2034.782558850008
 31
0.0
  0
LINE
  5
30C
330
295
100
AcDbEntity
  8
P-SANR-FIXT
100
AcDbLine
 10
1041.54861384143
 20
2034.782558850008
 30
0.0
 11
1040.579327467899
 21
2034.782558850008
 31
0.0
  0
LINE
  5
30D
330
295
100
AcDbEntity
  8
P-SANR-FIXT
100
AcDbLine
 10
1040.141647978972
 20
2034.782558850008
 30
0.0
 11
1039.59419309751
 21
2034.782558850008
 31
0.0
  0
LINE
  5
30E
330
295
100
AcDbEntity
  8
P-SANR-FIXT
100
AcDbLine
 10
1039.23691725831
 20
2034.782558850008
 30
0.0
 11
1038.797973046507
 21
2034.782558850008
 31
0.0
  0
LINE
  5
30F
330
295
100
AcDbEntity
  8
P-SANR-FIXT
100
AcDbLine
 10
1038.529431015693
 20
2034.782558850008
 30
0.0
 11
1038.196321737311
 21
2034.782558850008
 31
0.0
  0
LINE
  5
310
330
295
100
AcDbEntity
  8
P-SANR-FIXT
100
AcDbLine
 10
1038.021800599643
 20
2034.782558850008
 30
0.0
 11
1037.794383449863
 21
2034.782558850008
 31
0.0
  0
LINE
  5
311
330
295
100
AcDbEntity
  8
P-SANR-FIXT
100
AcDbLine
 10
1037.720082396958
 20
2034.782558850008
 30
0.0
 11
1037.614353943079
 21
2034.782558850008
 31
0.0
  0
LINE
  5
312
330
295
100
AcDbEntity
  8
P-SANR-FIXT
100
AcDbLine
 10
1096.614353943079
 20
2034.782558850008
 30
0.0
 11
1096.512397951335
 21
2034.782558850008
 31
0.0
  0
LINE
  5
313
330
295
100
AcDbEntity
  8
P-SANR-FIXT
100
AcDbLine
 10
1096.434324436296
 20
2034.782558850008
 30
0.0
 11
1096.206907286516
 21
2034.782558850008
 31
0.0
  0
LINE
  5
314
330
295
100
AcDbEntity
  8
P-SANR-FIXT
100
AcDbLine
 10
1096.032386148849
 20
2034.782558850008
 30
0.0
 11
1095.699276870464
 21
2034.782558850008
 31
0.0
  0
LINE
  5
315
330
295
100
AcDbEntity
  8
P-SANR-FIXT
100
AcDbLine
 10
1095.430734839652
 20
2034.782558850008
 30
0.0
 11
1095.090670251081
 21
2034.782558850008
 31
0.0
  0
LINE
  5
316
330
295
100
AcDbEntity
  8
P-SANR-FIXT
100
AcDbLine
 10
1094.634514788648
 20
2034.782558850008
 30
0.0
 11
1094.087059907187
 21
2034.782558850008
 31
0.0
  0
LINE
  5
317
330
295
100
AcDbEntity
  8
P-SANR-FIXT
100
AcDbLine
 10
1093.649380418263
 20
2034.782558850008
 30
0.0
 11
1092.680094044728
 21
2034.782558850008
 31
0.0
  0
LINE
  5
318
330
295
100
AcDbEntity
  8
P-SANR-FIXT
100
AcDbLine
 10
1092.267238791525
 20
2034.782558850008
 30
0.0
 11
1091.29276659535
 21
2034.782558850008
 31
0.0
  0
LINE
  5
319
330
295
100
AcDbEntity
  8
P-SANR-FIXT
100
AcDbLine
 10
1091.150380975622
 20
2034.782558850008
 30
0.0
 11
1089.719932019527
 21
2034.782558850008
 31
0.0
  0
LINE
  5
31A
330
295
100
AcDbEntity
  8
P-SANR-FIXT
100
AcDbLine
 10
1089.54632992828
 20
2034.782558850008
 30
0.0
 11
1086.27307136882
 21
2034.782558850008
 31
0.0
  0
LINE
  5
31B
330
295
100
AcDbEntity
  8
P-SANR-FIXT
100
AcDbLine
 10
1086.08208501887
 20
2034.782558850008
 30
0.0
 11
1084.454018885707
 21
2034.782558850008
 31
0.0
  0
LINE
  5
31C
330
295
100
AcDbEntity
  8
P-SANR-FIXT
100
AcDbLine
 10
1084.04355957576
 20
2034.782558850008
 30
0.0
 11
1082.5280616022
 21
2034.782558850008
 31
0.0
  0
LINE
  5
31D
330
295
100
AcDbEntity
  8
P-SANR-FIXT
100
AcDbLine
 10
1081.874236530852
 20
2034.782558850008
 30
0.0
 11
1079.591009107342
 21
2034.782558850008
 31
0.0
  0
LINE
  5
31E
330
295
100
AcDbEntity
  8
P-SANR-FIXT
100
AcDbLine
 10
1078.403515197849
 20
2034.782558850008
 30
0.0
 11
1077.211706202185
 21
2034.782558850008
 31
0.0
  0
LINE
  5
31F
330
295
100
AcDbEntity
  8
P-SANR-FIXT
100
AcDbLine
 10
1076.23035527714
 20
2034.782558850008
 30
0.0
 11
1074.754939073953
 21
2034.782558850008
 31
0.0
  0
LINE
  5
320
330
295
100
AcDbEntity
  8
P-SANR-FIXT
100
AcDbLine
 10
1074.000992176828
 20
2034.782558850008
 30
0.0
 11
1072.239943337749
 21
2034.782558850008
 31
0.0
  0
LINE
  5
321
330
295
100
AcDbEntity
  8
P-SANR-FIXT
100
AcDbLine
 10
1071.729170661766
 20
2034.782558850008
 30
0.0
 11
1069.686416794333
 21
2034.782558850008
 31
0.0
  0
LINE
  5
322
330
295
100
AcDbEntity
  8
P-SANR-FIXT
100
AcDbLine
 10
1069.428897267051
 20
2034.782558850008
 30
0.0
 11
1067.11435394308
 21
2034.782558850008
 31
0.0
  0
LINE
  5
323
330
295
100
AcDbEntity
  8
P-SANR-FIXT
100
AcDbLine
 10
1050.903937582673
 20
2039.828076178137
 30
0.0
 11
1065.074770303501
 21
2039.828076178137
 31
0.0
  0
LINE
  5
324
330
295
100
AcDbEntity
  8
P-SANR-FIXT
100
AcDbLine
 10
1047.114353943079
 20
2039.828076178137
 30
0.0
 11
1048.864353943095
 21
2039.828076178137
 31
0.0
  0
LINE
  5
325
330
295
100
AcDbEntity
  8
P-SANR-FIXT
100
AcDbLine
 10
1085.364353943061
 20
2039.828076178137
 30
0.0
 11
1087.114353943077
 21
2039.828076178137
 31
0.0
  0
LINE
  5
326
330
295
100
AcDbEntity
  8
P-SANR-FIXT
100
AcDbLine
 10
1069.153937582655
 20
2039.828076178137
 30
0.0
 11
1083.324770303484
 21
2039.828076178137
 31
0.0
  0
LINE
  5
327
330
295
100
AcDbEntity
  8
P-SANR-FIXT
100
AcDbLine
 10
1049.11435394308
 20
2107.282558850038
 30
0.0
 11
1067.114353943079
 21
2107.282558850038
 31
0.0
  0
LINE
  5
328
330
295
100
AcDbEntity
  8
P-SANR-FIXT
100
AcDbLine
 10
1067.114353943079
 20
2107.282558850038
 30
0.0
 11
1085.114353943079
 21
2107.282558850038
 31
0.0
  0
LINE
  5
329
330
295
100
AcDbEntity
  8
P-SANR-FIXT
100
AcDbLine
 10
1049.364353943081
 20
2110.912888204047
 30
0.0
 11
1049.364353943081
 21
2107.98255885006
 31
0.0
  0
LINE
  5
32A
330
295
100
AcDbEntity
  8
P-SANR-FIXT
100
AcDbLine
 10
1084.864353943081
 20
2107.98255885006
 30
0.0
 11
1084.864353943081
 21
2110.912888204047
 31
0.0
  0
LINE
  5
32B
330
295
100
AcDbEntity
  8
P-SANR-FIXT
100
AcDbLine
 10
1049.364353943081
 20
2107.98255885006
 30
0.0
 11
1050.064353943102
 21
2107.282558850039
 31
0.0
  0
LINE
  5
32C
330
295
100
AcDbEntity
  8
P-SANR-FIXT
100
AcDbLine
 10
1084.16435394306
 20
2107.282558850039
 30
0.0
 11
1084.864353943081
 21
2107.98255885006
 31
0.0
  0
LINE
  5
32D
330
295
100
AcDbEntity
  8
P-SANR-FIXT
100
AcDbLine
 10
1049.934024589092
 20
2111.48255885006
 30
0.0
 11
1049.364353943081
 21
2110.912888204047
 31
0.0
  0
LINE
  5
32E
330
295
100
AcDbEntity
  8
P-SANR-FIXT
100
AcDbLine
 10
1084.864353943081
 20
2110.912888204047
 30
0.0
 11
1084.294683297069
 21
2111.48255885006
 31
0.0
  0
LINE
  5
32F
330
295
100
AcDbEntity
  8
P-SANR-FIXT
100
AcDbLine
 10
1067.114353943079
 20
2110.912888204047
 30
0.0
 11
1049.364353943079
 21
2110.912888204047
 31
0.0
  0
LINE
  5
330
330
295
100
AcDbEntity
  8
P-SANR-FIXT
100
AcDbLine
 10
1084.864353943079
 20
2110.912888204047
 30
0.0
 11
1067.114353943079
 21
2110.912888204047
 31
0.0
  0
LINE
  5
331
330
295
100
AcDbEntity
  8
P-SANR-FIXT
100
AcDbLine
 10
1049.364353943079
 20
2107.982558850059
 30
0.0
 11
1067.114353943079
 21
2107.982558850059
 31
0.0
  0
LINE
  5
332
330
295
100
AcDbEntity
  8
P-SANR-FIXT
100
AcDbLine
 10
1067.114353943079
 20
2107.982558850059
 30
0.0
 11
1084.864353943079
 21
2107.982558850059
 31
0.0
  0
LINE
  5
333
330
295
100
AcDbEntity
  8
P-SANR-FIXT
100
AcDbLine
 10
1049.934024589091
 20
2111.482558850059
 30
0.0
 11
1067.114353943079
 21
2111.482558850059
 31
0.0
  0
LINE
  5
334
330
295
100
AcDbEntity
  8
P-SANR-FIXT
100
AcDbLine
 10
1067.114353943079
 20
2111.482558850059
 30
0.0
 11
1084.294683297068
 21
2111.482558850059
 31
0.0
  0
LINE
  5
335
330
295
100
AcDbEntity
  8
P-SANR-FIXT
100
AcDbLine
 10
1052.86435394308
 20
1960.238971215058
 30
0.0
 11
1052.86435394308
 21
1951.482558850011
 31
0.0
  0
LINE
  5
336
330
295
100
AcDbEntity
  8
P-SANR-FIXT
100
AcDbLine
 10
1081.364353943081
 20
1951.482558850011
 30
0.0
 11
1081.364353943081
 21
1960.238971215058
 31
0.0
  0
LINE
  5
337
330
295
100
AcDbEntity
  8
P-SANR-FIXT
100
AcDbLine
 10
1045.11435394308
 20
1986.16024471677
 30
0.0
 11
1045.11435394308
 21
1969.982558850011
 31
0.0
  0
LINE
  5
338
330
295
100
AcDbEntity
  8
P-SANR-FIXT
100
AcDbLine
 10
1089.11435394308
 20
1969.982558850011
 30
0.0
 11
1089.11435394308
 21
1986.160041005571
 31
0.0
  0
LINE
  5
339
330
295
100
AcDbEntity
  8
P-SANR-FIXT
100
AcDbLine
 10
1043.61435394308
 20
1990.456279408398
 30
0.0
 11
1043.61435394308
 21
1988.443360081346
 31
0.0
  0
LINE
  5
33A
330
295
100
AcDbEntity
  8
P-SANR-FIXT
100
AcDbLine
 10
1090.614353943081
 20
1988.443360081346
 30
0.0
 11
1090.614353943081
 21
1990.456279408398
 31
0.0
  0
LINE
  5
33B
330
295
100
AcDbEntity
  8
P-SANR-FIXT
100
AcDbLine
 10
1037.11435394308
 20
2034.282558850011
 30
0.0
 11
1037.11435394308
 21
2012.982558850011
 31
0.0
  0
LINE
  5
33C
330
295
100
AcDbEntity
  8
P-SANR-FIXT
100
AcDbLine
 10
1097.114353943081
 20
2012.982558850011
 30
0.0
 11
1097.114353943081
 21
2034.282558850011
 31
0.0
  0
LWPOLYLINE
  5
33D
330
295
100
AcDbEntity
  8
P-SANR-FIXT
100
AcDbPolyline
 90
       35
 70
   128
 43
0.0
 10
1052.86435394308
 20
1960.238971215058
 10
1052.862754156402
 20
1960.318949883432
 10
1052.857957355686
 20
1960.398800602997
 10
1052.849971214788
 20
1960.478395629636
 10
1052.838808509832
 20
1960.557607628287
 10
1052.824487098763
 20
1960.636309876649
 10
1052.807029892785
 20
1960.714376467913
 10
1052.786464819702
 20
1960.791682512187
 10
1052.762824779245
 20
1960.868104336291
 10
1052.736147590437
 20
1960.943519681609
 10
1052.706475931086
 20
1961.017807899676
 10
1052.67385726952
 20
1961.09085014519
 10
1052.638343788639
 20
1961.162529566142
 10
1052.599992302436
 20
1961.232731490746
 10
1052.558864165107
 20
1961.301343610901
 10
1052.5150251729
 20
1961.368256161849
 10
1052.468545458849
 20
1961.433362097784
 10
1052.419499380582
 20
1961.496557263096
 10
1052.367965401362
 20
1961.557740559001
 10
1052.314025964562
 20
1961.61681410528
 10
1052.257767361775
 20
1961.673683396858
 10
1052.199279594763
 20
1961.728257455
 10
1052.138656231478
 20
1961.780448972857
 10
1052.075994256367
 20
1961.830174455132
 10
1052.011393915226
 20
1961.877354351661
 10
1051.944958554817
 20
1961.921913184674
 10
1051.876794457546
 20
1961.963779669545
 10
1051.807010671428
 20
1962.002886828829
 10
1051.735718835634
 20
1962.039172099412
 10
1051.663033001893
 20
1962.072577432602
 10
1051.589069452034
 20
1962.103049386993
 10
1051.513946511958
 20
1962.130539213958
 10
1051.437784362345
 20
1962.155002935637
 10
1051.360704846385
 20
1962.176401415295
 10
1051.31435394308
 20
1962.187688742049
  0
LWPOLYLINE
  5
33E
330
295
100
AcDbEntity
  8
P-SANR-FIXT
100
AcDbPolyline
 90
       35
 70
   128
 43
0.0
 10
1082.914353943081
 20
1962.187688742049
 10
1082.836785978661
 20
1962.168134775495
 10
1082.760062010443
 20
1962.145494558778
 10
1082.684304780408
 20
1962.119804311415
 10
1082.609635483964
 20
1962.091105132319
 10
1082.536173576056
 20
1962.059442934058
 10
1082.464036580067
 20
1962.024868369392
 10
1082.393339899801
 20
1961.98743675025
 10
1082.324196634866
 20
1961.947207959239
 10
1082.256717399735
 20
1961.904246353841
 10
1082.191010146791
 20
1961.858620663461
 10
1082.127179993621
 20
1961.810403879469
 10
1082.065329054853
 20
1961.759673138437
 10
1082.005556278796
 20
1961.706509598725
 10
1081.947957289141
 20
1961.650998310658
 10
1081.892624231983
 20
1961.593228080455
 10
1081.839645628411
 20
1961.533291328159
 10
1081.789106232889
 20
1961.47128393979
 10
1081.741086897667
 20
1961.40730511394
 10
1081.695664443441
 20
1961.341457203084
 10
1081.652911536445
 20
1961.27384554983
 10
1081.612896572212
 20
1961.204578318404
 10
1081.575683566148
 20
1961.133766321596
 10
1081.541332051124
 20
1961.061522843498
 10
1081.509896982237
 20
1960.987963458262
 10
1081.481428648891
 20
1960.913205845213
 10
1081.455972594346
 20
1960.837369600586
 10
1081.43356954286
 20
1960.760576046194
 10
1081.414255334535
 20
1960.682948035341
 10
1081.398060867985
 20
1960.604609756286
 10
1081.385012050901
 20
1960.525686533563
 10
1081.375129758609
 20
1960.446304627494
 10
1081.368429800666
 20
1960.366591032193
 10
1081.364922895576
 20
1960.286673272409
 10
1081.364353943081
 20
1960.238971215058
  0
LWPOLYLINE
  5
33F
330
295
100
AcDbEntity
  8
P-SANR-FIXT
100
AcDbPolyline
 90
       35
 70
   128
 43
0.0
 10
1051.31435394308
 20
1962.187688742049
 10
1051.004082085402
 20
1962.265904608263
 10
1050.697186212529
 20
1962.356465475132
 10
1050.394157292389
 20
1962.459226464588
 10
1050.095480106613
 20
1962.574023180967
 10
1049.801632474983
 20
1962.700671974015
 10
1049.513084491026
 20
1962.838970232678
 10
1049.230297769963
 20
1962.988696709243
 10
1048.953724710221
 20
1963.14961187329
 10
1048.683807769699
 20
1963.321458294883
 10
1048.420978757921
 20
1963.503961056404
 10
1048.16565814524
 20
1963.696828192368
 10
1047.91825439017
 20
1963.8997511565
 10
1047.679163285943
 20
1964.112405315344
 10
1047.448767327321
 20
1964.334450467612
 10
1047.22743509869
 20
1964.565531388426
 10
1047.015520684402
 20
1964.805278397608
 10
1046.813363102312
 20
1965.053307951086
 10
1046.621285761428
 20
1965.309223254485
 10
1046.43959594452
 20
1965.572614897912
 10
1046.268584316538
 20
1965.843061510923
 10
1046.108524459606
 20
1966.120130436632
 10
1045.959672435349
 20
1966.403378423862
 10
1045.822266375255
 20
1966.692352336255
 10
1045.696526099706
 20
1966.986589877198
 10
1045.582652766321
 20
1967.285620329391
 10
1045.480828548142
 20
1967.5889653079
 10
1045.391216342197
 20
1967.896139525471
 10
1045.313959508897
 20
1968.206651568883
 10
1045.249181642698
 20
1968.520004685104
 10
1045.196986374364
 20
1968.835697575993
 10
1045.157457205193
 20
1969.153225200271
 10
1045.130657373421
 20
1969.472079581473
 10
1045.116629753063
 20
1969.791750620609
 10
1045.11435394308
 20
1969.982558850011
  0
LWPOLYLINE
  5
340
330
295
100
AcDbEntity
  8
P-SANR-FIXT
100
AcDbPolyline
 90
       35
 70
   128
 43
0.0
 10
1089.11435394308
 20
1969.982558850011
 10
1089.107954796369
 20
1969.662644176518
 10
1089.088767593502
 20
1969.343241298258
 10
1089.056823029912
 20
1969.0248611917
 10
1089.012172210086
 20
1968.708013197097
 10
1088.954886565811
 20
1968.39320420365
 10
1088.885057741897
 20
1968.080937838594
 10
1088.802797449567
 20
1967.771713661498
 10
1088.70823728774
 20
1967.466026365082
 10
1088.601528532504
 20
1967.16436498381
 10
1088.482841895104
 20
1966.867212111542
 10
1088.35236724884
 20
1966.575043129483
 10
1088.210313325315
 20
1966.288325445679
 10
1088.056907380502
 20
1966.007517747261
 10
1087.892394831188
 20
1965.733069266644
 10
1087.717038862358
 20
1965.465419062851
 10
1087.531120006155
 20
1965.204995319112
 10
1087.334935693088
 20
1964.952214657864
 10
1087.128799776208
 20
1964.707481474239
 10
1086.913042029008
 20
1964.471187289127
 10
1086.688007617858
 20
1964.243710122815
 10
1086.454056549811
 20
1964.025413890244
 10
1086.21156309667
 20
1963.81664781882
 10
1085.960915196229
 20
1963.61774588972
 10
1085.70251383166
 20
1963.429026303603
 10
1085.436772390026
 20
1963.250790971548
 10
1085.164116000943
 20
1963.083325032064
 10
1084.884980856471
 20
1962.926896394932
 10
1084.599813513295
 20
1962.781755312599
 10
1084.309070178331
 20
1962.648133979837
 10
1084.013215978894
 20
1962.526246162273
 10
1083.712724218591
 20
1962.416286854415
 10
1083.408075620136
 20
1962.318431967698
 10
1083.0997575563
 20
1962.232838049065
 10
1082.914353943081
 20
1962.187688742049
  0
LWPOLYLINE
  5
341
330
295
100
AcDbEntity
  8
P-SANR-FIXT
100
AcDbPolyline
 90
       32
 70
   128
 43
0.0
 10
1044.283498968026
 20
1987.499764059595
 10
1044.250240937825
 20
1987.51200530501
 10
1044.213287931995
 20
1987.527310926141
 10
1044.176976546227
 20
1987.544082030506
 10
1044.141364870992
 20
1987.562291787918
 10
1044.106509877373
 20
1987.581911066648
 10
1044.072467325925
 20
1987.602908480035
 10
1044.039291677468
 20
1987.625250436697
 10
1044.007036005963
 20
1987.64890119427
 10
1043.975751913603
 20
1987.673822916587
 10
1043.945489448261
 20
1987.699975734208
 10
1043.916297023429
 20
1987.727317808204
 10
1043.888221340756
 20
1987.755805397091
 10
1043.861307315348
 20
1987.785392926801
 10
1043.835598003902
 20
1987.8160330636
 10
1043.811134535834
 20
1987.847676789804
 10
1043.787956047473
 20
1987.880273482203
 10
1043.766099619456
 20
1987.913770993041
 10
1043.745600217405
 20
1987.948115733448
 10
1043.726490635991
 20
1987.983252759165
 10
1043.708801446468
 20
1988.019125858446
 10
1043.692560947765
 20
1988.055677641986
 10
1043.677795121217
 20
1988.092849634728
 10
1043.664527588994
 20
1988.130582369412
 10
1043.652779576319
 20
1988.168815481713
 10
1043.642569877507
 20
1988.207487806808
 10
1043.633914825895
 20
1988.246537477224
 10
1043.626828267723
 20
1988.285902021821
 10
1043.62132153997
 20
1988.325518465724
 10
1043.617403452226
 20
1988.365323431074
 10
1043.615080272597
 20
1988.405253238417
 10
1043.61435394308
 20
1988.443360081346
  0
LWPOLYLINE
  5
342
330
295
100
AcDbEntity
  8
P-SANR-FIXT
100
AcDbPolyline
 90
       32
 70
   128
 43
0.0
 10
1090.614353943081
 20
1988.443360081346
 10
1090.613554049742
 20
1988.40337074716
 10
1090.611155649384
 20
1988.363445387377
 10
1090.607162578934
 20
1988.323647874057
 10
1090.601581226456
 20
1988.284041874732
 10
1090.594420520922
 20
1988.244690750551
 10
1090.585691917933
 20
1988.205657454919
 10
1090.575409381391
 20
1988.167004432782
 10
1090.563589361163
 20
1988.12879352073
 10
1090.550250766759
 20
1988.091085848071
 10
1090.535414937084
 20
1988.053941739038
 10
1090.519105606301
 20
1988.01742061628
 10
1090.50134886586
 20
1987.981580905805
 10
1090.482173122758
 20
1987.946479943502
 10
1090.461609054094
 20
1987.912173883426
 10
1090.43968955799
 20
1987.878717607951
 10
1090.416449700965
 20
1987.846164639984
 10
1090.391926661832
 20
1987.814567057328
 10
1090.366159672222
 20
1987.783975409375
 10
1090.339189953822
 20
1987.754438636236
 10
1090.311060652428
 20
1987.726003990447
 10
1090.281816768922
 20
1987.698716961376
 10
1090.251505087279
 20
1987.672621202447
 10
1090.220174099724
 20
1987.64775846131
 10
1090.187873929153
 20
1987.624168513045
 10
1090.154656248949
 20
1987.601889096539
 10
1090.120574200313
 20
1987.580955854103
 10
1090.085682307254
 20
1987.561402274461
 10
1090.050036389357
 20
1987.54325963917
 10
1090.013693472487
 20
1987.526556972575
 10
1089.976711697557
 20
1987.511320995379
 10
1089.945474962839
 20
1987.499890499828
  0
LWPOLYLINE
  5
343
330
295
100
AcDbEntity
  8
P-SANR-FIXT
100
AcDbPolyline
 90
       37
 70
   128
 43
0.0
 10
1043.612354209733
 20
2008.082532185478
 10
1043.606358208837
 20
2008.182345584934
 10
1043.596375532715
 20
2008.281839368233
 10
1043.582422151519
 20
2008.380854366547
 10
1043.564520387683
 20
2008.479232176999
 10
1043.542698880211
 20
2008.576815416079
 10
1043.516992538857
 20
2008.673447971421
 10
1043.487442488287
 20
2008.768975251552
 10
1043.454096002275
 20
2008.863244433199
 10
1043.417006428088
 20
2008.956104705783
 10
1043.37623310113
 20
2009.047407512676
 10
1043.331841250029
 20
2009.137006788865
 10
1043.283901892275
 20
2009.224759194621
 10
1043.232491720614
 20
2009.310524344813
 10
1043.177692980354
 20
2009.394165033499
 10
1043.119593337791
 20
2009.475547453417
 10
1043.058285739958
 20
2009.554541410057
 10
1042.993868265932
 20
2009.63102052994
 10
1042.926443969933
 20
2009.704862462788
 10
1042.856120716448
 20
2009.77594907726
 10
1042.783011007684
 20
2009.844166649938
 10
1042.707231803577
 20
2009.909406047259
 10
1042.628904334689
 20
2009.971562900102
 10
1042.548153908262
 20
2010.030537770764
 10
1042.465109707751
 20
2010.086236312031
 10
1042.379904586162
 20
2010.13856941812
 10
1042.292674853515
 20
2010.187453367224
 10
1042.203560058772
 20
2010.232809955453
 10
1042.112702766596
 20
2010.274566621941
 10
1042.020248329272
 20
2010.312656564929
 10
1041.926344654177
 20
2010.347018848635
 10
1041.83114196716
 20
2010.377598500734
 10
1041.734792572211
 20
2010.404346600307
 10
1041.637450607809
 20
2010.427220356099
 10
1041.539271800331
 20
2010.446183174983
 10
1041.440413214926
 20
2010.461204720491
 10
1041.341033004241
 20
2010.472260961355
  0
LWPOLYLINE
  5
344
330
295
100
AcDbEntity
  8
P-SANR-FIXT
100
AcDbPolyline
 90
        4
 70
   128
 43
0.0
 10
1041.307848025014
 20
2010.474614268991
 10
1041.241290155414
 20
2010.47933420995
 10
1041.141344235726
 20
2010.482413150587
 10
1041.114353943081
 20
2010.482558850011
  0
LWPOLYLINE
  5
345
330
295
100
AcDbEntity
  8
P-SANR-FIXT
100
AcDbPolyline
 90
        3
 70
   128
 43
0.0
 10
1093.043000664706
 20
2010.481131594138
 10
1093.014380607614
 20
2010.480559116664
 10
1092.914567208158
 20
2010.474563115768
  0
LWPOLYLINE
  5
346
330
295
100
AcDbEntity
  8
P-SANR-FIXT
100
AcDbPolyline
 90
       36
 70
   128
 43
0.0
 10
1092.815073424858
 20
2010.464580439646
 10
1092.716058426545
 20
2010.45062705845
 10
1092.617680616093
 20
2010.432725294615
 10
1092.520097377013
 20
2010.410903787141
 10
1092.42346482167
 20
2010.385197445788
 10
1092.32793754154
 20
2010.355647395217
 10
1092.233668359893
 20
2010.322300909206
 10
1092.140808087309
 20
2010.285211335019
 10
1092.049505280416
 20
2010.244438008061
 10
1091.959906004227
 20
2010.20004615696
 10
1091.872153598471
 20
2010.152106799205
 10
1091.786388448278
 20
2010.100696627545
 10
1091.702747759593
 20
2010.045897887286
 10
1091.621365339675
 20
2009.987798244722
 10
1091.542371383035
 20
2009.926490646888
 10
1091.465892263152
 20
2009.862073172864
 10
1091.392050330304
 20
2009.794648876864
 10
1091.320963715832
 20
2009.724325623379
 10
1091.252746143154
 20
2009.651215914614
 10
1091.187506745833
 20
2009.575436710508
 10
1091.12534989299
 20
2009.49710924162
 10
1091.066375022328
 20
2009.416358815192
 10
1091.010676481061
 20
2009.333314614682
 10
1090.958343374972
 20
2009.248109493094
 10
1090.909459425868
 20
2009.160879760446
 10
1090.864102837639
 20
2009.071764965703
 10
1090.822346171151
 20
2008.980907673527
 10
1090.784256228163
 20
2008.888453236203
 10
1090.749893944457
 20
2008.794549561108
 10
1090.719314292358
 20
2008.699346874091
 10
1090.692566192785
 20
2008.602997479142
 10
1090.669692436992
 20
2008.50565551474
 10
1090.65072961811
 20
2008.407476707262
 10
1090.635708072601
 20
2008.308618121857
 10
1090.624651831737
 20
2008.209237911172
 10
1090.617578583142
 20
2008.109495062345
  0
LWPOLYLINE
  5
347
330
295
100
AcDbEntity
  8
P-SANR-FIXT
100
AcDbPolyline
 90
       41
 70
   128
 43
0.0
 10
1039.614353943081
 20
2010.482558850011
 10
1039.514380607614
 20
2010.484558583359
 10
1039.414567208158
 20
2010.490554584255
 10
1039.315073424858
 20
2010.500537260377
 10
1039.216058426545
 20
2010.514490641572
 10
1039.117680616093
 20
2010.532392405409
 10
1039.020097377013
 20
2010.554213912881
 10
1038.92346482167
 20
2010.579920254234
 10
1038.82793754154
 20
2010.609470304805
 10
1038.733668359893
 20
2010.642816790817
 10
1038.640808087309
 20
2010.679906365004
 10
1038.549505280415
 20
2010.720679691961
 10
1038.459906004227
 20
2010.765071543064
 10
1038.372153598471
 20
2010.813010900817
 10
1038.286388448278
 20
2010.864421072477
 10
1038.202747759593
 20
2010.919219812737
 10
1038.121365339675
 20
2010.977319455301
 10
1038.042371383034
 20
2011.038627053134
 10
1037.965892263152
 20
2011.103044527159
 10
1037.892050330304
 20
2011.170468823159
 10
1037.820963715832
 20
2011.240792076643
 10
1037.752746143153
 20
2011.313901785408
 10
1037.687506745833
 20
2011.389680989515
 10
1037.62534989299
 20
2011.468008458403
 10
1037.566375022328
 20
2011.54875888483
 10
1037.510676481061
 20
2011.631803085341
 10
1037.458343374972
 20
2011.717008206929
 10
1037.409459425868
 20
2011.804237939577
 10
1037.364102837639
 20
2011.89335273432
 10
1037.322346171151
 20
2011.984210026496
 10
1037.284256228162
 20
2012.076664463819
 10
1037.249893944457
 20
2012.170568138914
 10
1037.219314292357
 20
2012.265770825932
 10
1037.192566192785
 20
2012.36212022088
 10
1037.169692436992
 20
2012.459462185283
 10
1037.150729618109
 20
2012.557640992761
 10
1037.135708072601
 20
2012.656499578167
 10
1037.124651831736
 20
2012.75587978885
 10
1037.117578583141
 20
2012.855622637677
 10
1037.114499642505
 20
2012.955568557366
 10
1037.11435394308
 20
2012.982558850011
  0
LWPOLYLINE
  5
348
330
295
100
AcDbEntity
  8
P-SANR-FIXT
100
AcDbPolyline
 90
       10
 70
   128
 43
0.0
 10
1041.114353946503
 20
2010.482558850011
 10
1040.873842326887
 20
2010.482558850011
 10
1040.565834772951
 20
2010.482558850011
 10
1040.300299186305
 20
2010.482558850011
 10
1040.077660367243
 20
2010.482558850011
 10
1039.898274490382
 20
2010.482558850011
 10
1039.762428534859
 20
2010.482558850011
 10
1039.670339825222
 20
2010.482558850011
 10
1039.622155683763
 20
2010.482558850011
 10
1039.614353943081
 20
2010.482558850011
  0
LWPOLYLINE
  5
349
330
295
100
AcDbEntity
  8
P-SANR-FIXT
100
AcDbPolyline
 90
       15
 70
   128
 43
0.0
 10
1039.614353943081
 20
2010.482558850011
 10
1039.636351009904
 20
2010.482558850011
 10
1039.702307019759
 20
2010.482558850011
 10
1039.812116457099
 20
2010.482558850011
 10
1039.965603650251
 20
2010.482558850011
 10
1040.162523052446
 20
2010.482558850011
 10
1040.40255963465
 20
2010.482558850011
 10
1040.685329389535
 20
2010.482558850011
 10
1041.010379945813
 20
2010.482558850011
 10
1041.377191291937
 20
2010.482558850011
 10
1041.785176608001
 20
2010.482558850011
 10
1042.233683204531
 20
2010.482558850011
 10
1042.72199356665
 20
2010.482558850011
 10
1043.249326501945
 20
2010.482558850011
 10
1043.71592307306
 20
2010.482558850011
  0
LWPOLYLINE
  5
34A
330
295
100
AcDbEntity
  8
P-SANR-FIXT
100
AcDbPolyline
 90
       41
 70
   128
 43
0.0
 10
1097.114353943081
 20
2012.982558850011
 10
1097.112354209733
 20
2012.882585514545
 10
1097.106358208837
 20
2012.782772115088
 10
1097.096375532715
 20
2012.683278331789
 10
1097.08242215152
 20
2012.584263333476
 10
1097.064520387684
 20
2012.485885523024
 10
1097.042698880211
 20
2012.388302283943
 10
1097.016992538857
 20
2012.291669728601
 10
1096.987442488287
 20
2012.196142448471
 10
1096.954096002275
 20
2012.101873266824
 10
1096.917006428088
 20
2012.00901299424
 10
1096.876233101131
 20
2011.917710187347
 10
1096.831841250029
 20
2011.828110911158
 10
1096.783901892274
 20
2011.740358505402
 10
1096.732491720614
 20
2011.654593355209
 10
1096.677692980355
 20
2011.570952666524
 10
1096.619593337791
 20
2011.489570246605
 10
1096.558285739958
 20
2011.410576289965
 10
1096.493868265933
 20
2011.334097170083
 10
1096.426443969933
 20
2011.260255237235
 10
1096.356120716448
 20
2011.189168622763
 10
1096.283011007684
 20
2011.120951050084
 10
1096.207231803577
 20
2011.055711652764
 10
1096.128904334689
 20
2010.99355479992
 10
1096.048153908262
 20
2010.934579929259
 10
1095.965109707751
 20
2010.878881387992
 10
1095.879904586163
 20
2010.826548281903
 10
1095.792674853515
 20
2010.777664332799
 10
1095.703560058773
 20
2010.73230774457
 10
1095.612702766596
 20
2010.690551078082
 10
1095.520248329272
 20
2010.652461135093
 10
1095.426344654178
 20
2010.618098851387
 10
1095.331141967161
 20
2010.587519199289
 10
1095.234792572212
 20
2010.560771099715
 10
1095.137450607809
 20
2010.537897343923
 10
1095.039271800331
 20
2010.51893452504
 10
1094.940413214926
 20
2010.503912979532
 10
1094.841033004242
 20
2010.492856738667
 10
1094.741290155415
 20
2010.485783490072
 10
1094.641344235727
 20
2010.482704549437
 10
1094.614353943081
 20
2010.482558850011
  0
LWPOLYLINE
  5
34B
330
295
100
AcDbEntity
  8
P-SANR-FIXT
100
AcDbPolyline
 90
       16
 70
   128
 43
0.0
 10
1090.512784813186
 20
2010.482558850011
 10
1090.647150649932
 20
2010.482558850011
 10
1091.197325375832
 20
2010.482558850011
 10
1091.708972484866
 20
2010.482558850011
 10
1092.181273450805
 20
2010.482558850011
 10
1092.613472692856
 20
2010.482558850011
 10
1093.00487878443
 20
2010.482558850011
 10
1093.354865559274
 20
2010.482558850011
 10
1093.662873113211
 20
2010.482558850011
 10
1093.928408699856
 20
2010.482558850011
 10
1094.151047518918
 20
2010.482558850011
 10
1094.330433395779
 20
2010.482558850011
 10
1094.466279351303
 20
2010.482558850011
 10
1094.558368060939
 20
2010.482558850011
 10
1094.606552202398
 20
2010.482558850011
 10
1094.614353943081
 20
2010.482558850011
  0
LWPOLYLINE
  5
34C
330
295
100
AcDbEntity
  8
P-SANR-FIXT
100
AcDbPolyline
 90
       10
 70
   128
 43
0.0
 10
1094.614353943081
 20
2010.482558850011
 10
1094.592356876258
 20
2010.482558850011
 10
1094.526400866403
 20
2010.482558850011
 10
1094.416591429062
 20
2010.482558850011
 10
1094.263104235911
 20
2010.482558850011
 10
1094.066184833715
 20
2010.482558850011
 10
1093.826148251512
 20
2010.482558850011
 10
1093.543378496627
 20
2010.482558850011
 10
1093.218327940348
 20
2010.482558850011
 10
1093.114353939658
 20
2010.482558850011
  0
LINE
  5
34D
330
295
100
AcDbEntity
  8
P-SANR-FIXT
100
AcDbLine
 10
1037.61435394308
 20
2034.782558850011
 30
0.0
 11
1037.11435394308
 21
2034.282558850011
 31
0.0
  0
LINE
  5
34E
330
295
100
AcDbEntity
  8
P-SANR-FIXT
100
AcDbLine
 10
1097.114353943081
 20
2034.282558850011
 30
0.0
 11
1096.614353943081
 21
2034.782558850011
 31
0.0
  0
LINE
  5
34F
330
295
100
AcDbEntity
  8
P-SANR-FIXT
100
AcDbLine
 10
1052.86435394308
 20
1951.482558850011
 30
0.0
 11
1052.907667312611
 21
1951.43924548048
 31
0.0
  0
LINE
  5
350
330
295
100
AcDbEntity
  8
P-SANR-FIXT
100
AcDbLine
 10
1052.918579495273
 20
1951.428333297819
 30
0.0
 11
1053.364353943081
 21
1950.982558850011
 31
0.0
  0
LINE
  5
351
330
295
100
AcDbEntity
  8
P-SANR-FIXT
100
AcDbLine
 10
1080.864353943081
 20
1950.982558850011
 30
0.0
 11
1081.310128390888
 21
1951.428333297819
 31
0.0
  0
LINE
  5
352
330
295
100
AcDbEntity
  8
P-SANR-FIXT
100
AcDbLine
 10
1081.32104057355
 20
1951.43924548048
 30
0.0
 11
1081.364353943081
 21
1951.482558850011
 31
0.0
  0
LINE
  5
353
330
295
100
AcDbEntity
  8
P-SANR-FIXT
100
AcDbLine
 10
1032.614353943124
 20
1990.982558850011
 30
0.0
 11
1043.61435394308
 21
1990.982558850011
 31
0.0
  0
LINE
  5
354
330
295
100
AcDbEntity
  8
P-SANR-FIXT
100
AcDbLine
 10
1090.614353943106
 20
1990.982558850011
 30
0.0
 11
1101.614353943091
 21
1990.982558850011
 31
0.0
  0
LINE
  5
355
330
295
100
AcDbEntity
  8
P-SANR-FIXT
100
AcDbLine
 10
1101.614353943091
 20
2008.982558850012
 30
0.0
 11
1090.825900200244
 21
2008.982558850012
 31
0.0
  0
LINE
  5
356
330
295
100
AcDbEntity
  8
P-SANR-FIXT
100
AcDbLine
 10
1043.392891955596
 20
2008.982558850012
 30
0.0
 11
1032.614353943124
 21
2008.982558850012
 31
0.0
  0
LINE
  5
357
330
295
100
AcDbEntity
  8
P-SANR-FIXT
100
AcDbLine
 10
1067.114353943079
 20
1950.982558850011
 30
0.0
 11
1053.364353943079
 21
1950.982558850011
 31
0.0
  0
LINE
  5
358
330
295
100
AcDbEntity
  8
P-SANR-FIXT
100
AcDbLine
 10
1080.864353943079
 20
1950.982558850011
 30
0.0
 11
1067.114353943079
 21
1950.982558850011
 31
0.0
  0
LINE
  5
359
330
295
100
AcDbEntity
  8
P-SANR-FIXT
100
AcDbLine
 10
1052.864353943079
 20
1951.48255885001
 30
0.0
 11
1067.114353943079
 21
1951.48255885001
 31
0.0
  0
LINE
  5
35A
330
295
100
AcDbEntity
  8
P-SANR-FIXT
100
AcDbLine
 10
1067.114353943079
 20
1951.48255885001
 30
0.0
 11
1081.364353943079
 21
1951.48255885001
 31
0.0
  0
LINE
  5
35B
330
295
100
AcDbEntity
  8
P-SANR-FIXT
100
AcDbLine
 10
1067.114353943079
 20
2034.282558850011
 30
0.0
 11
1037.114353943079
 21
2034.282558850011
 31
0.0
  0
LINE
  5
35C
330
295
100
AcDbEntity
  8
P-SANR-FIXT
100
AcDbLine
 10
1097.114353943079
 20
2034.282558850011
 30
0.0
 11
1067.114353943079
 21
2034.282558850011
 31
0.0
  0
LINE
  5
35D
330
295
100
AcDbEntity
  8
P-SANR-FIXT
100
AcDbLine
 10
1037.726610349373
 20
2034.782558850011
 30
0.0
 11
1037.794404598685
 21
2034.782558850011
 31
0.0
  0
LINE
  5
35E
330
295
100
AcDbEntity
  8
P-SANR-FIXT
100
AcDbLine
 10
1038.021731870506
 20
2034.782558850011
 30
0.0
 11
1038.196386848669
 21
2034.782558850011
 31
0.0
  0
LINE
  5
35F
330
295
100
AcDbEntity
  8
P-SANR-FIXT
100
AcDbLine
 10
1038.529305738052
 20
2034.782558850011
 30
0.0
 11
1038.798095593159
 21
2034.782558850011
 31
0.0
  0
LINE
  5
360
330
295
100
AcDbEntity
  8
P-SANR-FIXT
100
AcDbLine
 10
1039.236742321733
 20
2034.782558850011
 30
0.0
 11
1039.59437621595
 21
2034.782558850011
 31
0.0
  0
LINE
  5
361
330
295
100
AcDbEntity
  8
P-SANR-FIXT
100
AcDbLine
 10
1040.141442090539
 20
2034.782558850011
 30
0.0
 11
1040.57956117338
 21
2034.782558850011
 31
0.0
  0
LINE
  5
362
330
295
100
AcDbEntity
  8
P-SANR-FIXT
100
AcDbLine
 10
1041.566604531438
 20
2034.782558850011
 30
0.0
 11
1041.942068203729
 21
2034.782558850011
 31
0.0
  0
LINE
  5
363
330
295
100
AcDbEntity
  8
P-SANR-FIXT
100
AcDbLine
 10
1043.234499453445
 20
2034.782558850011
 30
0.0
 11
1044.51604287107
 21
2034.782558850011
 31
0.0
  0
LINE
  5
364
330
295
100
AcDbEntity
  8
P-SANR-FIXT
100
AcDbLine
 10
1044.675137661842
 20
2034.782558850011
 30
0.0
 11
1047.948682368168
 21
2034.782558850011
 31
0.0
  0
LINE
  5
365
330
295
100
AcDbEntity
  8
P-SANR-FIXT
100
AcDbLine
 10
1048.152119457326
 20
2034.782558850011
 30
0.0
 11
1049.763659695268
 21
2034.782558850011
 31
0.0
  0
LINE
  5
366
330
295
100
AcDbEntity
  8
P-SANR-FIXT
100
AcDbLine
 10
1050.193849070724
 20
2034.782558850011
 30
0.0
 11
1051.687950329837
 21
2034.782558850011
 31
0.0
  0
LINE
  5
367
330
295
100
AcDbEntity
  8
P-SANR-FIXT
100
AcDbLine
 10
1051.728319801031
 20
2034.782558850011
 30
0.0
 11
1053.709199492901
 21
2034.782558850011
 31
0.0
  0
LINE
  5
368
330
295
100
AcDbEntity
  8
P-SANR-FIXT
100
AcDbLine
 10
1054.647115221729
 20
2034.782558850011
 30
0.0
 11
1055.81444537623
 21
2034.782558850011
 31
0.0
  0
LINE
  5
369
330
295
100
AcDbEntity
  8
P-SANR-FIXT
100
AcDbLine
 10
1057.024759714972
 20
2034.782558850011
 30
0.0
 11
1057.99019315939
 21
2034.782558850011
 31
0.0
  0
LINE
  5
36A
330
295
100
AcDbEntity
  8
P-SANR-FIXT
100
AcDbLine
 10
1059.479192112555
 20
2034.782558850011
 30
0.0
 11
1059.619502339607
 21
2034.782558850011
 31
0.0
  0
LINE
  5
36B
330
295
100
AcDbEntity
  8
P-SANR-FIXT
100
AcDbLine
 10
1060.222496653864
 20
2034.782558850011
 30
0.0
 11
1061.991732701905
 21
2034.782558850011
 31
0.0
  0
LINE
  5
36C
330
295
100
AcDbEntity
  8
P-SANR-FIXT
100
AcDbLine
 10
1062.497045082564
 20
2034.782558850011
 30
0.0
 11
1064.543259532023
 21
2034.782558850011
 31
0.0
  0
LINE
  5
36D
330
295
100
AcDbEntity
  8
P-SANR-FIXT
100
AcDbLine
 10
1064.799253279593
 20
2034.782558850011
 30
0.0
 11
1067.114353943079
 21
2034.782558850011
 31
0.0
  0
LINE
  5
36E
330
295
100
AcDbEntity
  8
P-SANR-FIXT
100
AcDbLine
 10
1067.114353943079
 20
2034.782558850011
 30
0.0
 11
1069.429454606566
 21
2034.782558850011
 31
0.0
  0
LINE
  5
36F
330
295
100
AcDbEntity
  8
P-SANR-FIXT
100
AcDbLine
 10
1069.685448354135
 20
2034.782558850011
 30
0.0
 11
1071.731662803595
 21
2034.782558850011
 31
0.0
  0
LINE
  5
370
330
295
100
AcDbEntity
  8
P-SANR-FIXT
100
AcDbLine
 10
1072.236975184254
 20
2034.782558850011
 30
0.0
 11
1074.006211232295
 21
2034.782558850011
 31
0.0
  0
LINE
  5
371
330
295
100
AcDbEntity
  8
P-SANR-FIXT
100
AcDbLine
 10
1074.749515773604
 20
2034.782558850011
 30
0.0
 11
1075.387808896801
 21
2034.782558850011
 31
0.0
  0
LINE
  5
372
330
295
100
AcDbEntity
  8
P-SANR-FIXT
100
AcDbLine
 10
1076.238514726769
 20
2034.782558850011
 30
0.0
 11
1077.203948171186
 21
2034.782558850011
 31
0.0
  0
LINE
  5
373
330
295
100
AcDbEntity
  8
P-SANR-FIXT
100
AcDbLine
 10
1078.414262509929
 20
2034.782558850011
 30
0.0
 11
1079.58159266443
 21
2034.782558850011
 31
0.0
  0
LINE
  5
374
330
295
100
AcDbEntity
  8
P-SANR-FIXT
100
AcDbLine
 10
1080.519508393258
 20
2034.782558850011
 30
0.0
 11
1081.864353943079
 21
2034.782558850011
 31
0.0
  0
LINE
  5
375
330
295
100
AcDbEntity
  8
P-SANR-FIXT
100
AcDbLine
 10
1082.540757556322
 20
2034.782558850011
 30
0.0
 11
1084.034858815435
 21
2034.782558850011
 31
0.0
  0
LINE
  5
376
330
295
100
AcDbEntity
  8
P-SANR-FIXT
100
AcDbLine
 10
1084.465048190891
 20
2034.782558850011
 30
0.0
 11
1086.076588428832
 21
2034.782558850011
 31
0.0
  0
LINE
  5
377
330
295
100
AcDbEntity
  8
P-SANR-FIXT
100
AcDbLine
 10
1086.280025517991
 20
2034.782558850011
 30
0.0
 11
1089.553570224317
 21
2034.782558850011
 31
0.0
  0
LINE
  5
378
330
295
100
AcDbEntity
  8
P-SANR-FIXT
100
AcDbLine
 10
1089.712665015089
 20
2034.782558850011
 30
0.0
 11
1090.994208432714
 21
2034.782558850011
 31
0.0
  0
LINE
  5
379
330
295
100
AcDbEntity
  8
P-SANR-FIXT
100
AcDbLine
 10
1091.149307911766
 20
2034.782558850011
 30
0.0
 11
1091.279339249604
 21
2034.782558850011
 31
0.0
  0
LINE
  5
37A
330
295
100
AcDbEntity
  8
P-SANR-FIXT
100
AcDbLine
 10
1092.286639682429
 20
2034.782558850011
 30
0.0
 11
1092.66210335472
 21
2034.782558850011
 31
0.0
  0
LINE
  5
37B
330
295
100
AcDbEntity
  8
P-SANR-FIXT
100
AcDbLine
 10
1093.649146712778
 20
2034.782558850011
 30
0.0
 11
1094.087265795619
 21
2034.782558850011
 31
0.0
  0
LINE
  5
37C
330
295
100
AcDbEntity
  8
P-SANR-FIXT
100
AcDbLine
 10
1094.634331670208
 20
2034.782558850011
 30
0.0
 11
1095.105515260365
 21
2034.782558850011
 31
0.0
  0
LINE
  5
37D
330
295
100
AcDbEntity
  8
P-SANR-FIXT
100
AcDbLine
 10
1095.430612293001
 20
2034.782558850011
 30
0.0
 11
1095.699402148105
 21
2034.782558850011
 31
0.0
  0
LINE
  5
37E
330
295
100
AcDbEntity
  8
P-SANR-FIXT
100
AcDbLine
 10
1096.03232103749
 20
2034.782558850011
 30
0.0
 11
1096.206976015652
 21
2034.782558850011
 31
0.0
  0
LINE
  5
37F
330
295
100
AcDbEntity
  8
P-SANR-FIXT
100
AcDbLine
 10
1096.434303287476
 20
2034.782558850011
 30
0.0
 11
1096.502097536786
 21
2034.782558850011
 31
0.0
  0
LINE
  5
380
330
295
100
AcDbEntity
  8
P-SANR-FIXT
100
AcDbLine
 10
1101.61435394309
 20
1999.982558850011
 30
0.0
 11
1101.61435394309
 21
1990.98255885001
 31
0.0
  0
LINE
  5
381
330
295
100
AcDbEntity
  8
P-SANR-FIXT
100
AcDbLine
 10
1101.61435394309
 20
2008.982558850011
 30
0.0
 11
1101.61435394309
 21
1999.982558850011
 31
0.0
  0
ENDBLK
  5
383
330
295
100
AcDbEntity
  8
0
100
AcDbBlockEnd
  0
ENDSEC
  0
SECTION
  2
ENTITIES
  0
INSERT
  5
17F
330
71
100
AcDbEntity
  8
P-SANR-FIXT
100
AcDbBlockReference
  2
Automatic flow rate regulator valve_Caleffi_121 DN15 - 1___Pressure gauge-932181-Est - Idraulica
 10
0.0
 20
0.0
 30
0.0
1001
REVIT
1002
{
1070
     1
1000
863131
1002
}
1002
{
1070
     5
1000
932181
1002
}
1002
{
1070
     2
1000
-2001160
1002
}
  0
INSERT
  5
294
330
71
100
AcDbEntity
  8
P-SANR-FIXT
100
AcDbBlockReference
  2
Automatic flow rate regulator valve_Caleffi_121 DN15 - 1___Pressure gauge-V1-Est - Idraulica
 10
0.0
 20
0.0
 30
0.0
1001
REVIT
1002
{
1070
     1
1000
863152
1002
}
1002
{
1070
     5
1000
932181
1002
}
1002
{
1070
     2
1000
-2001160
1002
}
  0
INSERT
  5
384
330
71
100
AcDbEntity
  8
P-SANR-FIXT
100
AcDbBlockReference
  2
Automatic flow rate regulator valve_Caleffi_121 DN15 - 1___Pressure gauge-V2-Est - Idraulica
 10
0.0
 20
0.0
 30
0.0
1001
REVIT
1002
{
1070
     1
1000
863172
1002
}
1002
{
1070
     5
1000
932181
1002
}
1002
{
1070
     2
1000
-2001160
1002
}
  0
ENDSEC
  0
SECTION
  2
OBJECTS
  0
DICTIONARY
  5
C
330
0
100
AcDbDictionary
281
     1
  3
ACAD_CIP_PREVIOUS_PRODUCT_INFO
350
7A
  3
ACAD_COLOR
350
63
  3
ACAD_DETAILVIEWSTYLE
350
6B
  3
ACAD_GROUP
350
D
  3
ACAD_IMAGE_VARS
350
7B
  3
ACAD_LAYOUT
350
62
  3
ACAD_MATERIAL
350
10
  3
ACAD_MLEADERSTYLE
350
66
  3
ACAD_MLINESTYLE
350
5F
  3
ACAD_PLOTSETTINGS
350
61
  3
ACAD_PLOTSTYLENAME
350
E
  3
ACAD_SCALELIST
350
42
  3
ACAD_SECTIONVIEWSTYLE
350
68
  3
ACAD_TABLESTYLE
350
64
  3
ACAD_VISUALSTYLE
350
29
  3
ACDB_RECOMPOSE_DATA
350
38F
  3
AcDbVariableDictionary
350
7C
  3
REVIT_DICTIONARY
350
386
  0
DICTIONARY
  5
38B
330
71
100
AcDbDictionary
280
     1
281
     1
  3
ACAD_SORTENTS
360
38C
  0
XRECORD
  5
7A
102
{ACAD_REACTORS
330
C
102
}
330
C
100
AcDbXrecord
280
     1
300
RVT
300
2013
300
RVT2013
  0
DICTIONARY
  5
63
102
{ACAD_REACTORS
330
C
102
}
330
C
100
AcDbDictionary
281
     1
  0
DICTIONARY
  5
6B
102
{ACAD_REACTORS
330
C
102
}
330
C
100
AcDbDictionary
281
     1
  3
Imperial24
350
6C
  0
DICTIONARY
  5
D
102
{ACAD_REACTORS
330
C
102
}
330
C
100
AcDbDictionary
281
     1
  0
RASTERVARIABLES
  5
7B
102
{ACAD_REACTORS
330
C
102
}
330
C
100
AcDbRasterVariables
 90
        0
 70
     0
 71
     1
 72
     1
  0
DICTIONARY
  5
62
102
{ACAD_REACTORS
330
C
102
}
330
C
100
AcDbDictionary
281
     1
  3
Layout1
350
70
  3
Layout2
350
78
  3
Model
350
74
  0
DICTIONARY
  5
10
102
{ACAD_REACTORS
330
C
102
}
330
C
100
AcDbDictionary
281
     1
  3
ByBlock
350
19
  3
ByLayer
350
11
  3
Global
350
21
  0
DICTIONARY
  5
66
102
{ACAD_REACTORS
330
C
102
}
330
C
100
AcDbDictionary
281
     1
  3
Standard
350
67
  0
DICTIONARY
  5
5F
102
{ACAD_REACTORS
330
C
102
}
330
C
100
AcDbDictionary
281
     1
  3
Standard
350
60
  0
DICTIONARY
  5
61
102
{ACAD_REACTORS
330
C
102
}
330
C
100
AcDbDictionary
281
     1
  0
ACDBDICTIONARYWDFLT
  5
E
102
{ACAD_REACTORS
330
C
102
}
330
C
100
AcDbDictionary
281
     1
  3
Normal
350
F
100
AcDbDictionaryWithDefault
340
F
  0
DICTIONARY
  5
42
102
{ACAD_REACTORS
330
C
102
}
330
C
100
AcDbDictionary
281
     1
  3
A0
350
43
  3
A1
350
44
  3
A2
350
45
  3
A3
350
46
  3
A4
350
47
  3
A5
350
48
  3
A6
350
49
  3
A7
350
4A
  3
A8
350
4B
  3
A9
350
4C
  3
B0
350
4D
  3
B1
350
4E
  3
B2
350
4F
  3
B3
350
50
  3
B4
350
51
  3
B5
350
52
  3
B6
350
53
  0
DICTIONARY
  5
68
102
{ACAD_REACTORS
330
C
102
}
330
C
100
AcDbDictionary
281
     1
  3
Imperial24
350
6A
  0
DICTIONARY
  5
64
102
{ACAD_REACTORS
330
C
102
}
330
C
100
AcDbDictionary
281
     1
  3
Standard
350
65
  0
DICTIONARY
  5
29
102
{ACAD_REACTORS
330
C
102
}
330
C
100
AcDbDictionary
281
     1
  3
2dWireframe
350
2F
  3
Basic
350
2E
  3
Brighten
350
35
  3
ColorChange
350
39
  3
Conceptual
350
32
  3
Dim
350
34
  3
EdgeColorOff
350
41
  3
Facepattern
350
38
  3
Flat
350
2A
  3
FlatWithEdges
350
2B
  3
Gouraud
350
2C
  3
GouraudWithEdges
350
2D
  3
Hidden
350
31
  3
JitterOff
350
3F
  3
Linepattern
350
37
  3
OverhangOff
350
40
  3
Realistic
350
33
  3
Shaded
350
3E
  3
Shaded with edges
350
3D
  3
Shades of Gray
350
3A
  3
Sketchy
350
3B
  3
Thicken
350
36
  3
Wireframe
350
30
  3
X-Ray
350
3C
  0
XRECORD
  5
38F
102
{ACAD_REACTORS
330
C
102
}
330
C
100
AcDbXrecord
280
     1
 90
        1
330
65
  0
DICTIONARY
  5
7C
102
{ACAD_REACTORS
330
C
102
}
330
C
100
AcDbDictionary
281
     1
  3
CANNOSCALE
350
81
  3
CMLEADERSTYLE
350
7E
  3
CTABLESTYLE
350
7D
  3
CVIEWDETAILSTYLE
350
7F
  3
CVIEWSECTIONSTYLE
350
80
  0
DICTIONARY
  5
386
102
{ACAD_REACTORS
330
C
102
}
330
C
100
AcDbDictionary
281
     1
  3
DRAWING_TOOL
350
38A
  3
REVIT_CATEGORY_MAPPING
350
388
  3
REVIT_SUB_CATEGORY_MAPPING
350
389
  3
REVIT_TYPE_MAPPING
350
387
  0
SORTENTSTABLE
  5
38C
102
{ACAD_REACTORS
330
38B
102
}
330
38B
100
AcDbSortentsTable
330
71
  0
ACDBDETAILVIEWSTYLE
  5
6C
102
{ACAD_REACTORS
330
6B
102
}
330
6B
100
AcDbModelDocViewStyle
 70
     0
  3
Imperial24
290
     1
100
AcDbDetailViewStyle
 70
     0
 71
     0
 90
        3
 71
     1
340
55
 62
   256
 40
0.24
340
0
 62
   256
 40
0.24
300

 40
0.36
280
     3
 71
     2
340
5D
 90
       25
 62
   256
 71
     3
340
55
 62
   256
 40
0.24
 90
        1
 40
0.75
 90
        1
300
%<\AcVar ViewType \f "%tc1">% %<\AcVar ViewDetailId>%\PSCALA %<\AcVar ViewScale \f "%sn">%
 71
     4
340
5D
 90
       25
 62
   256
340
5D
 90
       25
 62
   256
280
     0
  0
LAYOUT
  5
70
102
{ACAD_REACTORS
330
62
102
}
330
62
100
AcDbPlotSettings
  1

  2

  4

  6

 40
0.0
 41
0.0
 42
0.0
 43
0.0
 44
0.0
 45
0.0
 46
0.0
 47
0.0
 48
0.0
 49
0.0
140
0.0
141
0.0
142
1.0
143
1.0
 70
   688
 72
     0
 73
     0
 74
     5
  7

 75
    16
147
1.0
 76
     0
 77
     2
 78
   300
148
0.0
149
0.0
100
AcDbLayout
  1
Layout1
 70
     1
 71
     1
 10
0.0
 20
0.0
 11
12.0
 21
9.0
 12
0.0
 22
0.0
 32
0.0
 14
0.0
 24
0.0
 34
0.0
 15
0.0
 25
0.0
 35
0.0
146
0.0
 13
0.0
 23
0.0
 33
0.0
 16
1.0
 26
0.0
 36
0.0
 17
0.0
 27
1.0
 37
0.0
 76
     0
330
6D
  0
LAYOUT
  5
78
102
{ACAD_REACTORS
330
62
102
}
330
62
100
AcDbPlotSettings
  1

  2

  4

  6

 40
0.0
 41
0.0
 42
0.0
 43
0.0
 44
0.0
 45
0.0
 46
0.0
 47
0.0
 48
0.0
 49
0.0
140
0.0
141
0.0
142
1.0
143
1.0
 70
   688
 72
     0
 73
     0
 74
     5
  7

 75
    16
147
1.0
 76
     0
 77
     2
 78
   300
148
0.0
149
0.0
100
AcDbLayout
  1
Layout2
 70
     1
 71
     2
 10
0.0
 20
0.0
 11
12.0
 21
9.0
 12
0.0
 22
0.0
 32
0.0
 14
0.0
 24
0.0
 34
0.0
 15
0.0
 25
0.0
 35
0.0
146
0.0
 13
0.0
 23
0.0
 33
0.0
 16
1.0
 26
0.0
 36
0.0
 17
0.0
 27
1.0
 37
0.0
 76
     0
330
75
  0
LAYOUT
  5
74
102
{ACAD_REACTORS
330
62
102
}
330
62
100
AcDbPlotSettings
  1

  2

  4

  6

 40
0.0
 41
0.0
 42
0.0
 43
0.0
 44
0.0
 45
0.0
 46
0.0
 47
0.0
 48
0.0
 49
0.0
140
0.0
141
0.0
142
1.0
143
1.0
 70
  1712
 72
     0
 73
     0
 74
     0
  7

 75
     0
147
1.0
 76
     0
 77
     2
 78
   300
148
0.0
149
0.0
100
AcDbLayout
  1
Model
 70
     1
 71
     0
 10
0.0
 20
0.0
 11
12.0
 21
9.0
 12
0.0
 22
0.0
 32
0.0
 14
0.0
 24
0.0
 34
0.0
 15
0.0
 25
0.0
 35
0.0
146
0.0
 13
0.0
 23
0.0
 33
0.0
 16
1.0
 26
0.0
 36
0.0
 17
0.0
 27
1.0
 37
0.0
 76
     0
330
71
  0
MATERIAL
  5
19
102
{ACAD_XDICTIONARY
360
1A
102
}
102
{ACAD_REACTORS
330
10
102
}
330
10
100
AcDbMaterial
  1
ByBlock
 72
     0
 43
0.0208333333333333
 43
0.0
 43
0.0
 43
0.0
 43
0.0
 43
0.0208333333333333
 43
0.0
 43
0.0
 43
0.0
 43
0.0
 43
1.0
 43
0.0
 43
0.0
 43
0.0
 43
0.0
 43
1.0
 77
     0
 47
0.0208333333333333
 47
0.0
 47
0.0
 47
0.0
 47
0.0
 47
0.0208333333333333
 47
0.0
 47
0.0
 47
0.0
 47
0.0
 47
1.0
 47
0.0
 47
0.0
 47
0.0
 47
0.0
 47
1.0
171
     0
 49
0.0208333333333333
 49
0.0
 49
0.0
 49
0.0
 49
0.0
 49
0.0208333333333333
 49
0.0
 49
0.0
 49
0.0
 49
0.0
 49
1.0
 49
0.0
 49
0.0
 49
0.0
 49
0.0
 49
1.0
175
     0
142
0.0208333333333333
142
0.0
142
0.0
142
0.0
142
0.0
142
0.0208333333333333
142
0.0
142
0.0
142
0.0
142
0.0
142
1.0
142
0.0
142
0.0
142
0.0
142
0.0
142
1.0
179
     0
144
0.0208333333333333
144
0.0
144
0.0
144
0.0
144
0.0
144
0.0208333333333333
144
0.0
144
0.0
144
0.0
144
0.0
144
1.0
144
0.0
144
0.0
144
0.0
144
0.0
144
1.0
147
0.0208333333333333
147
0.0
147
0.0
147
0.0
147
0.0
147
0.0208333333333333
147
0.0
147
0.0
147
0.0
147
0.0
147
1.0
147
0.0
147
0.0
147
0.0
147
0.0
147
1.0
  0
MATERIAL
  5
11
102
{ACAD_XDICTIONARY
360
12
102
}
102
{ACAD_REACTORS
330
10
102
}
330
10
100
AcDbMaterial
  1
ByLayer
 72
     0
 43
0.0208333333333333
 43
0.0
 43
0.0
 43
0.0
 43
0.0
 43
0.0208333333333333
 43
0.0
 43
0.0
 43
0.0
 43
0.0
 43
1.0
 43
0.0
 43
0.0
 43
0.0
 43
0.0
 43
1.0
 77
     0
 47
0.0208333333333333
 47
0.0
 47
0.0
 47
0.0
 47
0.0
 47
0.0208333333333333
 47
0.0
 47
0.0
 47
0.0
 47
0.0
 47
1.0
 47
0.0
 47
0.0
 47
0.0
 47
0.0
 47
1.0
171
     0
 49
0.0208333333333333
 49
0.0
 49
0.0
 49
0.0
 49
0.0
 49
0.0208333333333333
 49
0.0
 49
0.0
 49
0.0
 49
0.0
 49
1.0
 49
0.0
 49
0.0
 49
0.0
 49
0.0
 49
1.0
175
     0
142
0.0208333333333333
142
0.0
142
0.0
142
0.0
142
0.0
142
0.0208333333333333
142
0.0
142
0.0
142
0.0
142
0.0
142
1.0
142
0.0
142
0.0
142
0.0
142
0.0
142
1.0
179
     0
144
0.0208333333333333
144
0.0
144
0.0
144
0.0
144
0.0
144
0.0208333333333333
144
0.0
144
0.0
144
0.0
144
0.0
144
1.0
144
0.0
144
0.0
144
0.0
144
0.0
144
1.0
147
0.0208333333333333
147
0.0
147
0.0
147
0.0
147
0.0
147
0.0208333333333333
147
0.0
147
0.0
147
0.0
147
0.0
147
1.0
147
0.0
147
0.0
147
0.0
147
0.0
147
1.0
  0
MATERIAL
  5
21
102
{ACAD_XDICTIONARY
360
22
102
}
102
{ACAD_REACTORS
330
10
102
}
330
10
100
AcDbMaterial
  1
Global
 72
     0
 43
0.0208333333333333
 43
0.0
 43
0.0
 43
0.0
 43
0.0
 43
0.0208333333333333
 43
0.0
 43
0.0
 43
0.0
 43
0.0
 43
1.0
 43
0.0
 43
0.0
 43
0.0
 43
0.0
 43
1.0
 77
     0
 47
0.0208333333333333
 47
0.0
 47
0.0
 47
0.0
 47
0.0
 47
0.0208333333333333
 47
0.0
 47
0.0
 47
0.0
 47
0.0
 47
1.0
 47
0.0
 47
0.0
 47
0.0
 47
0.0
 47
1.0
171
     0
 49
0.0208333333333333
 49
0.0
 49
0.0
 49
0.0
 49
0.0
 49
0.0208333333333333
 49
0.0
 49
0.0
 49
0.0
 49
0.0
 49
1.0
 49
0.0
 49
0.0
 49
0.0
 49
0.0
 49
1.0
175
     0
142
0.0208333333333333
142
0.0
142
0.0
142
0.0
142
0.0
142
0.0208333333333333
142
0.0
142
0.0
142
0.0
142
0.0
142
1.0
142
0.0
142
0.0
142
0.0
142
0.0
142
1.0
179
     0
144
0.0208333333333333
144
0.0
144
0.0
144
0.0
144
0.0
144
0.0208333333333333
144
0.0
144
0.0
144
0.0
144
0.0
144
1.0
144
0.0
144
0.0
144
0.0
144
0.0
144
1.0
147
0.0208333333333333
147
0.0
147
0.0
147
0.0
147
0.0
147
0.0208333333333333
147
0.0
147
0.0
147
0.0
147
0.0
147
1.0
147
0.0
147
0.0
147
0.0
147
0.0
147
1.0
  0
MLEADERSTYLE
  5
67
102
{ACAD_REACTORS
330
66
102
}
330
66
100
AcDbMLeaderStyle
179
     2
170
     2
171
     1
172
     0
 90
        2
 40
0.0
 41
0.0
173
     1
 91
-1056964608
340
5B
 92
       -2
290
     1
 42
0.09
291
     1
 43
0.36
  3
Standard
 44
0.18
300

342
55
174
     1
178
     6
175
     1
176
     0
 93
-1056964608
 45
0.18
292
     0
297
     0
 46
0.18
 94
-1056964608
 47
1.0
 49
1.0
140
1.0
293
     1
141
0.0
294
     1
177
     0
142
1.0
295
     1
296
     0
143
0.125
271
     0
272
     9
273
     9
298
     1
  0
MLINESTYLE
  5
60
102
{ACAD_REACTORS
330
5F
102
}
330
5F
100
AcDbMlineStyle
  2
STANDARD
 70
     0
  3

 62
   256
 51
90.0
 52
90.0
 71
     2
 49
0.5
 62
   256
  6
BYLAYER
 49
-0.5
 62
   256
  6
BYLAYER
  0
ACDBPLACEHOLDER
  5
F
102
{ACAD_REACTORS
330
E
102
}
330
E
  0
SCALE
  5
43
102
{ACAD_REACTORS
330
42
102
}
330
42
100
AcDbScale
 70
     0
300
1:1
140
1.0
141
1.0
290
     1
  0
SCALE
  5
44
102
{ACAD_REACTORS
330
42
102
}
330
42
100
AcDbScale
 70
     0
300
1/128" = 1'-0"
140
0.0078125
141
12.0
290
     0
  0
SCALE
  5
45
102
{ACAD_REACTORS
330
42
102
}
330
42
100
AcDbScale
 70
     0
300
1/64" = 1'-0"
140
0.015625
141
12.0
290
     0
  0
SCALE
  5
46
102
{ACAD_REACTORS
330
42
102
}
330
42
100
AcDbScale
 70
     0
300
1/32" = 1'-0"
140
0.03125
141
12.0
290
     0
  0
SCALE
  5
47
102
{ACAD_REACTORS
330
42
102
}
330
42
100
AcDbScale
 70
     0
300
1/16" = 1'-0"
140
0.0625
141
12.0
290
     0
  0
SCALE
  5
48
102
{ACAD_REACTORS
330
42
102
}
330
42
100
AcDbScale
 70
     0
300
3/32" = 1'-0"
140
0.09375
141
12.0
290
     0
  0
SCALE
  5
49
102
{ACAD_REACTORS
330
42
102
}
330
42
100
AcDbScale
 70
     0
300
1/8" = 1'-0"
140
0.125
141
12.0
290
     0
  0
SCALE
  5
4A
102
{ACAD_REACTORS
330
42
102
}
330
42
100
AcDbScale
 70
     0
300
3/16" = 1'-0"
140
0.1875
141
12.0
290
     0
  0
SCALE
  5
4B
102
{ACAD_REACTORS
330
42
102
}
330
42
100
AcDbScale
 70
     0
300
1/4" = 1'-0"
140
0.25
141
12.0
290
     0
  0
SCALE
  5
4C
102
{ACAD_REACTORS
330
42
102
}
330
42
100
AcDbScale
 70
     0
300
3/8" = 1'-0"
140
0.375
141
12.0
290
     0
  0
SCALE
  5
4D
102
{ACAD_REACTORS
330
42
102
}
330
42
100
AcDbScale
 70
     0
300
1/2" = 1'-0"
140
0.5
141
12.0
290
     0
  0
SCALE
  5
4E
102
{ACAD_REACTORS
330
42
102
}
330
42
100
AcDbScale
 70
     0
300
3/4" = 1'-0"
140
0.75
141
12.0
290
     0
  0
SCALE
  5
4F
102
{ACAD_REACTORS
330
42
102
}
330
42
100
AcDbScale
 70
     0
300
1" = 1'-0"
140
1.0
141
12.0
290
     0
  0
SCALE
  5
50
102
{ACAD_REACTORS
330
42
102
}
330
42
100
AcDbScale
 70
     0
300
1-1/2" = 1'-0"
140
1.5
141
12.0
290
     0
  0
SCALE
  5
51
102
{ACAD_REACTORS
330
42
102
}
330
42
100
AcDbScale
 70
     0
300
3" = 1'-0"
140
3.0
141
12.0
290
     0
  0
SCALE
  5
52
102
{ACAD_REACTORS
330
42
102
}
330
42
100
AcDbScale
 70
     0
300
6" = 1'-0"
140
6.0
141
12.0
290
     0
  0
SCALE
  5
53
102
{ACAD_REACTORS
330
42
102
}
330
42
100
AcDbScale
 70
     0
300
1'-0" = 1'-0"
140
12.0
141
12.0
290
     0
  0
ACDBSECTIONVIEWSTYLE
  5
6A
102
{ACAD_REACTORS
330
68
102
}
330
68
100
AcDbModelDocViewStyle
 70
     0
  3
Imperial24
290
     1
100
AcDbSectionViewStyle
 70
     0
 71
     0
 90
       78
 71
     1
340
55
 62
   256
 40
0.24
340
0
340
0
 62
   256
 40
0.24
300
I, O, Q, S, X, Z
 40
0.48
 90
        3
 40
0.18
 90
        1
 71
     2
340
69
 90
       25
 62
   256
340
5D
 90
       50
 62
   256
 40
0.24
 40
0.0
 40
0.24
 71
     3
340
55
 62
   256
 40
0.24
 90
        1
 40
0.75
 90
        1
300
%<\AcVar ViewType \f "%tc1">% %<\AcVar ViewSectionStartId>%-%<\AcVar ViewSectionEndId>%\PSCALA %<\AcVar ViewScale \f "%sn">%
 71
     4
 62
   256
 62
   257
300
ANSI31
 40
1.0
 90
        0
290
     0
290
     0
 90
        6
 40
0.0
 40
1.570796326794896
 40
0.2617993877991494
 40
1.308996938995747
 40
-0.2617993877991494
 40
1.832595714594046
  0
TABLESTYLE
  5
65
102
{ACAD_XDICTIONARY
360
38D
102
}
102
{ACAD_REACTORS
330
64
102
}
330
64
100
AcDbTableStyle
280
     0
  3
Standard
 70
     0
 71
     0
 40
0.06
 41
0.06
280
     0
281
     0
  7
Standard
140
0.18
170
     2
 62
     0
 63
     7
283
     0
 90
      512
 91
        0
  1

274
    -2
284
     1
 64
     0
275
    -2
285
     1
 65
     0
276
    -2
286
     1
 66
     0
277
    -2
287
     1
 67
     0
278
    -2
288
     1
 68
     0
279
    -2
289
     1
 69
     0
  7
Standard
140
0.25
170
     5
 62
     0
 63
     7
283
     0
 90
      512
 91
        0
  1

274
    -2
284
     1
 64
     0
275
    -2
285
     1
 65
     0
276
    -2
286
     1
 66
     0
277
    -2
287
     1
 67
     0
278
    -2
288
     1
 68
     0
279
    -2
289
     1
 69
     0
  7
Standard
140
0.18
170
     5
 62
     0
 63
     7
283
     0
 90
      512
 91
        0
  1

274
    -2
284
     1
 64
     0
275
    -2
285
     1
 65
     0
276
    -2
286
     1
 66
     0
277
    -2
287
     1
 67
     0
278
    -2
288
     1
 68
     0
279
    -2
289
     1
 69
     0
  0
VISUALSTYLE
  5
2F
102
{ACAD_REACTORS
330
29
102
}
330
29
100
AcDbVisualStyle
  2
2dWireframe
 70
     4
177
     3
291
     0
 70
    58
 90
        0
176
     1
 90
        2
176
     1
 90
        0
176
     1
 90
        0
176
     1
 40
0.6
176
     1
 40
30.0
176
     1
 62
     7
420
 16777215
176
     1
 90
        1
176
     1
 90
        4
176
     1
 62
     7
176
     1
 62
   257
176
     1
 90
        1
176
     1
 90
        1
176
     1
 40
1.0
176
     1
 90
        0
176
     1
 62
   257
176
     1
 40
1.0
176
     1
 90
        1
176
     1
 90
        6
176
     1
 90
        2
176
     1
 62
     7
176
     1
 90
        5
176
     1
 90
        0
176
     1
 90
        0
176
     1
290
     0
176
     1
 90
        1
176
     1
 40
0.0
176
     1
 90
        0
176
     1
290
     1
176
     1
290
     1
176
     1
290
     0
176
     1
290
     0
176
     1
290
     0
176
     1
290
     0
176
     1
290
     0
176
     1
290
     0
176
     1
290
     0
176
     1
 90
       50
176
     1
 40
0.0
176
     1
 40
1.0
176
     1
 90
        0
176
     1
 62
    18
420
        0
176
     1
 90
       50
176
     1
 90
        3
176
     1
 62
     5
420
      255
176
     1
290
     0
176
     1
 90
       50
176
     1
 90
       50
176
     1
 90
       50
176
     1
290
     0
176
     1
 90
       50
176
     1
 62
   256
176
     0
 40
1.0
176
     0
 90
        2
176
     1
  1
strokes_ogs.tif
176
     1
290
     0
176
     1
 40
1.0
176
     1
 40
1.0
176
     1
  0
VISUALSTYLE
  5
2E
102
{ACAD_REACTORS
330
29
102
}
330
29
100
AcDbVisualStyle
  2
Basic
 70
     7
177
     3
291
     1
 70
    58
 90
        1
176
     1
 90
        0
176
     1
 90
        1
176
     1
 90
        0
176
     1
 40
0.6
176
     1
 40
30.0
176
     1
 62
     7
420
 16777215
176
     1
 90
        0
176
     1
 90
        4
176
     1
 62
     7
176
     1
 62
   257
176
     1
 90
        1
176
     1
 90
        1
176
     1
 40
1.0
176
     1
 90
        8
176
     1
 62
     7
176
     1
 40
1.0
176
     1
 90
        1
176
     1
 90
        6
176
     1
 90
        2
176
     1
 62
     7
176
     1
 90
        5
176
     1
 90
        0
176
     1
 90
        0
176
     1
290
     0
176
     1
 90
        1
176
     1
 40
0.0
176
     1
 90
        0
176
     1
290
     0
176
     1
290
     1
176
     1
290
     1
176
     1
290
     0
176
     1
290
     0
176
     1
290
     0
176
     1
290
     0
176
     1
290
     0
176
     1
290
     0
176
     1
 90
       50
176
     1
 40
0.0
176
     1
 40
1.0
176
     1
 90
        0
176
     1
 62
    18
420
        0
176
     1
 90
       50
176
     1
 90
        3
176
     1
 62
     5
420
      255
176
     1
290
     0
176
     1
 90
       50
176
     1
 90
       50
176
     1
 90
       50
176
     1
290
     0
176
     1
 90
       50
176
     1
 62
   256
176
     0
 40
1.0
176
     0
 90
        2
176
     1
  1
strokes_ogs.tif
176
     1
290
     0
176
     1
 40
1.0
176
     1
 40
1.0
176
     1
  0
VISUALSTYLE
  5
35
102
{ACAD_REACTORS
330
29
102
}
330
29
100
AcDbVisualStyle
  2
Brighten
 70
    12
177
     3
291
     1
 70
    58
 90
        2
176
     1
 90
        2
176
     1
 90
        0
176
     1
 90
        0
176
     1
 40
0.6
176
     1
 40
30.0
176
     1
 62
     7
420
 16777215
176
     1
 90
        1
176
     1
 90
        4
176
     1
 62
     7
176
     1
 62
   257
176
     1
 90
        1
176
     1
 90
        1
176
     1
 40
1.0
176
     1
 90
        8
176
     1
 62
     7
176
     1
 40
1.0
176
     1
 90
        1
176
     1
 90
        6
176
     1
 90
        2
176
     1
 62
     7
176
     1
 90
        5
176
     1
 90
        0
176
     1
 90
        0
176
     1
290
     0
176
     1
 90
        1
176
     1
 40
50.0
176
     1
 90
        0
176
     1
290
     0
176
     1
290
     1
176
     1
290
     1
176
     1
290
     0
176
     1
290
     0
176
     1
290
     0
176
     1
290
     0
176
     1
290
     0
176
     1
290
     0
176
     1
 90
       50
176
     1
 40
0.0
176
     1
 40
1.0
176
     1
 90
        0
176
     1
 62
    18
420
        0
176
     1
 90
       50
176
     1
 90
        3
176
     1
 62
     5
420
      255
176
     1
290
     0
176
     1
 90
       50
176
     1
 90
       50
176
     1
 90
       50
176
     1
290
     0
176
     1
 90
       50
176
     1
 62
   256
176
     0
 40
1.0
176
     0
 90
        2
176
     1
  1
strokes_ogs.tif
176
     1
290
     0
176
     1
 40
1.0
176
     1
 40
1.0
176
     1
  0
VISUALSTYLE
  5
39
102
{ACAD_REACTORS
330
29
102
}
330
29
100
AcDbVisualStyle
  2
ColorChange
 70
    16
177
     3
291
     1
 70
    58
 90
        2
176
     1
 90
        2
176
     1
 90
        3
176
     1
 90
        0
176
     1
 40
0.6
176
     1
 40
30.0
176
     1
 62
     8
420
  8421504
176
     1
 90
        1
176
     1
 90
        4
176
     1
 62
     7
176
     1
 62
   257
176
     1
 90
        1
176
     1
 90
        1
176
     1
 40
1.0
176
     1
 90
        8
176
     1
 62
     8
420
  8421504
176
     1
 40
1.0
176
     1
 90
        1
176
     1
 90
        6
176
     1
 90
        2
176
     1
 62
     7
176
     1
 90
        5
176
     1
 90
        0
176
     1
 90
        0
176
     1
290
     0
176
     1
 90
        1
176
     1
 40
0.0
176
     1
 90
        0
176
     1
290
     0
176
     1
290
     1
176
     1
290
     1
176
     1
290
     0
176
     1
290
     0
176
     1
290
     0
176
     1
290
     0
176
     1
290
     0
176
     1
290
     0
176
     1
 90
       50
176
     1
 40
0.0
176
     1
 40
1.0
176
     1
 90
        0
176
     1
 62
    18
420
        0
176
     1
 90
       50
176
     1
 90
        3
176
     1
 62
     5
420
      255
176
     1
290
     0
176
     1
 90
       50
176
     1
 90
       50
176
     1
 90
       50
176
     1
290
     0
176
     1
 90
       50
176
     1
 62
   256
176
     0
 40
1.0
176
     0
 90
        2
176
     1
  1
strokes_ogs.tif
176
     1
290
     0
176
     1
 40
1.0
176
     1
 40
1.0
176
     1
  0
VISUALSTYLE
  5
32
102
{ACAD_REACTORS
330
29
102
}
330
29
100
AcDbVisualStyle
  2
Conceptual
 70
     9
177
     3
291
     0
 70
    58
 90
        3
176
     1
 90
        2
176
     1
 90
        0
176
     1
 90
        0
176
     1
 40
0.6
176
     1
 40
30.0
176
     1
 62
     7
420
 16777215
176
     1
 90
        2
176
     1
 90
        2
176
     1
 62
     7
176
     1
 62
   257
176
     1
 90
        1
176
     1
 90
        1
176
     1
 40
179.0
176
     1
 90
        8
176
     1
 62
     7
176
     1
 40
1.0
176
     1
 90
        1
176
     1
 90
        6
176
     1
 90
        2
176
     1
 62
     7
176
     1
 90
        3
176
     1
 90
        0
176
     1
 90
        0
176
     1
290
     0
176
     1
 90
        1
176
     1
 40
0.0
176
     1
 90
        0
176
     1
290
     0
176
     1
290
     1
176
     1
290
     1
176
     1
290
     0
176
     1
290
     0
176
     1
290
     0
176
     1
290
     0
176
     1
290
     0
176
     1
290
     0
176
     1
 90
       50
176
     1
 40
0.0
176
     1
 40
1.0
176
     1
 90
        0
176
     1
 62
    18
420
        0
176
     1
 90
       50
176
     1
 90
        3
176
     1
 62
     5
420
      255
176
     1
290
     0
176
     1
 90
       50
176
     1
 90
       50
176
     1
 90
       50
176
     1
290
     0
176
     1
 90
       50
176
     1
 62
   256
176
     0
 40
1.0
176
     0
 90
        2
176
     1
  1
strokes_ogs.tif
176
     1
290
     0
176
     1
 40
1.0
176
     1
 40
1.0
176
     1
  0
VISUALSTYLE
  5
34
102
{ACAD_REACTORS
330
29
102
}
330
29
100
AcDbVisualStyle
  2
Dim
 70
    11
177
     3
291
     1
 70
    58
 90
        2
176
     1
 90
        2
176
     1
 90
        0
176
     1
 90
        0
176
     1
 40
0.6
176
     1
 40
30.0
176
     1
 62
     7
420
 16777215
176
     1
 90
        1
176
     1
 90
        4
176
     1
 62
     7
176
     1
 62
   257
176
     1
 90
        1
176
     1
 90
        1
176
     1
 40
1.0
176
     1
 90
        8
176
     1
 62
     7
176
     1
 40
1.0
176
     1
 90
        1
176
     1
 90
        6
176
     1
 90
        2
176
     1
 62
     7
176
     1
 90
        5
176
     1
 90
        0
176
     1
 90
        0
176
     1
290
     0
176
     1
 90
        1
176
     1
 40
-50.0
176
     1
 90
        0
176
     1
290
     0
176
     1
290
     1
176
     1
290
     1
176
     1
290
     0
176
     1
290
     0
176
     1
290
     0
176
     1
290
     0
176
     1
290
     0
176
     1
290
     0
176
     1
 90
       50
176
     1
 40
0.0
176
     1
 40
1.0
176
     1
 90
        0
176
     1
 62
    18
420
        0
176
     1
 90
       50
176
     1
 90
        3
176
     1
 62
     5
420
      255
176
     1
290
     0
176
     1
 90
       50
176
     1
 90
       50
176
     1
 90
       50
176
     1
290
     0
176
     1
 90
       50
176
     1
 62
   256
176
     0
 40
1.0
176
     0
 90
        2
176
     1
  1
strokes_ogs.tif
176
     1
290
     0
176
     1
 40
1.0
176
     1
 40
1.0
176
     1
  0
VISUALSTYLE
  5
41
102
{ACAD_REACTORS
330
29
102
}
330
29
100
AcDbVisualStyle
  2
EdgeColorOff
 70
    22
177
     3
291
     1
 70
    58
 90
        2
176
     0
 90
        2
176
     0
 90
        0
176
     0
 90
        0
176
     0
 40
0.6
176
     0
 40
30.0
176
     0
 62
     7
420
 16777215
176
     0
 90
        1
176
     0
 90
        4
176
     0
 62
     7
176
     0
 62
   257
176
     0
 90
        1
176
     0
 90
        1
176
     0
 40
1.0
176
     0
 90
        8
176
     2
 62
     7
176
     0
 40
1.0
176
     0
 90
        1
176
     0
 90
        6
176
     0
 90
        2
176
     0
 62
     7
176
     0
 90
        5
176
     0
 90
        0
176
     0
 90
        0
176
     0
290
     0
176
     0
 90
        1
176
     0
 40
0.0
176
     0
 90
        0
176
     0
290
     0
176
     0
290
     1
176
     0
290
     1
176
     0
290
     0
176
     0
290
     0
176
     0
290
     0
176
     0
290
     0
176
     0
290
     0
176
     0
290
     0
176
     0
 90
       50
176
     0
 40
0.0
176
     0
 40
1.0
176
     0
 90
        0
176
     0
 62
    18
420
        0
176
     0
 90
       50
176
     0
 90
        3
176
     0
 62
     5
420
      255
176
     0
290
     0
176
     0
 90
       50
176
     0
 90
       50
176
     0
 90
       50
176
     0
290
     0
176
     0
 90
       50
176
     0
 62
   256
176
     0
 40
1.0
176
     0
 90
        2
176
     0
  1
strokes_ogs.tif
176
     0
290
     0
176
     0
 40
1.0
176
     0
 40
1.0
176
     0
  0
VISUALSTYLE
  5
38
102
{ACAD_REACTORS
330
29
102
}
330
29
100
AcDbVisualStyle
  2
Facepattern
 70
    15
177
     3
291
     1
 70
    58
 90
        2
176
     1
 90
        2
176
     1
 90
        0
176
     1
 90
        0
176
     1
 40
0.6
176
     1
 40
30.0
176
     1
 62
     7
420
 16777215
176
     1
 90
        1
176
     1
 90
        4
176
     1
 62
     7
176
     1
 62
   257
176
     1
 90
        1
176
     1
 90
        1
176
     1
 40
1.0
176
     1
 90
        8
176
     1
 62
     7
176
     1
 40
1.0
176
     1
 90
        1
176
     1
 90
        6
176
     1
 90
        2
176
     1
 62
     7
176
     1
 90
        5
176
     1
 90
        0
176
     1
 90
        0
176
     1
290
     0
176
     1
 90
        1
176
     1
 40
0.0
176
     1
 90
        0
176
     1
290
     0
176
     1
290
     1
176
     1
290
     1
176
     1
290
     0
176
     1
290
     0
176
     1
290
     0
176
     1
290
     0
176
     1
290
     0
176
     1
290
     0
176
     1
 90
       50
176
     1
 40
0.0
176
     1
 40
1.0
176
     1
 90
        0
176
     1
 62
    18
420
        0
176
     1
 90
       50
176
     1
 90
        3
176
     1
 62
     5
420
      255
176
     1
290
     0
176
     1
 90
       50
176
     1
 90
       50
176
     1
 90
       50
176
     1
290
     0
176
     1
 90
       50
176
     1
 62
   256
176
     0
 40
1.0
176
     0
 90
        2
176
     1
  1
strokes_ogs.tif
176
     1
290
     0
176
     1
 40
1.0
176
     1
 40
1.0
176
     1
  0
VISUALSTYLE
  5
2A
102
{ACAD_REACTORS
330
29
102
}
330
29
100
AcDbVisualStyle
  2
Flat
 70
     0
177
     3
291
     1
 70
    58
 90
        2
176
     1
 90
        1
176
     1
 90
        1
176
     1
 90
        2
176
     1
 40
0.6
176
     1
 40
30.0
176
     1
 62
     7
420
 16777215
176
     1
 90
        0
176
     1
 90
        0
176
     1
 62
     7
176
     1
 62
   257
176
     1
 90
        1
176
     1
 90
        1
176
     1
 40
1.0
176
     1
 90
        8
176
     1
 62
     7
176
     1
 40
1.0
176
     1
 90
        1
176
     1
 90
        6
176
     1
 90
        2
176
     1
 62
     7
176
     1
 90
        5
176
     1
 90
        0
176
     1
 90
        0
176
     1
290
     0
176
     1
 90
       13
176
     1
 40
0.0
176
     1
 90
        0
176
     1
290
     0
176
     1
290
     1
176
     1
290
     1
176
     1
290
     0
176
     1
290
     0
176
     1
290
     0
176
     1
290
     0
176
     1
290
     0
176
     1
290
     0
176
     1
 90
       50
176
     1
 40
0.0
176
     1
 40
1.0
176
     1
 90
        0
176
     1
 62
    18
420
        0
176
     1
 90
       50
176
     1
 90
        3
176
     1
 62
     5
420
      255
176
     1
290
     0
176
     1
 90
       50
176
     1
 90
       50
176
     1
 90
       50
176
     1
290
     0
176
     1
 90
       50
176
     1
 62
   256
176
     0
 40
1.0
176
     0
 90
        2
176
     1
  1
strokes_ogs.tif
176
     1
290
     0
176
     1
 40
1.0
176
     1
 40
1.0
176
     1
  0
VISUALSTYLE
  5
2B
102
{ACAD_REACTORS
330
29
102
}
330
29
100
AcDbVisualStyle
  2
FlatWithEdges
 70
     1
177
     3
291
     1
 70
    58
 90
        2
176
     1
 90
        1
176
     1
 90
        1
176
     1
 90
        2
176
     1
 40
0.6
176
     1
 40
30.0
176
     1
 62
     7
420
 16777215
176
     1
 90
        1
176
     1
 90
        0
176
     1
 62
     7
176
     1
 62
   257
176
     1
 90
        1
176
     1
 90
        1
176
     1
 40
1.0
176
     1
 90
        0
176
     1
 62
   257
176
     1
 40
1.0
176
     1
 90
        1
176
     1
 90
        6
176
     1
 90
        2
176
     1
 62
     7
176
     1
 90
        5
176
     1
 90
        0
176
     1
 90
        0
176
     1
290
     0
176
     1
 90
       13
176
     1
 40
0.0
176
     1
 90
        0
176
     1
290
     0
176
     1
290
     1
176
     1
290
     1
176
     1
290
     0
176
     1
290
     0
176
     1
290
     0
176
     1
290
     0
176
     1
290
     0
176
     1
290
     0
176
     1
 90
       50
176
     1
 40
0.0
176
     1
 40
1.0
176
     1
 90
        0
176
     1
 62
    18
420
        0
176
     1
 90
       50
176
     1
 90
        3
176
     1
 62
     5
420
      255
176
     1
290
     0
176
     1
 90
       50
176
     1
 90
       50
176
     1
 90
       50
176
     1
290
     0
176
     1
 90
       50
176
     1
 62
   256
176
     0
 40
1.0
176
     0
 90
        2
176
     1
  1
strokes_ogs.tif
176
     1
290
     0
176
     1
 40
1.0
176
     1
 40
1.0
176
     1
  0
VISUALSTYLE
  5
2C
102
{ACAD_REACTORS
330
29
102
}
330
29
100
AcDbVisualStyle
  2
Gouraud
 70
     2
177
     3
291
     1
 70
    58
 90
        2
176
     1
 90
        2
176
     1
 90
        1
176
     1
 90
        2
176
     1
 40
0.6
176
     1
 40
30.0
176
     1
 62
     7
420
 16777215
176
     1
 90
        0
176
     1
 90
        0
176
     1
 62
     7
176
     1
 62
   257
176
     1
 90
        1
176
     1
 90
        1
176
     1
 40
1.0
176
     1
 90
        0
176
     1
 62
     7
176
     1
 40
1.0
176
     1
 90
        1
176
     1
 90
        6
176
     1
 90
        2
176
     1
 62
     7
176
     1
 90
        5
176
     1
 90
        0
176
     1
 90
        0
176
     1
290
     0
176
     1
 90
       13
176
     1
 40
0.0
176
     1
 90
        0
176
     1
290
     0
176
     1
290
     1
176
     1
290
     1
176
     1
290
     0
176
     1
290
     0
176
     1
290
     0
176
     1
290
     0
176
     1
290
     0
176
     1
290
     0
176
     1
 90
       50
176
     1
 40
0.0
176
     1
 40
1.0
176
     1
 90
        0
176
     1
 62
    18
420
        0
176
     1
 90
       50
176
     1
 90
        3
176
     1
 62
     5
420
      255
176
     1
290
     0
176
     1
 90
       50
176
     1
 90
       50
176
     1
 90
       50
176
     1
290
     0
176
     1
 90
       50
176
     1
 62
   256
176
     0
 40
1.0
176
     0
 90
        2
176
     1
  1
strokes_ogs.tif
176
     1
290
     0
176
     1
 40
1.0
176
     1
 40
1.0
176
     1
  0
VISUALSTYLE
  5
2D
102
{ACAD_REACTORS
330
29
102
}
330
29
100
AcDbVisualStyle
  2
GouraudWithEdges
 70
     3
177
     3
291
     1
 70
    58
 90
        2
176
     1
 90
        2
176
     1
 90
        1
176
     1
 90
        2
176
     1
 40
0.6
176
     1
 40
30.0
176
     1
 62
     7
420
 16777215
176
     1
 90
        1
176
     1
 90
        0
176
     1
 62
     7
176
     1
 62
   257
176
     1
 90
        1
176
     1
 90
        1
176
     1
 40
1.0
176
     1
 90
        0
176
     1
 62
   257
176
     1
 40
1.0
176
     1
 90
        1
176
     1
 90
        6
176
     1
 90
        2
176
     1
 62
     7
176
     1
 90
        5
176
     1
 90
        0
176
     1
 90
        0
176
     1
290
     0
176
     1
 90
       13
176
     1
 40
0.0
176
     1
 90
        0
176
     1
290
     0
176
     1
290
     1
176
     1
290
     1
176
     1
290
     0
176
     1
290
     0
176
     1
290
     0
176
     1
290
     0
176
     1
290
     0
176
     1
290
     0
176
     1
 90
       50
176
     1
 40
0.0
176
     1
 40
1.0
176
     1
 90
        0
176
     1
 62
    18
420
        0
176
     1
 90
       50
176
     1
 90
        3
176
     1
 62
     5
420
      255
176
     1
290
     0
176
     1
 90
       50
176
     1
 90
       50
176
     1
 90
       50
176
     1
290
     0
176
     1
 90
       50
176
     1
 62
   256
176
     0
 40
1.0
176
     0
 90
        2
176
     1
  1
strokes_ogs.tif
176
     1
290
     0
176
     1
 40
1.0
176
     1
 40
1.0
176
     1
  0
VISUALSTYLE
  5
31
102
{ACAD_REACTORS
330
29
102
}
330
29
100
AcDbVisualStyle
  2
Hidden
 70
     6
177
     3
291
     0
 70
    58
 90
        1
176
     1
 90
        2
176
     1
 90
        2
176
     1
 90
        0
176
     1
 40
0.6
176
     1
 40
30.0
176
     1
 62
     7
420
 16777215
176
     1
 90
        2
176
     1
 90
        2
176
     1
 62
     7
176
     1
 62
   257
176
     1
 90
        2
176
     1
 90
        1
176
     1
 40
40.0
176
     1
 90
        0
176
     1
 62
   257
176
     1
 40
1.0
176
     1
 90
        1
176
     1
 90
        6
176
     1
 90
        2
176
     1
 62
     7
176
     1
 90
        3
176
     1
 90
        0
176
     1
 90
        0
176
     1
290
     0
176
     1
 90
        1
176
     1
 40
0.0
176
     1
 90
        0
176
     1
290
     0
176
     1
290
     1
176
     1
290
     1
176
     1
290
     0
176
     1
290
     0
176
     1
290
     0
176
     1
290
     0
176
     1
290
     0
176
     1
290
     0
176
     1
 90
       50
176
     1
 40
0.0
176
     1
 40
1.0
176
     1
 90
        0
176
     1
 62
    18
420
        0
176
     1
 90
       50
176
     1
 90
        3
176
     1
 62
     5
420
      255
176
     1
290
     0
176
     1
 90
       50
176
     1
 90
       50
176
     1
 90
       50
176
     1
290
     0
176
     1
 90
       50
176
     1
 62
   256
176
     0
 40
1.0
176
     0
 90
        2
176
     1
  1
strokes_ogs.tif
176
     1
290
     0
176
     1
 40
1.0
176
     1
 40
1.0
176
     1
  0
VISUALSTYLE
  5
3F
102
{ACAD_REACTORS
330
29
102
}
330
29
100
AcDbVisualStyle
  2
JitterOff
 70
    20
177
     3
291
     1
 70
    58
 90
        2
176
     0
 90
        2
176
     0
 90
        0
176
     0
 90
        0
176
     0
 40
0.6
176
     0
 40
30.0
176
     0
 62
     7
420
 16777215
176
     0
 90
        1
176
     0
 90
        4
176
     0
 62
     7
176
     0
 62
   257
176
     0
 90
        1
176
     0
 90
        1
176
     0
 40
1.0
176
     0
 90
       10
176
     2
 62
     7
176
     0
 40
1.0
176
     0
 90
        1
176
     0
 90
        6
176
     0
 90
        2
176
     0
 62
     7
176
     0
 90
        5
176
     0
 90
        0
176
     0
 90
        0
176
     0
290
     0
176
     0
 90
        1
176
     0
 40
0.0
176
     0
 90
        0
176
     0
290
     0
176
     0
290
     1
176
     0
290
     1
176
     0
290
     0
176
     0
290
     0
176
     0
290
     0
176
     0
290
     0
176
     0
290
     0
176
     0
290
     0
176
     0
 90
       50
176
     0
 40
0.0
176
     0
 40
1.0
176
     0
 90
        0
176
     0
 62
    18
420
        0
176
     0
 90
       50
176
     0
 90
        3
176
     0
 62
     5
420
      255
176
     0
290
     0
176
     0
 90
       50
176
     0
 90
       50
176
     0
 90
       50
176
     0
290
     0
176
     0
 90
       50
176
     0
 62
   256
176
     0
 40
1.0
176
     0
 90
        2
176
     0
  1
strokes_ogs.tif
176
     0
290
     0
176
     0
 40
1.0
176
     0
 40
1.0
176
     0
  0
VISUALSTYLE
  5
37
102
{ACAD_REACTORS
330
29
102
}
330
29
100
AcDbVisualStyle
  2
Linepattern
 70
    14
177
     3
291
     1
 70
    58
 90
        2
176
     1
 90
        2
176
     1
 90
        0
176
     1
 90
        0
176
     1
 40
0.6
176
     1
 40
30.0
176
     1
 62
     7
420
 16777215
176
     1
 90
        1
176
     1
 90
        4
176
     1
 62
     7
176
     1
 62
   257
176
     1
 90
        7
176
     1
 90
        7
176
     1
 40
1.0
176
     1
 90
        8
176
     1
 62
     7
176
     1
 40
1.0
176
     1
 90
        1
176
     1
 90
        6
176
     1
 90
        2
176
     1
 62
     7
176
     1
 90
        5
176
     1
 90
        0
176
     1
 90
        0
176
     1
290
     0
176
     1
 90
        1
176
     1
 40
0.0
176
     1
 90
        0
176
     1
290
     0
176
     1
290
     1
176
     1
290
     1
176
     1
290
     0
176
     1
290
     0
176
     1
290
     0
176
     1
290
     0
176
     1
290
     0
176
     1
290
     0
176
     1
 90
       50
176
     1
 40
0.0
176
     1
 40
1.0
176
     1
 90
        0
176
     1
 62
    18
420
        0
176
     1
 90
       50
176
     1
 90
        3
176
     1
 62
     5
420
      255
176
     1
290
     0
176
     1
 90
       50
176
     1
 90
       50
176
     1
 90
       50
176
     1
290
     0
176
     1
 90
       50
176
     1
 62
   256
176
     0
 40
1.0
176
     0
 90
        2
176
     1
  1
strokes_ogs.tif
176
     1
290
     0
176
     1
 40
1.0
176
     1
 40
1.0
176
     1
  0
VISUALSTYLE
  5
40
102
{ACAD_REACTORS
330
29
102
}
330
29
100
AcDbVisualStyle
  2
OverhangOff
 70
    21
177
     3
291
     1
 70
    58
 90
        2
176
     0
 90
        2
176
     0
 90
        0
176
     0
 90
        0
176
     0
 40
0.6
176
     0
 40
30.0
176
     0
 62
     7
420
 16777215
176
     0
 90
        1
176
     0
 90
        4
176
     0
 62
     7
176
     0
 62
   257
176
     0
 90
        1
176
     0
 90
        1
176
     0
 40
1.0
176
     0
 90
        9
176
     2
 62
     7
176
     0
 40
1.0
176
     0
 90
        1
176
     0
 90
        6
176
     0
 90
        2
176
     0
 62
     7
176
     0
 90
        5
176
     0
 90
        0
176
     0
 90
        0
176
     0
290
     0
176
     0
 90
        1
176
     0
 40
0.0
176
     0
 90
        0
176
     0
290
     0
176
     0
290
     1
176
     0
290
     1
176
     0
290
     0
176
     0
290
     0
176
     0
290
     0
176
     0
290
     0
176
     0
290
     0
176
     0
290
     0
176
     0
 90
       50
176
     0
 40
0.0
176
     0
 40
1.0
176
     0
 90
        0
176
     0
 62
    18
420
        0
176
     0
 90
       50
176
     0
 90
        3
176
     0
 62
     5
420
      255
176
     0
290
     0
176
     0
 90
       50
176
     0
 90
       50
176
     0
 90
       50
176
     0
290
     0
176
     0
 90
       50
176
     0
 62
   256
176
     0
 40
1.0
176
     0
 90
        2
176
     0
  1
strokes_ogs.tif
176
     0
290
     0
176
     0
 40
1.0
176
     0
 40
1.0
176
     0
  0
VISUALSTYLE
  5
33
102
{ACAD_REACTORS
330
29
102
}
330
29
100
AcDbVisualStyle
  2
Realistic
 70
     8
177
     3
291
     0
 70
    58
 90
        2
176
     1
 90
        3
176
     1
 90
        0
176
     1
 90
        2
176
     1
 40
0.6
176
     1
 40
30.0
176
     1
 62
     7
420
 16777215
176
     1
 90
        0
176
     1
 90
        0
176
     1
 62
     7
176
     1
 62
   257
176
     1
 90
        1
176
     1
 90
        1
176
     1
 40
1.0
176
     1
 90
        8
176
     1
 62
   257
176
     1
 40
1.0
176
     1
 90
        1
176
     1
 90
        6
176
     1
 90
        2
176
     1
 62
     7
176
     1
 90
        3
176
     1
 90
        0
176
     1
 90
        0
176
     1
290
     0
176
     1
 90
       13
176
     1
 40
0.0
176
     1
 90
        0
176
     1
290
     0
176
     1
290
     1
176
     1
290
     1
176
     1
290
     0
176
     1
290
     0
176
     1
290
     0
176
     1
290
     0
176
     1
290
     0
176
     1
290
     0
176
     1
 90
       50
176
     1
 40
0.0
176
     1
 40
1.0
176
     1
 90
        0
176
     1
 62
    18
420
        0
176
     1
 90
       50
176
     1
 90
        3
176
     1
 62
     5
420
      255
176
     1
290
     0
176
     1
 90
       50
176
     1
 90
       50
176
     1
 90
       50
176
     1
290
     0
176
     1
 90
       50
176
     1
 62
   256
176
     0
 40
1.0
176
     0
 90
        2
176
     1
  1
strokes_ogs.tif
176
     1
290
     0
176
     1
 40
1.0
176
     1
 40
1.0
176
     1
  0
VISUALSTYLE
  5
3E
102
{ACAD_REACTORS
330
29
102
}
330
29
100
AcDbVisualStyle
  2
Shaded
 70
    27
177
     3
291
     0
 70
    58
 90
        2
176
     1
 90
        2
176
     1
 90
        1
176
     1
 90
        2
176
     1
 40
0.6
176
     1
 40
30.0
176
     1
 62
     7
420
 16777215
176
     1
 90
        0
176
     1
 90
        4
176
     1
 62
     7
176
     1
 62
   257
176
     1
 90
        1
176
     1
 90
        1
176
     1
 40
1.0
176
     1
 90
        8
176
     1
 62
   257
176
     1
 40
1.0
176
     1
 90
        1
176
     1
 90
        6
176
     1
 90
        2
176
     1
 62
     8
420
  7895160
176
     1
 90
        3
176
     1
 90
        0
176
     1
 90
        0
176
     1
290
     0
176
     1
 90
        5
176
     1
 40
0.0
176
     1
 90
        0
176
     1
290
     0
176
     1
290
     1
176
     1
290
     1
176
     1
290
     0
176
     1
290
     0
176
     1
290
     0
176
     1
290
     0
176
     1
290
     0
176
     1
290
     0
176
     1
 90
       50
176
     1
 40
0.0
176
     1
 40
1.0
176
     1
 90
        0
176
     1
 62
    18
420
        0
176
     1
 90
       50
176
     1
 90
        3
176
     1
 62
     5
420
      255
176
     1
290
     0
176
     1
 90
       50
176
     1
 90
       50
176
     1
 90
       50
176
     1
290
     0
176
     1
 90
       50
176
     1
 62
   256
176
     0
 40
1.0
176
     0
 90
        2
176
     1
  1
strokes_ogs.tif
176
     1
290
     0
176
     1
 40
1.0
176
     1
 40
1.0
176
     1
  0
VISUALSTYLE
  5
3D
102
{ACAD_REACTORS
330
29
102
}
330
29
100
AcDbVisualStyle
  2
Shaded with edges
 70
    26
177
     3
291
     0
 70
    58
 90
        2
176
     1
 90
        2
176
     1
 90
        1
176
     1
 90
        2
176
     1
 40
0.6
176
     1
 40
30.0
176
     1
 62
     7
420
 16777215
176
     1
 90
        1
176
     1
 90
       10
176
     1
 62
     7
176
     1
 62
   257
176
     1
 90
        2
176
     1
 90
        1
176
     1
 40
1.0
176
     1
 90
        8
176
     1
 62
   257
176
     1
 40
1.0
176
     1
 90
        1
176
     1
 90
        6
176
     1
 90
        2
176
     1
 62
     7
176
     1
 90
        3
176
     1
 90
        0
176
     1
 90
        0
176
     1
290
     0
176
     1
 90
        5
176
     1
 40
0.0
176
     1
 90
        0
176
     1
290
     0
176
     1
290
     1
176
     1
290
     1
176
     1
290
     0
176
     1
290
     0
176
     1
290
     0
176
     1
290
     0
176
     1
290
     0
176
     1
290
     0
176
     1
 90
       50
176
     1
 40
0.0
176
     1
 40
1.0
176
     1
 90
        0
176
     1
 62
    18
420
        0
176
     1
 90
       50
176
     1
 90
        3
176
     1
 62
     5
420
      255
176
     1
290
     0
176
     1
 90
       50
176
     1
 90
       50
176
     1
 90
       50
176
     1
290
     0
176
     1
 90
       50
176
     1
 62
   256
176
     0
 40
1.0
176
     0
 90
        2
176
     1
  1
strokes_ogs.tif
176
     1
290
     0
176
     1
 40
1.0
176
     1
 40
1.0
176
     1
  0
VISUALSTYLE
  5
3A
102
{ACAD_REACTORS
330
29
102
}
330
29
100
AcDbVisualStyle
  2
Shades of Gray
 70
    23
177
     3
291
     0
 70
    58
 90
        2
176
     1
 90
        2
176
     1
 90
        3
176
     1
 90
        0
176
     1
 40
0.6
176
     1
 40
30.0
176
     1
 62
     7
420
 16777215
176
     1
 90
        2
176
     1
 90
        2
176
     1
 62
     7
176
     1
 62
     7
176
     1
 90
        1
176
     1
 90
        1
176
     1
 40
40.0
176
     1
 90
        8
176
     1
 62
     7
176
     1
 40
1.0
176
     1
 90
        1
176
     1
 90
        6
176
     1
 90
        2
176
     1
 62
     7
176
     1
 90
        3
176
     1
 90
        0
176
     1
 90
        0
176
     1
290
     0
176
     1
 90
        1
176
     1
 40
0.0
176
     1
 90
        0
176
     1
290
     0
176
     1
290
     1
176
     1
290
     1
176
     1
290
     0
176
     1
290
     0
176
     1
290
     0
176
     1
290
     0
176
     1
290
     0
176
     1
290
     0
176
     1
 90
       50
176
     1
 40
0.0
176
     1
 40
1.0
176
     1
 90
        0
176
     1
 62
    18
420
        0
176
     1
 90
       50
176
     1
 90
        3
176
     1
 62
     5
420
      255
176
     1
290
     0
176
     1
 90
       50
176
     1
 90
       50
176
     1
 90
       50
176
     1
290
     0
176
     1
 90
       50
176
     1
 62
   256
176
     0
 40
1.0
176
     0
 90
        2
176
     1
  1
strokes_ogs.tif
176
     1
290
     0
176
     1
 40
1.0
176
     1
 40
1.0
176
     1
  0
VISUALSTYLE
  5
3B
102
{ACAD_REACTORS
330
29
102
}
330
29
100
AcDbVisualStyle
  2
Sketchy
 70
    24
177
     3
291
     0
 70
    58
 90
        1
176
     1
 90
        2
176
     1
 90
        2
176
     1
 90
        0
176
     1
 40
0.6
176
     1
 40
30.0
176
     1
 62
     7
420
 16777215
176
     1
 90
        2
176
     1
 90
        2
176
     1
 62
     7
176
     1
 62
     7
176
     1
 90
        1
176
     1
 90
        1
176
     1
 40
40.0
176
     1
 90
       11
176
     1
 62
     7
176
     1
 40
1.0
176
     1
 90
        1
176
     1
 90
        6
176
     1
 90
        2
176
     1
 62
     7
176
     1
 90
        6
176
     1
 90
        0
176
     1
 90
        0
176
     1
290
     0
176
     1
 90
        1
176
     1
 40
0.0
176
     1
 90
        0
176
     1
290
     0
176
     1
290
     1
176
     1
290
     1
176
     1
290
     0
176
     1
290
     0
176
     1
290
     0
176
     1
290
     0
176
     1
290
     0
176
     1
290
     0
176
     1
 90
       50
176
     1
 40
0.0
176
     1
 40
1.0
176
     1
 90
        0
176
     1
 62
    18
420
        0
176
     1
 90
       50
176
     1
 90
        3
176
     1
 62
     5
420
      255
176
     1
290
     0
176
     1
 90
       50
176
     1
 90
       50
176
     1
 90
       50
176
     1
290
     0
176
     1
 90
       50
176
     1
 62
   256
176
     0
 40
1.0
176
     0
 90
        2
176
     1
  1
strokes_ogs.tif
176
     1
290
     0
176
     1
 40
1.0
176
     1
 40
1.0
176
     1
  0
VISUALSTYLE
  5
36
102
{ACAD_REACTORS
330
29
102
}
330
29
100
AcDbVisualStyle
  2
Thicken
 70
    13
177
     3
291
     1
 70
    58
 90
        2
176
     1
 90
        2
176
     1
 90
        0
176
     1
 90
        0
176
     1
 40
0.6
176
     1
 40
30.0
176
     1
 62
     7
420
 16777215
176
     1
 90
        1
176
     1
 90
        4
176
     1
 62
     7
176
     1
 62
   257
176
     1
 90
        1
176
     1
 90
        1
176
     1
 40
1.0
176
     1
 90
       12
176
     1
 62
     7
176
     1
 40
1.0
176
     1
 90
        1
176
     1
 90
        6
176
     1
 90
        2
176
     1
 62
     7
176
     1
 90
        5
176
     1
 90
        0
176
     1
 90
        0
176
     1
290
     0
176
     1
 90
        1
176
     1
 40
0.0
176
     1
 90
        0
176
     1
290
     0
176
     1
290
     1
176
     1
290
     1
176
     1
290
     0
176
     1
290
     0
176
     1
290
     0
176
     1
290
     0
176
     1
290
     0
176
     1
290
     0
176
     1
 90
       50
176
     1
 40
0.0
176
     1
 40
1.0
176
     1
 90
        0
176
     1
 62
    18
420
        0
176
     1
 90
       50
176
     1
 90
        3
176
     1
 62
     5
420
      255
176
     1
290
     0
176
     1
 90
       50
176
     1
 90
       50
176
     1
 90
       50
176
     1
290
     0
176
     1
 90
       50
176
     1
 62
   256
176
     0
 40
1.0
176
     0
 90
        2
176
     1
  1
strokes_ogs.tif
176
     1
290
     0
176
     1
 40
1.0
176
     1
 40
1.0
176
     1
  0
VISUALSTYLE
  5
30
102
{ACAD_REACTORS
330
29
102
}
330
29
100
AcDbVisualStyle
  2
Wireframe
 70
     5
177
     3
291
     0
 70
    58
 90
        0
176
     1
 90
        2
176
     1
 90
        0
176
     1
 90
        0
176
     1
 40
0.6
176
     1
 40
30.0
176
     1
 62
     7
420
 16777215
176
     1
 90
        1
176
     1
 90
        4
176
     1
 62
     7
176
     1
 62
   257
176
     1
 90
        1
176
     1
 90
        1
176
     1
 40
1.0
176
     1
 90
        0
176
     1
 62
   257
176
     1
 40
1.0
176
     1
 90
        1
176
     1
 90
        6
176
     1
 90
        2
176
     1
 62
     7
176
     1
 90
        3
176
     1
 90
        0
176
     1
 90
        0
176
     1
290
     0
176
     1
 90
        1
176
     1
 40
0.0
176
     1
 90
        0
176
     1
290
     0
176
     1
290
     1
176
     1
290
     1
176
     1
290
     0
176
     1
290
     0
176
     1
290
     0
176
     1
290
     0
176
     1
290
     0
176
     1
290
     0
176
     1
 90
       50
176
     1
 40
0.0
176
     1
 40
1.0
176
     1
 90
        0
176
     1
 62
    18
420
        0
176
     1
 90
       50
176
     1
 90
        3
176
     1
 62
     5
420
      255
176
     1
290
     0
176
     1
 90
       50
176
     1
 90
       50
176
     1
 90
       50
176
     1
290
     0
176
     1
 90
       50
176
     1
 62
   256
176
     0
 40
1.0
176
     0
 90
        2
176
     1
  1
strokes_ogs.tif
176
     1
290
     0
176
     1
 40
1.0
176
     1
 40
1.0
176
     1
  0
VISUALSTYLE
  5
3C
102
{ACAD_REACTORS
330
29
102
}
330
29
100
AcDbVisualStyle
  2
X-Ray
 70
    25
177
     3
291
     0
 70
    58
 90
        2
176
     1
 90
        2
176
     1
 90
        1
176
     1
 90
        1
176
     1
 40
0.5
176
     1
 40
30.0
176
     1
 62
     7
420
 16777215
176
     1
 90
        1
176
     1
 90
        0
176
     1
 62
     7
176
     1
 62
   257
176
     1
 90
        1
176
     1
 90
        1
176
     1
 40
1.0
176
     1
 90
        8
176
     1
 62
     7
176
     1
 40
1.0
176
     1
 90
        1
176
     1
 90
        6
176
     1
 90
        2
176
     1
 62
     7
176
     1
 90
        3
176
     1
 90
        0
176
     1
 90
        0
176
     1
290
     0
176
     1
 90
       13
176
     1
 40
0.0
176
     1
 90
        0
176
     1
290
     0
176
     1
290
     1
176
     1
290
     1
176
     1
290
     0
176
     1
290
     0
176
     1
290
     0
176
     1
290
     0
176
     1
290
     0
176
     1
290
     0
176
     1
 90
       50
176
     1
 40
0.0
176
     1
 40
1.0
176
     1
 90
        0
176
     1
 62
    18
420
        0
176
     1
 90
       50
176
     1
 90
        3
176
     1
 62
     5
420
      255
176
     1
290
     0
176
     1
 90
       50
176
     1
 90
       50
176
     1
 90
       50
176
     1
290
     0
176
     1
 90
       50
176
     1
 62
   256
176
     0
 40
1.0
176
     0
 90
        2
176
     1
  1
strokes_ogs.tif
176
     1
290
     0
176
     1
 40
1.0
176
     1
 40
1.0
176
     1
  0
DICTIONARYVAR
  5
81
102
{ACAD_REACTORS
330
7C
102
}
330
7C
100
DictionaryVariables
280
     0
  1
1:1
  0
DICTIONARYVAR
  5
7E
102
{ACAD_REACTORS
330
7C
102
}
330
7C
100
DictionaryVariables
280
     0
  1
STANDARD
  0
DICTIONARYVAR
  5
7D
102
{ACAD_REACTORS
330
7C
102
}
330
7C
100
DictionaryVariables
280
     0
  1
STANDARD
  0
DICTIONARYVAR
  5
7F
102
{ACAD_REACTORS
330
7C
102
}
330
7C
100
DictionaryVariables
280
     0
  1
Imperial24
  0
DICTIONARYVAR
  5
80
102
{ACAD_REACTORS
330
7C
102
}
330
7C
100
DictionaryVariables
280
     0
  1
Imperial24
  0
XRECORD
  5
38A
102
{ACAD_REACTORS
330
386
102
}
330
386
100
AcDbXrecord
280
     1
  1
BUILDING_ID
  1
Progetto per messa in tavola DXF, DWG
  1
FLOOR_ID
  1
694395
  0
XRECORD
  5
388
102
{ACAD_REACTORS
330
386
102
}
330
386
100
AcDbXrecord
280
     1
  1
-2001160
  1
Apparecchi idraulici
  0
XRECORD
  5
389
102
{ACAD_REACTORS
330
386
102
}
330
386
100
AcDbXrecord
280
     1
  1
924018
  1
Pressure gauge
  0
XRECORD
  5
387
102
{ACAD_REACTORS
330
386
102
}
330
386
100
AcDbXrecord
280
     1
  1
932181
  1
Automatic flow rate regulator valve_Caleffi_121 DN15 : 1''_Pressure gauge
  0
DICTIONARY
  5
1A
330
19
100
AcDbDictionary
280
     1
281
     1
  3
BUMPTILE
360
1C
  3
DIFFUSETILE
360
1B
  3
OPACITYTILE
360
1F
  3
REFLECTIONTILE
360
1E
  3
REFRACTIONTILE
360
20
  3
SPECULARTILE
360
1D
  0
DICTIONARY
  5
12
330
11
100
AcDbDictionary
280
     1
281
     1
  3
BUMPTILE
360
14
  3
DIFFUSETILE
360
13
  3
OPACITYTILE
360
17
  3
REFLECTIONTILE
360
16
  3
REFRACTIONTILE
360
18
  3
SPECULARTILE
360
15
  0
DICTIONARY
  5
22
330
21
100
AcDbDictionary
280
     1
281
     1
  3
BUMPTILE
360
24
  3
DIFFUSETILE
360
23
  3
OPACITYTILE
360
27
  3
REFLECTIONTILE
360
26
  3
REFRACTIONTILE
360
28
  3
SPECULARTILE
360
25
  0
DICTIONARY
  5
38D
330
65
100
AcDbDictionary
280
     1
281
     1
  3
ACAD_ROUNDTRIP_2008_TABLESTYLE_CELLSTYLEMAP
360
38E
  0
XRECORD
  5
1C
102
{ACAD_REACTORS
330
1A
102
}
330
1A
100
AcDbXrecord
280
     1
270
     1
271
     1
  0
XRECORD
  5
1B
102
{ACAD_REACTORS
330
1A
102
}
330
1A
100
AcDbXrecord
280
     1
270
     1
271
     1
  0
XRECORD
  5
1F
102
{ACAD_REACTORS
330
1A
102
}
330
1A
100
AcDbXrecord
280
     1
270
     1
271
     1
  0
XRECORD
  5
1E
102
{ACAD_REACTORS
330
1A
102
}
330
1A
100
AcDbXrecord
280
     1
270
     1
271
     1
  0
XRECORD
  5
20
102
{ACAD_REACTORS
330
1A
102
}
330
1A
100
AcDbXrecord
280
     1
270
     1
271
     1
  0
XRECORD
  5
1D
102
{ACAD_REACTORS
330
1A
102
}
330
1A
100
AcDbXrecord
280
     1
270
     1
271
     1
  0
XRECORD
  5
14
102
{ACAD_REACTORS
330
12
102
}
330
12
100
AcDbXrecord
280
     1
270
     1
271
     1
  0
XRECORD
  5
13
102
{ACAD_REACTORS
330
12
102
}
330
12
100
AcDbXrecord
280
     1
270
     1
271
     1
  0
XRECORD
  5
17
102
{ACAD_REACTORS
330
12
102
}
330
12
100
AcDbXrecord
280
     1
270
     1
271
     1
  0
XRECORD
  5
16
102
{ACAD_REACTORS
330
12
102
}
330
12
100
AcDbXrecord
280
     1
270
     1
271
     1
  0
XRECORD
  5
18
102
{ACAD_REACTORS
330
12
102
}
330
12
100
AcDbXrecord
280
     1
270
     1
271
     1
  0
XRECORD
  5
15
102
{ACAD_REACTORS
330
12
102
}
330
12
100
AcDbXrecord
280
     1
270
     1
271
     1
  0
XRECORD
  5
24
102
{ACAD_REACTORS
330
22
102
}
330
22
100
AcDbXrecord
280
     1
270
     1
271
     1
  0
XRECORD
  5
23
102
{ACAD_REACTORS
330
22
102
}
330
22
100
AcDbXrecord
280
     1
270
     1
271
     1
  0
XRECORD
  5
27
102
{ACAD_REACTORS
330
22
102
}
330
22
100
AcDbXrecord
280
     1
270
     1
271
     1
  0
XRECORD
  5
26
102
{ACAD_REACTORS
330
22
102
}
330
22
100
AcDbXrecord
280
     1
270
     1
271
     1
  0
XRECORD
  5
28
102
{ACAD_REACTORS
330
22
102
}
330
22
100
AcDbXrecord
280
     1
270
     1
271
     1
  0
XRECORD
  5
25
102
{ACAD_REACTORS
330
22
102
}
330
22
100
AcDbXrecord
280
     1
270
     1
271
     1
  0
CELLSTYLEMAP
  5
38E
102
{ACAD_REACTORS
330
38D
102
}
330
38D
100
AcDbCellStyleMap
 90
        3
300
CELLSTYLE
  1
TABLEFORMAT_BEGIN
 90
        5
170
     1
 91
        0
 92
    32768
 62
   257
 93
        1
300
CONTENTFORMAT
  1
CONTENTFORMAT_BEGIN
 90
        0
 91
        0
 92
      512
 93
        0
300

 40
0.0
140
1.0
 94
        5
 62
     0
340
55
144
0.25
309
CONTENTFORMAT_END
171
     0
 94
        0
309
TABLEFORMAT_END
  1
CELLSTYLE_BEGIN
 90
        1
 91
        1
300
_TITLE
309
CELLSTYLE_END
300
CELLSTYLE
  1
TABLEFORMAT_BEGIN
 90
        5
170
     1
 91
        0
 92
        0
 62
   257
 93
        1
300
CONTENTFORMAT
  1
CONTENTFORMAT_BEGIN
 90
        0
 91
        0
 92
      512
 93
        0
300

 40
0.0
140
1.0
 94
        5
 62
     0
340
55
144
0.18
309
CONTENTFORMAT_END
171
     0
 94
        0
309
TABLEFORMAT_END
  1
CELLSTYLE_BEGIN
 90
        2
 91
        1
300
_HEADER
309
CELLSTYLE_END
300
CELLSTYLE
  1
TABLEFORMAT_BEGIN
 90
        5
170
     1
 91
        0
 92
        0
 62
   257
 93
        1
300
CONTENTFORMAT
  1
CONTENTFORMAT_BEGIN
 90
        0
 91
        0
 92
      512
 93
        0
300

 40
0.0
140
1.0
 94
        2
 62
     0
340
55
144
0.18
309
CONTENTFORMAT_END
171
     0
 94
        0
309
TABLEFORMAT_END
  1
CELLSTYLE_BEGIN
 90
        3
 91
        2
300
_DATA
309
CELLSTYLE_END
  0
ENDSEC
  0
EOF
