  0
SECTION
  2
HEADER
  9
$ACADVER
  1
AC1027
  9
$ACADMAINTVER
 70
    20
  9
$DWGCODEPAGE
  3
ANSI_1252
  9
$REQUIREDVERSIONS
160
                 0
  9
$INSBASE
 10
0.0
 20
0.0
 30
0.0
  9
$EXTMIN
 10
738.6664074431871
 20
1738.745878730053
 30
-0.00000001
  9
$EXTMAX
 10
1152.114353943097
 20
2111.500000000043
 30
0.00000001
  9
$LIMMIN
 10
0.0
 20
0.0
  9
$LIMMAX
 10
12.0
 20
9.0
  9
$ORTHOMODE
 70
     0
  9
$REGENMODE
 70
     1
  9
$FILLMODE
 70
     1
  9
$QTEXTMODE
 70
     0
  9
$MIRRTEXT
 70
     0
  9
$LTSCALE
 40
1.0
  9
$ATTMODE
 70
     1
  9
$TEXTSIZE
 40
0.2
  9
$TRACEWID
 40
0.05
  9
$TEXTSTYLE
  7
Standard
  9
$CLAYER
  8
0
  9
$CELTYPE
  6
ByLayer
  9
$CECOLOR
 62
   256
  9
$CELTSCALE
 40
1.0
  9
$DISPSILH
 70
     0
  9
$DIMSCALE
 40
1.0
  9
$DIMASZ
 40
0.18
  9
$DIMEXO
 40
0.0625
  9
$DIMDLI
 40
0.38
  9
$DIMRND
 40
0.0
  9
$DIMDLE
 40
0.0
  9
$DIMEXE
 40
0.18
  9
$DIMTP
 40
0.0
  9
$DIMTM
 40
0.0
  9
$DIMTXT
 40
0.18
  9
$DIMCEN
 40
0.09
  9
$DIMTSZ
 40
0.0
  9
$DIMTOL
 70
     0
  9
$DIMLIM
 70
     0
  9
$DIMTIH
 70
     1
  9
$DIMTOH
 70
     1
  9
$DIMSE1
 70
     0
  9
$DIMSE2
 70
     0
  9
$DIMTAD
 70
     0
  9
$DIMZIN
 70
     0
  9
$DIMBLK
  1

  9
$DIMASO
 70
     1
  9
$DIMSHO
 70
     1
  9
$DIMPOST
  1

  9
$DIMAPOST
  1

  9
$DIMALT
 70
     0
  9
$DIMALTD
 70
     2
  9
$DIMALTF
 40
25.4
  9
$DIMLFAC
 40
1.0
  9
$DIMTOFL
 70
     0
  9
$DIMTVP
 40
0.0
  9
$DIMTIX
 70
     0
  9
$DIMSOXD
 70
     0
  9
$DIMSAH
 70
     0
  9
$DIMBLK1
  1

  9
$DIMBLK2
  1

  9
$DIMSTYLE
  2
Standard
  9
$DIMCLRD
 70
     0
  9
$DIMCLRE
 70
     0
  9
$DIMCLRT
 70
     0
  9
$DIMTFAC
 40
1.0
  9
$DIMGAP
 40
0.09
  9
$DIMJUST
 70
     0
  9
$DIMSD1
 70
     0
  9
$DIMSD2
 70
     0
  9
$DIMTOLJ
 70
     1
  9
$DIMTZIN
 70
     0
  9
$DIMALTZ
 70
     0
  9
$DIMALTTZ
 70
     0
  9
$DIMUPT
 70
     0
  9
$DIMDEC
 70
     4
  9
$DIMTDEC
 70
     4
  9
$DIMALTU
 70
     2
  9
$DIMALTTD
 70
     2
  9
$DIMTXSTY
  7
Standard
  9
$DIMAUNIT
 70
     0
  9
$DIMADEC
 70
     0
  9
$DIMALTRND
 40
0.0
  9
$DIMAZIN
 70
     0
  9
$DIMDSEP
 70
    46
  9
$DIMATFIT
 70
     3
  9
$DIMFRAC
 70
     0
  9
$DIMLDRBLK
  1

  9
$DIMLUNIT
 70
     2
  9
$DIMLWD
 70
    -2
  9
$DIMLWE
 70
    -2
  9
$DIMTMOVE
 70
     0
  9
$DIMFXL
 40
1.0
  9
$DIMFXLON
 70
     0
  9
$DIMJOGANG
 40
0.7853981633974483
  9
$DIMTFILL
 70
     0
  9
$DIMTFILLCLR
 70
     0
  9
$DIMARCSYM
 70
     0
  9
$DIMLTYPE
  6

  9
$DIMLTEX1
  6

  9
$DIMLTEX2
  6

  9
$DIMTXTDIRECTION
 70
     0
  9
$LUNITS
 70
     2
  9
$LUPREC
 70
     4
  9
$SKETCHINC
 40
0.1
  9
$FILLETRAD
 40
0.0
  9
$AUNITS
 70
     0
  9
$AUPREC
 70
     0
  9
$MENU
  1
.
  9
$ELEVATION
 40
0.0
  9
$PELEVATION
 40
0.0
  9
$THICKNESS
 40
0.0
  9
$LIMCHECK
 70
     0
  9
$CHAMFERA
 40
0.0
  9
$CHAMFERB
 40
0.0
  9
$CHAMFERC
 40
0.0
  9
$CHAMFERD
 40
0.0
  9
$SKPOLY
 70
     0
  9
$TDCREATE
 40
2457575.688792940
  9
$TDUCREATE
 40
2457575.605459606
  9
$TDUPDATE
 40
2457575.688792940
  9
$TDUUPDATE
 40
2457575.605459606
  9
$TDINDWG
 40
0.0000138542
  9
$TDUSRTIMER
 40
0.0000138542
  9
$USRTIMER
 70
     1
  9
$ANGBASE
 50
0.0
  9
$ANGDIR
 70
     0
  9
$PDMODE
 70
     0
  9
$PDSIZE
 40
0.0
  9
$PLINEWID
 40
0.0
  9
$SPLFRAME
 70
     0
  9
$SPLINETYPE
 70
     6
  9
$SPLINESEGS
 70
     8
  9
$HANDSEED
  5
3C4
  9
$SURFTAB1
 70
     6
  9
$SURFTAB2
 70
     6
  9
$SURFTYPE
 70
     6
  9
$SURFU
 70
     6
  9
$SURFV
 70
     6
  9
$UCSBASE
  2

  9
$UCSNAME
  2

  9
$UCSORG
 10
0.0
 20
0.0
 30
0.0
  9
$UCSXDIR
 10
1.0
 20
0.0
 30
0.0
  9
$UCSYDIR
 10
0.0
 20
1.0
 30
0.0
  9
$UCSORTHOREF
  2

  9
$UCSORTHOVIEW
 70
     0
  9
$UCSORGTOP
 10
0.0
 20
0.0
 30
0.0
  9
$UCSORGBOTTOM
 10
0.0
 20
0.0
 30
0.0
  9
$UCSORGLEFT
 10
0.0
 20
0.0
 30
0.0
  9
$UCSORGRIGHT
 10
0.0
 20
0.0
 30
0.0
  9
$UCSORGFRONT
 10
0.0
 20
0.0
 30
0.0
  9
$UCSORGBACK
 10
0.0
 20
0.0
 30
0.0
  9
$PUCSBASE
  2

  9
$PUCSNAME
  2

  9
$PUCSORG
 10
0.0
 20
0.0
 30
0.0
  9
$PUCSXDIR
 10
1.0
 20
0.0
 30
0.0
  9
$PUCSYDIR
 10
0.0
 20
1.0
 30
0.0
  9
$PUCSORTHOREF
  2

  9
$PUCSORTHOVIEW
 70
     0
  9
$PUCSORGTOP
 10
0.0
 20
0.0
 30
0.0
  9
$PUCSORGBOTTOM
 10
0.0
 20
0.0
 30
0.0
  9
$PUCSORGLEFT
 10
0.0
 20
0.0
 30
0.0
  9
$PUCSORGRIGHT
 10
0.0
 20
0.0
 30
0.0
  9
$PUCSORGFRONT
 10
0.0
 20
0.0
 30
0.0
  9
$PUCSORGBACK
 10
0.0
 20
0.0
 30
0.0
  9
$USERI1
 70
     0
  9
$USERI2
 70
     0
  9
$USERI3
 70
     0
  9
$USERI4
 70
     0
  9
$USERI5
 70
     0
  9
$USERR1
 40
0.0
  9
$USERR2
 40
0.0
  9
$USERR3
 40
0.0
  9
$USERR4
 40
0.0
  9
$USERR5
 40
0.0
  9
$WORLDVIEW
 70
     1
  9
$SHADEDGE
 70
     3
  9
$SHADEDIF
 70
    70
  9
$TILEMODE
 70
     1
  9
$MAXACTVP
 70
    64
  9
$PINSBASE
 10
0.0
 20
0.0
 30
0.0
  9
$PLIMCHECK
 70
     0
  9
$PEXTMIN
 10
1.000000000000000E+20
 20
1.000000000000000E+20
 30
1.000000000000000E+20
  9
$PEXTMAX
 10
-1.000000000000000E+20
 20
-1.000000000000000E+20
 30
-1.000000000000000E+20
  9
$PLIMMIN
 10
0.0
 20
0.0
  9
$PLIMMAX
 10
12.0
 20
9.0
  9
$UNITMODE
 70
     0
  9
$VISRETAIN
 70
     1
  9
$PLINEGEN
 70
     0
  9
$PSLTSCALE
 70
     1
  9
$TREEDEPTH
 70
  3020
  9
$CMLSTYLE
  2
Standard
  9
$CMLJUST
 70
     0
  9
$CMLSCALE
 40
1.0
  9
$PROXYGRAPHICS
 70
     1
  9
$MEASUREMENT
 70
     1
  9
$CELWEIGHT
370
    -1
  9
$ENDCAPS
280
     0
  9
$JOINSTYLE
280
     0
  9
$LWDISPLAY
290
     0
  9
$INSUNITS
 70
     4
  9
$HYPERLINKBASE
  1

  9
$STYLESHEET
  1

  9
$XEDIT
290
     1
  9
$CEPSNTYPE
380
     0
  9
$PSTYLEMODE
290
     1
  9
$FINGERPRINTGUID
  2
{EBB37A2A-EA00-49D6-8A43-F6DD2B4FC00C}
  9
$VERSIONGUID
  2
{4D60F186-CBB5-410A-9131-3A6062EFB4FA}
  9
$EXTNAMES
290
     1
  9
$PSVPSCALE
 40
0.0
  9
$OLESTARTUP
290
     0
  9
$SORTENTS
280
   127
  9
$INDEXCTL
280
     0
  9
$HIDETEXT
280
     1
  9
$XCLIPFRAME
280
     2
  9
$HALOGAP
280
     0
  9
$OBSCOLOR
 70
   257
  9
$OBSLTYPE
280
     0
  9
$INTERSECTIONDISPLAY
280
     0
  9
$INTERSECTIONCOLOR
 70
   257
  9
$DIMASSOC
280
     2
  9
$PROJECTNAME
  1

  9
$CAMERADISPLAY
290
     0
  9
$LENSLENGTH
 40
50.0
  9
$CAMERAHEIGHT
 40
0.0
  9
$STEPSPERSEC
 40
2.0
  9
$STEPSIZE
 40
6.0
  9
$3DDWFPREC
 40
2.0
  9
$PSOLWIDTH
 40
0.25
  9
$PSOLHEIGHT
 40
4.0
  9
$LOFTANG1
 40
1.570796326794896
  9
$LOFTANG2
 40
1.570796326794896
  9
$LOFTMAG1
 40
0.0
  9
$LOFTMAG2
 40
0.0
  9
$LOFTPARAM
 70
     7
  9
$LOFTNORMALS
280
     1
  9
$LATITUDE
 40
37.795
  9
$LONGITUDE
 40
-122.394
  9
$NORTHDIRECTION
 40
0.0
  9
$TIMEZONE
 70
 -8000
  9
$LIGHTGLYPHDISPLAY
280
     1
  9
$TILEMODELIGHTSYNCH
280
     1
  9
$CMATERIAL
347
11
  9
$SOLIDHIST
280
     0
  9
$SHOWHIST
280
     1
  9
$DWFFRAME
280
     2
  9
$DGNFRAME
280
     0
  9
$REALWORLDSCALE
290
     1
  9
$INTERFERECOLOR
 62
     1
  9
$INTERFEREOBJVS
345
33
  9
$INTERFEREVPVS
346
30
  9
$CSHADOW
280
     0
  9
$SHADOWPLANELOCATION
 40
0.0
  0
ENDSEC
  0
SECTION
  2
CLASSES
  0
CLASS
  1
ACDBDICTIONARYWDFLT
  2
AcDbDictionaryWithDefault
  3
ObjectDBX Classes
 90
        0
 91
        1
280
     0
281
     0
  0
CLASS
  1
MATERIAL
  2
AcDbMaterial
  3
ObjectDBX Classes
 90
     1153
 91
        3
280
     0
281
     0
  0
CLASS
  1
VISUALSTYLE
  2
AcDbVisualStyle
  3
ObjectDBX Classes
 90
     4095
 91
       24
280
     0
281
     0
  0
CLASS
  1
SCALE
  2
AcDbScale
  3
ObjectDBX Classes
 90
     1153
 91
       17
280
     0
281
     0
  0
CLASS
  1
TABLESTYLE
  2
AcDbTableStyle
  3
ObjectDBX Classes
 90
     4095
 91
        1
280
     0
281
     0
  0
CLASS
  1
MLEADERSTYLE
  2
AcDbMLeaderStyle
  3
ACDB_MLEADERSTYLE_CLASS
 90
     4095
 91
        1
280
     0
281
     0
  0
CLASS
  1
ACDBSECTIONVIEWSTYLE
  2
AcDbSectionViewStyle
  3
ObjectDBX Classes
 90
     1025
 91
        1
280
     0
281
     0
  0
CLASS
  1
ACDBDETAILVIEWSTYLE
  2
AcDbDetailViewStyle
  3
ObjectDBX Classes
 90
     1025
 91
        1
280
     0
281
     0
  0
CLASS
  1
RASTERVARIABLES
  2
AcDbRasterVariables
  3
ISM
 90
        0
 91
        1
280
     0
281
     0
  0
CLASS
  1
DICTIONARYVAR
  2
AcDbDictionaryVar
  3
ObjectDBX Classes
 90
        0
 91
        5
280
     0
281
     0
  0
CLASS
  1
CELLSTYLEMAP
  2
AcDbCellStyleMap
  3
ObjectDBX Classes
 90
     1152
 91
        2
280
     0
281
     0
  0
CLASS
  1
SORTENTSTABLE
  2
AcDbSortentsTable
  3
ObjectDBX Classes
 90
        0
 91
        1
280
     0
281
     0
  0
ENDSEC
  0
SECTION
  2
TABLES
  0
TABLE
  2
VPORT
  5
8
330
0
100
AcDbSymbolTable
 70
     1
  0
VPORT
  5
57
330
8
100
AcDbSymbolTableRecord
100
AcDbViewportTableRecord
  2
*Active
 70
     0
 10
0.0
 20
0.0
 11
1.0
 21
1.0
 12
945.3903806931421
 22
1925.122939365048
 13
0.0
 23
0.0
 14
1.0
 24
1.0
 15
0.0
 25
0.0
 16
0.0
 26
0.0
 36
1.0
 17
0.0
 27
0.0
 37
0.0
 40
372.7541212699905
 41
1.109170691637892
 42
50.0
 43
0.0
 44
0.0
 50
0.0
 51
0.0
 71
     0
 72
  1000
 73
     1
 74
     1
 75
     0
 76
     0
 77
     0
 78
     0
281
     0
 65
     1
110
0.0
120
0.0
130
0.0
111
1.0
121
0.0
131
0.0
112
0.0
122
1.0
132
0.0
 79
     0
146
0.0
 60
     3
 61
     5
292
     1
282
     1
141
0.0
142
0.0
 63
   250
421
  3355443
  0
ENDTAB
  0
TABLE
  2
LTYPE
  5
5
330
0
100
AcDbSymbolTable
 70
     3
  0
LTYPE
  5
5B
330
5
100
AcDbSymbolTableRecord
100
AcDbLinetypeTableRecord
  2
ByBlock
 70
     0
  3

 72
    65
 73
     0
 40
0.0
  0
LTYPE
  5
5C
330
5
100
AcDbSymbolTableRecord
100
AcDbLinetypeTableRecord
  2
ByLayer
 70
     0
  3

 72
    65
 73
     0
 40
0.0
  0
LTYPE
  5
5D
330
5
100
AcDbSymbolTableRecord
100
AcDbLinetypeTableRecord
  2
Continuous
 70
     0
  3
Solid line
 72
    65
 73
     0
 40
0.0
  0
LTYPE
  5
69
330
5
100
AcDbSymbolTableRecord
100
AcDbLinetypeTableRecord
  2
PHANTOM2
 70
     0
  3
___ _ _ ___ _ _ ___ _ _ ___ _ _
 72
    65
 73
     6
 40
1.25
 49
0.625
 74
     0
 49
-0.125
 74
     0
 49
0.125
 74
     0
 49
-0.125
 74
     0
 49
0.125
 74
     0
 49
-0.125
 74
     0
  0
LTYPE
  5
86
330
5
100
AcDbSymbolTableRecord
100
AcDbLinetypeTableRecord
  2
Nascosto 1_5 mm
 70
     0
  3

 72
    65
 73
     2
 40
2.2
 49
1.5
 74
     0
 49
-0.7000000000000001
 74
     0
  0
ENDTAB
  0
TABLE
  2
LAYER
  5
2
330
0
100
AcDbSymbolTable
 70
     4
  0
LAYER
  5
54
330
2
100
AcDbSymbolTableRecord
100
AcDbLayerTableRecord
  2
0
 70
     0
 62
     7
  6
Continuous
370
    -3
390
F
347
21
348
0
  0
LAYER
  5
85
330
2
100
AcDbSymbolTableRecord
100
AcDbLayerTableRecord
  2
P-SANR-FIXT
 70
     0
 62
     6
  6
Continuous
370
    18
390
F
347
21
348
0
  0
LAYER
  5
88
330
2
100
AcDbSymbolTableRecord
100
AcDbLayerTableRecord
  2
M-PIPE
 70
     0
 62
     3
  6
Continuous
370
    18
390
F
347
21
348
0
  0
ENDTAB
  0
TABLE
  2
STYLE
  5
3
330
0
100
AcDbSymbolTable
 70
     2
  0
STYLE
  5
55
330
3
100
AcDbSymbolTableRecord
100
AcDbTextStyleTableRecord
  2
Standard
 70
     0
 40
0.0
 41
1.0
 50
0.0
 71
     0
 42
0.2
  3
txt
  4

  0
STYLE
  5
5A
330
3
100
AcDbSymbolTableRecord
100
AcDbTextStyleTableRecord
  2
Annotative
 70
     0
 40
0.0
 41
1.0
 50
0.0
 71
     0
 42
0.2
  3
txt
  4

1001
AcadAnnotative
1000
AnnotativeData
1002
{
1070
     1
1070
     1
1002
}
  0
ENDTAB
  0
TABLE
  2
VIEW
  5
6
330
0
100
AcDbSymbolTable
 70
     0
  0
ENDTAB
  0
TABLE
  2
UCS
  5
7
330
0
100
AcDbSymbolTable
 70
     0
  0
ENDTAB
  0
TABLE
  2
APPID
  5
9
330
0
100
AcDbSymbolTable
 70
     3
  0
APPID
  5
56
330
9
100
AcDbSymbolTableRecord
100
AcDbRegAppTableRecord
  2
ACAD
 70
     0
  0
APPID
  5
5E
330
9
100
AcDbSymbolTableRecord
100
AcDbRegAppTableRecord
  2
AcadAnnotative
 70
     0
  0
APPID
  5
79
330
9
100
AcDbSymbolTableRecord
100
AcDbRegAppTableRecord
  2
REVIT
 70
     0
  0
ENDTAB
  0
TABLE
  2
DIMSTYLE
  5
A
330
0
100
AcDbSymbolTable
 70
     2
100
AcDbDimStyleTable
 71
     0
  0
DIMSTYLE
105
58
330
A
100
AcDbSymbolTableRecord
100
AcDbDimStyleTableRecord
  2
Standard
 70
     0
340
55
  0
DIMSTYLE
105
59
330
A
100
AcDbSymbolTableRecord
100
AcDbDimStyleTableRecord
  2
Annotative
 70
     0
340
55
1001
AcadAnnotative
1000
AnnotativeData
1002
{
1070
     1
1070
     1
1002
}
  0
ENDTAB
  0
TABLE
  2
BLOCK_RECORD
  5
1
330
0
100
AcDbSymbolTable
 70
     4
  0
BLOCK_RECORD
  5
71
102
{ACAD_XDICTIONARY
360
3BF
102
}
330
1
100
AcDbSymbolTableRecord
100
AcDbBlockTableRecord
  2
*Model_Space
340
74
 70
     0
280
     1
281
     0
  0
BLOCK_RECORD
  5
6D
330
1
100
AcDbSymbolTableRecord
100
AcDbBlockTableRecord
  2
*Paper_Space
340
70
 70
     0
280
     1
281
     0
  0
BLOCK_RECORD
  5
75
330
1
100
AcDbSymbolTableRecord
100
AcDbBlockTableRecord
  2
*Paper_Space0
340
78
 70
     0
280
     1
281
     0
  0
BLOCK_RECORD
  5
87
330
1
100
AcDbSymbolTableRecord
100
AcDbBlockTableRecord
  2
Automatic flow rate regulator valve_Caleffi_121 DN15 - 3_4___Pressure gauge-929094-Est - Idraulica
340
0
102
{BLKREFS
331
196
102
}
 70
     0
280
     1
281
     0
  0
BLOCK_RECORD
  5
197
330
1
100
AcDbSymbolTableRecord
100
AcDbBlockTableRecord
  2
Automatic flow rate regulator valve_Caleffi_121 DN15 - 3_4___Pressure gauge-V1-Est - Idraulica
340
0
102
{BLKREFS
331
2C0
102
}
 70
     0
280
     1
281
     0
  0
BLOCK_RECORD
  5
2C1
330
1
100
AcDbSymbolTableRecord
100
AcDbBlockTableRecord
  2
Automatic flow rate regulator valve_Caleffi_121 DN15 - 3_4___Pressure gauge-V2-Est - Idraulica
340
0
102
{BLKREFS
331
3B8
102
}
 70
     0
280
     1
281
     0
  0
ENDTAB
  0
ENDSEC
  0
SECTION
  2
BLOCKS
  0
BLOCK
  5
72
330
71
100
AcDbEntity
  8
0
100
AcDbBlockBegin
  2
*Model_Space
 70
     0
 10
0.0
 20
0.0
 30
0.0
  3
*Model_Space
  1

  0
ENDBLK
  5
73
330
71
100
AcDbEntity
  8
0
100
AcDbBlockEnd
  0
BLOCK
  5
6E
330
6D
100
AcDbEntity
 67
     1
  8
0
100
AcDbBlockBegin
  2
*Paper_Space
 70
     0
 10
0.0
 20
0.0
 30
0.0
  3
*Paper_Space
  1

  0
ENDBLK
  5
6F
330
6D
100
AcDbEntity
 67
     1
  8
0
100
AcDbBlockEnd
  0
BLOCK
  5
76
330
75
100
AcDbEntity
 67
     1
  8
0
100
AcDbBlockBegin
  2
*Paper_Space0
 70
     0
 10
0.0
 20
0.0
 30
0.0
  3
*Paper_Space0
  1

  0
ENDBLK
  5
77
330
75
100
AcDbEntity
 67
     1
  8
0
100
AcDbBlockEnd
  0
BLOCK
  5
194
330
87
100
AcDbEntity
  8
0
100
AcDbBlockBegin
  2
Automatic flow rate regulator valve_Caleffi_121 DN15 - 3_4___Pressure gauge-929094-Est - Idraulica
 70
     0
 10
0.0
 20
0.0
 30
0.0
  3
Automatic flow rate regulator valve_Caleffi_121 DN15 - 3_4___Pressure gauge-929094-Est - Idraulica
  1

  0
ARC
  5
89
330
87
100
AcDbEntity
  8
M-PIPE
100
AcDbCircle
 10
838.6664074431548
 20
1999.999999999995
 30
0.0
 40
3.499999999999886
100
AcDbArc
 50
0.0
 51
180.0
1001
REVIT
1002
{
1070
     3
1000
924018
1002
}
  0
ARC
  5
8A
330
87
100
AcDbEntity
  8
M-PIPE
100
AcDbCircle
 10
838.6664074431548
 20
1999.999999999995
 30
0.0
 40
3.5
100
AcDbArc
 50
180.0
 51
0.0
1001
REVIT
1002
{
1070
     3
1000
924018
1002
}
  0
ARC
  5
8B
330
87
100
AcDbEntity
  8
M-PIPE
100
AcDbCircle
 10
838.6664074431548
 20
1999.999999999995
 30
0.0
 40
31.0000000000118
100
AcDbArc
 50
0.0000000000005216
 51
180.0000000000001
1001
REVIT
1002
{
1070
     3
1000
924018
1002
}
  0
ARC
  5
8C
330
87
100
AcDbEntity
  8
M-PIPE
100
AcDbCircle
 10
838.6664074431548
 20
1999.999999999995
 30
0.0
 40
31.00000000001183
100
AcDbArc
 50
180.0
 51
0.0
1001
REVIT
1002
{
1070
     3
1000
924018
1002
}
  0
LINE
  5
8D
330
87
100
AcDbEntity
  8
P-SANR-FIXT
100
AcDbLine
 10
897.3664074431839
 20
2013.250000000027
 30
0.0
 11
882.1664074431842
 21
2013.250000000027
 31
0.0
  0
LINE
  5
8E
330
87
100
AcDbEntity
  8
P-SANR-FIXT
100
AcDbLine
 10
882.1664074431842
 20
1986.749999999965
 30
0.0
 11
897.3664074431839
 21
1986.749999999965
 31
0.0
  0
LINE
  5
8F
330
87
100
AcDbEntity
  8
P-SANR-FIXT
100
AcDbLine
 10
898.6664074431841
 20
2011.950000000027
 30
0.0
 11
897.3664074431839
 21
2013.250000000027
 31
0.0
  0
LINE
  5
90
330
87
100
AcDbEntity
  8
P-SANR-FIXT
100
AcDbLine
 10
897.3664074431839
 20
1986.749999999965
 30
0.0
 11
898.6664074431841
 21
1988.049999999965
 31
0.0
  0
LINE
  5
91
330
87
100
AcDbEntity
  8
P-SANR-FIXT
100
AcDbLine
 10
873.1664074431845
 20
1986.749999999958
 30
0.0
 11
882.1664074431842
 21
1986.749999999958
 31
0.0
  0
LINE
  5
92
330
87
100
AcDbEntity
  8
P-SANR-FIXT
100
AcDbLine
 10
882.1664074431842
 20
2013.250000000033
 30
0.0
 11
873.1664074431845
 21
2013.250000000033
 31
0.0
  0
LINE
  5
93
330
87
100
AcDbEntity
  8
P-SANR-FIXT
100
AcDbLine
 10
882.1664074431833
 20
1995.605401042256
 30
0.0
 11
882.1664074431833
 21
2004.394598957734
 31
0.0
  0
LINE
  5
94
330
87
100
AcDbEntity
  8
P-SANR-FIXT
100
AcDbLine
 10
882.1664074431833
 20
1986.977382973745
 30
0.0
 11
882.1664074431833
 21
1991.371981931577
 31
0.0
  0
LINE
  5
95
330
87
100
AcDbEntity
  8
P-SANR-FIXT
100
AcDbLine
 10
882.1664074431833
 20
2008.628018068415
 30
0.0
 11
882.1664074431833
 21
2013.022617026245
 31
0.0
  0
LINE
  5
96
330
87
100
AcDbEntity
  8
P-SANR-FIXT
100
AcDbLine
 10
897.366407443183
 20
1986.749999999964
 30
0.0
 11
897.366407443183
 21
2013.250000000026
 31
0.0
  0
LINE
  5
97
330
87
100
AcDbEntity
  8
P-SANR-FIXT
100
AcDbLine
 10
898.6664074431832
 20
2011.950000000026
 30
0.0
 11
898.6664074431832
 21
1988.049999999964
 31
0.0
  0
LINE
  5
98
330
87
100
AcDbEntity
  8
P-SANR-FIXT
100
AcDbLine
 10
873.1664074431835
 20
2004.394598957878
 30
0.0
 11
882.1664074431833
 21
2004.394598957878
 31
0.0
  0
LINE
  5
99
330
87
100
AcDbEntity
  8
P-SANR-FIXT
100
AcDbLine
 10
873.1664074431835
 20
1995.605401042112
 30
0.0
 11
882.1664074431833
 21
1995.605401042112
 31
0.0
  0
LINE
  5
9A
330
87
100
AcDbEntity
  8
P-SANR-FIXT
100
AcDbLine
 10
873.1664074431835
 20
1991.371981931637
 30
0.0
 11
882.1664074431833
 21
1991.371981931637
 31
0.0
  0
LINE
  5
9B
330
87
100
AcDbEntity
  8
P-SANR-FIXT
100
AcDbLine
 10
873.1664074431835
 20
1986.977382973731
 30
0.0
 11
882.1664074431833
 21
1986.977382973731
 31
0.0
  0
LINE
  5
9C
330
87
100
AcDbEntity
  8
P-SANR-FIXT
100
AcDbLine
 10
873.1664074431835
 20
2013.022617026259
 30
0.0
 11
882.1664074431833
 21
2013.022617026259
 31
0.0
  0
LINE
  5
9D
330
87
100
AcDbEntity
  8
P-SANR-FIXT
100
AcDbLine
 10
882.1664074431833
 20
2008.628018068355
 30
0.0
 11
873.1664074431835
 21
2008.628018068355
 31
0.0
  0
LINE
  5
9E
330
87
100
AcDbEntity
  8
P-SANR-FIXT
100
AcDbLine
 10
862.1038772754422
 20
1979.720943808626
 30
0.0
 11
870.7916222255287
 21
1979.720943808626
 31
0.0
  0
LINE
  5
9F
330
87
100
AcDbEntity
  8
P-SANR-FIXT
100
AcDbLine
 10
870.7916222255283
 20
2020.279056191367
 30
0.0
 11
862.1038772754419
 21
2020.279056191367
 31
0.0
  0
LINE
  5
A0
330
87
100
AcDbEntity
  8
P-SANR-FIXT
100
AcDbLine
 10
873.1664074431845
 20
2016.165807537323
 30
0.0
 11
870.930771385602
 21
2020.038042776288
 31
0.0
  0
LINE
  5
A1
330
87
100
AcDbEntity
  8
P-SANR-FIXT
100
AcDbLine
 10
870.8871718673721
 20
2020.113559357048
 30
0.0
 11
870.7916222255283
 21
2020.279056191367
 31
0.0
  0
LINE
  5
A2
330
87
100
AcDbEntity
  8
P-SANR-FIXT
100
AcDbLine
 10
870.7916222255287
 20
1979.720943808626
 30
0.0
 11
870.8871718673727
 21
1979.886440642944
 31
0.0
  0
LINE
  5
A3
330
87
100
AcDbEntity
  8
P-SANR-FIXT
100
AcDbLine
 10
870.9307713856022
 20
1979.961957223704
 30
0.0
 11
873.1664074431845
 21
1983.834192462669
 31
0.0
  0
LINE
  5
A4
330
87
100
AcDbEntity
  8
P-SANR-FIXT
100
AcDbLine
 10
873.1664074431835
 20
2016.165807537322
 30
0.0
 11
873.1664074431835
 21
1983.834192462668
 31
0.0
  0
SPLINE
  5
A5
330
87
100
AcDbEntity
  8
P-SANR-FIXT
100
AcDbSpline
210
0.0
220
0.0
230
1.0
 70
     8
 71
     3
 72
    10
 73
     6
 74
     0
 42
0.000000001
 43
0.0000000001
 40
0.0
 40
0.0
 40
0.0
 40
0.0
 40
0.4
 40
0.7
 40
1.0
 40
1.0
 40
1.0
 40
1.0
 10
871.1517110894567
 20
2006.639528095681
 30
0.0
 10
870.9618552755065
 20
2007.605992341089
 30
0.0
 10
870.75718917105
 20
2009.318623023359
 30
0.0
 10
870.8075657069304
 20
2011.413287670122
 30
0.0
 10
871.0095301974854
 20
2012.340028783196
 30
0.0
 10
871.1517110894625
 20
2012.701705922172
 30
0.0
  0
SPLINE
  5
A6
330
87
100
AcDbEntity
  8
P-SANR-FIXT
100
AcDbSpline
210
0.0
220
0.0
230
1.0
 70
     8
 71
     3
 72
     9
 73
     5
 74
     0
 42
0.000000001
 43
0.0000000001
 40
0.0
 40
0.0
 40
0.0
 40
0.0
 40
0.5
 40
1.0
 40
1.0
 40
1.0
 40
1.0
 10
871.1517110894567
 20
1993.360471904311
 30
0.0
 10
871.5963846086829
 20
1995.540136448758
 30
0.0
 10
872.0410581279091
 20
1999.932977025101
 30
0.0
 10
871.5963846086829
 20
2004.392840576338
 30
0.0
 10
871.1517110894567
 20
2006.639528095681
 30
0.0
  0
SPLINE
  5
A7
330
87
100
AcDbEntity
  8
P-SANR-FIXT
100
AcDbSpline
210
0.0
220
0.0
230
1.0
 70
     8
 71
     3
 72
    10
 73
     6
 74
     0
 42
0.000000001
 43
0.0000000001
 40
0.0
 40
0.0
 40
0.0
 40
0.0
 40
0.4
 40
0.7
 40
1.0
 40
1.0
 40
1.0
 40
1.0
 10
871.151711089463
 20
1987.29829407782
 30
0.0
 10
870.9621365668267
 20
1987.78053026312
 30
0.0
 10
870.7573047851697
 20
1988.946214364003
 30
0.0
 10
870.8073400905229
 20
1991.173440405772
 30
0.0
 10
871.0093192289942
 20
1992.635623720254
 30
0.0
 10
871.1517110894567
 20
1993.360471904311
 30
0.0
  0
SPLINE
  5
A8
330
87
100
AcDbEntity
  8
P-SANR-FIXT
100
AcDbSpline
210
0.0
220
0.0
230
1.0
 70
     8
 71
     3
 72
     9
 73
     5
 74
     0
 42
0.000000001
 43
0.0000000001
 40
0.0
 40
0.0
 40
0.0
 40
0.0
 40
0.5
 40
1.0
 40
1.0
 40
1.0
 40
1.0
 10
871.1517110894831
 20
1980.658765982134
 30
0.0
 10
871.5963846087067
 20
1981.748598254358
 30
0.0
 10
872.0410581279269
 20
1983.945018542529
 30
0.0
 10
871.5963846086934
 20
1986.174950318148
 30
0.0
 10
871.151711089463
 20
1987.29829407782
 30
0.0
  0
SPLINE
  5
A9
330
87
100
AcDbEntity
  8
P-SANR-FIXT
100
AcDbSpline
210
0.0
220
0.0
230
1.0
 70
     8
 71
     3
 72
     9
 73
     5
 74
     0
 42
0.000000001
 43
0.0000000001
 40
0.0
 40
0.0
 40
0.0
 40
0.0
 40
0.5
 40
1.0
 40
1.0
 40
1.0
 40
1.0
 10
870.7916222255279
 20
1979.720943808625
 30
0.0
 10
870.7925903993093
 20
1979.72094380862
 30
0.0
 10
870.8535733837498
 20
1979.885173825209
 30
0.0
 10
871.032649641946
 20
1980.356537435775
 30
0.0
 10
871.1517110894831
 20
1980.658765982134
 30
0.0
  0
SPLINE
  5
AA
330
87
100
AcDbEntity
  8
P-SANR-FIXT
100
AcDbSpline
210
0.0
220
0.0
230
1.0
 70
     8
 71
     3
 72
     9
 73
     5
 74
     0
 42
0.000000001
 43
0.0000000001
 40
0.0
 40
0.0
 40
0.0
 40
0.0
 40
0.5
 40
1.0
 40
1.0
 40
1.0
 40
1.0
 10
871.1517110894828
 20
2019.341234017857
 30
0.0
 10
871.0326496419456
 20
2019.643462564216
 30
0.0
 10
870.8535733837495
 20
2020.114826174781
 30
0.0
 10
870.7925903993089
 20
2020.279056191371
 30
0.0
 10
870.7916222255274
 20
2020.279056191366
 30
0.0
  0
SPLINE
  5
AB
330
87
100
AcDbEntity
  8
P-SANR-FIXT
100
AcDbSpline
210
0.0
220
0.0
230
1.0
 70
     8
 71
     3
 72
     9
 73
     5
 74
     0
 42
0.000000001
 43
0.0000000001
 40
0.0
 40
0.0
 40
0.0
 40
0.0
 40
0.5
 40
1.0
 40
1.0
 40
1.0
 40
1.0
 10
871.1517110894625
 20
2012.701705922172
 30
0.0
 10
871.5963846086928
 20
2013.791538194396
 30
0.0
 10
872.0410581279264
 20
2015.987958482567
 30
0.0
 10
871.5963846087062
 20
2018.217890258185
 30
0.0
 10
871.1517110894828
 20
2019.341234017857
 30
0.0
  0
LINE
  5
AC
330
87
100
AcDbEntity
  8
P-SANR-FIXT
100
AcDbLine
 10
766.5411926608432
 20
1979.720943808626
 30
0.0
 11
779.1392688721969
 21
1979.720943808626
 31
0.0
  0
LINE
  5
AD
330
87
100
AcDbEntity
  8
P-SANR-FIXT
100
AcDbLine
 10
779.1392688721964
 20
2020.279056191367
 30
0.0
 11
766.5411926608437
 21
2020.279056191367
 31
0.0
  0
LINE
  5
AE
330
87
100
AcDbEntity
  8
P-SANR-FIXT
100
AcDbLine
 10
764.1664074431876
 20
1983.834192462669
 30
0.0
 11
766.4020435007695
 21
1979.961957223704
 31
0.0
  0
LINE
  5
AF
330
87
100
AcDbEntity
  8
P-SANR-FIXT
100
AcDbLine
 10
766.4456430189995
 20
1979.886440642944
 30
0.0
 11
766.5411926608432
 21
1979.720943808626
 31
0.0
  0
LINE
  5
B0
330
87
100
AcDbEntity
  8
P-SANR-FIXT
100
AcDbLine
 10
766.5411926608437
 20
2020.279056191367
 30
0.0
 11
766.4456430189996
 21
2020.113559357048
 31
0.0
  0
LINE
  5
B1
330
87
100
AcDbEntity
  8
P-SANR-FIXT
100
AcDbLine
 10
766.40204350077
 20
2020.038042776288
 30
0.0
 11
764.1664074431876
 21
2016.165807537323
 31
0.0
  0
LINE
  5
B2
330
87
100
AcDbEntity
  8
P-SANR-FIXT
100
AcDbLine
 10
779.1392688721969
 20
1979.720943808626
 30
0.0
 11
779.2348413634187
 21
1979.886480219228
 31
0.0
  0
LINE
  5
B3
330
87
100
AcDbEntity
  8
P-SANR-FIXT
100
AcDbLine
 10
779.2784180322706
 20
1979.961957223704
 30
0.0
 11
780.1664074431877
 21
1981.499999999996
 31
0.0
  0
LINE
  5
B4
330
87
100
AcDbEntity
  8
P-SANR-FIXT
100
AcDbLine
 10
780.1664074431877
 20
2018.499999999996
 30
0.0
 11
779.2784180322702
 21
2020.038042776288
 31
0.0
  0
LINE
  5
B5
330
87
100
AcDbEntity
  8
P-SANR-FIXT
100
AcDbLine
 10
779.2348413634182
 20
2020.113519780764
 30
0.0
 11
779.1392688721964
 21
2020.279056191367
 31
0.0
  0
LINE
  5
B6
330
87
100
AcDbEntity
  8
P-SANR-FIXT
100
AcDbLine
 10
780.1664074431869
 20
2018.499999999995
 30
0.0
 11
780.1664074431869
 21
2016.021469970008
 31
0.0
  0
LINE
  5
B7
330
87
100
AcDbEntity
  8
P-SANR-FIXT
100
AcDbLine
 10
780.1664074431869
 20
2016.021469970008
 30
0.0
 11
780.1664074431868
 21
1999.999999999995
 31
0.0
  0
LINE
  5
B8
330
87
100
AcDbEntity
  8
P-SANR-FIXT
100
AcDbLine
 10
780.1664074431868
 20
1999.999999999995
 30
0.0
 11
780.1664074431869
 21
1983.978530029983
 31
0.0
  0
LINE
  5
B9
330
87
100
AcDbEntity
  8
P-SANR-FIXT
100
AcDbLine
 10
780.1664074431869
 20
1983.978530029983
 30
0.0
 11
780.1664074431869
 21
1981.499999999995
 31
0.0
  0
LINE
  5
BA
330
87
100
AcDbEntity
  8
P-SANR-FIXT
100
AcDbLine
 10
764.1664074431868
 20
1983.834192462668
 30
0.0
 11
764.1664074431868
 21
2016.165807537322
 31
0.0
  0
SPLINE
  5
BB
330
87
100
AcDbEntity
  8
P-SANR-FIXT
100
AcDbSpline
210
0.0
220
0.0
230
1.0
 70
     8
 71
     3
 72
    10
 73
     6
 74
     0
 42
0.000000001
 43
0.0000000001
 40
0.0
 40
0.0
 40
0.0
 40
0.0
 40
0.4
 40
0.7
 40
1.0
 40
1.0
 40
1.0
 40
1.0
 10
766.1811037969074
 20
2012.701705922172
 30
0.0
 10
766.3709596108589
 20
2012.218473799468
 30
0.0
 10
766.5756257153184
 20
2011.052580828541
 30
0.0
 10
766.525249179442
 20
2008.824415545862
 30
0.0
 10
766.3232846888894
 20
2007.362882373632
 30
0.0
 10
766.1811037969134
 20
2006.639528095681
 30
0.0
  0
SPLINE
  5
BC
330
87
100
AcDbEntity
  8
P-SANR-FIXT
100
AcDbSpline
210
0.0
220
0.0
230
1.0
 70
     8
 71
     3
 72
    10
 73
     6
 74
     0
 42
0.000000001
 43
0.0000000001
 40
0.0
 40
0.0
 40
0.0
 40
0.0
 40
0.4
 40
0.7
 40
1.0
 40
1.0
 40
1.0
 40
1.0
 10
779.4993577361249
 20
2006.639528095681
 30
0.0
 10
779.3097832134902
 20
2007.604000466283
 30
0.0
 10
779.104951431836
 20
2009.317267736288
 30
0.0
 10
779.1549867371936
 20
2011.411544381954
 30
0.0
 10
779.3569658756671
 20
2012.339281830143
 30
0.0
 10
779.4993577361309
 20
2012.701705922172
 30
0.0
  0
SPLINE
  5
BD
330
87
100
AcDbEntity
  8
P-SANR-FIXT
100
AcDbSpline
210
0.0
220
0.0
230
1.0
 70
     8
 71
     3
 72
     9
 73
     5
 74
     0
 42
0.000000001
 43
0.0000000001
 40
0.0
 40
0.0
 40
0.0
 40
0.0
 40
0.5
 40
1.0
 40
1.0
 40
1.0
 40
1.0
 10
766.1811037969134
 20
2006.639528095681
 30
0.0
 10
765.7364302776873
 20
2004.392840576338
 30
0.0
 10
765.2917567584609
 20
1999.932977025101
 30
0.0
 10
765.7364302776872
 20
1995.540136448758
 30
0.0
 10
766.1811037969132
 20
1993.360471904311
 30
0.0
  0
SPLINE
  5
BE
330
87
100
AcDbEntity
  8
P-SANR-FIXT
100
AcDbSpline
210
0.0
220
0.0
230
1.0
 70
     8
 71
     3
 72
     9
 73
     5
 74
     0
 42
0.000000001
 43
0.0000000001
 40
0.0
 40
0.0
 40
0.0
 40
0.0
 40
0.5
 40
1.0
 40
1.0
 40
1.0
 40
1.0
 10
779.499357736125
 20
1993.360471904311
 30
0.0
 10
779.7180634510502
 20
1994.456483720958
 30
0.0
 10
780.0479441171525
 20
1996.659083553552
 30
0.0
 10
780.1627632557581
 20
1998.882835784747
 30
0.0
 10
780.1664074431868
 20
1999.999999999995
 30
0.0
  0
SPLINE
  5
BF
330
87
100
AcDbEntity
  8
P-SANR-FIXT
100
AcDbSpline
210
0.0
220
0.0
230
1.0
 70
     8
 71
     3
 72
     9
 73
     5
 74
     0
 42
0.000000001
 43
0.0000000001
 40
0.0
 40
0.0
 40
0.0
 40
0.0
 40
0.5
 40
1.0
 40
1.0
 40
1.0
 40
1.0
 10
780.1664074431868
 20
1999.999999999995
 30
0.0
 10
780.1627632557581
 20
2001.117164215243
 30
0.0
 10
780.0479441171525
 20
2003.340916446439
 30
0.0
 10
779.7180634510502
 20
2005.543516279034
 30
0.0
 10
779.4993577361249
 20
2006.639528095681
 30
0.0
  0
SPLINE
  5
C0
330
87
100
AcDbEntity
  8
P-SANR-FIXT
100
AcDbSpline
210
0.0
220
0.0
230
1.0
 70
     8
 71
     3
 72
    10
 73
     6
 74
     0
 42
0.000000001
 43
0.0000000001
 40
0.0
 40
0.0
 40
0.0
 40
0.0
 40
0.4
 40
0.7
 40
1.0
 40
1.0
 40
1.0
 40
1.0
 10
766.1811037969132
 20
1993.360471904311
 30
0.0
 10
766.3709596108634
 20
1992.394007658902
 30
0.0
 10
766.5756257153199
 20
1990.681376976633
 30
0.0
 10
766.5252491794393
 20
1988.586712329868
 30
0.0
 10
766.3232846888843
 20
1987.659971216795
 30
0.0
 10
766.1811037969072
 20
1987.29829407782
 30
0.0
  0
SPLINE
  5
C1
330
87
100
AcDbEntity
  8
P-SANR-FIXT
100
AcDbSpline
210
0.0
220
0.0
230
1.0
 70
     8
 71
     3
 72
    10
 73
     6
 74
     0
 42
0.000000001
 43
0.0000000001
 40
0.0
 40
0.0
 40
0.0
 40
0.0
 40
0.4
 40
0.7
 40
1.0
 40
1.0
 40
1.0
 40
1.0
 10
779.4993577361311
 20
1987.29829407782
 30
0.0
 10
779.3097832134949
 20
1987.78053026312
 30
0.0
 10
779.1049514318379
 20
1988.946214364003
 30
0.0
 10
779.1549867371912
 20
1991.173440405772
 30
0.0
 10
779.3569658756624
 20
1992.635623720254
 30
0.0
 10
779.499357736125
 20
1993.360471904311
 30
0.0
  0
SPLINE
  5
C2
330
87
100
AcDbEntity
  8
P-SANR-FIXT
100
AcDbSpline
210
0.0
220
0.0
230
1.0
 70
     8
 71
     3
 72
     9
 73
     5
 74
     0
 42
0.000000001
 43
0.0000000001
 40
0.0
 40
0.0
 40
0.0
 40
0.0
 40
0.5
 40
1.0
 40
1.0
 40
1.0
 40
1.0
 10
766.1811037969072
 20
1987.29829407782
 30
0.0
 10
765.736430277677
 20
1986.174950318148
 30
0.0
 10
765.2917567584434
 20
1983.945018542529
 30
0.0
 10
765.7364302776636
 20
1981.748598254358
 30
0.0
 10
766.1811037968872
 20
1980.658765982134
 30
0.0
  0
SPLINE
  5
C3
330
87
100
AcDbEntity
  8
P-SANR-FIXT
100
AcDbSpline
210
0.0
220
0.0
230
1.0
 70
     8
 71
     3
 72
     9
 73
     5
 74
     0
 42
0.000000001
 43
0.0000000001
 40
0.0
 40
0.0
 40
0.0
 40
0.0
 40
0.5
 40
1.0
 40
1.0
 40
1.0
 40
1.0
 10
779.4993577361515
 20
1980.658765982134
 30
0.0
 10
779.7180634510766
 20
1981.206771890453
 30
0.0
 10
780.0479441171744
 20
1982.308071806742
 30
0.0
 10
780.162763255767
 20
1983.419947922331
 30
0.0
 10
780.1664074431869
 20
1983.978530029951
 30
0.0
  0
SPLINE
  5
C4
330
87
100
AcDbEntity
  8
P-SANR-FIXT
100
AcDbSpline
210
0.0
220
0.0
230
1.0
 70
     8
 71
     3
 72
     9
 73
     5
 74
     0
 42
0.000000001
 43
0.0000000001
 40
0.0
 40
0.0
 40
0.0
 40
0.0
 40
0.5
 40
1.0
 40
1.0
 40
1.0
 40
1.0
 10
780.1664074431869
 20
1983.978530029951
 30
0.0
 10
780.1627632557666
 20
1984.537112137579
 30
0.0
 10
780.0479441171707
 20
1985.648988253186
 30
0.0
 10
779.7180634510628
 20
1986.750288169492
 30
0.0
 10
779.4993577361311
 20
1987.29829407782
 30
0.0
  0
SPLINE
  5
C5
330
87
100
AcDbEntity
  8
P-SANR-FIXT
100
AcDbSpline
210
0.0
220
0.0
230
1.0
 70
     8
 71
     3
 72
     9
 73
     5
 74
     0
 42
0.000000001
 43
0.0000000001
 40
0.0
 40
0.0
 40
0.0
 40
0.0
 40
0.5
 40
1.0
 40
1.0
 40
1.0
 40
1.0
 10
766.1811037968872
 20
1980.658765982134
 30
0.0
 10
766.3001652444243
 20
1980.356537435775
 30
0.0
 10
766.4792415026205
 20
1979.885173825209
 30
0.0
 10
766.5402244870611
 20
1979.72094380862
 30
0.0
 10
766.5411926608424
 20
1979.720943808625
 30
0.0
  0
SPLINE
  5
C6
330
87
100
AcDbEntity
  8
P-SANR-FIXT
100
AcDbSpline
210
0.0
220
0.0
230
1.0
 70
     8
 71
     3
 72
     9
 73
     5
 74
     0
 42
0.000000001
 43
0.0000000001
 40
0.0
 40
0.0
 40
0.0
 40
0.0
 40
0.5
 40
1.0
 40
1.0
 40
1.0
 40
1.0
 10
779.1392688721961
 20
1979.720943808625
 30
0.0
 10
779.1402370459775
 20
1979.72094380862
 30
0.0
 10
779.201220030418
 20
1979.885173825209
 30
0.0
 10
779.3802962886144
 20
1980.356537435775
 30
0.0
 10
779.4993577361515
 20
1980.658765982134
 30
0.0
  0
SPLINE
  5
C7
330
87
100
AcDbEntity
  8
P-SANR-FIXT
100
AcDbSpline
210
0.0
220
0.0
230
1.0
 70
     8
 71
     3
 72
     9
 73
     5
 74
     0
 42
0.000000001
 43
0.0000000001
 40
0.0
 40
0.0
 40
0.0
 40
0.0
 40
0.5
 40
1.0
 40
1.0
 40
1.0
 40
1.0
 10
766.5411926608429
 20
2020.279056191366
 30
0.0
 10
766.5402244870614
 20
2020.279056191371
 30
0.0
 10
766.479241502621
 20
2020.114826174781
 30
0.0
 10
766.3001652444246
 20
2019.643462564216
 30
0.0
 10
766.1811037968875
 20
2019.341234017857
 30
0.0
  0
SPLINE
  5
C8
330
87
100
AcDbEntity
  8
P-SANR-FIXT
100
AcDbSpline
210
0.0
220
0.0
230
1.0
 70
     8
 71
     3
 72
     9
 73
     5
 74
     0
 42
0.000000001
 43
0.0000000001
 40
0.0
 40
0.0
 40
0.0
 40
0.0
 40
0.5
 40
1.0
 40
1.0
 40
1.0
 40
1.0
 10
779.4993577361509
 20
2019.341234017857
 30
0.0
 10
779.380296288614
 20
2019.643462564216
 30
0.0
 10
779.2012200304177
 20
2020.114826174781
 30
0.0
 10
779.1402370459771
 20
2020.279056191371
 30
0.0
 10
779.1392688721957
 20
2020.279056191366
 30
0.0
  0
SPLINE
  5
C9
330
87
100
AcDbEntity
  8
P-SANR-FIXT
100
AcDbSpline
210
0.0
220
0.0
230
1.0
 70
     8
 71
     3
 72
     9
 73
     5
 74
     0
 42
0.000000001
 43
0.0000000001
 40
0.0
 40
0.0
 40
0.0
 40
0.0
 40
0.5
 40
1.0
 40
1.0
 40
1.0
 40
1.0
 10
779.4993577361309
 20
2012.701705922172
 30
0.0
 10
779.7180634510625
 20
2013.249711830499
 30
0.0
 10
780.0479441171702
 20
2014.351011746805
 30
0.0
 10
780.1627632557665
 20
2015.462887862412
 30
0.0
 10
780.1664074431869
 20
2016.02146997004
 30
0.0
  0
SPLINE
  5
CA
330
87
100
AcDbEntity
  8
P-SANR-FIXT
100
AcDbSpline
210
0.0
220
0.0
230
1.0
 70
     8
 71
     3
 72
     9
 73
     5
 74
     0
 42
0.000000001
 43
0.0000000001
 40
0.0
 40
0.0
 40
0.0
 40
0.0
 40
0.5
 40
1.0
 40
1.0
 40
1.0
 40
1.0
 10
780.1664074431869
 20
2016.02146997004
 30
0.0
 10
780.1627632557669
 20
2016.58005207766
 30
0.0
 10
780.047944117174
 20
2017.691928193249
 30
0.0
 10
779.7180634510761
 20
2018.793228109537
 30
0.0
 10
779.4993577361509
 20
2019.341234017857
 30
0.0
  0
SPLINE
  5
CB
330
87
100
AcDbEntity
  8
P-SANR-FIXT
100
AcDbSpline
210
0.0
220
0.0
230
1.0
 70
     8
 71
     3
 72
     9
 73
     5
 74
     0
 42
0.000000001
 43
0.0000000001
 40
0.0
 40
0.0
 40
0.0
 40
0.0
 40
0.5
 40
1.0
 40
1.0
 40
1.0
 40
1.0
 10
766.1811037968875
 20
2019.341234017857
 30
0.0
 10
765.736430277664
 20
2018.251401745633
 30
0.0
 10
765.2917567584438
 20
2016.054981457461
 30
0.0
 10
765.7364302776772
 20
2013.825049681843
 30
0.0
 10
766.1811037969074
 20
2012.701705922172
 30
0.0
  0
LINE
  5
CC
330
87
100
AcDbEntity
  8
P-SANR-FIXT
100
AcDbLine
 10
755.1664074431879
 20
2013.250000000027
 30
0.0
 11
739.9664074431881
 21
2013.250000000027
 31
0.0
  0
LINE
  5
CD
330
87
100
AcDbEntity
  8
P-SANR-FIXT
100
AcDbLine
 10
739.9664074431881
 20
1986.749999999965
 30
0.0
 11
755.1664074431879
 21
1986.749999999965
 31
0.0
  0
LINE
  5
CE
330
87
100
AcDbEntity
  8
P-SANR-FIXT
100
AcDbLine
 10
739.9664074431881
 20
2013.250000000027
 30
0.0
 11
738.6664074431878
 21
2011.950000000027
 31
0.0
  0
LINE
  5
CF
330
87
100
AcDbEntity
  8
P-SANR-FIXT
100
AcDbLine
 10
738.6664074431878
 20
1988.049999999965
 30
0.0
 11
739.9664074431881
 21
1986.749999999965
 31
0.0
  0
LINE
  5
D0
330
87
100
AcDbEntity
  8
P-SANR-FIXT
100
AcDbLine
 10
755.1664074431879
 20
1986.749999999958
 30
0.0
 11
764.1664074431876
 21
1986.749999999958
 31
0.0
  0
LINE
  5
D1
330
87
100
AcDbEntity
  8
P-SANR-FIXT
100
AcDbLine
 10
764.1664074431876
 20
2013.250000000033
 30
0.0
 11
755.1664074431879
 21
2013.250000000033
 31
0.0
  0
LINE
  5
D2
330
87
100
AcDbEntity
  8
P-SANR-FIXT
100
AcDbLine
 10
738.6664074431871
 20
1988.049999999964
 30
0.0
 11
738.6664074431871
 21
2011.950000000026
 31
0.0
  0
LINE
  5
D3
330
87
100
AcDbEntity
  8
P-SANR-FIXT
100
AcDbLine
 10
755.166407443187
 20
1991.371981931577
 30
0.0
 11
755.166407443187
 21
1986.977382973745
 31
0.0
  0
LINE
  5
D4
330
87
100
AcDbEntity
  8
P-SANR-FIXT
100
AcDbLine
 10
755.166407443187
 20
2004.394598957734
 30
0.0
 11
755.166407443187
 21
1995.605401042256
 31
0.0
  0
LINE
  5
D5
330
87
100
AcDbEntity
  8
P-SANR-FIXT
100
AcDbLine
 10
755.166407443187
 20
2013.022617026245
 30
0.0
 11
755.166407443187
 21
2008.628018068415
 31
0.0
  0
LINE
  5
D6
330
87
100
AcDbEntity
  8
P-SANR-FIXT
100
AcDbLine
 10
739.9664074431873
 20
2013.250000000026
 30
0.0
 11
739.9664074431873
 21
1986.749999999964
 31
0.0
  0
LINE
  5
D7
330
87
100
AcDbEntity
  8
P-SANR-FIXT
100
AcDbLine
 10
764.1664074431868
 20
2008.628018068355
 30
0.0
 11
755.166407443187
 21
2008.628018068355
 31
0.0
  0
LINE
  5
D8
330
87
100
AcDbEntity
  8
P-SANR-FIXT
100
AcDbLine
 10
755.166407443187
 20
2004.394598957878
 30
0.0
 11
764.1664074431868
 21
2004.394598957878
 31
0.0
  0
LINE
  5
D9
330
87
100
AcDbEntity
  8
P-SANR-FIXT
100
AcDbLine
 10
755.166407443187
 20
1995.605401042112
 30
0.0
 11
764.1664074431868
 21
1995.605401042112
 31
0.0
  0
LINE
  5
DA
330
87
100
AcDbEntity
  8
P-SANR-FIXT
100
AcDbLine
 10
755.166407443187
 20
1991.371981931637
 30
0.0
 11
764.1664074431868
 21
1991.371981931637
 31
0.0
  0
LINE
  5
DB
330
87
100
AcDbEntity
  8
P-SANR-FIXT
100
AcDbLine
 10
755.166407443187
 20
1986.977382973731
 30
0.0
 11
764.1664074431868
 21
1986.977382973731
 31
0.0
  0
LINE
  5
DC
330
87
100
AcDbEntity
  8
P-SANR-FIXT
100
AcDbLine
 10
755.166407443187
 20
2013.022617026259
 30
0.0
 11
764.1664074431868
 21
2013.022617026259
 31
0.0
  0
LINE
  5
DD
330
87
100
AcDbEntity
  8
P-SANR-FIXT
100
AcDbLine
 10
795.666407443186
 20
2052.145299461643
 30
0.0
 11
795.666407443186
 21
2039.845517328122
 31
0.0
  0
LINE
  5
DE
330
87
100
AcDbEntity
  8
P-SANR-FIXT
100
AcDbLine
 10
835.6664074431851
 20
2039.845517328122
 30
0.0
 11
835.6664074431851
 21
2052.145299461643
 31
0.0
  0
LINE
  5
DF
330
87
100
AcDbEntity
  8
P-SANR-FIXT
100
AcDbLine
 10
835.6664074431852
 20
2052.145299461643
 30
0.0
 11
833.6664074431851
 21
2053.300000000023
 31
0.0
  0
LINE
  5
E0
330
87
100
AcDbEntity
  8
P-SANR-FIXT
100
AcDbLine
 10
797.6664074431868
 20
2053.300000000023
 30
0.0
 11
795.6664074431861
 21
2052.145299461643
 31
0.0
  0
LINE
  5
E1
330
87
100
AcDbEntity
  8
P-SANR-FIXT
100
AcDbLine
 10
795.666407443186
 20
2039.845517328122
 30
0.0
 11
787.2781788755321
 21
2037.597898257491
 31
0.0
  0
LINE
  5
E2
330
87
100
AcDbEntity
  8
P-SANR-FIXT
100
AcDbLine
 10
844.0546360108397
 20
2037.597898257491
 30
0.0
 11
835.6664074431851
 21
2039.845517328122
 31
0.0
  0
LINE
  5
E3
330
87
100
AcDbEntity
  8
P-SANR-FIXT
100
AcDbLine
 10
786.1664074431862
 20
2036.149009518057
 30
0.0
 11
786.1664074431862
 21
2034.799999999993
 31
0.0
  0
LINE
  5
E4
330
87
100
AcDbEntity
  8
P-SANR-FIXT
100
AcDbLine
 10
845.1664074431855
 20
2034.799999999993
 30
0.0
 11
845.1664074431855
 21
2036.149009518057
 31
0.0
  0
LINE
  5
E5
330
87
100
AcDbEntity
  8
P-SANR-FIXT
100
AcDbLine
 10
797.6664074431868
 20
2107.300000000023
 30
0.0
 11
797.6664074431868
 21
2053.300000000023
 31
0.0
  0
LINE
  5
E6
330
87
100
AcDbEntity
  8
P-SANR-FIXT
100
AcDbLine
 10
833.6664074431851
 20
2053.300000000023
 30
0.0
 11
833.6664074431851
 21
2107.300000000023
 31
0.0
  0
LWPOLYLINE
  5
E7
330
87
100
AcDbEntity
  8
P-SANR-FIXT
100
AcDbPolyline
 90
       34
 70
   128
 43
0.0
 10
844.0546360108397
 20
2037.597898257491
 10
844.1122655653947
 20
2037.581214299107
 10
844.1691818420659
 20
2037.562239118594
 10
844.2252937869513
 20
2037.541003072192
 10
844.2805116329097
 20
2037.517540133047
 10
844.3347470431664
 20
2037.491887836856
 10
844.3879132526346
 20
2037.46408722182
 10
844.4399252067205
 20
2037.434182762992
 10
844.4906996973934
 20
2037.402222301129
 10
844.5401554962991
 20
2037.36825696615
 10
844.5882134847092
 20
2037.332341095347
 10
844.6347967800946
 20
2037.294532146451
 10
844.6798308591198
 20
2037.254890605714
 10
844.7232436768645
 20
2037.213479891146
 10
844.764965782082
 20
2037.170366251056
 10
844.8049304283038
 20
2037.125618658071
 10
844.8430736806216
 20
2037.079308698794
 10
844.879334517968
 20
2037.031510459281
 10
844.9136549307388
 20
2036.982300406519
 10
844.9459800135947
 20
2036.931757266095
 10
844.976258053299
 20
2036.879961896251
 10
845.004440611447
 20
2036.82699715853
 10
845.0304826019575
 20
2036.772947785214
 10
845.0543423632012
 20
2036.71790024377
 10
845.0759817246499
 20
2036.661942598522
 10
845.0953660679413
 20
2036.605164369766
 10
845.1124643822614
 20
2036.547656390554
 10
845.1272493139548
 20
2036.489510661387
 10
845.1396972102845
 20
2036.430820203026
 10
845.149788157272
 20
2036.371678907686
 10
845.1575060115546
 20
2036.312181388823
 10
845.1628384262118
 20
2036.252422829774
 10
845.1657768705176
 20
2036.192498831488
 10
845.166407443186
 20
2036.149009518057
  0
LWPOLYLINE
  5
E8
330
87
100
AcDbEntity
  8
P-SANR-FIXT
100
AcDbPolyline
 90
       34
 70
   128
 43
0.0
 10
786.1664074431859
 20
2036.149009518057
 10
786.1676072831945
 20
2036.208993519338
 10
786.1712048837319
 20
2036.268881559012
 10
786.1771944894051
 20
2036.328577828991
 10
786.1855665181226
 20
2036.387986827979
 10
786.1963075764239
 20
2036.44701351425
 10
786.2094004809079
 20
2036.505563457698
 10
786.2248242857197
 20
2036.563542990904
 10
786.2425543160624
 20
2036.620859358981
 10
786.262562207669
 20
2036.67742086797
 10
786.2848159521815
 20
2036.733137031521
 10
786.309279948356
 20
2036.787918715657
 10
786.335915059017
 20
2036.84167828137
 10
786.3646786736695
 20
2036.894329724823
 10
786.3955247766657
 20
2036.945788814939
 10
786.4284040208214
 20
2036.99597322815
 10
786.4632638063595
 20
2037.044802680101
 10
786.5000483650596
 20
2037.092199054086
 10
786.5386988494746
 20
2037.138086526015
 10
786.5791534270745
 20
2037.182391685723
 10
786.621347379165
 20
2037.225043654407
 10
786.6652132044237
 20
2037.265974198014
 10
786.710680726888
 20
2037.305117836406
 10
786.7576772082206
 20
2037.342411948112
 10
786.8061274640772
 20
2037.377796870509
 10
786.8559539843837
 20
2037.41121599527
 10
786.9070770573367
 20
2037.442615858922
 10
786.9594148969254
 20
2037.471946228385
 10
787.0128837737707
 20
2037.499160181322
 10
787.0673981490764
 20
2037.524214181215
 10
787.1228708114708
 20
2037.547068147008
 10
787.1792130165277
 20
2037.567685517232
 10
787.2363346287378
 20
2037.586033308491
 10
787.2781788755321
 20
2037.597898257491
  0
LINE
  5
E9
330
87
100
AcDbEntity
  8
P-SANR-FIXT
100
AcDbLine
 10
795.666407443185
 20
2039.845517328121
 30
0.0
 11
795.7706767811264
 21
2039.845517328121
 31
0.0
  0
LINE
  5
EA
330
87
100
AcDbEntity
  8
P-SANR-FIXT
100
AcDbLine
 10
795.7706767811264
 20
2052.145299461642
 30
0.0
 11
795.666407443185
 21
2052.145299461642
 31
0.0
  0
LINE
  5
EB
330
87
100
AcDbEntity
  8
P-SANR-FIXT
100
AcDbLine
 10
795.7706767811266
 20
2039.845517328121
 30
0.0
 11
795.7706767811266
 21
2052.145299461642
 31
0.0
  0
SPLINE
  5
EC
330
87
100
AcDbEntity
  8
P-SANR-FIXT
100
AcDbSpline
210
0.0
220
0.0
230
1.0
 70
     8
 71
     3
 72
     9
 73
     5
 74
     0
 42
0.000000001
 43
0.0000000001
 40
0.0
 40
0.0
 40
0.0
 40
0.0
 40
0.5
 40
1.0
 40
1.0
 40
1.0
 40
1.0
 10
803.9522108671398
 20
2052.145299461642
 30
0.0
 10
802.6110657343785
 20
2052.818826968624
 30
0.0
 10
799.9063315872817
 20
2053.492354475604
 30
0.0
 10
797.1567096770365
 20
2052.818826968623
 30
0.0
 10
795.7706767811266
 20
2052.145299461642
 30
0.0
  0
LINE
  5
ED
330
87
100
AcDbEntity
  8
P-SANR-FIXT
100
AcDbLine
 10
803.9522108671397
 20
2039.845517328121
 30
0.0
 11
803.9522108671397
 21
2052.145299461642
 31
0.0
  0
LINE
  5
EE
330
87
100
AcDbEntity
  8
P-SANR-FIXT
100
AcDbLine
 10
803.9522108671395
 20
2039.845517328121
 30
0.0
 11
807.4848733571707
 21
2039.845517328121
 31
0.0
  0
LINE
  5
EF
330
87
100
AcDbEntity
  8
P-SANR-FIXT
100
AcDbLine
 10
807.4848733571707
 20
2052.145299461642
 30
0.0
 11
803.9522108671397
 21
2052.145299461642
 31
0.0
  0
LINE
  5
F0
330
87
100
AcDbEntity
  8
P-SANR-FIXT
100
AcDbLine
 10
807.4848733571709
 20
2039.845517328121
 30
0.0
 11
807.4848733571709
 21
2052.145299461642
 31
0.0
  0
SPLINE
  5
F1
330
87
100
AcDbEntity
  8
P-SANR-FIXT
100
AcDbSpline
210
0.0
220
0.0
230
1.0
 70
     8
 71
     3
 72
     9
 73
     5
 74
     0
 42
0.000000001
 43
0.0000000001
 40
0.0
 40
0.0
 40
0.0
 40
0.0
 40
0.5
 40
1.0
 40
1.0
 40
1.0
 40
1.0
 10
823.8479415291978
 20
2052.145299461643
 30
0.0
 10
821.1656512636752
 20
2052.818826968624
 30
0.0
 10
815.7561829694815
 20
2053.492354475605
 30
0.0
 10
810.2569391489906
 20
2052.818826968624
 30
0.0
 10
807.4848733571709
 20
2052.145299461642
 30
0.0
  0
LINE
  5
F2
330
87
100
AcDbEntity
  8
P-SANR-FIXT
100
AcDbLine
 10
823.8479415291978
 20
2039.845517328121
 30
0.0
 11
823.8479415291978
 21
2052.145299461643
 31
0.0
  0
LINE
  5
F3
330
87
100
AcDbEntity
  8
P-SANR-FIXT
100
AcDbLine
 10
823.8479415291978
 20
2039.845517328121
 30
0.0
 11
827.3806040192289
 21
2039.845517328121
 31
0.0
  0
LINE
  5
F4
330
87
100
AcDbEntity
  8
P-SANR-FIXT
100
AcDbLine
 10
827.3806040192289
 20
2052.145299461642
 30
0.0
 11
823.8479415291978
 21
2052.145299461642
 31
0.0
  0
LINE
  5
F5
330
87
100
AcDbEntity
  8
P-SANR-FIXT
100
AcDbLine
 10
827.380604019229
 20
2039.845517328121
 30
0.0
 11
827.380604019229
 21
2052.145299461643
 31
0.0
  0
SPLINE
  5
F6
330
87
100
AcDbEntity
  8
P-SANR-FIXT
100
AcDbSpline
210
0.0
220
0.0
230
1.0
 70
     8
 71
     3
 72
     9
 73
     5
 74
     0
 42
0.000000001
 43
0.0000000001
 40
0.0
 40
0.0
 40
0.0
 40
0.0
 40
0.5
 40
1.0
 40
1.0
 40
1.0
 40
1.0
 10
835.5621381052429
 20
2052.145299461642
 30
0.0
 10
834.2209929724814
 20
2052.818826968624
 30
0.0
 10
831.5162588253846
 20
2053.492354475604
 30
0.0
 10
828.766636915139
 20
2052.818826968624
 30
0.0
 10
827.380604019229
 20
2052.145299461643
 30
0.0
  0
LINE
  5
F7
330
87
100
AcDbEntity
  8
P-SANR-FIXT
100
AcDbLine
 10
835.5621381052429
 20
2039.845517328121
 30
0.0
 11
835.5621381052429
 21
2052.145299461642
 31
0.0
  0
LINE
  5
F8
330
87
100
AcDbEntity
  8
P-SANR-FIXT
100
AcDbLine
 10
835.5621381052429
 20
2039.845517328121
 30
0.0
 11
835.6664074431844
 21
2039.845517328121
 31
0.0
  0
LINE
  5
F9
330
87
100
AcDbEntity
  8
P-SANR-FIXT
100
AcDbLine
 10
835.6664074431844
 20
2052.145299461642
 30
0.0
 11
835.5621381052429
 21
2052.145299461642
 31
0.0
  0
LINE
  5
FA
330
87
100
AcDbEntity
  8
P-SANR-FIXT
100
AcDbLine
 10
833.6664074431842
 20
2053.300000000022
 30
0.0
 11
828.3943295045434
 21
2053.300000000022
 31
0.0
  0
LINE
  5
FB
330
87
100
AcDbEntity
  8
P-SANR-FIXT
100
AcDbLine
 10
828.3943295045434
 20
2053.300000000022
 30
0.0
 11
815.6664074431864
 21
2053.300000000022
 31
0.0
  0
LINE
  5
FC
330
87
100
AcDbEntity
  8
P-SANR-FIXT
100
AcDbLine
 10
815.6664074431864
 20
2053.300000000022
 30
0.0
 11
802.9384853818289
 21
2053.300000000022
 31
0.0
  0
LINE
  5
FD
330
87
100
AcDbEntity
  8
P-SANR-FIXT
100
AcDbLine
 10
802.9384853818289
 20
2053.300000000022
 30
0.0
 11
797.6664074431859
 21
2053.300000000022
 31
0.0
  0
LINE
  5
FE
330
87
100
AcDbEntity
  8
P-SANR-FIXT
100
AcDbLine
 10
845.1664074431848
 20
2034.799999999993
 30
0.0
 11
845.0644514514413
 21
2034.799999999993
 31
0.0
  0
LINE
  5
FF
330
87
100
AcDbEntity
  8
P-SANR-FIXT
100
AcDbLine
 10
844.986377936401
 20
2034.799999999993
 30
0.0
 11
844.7589607866209
 21
2034.799999999993
 31
0.0
  0
LINE
  5
100
330
87
100
AcDbEntity
  8
P-SANR-FIXT
100
AcDbLine
 10
844.584439648956
 20
2034.799999999993
 30
0.0
 11
844.2513303705705
 21
2034.799999999993
 31
0.0
  0
LINE
  5
101
330
87
100
AcDbEntity
  8
P-SANR-FIXT
100
AcDbLine
 10
843.9827883397553
 20
2034.799999999993
 30
0.0
 11
843.5438441279563
 21
2034.799999999993
 31
0.0
  0
LINE
  5
102
330
87
100
AcDbEntity
  8
P-SANR-FIXT
100
AcDbLine
 10
843.1865682887533
 20
2034.799999999993
 30
0.0
 11
842.6391134072945
 21
2034.799999999993
 31
0.0
  0
LINE
  5
103
330
87
100
AcDbEntity
  8
P-SANR-FIXT
100
AcDbLine
 10
842.2014339183641
 20
2034.799999999993
 30
0.0
 11
841.2321475448344
 21
2034.799999999993
 31
0.0
  0
LINE
  5
104
330
87
100
AcDbEntity
  8
P-SANR-FIXT
100
AcDbLine
 10
840.8192922916304
 20
2034.799999999993
 30
0.0
 11
839.8448200954554
 21
2034.799999999993
 31
0.0
  0
LINE
  5
105
330
87
100
AcDbEntity
  8
P-SANR-FIXT
100
AcDbLine
 10
839.5324087772456
 20
2034.799999999993
 30
0.0
 11
838.2719855196327
 21
2034.799999999993
 31
0.0
  0
LINE
  5
106
330
87
100
AcDbEntity
  8
P-SANR-FIXT
100
AcDbLine
 10
838.0983834283856
 20
2034.799999999993
 30
0.0
 11
834.8251248689253
 21
2034.799999999993
 31
0.0
  0
LINE
  5
107
330
87
100
AcDbEntity
  8
P-SANR-FIXT
100
AcDbLine
 10
834.6341385189756
 20
2034.799999999993
 30
0.0
 11
833.0060723858128
 21
2034.799999999993
 31
0.0
  0
LINE
  5
108
330
87
100
AcDbEntity
  8
P-SANR-FIXT
100
AcDbLine
 10
832.595613075866
 20
2034.799999999993
 30
0.0
 11
831.0801151023053
 21
2034.799999999993
 31
0.0
  0
LINE
  5
109
330
87
100
AcDbEntity
  8
P-SANR-FIXT
100
AcDbLine
 10
830.426290030957
 20
2034.799999999993
 30
0.0
 11
828.1430626074476
 21
2034.799999999993
 31
0.0
  0
LINE
  5
10A
330
87
100
AcDbEntity
  8
P-SANR-FIXT
100
AcDbLine
 10
826.9555686979551
 20
2034.799999999993
 30
0.0
 11
825.7637597022903
 21
2034.799999999993
 31
0.0
  0
LINE
  5
10B
330
87
100
AcDbEntity
  8
P-SANR-FIXT
100
AcDbLine
 10
824.7824087772459
 20
2034.799999999993
 30
0.0
 11
823.3069925740592
 21
2034.799999999993
 31
0.0
  0
LINE
  5
10C
330
87
100
AcDbEntity
  8
P-SANR-FIXT
100
AcDbLine
 10
823.2165235395486
 20
2034.799999999993
 30
0.0
 11
820.7919968378545
 21
2034.799999999993
 31
0.0
  0
LINE
  5
10D
330
87
100
AcDbEntity
  8
P-SANR-FIXT
100
AcDbLine
 10
820.2812241618719
 20
2034.799999999993
 30
0.0
 11
818.2384702944387
 21
2034.799999999993
 31
0.0
  0
LINE
  5
10E
330
87
100
AcDbEntity
  8
P-SANR-FIXT
100
AcDbLine
 10
817.9809507671565
 20
2034.799999999993
 30
0.0
 11
813.3518641192136
 21
2034.799999999993
 31
0.0
  0
LINE
  5
10F
330
87
100
AcDbEntity
  8
P-SANR-FIXT
100
AcDbLine
 10
813.0943445919301
 20
2034.799999999993
 30
0.0
 11
811.0515907244982
 21
2034.799999999993
 31
0.0
  0
LINE
  5
110
330
87
100
AcDbEntity
  8
P-SANR-FIXT
100
AcDbLine
 10
810.5408180485145
 20
2034.799999999993
 30
0.0
 11
808.779769209436
 21
2034.799999999993
 31
0.0
  0
LINE
  5
111
330
87
100
AcDbEntity
  8
P-SANR-FIXT
100
AcDbLine
 10
808.0258223123099
 20
2034.799999999993
 30
0.0
 11
806.5504061091242
 21
2034.799999999993
 31
0.0
  0
LINE
  5
112
330
87
100
AcDbEntity
  8
P-SANR-FIXT
100
AcDbLine
 10
805.5690551840788
 20
2034.799999999993
 30
0.0
 11
804.3772461884151
 21
2034.799999999993
 31
0.0
  0
LINE
  5
113
330
87
100
AcDbEntity
  8
P-SANR-FIXT
100
AcDbLine
 10
803.1897522789217
 20
2034.799999999993
 30
0.0
 11
800.906524855412
 21
2034.799999999993
 31
0.0
  0
LINE
  5
114
330
87
100
AcDbEntity
  8
P-SANR-FIXT
100
AcDbLine
 10
800.2526997840648
 20
2034.799999999993
 30
0.0
 11
798.7372018105032
 21
2034.799999999993
 31
0.0
  0
LINE
  5
115
330
87
100
AcDbEntity
  8
P-SANR-FIXT
100
AcDbLine
 10
798.3267425005573
 20
2034.799999999993
 30
0.0
 11
796.6986763673937
 21
2034.799999999993
 31
0.0
  0
LINE
  5
116
330
87
100
AcDbEntity
  8
P-SANR-FIXT
100
AcDbLine
 10
796.5076900174449
 20
2034.799999999993
 30
0.0
 11
793.2344314579843
 21
2034.799999999993
 31
0.0
  0
LINE
  5
117
330
87
100
AcDbEntity
  8
P-SANR-FIXT
100
AcDbLine
 10
793.0608293667367
 20
2034.799999999993
 30
0.0
 11
791.6843520509924
 21
2034.799999999993
 31
0.0
  0
LINE
  5
118
330
87
100
AcDbEntity
  8
P-SANR-FIXT
100
AcDbLine
 10
791.4879947909139
 20
2034.799999999993
 30
0.0
 11
790.5135225947397
 21
2034.799999999993
 31
0.0
  0
LINE
  5
119
330
87
100
AcDbEntity
  8
P-SANR-FIXT
100
AcDbLine
 10
790.100667341535
 20
2034.799999999993
 30
0.0
 11
789.1313809680046
 21
2034.799999999993
 31
0.0
  0
LINE
  5
11A
330
87
100
AcDbEntity
  8
P-SANR-FIXT
100
AcDbLine
 10
788.6937014790763
 20
2034.799999999993
 30
0.0
 11
788.1462465976171
 21
2034.799999999993
 31
0.0
  0
LINE
  5
11B
330
87
100
AcDbEntity
  8
P-SANR-FIXT
100
AcDbLine
 10
787.7377456202175
 20
2034.799999999993
 30
0.0
 11
787.3500265466138
 21
2034.799999999993
 31
0.0
  0
LINE
  5
11C
330
87
100
AcDbEntity
  8
P-SANR-FIXT
100
AcDbLine
 10
787.0814845158007
 20
2034.799999999993
 30
0.0
 11
786.7483752374129
 21
2034.799999999993
 31
0.0
  0
LINE
  5
11D
330
87
100
AcDbEntity
  8
P-SANR-FIXT
100
AcDbLine
 10
786.5738540997489
 20
2034.799999999993
 30
0.0
 11
786.3464369499691
 21
2034.799999999993
 31
0.0
  0
LINE
  5
11E
330
87
100
AcDbEntity
  8
P-SANR-FIXT
100
AcDbLine
 10
786.2721358970634
 20
2034.799999999993
 30
0.0
 11
786.1664074431854
 21
2034.799999999993
 31
0.0
  0
LINE
  5
11F
330
87
100
AcDbEntity
  8
P-SANR-FIXT
100
AcDbLine
 10
827.3806040192294
 20
2039.845517328121
 30
0.0
 11
835.5621381052429
 21
2039.845517328121
 31
0.0
  0
LINE
  5
120
330
87
100
AcDbEntity
  8
P-SANR-FIXT
100
AcDbLine
 10
807.4848733571709
 20
2039.845517328121
 30
0.0
 11
823.847941529198
 21
2039.845517328121
 31
0.0
  0
LINE
  5
121
330
87
100
AcDbEntity
  8
P-SANR-FIXT
100
AcDbLine
 10
795.7706767811274
 20
2039.845517328121
 30
0.0
 11
803.9522108671398
 21
2039.845517328121
 31
0.0
  0
LINE
  5
122
330
87
100
AcDbEntity
  8
P-SANR-FIXT
100
AcDbLine
 10
797.6664074431859
 20
2107.300000000023
 30
0.0
 11
833.6664074431842
 21
2107.300000000023
 31
0.0
  0
LINE
  5
123
330
87
100
AcDbEntity
  8
P-SANR-FIXT
100
AcDbLine
 10
800.9164074431854
 20
1949.989245878945
 30
0.0
 11
800.9164074431854
 21
1947.010754121014
 31
0.0
  0
LINE
  5
124
330
87
100
AcDbEntity
  8
P-SANR-FIXT
100
AcDbLine
 10
830.4164074431856
 20
1947.010754121014
 30
0.0
 11
830.4164074431856
 21
1949.989245878945
 31
0.0
  0
LINE
  5
125
330
87
100
AcDbEntity
  8
P-SANR-FIXT
100
AcDbLine
 10
802.6670849348052
 20
1950.999999999996
 30
0.0
 11
801.0038484110992
 21
1950.039729945308
 31
0.0
  0
LINE
  5
126
330
87
100
AcDbEntity
  8
P-SANR-FIXT
100
AcDbLine
 10
800.9735867446247
 20
1950.022258364023
 30
0.0
 11
800.9164074431856
 21
1949.989245878945
 31
0.0
  0
LINE
  5
127
330
87
100
AcDbEntity
  8
P-SANR-FIXT
100
AcDbLine
 10
830.4164074431856
 20
1949.989245878945
 30
0.0
 11
830.3592281417463
 21
1950.022258364023
 31
0.0
  0
LINE
  5
128
330
87
100
AcDbEntity
  8
P-SANR-FIXT
100
AcDbLine
 10
830.3289664752718
 20
1950.039729945309
 30
0.0
 11
828.6657299515665
 21
1950.999999999996
 31
0.0
  0
LINE
  5
129
330
87
100
AcDbEntity
  8
P-SANR-FIXT
100
AcDbLine
 10
828.6657299515942
 20
1945.999999999979
 30
0.0
 11
830.3289664752718
 21
1946.96027005465
 31
0.0
  0
LINE
  5
12A
330
87
100
AcDbEntity
  8
P-SANR-FIXT
100
AcDbLine
 10
830.3592281417465
 20
1946.977741635936
 30
0.0
 11
830.4164074431856
 21
1947.010754121014
 31
0.0
  0
LINE
  5
12B
330
87
100
AcDbEntity
  8
P-SANR-FIXT
100
AcDbLine
 10
800.9164074431856
 20
1947.010754121014
 30
0.0
 11
800.9735867446247
 21
1946.977741635936
 31
0.0
  0
LINE
  5
12C
330
87
100
AcDbEntity
  8
P-SANR-FIXT
100
AcDbLine
 10
801.0038484110992
 20
1946.960270054651
 30
0.0
 11
802.6670849347775
 21
1945.999999999979
 31
0.0
  0
LINE
  5
12D
330
87
100
AcDbEntity
  8
P-SANR-FIXT
100
AcDbLine
 10
828.6657299515933
 20
1945.999999999979
 30
0.0
 11
802.6670849347768
 21
1945.999999999979
 31
0.0
  0
LINE
  5
12E
330
87
100
AcDbEntity
  8
P-SANR-FIXT
100
AcDbLine
 10
800.9164074431847
 20
1947.010754121013
 30
0.0
 11
801.0038484110985
 21
1947.010754121013
 31
0.0
  0
LINE
  5
12F
330
87
100
AcDbEntity
  8
P-SANR-FIXT
100
AcDbLine
 10
801.0038484110985
 20
1949.989245878944
 30
0.0
 11
800.9164074431847
 21
1949.989245878944
 31
0.0
  0
LINE
  5
130
330
87
100
AcDbEntity
  8
P-SANR-FIXT
100
AcDbLine
 10
801.0038484110985
 20
1947.010754121013
 30
0.0
 11
801.0038484110985
 21
1949.989245878944
 31
0.0
  0
SPLINE
  5
131
330
87
100
AcDbEntity
  8
P-SANR-FIXT
100
AcDbSpline
210
0.0
220
0.0
230
1.0
 70
     8
 71
     3
 72
     9
 73
     5
 74
     0
 42
0.000000001
 43
0.0000000001
 40
0.0
 40
0.0
 40
0.0
 40
0.0
 40
0.5
 40
1.0
 40
1.0
 40
1.0
 40
1.0
 10
801.0038484110985
 20
1947.010754121013
 30
0.0
 10
802.0107373139842
 20
1946.529663756626
 30
0.0
 10
804.0080315771968
 20
1946.048573392237
 30
0.0
 10
805.9723587552916
 20
1946.529663756625
 30
0.0
 10
806.9462805730594
 20
1947.010754121013
 30
0.0
  0
SPLINE
  5
132
330
87
100
AcDbEntity
  8
P-SANR-FIXT
100
AcDbSpline
210
0.0
220
0.0
230
1.0
 70
     8
 71
     3
 72
     9
 73
     5
 74
     0
 42
0.000000001
 43
0.0000000001
 40
0.0
 40
0.0
 40
0.0
 40
0.0
 40
0.5
 40
1.0
 40
1.0
 40
1.0
 40
1.0
 10
806.9462805730594
 20
1949.989245878944
 30
0.0
 10
805.9723587552916
 20
1950.470336243332
 30
0.0
 10
804.0080315771968
 20
1950.95142660772
 30
0.0
 10
802.0107373139842
 20
1950.470336243332
 30
0.0
 10
801.0038484110985
 20
1949.989245878944
 30
0.0
  0
LINE
  5
133
330
87
100
AcDbEntity
  8
P-SANR-FIXT
100
AcDbLine
 10
806.9462805730594
 20
1947.010754121013
 30
0.0
 11
806.9462805730594
 21
1949.989245878944
 31
0.0
  0
LINE
  5
134
330
87
100
AcDbEntity
  8
P-SANR-FIXT
100
AcDbLine
 10
806.9462805730591
 20
1947.010754121013
 30
0.0
 11
809.7239752812232
 21
1947.010754121013
 31
0.0
  0
LINE
  5
135
330
87
100
AcDbEntity
  8
P-SANR-FIXT
100
AcDbLine
 10
809.7239752812232
 20
1949.989245878944
 30
0.0
 11
806.9462805730594
 21
1949.989245878944
 31
0.0
  0
LINE
  5
136
330
87
100
AcDbEntity
  8
P-SANR-FIXT
100
AcDbLine
 10
809.7239752812235
 20
1947.010754121012
 30
0.0
 11
809.7239752812235
 21
1949.989245878944
 31
0.0
  0
SPLINE
  5
137
330
87
100
AcDbEntity
  8
P-SANR-FIXT
100
AcDbSpline
210
0.0
220
0.0
230
1.0
 70
     8
 71
     3
 72
     9
 73
     5
 74
     0
 42
0.000000001
 43
0.0000000001
 40
0.0
 40
0.0
 40
0.0
 40
0.0
 40
0.5
 40
1.0
 40
1.0
 40
1.0
 40
1.0
 10
809.7239752812235
 20
1947.010754121012
 30
0.0
 10
811.7377530869948
 20
1946.529663756625
 30
0.0
 10
815.7323416134202
 20
1946.048573392237
 30
0.0
 10
819.6609959696097
 20
1946.529663756624
 30
0.0
 10
821.6088396051455
 20
1947.010754121012
 30
0.0
  0
SPLINE
  5
138
330
87
100
AcDbEntity
  8
P-SANR-FIXT
100
AcDbSpline
210
0.0
220
0.0
230
1.0
 70
     8
 71
     3
 72
     9
 73
     5
 74
     0
 42
0.000000001
 43
0.0000000001
 40
0.0
 40
0.0
 40
0.0
 40
0.0
 40
0.5
 40
1.0
 40
1.0
 40
1.0
 40
1.0
 10
821.6088396051455
 20
1949.989245878945
 30
0.0
 10
819.6609959696097
 20
1950.470336243333
 30
0.0
 10
815.7323416134202
 20
1950.951426607721
 30
0.0
 10
811.7377530869948
 20
1950.470336243333
 30
0.0
 10
809.7239752812235
 20
1949.989245878944
 30
0.0
  0
LINE
  5
139
330
87
100
AcDbEntity
  8
P-SANR-FIXT
100
AcDbLine
 10
821.6088396051455
 20
1947.010754121012
 30
0.0
 11
821.6088396051457
 21
1949.989245878945
 31
0.0
  0
LINE
  5
13A
330
87
100
AcDbEntity
  8
P-SANR-FIXT
100
AcDbLine
 10
821.6088396051455
 20
1947.010754121013
 30
0.0
 11
824.3865343133094
 21
1947.010754121013
 31
0.0
  0
LINE
  5
13B
330
87
100
AcDbEntity
  8
P-SANR-FIXT
100
AcDbLine
 10
824.3865343133096
 20
1949.989245878944
 30
0.0
 11
821.6088396051455
 21
1949.989245878944
 31
0.0
  0
LINE
  5
13C
330
87
100
AcDbEntity
  8
P-SANR-FIXT
100
AcDbLine
 10
824.3865343133098
 20
1947.010754121012
 30
0.0
 11
824.3865343133098
 21
1949.989245878945
 31
0.0
  0
SPLINE
  5
13D
330
87
100
AcDbEntity
  8
P-SANR-FIXT
100
AcDbSpline
210
0.0
220
0.0
230
1.0
 70
     8
 71
     3
 72
     9
 73
     5
 74
     0
 42
0.000000001
 43
0.0000000001
 40
0.0
 40
0.0
 40
0.0
 40
0.0
 40
0.5
 40
1.0
 40
1.0
 40
1.0
 40
1.0
 10
824.3865343133098
 20
1947.010754121012
 30
0.0
 10
825.3934232161954
 20
1946.529663756625
 30
0.0
 10
827.390717479408
 20
1946.048573392237
 30
0.0
 10
829.3550446575029
 20
1946.529663756625
 30
0.0
 10
830.3289664752709
 20
1947.010754121013
 30
0.0
  0
SPLINE
  5
13E
330
87
100
AcDbEntity
  8
P-SANR-FIXT
100
AcDbSpline
210
0.0
220
0.0
230
1.0
 70
     8
 71
     3
 72
     9
 73
     5
 74
     0
 42
0.000000001
 43
0.0000000001
 40
0.0
 40
0.0
 40
0.0
 40
0.0
 40
0.5
 40
1.0
 40
1.0
 40
1.0
 40
1.0
 10
830.3289664752709
 20
1949.989245878944
 30
0.0
 10
829.3550446575029
 20
1950.470336243332
 30
0.0
 10
827.390717479408
 20
1950.951426607721
 30
0.0
 10
825.3934232161954
 20
1950.470336243333
 30
0.0
 10
824.3865343133098
 20
1949.989245878945
 30
0.0
  0
LINE
  5
13F
330
87
100
AcDbEntity
  8
P-SANR-FIXT
100
AcDbLine
 10
830.3289664752709
 20
1947.010754121013
 30
0.0
 11
830.3289664752709
 21
1949.989245878944
 31
0.0
  0
LINE
  5
140
330
87
100
AcDbEntity
  8
P-SANR-FIXT
100
AcDbLine
 10
830.3289664752709
 20
1947.010754121013
 30
0.0
 11
830.4164074431847
 21
1947.010754121013
 31
0.0
  0
LINE
  5
141
330
87
100
AcDbEntity
  8
P-SANR-FIXT
100
AcDbLine
 10
830.4164074431847
 20
1949.989245878944
 30
0.0
 11
830.3289664752709
 21
1949.989245878944
 31
0.0
  0
LINE
  5
142
330
87
100
AcDbEntity
  8
P-SANR-FIXT
100
AcDbLine
 10
798.5091064078313
 20
2111.500000000043
 30
0.0
 11
797.916407443186
 21
2110.907301035399
 31
0.0
  0
LINE
  5
143
330
87
100
AcDbEntity
  8
P-SANR-FIXT
100
AcDbLine
 10
833.4164074431857
 20
2110.907301035399
 30
0.0
 11
832.8237084785405
 21
2111.500000000043
 31
0.0
  0
LINE
  5
144
330
87
100
AcDbEntity
  8
P-SANR-FIXT
100
AcDbLine
 10
797.916407443186
 20
2110.907301035399
 30
0.0
 11
797.916407443186
 21
2108.000000000044
 31
0.0
  0
LINE
  5
145
330
87
100
AcDbEntity
  8
P-SANR-FIXT
100
AcDbLine
 10
833.4164074431857
 20
2108.000000000044
 30
0.0
 11
833.4164074431857
 21
2110.907301035399
 31
0.0
  0
LINE
  5
146
330
87
100
AcDbEntity
  8
P-SANR-FIXT
100
AcDbLine
 10
797.916407443186
 20
2108.000000000044
 30
0.0
 11
798.616407443207
 21
2107.300000000023
 31
0.0
  0
LINE
  5
147
330
87
100
AcDbEntity
  8
P-SANR-FIXT
100
AcDbLine
 10
832.7164074431646
 20
2107.300000000023
 30
0.0
 11
833.4164074431857
 21
2108.000000000044
 31
0.0
  0
LINE
  5
148
330
87
100
AcDbEntity
  8
P-SANR-FIXT
100
AcDbLine
 10
832.8237084785397
 20
2111.500000000043
 30
0.0
 11
798.5091064078305
 21
2111.500000000043
 31
0.0
  0
LINE
  5
149
330
87
100
AcDbEntity
  8
P-SANR-FIXT
100
AcDbLine
 10
797.9164074431852
 20
2110.907301035398
 30
0.0
 11
833.416407443185
 21
2110.907301035398
 31
0.0
  0
LINE
  5
14A
330
87
100
AcDbEntity
  8
P-SANR-FIXT
100
AcDbLine
 10
797.9164074431852
 20
2108.000000000044
 30
0.0
 11
833.416407443185
 21
2108.000000000044
 31
0.0
  0
LINE
  5
14B
330
87
100
AcDbEntity
  8
P-SANR-FIXT
100
AcDbLine
 10
829.9164074431859
 20
1951.499999999995
 30
0.0
 11
829.9164074431859
 21
1960.256412365043
 31
0.0
  0
LINE
  5
14C
330
87
100
AcDbEntity
  8
P-SANR-FIXT
100
AcDbLine
 10
801.4164074431858
 20
1960.256412365043
 30
0.0
 11
801.4164074431858
 21
1951.499999999995
 31
0.0
  0
LINE
  5
14D
330
87
100
AcDbEntity
  8
P-SANR-FIXT
100
AcDbLine
 10
793.6664074431859
 20
1985.249999999996
 30
0.0
 11
793.6664074431859
 21
1969.999999999996
 31
0.0
  0
LINE
  5
14E
330
87
100
AcDbEntity
  8
P-SANR-FIXT
100
AcDbLine
 10
845.6664074431859
 20
2030.190571230002
 30
0.0
 11
845.6664074431859
 21
2034.299999999996
 31
0.0
  0
LINE
  5
14F
330
87
100
AcDbEntity
  8
P-SANR-FIXT
100
AcDbLine
 10
785.6664074431858
 20
2034.299999999996
 30
0.0
 11
785.6664074431858
 21
2014.749999999996
 31
0.0
  0
LINE
  5
150
330
87
100
AcDbEntity
  8
P-SANR-FIXT
100
AcDbLine
 10
785.6664074431858
 20
2014.749999999996
 30
0.0
 11
783.5335435468632
 21
2014.749999999996
 31
0.0
  0
LINE
  5
151
330
87
100
AcDbEntity
  8
P-SANR-FIXT
100
AcDbLine
 10
783.5335435468632
 20
1985.249999999996
 30
0.0
 11
793.6664074431859
 21
1985.249999999996
 31
0.0
  0
LINE
  5
152
330
87
100
AcDbEntity
  8
P-SANR-FIXT
100
AcDbLine
 10
781.8014927392945
 20
2015.749999999996
 30
0.0
 11
781.2132521172675
 21
2016.768862644422
 31
0.0
  0
LINE
  5
153
330
87
100
AcDbEntity
  8
P-SANR-FIXT
100
AcDbLine
 10
781.2038228565072
 20
2016.785194603137
 30
0.0
 11
781.1664074431858
 21
2016.849999999996
 31
0.0
  0
LINE
  5
154
330
87
100
AcDbEntity
  8
P-SANR-FIXT
100
AcDbLine
 10
781.1664074431858
 20
1983.149999999996
 30
0.0
 11
781.2038228565072
 21
1983.214805396854
 31
0.0
  0
LINE
  5
155
330
87
100
AcDbEntity
  8
P-SANR-FIXT
100
AcDbLine
 10
781.2132521172675
 20
1983.231137355569
 30
0.0
 11
781.8014927392945
 21
1984.249999999996
 31
0.0
  0
LINE
  5
156
330
87
100
AcDbEntity
  8
P-SANR-FIXT
100
AcDbLine
 10
781.1664074431858
 20
2016.849999999996
 30
0.0
 11
780.1664074431877
 21
2016.849999999996
 31
0.0
  0
LINE
  5
157
330
87
100
AcDbEntity
  8
P-SANR-FIXT
100
AcDbLine
 10
780.1664074431877
 20
1983.149999999996
 30
0.0
 11
781.1664074431858
 21
1983.149999999996
 31
0.0
  0
LWPOLYLINE
  5
158
330
87
100
AcDbEntity
  8
P-SANR-FIXT
100
AcDbPolyline
 90
       28
 70
   128
 43
0.0
 10
783.5335435468632
 20
1985.249999999996
 10
783.4535648784901
 20
1985.248400213318
 10
783.373714158925
 20
1985.243603412601
 10
783.2941191322856
 20
1985.235617271703
 10
783.2149071336348
 20
1985.224454566747
 10
783.1362048852732
 20
1985.210133155678
 10
783.058138294009
 20
1985.1926759497
 10
782.9808322497351
 20
1985.172110876617
 10
782.9044104256309
 20
1985.148470836161
 10
782.828995080313
 20
1985.121793647351
 10
782.754706862246
 20
1985.092121988001
 10
782.6816646167314
 20
1985.059503326435
 10
782.6099851957803
 20
1985.023989845554
 10
782.5397832711758
 20
1984.985638359351
 10
782.4711711510216
 20
1984.944510222022
 10
782.4042586000731
 20
1984.900671229815
 10
782.3391526641385
 20
1984.854191515764
 10
782.2759574988264
 20
1984.805145437498
 10
782.2147742029203
 20
1984.753611458277
 10
782.1557006566422
 20
1984.699672021477
 10
782.0988313650643
 20
1984.64341341869
 10
782.0442573069215
 20
1984.584925651678
 10
781.9920657890653
 20
1984.524302288393
 10
781.9423403067907
 20
1984.461640313283
 10
781.8951604102614
 20
1984.39703997214
 10
781.8506015772476
 20
1984.330604611732
 10
781.8087350923765
 20
1984.262440514461
 10
781.8014927392945
 20
1984.249999999996
  0
LWPOLYLINE
  5
159
330
87
100
AcDbEntity
  8
P-SANR-FIXT
100
AcDbPolyline
 90
       28
 70
   128
 43
0.0
 10
781.8014927392945
 20
2015.749999999996
 10
781.8428675293849
 20
2015.681536334763
 10
781.8869470404449
 20
2015.614781983467
 10
781.9336607546602
 20
2015.549843738831
 10
781.9829339400527
 20
2015.486825488194
 10
782.0346877700373
 20
2015.425828047312
 10
782.0888394495256
 20
2015.366948999079
 10
782.1453023473829
 20
2015.310282537413
 10
782.2039861350167
 20
2015.255919316564
 10
782.264796930886
 20
2015.203946306088
 10
782.327637450689
 20
2015.154446651715
 10
782.3924071629997
 20
2015.107499542333
 10
782.4590024500954
 20
2015.063180083302
 10
782.5273167737226
 20
2015.021559176301
 10
782.5972408455367
 20
2014.982703405904
 10
782.6686628019386
 20
2014.946674933055
 10
782.7414683830347
 20
2014.913531395623
 10
782.8155411154258
 20
2014.8833258162
 10
782.8907624985414
 20
2014.856106517268
 10
782.9670121942151
 20
2014.831917043899
 10
783.0441682191994
 20
2014.810796094092
 10
783.1221071403135
 20
2014.792777456858
 10
783.2007042719096
 20
2014.777889958176
 10
783.2798338753439
 20
2014.766157414865
 10
783.3593693601307
 20
2014.757598596494
 10
783.439183486461
 20
2014.752227195345
 10
783.5191485687588
 20
2014.750051804515
 10
783.5335435468632
 20
2014.749999999996
  0
LWPOLYLINE
  5
15A
330
87
100
AcDbEntity
  8
P-SANR-FIXT
100
AcDbPolyline
 90
       35
 70
   128
 43
0.0
 10
801.4164074431858
 20
1960.256412365043
 10
801.4148076565078
 20
1960.336391033416
 10
801.4100108557911
 20
1960.416241752981
 10
801.4020247148936
 20
1960.495836779621
 10
801.3908620099373
 20
1960.575048778272
 10
801.3765405988685
 20
1960.653751026633
 10
801.3590833928899
 20
1960.731817617897
 10
801.3385183198073
 20
1960.809123662171
 10
801.3148782793505
 20
1960.885545486275
 10
801.2882010905418
 20
1960.960960831593
 10
801.2585294311916
 20
1961.03524904966
 10
801.2259107696259
 20
1961.108291295175
 10
801.1903972887445
 20
1961.179970716126
 10
801.1520458025412
 20
1961.25017264073
 10
801.1109176652126
 20
1961.318784760885
 10
801.0670786730052
 20
1961.385697311833
 10
801.0205989589545
 20
1961.450803247768
 10
800.9715528806875
 20
1961.51399841308
 10
800.9200189014675
 20
1961.575181708986
 10
800.8660794646676
 20
1961.634255255264
 10
800.8098208618802
 20
1961.691124546842
 10
800.7513330948684
 20
1961.745698604985
 10
800.6907097315831
 20
1961.797890122841
 10
800.6280477564727
 20
1961.847615605116
 10
800.5634474153309
 20
1961.894795501645
 10
800.4970120549222
 20
1961.939354334659
 10
800.4288479576514
 20
1961.98122081953
 10
800.3590641715334
 20
1962.020327978813
 10
800.2877723357393
 20
1962.056613249396
 10
800.2150865019983
 20
1962.090018582587
 10
800.1411229521393
 20
1962.120490536977
 10
800.0660000120635
 20
1962.147980363942
 10
799.9898378624497
 20
1962.172444085621
 10
799.9127583464906
 20
1962.19384256528
 10
799.8664074431858
 20
1962.205129892033
  0
LWPOLYLINE
  5
15B
330
87
100
AcDbEntity
  8
P-SANR-FIXT
100
AcDbPolyline
 90
       35
 70
   128
 43
0.0
 10
831.466407443186
 20
1962.205129892033
 10
831.3888394787662
 20
1962.18557592548
 10
831.3121155105479
 20
1962.162935708763
 10
831.2363582805129
 20
1962.137245461399
 10
831.1616889840689
 20
1962.108546282304
 10
831.0882270761615
 20
1962.076884084042
 10
831.016090080172
 20
1962.042309519377
 10
830.9453933999064
 20
1962.004877900235
 10
830.8762501349709
 20
1961.964649109223
 10
830.8087708998407
 20
1961.921687503825
 10
830.7430636468961
 20
1961.876061813445
 10
830.6792334937259
 20
1961.827845029454
 10
830.6173825549585
 20
1961.777114288421
 10
830.5576097789014
 20
1961.72395074871
 10
830.500010789246
 20
1961.668439460643
 10
830.4446777320883
 20
1961.610669230439
 10
830.3916991285163
 20
1961.550732478144
 10
830.3411597329937
 20
1961.488725089774
 10
830.2931403977728
 20
1961.424746263925
 10
830.2477179435459
 20
1961.358898353068
 10
830.2049650365503
 20
1961.291286699815
 10
830.164950072317
 20
1961.222019468388
 10
830.1277370662532
 20
1961.15120747158
 10
830.0933855512294
 20
1961.078963993482
 10
830.0619504823423
 20
1961.005404608247
 10
830.0334821489961
 20
1960.930646995198
 10
830.0080260944513
 20
1960.854810750571
 10
829.985623042965
 20
1960.778017196178
 10
829.9663088346402
 20
1960.700389185325
 10
829.9501143680901
 20
1960.62205090627
 10
829.937065551007
 20
1960.543127683547
 10
829.9271832587139
 20
1960.463745777478
 10
829.920483300771
 20
1960.384032182178
 10
829.9169763956816
 20
1960.304114422394
 10
829.9164074431859
 20
1960.256412365043
  0
LWPOLYLINE
  5
15C
330
87
100
AcDbEntity
  8
P-SANR-FIXT
100
AcDbPolyline
 90
       35
 70
   128
 43
0.0
 10
799.8664074431859
 20
1962.205129892033
 10
799.5561355855074
 20
1962.283345758247
 10
799.2492397126339
 20
1962.373906625116
 10
798.9462107924945
 20
1962.476667614572
 10
798.6475336067183
 20
1962.591464330952
 10
798.3536859750884
 20
1962.718113123999
 10
798.0651379911313
 20
1962.856411382662
 10
797.7823512700677
 20
1963.006137859228
 10
797.5057782103265
 20
1963.167053023275
 10
797.2358612698043
 20
1963.338899444867
 10
796.9730322580269
 20
1963.521402206388
 10
796.7177116453456
 20
1963.714269342352
 10
796.4703078902756
 20
1963.917192306484
 10
796.231216786048
 20
1964.129846465329
 10
796.0008208274262
 20
1964.351891617597
 10
795.7794885987959
 20
1964.58297253841
 10
795.5675741845071
 20
1964.822719547592
 10
795.3654166024176
 20
1965.070749101071
 10
795.1733392615335
 20
1965.326664404469
 10
794.9916494446259
 20
1965.590056047896
 10
794.8206378166437
 20
1965.860502660908
 10
794.6605779597112
 20
1966.137571586617
 10
794.5117259354547
 20
1966.420819573846
 10
794.37431987536
 20
1966.70979348624
 10
794.2485795998114
 20
1967.004031027182
 10
794.1347062664267
 20
1967.303061479375
 10
794.0328820482477
 20
1967.606406457885
 10
793.9432698423019
 20
1967.913580675456
 10
793.8660130090028
 20
1968.224092718867
 10
793.8012351428028
 20
1968.537445835088
 10
793.7490398744698
 20
1968.853138725978
 10
793.7095107052981
 20
1969.170666350256
 10
793.6827108735265
 20
1969.489520731458
 10
793.6686832531683
 20
1969.809191770593
 10
793.6664074431859
 20
1969.999999999996
  0
LWPOLYLINE
  5
15D
330
87
100
AcDbEntity
  8
P-SANR-FIXT
100
AcDbPolyline
 90
       33
 70
   128
 43
0.0
 10
837.6072831250567
 20
1969.041613107776
 10
837.5935157768287
 20
1968.922524493688
 10
837.5440874075751
 20
1968.606386574881
 10
837.4820564308608
 20
1968.292478140265
 10
837.4075220830158
 20
1967.981301376374
 10
837.3206036030968
 20
1967.673354099647
 10
837.2214400421297
 20
1967.369128960037
 10
837.1101900406589
 20
1967.069112652867
 10
836.9870315749544
 20
1966.77378514023
 10
836.8521616722889
 20
1966.483618883147
 10
836.7057960957357
 20
1966.199078085729
 10
836.548168998995
 20
1965.920617952554
 10
836.3795325517955
 20
1965.648683960433
 10
836.2001565364796
 20
1965.383711145744
 10
836.0103279164063
 20
1965.126123408467
 10
835.8103503768735
 20
1964.87633283403
 10
835.6005438392845
 20
1964.634739034069
 10
835.3812439493434
 20
1964.401728507125
 10
835.1528015400928
 20
1964.177674020336
 10
834.9155820706553
 20
1963.962934013083
 10
834.6699650415779
 20
1963.757852023572
 10
834.416343387712
 20
1963.562756139235
 10
834.1551228496003
 20
1963.37795847187
 10
833.8867213243799
 20
1963.203754658323
 10
833.6115681972353
 20
1963.040423387535
 10
833.3301036544737
 20
1962.888225954696
 10
833.0427779793208
 20
1962.747405843232
 10
832.750050831564
 20
1962.618188335281
 10
832.4523905121946
 20
1962.500780151291
 10
832.1502732142262
 20
1962.395369119312
 10
831.8441822608871
 20
1962.302123874506
 10
831.5346073324072
 20
1962.221193589375
 10
831.4664074431858
 20
1962.205129892033
  0
LWPOLYLINE
  5
15E
330
87
100
AcDbEntity
  8
P-SANR-FIXT
100
AcDbPolyline
 90
       25
 70
   128
 43
0.0
 10
790.1921557368058
 20
2010.499999999996
 10
790.6267889191407
 20
2010.499999999996
 10
791.1014801496135
 20
2010.499999999996
 10
791.6154700235177
 20
2010.499999999996
 10
792.1679362667003
 20
2010.499999999996
 10
792.7579950510255
 20
2010.499999999996
 10
793.3847024083111
 20
2010.499999999996
 10
794.0470557404752
 20
2010.499999999996
 10
794.7439954234814
 20
2010.499999999996
 10
795.4744065025092
 20
2010.499999999996
 10
796.2371204756451
 20
2010.499999999996
 10
797.0309171632355
 20
2010.499999999996
 10
797.8545266599145
 20
2010.499999999996
 10
798.7066313661816
 20
2010.499999999996
 10
799.5858680962793
 20
2010.499999999996
 10
800.4908302590001
 20
2010.499999999996
 10
801.4200701079314
 20
2010.499999999996
 10
802.3721010575428
 20
2010.499999999996
 10
803.3454000614037
 20
2010.499999999996
 10
804.3384100487342
 20
2010.499999999996
 10
805.3495424153853
 20
2010.499999999996
 10
806.3771795652669
 20
2010.499999999996
 10
807.4196774981569
 20
2010.499999999996
 10
808.4753684397503
 20
2010.499999999996
 10
809.5232359201778
 20
2010.499999999996
  0
LINE
  5
15F
330
87
100
AcDbEntity
  8
P-SANR-FIXT
100
AcDbLine
 10
845.6664074431859
 20
2034.299999999996
 30
0.0
 11
845.166407443186
 21
2034.799999999996
 31
0.0
  0
LINE
  5
160
330
87
100
AcDbEntity
  8
P-SANR-FIXT
100
AcDbLine
 10
786.1664074431859
 20
2034.799999999996
 30
0.0
 11
785.6664074431858
 21
2034.299999999996
 31
0.0
  0
LINE
  5
161
330
87
100
AcDbEntity
  8
P-SANR-FIXT
100
AcDbLine
 10
801.4164074431858
 20
1951.499999999995
 30
0.0
 11
801.4597208127167
 21
1951.456686630464
 31
0.0
  0
LINE
  5
162
330
87
100
AcDbEntity
  8
P-SANR-FIXT
100
AcDbLine
 10
801.4706329953787
 20
1951.445774447803
 30
0.0
 11
801.9164074431859
 21
1950.999999999996
 31
0.0
  0
LINE
  5
163
330
87
100
AcDbEntity
  8
P-SANR-FIXT
100
AcDbLine
 10
829.4164074431858
 20
1950.999999999996
 30
0.0
 11
829.8621818909932
 21
1951.445774447803
 31
0.0
  0
LINE
  5
164
330
87
100
AcDbEntity
  8
P-SANR-FIXT
100
AcDbLine
 10
829.8730940736554
 20
1951.456686630464
 30
0.0
 11
829.9164074431859
 21
1951.499999999995
 31
0.0
  0
LINE
  5
165
330
87
100
AcDbEntity
  8
P-SANR-FIXT
100
AcDbLine
 10
829.4164074431851
 20
1950.999999999995
 30
0.0
 11
801.916407443185
 21
1950.999999999995
 31
0.0
  0
LINE
  5
166
330
87
100
AcDbEntity
  8
P-SANR-FIXT
100
AcDbLine
 10
801.4164074431851
 20
1951.499999999995
 30
0.0
 11
829.9164074431852
 21
1951.499999999995
 31
0.0
  0
SPLINE
  5
167
330
87
100
AcDbEntity
  8
P-SANR-FIXT
100
AcDbSpline
210
0.0
220
0.0
230
1.0
 70
     8
 71
     3
 72
     9
 73
     5
 74
     0
 42
0.000000001
 43
0.0000000001
 40
0.0
 40
0.0
 40
0.0
 40
0.0
 40
0.5
 40
1.0
 40
1.0
 40
1.0
 40
1.0
 10
794.499647349057
 20
1986.524309558226
 30
0.0
 10
794.2362497445563
 20
1986.106215515896
 30
0.0
 10
793.8193681386883
 20
1985.475736547194
 30
0.0
 10
793.6664074431851
 20
1985.256675810408
 30
0.0
 10
793.6664074431851
 20
1985.249999999995
 30
0.0
  0
SPLINE
  5
168
330
87
100
AcDbEntity
  8
P-SANR-FIXT
100
AcDbSpline
210
0.0
220
0.0
230
1.0
 70
     8
 71
     3
 72
    19
 73
    15
 74
     0
 42
0.000000001
 43
0.0000000001
 40
0.0
 40
0.0
 40
0.0
 40
0.0
 40
0.1666666666666666
 40
0.25
 40
0.3333333333333333
 40
0.4166666666666666
 40
0.4583333333333333
 40
0.5
 40
0.5833333333333333
 40
0.625
 40
0.6666666666666666
 40
0.75
 40
0.8333333333333332
 40
1.0
 40
1.0
 40
1.0
 40
1.0
 10
795.6992469039396
 20
2007.999999999995
 30
0.0
 10
796.1123314126618
 20
2006.994850964943
 30
0.0
 10
796.64926509519
 20
2005.4046200665
 30
0.0
 10
797.1455161234717
 20
2003.033459941824
 30
0.0
 10
797.3672365538244
 20
2001.200106481702
 30
0.0
 10
797.3807208080144
 20
1999.644764181218
 30
0.0
 10
797.3045279014028
 20
1998.391125151634
 30
0.0
 10
797.1747702892391
 20
1997.174620588827
 30
0.0
 10
796.9504306292134
 20
1995.984756263751
 30
0.0
 10
796.6568331945929
 20
1994.827678519248
 30
0.0
 10
796.3377024325411
 20
1993.717907642836
 30
0.0
 10
795.8737563712388
 20
1992.399892410342
 30
0.0
 10
795.0589767352602
 20
1990.451102225074
 30
0.0
 10
794.4356291622267
 20
1989.205254287924
 30
0.0
 10
794.0367840478793
 20
1988.46080123133
 30
0.0
  0
LINE
  5
169
330
87
100
AcDbEntity
  8
P-SANR-FIXT
100
AcDbLine
 10
845.666407443185
 20
2034.299999999995
 30
0.0
 11
785.6664074431851
 21
2034.299999999995
 31
0.0
  0
SPLINE
  5
16A
330
87
100
AcDbEntity
  8
P-SANR-FIXT
100
AcDbSpline
210
0.0
220
0.0
230
1.0
 70
     8
 71
     3
 72
     9
 73
     5
 74
     0
 42
0.000000001
 43
0.0000000001
 40
0.0
 40
0.0
 40
0.0
 40
0.0
 40
0.5
 40
1.0
 40
1.0
 40
1.0
 40
1.0
 10
785.6664074431851
 20
2014.749999999995
 30
0.0
 10
785.6664074431851
 20
2014.742007339226
 30
0.0
 10
785.8209008679939
 20
2014.44234801179
 30
0.0
 10
786.2311269308074
 20
2013.575340672559
 30
0.0
 10
786.4870054616503
 20
2012.999999999995
 30
0.0
  0
LINE
  5
16B
330
87
100
AcDbEntity
  8
P-SANR-FIXT
100
AcDbLine
 10
786.2786638494786
 20
2034.799999999995
 30
0.0
 11
786.3464580987886
 21
2034.799999999995
 31
0.0
  0
LINE
  5
16C
330
87
100
AcDbEntity
  8
P-SANR-FIXT
100
AcDbLine
 10
786.573785370612
 20
2034.799999999995
 30
0.0
 11
786.7484403487751
 21
2034.799999999995
 31
0.0
  0
LINE
  5
16D
330
87
100
AcDbEntity
  8
P-SANR-FIXT
100
AcDbLine
 10
787.0813592381584
 20
2034.799999999995
 30
0.0
 11
787.3501490932642
 21
2034.799999999995
 31
0.0
  0
LINE
  5
16E
330
87
100
AcDbEntity
  8
P-SANR-FIXT
100
AcDbLine
 10
787.72990393626
 20
2034.799999999995
 30
0.0
 11
788.1464297160544
 21
2034.799999999995
 31
0.0
  0
LINE
  5
16F
330
87
100
AcDbEntity
  8
P-SANR-FIXT
100
AcDbLine
 10
788.6934955906448
 20
2034.799999999995
 30
0.0
 11
789.1316146734866
 21
2034.799999999995
 31
0.0
  0
LINE
  5
170
330
87
100
AcDbEntity
  8
P-SANR-FIXT
100
AcDbLine
 10
790.118658031544
 20
2034.799999999995
 30
0.0
 11
790.4941217038352
 21
2034.799999999995
 31
0.0
  0
LINE
  5
171
330
87
100
AcDbEntity
  8
P-SANR-FIXT
100
AcDbLine
 10
791.5014221366596
 20
2034.799999999995
 30
0.0
 11
791.6807071005516
 21
2034.799999999995
 31
0.0
  0
LINE
  5
172
330
87
100
AcDbEntity
  8
P-SANR-FIXT
100
AcDbLine
 10
791.7865529535505
 20
2034.799999999995
 30
0.0
 11
793.068096371175
 21
2034.799999999995
 31
0.0
  0
LINE
  5
173
330
87
100
AcDbEntity
  8
P-SANR-FIXT
100
AcDbLine
 10
793.227191161948
 20
2034.799999999995
 30
0.0
 11
796.5007358682738
 21
2034.799999999995
 31
0.0
  0
LINE
  5
174
330
87
100
AcDbEntity
  8
P-SANR-FIXT
100
AcDbLine
 10
796.7041729574319
 20
2034.799999999995
 30
0.0
 11
798.3157131953739
 21
2034.799999999995
 31
0.0
  0
LINE
  5
175
330
87
100
AcDbEntity
  8
P-SANR-FIXT
100
AcDbLine
 10
798.7459025708289
 20
2034.799999999995
 30
0.0
 11
800.2400038299432
 21
2034.799999999995
 31
0.0
  0
LINE
  5
176
330
87
100
AcDbEntity
  8
P-SANR-FIXT
100
AcDbLine
 10
800.9164074431847
 20
2034.799999999995
 30
0.0
 11
802.2612529930066
 21
2034.799999999995
 31
0.0
  0
LINE
  5
177
330
87
100
AcDbEntity
  8
P-SANR-FIXT
100
AcDbLine
 10
803.199168721834
 20
2034.799999999995
 30
0.0
 11
804.366498876336
 21
2034.799999999995
 31
0.0
  0
LINE
  5
178
330
87
100
AcDbEntity
  8
P-SANR-FIXT
100
AcDbLine
 10
805.5768132150776
 20
2034.799999999995
 30
0.0
 11
806.5422466594961
 21
2034.799999999995
 31
0.0
  0
LINE
  5
179
330
87
100
AcDbEntity
  8
P-SANR-FIXT
100
AcDbLine
 10
807.4449070842742
 20
2034.799999999995
 30
0.0
 11
808.0312456126604
 21
2034.799999999995
 31
0.0
  0
LINE
  5
17A
330
87
100
AcDbEntity
  8
P-SANR-FIXT
100
AcDbLine
 10
808.7745501539698
 20
2034.799999999995
 30
0.0
 11
810.5437862020101
 21
2034.799999999995
 31
0.0
  0
LINE
  5
17B
330
87
100
AcDbEntity
  8
P-SANR-FIXT
100
AcDbLine
 10
811.0490985826702
 20
2034.799999999995
 30
0.0
 11
813.0953130321287
 21
2034.799999999995
 31
0.0
  0
LINE
  5
17C
330
87
100
AcDbEntity
  8
P-SANR-FIXT
100
AcDbLine
 10
813.351306779699
 20
2034.799999999995
 30
0.0
 11
817.9815081066713
 21
2034.799999999995
 31
0.0
  0
LINE
  5
17D
330
87
100
AcDbEntity
  8
P-SANR-FIXT
100
AcDbLine
 10
818.2375018542405
 20
2034.799999999995
 30
0.0
 11
820.2837163037001
 21
2034.799999999995
 31
0.0
  0
LINE
  5
17E
330
87
100
AcDbEntity
  8
P-SANR-FIXT
100
AcDbLine
 10
820.7890286843591
 20
2034.799999999995
 30
0.0
 11
822.5582647324005
 21
2034.799999999995
 31
0.0
  0
LINE
  5
17F
330
87
100
AcDbEntity
  8
P-SANR-FIXT
100
AcDbLine
 10
823.2123734338122
 20
2034.799999999995
 30
0.0
 11
823.301569273709
 21
2034.799999999995
 31
0.0
  0
LINE
  5
180
330
87
100
AcDbEntity
  8
P-SANR-FIXT
100
AcDbLine
 10
824.7905682268743
 20
2034.799999999995
 30
0.0
 11
825.7560016712918
 21
2034.799999999995
 31
0.0
  0
LINE
  5
181
330
87
100
AcDbEntity
  8
P-SANR-FIXT
100
AcDbLine
 10
826.9663160100346
 20
2034.799999999995
 30
0.0
 11
828.1336461645352
 21
2034.799999999995
 31
0.0
  0
LINE
  5
182
330
87
100
AcDbEntity
  8
P-SANR-FIXT
100
AcDbLine
 10
829.0715618933639
 20
2034.799999999995
 30
0.0
 11
832.5869123155404
 21
2034.799999999995
 31
0.0
  0
LINE
  5
183
330
87
100
AcDbEntity
  8
P-SANR-FIXT
100
AcDbLine
 10
833.0171016909963
 20
2034.799999999995
 30
0.0
 11
834.6286419289377
 21
2034.799999999995
 31
0.0
  0
LINE
  5
184
330
87
100
AcDbEntity
  8
P-SANR-FIXT
100
AcDbLine
 10
834.8320790180963
 20
2034.799999999995
 30
0.0
 11
838.1056237244221
 21
2034.799999999995
 31
0.0
  0
LINE
  5
185
330
87
100
AcDbEntity
  8
P-SANR-FIXT
100
AcDbLine
 10
838.2647185151945
 20
2034.799999999995
 30
0.0
 11
839.5462619328197
 21
2034.799999999995
 31
0.0
  0
LINE
  5
186
330
87
100
AcDbEntity
  8
P-SANR-FIXT
100
AcDbLine
 10
840.8386931825349
 20
2034.799999999995
 30
0.0
 11
841.2141568548257
 21
2034.799999999995
 31
0.0
  0
LINE
  5
187
330
87
100
AcDbEntity
  8
P-SANR-FIXT
100
AcDbLine
 10
842.2012002128822
 20
2034.799999999995
 30
0.0
 11
842.6393192957267
 21
2034.799999999995
 31
0.0
  0
LINE
  5
188
330
87
100
AcDbEntity
  8
P-SANR-FIXT
100
AcDbLine
 10
843.1863851703152
 20
2034.799999999995
 30
0.0
 11
843.5440190645296
 21
2034.799999999995
 31
0.0
  0
LINE
  5
189
330
87
100
AcDbEntity
  8
P-SANR-FIXT
100
AcDbLine
 10
843.9826657931044
 20
2034.799999999995
 30
0.0
 11
844.2514556482121
 21
2034.799999999995
 31
0.0
  0
LINE
  5
18A
330
87
100
AcDbEntity
  8
P-SANR-FIXT
100
AcDbLine
 10
844.5843745375965
 20
2034.799999999995
 30
0.0
 11
844.7590295157576
 21
2034.799999999995
 31
0.0
  0
LINE
  5
18B
330
87
100
AcDbEntity
  8
P-SANR-FIXT
100
AcDbLine
 10
844.9863567875818
 20
2034.799999999995
 30
0.0
 11
845.0541510368916
 21
2034.799999999995
 31
0.0
  0
LINE
  5
18C
330
87
100
AcDbEntity
  8
P-SANR-FIXT
100
AcDbLine
 10
780.1664074431869
 20
1983.674310747587
 30
0.0
 11
780.1664074431869
 21
1984.24710881572
 31
0.0
  0
LINE
  5
18D
330
87
100
AcDbEntity
  8
P-SANR-FIXT
100
AcDbLine
 10
780.1664074431868
 20
1999.429760140637
 30
0.0
 11
780.1664074431868
 21
2000.57023985936
 31
0.0
  0
LINE
  5
18E
330
87
100
AcDbEntity
  8
P-SANR-FIXT
100
AcDbLine
 10
780.1664074431869
 20
2015.752891184252
 30
0.0
 11
780.1664074431869
 21
2016.325689252429
 31
0.0
  0
LINE
  5
18F
330
87
100
AcDbEntity
  8
P-SANR-FIXT
100
AcDbLine
 10
781.1664074431851
 20
2016.849999999995
 30
0.0
 11
781.1664074431851
 21
1983.149999999995
 31
0.0
  0
SPLINE
  5
190
330
87
100
AcDbEntity
  8
P-SANR-FIXT
100
AcDbSpline
210
0.0
220
0.0
230
1.0
 70
     8
 71
     3
 72
    17
 73
    13
 74
     0
 42
0.000000001
 43
0.0000000001
 40
0.0
 40
0.0
 40
0.0
 40
0.0
 40
0.2
 40
0.3
 40
0.375
 40
0.475
 40
0.55
 40
0.625
 40
0.7
 40
0.775
 40
0.925
 40
1.0
 40
1.0
 40
1.0
 40
1.0
 10
794.499647349057
 20
1986.524309558226
 30
0.0
 10
794.5376562083053
 20
1986.581917023611
 30
0.0
 10
794.5851645469392
 20
1986.671710610609
 30
0.0
 10
794.6321669344455
 20
1986.790688368055
 30
0.0
 10
794.6580515905447
 20
1986.880681474054
 30
0.0
 10
794.6712633603657
 20
1986.965093612739
 30
0.0
 10
794.6771223923263
 20
1987.052454225075
 30
0.0
 10
794.6638138770239
 20
1987.130916687428
 30
0.0
 10
794.6446216248424
 20
1987.214312094249
 30
0.0
 10
794.5917572454174
 20
1987.322485255706
 30
0.0
 10
794.4735676266451
 20
1987.413381687358
 30
0.0
 10
794.3483389447229
 20
1987.473631813423
 30
0.0
 10
794.3020406013487
 20
1987.492555394778
 30
0.0
  0
SPLINE
  5
191
330
87
100
AcDbEntity
  8
P-SANR-FIXT
100
AcDbSpline
210
0.0
220
0.0
230
1.0
 70
     8
 71
     3
 72
    16
 73
    12
 74
     0
 42
0.000000001
 43
0.0000000001
 40
0.0
 40
0.0
 40
0.0
 40
0.0
 40
0.1
 40
0.2
 40
0.3
 40
0.4
 40
0.5
 40
0.6
 40
0.7
 40
0.8
 40
1.0
 40
1.0
 40
1.0
 40
1.0
 10
794.3020406013487
 20
1987.492555394778
 30
0.0
 10
794.2493699587867
 20
1987.511841977566
 30
0.0
 10
794.1553960853152
 20
1987.554562277242
 30
0.0
 10
794.0459298328634
 20
1987.629397381349
 30
0.0
 10
793.9757811697754
 20
1987.721817206641
 30
0.0
 10
793.9325123934064
 20
1987.822675670998
 30
0.0
 10
793.9093110429658
 20
1987.924524874254
 30
0.0
 10
793.9065063405853
 20
1988.030604513945
 30
0.0
 10
793.9176948568572
 20
1988.137187422956
 30
0.0
 10
793.9533477315968
 20
1988.281241257548
 30
0.0
 10
793.9978583062744
 20
1988.388809978149
 30
0.0
 10
794.0367840478796
 20
1988.46080123133
 30
0.0
  0
SPLINE
  5
192
330
87
100
AcDbEntity
  8
P-SANR-FIXT
100
AcDbSpline
210
0.0
220
0.0
230
1.0
 70
     8
 71
     3
 72
    19
 73
    15
 74
     0
 42
0.000000001
 43
0.0000000001
 40
0.0
 40
0.0
 40
0.0
 40
0.0
 40
0.1428571428571428
 40
0.2142857142857143
 40
0.2857142857142857
 40
0.4285714285714286
 40
0.5
 40
0.5714285714285714
 40
0.6785714285714287
 40
0.71875
 40
0.7857142857142857
 40
0.8392857142857142
 40
0.8928571428571427
 40
0.9351050235575561
 40
0.9351050235575561
 40
0.9351050235575561
 40
0.9351050235575561
 10
795.6992469039398
 20
2007.999999999995
 30
0.0
 10
795.6134810538197
 20
2008.20157258501
 30
0.0
 10
795.4589430565209
 20
2008.486475417466
 30
0.0
 10
795.1921603632029
 20
2008.833640537937
 30
0.0
 10
794.8943179060935
 20
2009.159120393395
 30
0.0
 10
794.5583321435231
 20
2009.452680604375
 30
0.0
 10
794.1894896003252
 20
2009.715786018653
 30
0.0
 10
793.8475148689176
 20
2009.925199167564
 30
0.0
 10
793.5288618024689
 20
2010.089287859641
 30
0.0
 10
793.2005785481376
 20
2010.224446439062
 30
0.0
 10
792.944527883456
 20
2010.316491020807
 30
0.0
 10
792.6571550820778
 20
2010.398276220483
 30
0.0
 10
792.404771284829
 20
2010.447136922786
 30
0.0
 10
792.2389359208306
 20
2010.469109746171
 30
0.0
 10
792.165055433691
 20
2010.476956018997
 30
0.0
  0
SPLINE
  5
193
330
87
100
AcDbEntity
  8
P-SANR-FIXT
100
AcDbSpline
210
0.0
220
0.0
230
1.0
 70
     8
 71
     3
 72
    25
 73
    21
 74
     0
 42
0.000000001
 43
0.0000000001
 40
0.0
 40
0.0
 40
0.0
 40
0.0
 40
0.0833333333333333
 40
0.125
 40
0.1666666666666666
 40
0.2083333333333333
 40
0.25
 40
0.2916666666666666
 40
0.3333333333333333
 40
0.375
 40
0.4166666666666666
 40
0.4583333333333333
 40
0.5
 40
0.5416666666666666
 40
0.5833333333333333
 40
0.625
 40
0.6666666666666666
 40
0.75
 40
0.8333333333333332
 40
1.0
 40
1.0
 40
1.0
 40
1.0
 10
790.1921557368053
 20
2010.499999999995
 30
0.0
 10
790.0187434418133
 20
2010.50658449029
 30
0.0
 10
789.7665107398785
 20
2010.530322780052
 30
0.0
 10
789.4458001962556
 20
2010.589702302969
 30
0.0
 10
789.2134106623166
 20
2010.647082580136
 30
0.0
 10
788.9877904582898
 20
2010.72035815637
 30
0.0
 10
788.7692143262678
 20
2010.808454801436
 30
0.0
 10
788.5595833158816
 20
2010.906653398266
 30
0.0
 10
788.3607743313234
 20
2011.009716666141
 30
0.0
 10
788.1731345510022
 20
2011.118762463735
 30
0.0
 10
787.9952580791155
 20
2011.236171655552
 30
0.0
 10
787.8274654820971
 20
2011.358182589988
 30
0.0
 10
787.6694128942305
 20
2011.481851079756
 30
0.0
 10
787.5216877161649
 20
2011.607765776006
 30
0.0
 10
787.384209763838
 20
2011.73720788812
 30
0.0
 10
787.2562782978141
 20
2011.867883027523
 30
0.0
 10
787.0969332638416
 20
2012.041070723853
 30
0.0
 10
786.9217811600003
 20
2012.25812298136
 30
0.0
 10
786.6863447957493
 20
2012.600357661905
 30
0.0
 10
786.5538414817071
 20
2012.843614036846
 30
0.0
 10
786.4870054616504
 20
2012.999999999995
 30
0.0
  0
ENDBLK
  5
195
330
87
100
AcDbEntity
  8
0
100
AcDbBlockEnd
  0
BLOCK
  5
2BE
330
197
100
AcDbEntity
  8
0
100
AcDbBlockBegin
  2
Automatic flow rate regulator valve_Caleffi_121 DN15 - 3_4___Pressure gauge-V1-Est - Idraulica
 70
     0
 10
0.0
 20
0.0
 30
0.0
  3
Automatic flow rate regulator valve_Caleffi_121 DN15 - 3_4___Pressure gauge-V1-Est - Idraulica
  1

  0
LINE
  5
198
330
197
100
AcDbEntity
  8
M-PIPE
100
AcDbLine
 10
835.1664074431571
 20
1740.745878730053
 30
0.0
 11
835.1664074431571
 21
1738.745878730053
 31
0.0
1001
REVIT
1002
{
1070
     3
1000
924018
1002
}
  0
LINE
  5
199
330
197
100
AcDbEntity
  8
M-PIPE
100
AcDbLine
 10
842.166407443157
 20
1738.745878730053
 30
0.0
 11
842.166407443157
 21
1740.745878730053
 31
0.0
1001
REVIT
1002
{
1070
     3
1000
924018
1002
}
  0
LINE
  5
19A
330
197
100
AcDbEntity
  8
M-PIPE
100
AcDbLine
 10
835.1664074431559
 20
1738.745878730053
 30
0.0
 11
842.1664074431557
 21
1738.745878730053
 31
0.0
1001
REVIT
1002
{
1070
     3
1000
924018
1002
}
  0
LINE
  5
19B
330
197
100
AcDbEntity
  8
M-PIPE
100
AcDbLine
 10
832.1164074431628
 20
1793.74587873007
 30
0.0
 11
832.1164074431633
 21
1776.745878730036
 31
0.0
1001
REVIT
1002
{
1070
     3
1000
924018
1002
}
  0
LINE
  5
19C
330
197
100
AcDbEntity
  8
M-PIPE
100
AcDbLine
 10
845.216407443149
 20
1776.745878730037
 30
0.0
 11
845.2164074431484
 21
1793.74587873007
 31
0.0
1001
REVIT
1002
{
1070
     3
1000
924018
1002
}
  0
LINE
  5
19D
330
197
100
AcDbEntity
  8
M-PIPE
100
AcDbLine
 10
831.6664074431674
 20
1776.745878730035
 30
0.0
 11
845.6664074431675
 21
1776.745878730036
 31
0.0
1001
REVIT
1002
{
1070
     3
1000
924018
1002
}
  0
LINE
  5
19E
330
197
100
AcDbEntity
  8
M-PIPE
100
AcDbLine
 10
845.6664074431675
 20
1776.745878730036
 30
0.0
 11
845.6664074431675
 21
1770.745878730053
 31
0.0
1001
REVIT
1002
{
1070
     3
1000
924018
1002
}
  0
LINE
  5
19F
330
197
100
AcDbEntity
  8
M-PIPE
100
AcDbLine
 10
831.6664074431674
 20
1776.745878730035
 30
0.0
 11
831.6664074431674
 21
1770.745878730053
 31
0.0
1001
REVIT
1002
{
1070
     3
1000
924018
1002
}
  0
LINE
  5
1A0
330
197
100
AcDbEntity
  8
M-PIPE
100
AcDbLine
 10
807.6664074431445
 20
1767.745878730053
 30
0.0
 11
807.666407443145
 21
1740.745878730053
 31
0.0
1001
REVIT
1002
{
1070
     3
1000
924018
1002
}
  0
LINE
  5
1A1
330
197
100
AcDbEntity
  8
M-PIPE
100
AcDbLine
 10
869.6664074431689
 20
1740.745878730054
 30
0.0
 11
869.6664074431682
 21
1767.745878730054
 31
0.0
1001
REVIT
1002
{
1070
     3
1000
924018
1002
}
  0
LWPOLYLINE
  5
1A2
330
197
100
AcDbEntity
  8
M-PIPE
100
AcDbPolyline
 90
       80
 70
   128
 43
0.0
 10
866.6664074431684
 20
1770.745878730054
 10
866.6440104296759
 20
1770.745878730054
 10
866.5768552196418
 20
1770.745878730054
 10
866.4650492470768
 20
1770.745878730054
 10
866.3087713776858
 20
1770.745878730054
 10
866.108271622723
 20
1770.745878730054
 10
865.8638707390251
 20
1770.745878730054
 10
865.5759597158697
 20
1770.745878730054
 10
865.2449991494764
 20
1770.745878730054
 10
864.8715185061499
 20
1770.745878730054
 10
864.4561152752483
 20
1770.745878730054
 10
863.9994540133262
 20
1770.745878730054
 10
863.5022652809871
 20
1770.745878730054
 10
862.9653444741411
 20
1770.745878730054
 10
862.3895505515424
 20
1770.745878730054
 10
861.7758046606374
 20
1770.745878730054
 10
861.1250886639265
 20
1770.745878730054
 10
860.4384435681918
 20
1770.745878730054
 10
859.7169678591107
 20
1770.745878730054
 10
858.9618157439105
 20
1770.745878730054
 10
858.1741953048855
 20
1770.745878730054
 10
857.3553665667212
 20
1770.745878730054
 10
856.5066394807244
 20
1770.745878730053
 10
855.6293718291808
 20
1770.745878730053
 10
854.7249670531922
 20
1770.745878730053
 10
853.7948720074707
 20
1770.745878730053
 10
852.8405746456805
 20
1770.745878730053
 10
851.8636016400268
 20
1770.745878730053
 10
850.8655159389096
 20
1770.745878730053
 10
849.8479142665368
 20
1770.745878730053
 10
848.8124245685074
 20
1770.745878730053
 10
847.7607034074461
 20
1770.745878730053
 10
846.6944333128546
 20
1770.745878730053
 10
845.6153200894258
 20
1770.745878730053
 10
844.5250900881186
 20
1770.745878730053
 10
843.4254874443652
 20
1770.745878730053
 10
842.318271287826
 20
1770.745878730053
 10
841.2052129281581
 20
1770.745878730053
 10
840.0880930212972
 20
1770.745878730053
 10
838.9686987207879
 20
1770.745878730053
 10
837.8488208187198
 20
1770.745878730053
 10
836.7302508808418
 20
1770.745878730053
 10
835.6147783804384
 20
1770.745878730053
 10
834.5041878355562
 20
1770.745878730053
 10
833.4002559541533
 20
1770.745878730053
 10
832.304748791747
 20
1770.745878730053
 10
831.2194189261015
 20
1770.745878730053
 10
830.1460026534771
 20
1770.745878730053
 10
829.0862172109269
 20
1770.745878730053
 10
828.0417580290832
 20
1770.745878730053
 10
827.0142960198311
 20
1770.745878730053
 10
826.0054749032052
 20
1770.745878730053
 10
825.0169085777882
 20
1770.745878730053
 10
824.0501785388181
 20
1770.745878730053
 10
823.1068313481323
 20
1770.745878730053
 10
822.1883761599995
 20
1770.745878730053
 10
821.2962823067938
 20
1770.745878730053
 10
820.431976948377
 20
1770.745878730053
 10
819.5968427889477
 20
1770.745878730053
 10
818.7922158650081
 20
1770.745878730053
 10
818.0193834079924
 20
1770.745878730053
 10
817.2795817849692
 20
1770.745878730053
 10
816.5739945207198
 20
1770.745878730053
 10
815.9037504043494
 20
1770.745878730053
 10
815.2699216834667
 20
1770.745878730053
 10
814.6735223488152
 20
1770.745878730053
 10
814.1155065121054
 20
1770.745878730053
 10
813.5967668796396
 20
1770.745878730053
 10
813.1181333241704
 20
1770.745878730053
 10
812.6803715572835
 20
1770.745878730053
 10
812.2841819044221
 20
1770.745878730053
 10
811.9301981845151
 20
1770.745878730053
 10
811.6189866960011
 20
1770.745878730053
 10
811.3510453108739
 20
1770.745878730053
 10
811.1268026781919
 20
1770.745878730053
 10
810.9466175383317
 20
1770.745878730053
 10
810.8107781490792
 20
1770.745878730053
 10
810.71950182448
 20
1770.745878730053
 10
810.6729345871819
 20
1770.745878730053
 10
810.6664074431442
 20
1770.745878730053
1001
REVIT
1002
{
1070
     3
1000
924018
1002
}
  0
LWPOLYLINE
  5
1A3
330
197
100
AcDbEntity
  8
M-PIPE
100
AcDbPolyline
 90
       41
 70
   128
 43
0.0
 10
866.6906401348802
 20
1770.745394011589
 10
866.7863754457284
 20
1770.743479050037
 10
866.906151525076
 20
1770.736283848962
 10
867.0255440650354
 20
1770.724304637616
 10
867.1443620630112
 20
1770.707560580181
 10
867.2624154355538
 20
1770.686078463578
 10
867.3795153224501
 20
1770.659892654611
 10
867.495474388861
 20
1770.629045044987
 10
867.6101071250169
 20
1770.593584984302
 10
867.7232301429938
 20
1770.553569201088
 10
867.8346624700948
 20
1770.509061712063
 10
867.9442258383664
 20
1770.460133719715
 10
868.051744969793
 20
1770.406863498392
 10
868.1570478566998
 20
1770.349336269088
 10
868.2599660369312
 20
1770.287644063095
 10
868.3603348633537
 20
1770.221885574783
 10
868.4579937672559
 20
1770.152166003707
 10
868.552786515224
 20
1770.078596886307
 10
868.644561459083
 20
1770.001295917477
 10
868.7331717785003
 20
1769.920386762277
 10
868.8184757158671
 20
1769.835998858096
 10
868.900336803081
 20
1769.748267207578
 10
868.9786240798657
 20
1769.65733216265
 10
869.0532123032776
 20
1769.563339199985
 10
869.1239821480715
 20
1769.466438688272
 10
869.1908203975923
 20
1769.366785647659
 10
869.2536201248985
 20
1769.264539501753
 10
869.3122808638234
 20
1769.159863822576
 10
869.3667087696981
 20
1769.052926068885
 10
869.4168167694838
 20
1768.943897318273
 10
869.4625247010703
 20
1768.832951993485
 10
869.5037594415174
 20
1768.720267583371
 10
869.5404550240363
 20
1768.60602435895
 10
869.5725527435234
 20
1768.490405085012
 10
869.6000012504747
 20
1768.373594727728
 10
869.6227566331341
 20
1768.255780158755
 10
869.6407824877438
 20
1768.137149856269
 10
869.6540499767817
 20
1768.017893603447
 10
869.6625378750955
 20
1767.898202184855
 10
869.6662326038586
 20
1767.778267081229
 10
869.6664074431687
 20
1767.745878730054
1001
REVIT
1002
{
1070
     3
1000
924018
1002
}
  0
LWPOLYLINE
  5
1A4
330
197
100
AcDbEntity
  8
M-PIPE
100
AcDbPolyline
 90
       41
 70
   128
 43
0.0
 10
807.6664074431441
 20
1767.745878730053
 10
807.6688071231611
 20
1767.865846732613
 10
807.6760023242364
 20
1767.985622811961
 10
807.6879815355825
 20
1768.10501535192
 10
807.7047255930171
 20
1768.223833349895
 10
807.7262077096204
 20
1768.341886722438
 10
807.752393518588
 20
1768.458986609334
 10
807.7832411282116
 20
1768.574945675745
 10
807.8187011888967
 20
1768.689578411901
 10
807.8587169721103
 20
1768.802701429878
 10
807.9032244611353
 20
1768.914133756979
 10
807.9521524534841
 20
1769.023697125251
 10
808.005422674806
 20
1769.131216256678
 10
808.0629499041112
 20
1769.236519143584
 10
808.1246421101038
 20
1769.339437323816
 10
808.1904005984151
 20
1769.439806150238
 10
808.2601201694913
 20
1769.53746505414
 10
808.3336892868912
 20
1769.632257802108
 10
808.4109902557212
 20
1769.724032745967
 10
808.4918994109212
 20
1769.812643065385
 10
808.5762873151026
 20
1769.897947002751
 10
808.6640189656201
 20
1769.979808089965
 10
808.7549540105483
 20
1770.05809536675
 10
808.8489469732136
 20
1770.132683590162
 10
808.9458474849267
 20
1770.203453434956
 10
809.0455005255398
 20
1770.270291684477
 10
809.1477466714456
 20
1770.333091411783
 10
809.2524223506227
 20
1770.391752150708
 10
809.3593601043139
 20
1770.446180056582
 10
809.4683888549251
 20
1770.496288056368
 10
809.5793341797142
 20
1770.541995987954
 10
809.6920185898278
 20
1770.583230728402
 10
809.8062618142481
 20
1770.619926310921
 10
809.9218810881868
 20
1770.652024030408
 10
810.0386914454698
 20
1770.679472537359
 10
810.1565060144432
 20
1770.702227920018
 10
810.2751363169295
 20
1770.720253774628
 10
810.394392569751
 20
1770.733521263666
 10
810.5140839883434
 20
1770.74200916198
 10
810.6340190919691
 20
1770.745703890743
 10
810.6664074431442
 20
1770.745878730053
1001
REVIT
1002
{
1070
     3
1000
924018
1002
}
  0
LWPOLYLINE
  5
1A5
330
197
100
AcDbEntity
  8
M-PIPE
100
AcDbPolyline
 90
        4
 70
   128
 43
0.0
 10
810.6664074431442
 20
1770.745878730053
 10
810.6888044566368
 20
1770.745878730053
 10
810.7559596666707
 20
1770.745878730053
 10
810.7702512685685
 20
1770.745878730053
1001
REVIT
1002
{
1070
     3
1000
924018
1002
}
  0
LWPOLYLINE
  5
1A6
330
197
100
AcDbEntity
  8
M-PIPE
100
AcDbPolyline
 90
        4
 70
   128
 43
0.0
 10
866.5562883998466
 20
1770.745878730055
 10
866.6133130618327
 20
1770.745878730054
 10
866.6598802991307
 20
1770.745878730054
 10
866.6664074431684
 20
1770.745878730054
1001
REVIT
1002
{
1070
     3
1000
924018
1002
}
  0
LINE
  5
1A7
330
197
100
AcDbEntity
  8
M-PIPE
100
AcDbLine
 10
807.6664074431437
 20
1740.745878730052
 30
0.0
 11
869.6664074431676
 21
1740.745878730054
 31
0.0
1001
REVIT
1002
{
1070
     3
1000
924018
1002
}
  0
LINE
  5
1A8
330
197
100
AcDbEntity
  8
P-SANR-FIXT
100
AcDbLine
 10
848.1664074432023
 20
1853.745878730038
 30
0.0
 11
848.1664074432023
 21
1858.795453246155
 31
0.0
  0
LINE
  5
1A9
330
197
100
AcDbEntity
  8
P-SANR-FIXT
100
AcDbLine
 10
829.1664074431706
 20
1858.795453246154
 30
0.0
 11
829.1664074431706
 21
1853.745878730037
 31
0.0
  0
LINE
  5
1AA
330
197
100
AcDbEntity
  8
P-SANR-FIXT
100
AcDbLine
 10
848.1664074432023
 20
1858.795453246155
 30
0.0
 11
847.2159819592688
 21
1859.745878730088
 31
0.0
  0
LINE
  5
1AB
330
197
100
AcDbEntity
  8
P-SANR-FIXT
100
AcDbLine
 10
830.1168329271041
 20
1859.745878730088
 30
0.0
 11
829.1664074431706
 21
1858.795453246154
 31
0.0
  0
LINE
  5
1AC
330
197
100
AcDbEntity
  8
P-SANR-FIXT
100
AcDbLine
 10
838.666407443185
 20
1853.745878730036
 30
0.0
 11
848.1664074432011
 21
1853.745878730036
 31
0.0
  0
LINE
  5
1AD
330
197
100
AcDbEntity
  8
P-SANR-FIXT
100
AcDbLine
 10
829.1664074431691
 20
1853.745878730036
 30
0.0
 11
838.666407443185
 21
1853.745878730036
 31
0.0
  0
LINE
  5
1AE
330
197
100
AcDbEntity
  8
P-SANR-FIXT
100
AcDbLine
 10
838.666407443185
 20
1859.745878730087
 30
0.0
 11
847.2159819592675
 21
1859.745878730088
 31
0.0
  0
LINE
  5
1AF
330
197
100
AcDbEntity
  8
P-SANR-FIXT
100
AcDbLine
 10
830.1168329271026
 20
1859.745878730087
 30
0.0
 11
838.666407443185
 21
1859.745878730087
 31
0.0
  0
LINE
  5
1B0
330
197
100
AcDbEntity
  8
P-SANR-FIXT
100
AcDbLine
 10
848.1664074432011
 20
1858.795453246154
 30
0.0
 11
838.666407443185
 21
1858.795453246154
 31
0.0
  0
LINE
  5
1B1
330
197
100
AcDbEntity
  8
P-SANR-FIXT
100
AcDbLine
 10
838.666407443185
 20
1858.795453246154
 30
0.0
 11
829.1664074431691
 21
1858.795453246154
 31
0.0
  0
LINE
  5
1B2
330
197
100
AcDbEntity
  8
P-SANR-FIXT
100
AcDbLine
 10
897.3664074431846
 20
1836.995878730101
 30
0.0
 11
882.1664074431847
 21
1836.995878730101
 31
0.0
  0
LINE
  5
1B3
330
197
100
AcDbEntity
  8
P-SANR-FIXT
100
AcDbLine
 10
882.1664074431847
 20
1810.49587873004
 30
0.0
 11
897.3664074431843
 21
1810.49587873004
 31
0.0
  0
LINE
  5
1B4
330
197
100
AcDbEntity
  8
P-SANR-FIXT
100
AcDbLine
 10
898.6664074431846
 20
1835.695878730101
 30
0.0
 11
897.4302098147783
 21
1836.932076358508
 31
0.0
  0
LINE
  5
1B5
330
197
100
AcDbEntity
  8
P-SANR-FIXT
100
AcDbLine
 10
897.4115751627023
 20
1836.950711010584
 30
0.0
 11
897.3664074431846
 21
1836.995878730101
 31
0.0
  0
LINE
  5
1B6
330
197
100
AcDbEntity
  8
P-SANR-FIXT
100
AcDbLine
 10
897.3664074431843
 20
1810.49587873004
 30
0.0
 11
898.6664074431848
 21
1811.795878730039
 31
0.0
  0
LINE
  5
1B7
330
197
100
AcDbEntity
  8
P-SANR-FIXT
100
AcDbLine
 10
882.1664074431835
 20
1836.24587873001
 30
0.0
 11
882.1664074431835
 21
1836.995878730101
 31
0.0
  0
LINE
  5
1B8
330
197
100
AcDbEntity
  8
P-SANR-FIXT
100
AcDbLine
 10
882.1664074431835
 20
1826.190044392995
 30
0.0
 11
882.1664074431835
 21
1833.801713067119
 31
0.0
  0
LINE
  5
1B9
330
197
100
AcDbEntity
  8
P-SANR-FIXT
100
AcDbLine
 10
882.1664074431835
 20
1810.495878730039
 30
0.0
 11
882.1664074431835
 21
1811.245878730011
 31
0.0
  0
LINE
  5
1BA
330
197
100
AcDbEntity
  8
P-SANR-FIXT
100
AcDbLine
 10
882.1664074431835
 20
1813.690044393137
 30
0.0
 11
882.1664074431835
 21
1821.301713067014
 31
0.0
  0
LINE
  5
1BB
330
197
100
AcDbEntity
  8
P-SANR-FIXT
100
AcDbLine
 10
897.3664074431832
 20
1823.74587873007
 30
0.0
 11
897.3664074431832
 21
1836.995878730101
 31
0.0
  0
LINE
  5
1BC
330
197
100
AcDbEntity
  8
P-SANR-FIXT
100
AcDbLine
 10
897.3664074431832
 20
1810.495878730039
 30
0.0
 11
897.3664074431832
 21
1823.74587873007
 31
0.0
  0
LINE
  5
1BD
330
197
100
AcDbEntity
  8
P-SANR-FIXT
100
AcDbLine
 10
898.6664074431834
 20
1835.695878730101
 30
0.0
 11
898.6664074431834
 21
1823.74587873007
 31
0.0
  0
LINE
  5
1BE
330
197
100
AcDbEntity
  8
P-SANR-FIXT
100
AcDbLine
 10
898.6664074431834
 20
1823.74587873007
 30
0.0
 11
898.6664074431834
 21
1811.795878730039
 31
0.0
  0
LINE
  5
1BF
330
197
100
AcDbEntity
  8
P-SANR-FIXT
100
AcDbLine
 10
873.1664074431837
 20
1811.245878730011
 30
0.0
 11
882.1664074431835
 21
1811.245878730011
 31
0.0
  0
LINE
  5
1C0
330
197
100
AcDbEntity
  8
P-SANR-FIXT
100
AcDbLine
 10
873.1664074431837
 20
1836.24587873001
 30
0.0
 11
882.1664074431835
 21
1836.24587873001
 31
0.0
  0
LINE
  5
1C1
330
197
100
AcDbEntity
  8
P-SANR-FIXT
100
AcDbLine
 10
873.1664074431837
 20
1833.80171306705
 30
0.0
 11
882.1664074431835
 21
1833.80171306705
 31
0.0
  0
LINE
  5
1C2
330
197
100
AcDbEntity
  8
P-SANR-FIXT
100
AcDbLine
 10
873.1664074431837
 20
1826.190044392994
 30
0.0
 11
882.1664074431835
 21
1826.190044392994
 31
0.0
  0
LINE
  5
1C3
330
197
100
AcDbEntity
  8
P-SANR-FIXT
100
AcDbLine
 10
873.1664074431837
 20
1821.301713067012
 30
0.0
 11
882.1664074431835
 21
1821.301713067012
 31
0.0
  0
LINE
  5
1C4
330
197
100
AcDbEntity
  8
P-SANR-FIXT
100
AcDbLine
 10
882.1664074431835
 20
1813.690044393033
 30
0.0
 11
873.1664074431837
 21
1813.690044393033
 31
0.0
  0
LINE
  5
1C5
330
197
100
AcDbEntity
  8
P-SANR-FIXT
100
AcDbLine
 10
857.8334571502468
 20
1805.245878730003
 30
0.0
 11
871.1517110894584
 21
1805.245878730003
 31
0.0
  0
LINE
  5
1C6
330
197
100
AcDbEntity
  8
P-SANR-FIXT
100
AcDbLine
 10
871.1517110895226
 20
1842.245878730019
 30
0.0
 11
857.8334571501823
 21
1842.245878730019
 31
0.0
  0
LINE
  5
1C7
330
197
100
AcDbEntity
  8
P-SANR-FIXT
100
AcDbLine
 10
873.1664074431847
 20
1839.911686267397
 30
0.0
 11
871.8186798983884
 21
1842.246018849744
 31
0.0
  0
LINE
  5
1C8
330
197
100
AcDbEntity
  8
P-SANR-FIXT
100
AcDbLine
 10
871.8186798983202
 20
1805.245738610278
 30
0.0
 11
873.1664074431849
 21
1807.580071192743
 31
0.0
  0
LINE
  5
1C9
330
197
100
AcDbEntity
  8
P-SANR-FIXT
100
AcDbLine
 10
857.1664074431835
 20
1823.74587873007
 30
0.0
 11
857.1664074431835
 21
1832.99587873007
 31
0.0
  0
LINE
  5
1CA
330
197
100
AcDbEntity
  8
P-SANR-FIXT
100
AcDbLine
 10
857.1664074431835
 20
1832.99587873007
 30
0.0
 11
857.1664074431835
 21
1842.24587873007
 31
0.0
  0
LINE
  5
1CB
330
197
100
AcDbEntity
  8
P-SANR-FIXT
100
AcDbLine
 10
857.1664074431836
 20
1805.24587873007
 30
0.0
 11
857.1664074431835
 21
1814.49587873007
 31
0.0
  0
LINE
  5
1CC
330
197
100
AcDbEntity
  8
P-SANR-FIXT
100
AcDbLine
 10
857.1664074431835
 20
1814.49587873007
 30
0.0
 11
857.1664074431835
 21
1823.745878730069
 31
0.0
  0
LINE
  5
1CD
330
197
100
AcDbEntity
  8
P-SANR-FIXT
100
AcDbLine
 10
873.1664074431835
 20
1839.911686267397
 30
0.0
 11
873.1664074431837
 21
1823.74587873007
 31
0.0
  0
LINE
  5
1CE
330
197
100
AcDbEntity
  8
P-SANR-FIXT
100
AcDbLine
 10
873.1664074431837
 20
1823.74587873007
 30
0.0
 11
873.1664074431838
 21
1807.580071192743
 31
0.0
  0
SPLINE
  5
1CF
330
197
100
AcDbEntity
  8
P-SANR-FIXT
100
AcDbSpline
210
0.0
220
0.0
230
1.0
 70
     8
 71
     3
 72
    10
 73
     6
 74
     0
 42
0.000000001
 43
0.0000000001
 40
0.0
 40
0.0
 40
0.0
 40
0.0
 40
0.4
 40
0.7
 40
1.0
 40
1.0
 40
1.0
 40
1.0
 10
871.151711089457
 20
1805.245878730003
 30
0.0
 10
870.961855275507
 20
1805.245878730003
 30
0.0
 10
870.7571891710506
 20
1805.603348185795
 30
0.0
 10
870.807565706931
 20
1806.966856639631
 30
0.0
 10
871.0095301974858
 20
1808.119435549361
 30
0.0
 10
871.151711089463
 20
1808.745878730003
 30
0.0
  0
SPLINE
  5
1D0
330
197
100
AcDbEntity
  8
P-SANR-FIXT
100
AcDbSpline
210
0.0
220
0.0
230
1.0
 70
     8
 71
     3
 72
    10
 73
     6
 74
     0
 42
0.000000001
 43
0.0000000001
 40
0.0
 40
0.0
 40
0.0
 40
0.0
 40
0.4
 40
0.7
 40
1.0
 40
1.0
 40
1.0
 40
1.0
 10
857.8334571502395
 20
1808.745878730003
 30
0.0
 10
858.0230316728757
 20
1807.910621155814
 30
0.0
 10
858.2278634545328
 20
1806.605318546186
 30
0.0
 10
858.1778281491793
 20
1805.472945730681
 30
0.0
 10
857.9758490107082
 20
1805.245878730003
 30
0.0
 10
857.8334571502455
 20
1805.245878730003
 30
0.0
  0
SPLINE
  5
1D1
330
197
100
AcDbEntity
  8
P-SANR-FIXT
100
AcDbSpline
210
0.0
220
0.0
230
1.0
 70
    24
 71
     3
 72
     9
 73
     5
 74
     0
 42
0.000000001
 43
0.0000000001
 40
0.0
 40
0.0
 40
0.0
 40
0.0
 40
0.5
 40
1.0
 40
1.0
 40
1.0
 40
1.0
 10
857.8334571502455
 20
1805.245878730003
 30
0.0
 10
857.6147514353204
 20
1805.245878730003
 30
0.0
 10
857.2848707692179
 20
1805.245878730003
 30
0.0
 10
857.1700516306124
 20
1805.245878730002
 30
0.0
 10
857.1664074431836
 20
1805.245878730002
 30
0.0
  0
SPLINE
  5
1D2
330
197
100
AcDbEntity
  8
P-SANR-FIXT
100
AcDbSpline
210
0.0
220
0.0
230
1.0
 70
    24
 71
     3
 72
     8
 73
     4
 74
     0
 42
0.000000001
 43
0.0000000001
 40
0.5
 40
0.5
 40
0.5
 40
0.5
 40
1.0
 40
1.0
 40
1.0
 40
1.0
 10
871.8187213682963
 20
1805.245878730002
 30
0.0
 10
871.8187213682963
 20
1805.245878730003
 30
0.0
 10
871.5963846086834
 20
1805.245878730003
 30
0.0
 10
871.151711089457
 20
1805.245878730003
 30
0.0
  0
SPLINE
  5
1D3
330
197
100
AcDbEntity
  8
P-SANR-FIXT
100
AcDbSpline
210
0.0
220
0.0
230
1.0
 70
    24
 71
     3
 72
     9
 73
     5
 74
     0
 42
0.000000001
 43
0.0000000001
 40
0.0
 40
0.0
 40
0.0
 40
0.0
 40
0.5
 40
1.0
 40
1.0
 40
1.0
 40
1.0
 10
857.1664074431835
 20
1842.245878730018
 30
0.0
 10
857.170051630578
 20
1842.245878730018
 30
0.0
 10
857.284870769139
 20
1842.245878730018
 30
0.0
 10
857.6147514352431
 20
1842.245878730018
 30
0.0
 10
857.8334571501809
 20
1842.245878730018
 30
0.0
  0
SPLINE
  5
1D4
330
197
100
AcDbEntity
  8
P-SANR-FIXT
100
AcDbSpline
210
0.0
220
0.0
230
1.0
 70
    24
 71
     3
 72
     9
 73
     5
 74
     0
 42
0.000000001
 43
0.0000000001
 40
0.0
 40
0.0
 40
0.0
 40
0.0
 40
0.5
 40
0.5039424903641529
 40
0.5039424903641529
 40
0.5039424903641529
 40
0.5039424903641529
 10
871.1517110895211
 20
1842.245878730018
 30
0.0
 10
871.59638460875
 20
1842.245878730018
 30
0.0
 10
871.8204744894288
 20
1842.245878730018
 30
0.0
 10
871.8187075450387
 20
1842.245878730018
 30
0.0
 10
871.818679898387
 20
1842.245878730018
 30
0.0
  0
SPLINE
  5
1D5
330
197
100
AcDbEntity
  8
P-SANR-FIXT
100
AcDbSpline
210
0.0
220
0.0
230
1.0
 70
     8
 71
     3
 72
    10
 73
     6
 74
     0
 42
0.000000001
 43
0.0000000001
 40
0.0
 40
0.0
 40
0.0
 40
0.0
 40
0.4
 40
0.7
 40
1.0
 40
1.0
 40
1.0
 40
1.0
 10
857.8334571501809
 20
1842.245878730018
 30
0.0
 10
858.0233129641321
 20
1842.245878730018
 30
0.0
 10
858.2279790685909
 20
1841.888409274226
 30
0.0
 10
858.1776025327149
 20
1840.524900820391
 30
0.0
 10
857.9756380421628
 20
1839.37232191066
 30
0.0
 10
857.8334571501871
 20
1838.745878730018
 30
0.0
  0
SPLINE
  5
1D6
330
197
100
AcDbEntity
  8
P-SANR-FIXT
100
AcDbSpline
210
0.0
220
0.0
230
1.0
 70
     8
 71
     3
 72
    10
 73
     6
 74
     0
 42
0.000000001
 43
0.0000000001
 40
0.0
 40
0.0
 40
0.0
 40
0.0
 40
0.4
 40
0.7
 40
1.0
 40
1.0
 40
1.0
 40
1.0
 10
871.1517110895149
 20
1838.745878730018
 30
0.0
 10
870.9621365668807
 20
1839.581136304208
 30
0.0
 10
870.7573047852273
 20
1840.886438913835
 30
0.0
 10
870.8073400905847
 20
1842.01881172934
 30
0.0
 10
871.0093192290578
 20
1842.245878730018
 30
0.0
 10
871.1517110895211
 20
1842.245878730018
 30
0.0
  0
SPLINE
  5
1D7
330
197
100
AcDbEntity
  8
P-SANR-FIXT
100
AcDbSpline
210
0.0
220
0.0
230
1.0
 70
     8
 71
     3
 72
     9
 73
     5
 74
     0
 42
0.000000001
 43
0.0000000001
 40
0.0
 40
0.0
 40
0.0
 40
0.0
 40
0.5
 40
1.0
 40
1.0
 40
1.0
 40
1.0
 10
857.8334571501871
 20
1838.745878730018
 30
0.0
 10
857.6147514352559
 20
1837.796704653962
 30
0.0
 10
857.2848707691573
 20
1835.889197244579
 30
0.0
 10
857.1700516305867
 20
1833.963371320656
 30
0.0
 10
857.1664074431835
 20
1832.995878730059
 30
0.0
  0
SPLINE
  5
1D8
330
197
100
AcDbEntity
  8
P-SANR-FIXT
100
AcDbSpline
210
0.0
220
0.0
230
1.0
 70
     8
 71
     3
 72
     9
 73
     5
 74
     0
 42
0.000000001
 43
0.0000000001
 40
0.0
 40
0.0
 40
0.0
 40
0.0
 40
0.5
 40
1.0
 40
1.0
 40
1.0
 40
1.0
 10
857.1664074431835
 20
1832.995878730059
 30
0.0
 10
857.1700516305869
 20
1832.028386139447
 30
0.0
 10
857.2848707691608
 20
1830.102560215493
 30
0.0
 10
857.6147514352694
 20
1828.195052806081
 30
0.0
 10
857.8334571502074
 20
1827.24587873001
 30
0.0
  0
SPLINE
  5
1D9
330
197
100
AcDbEntity
  8
P-SANR-FIXT
100
AcDbSpline
210
0.0
220
0.0
230
1.0
 70
     8
 71
     3
 72
     9
 73
     5
 74
     0
 42
0.000000001
 43
0.0000000001
 40
0.0
 40
0.0
 40
0.0
 40
0.0
 40
0.5
 40
1.0
 40
1.0
 40
1.0
 40
1.0
 10
871.151711089495
 20
1827.24587873001
 30
0.0
 10
871.5963846087264
 20
1829.13352359723
 30
0.0
 10
872.0410581279612
 20
1832.937835131118
 30
0.0
 10
871.5963846087399
 20
1836.800190263902
 30
0.0
 10
871.1517110895149
 20
1838.745878730018
 30
0.0
  0
SPLINE
  5
1DA
330
197
100
AcDbEntity
  8
P-SANR-FIXT
100
AcDbSpline
210
0.0
220
0.0
230
1.0
 70
     8
 71
     3
 72
     9
 73
     5
 74
     0
 42
0.000000001
 43
0.0000000001
 40
0.0
 40
0.0
 40
0.0
 40
0.0
 40
0.5
 40
1.0
 40
1.0
 40
1.0
 40
1.0
 10
857.8334571502074
 20
1827.24587873001
 30
0.0
 10
857.9525185977425
 20
1826.722403532235
 30
0.0
 10
858.1315948559389
 20
1825.591012226149
 30
0.0
 10
858.1925778403874
 20
1824.363152113746
 30
0.0
 10
858.1935460141748
 20
1823.74587873007
 30
0.0
  0
SPLINE
  5
1DB
330
197
100
AcDbEntity
  8
P-SANR-FIXT
100
AcDbSpline
210
0.0
220
0.0
230
1.0
 70
     8
 71
     3
 72
     9
 73
     5
 74
     0
 42
0.000000001
 43
0.0000000001
 40
0.0
 40
0.0
 40
0.0
 40
0.0
 40
0.5
 40
1.0
 40
1.0
 40
1.0
 40
1.0
 10
858.1935460141748
 20
1823.74587873007
 30
0.0
 10
858.1925778403933
 20
1823.128605346372
 30
0.0
 10
858.1315948559527
 20
1821.900745233928
 30
0.0
 10
857.9525185977564
 20
1820.769353927803
 30
0.0
 10
857.8334571502194
 20
1820.24587873001
 30
0.0
  0
SPLINE
  5
1DC
330
197
100
AcDbEntity
  8
P-SANR-FIXT
100
AcDbSpline
210
0.0
220
0.0
230
1.0
 70
     8
 71
     3
 72
     9
 73
     5
 74
     0
 42
0.000000001
 43
0.0000000001
 40
0.0
 40
0.0
 40
0.0
 40
0.0
 40
0.5
 40
1.0
 40
1.0
 40
1.0
 40
1.0
 10
871.1517110894829
 20
1820.24587873001
 30
0.0
 10
871.0326496419458
 20
1820.769353927803
 30
0.0
 10
870.8535733837496
 20
1821.900745233928
 30
0.0
 10
870.7925903993089
 20
1823.128605346372
 30
0.0
 10
870.7916222255276
 20
1823.74587873007
 30
0.0
  0
SPLINE
  5
1DD
330
197
100
AcDbEntity
  8
P-SANR-FIXT
100
AcDbSpline
210
0.0
220
0.0
230
1.0
 70
     8
 71
     3
 72
     9
 73
     5
 74
     0
 42
0.000000001
 43
0.0000000001
 40
0.0
 40
0.0
 40
0.0
 40
0.0
 40
0.5
 40
1.0
 40
1.0
 40
1.0
 40
1.0
 10
870.7916222255276
 20
1823.74587873007
 30
0.0
 10
870.792590399315
 20
1824.363152113746
 30
0.0
 10
870.8535733837633
 20
1825.591012226149
 30
0.0
 10
871.0326496419598
 20
1826.722403532235
 30
0.0
 10
871.151711089495
 20
1827.24587873001
 30
0.0
  0
SPLINE
  5
1DE
330
197
100
AcDbEntity
  8
P-SANR-FIXT
100
AcDbSpline
210
0.0
220
0.0
230
1.0
 70
     8
 71
     3
 72
     9
 73
     5
 74
     0
 42
0.000000001
 43
0.0000000001
 40
0.0
 40
0.0
 40
0.0
 40
0.0
 40
0.5
 40
1.0
 40
1.0
 40
1.0
 40
1.0
 10
857.8334571502194
 20
1820.24587873001
 30
0.0
 10
857.6147514352943
 20
1819.296704653954
 30
0.0
 10
857.2848707691964
 20
1817.38919724457
 30
0.0
 10
857.1700516306037
 20
1815.463371320647
 30
0.0
 10
857.1664074431835
 20
1814.495878730051
 30
0.0
  0
SPLINE
  5
1DF
330
197
100
AcDbEntity
  8
P-SANR-FIXT
100
AcDbSpline
210
0.0
220
0.0
230
1.0
 70
     8
 71
     3
 72
     9
 73
     5
 74
     0
 42
0.000000001
 43
0.0000000001
 40
0.0
 40
0.0
 40
0.0
 40
0.0
 40
0.5
 40
1.0
 40
1.0
 40
1.0
 40
1.0
 10
857.1664074431835
 20
1814.495878730051
 30
0.0
 10
857.1700516306039
 20
1813.528386139439
 30
0.0
 10
857.2848707692001
 20
1811.602560215487
 30
0.0
 10
857.6147514353079
 20
1809.695052806074
 30
0.0
 10
857.8334571502395
 20
1808.745878730003
 30
0.0
  0
SPLINE
  5
1E0
330
197
100
AcDbEntity
  8
P-SANR-FIXT
100
AcDbSpline
210
0.0
220
0.0
230
1.0
 70
     8
 71
     3
 72
     9
 73
     5
 74
     0
 42
0.000000001
 43
0.0000000001
 40
0.0
 40
0.0
 40
0.0
 40
0.0
 40
0.5
 40
1.0
 40
1.0
 40
1.0
 40
1.0
 10
871.151711089463
 20
1808.745878730003
 30
0.0
 10
871.596384608693
 20
1810.633523597223
 30
0.0
 10
872.0410581279265
 20
1814.43783513111
 30
0.0
 10
871.5963846087063
 20
1818.300190263894
 30
0.0
 10
871.1517110894829
 20
1820.24587873001
 30
0.0
  0
LINE
  5
1E1
330
197
100
AcDbEntity
  8
P-SANR-FIXT
100
AcDbLine
 10
766.181103796915
 20
1805.245878730003
 30
0.0
 11
779.4993577361266
 21
1805.245878730003
 31
0.0
  0
LINE
  5
1E2
330
197
100
AcDbEntity
  8
P-SANR-FIXT
100
AcDbLine
 10
779.4993577361907
 20
1842.245878730018
 30
0.0
 11
766.1811037968504
 21
1842.245878730018
 31
0.0
  0
LINE
  5
1E3
330
197
100
AcDbEntity
  8
P-SANR-FIXT
100
AcDbLine
 10
765.5141349879845
 20
1842.246018849744
 30
0.0
 11
764.166407443188
 21
1839.911686267397
 31
0.0
  0
LINE
  5
1E4
330
197
100
AcDbEntity
  8
P-SANR-FIXT
100
AcDbLine
 10
764.1664074431883
 20
1807.580071192743
 30
0.0
 11
765.5141349880531
 21
1805.245738610277
 31
0.0
  0
LINE
  5
1E5
330
197
100
AcDbEntity
  8
P-SANR-FIXT
100
AcDbLine
 10
780.1664074431869
 20
1842.245878730069
 30
0.0
 11
780.166407443187
 21
1832.99587873007
 31
0.0
  0
LINE
  5
1E6
330
197
100
AcDbEntity
  8
P-SANR-FIXT
100
AcDbLine
 10
780.166407443187
 20
1832.99587873007
 30
0.0
 11
780.166407443187
 21
1823.745878730069
 31
0.0
  0
LINE
  5
1E7
330
197
100
AcDbEntity
  8
P-SANR-FIXT
100
AcDbLine
 10
780.166407443187
 20
1823.745878730069
 30
0.0
 11
780.166407443187
 21
1814.495878730069
 31
0.0
  0
LINE
  5
1E8
330
197
100
AcDbEntity
  8
P-SANR-FIXT
100
AcDbLine
 10
780.166407443187
 20
1814.495878730069
 30
0.0
 11
780.1664074431872
 21
1805.245878730069
 31
0.0
  0
LINE
  5
1E9
330
197
100
AcDbEntity
  8
P-SANR-FIXT
100
AcDbLine
 10
764.1664074431869
 20
1823.745878730069
 30
0.0
 11
764.1664074431868
 21
1839.911686267396
 31
0.0
  0
LINE
  5
1EA
330
197
100
AcDbEntity
  8
P-SANR-FIXT
100
AcDbLine
 10
764.166407443187
 20
1807.580071192742
 30
0.0
 11
764.1664074431869
 21
1823.745878730069
 31
0.0
  0
SPLINE
  5
1EB
330
197
100
AcDbEntity
  8
P-SANR-FIXT
100
AcDbSpline
210
0.0
220
0.0
230
1.0
 70
     8
 71
     3
 72
    10
 73
     6
 74
     0
 42
0.000000001
 43
0.0000000001
 40
0.0
 40
0.0
 40
0.0
 40
0.0
 40
0.4
 40
0.7
 40
1.0
 40
1.0
 40
1.0
 40
1.0
 10
766.1811037969079
 20
1808.745878730002
 30
0.0
 10
766.3709596108595
 20
1807.90889614163
 30
0.0
 10
766.5756257153187
 20
1806.60444919138
 30
0.0
 10
766.5252491794424
 20
1805.472170621791
 30
0.0
 10
766.3232846888899
 20
1805.245878730002
 30
0.0
 10
766.1811037969138
 20
1805.245878730002
 30
0.0
  0
SPLINE
  5
1EC
330
197
100
AcDbEntity
  8
P-SANR-FIXT
100
AcDbSpline
210
0.0
220
0.0
230
1.0
 70
     8
 71
     3
 72
    10
 73
     6
 74
     0
 42
0.000000001
 43
0.0000000001
 40
0.0
 40
0.0
 40
0.0
 40
0.0
 40
0.4
 40
0.7
 40
1.0
 40
1.0
 40
1.0
 40
1.0
 10
779.4993577361253
 20
1805.245878730002
 30
0.0
 10
779.3097832134906
 20
1805.245878730002
 30
0.0
 10
779.1049514318365
 20
1805.602739469341
 30
0.0
 10
779.154986737194
 20
1806.965387393731
 30
0.0
 10
779.3569658756675
 20
1808.118141788723
 30
0.0
 10
779.4993577361313
 20
1808.745878730002
 30
0.0
  0
SPLINE
  5
1ED
330
197
100
AcDbEntity
  8
P-SANR-FIXT
100
AcDbSpline
210
0.0
220
0.0
230
1.0
 70
    24
 71
     3
 72
     8
 73
     4
 74
     0
 42
0.000000001
 43
0.0000000001
 40
0.0
 40
0.0
 40
0.0
 40
0.0
 40
0.5
 40
0.5
 40
0.5
 40
0.5
 10
766.1811037969138
 20
1805.245878730002
 30
0.0
 10
765.7364302776877
 20
1805.245878730002
 30
0.0
 10
765.5140935180744
 20
1805.245878730002
 30
0.0
 10
765.5140935180744
 20
1805.245878730002
 30
0.0
  0
SPLINE
  5
1EE
330
197
100
AcDbEntity
  8
P-SANR-FIXT
100
AcDbSpline
210
0.0
220
0.0
230
1.0
 70
    24
 71
     3
 72
     9
 73
     5
 74
     0
 42
0.000000001
 43
0.0000000001
 40
0.0
 40
0.0
 40
0.0
 40
0.0
 40
0.5
 40
1.0
 40
1.0
 40
1.0
 40
1.0
 10
780.1664074431872
 20
1805.245878730002
 30
0.0
 10
780.1627632557585
 20
1805.245878730002
 30
0.0
 10
780.0479441171529
 20
1805.245878730002
 30
0.0
 10
779.7180634510507
 20
1805.245878730002
 30
0.0
 10
779.4993577361253
 20
1805.245878730002
 30
0.0
  0
SPLINE
  5
1EF
330
197
100
AcDbEntity
  8
P-SANR-FIXT
100
AcDbSpline
210
0.0
220
0.0
230
1.0
 70
    24
 71
     3
 72
     9
 73
     5
 74
     0
 42
0.000000001
 43
0.0000000001
 40
0.496057509635851
 40
0.496057509635851
 40
0.496057509635851
 40
0.496057509635851
 40
0.5
 40
1.0
 40
1.0
 40
1.0
 40
1.0
 10
765.5141349879833
 20
1842.245878730017
 30
0.0
 10
765.5141073413317
 20
1842.245878730017
 30
0.0
 10
765.5123403969423
 20
1842.245878730017
 30
0.0
 10
765.7364302775151
 20
1842.245878730017
 30
0.0
 10
766.1811037968492
 20
1842.245878730017
 30
0.0
  0
SPLINE
  5
1F0
330
197
100
AcDbEntity
  8
P-SANR-FIXT
100
AcDbSpline
210
0.0
220
0.0
230
1.0
 70
    24
 71
     3
 72
     9
 73
     5
 74
     0
 42
0.000000001
 43
0.0000000001
 40
0.0
 40
0.0
 40
0.0
 40
0.0
 40
0.5
 40
1.0
 40
1.0
 40
1.0
 40
1.0
 10
779.4993577361894
 20
1842.245878730017
 30
0.0
 10
779.7180634511272
 20
1842.245878730017
 30
0.0
 10
780.0479441172313
 20
1842.245878730017
 30
0.0
 10
780.1627632557924
 20
1842.245878730017
 30
0.0
 10
780.1664074431869
 20
1842.245878730017
 30
0.0
  0
SPLINE
  5
1F1
330
197
100
AcDbEntity
  8
P-SANR-FIXT
100
AcDbSpline
210
0.0
220
0.0
230
1.0
 70
     8
 71
     3
 72
    10
 73
     6
 74
     0
 42
0.000000001
 43
0.0000000001
 40
0.0
 40
0.0
 40
0.0
 40
0.0
 40
0.4
 40
0.7
 40
1.0
 40
1.0
 40
1.0
 40
1.0
 10
766.1811037968491
 20
1842.245878730017
 30
0.0
 10
766.3709596108003
 20
1842.245878730018
 30
0.0
 10
766.5756257152592
 20
1841.888409274226
 30
0.0
 10
766.5252491793832
 20
1840.52490082039
 30
0.0
 10
766.323284688831
 20
1839.37232191066
 30
0.0
 10
766.1811037968553
 20
1838.745878730018
 30
0.0
  0
SPLINE
  5
1F2
330
197
100
AcDbEntity
  8
P-SANR-FIXT
100
AcDbSpline
210
0.0
220
0.0
230
1.0
 70
     8
 71
     3
 72
    10
 73
     6
 74
     0
 42
0.000000001
 43
0.0000000001
 40
0.0
 40
0.0
 40
0.0
 40
0.0
 40
0.4
 40
0.7
 40
1.0
 40
1.0
 40
1.0
 40
1.0
 10
779.4993577361831
 20
1838.745878730018
 30
0.0
 10
779.3097832135491
 20
1839.581136304207
 30
0.0
 10
779.1049514318955
 20
1840.886438913835
 30
0.0
 10
779.1549867372529
 20
1842.018811729339
 30
0.0
 10
779.356965875726
 20
1842.245878730018
 30
0.0
 10
779.4993577361894
 20
1842.245878730017
 30
0.0
  0
SPLINE
  5
1F3
330
197
100
AcDbEntity
  8
P-SANR-FIXT
100
AcDbSpline
210
0.0
220
0.0
230
1.0
 70
     8
 71
     3
 72
     9
 73
     5
 74
     0
 42
0.000000001
 43
0.0000000001
 40
0.0
 40
0.0
 40
0.0
 40
0.0
 40
0.5
 40
1.0
 40
1.0
 40
1.0
 40
1.0
 10
766.1811037968553
 20
1838.745878730018
 30
0.0
 10
765.7364302776307
 20
1836.800190263901
 30
0.0
 10
765.2917567584093
 20
1832.937835131117
 30
0.0
 10
765.7364302776441
 20
1829.13352359723
 30
0.0
 10
766.1811037968755
 20
1827.24587873001
 30
0.0
  0
SPLINE
  5
1F4
330
197
100
AcDbEntity
  8
P-SANR-FIXT
100
AcDbSpline
210
0.0
220
0.0
230
1.0
 70
     8
 71
     3
 72
     9
 73
     5
 74
     0
 42
0.000000001
 43
0.0000000001
 40
0.0
 40
0.0
 40
0.0
 40
0.0
 40
0.5
 40
1.0
 40
1.0
 40
1.0
 40
1.0
 10
779.4993577361632
 20
1827.24587873001
 30
0.0
 10
779.7180634511012
 20
1828.195052806081
 30
0.0
 10
780.0479441172098
 20
1830.102560215493
 30
0.0
 10
780.1627632557837
 20
1832.028386139447
 30
0.0
 10
780.166407443187
 20
1832.995878730059
 30
0.0
  0
SPLINE
  5
1F5
330
197
100
AcDbEntity
  8
P-SANR-FIXT
100
AcDbSpline
210
0.0
220
0.0
230
1.0
 70
     8
 71
     3
 72
     9
 73
     5
 74
     0
 42
0.000000001
 43
0.0000000001
 40
0.0
 40
0.0
 40
0.0
 40
0.0
 40
0.5
 40
1.0
 40
1.0
 40
1.0
 40
1.0
 10
780.166407443187
 20
1832.995878730059
 30
0.0
 10
780.1627632557839
 20
1833.963371320655
 30
0.0
 10
780.0479441172135
 20
1835.889197244579
 30
0.0
 10
779.7180634511148
 20
1837.796704653962
 30
0.0
 10
779.4993577361831
 20
1838.745878730018
 30
0.0
  0
SPLINE
  5
1F6
330
197
100
AcDbEntity
  8
P-SANR-FIXT
100
AcDbSpline
210
0.0
220
0.0
230
1.0
 70
     8
 71
     3
 72
     9
 73
     5
 74
     0
 42
0.000000001
 43
0.0000000001
 40
0.0
 40
0.0
 40
0.0
 40
0.0
 40
0.5
 40
1.0
 40
1.0
 40
1.0
 40
1.0
 10
766.1811037968755
 20
1827.24587873001
 30
0.0
 10
766.3001652444108
 20
1826.722403532235
 30
0.0
 10
766.4792415026071
 20
1825.591012226148
 30
0.0
 10
766.5402244870557
 20
1824.363152113746
 30
0.0
 10
766.541192660843
 20
1823.745878730069
 30
0.0
  0
SPLINE
  5
1F7
330
197
100
AcDbEntity
  8
P-SANR-FIXT
100
AcDbSpline
210
0.0
220
0.0
230
1.0
 70
     8
 71
     3
 72
     9
 73
     5
 74
     0
 42
0.000000001
 43
0.0000000001
 40
0.0
 40
0.0
 40
0.0
 40
0.0
 40
0.5
 40
1.0
 40
1.0
 40
1.0
 40
1.0
 10
766.541192660843
 20
1823.745878730069
 30
0.0
 10
766.5402244870615
 20
1823.128605346372
 30
0.0
 10
766.4792415026211
 20
1821.900745233927
 30
0.0
 10
766.3001652444249
 20
1820.769353927802
 30
0.0
 10
766.1811037968877
 20
1820.24587873001
 30
0.0
  0
SPLINE
  5
1F8
330
197
100
AcDbEntity
  8
P-SANR-FIXT
100
AcDbSpline
210
0.0
220
0.0
230
1.0
 70
     8
 71
     3
 72
     9
 73
     5
 74
     0
 42
0.000000001
 43
0.0000000001
 40
0.0
 40
0.0
 40
0.0
 40
0.0
 40
0.5
 40
1.0
 40
1.0
 40
1.0
 40
1.0
 10
779.499357736151
 20
1820.24587873001
 30
0.0
 10
779.380296288614
 20
1820.769353927802
 30
0.0
 10
779.2012200304179
 20
1821.900745233927
 30
0.0
 10
779.1402370459771
 20
1823.128605346372
 30
0.0
 10
779.1392688721958
 20
1823.745878730069
 30
0.0
  0
SPLINE
  5
1F9
330
197
100
AcDbEntity
  8
P-SANR-FIXT
100
AcDbSpline
210
0.0
220
0.0
230
1.0
 70
     8
 71
     3
 72
     9
 73
     5
 74
     0
 42
0.000000001
 43
0.0000000001
 40
0.0
 40
0.0
 40
0.0
 40
0.0
 40
0.5
 40
1.0
 40
1.0
 40
1.0
 40
1.0
 10
779.1392688721958
 20
1823.745878730069
 30
0.0
 10
779.1402370459832
 20
1824.363152113746
 30
0.0
 10
779.2012200304318
 20
1825.591012226148
 30
0.0
 10
779.3802962886282
 20
1826.722403532235
 30
0.0
 10
779.4993577361632
 20
1827.24587873001
 30
0.0
  0
SPLINE
  5
1FA
330
197
100
AcDbEntity
  8
P-SANR-FIXT
100
AcDbSpline
210
0.0
220
0.0
230
1.0
 70
     8
 71
     3
 72
     9
 73
     5
 74
     0
 42
0.000000001
 43
0.0000000001
 40
0.0
 40
0.0
 40
0.0
 40
0.0
 40
0.5
 40
1.0
 40
1.0
 40
1.0
 40
1.0
 10
779.4993577361313
 20
1808.745878730002
 30
0.0
 10
779.7180634510627
 20
1809.695052806073
 30
0.0
 10
780.0479441171703
 20
1811.602560215486
 30
0.0
 10
780.1627632557666
 20
1813.528386139439
 30
0.0
 10
780.166407443187
 20
1814.495878730051
 30
0.0
  0
SPLINE
  5
1FB
330
197
100
AcDbEntity
  8
P-SANR-FIXT
100
AcDbSpline
210
0.0
220
0.0
230
1.0
 70
     8
 71
     3
 72
     9
 73
     5
 74
     0
 42
0.000000001
 43
0.0000000001
 40
0.0
 40
0.0
 40
0.0
 40
0.0
 40
0.5
 40
1.0
 40
1.0
 40
1.0
 40
1.0
 10
780.166407443187
 20
1814.495878730051
 30
0.0
 10
780.162763255767
 20
1815.463371320647
 30
0.0
 10
780.0479441171741
 20
1817.38919724457
 30
0.0
 10
779.7180634510763
 20
1819.296704653953
 30
0.0
 10
779.499357736151
 20
1820.24587873001
 30
0.0
  0
SPLINE
  5
1FC
330
197
100
AcDbEntity
  8
P-SANR-FIXT
100
AcDbSpline
210
0.0
220
0.0
230
1.0
 70
     8
 71
     3
 72
     9
 73
     5
 74
     0
 42
0.000000001
 43
0.0000000001
 40
0.0
 40
0.0
 40
0.0
 40
0.0
 40
0.5
 40
1.0
 40
1.0
 40
1.0
 40
1.0
 10
766.1811037968877
 20
1820.24587873001
 30
0.0
 10
765.7364302776641
 20
1818.35823386279
 30
0.0
 10
765.2917567584439
 20
1814.553922328902
 30
0.0
 10
765.7364302776775
 20
1810.691567196118
 30
0.0
 10
766.1811037969079
 20
1808.745878730002
 30
0.0
  0
LINE
  5
1FD
330
197
100
AcDbEntity
  8
P-SANR-FIXT
100
AcDbLine
 10
755.1664074431883
 20
1836.995878730101
 30
0.0
 11
739.9664074431885
 21
1836.995878730101
 31
0.0
  0
LINE
  5
1FE
330
197
100
AcDbEntity
  8
P-SANR-FIXT
100
AcDbLine
 10
739.9664074431885
 20
1810.495878730039
 30
0.0
 11
755.1664074431883
 21
1810.495878730039
 31
0.0
  0
LINE
  5
1FF
330
197
100
AcDbEntity
  8
P-SANR-FIXT
100
AcDbLine
 10
739.9664074431885
 20
1836.995878730101
 30
0.0
 11
739.9218583748866
 21
1836.951329661799
 31
0.0
  0
LINE
  5
200
330
197
100
AcDbEntity
  8
P-SANR-FIXT
100
AcDbLine
 10
739.9026050715949
 20
1836.932076358507
 30
0.0
 11
738.6664074431884
 21
1835.695878730101
 31
0.0
  0
LINE
  5
201
330
197
100
AcDbEntity
  8
P-SANR-FIXT
100
AcDbLine
 10
738.6664074431886
 20
1811.795878730039
 30
0.0
 11
739.902605071595
 21
1810.559681101632
 31
0.0
  0
LINE
  5
202
330
197
100
AcDbEntity
  8
P-SANR-FIXT
100
AcDbLine
 10
739.9183575522552
 20
1810.543928620972
 30
0.0
 11
739.9664074431885
 21
1810.495878730039
 31
0.0
  0
LINE
  5
203
330
197
100
AcDbEntity
  8
P-SANR-FIXT
100
AcDbLine
 10
738.6664074431872
 20
1823.745878730069
 30
0.0
 11
738.6664074431872
 21
1835.6958787301
 31
0.0
  0
LINE
  5
204
330
197
100
AcDbEntity
  8
P-SANR-FIXT
100
AcDbLine
 10
738.6664074431872
 20
1811.795878730038
 30
0.0
 11
738.6664074431872
 21
1823.745878730069
 31
0.0
  0
LINE
  5
205
330
197
100
AcDbEntity
  8
P-SANR-FIXT
100
AcDbLine
 10
755.1664074431872
 20
1833.801713067119
 30
0.0
 11
755.1664074431872
 21
1826.190044392994
 31
0.0
  0
LINE
  5
206
330
197
100
AcDbEntity
  8
P-SANR-FIXT
100
AcDbLine
 10
755.1664074431872
 20
1836.9958787301
 30
0.0
 11
755.1664074431872
 21
1836.245878730009
 31
0.0
  0
LINE
  5
207
330
197
100
AcDbEntity
  8
P-SANR-FIXT
100
AcDbLine
 10
755.1664074431872
 20
1811.245878730011
 30
0.0
 11
755.1664074431872
 21
1810.495878730038
 31
0.0
  0
LINE
  5
208
330
197
100
AcDbEntity
  8
P-SANR-FIXT
100
AcDbLine
 10
755.1664074431872
 20
1821.301713067014
 30
0.0
 11
755.1664074431872
 21
1813.690044393136
 31
0.0
  0
LINE
  5
209
330
197
100
AcDbEntity
  8
P-SANR-FIXT
100
AcDbLine
 10
739.9664074431874
 20
1836.9958787301
 30
0.0
 11
739.9664074431874
 21
1823.745878730069
 31
0.0
  0
LINE
  5
20A
330
197
100
AcDbEntity
  8
P-SANR-FIXT
100
AcDbLine
 10
739.9664074431874
 20
1823.745878730069
 30
0.0
 11
739.9664074431874
 21
1810.495878730038
 31
0.0
  0
LINE
  5
20B
330
197
100
AcDbEntity
  8
P-SANR-FIXT
100
AcDbLine
 10
764.1664074431869
 20
1813.690044393032
 30
0.0
 11
755.1664074431872
 21
1813.690044393032
 31
0.0
  0
LINE
  5
20C
330
197
100
AcDbEntity
  8
P-SANR-FIXT
100
AcDbLine
 10
755.1664074431872
 20
1811.245878730011
 30
0.0
 11
764.1664074431869
 21
1811.245878730011
 31
0.0
  0
LINE
  5
20D
330
197
100
AcDbEntity
  8
P-SANR-FIXT
100
AcDbLine
 10
755.1664074431872
 20
1836.245878730009
 30
0.0
 11
764.1664074431869
 21
1836.245878730009
 31
0.0
  0
LINE
  5
20E
330
197
100
AcDbEntity
  8
P-SANR-FIXT
100
AcDbLine
 10
755.1664074431872
 20
1833.801713067049
 30
0.0
 11
764.1664074431869
 21
1833.801713067049
 31
0.0
  0
LINE
  5
20F
330
197
100
AcDbEntity
  8
P-SANR-FIXT
100
AcDbLine
 10
755.1664074431872
 20
1826.190044392994
 30
0.0
 11
764.1664074431869
 21
1826.190044392994
 31
0.0
  0
LINE
  5
210
330
197
100
AcDbEntity
  8
P-SANR-FIXT
100
AcDbLine
 10
755.1664074431872
 20
1821.301713067011
 30
0.0
 11
764.1664074431869
 21
1821.301713067011
 31
0.0
  0
LWPOLYLINE
  5
211
330
197
100
AcDbEntity
  8
P-SANR-FIXT
100
AcDbPolyline
 90
       80
 70
   128
 43
0.0
 10
845.1664074431864
 20
1823.74587873007
 10
845.1428105896852
 20
1824.925564088576
 10
845.0720577791138
 20
1826.103362202161
 10
844.9542622008756
 20
1827.277388845093
 10
844.7896123027675
 20
1828.44576582519
 10
844.578371489503
 20
1829.606623988524
 10
844.3208777013213
 20
1830.758106209671
 10
844.0175428733542
 20
1831.898370362711
 10
843.6688522766184
 20
1833.025592268246
 10
843.2753637416853
 20
1834.137968611685
 10
842.8377067662715
 20
1835.233719828175
 10
842.3565815081754
 20
1836.311092949517
 10
841.8327576651753
 20
1837.368364408544
 10
841.2670732436771
 20
1838.40384279646
 10
840.6604332180821
 20
1839.415871568736
 10
840.0138080830217
 20
1840.402831695224
 10
839.328232300773
 20
1841.363144250261
 10
838.6048026463386
 20
1842.295272938615
 10
837.8446764528426
 20
1843.197726553229
 10
837.049069760043
 20
1844.069061360831
 10
836.2192553689279
 20
1844.907883411606
 10
835.3565608055049
 20
1845.71285076921
 10
834.4623661970443
 20
1846.482675657589
 10
833.5381020641685
 20
1847.216126521143
 10
832.5852470323237
 20
1847.912029994949
 10
831.6053254662964
 20
1848.569272781903
 10
830.5999050315532
 20
1849.186803433749
 10
829.5705941863117
 20
1849.763634033176
 10
828.5190396083494
 20
1850.298841774277
 10
827.4469235606714
 20
1850.791570438837
 10
826.3559612002481
 20
1851.241031766103
 10
825.2478978341303
 20
1851.646506713831
 10
824.1245061273289
 20
1852.007346608602
 10
822.9875832669312
 20
1852.322974183559
 10
821.8389480869831
 20
1852.592884501912
 10
820.6804381587433
 20
1852.81664576473
 10
819.5139068509615
 20
1852.993900001725
 10
818.3412203648833
 20
1853.124363643931
 10
817.1642547487268
 20
1853.20782797735
 10
815.984892896405
 20
1853.244159476854
 10
814.8050215352983
 20
1853.233300019795
 10
813.6265282078914
 20
1853.175266978986
 10
812.4512982521101
 20
1853.070153194913
 10
811.2812117851808
 20
1852.918126827209
 10
810.1181406958462
 20
1852.71943108563
 10
808.9639456497403
 20
1852.474383840977
 10
807.8204731127213
 20
1852.183377116567
 10
806.6895523969211
 20
1851.846876461082
 10
805.5729927342348
 20
1851.465420203787
 10
804.4725803819357
 20
1851.039618593321
 10
803.3900757650455
 20
1850.570152821427
 10
802.3272106600295
 20
1850.057773933195
 10
801.2856854243226
 20
1849.503301625542
 10
800.2671662761223
 20
1848.90762293588
 10
799.2732826287934
 20
1848.271690823041
 10
798.3056244841535
 20
1847.596522642748
 10
797.3657398888122
 20
1846.88319852006
 10
796.4551324576237
 20
1846.132859621407
 10
795.5752589682254
 20
1845.346706328962
 10
794.7275270305038
 20
1844.52599632029
 10
793.9132928347195
 20
1843.672042556329
 10
793.133858981892
 20
1842.786211180934
 10
792.3904723999152
 20
1841.869919335338
 10
791.6843223487395
 20
1840.924632891031
 10
791.0165385178097
 20
1839.95186410467
 10
790.3881892188024
 20
1838.953169198803
 10
789.8002796765551
 20
1837.930145872235
 10
789.2537504209212
 20
1836.884430744055
 10
788.7494757821237
 20
1835.817696735395
 10
788.2882624920112
 20
1834.731650393109
 10
787.870848393461
 20
1833.628029159669
 10
787.4979012599874
 20
1832.508598593621
 10
787.170017727446
 20
1831.375149545072
 10
786.8877223395444
 20
1830.229495290711
 10
786.6514667086833
 20
1829.07346863295
 10
786.4616287934734
 20
1827.908918967836
 10
786.3185122940824
 20
1826.73770932641
 10
786.2223461663798
 20
1825.561713394252
 10
786.1732842556551
 20
1824.38281251399
 10
786.1664074431866
 20
1823.74587873007
  0
LWPOLYLINE
  5
212
330
197
100
AcDbEntity
  8
P-SANR-FIXT
100
AcDbPolyline
 90
       80
 70
   128
 43
0.0
 10
786.1664074431866
 20
1823.74587873007
 10
786.1900042966878
 20
1822.566193371564
 10
786.2607571072592
 20
1821.388395257979
 10
786.3785526854974
 20
1820.214368615047
 10
786.5432025836055
 20
1819.04599163495
 10
786.7544433968699
 20
1817.885133471616
 10
787.0119371850517
 20
1816.733651250469
 10
787.3152720130187
 20
1815.593387097429
 10
787.6639626097547
 20
1814.466165191894
 10
788.0574511446877
 20
1813.353788848455
 10
788.4951081201015
 20
1812.258037631965
 10
788.9762333781976
 20
1811.180664510623
 10
789.5000572211976
 20
1810.123393051596
 10
790.0657416426959
 20
1809.087914663679
 10
790.6723816682909
 20
1808.075885891404
 10
791.319006803351
 20
1807.088925764916
 10
792.0045825856001
 20
1806.128613209879
 10
792.7280122400343
 20
1805.196484521525
 10
793.4881384335303
 20
1804.294030906912
 10
794.2837451263299
 20
1803.422696099309
 10
795.1135595174453
 20
1802.583874048534
 10
795.976254080868
 20
1801.778906690929
 10
796.8704486893287
 20
1801.00908180255
 10
797.7947128222045
 20
1800.275630938997
 10
798.7475678540493
 20
1799.57972746519
 10
799.7274894200767
 20
1798.922484678237
 10
800.7329098548199
 20
1798.304954026392
 10
801.7622207000615
 20
1797.728123426964
 10
802.8137752780239
 20
1797.192915685863
 10
803.8858913257017
 20
1796.700187021303
 10
804.976853686125
 20
1796.250725694037
 10
806.0849170522429
 20
1795.845250746308
 10
807.208308759044
 20
1795.484410851537
 10
808.3452316194419
 20
1795.168783276581
 10
809.4938667993901
 20
1794.898872958228
 10
810.6523767276296
 20
1794.675111695411
 10
811.8189080354115
 20
1794.497857458415
 10
812.9915945214897
 20
1794.367393816209
 10
814.1685601376462
 20
1794.28392948279
 10
815.3479219899681
 20
1794.247597983286
 10
816.5277933510749
 20
1794.258457440346
 10
817.7062866784817
 20
1794.316490481154
 10
818.8815166342632
 20
1794.421604265227
 10
820.0516031011922
 20
1794.573630632931
 10
821.2146741905268
 20
1794.77232637451
 10
822.3688692366332
 20
1795.017373619163
 10
823.5123417736517
 20
1795.308380343573
 10
824.6432624894518
 20
1795.644880999058
 10
825.7598221521384
 20
1796.026337256353
 10
826.8602345044374
 20
1796.452138866819
 10
827.9427391213275
 20
1796.921604638713
 10
829.0056042263438
 20
1797.433983526946
 10
830.0471294620503
 20
1797.988455834598
 10
831.0656486102507
 20
1798.58413452426
 10
832.0595322575799
 20
1799.220066637099
 10
833.0271904022195
 20
1799.895234817392
 10
833.9670749975608
 20
1800.60855894008
 10
834.8776824287494
 20
1801.358897838733
 10
835.7575559181478
 20
1802.145051131178
 10
836.6052878558692
 20
1802.96576113985
 10
837.4195220516535
 20
1803.819714903811
 10
838.1989559044811
 20
1804.705546279206
 10
838.9423424864579
 20
1805.621838124802
 10
839.6484925376336
 20
1806.56712456911
 10
840.3162763685632
 20
1807.53989335547
 10
840.9446256675707
 20
1808.538588261337
 10
841.5325352098179
 20
1809.561611587905
 10
842.0790644654516
 20
1810.607326716085
 10
842.5833391042495
 20
1811.674060724746
 10
843.0445523943621
 20
1812.760107067031
 10
843.4619664929121
 20
1813.863728300471
 10
843.8349136263855
 20
1814.983158866519
 10
844.1627971589269
 20
1816.116607915067
 10
844.4450925468286
 20
1817.262262169429
 10
844.6813481776898
 20
1818.41828882719
 10
844.8711860928998
 20
1819.582838492304
 10
845.0143025922907
 20
1820.75404813373
 10
845.1104687199933
 20
1821.930044065888
 10
845.1595306307179
 20
1823.108944946151
 10
845.1664074431864
 20
1823.74587873007
  0
ARC
  5
213
330
197
100
AcDbEntity
  8
P-SANR-FIXT
100
AcDbCircle
 10
815.6664074431848
 20
1823.74587873007
 30
0.0
 40
19.99999999999956
100
AcDbArc
 50
180.0000000000016
 51
185.8531520033801
  0
ARC
  5
214
330
197
100
AcDbEntity
  8
P-SANR-FIXT
100
AcDbCircle
 10
815.6664074431848
 20
1823.74587873007
 30
0.0
 40
19.99999999999947
100
AcDbArc
 50
174.1468479966185
 51
180.0000000000023
  0
SPLINE
  5
215
330
197
100
AcDbEntity
  8
P-SANR-FIXT
100
AcDbSpline
210
0.0
220
0.0
230
1.0
 70
    24
 71
     3
 72
     9
 73
     5
 74
     0
 42
0.000000001
 43
0.0000000001
 40
0.0
 40
0.0
 40
0.0
 40
0.0
 40
0.5
 40
1.0
 40
1.0
 40
1.0
 40
1.0
 10
803.9522108671402
 20
1807.535462369663
 30
0.0
 10
802.6110657343787
 20
1809.858393879929
 30
0.0
 10
799.9063315872819
 20
1814.543130843668
 30
0.0
 10
797.1567096770366
 20
1819.305615693817
 30
0.0
 10
795.7706767811267
 20
1821.706295090495
 30
0.0
  0
ARC
  5
216
330
197
100
AcDbEntity
  8
P-SANR-FIXT
100
AcDbCircle
 10
815.6664074431848
 20
1823.74587873007
 30
0.0
 40
19.99999999999964
100
AcDbArc
 50
234.1468479966168
 51
245.8531520033809
  0
SPLINE
  5
217
330
197
100
AcDbEntity
  8
P-SANR-FIXT
100
AcDbSpline
210
0.0
220
0.0
230
1.0
 70
    24
 71
     3
 72
     9
 73
     5
 74
     0
 42
0.000000001
 43
0.0000000001
 40
0.0
 40
0.0
 40
0.0
 40
0.0
 40
0.5
 40
1.0
 40
1.0
 40
1.0
 40
1.0
 10
823.8479415291982
 20
1805.495878730087
 30
0.0
 10
821.1656512636755
 20
1805.495878730087
 30
0.0
 10
815.7561829694818
 20
1805.495878730087
 30
0.0
 10
810.2569391489909
 20
1805.495878730087
 30
0.0
 10
807.4848733571712
 20
1805.495878730087
 30
0.0
  0
ARC
  5
218
330
197
100
AcDbEntity
  8
P-SANR-FIXT
100
AcDbCircle
 10
815.6664074431848
 20
1823.74587873007
 30
0.0
 40
19.99999999999971
100
AcDbArc
 50
294.1468479966165
 51
305.8531520033807
  0
SPLINE
  5
219
330
197
100
AcDbEntity
  8
P-SANR-FIXT
100
AcDbSpline
210
0.0
220
0.0
230
1.0
 70
    24
 71
     3
 72
     9
 73
     5
 74
     0
 42
0.000000001
 43
0.0000000001
 40
0.0
 40
0.0
 40
0.0
 40
0.0
 40
0.5
 40
1.0
 40
1.0
 40
1.0
 40
1.0
 10
835.5621381052429
 20
1821.706295090494
 30
0.0
 10
834.2209929724816
 20
1819.383363580228
 30
0.0
 10
831.5162588253848
 20
1814.69862661649
 30
0.0
 10
828.7666369151391
 20
1809.93614176634
 30
0.0
 10
827.3806040192294
 20
1807.535462369663
 30
0.0
  0
ARC
  5
21A
330
197
100
AcDbEntity
  8
P-SANR-FIXT
100
AcDbCircle
 10
815.6664074431848
 20
1823.74587873007
 30
0.0
 40
19.9999999999997
100
AcDbArc
 50
359.999999999997
 51
5.853152003381108
  0
ARC
  5
21B
330
197
100
AcDbEntity
  8
P-SANR-FIXT
100
AcDbCircle
 10
815.6664074431848
 20
1823.74587873007
 30
0.0
 40
19.99999999999964
100
AcDbArc
 50
354.1468479966168
 51
359.9999999999965
  0
SPLINE
  5
21C
330
197
100
AcDbEntity
  8
P-SANR-FIXT
100
AcDbSpline
210
0.0
220
0.0
230
1.0
 70
    24
 71
     3
 72
     9
 73
     5
 74
     0
 42
0.000000001
 43
0.0000000001
 40
0.0
 40
0.0
 40
0.0
 40
0.0
 40
0.5
 40
1.0
 40
1.0
 40
1.0
 40
1.0
 10
827.3806040192294
 20
1839.956295090478
 30
0.0
 10
828.7217491519909
 20
1837.633363580211
 30
0.0
 10
831.4264832990879
 20
1832.948626616473
 30
0.0
 10
834.1761052093332
 20
1828.186141766323
 30
0.0
 10
835.5621381052431
 20
1825.785462369645
 30
0.0
  0
ARC
  5
21D
330
197
100
AcDbEntity
  8
P-SANR-FIXT
100
AcDbCircle
 10
815.6664074431848
 20
1823.74587873007
 30
0.0
 40
19.99999999999961
100
AcDbArc
 50
54.14684799661838
 51
65.85315200338214
  0
SPLINE
  5
21E
330
197
100
AcDbEntity
  8
P-SANR-FIXT
100
AcDbSpline
210
0.0
220
0.0
230
1.0
 70
    24
 71
     3
 72
     9
 73
     5
 74
     0
 42
0.000000001
 43
0.0000000001
 40
0.0
 40
0.0
 40
0.0
 40
0.0
 40
0.5
 40
1.0
 40
1.0
 40
1.0
 40
1.0
 10
807.4848733571714
 20
1841.995878730054
 30
0.0
 10
810.167163622694
 20
1841.995878730054
 30
0.0
 10
815.5766319168877
 20
1841.995878730054
 30
0.0
 10
821.0758757373787
 20
1841.995878730054
 30
0.0
 10
823.8479415291983
 20
1841.995878730054
 30
0.0
  0
ARC
  5
21F
330
197
100
AcDbEntity
  8
P-SANR-FIXT
100
AcDbCircle
 10
815.6664074431848
 20
1823.74587873007
 30
0.0
 40
19.99999999999972
100
AcDbArc
 50
114.1468479966181
 51
125.8531520033824
  0
SPLINE
  5
220
330
197
100
AcDbEntity
  8
P-SANR-FIXT
100
AcDbSpline
210
0.0
220
0.0
230
1.0
 70
    24
 71
     3
 72
     9
 73
     5
 74
     0
 42
0.000000001
 43
0.0000000001
 40
0.0
 40
0.0
 40
0.0
 40
0.0
 40
0.5
 40
1.0
 40
1.0
 40
1.0
 40
1.0
 10
795.7706767811267
 20
1825.785462369646
 30
0.0
 10
797.1567096770366
 20
1828.186141766323
 30
0.0
 10
799.9063315872819
 20
1832.948626616473
 30
0.0
 10
802.6110657343789
 20
1837.633363580212
 30
0.0
 10
803.9522108671402
 20
1839.956295090478
 30
0.0
  0
ARC
  5
221
330
197
100
AcDbEntity
  8
P-SANR-FIXT
100
AcDbCircle
 10
815.6664074431851
 20
1823.745878730069
 30
0.0
 40
17.99999999999914
100
AcDbArc
 50
174.3721186371941
 51
175.0
  0
ARC
  5
222
330
197
100
AcDbEntity
  8
P-SANR-FIXT
100
AcDbCircle
 10
815.6664074431851
 20
1823.745878730069
 30
0.0
 40
17.99999999999909
100
AcDbArc
 50
168.7412277815877
 51
170.0000000000009
  0
ARC
  5
223
330
197
100
AcDbEntity
  8
P-SANR-FIXT
100
AcDbCircle
 10
815.6664074431851
 20
1823.745878730069
 30
0.0
 40
17.99999999999907
100
AcDbArc
 50
150.0000000000025
 51
165.0000000000009
  0
ARC
  5
224
330
197
100
AcDbEntity
  8
P-SANR-FIXT
100
AcDbCircle
 10
815.6664074431851
 20
1823.745878730069
 30
0.0
 40
17.99999999999898
100
AcDbArc
 50
145.0000000000028
 51
146.2236392671647
  0
ARC
  5
225
330
197
100
AcDbEntity
  8
P-SANR-FIXT
100
AcDbCircle
 10
815.6664074431851
 20
1823.745878730069
 30
0.0
 40
17.999999999999
100
AcDbArc
 50
140.0000000000033
 51
140.606428494009
  0
ARC
  5
226
330
197
100
AcDbEntity
  8
P-SANR-FIXT
100
AcDbCircle
 10
815.6664074431851
 20
1823.745878730069
 30
0.0
 40
17.99999999999906
100
AcDbArc
 50
129.3935715059911
 51
130.0000000000034
  0
ARC
  5
227
330
197
100
AcDbEntity
  8
P-SANR-FIXT
100
AcDbCircle
 10
815.6664074431851
 20
1823.745878730069
 30
0.0
 40
17.99999999999922
100
AcDbArc
 50
123.776360732835
 51
125.0000000000032
  0
ARC
  5
228
330
197
100
AcDbEntity
  8
P-SANR-FIXT
100
AcDbCircle
 10
815.6664074431851
 20
1823.745878730069
 30
0.0
 40
17.99999999999914
100
AcDbArc
 50
105.0000000000037
 51
120.0000000000031
  0
ARC
  5
229
330
197
100
AcDbEntity
  8
P-SANR-FIXT
100
AcDbCircle
 10
815.6664074431851
 20
1823.745878730069
 30
0.0
 40
17.99999999999917
100
AcDbArc
 50
100.0000000000034
 51
101.2587722184129
  0
ARC
  5
22A
330
197
100
AcDbEntity
  8
P-SANR-FIXT
100
AcDbCircle
 10
815.6664074431851
 20
1823.745878730069
 30
0.0
 40
17.99999999999919
100
AcDbArc
 50
95.00000000000365
 51
95.62788136280621
  0
ARC
  5
22B
330
197
100
AcDbEntity
  8
P-SANR-FIXT
100
AcDbCircle
 10
815.6664074431851
 20
1823.745878730069
 30
0.0
 40
17.99999999999916
100
AcDbArc
 50
84.37211863719449
 51
85.00000000000397
  0
ARC
  5
22C
330
197
100
AcDbEntity
  8
P-SANR-FIXT
100
AcDbCircle
 10
815.6664074431851
 20
1823.745878730069
 30
0.0
 40
17.99999999999917
100
AcDbArc
 50
78.74122778158874
 51
80.00000000000357
  0
ARC
  5
22D
330
197
100
AcDbEntity
  8
P-SANR-FIXT
100
AcDbCircle
 10
815.6664074431851
 20
1823.745878730069
 30
0.0
 40
17.99999999999912
100
AcDbArc
 50
60.00000000000365
 51
75.00000000000362
  0
ARC
  5
22E
330
197
100
AcDbEntity
  8
P-SANR-FIXT
100
AcDbCircle
 10
815.6664074431851
 20
1823.745878730069
 30
0.0
 40
17.99999999999917
100
AcDbArc
 50
55.00000000000329
 51
56.22363926716554
  0
ARC
  5
22F
330
197
100
AcDbEntity
  8
P-SANR-FIXT
100
AcDbCircle
 10
815.6664074431851
 20
1823.745878730069
 30
0.0
 40
17.99999999999918
100
AcDbArc
 50
50.00000000000313
 51
50.60642849400909
  0
ARC
  5
230
330
197
100
AcDbEntity
  8
P-SANR-FIXT
100
AcDbCircle
 10
815.6664074431851
 20
1823.745878730069
 30
0.0
 40
17.99999999999913
100
AcDbArc
 50
39.39357150599093
 51
40.00000000000302
  0
ARC
  5
231
330
197
100
AcDbEntity
  8
P-SANR-FIXT
100
AcDbCircle
 10
815.6664074431851
 20
1823.745878730069
 30
0.0
 40
17.99999999999925
100
AcDbArc
 50
33.77636073283551
 51
35.00000000000266
  0
ARC
  5
232
330
197
100
AcDbEntity
  8
P-SANR-FIXT
100
AcDbCircle
 10
815.6664074431851
 20
1823.745878730069
 30
0.0
 40
17.99999999999924
100
AcDbArc
 50
15.00000000000127
 51
30.00000000000199
  0
ARC
  5
233
330
197
100
AcDbEntity
  8
P-SANR-FIXT
100
AcDbCircle
 10
815.6664074431851
 20
1823.745878730069
 30
0.0
 40
17.99999999999921
100
AcDbArc
 50
10.00000000000055
 51
11.2587722184129
  0
ARC
  5
234
330
197
100
AcDbEntity
  8
P-SANR-FIXT
100
AcDbCircle
 10
815.6664074431851
 20
1823.745878730069
 30
0.0
 40
17.99999999999921
100
AcDbArc
 50
5.000000000000724
 51
5.627881362805854
  0
ARC
  5
235
330
197
100
AcDbEntity
  8
P-SANR-FIXT
100
AcDbCircle
 10
815.6664074431851
 20
1823.745878730069
 30
0.0
 40
17.99999999999912
100
AcDbArc
 50
354.3721186371938
 51
355.0000000000004
  0
ARC
  5
236
330
197
100
AcDbEntity
  8
P-SANR-FIXT
100
AcDbCircle
 10
815.6664074431851
 20
1823.745878730069
 30
0.0
 40
17.99999999999916
100
AcDbArc
 50
348.7412277815875
 51
350.0000000000014
  0
ARC
  5
237
330
197
100
AcDbEntity
  8
P-SANR-FIXT
100
AcDbCircle
 10
815.6664074431851
 20
1823.745878730069
 30
0.0
 40
17.9999999999991
100
AcDbArc
 50
330.0000000000025
 51
345.0000000000015
  0
ARC
  5
238
330
197
100
AcDbEntity
  8
P-SANR-FIXT
100
AcDbCircle
 10
815.6664074431851
 20
1823.745878730069
 30
0.0
 40
17.99999999999911
100
AcDbArc
 50
325.0000000000029
 51
326.2236392671656
  0
ARC
  5
239
330
197
100
AcDbEntity
  8
P-SANR-FIXT
100
AcDbCircle
 10
815.6664074431851
 20
1823.745878730069
 30
0.0
 40
17.99999999999912
100
AcDbArc
 50
320.0000000000041
 51
320.6064284940095
  0
ARC
  5
23A
330
197
100
AcDbEntity
  8
P-SANR-FIXT
100
AcDbCircle
 10
815.6664074431851
 20
1823.745878730069
 30
0.0
 40
17.99999999999911
100
AcDbArc
 50
309.3935715059911
 51
310.0000000000043
  0
ARC
  5
23B
330
197
100
AcDbEntity
  8
P-SANR-FIXT
100
AcDbCircle
 10
815.6664074431851
 20
1823.745878730069
 30
0.0
 40
17.99999999999907
100
AcDbArc
 50
303.7763607328354
 51
305.0000000000042
  0
ARC
  5
23C
330
197
100
AcDbEntity
  8
P-SANR-FIXT
100
AcDbCircle
 10
815.6664074431851
 20
1823.745878730069
 30
0.0
 40
17.99999999999917
100
AcDbArc
 50
285.0000000000049
 51
300.0000000000045
  0
ARC
  5
23D
330
197
100
AcDbEntity
  8
P-SANR-FIXT
100
AcDbCircle
 10
815.6664074431851
 20
1823.745878730069
 30
0.0
 40
17.99999999999919
100
AcDbArc
 50
280.0000000000045
 51
281.2587722184129
  0
ARC
  5
23E
330
197
100
AcDbEntity
  8
P-SANR-FIXT
100
AcDbCircle
 10
815.6664074431851
 20
1823.745878730069
 30
0.0
 40
17.9999999999992
100
AcDbArc
 50
275.0000000000044
 51
275.6278813628063
  0
ARC
  5
23F
330
197
100
AcDbEntity
  8
P-SANR-FIXT
100
AcDbCircle
 10
815.6664074431851
 20
1823.745878730069
 30
0.0
 40
17.99999999999912
100
AcDbArc
 50
264.3721186371945
 51
265.000000000005
  0
ARC
  5
240
330
197
100
AcDbEntity
  8
P-SANR-FIXT
100
AcDbCircle
 10
815.6664074431851
 20
1823.745878730069
 30
0.0
 40
17.99999999999899
100
AcDbArc
 50
258.7412277815882
 51
260.0000000000046
  0
ARC
  5
241
330
197
100
AcDbEntity
  8
P-SANR-FIXT
100
AcDbCircle
 10
815.6664074431851
 20
1823.745878730069
 30
0.0
 40
17.999999999999
100
AcDbArc
 50
240.0000000000043
 51
255.0000000000047
  0
ARC
  5
242
330
197
100
AcDbEntity
  8
P-SANR-FIXT
100
AcDbCircle
 10
815.6664074431851
 20
1823.745878730069
 30
0.0
 40
17.99999999999895
100
AcDbArc
 50
235.0000000000037
 51
236.2236392671657
  0
ARC
  5
243
330
197
100
AcDbEntity
  8
P-SANR-FIXT
100
AcDbCircle
 10
815.6664074431851
 20
1823.745878730069
 30
0.0
 40
17.99999999999912
100
AcDbArc
 50
230.0000000000043
 51
230.6064284940098
  0
ARC
  5
244
330
197
100
AcDbEntity
  8
P-SANR-FIXT
100
AcDbCircle
 10
815.6664074431851
 20
1823.745878730069
 30
0.0
 40
17.9999999999992
100
AcDbArc
 50
219.3935715059911
 51
220.0000000000042
  0
ARC
  5
245
330
197
100
AcDbEntity
  8
P-SANR-FIXT
100
AcDbCircle
 10
815.6664074431851
 20
1823.745878730069
 30
0.0
 40
17.9999999999991
100
AcDbArc
 50
213.7763607328343
 51
215.0000000000041
  0
ARC
  5
246
330
197
100
AcDbEntity
  8
P-SANR-FIXT
100
AcDbCircle
 10
815.6664074431851
 20
1823.745878730069
 30
0.0
 40
17.99999999999916
100
AcDbArc
 50
195.0000000000025
 51
210.0000000000033
  0
ARC
  5
247
330
197
100
AcDbEntity
  8
P-SANR-FIXT
100
AcDbCircle
 10
815.6664074431851
 20
1823.745878730069
 30
0.0
 40
17.99999999999915
100
AcDbArc
 50
190.0000000000016
 51
191.2587722184118
  0
ARC
  5
248
330
197
100
AcDbEntity
  8
P-SANR-FIXT
100
AcDbCircle
 10
815.6664074431851
 20
1823.745878730069
 30
0.0
 40
17.99999999999919
100
AcDbArc
 50
185.0000000000018
 51
185.6278813628055
  0
ARC
  5
249
330
197
100
AcDbEntity
  8
P-SANR-FIXT
100
AcDbCircle
 10
815.6664074431851
 20
1823.745878730069
 30
0.0
 40
20.00000000000005
100
AcDbArc
 50
125.8531520033808
 51
174.1468479966157
  0
ARC
  5
24A
330
197
100
AcDbEntity
  8
P-SANR-FIXT
100
AcDbCircle
 10
815.6664074431851
 20
1823.745878730069
 30
0.0
 40
20.00000000000054
100
AcDbArc
 50
65.85315200338341
 51
114.1468479966174
  0
ARC
  5
24B
330
197
100
AcDbEntity
  8
P-SANR-FIXT
100
AcDbCircle
 10
815.6664074431851
 20
1823.745878730069
 30
0.0
 40
20.00000000000023
100
AcDbArc
 50
5.853152003383563
 51
54.14684799662001
  0
ARC
  5
24C
330
197
100
AcDbEntity
  8
P-SANR-FIXT
100
AcDbCircle
 10
815.6664074431851
 20
1823.745878730069
 30
0.0
 40
19.99999999999931
100
AcDbArc
 50
305.8531520033817
 51
354.1468479966197
  0
ARC
  5
24D
330
197
100
AcDbEntity
  8
P-SANR-FIXT
100
AcDbCircle
 10
815.6664074431851
 20
1823.745878730069
 30
0.0
 40
19.99999999999865
100
AcDbArc
 50
245.8531520033791
 51
294.1468479966176
  0
ARC
  5
24E
330
197
100
AcDbEntity
  8
P-SANR-FIXT
100
AcDbCircle
 10
815.6664074431851
 20
1823.745878730069
 30
0.0
 40
19.99999999999902
100
AcDbArc
 50
185.8531520033788
 51
234.1468479966145
  0
ARC
  5
24F
330
197
100
AcDbEntity
  8
P-SANR-FIXT
100
AcDbCircle
 10
815.6664074431851
 20
1823.74587873007
 30
0.0
 40
17.9999999999992
100
AcDbArc
 50
0.0
 51
180.0
  0
ARC
  5
250
330
197
100
AcDbEntity
  8
P-SANR-FIXT
100
AcDbCircle
 10
815.6664074431851
 20
1823.74587873007
 30
0.0
 40
17.99999999999903
100
AcDbArc
 50
180.0000000000002
 51
0.0000000000002036
  0
ARC
  5
251
330
197
100
AcDbEntity
  8
P-SANR-FIXT
100
AcDbCircle
 10
815.6664074431851
 20
1823.74587873007
 30
0.0
 40
17.15730103535461
100
AcDbArc
 50
0.0000000000001877
 51
180.0000000000002
  0
ARC
  5
252
330
197
100
AcDbEntity
  8
P-SANR-FIXT
100
AcDbCircle
 10
815.6664074431851
 20
1823.74587873007
 30
0.0
 40
17.15730103535451
100
AcDbArc
 50
180.0000000000006
 51
0.0000000000005598
  0
ARC
  5
253
330
197
100
AcDbEntity
  8
P-SANR-FIXT
100
AcDbCircle
 10
815.6664074431851
 20
1823.74587873007
 30
0.0
 40
17.74999999999988
100
AcDbArc
 50
0.0
 51
180.0
  0
ARC
  5
254
330
197
100
AcDbEntity
  8
P-SANR-FIXT
100
AcDbCircle
 10
815.6664074431851
 20
1823.74587873007
 30
0.0
 40
17.74999999999975
100
AcDbArc
 50
180.0000000000002
 51
0.0000000000001527
  0
LINE
  5
255
330
197
100
AcDbEntity
  8
P-SANR-FIXT
100
AcDbLine
 10
857.1664074431847
 20
1840.59587873007
 30
0.0
 11
856.1664074431863
 21
1840.59587873007
 31
0.0
  0
LINE
  5
256
330
197
100
AcDbEntity
  8
P-SANR-FIXT
100
AcDbLine
 10
856.1664074431865
 20
1806.89587873007
 30
0.0
 11
857.1664074431849
 21
1806.89587873007
 31
0.0
  0
LINE
  5
257
330
197
100
AcDbEntity
  8
P-SANR-FIXT
100
AcDbLine
 10
856.1664074431863
 20
1840.59587873007
 30
0.0
 11
856.1289920298651
 21
1840.531073333211
 31
0.0
  0
LINE
  5
258
330
197
100
AcDbEntity
  8
P-SANR-FIXT
100
AcDbLine
 10
856.1195627691049
 20
1840.514741374497
 30
0.0
 11
855.5313221470777
 21
1839.49587873007
 31
0.0
  0
LINE
  5
259
330
197
100
AcDbEntity
  8
P-SANR-FIXT
100
AcDbLine
 10
855.5313221470781
 20
1807.995878730071
 30
0.0
 11
856.1195627691049
 21
1806.977016085644
 31
0.0
  0
LINE
  5
25A
330
197
100
AcDbEntity
  8
P-SANR-FIXT
100
AcDbLine
 10
856.1289920298651
 20
1806.960684126929
 30
0.0
 11
856.1664074431865
 21
1806.89587873007
 31
0.0
  0
LINE
  5
25B
330
197
100
AcDbEntity
  8
P-SANR-FIXT
100
AcDbLine
 10
853.7992713395089
 20
1838.49587873007
 30
0.0
 11
847.6664074431864
 21
1838.495878730071
 31
0.0
  0
LINE
  5
25C
330
197
100
AcDbEntity
  8
P-SANR-FIXT
100
AcDbLine
 10
789.5555035670152
 20
1838.49587873007
 30
0.0
 11
783.5335435468638
 21
1838.49587873007
 31
0.0
  0
LINE
  5
25D
330
197
100
AcDbEntity
  8
P-SANR-FIXT
100
AcDbLine
 10
783.5335435468639
 20
1808.99587873007
 30
0.0
 11
789.5555035670154
 21
1808.99587873007
 31
0.0
  0
LINE
  5
25E
330
197
100
AcDbEntity
  8
P-SANR-FIXT
100
AcDbLine
 10
847.6664074431864
 20
1808.99587873007
 30
0.0
 11
853.7992713395091
 21
1808.99587873007
 31
0.0
  0
LINE
  5
25F
330
197
100
AcDbEntity
  8
P-SANR-FIXT
100
AcDbLine
 10
781.8014927392948
 20
1839.49587873007
 30
0.0
 11
781.2132521172681
 21
1840.514741374496
 31
0.0
  0
LINE
  5
260
330
197
100
AcDbEntity
  8
P-SANR-FIXT
100
AcDbLine
 10
781.2038228565077
 20
1840.531073333211
 30
0.0
 11
781.1664074431863
 21
1840.59587873007
 31
0.0
  0
LINE
  5
261
330
197
100
AcDbEntity
  8
P-SANR-FIXT
100
AcDbLine
 10
781.1664074431866
 20
1806.89587873007
 30
0.0
 11
781.203822856508
 21
1806.960684126929
 31
0.0
  0
LINE
  5
262
330
197
100
AcDbEntity
  8
P-SANR-FIXT
100
AcDbLine
 10
781.2132521172683
 20
1806.977016085643
 30
0.0
 11
781.8014927392949
 21
1807.99587873007
 31
0.0
  0
LINE
  5
263
330
197
100
AcDbEntity
  8
P-SANR-FIXT
100
AcDbLine
 10
781.1664074431863
 20
1840.59587873007
 30
0.0
 11
780.166407443188
 21
1840.59587873007
 31
0.0
  0
LINE
  5
264
330
197
100
AcDbEntity
  8
P-SANR-FIXT
100
AcDbLine
 10
780.1664074431883
 20
1806.89587873007
 30
0.0
 11
781.1664074431866
 21
1806.89587873007
 31
0.0
  0
LWPOLYLINE
  5
265
330
197
100
AcDbEntity
  8
P-SANR-FIXT
100
AcDbPolyline
 90
       28
 70
   128
 43
0.0
 10
853.7992713395089
 20
1838.49587873007
 10
853.8792500078821
 20
1838.497478516748
 10
853.9591007274474
 20
1838.502275317465
 10
854.0386957540867
 20
1838.510261458363
 10
854.1179077527374
 20
1838.521424163319
 10
854.196610001099
 20
1838.535745574387
 10
854.2746765923633
 20
1838.553202780366
 10
854.3519826366372
 20
1838.573767853448
 10
854.4284044607412
 20
1838.597407893905
 10
854.503819806059
 20
1838.624085082714
 10
854.578108024126
 20
1838.653756742064
 10
854.6511502696409
 20
1838.68637540363
 10
854.7228296905919
 20
1838.721888884512
 10
854.7930316151964
 20
1838.760240370715
 10
854.8616437353507
 20
1838.801368508043
 10
854.9285562862989
 20
1838.84520750025
 10
854.9936622222336
 20
1838.891687214301
 10
855.0568573875457
 20
1838.940733292568
 10
855.1180406834518
 20
1838.992267271788
 10
855.1771142297299
 20
1839.046206708588
 10
855.2339835213077
 20
1839.102465311376
 10
855.2885575794507
 20
1839.160953078388
 10
855.340749097307
 20
1839.221576441673
 10
855.3904745795815
 20
1839.284238416783
 10
855.4376544761108
 20
1839.348838757925
 10
855.4822133091246
 20
1839.415274118334
 10
855.5240797939955
 20
1839.483438215604
 10
855.5313221470777
 20
1839.49587873007
  0
LWPOLYLINE
  5
266
330
197
100
AcDbEntity
  8
P-SANR-FIXT
100
AcDbPolyline
 90
       28
 70
   128
 43
0.0
 10
855.5313221470781
 20
1807.995878730071
 10
855.4899473569875
 20
1808.064342395303
 10
855.4458678459274
 20
1808.131096746599
 10
855.3991541317122
 20
1808.196034991235
 10
855.3498809463196
 20
1808.259053241872
 10
855.2981271163352
 20
1808.320050682755
 10
855.2439754368467
 20
1808.378929730986
 10
855.1875125389896
 20
1808.435596192653
 10
855.1288287513557
 20
1808.489959413502
 10
855.0680179554865
 20
1808.541932423979
 10
855.0051774356834
 20
1808.591432078351
 10
854.9404077233726
 20
1808.638379187733
 10
854.8738124362769
 20
1808.682698646765
 10
854.8054981126497
 20
1808.724319553765
 10
854.7355740408359
 20
1808.763175324162
 10
854.6641520844337
 20
1808.799203797011
 10
854.5913465033377
 20
1808.832347334443
 10
854.5172737709467
 20
1808.862552913866
 10
854.442052387831
 20
1808.889772212798
 10
854.3658026921573
 20
1808.913961686167
 10
854.2886466671729
 20
1808.935082635974
 10
854.2107077460586
 20
1808.953101273208
 10
854.1321106144627
 20
1808.967988771891
 10
854.0529810110284
 20
1808.979721315201
 10
853.9734455262415
 20
1808.988280133572
 10
853.8936313999114
 20
1808.993651534721
 10
853.8136663176135
 20
1808.995826925551
 10
853.7992713395091
 20
1808.99587873007
  0
LWPOLYLINE
  5
267
330
197
100
AcDbEntity
  8
P-SANR-FIXT
100
AcDbPolyline
 90
       28
 70
   128
 43
0.0
 10
781.8014927392948
 20
1839.49587873007
 10
781.8428675293853
 20
1839.427415064837
 10
781.8869470404455
 20
1839.360660713541
 10
781.9336607546606
 20
1839.295722468905
 10
781.9829339400532
 20
1839.232704218268
 10
782.0346877700375
 20
1839.171706777386
 10
782.088839449526
 20
1839.112827729153
 10
782.1453023473833
 20
1839.056161267487
 10
782.2039861350171
 20
1839.001798046638
 10
782.2647969308863
 20
1838.949825036162
 10
782.3276374506895
 20
1838.900325381789
 10
782.3924071630004
 20
1838.853378272407
 10
782.459002450096
 20
1838.809058813376
 10
782.5273167737231
 20
1838.767437906375
 10
782.5972408455369
 20
1838.728582135978
 10
782.6686628019391
 20
1838.692553663129
 10
782.7414683830351
 20
1838.659410125697
 10
782.815541115426
 20
1838.629204546274
 10
782.8907624985418
 20
1838.601985247342
 10
782.9670121942155
 20
1838.577795773973
 10
783.0441682191999
 20
1838.556674824166
 10
783.122107140314
 20
1838.538656186932
 10
783.2007042719103
 20
1838.52376868825
 10
783.2798338753443
 20
1838.512036144939
 10
783.3593693601311
 20
1838.503477326568
 10
783.4391834864613
 20
1838.498105925419
 10
783.5191485687594
 20
1838.495930534589
 10
783.5335435468638
 20
1838.49587873007
  0
LWPOLYLINE
  5
268
330
197
100
AcDbEntity
  8
P-SANR-FIXT
100
AcDbPolyline
 90
       28
 70
   128
 43
0.0
 10
783.5335435468639
 20
1808.99587873007
 10
783.4535648784906
 20
1808.994278943392
 10
783.3737141589256
 20
1808.989482142675
 10
783.2941191322859
 20
1808.981496001777
 10
783.2149071336353
 20
1808.970333296821
 10
783.1362048852736
 20
1808.956011885752
 10
783.0581382940096
 20
1808.938554679774
 10
782.9808322497356
 20
1808.917989606691
 10
782.9044104256317
 20
1808.894349566235
 10
782.8289950803138
 20
1808.867672377426
 10
782.7547068622465
 20
1808.838000718076
 10
782.681664616732
 20
1808.80538205651
 10
782.6099851957809
 20
1808.769868575629
 10
782.5397832711765
 20
1808.731517089425
 10
782.4711711510222
 20
1808.690388952097
 10
782.4042586000739
 20
1808.646549959889
 10
782.3391526641393
 20
1808.600070245838
 10
782.2759574988269
 20
1808.551024167572
 10
782.2147742029211
 20
1808.499490188352
 10
782.155700656643
 20
1808.445550751551
 10
782.0988313650649
 20
1808.389292148764
 10
782.0442573069223
 20
1808.330804381753
 10
781.992065789066
 20
1808.270181018467
 10
781.9423403067913
 20
1808.207519043357
 10
781.8951604102619
 20
1808.142918702215
 10
781.8506015772481
 20
1808.076483341806
 10
781.8087350923773
 20
1808.008319244535
 10
781.8014927392953
 20
1807.99587873007
  0
LINE
  5
269
330
197
100
AcDbEntity
  8
P-SANR-FIXT
100
AcDbLine
 10
829.6664074431863
 20
1853.745878730037
 30
0.0
 11
829.6664074431863
 21
1850.247207894155
 31
0.0
  0
LINE
  5
26A
330
197
100
AcDbEntity
  8
P-SANR-FIXT
100
AcDbLine
 10
829.6664074431866
 20
1797.244549565985
 30
0.0
 11
829.6664074431866
 21
1793.74587873007
 31
0.0
  0
LINE
  5
26B
330
197
100
AcDbEntity
  8
P-SANR-FIXT
100
AcDbLine
 10
847.6664074431866
 20
1793.74587873007
 30
0.0
 11
847.6664074431864
 21
1808.99587873007
 31
0.0
  0
LINE
  5
26C
330
197
100
AcDbEntity
  8
P-SANR-FIXT
100
AcDbLine
 10
847.6664074431864
 20
1838.49587873007
 30
0.0
 11
847.6664074431862
 21
1853.745878730038
 31
0.0
  0
SPLINE
  5
26D
330
197
100
AcDbEntity
  8
P-SANR-FIXT
100
AcDbSpline
210
0.0
220
0.0
230
1.0
 70
     8
 71
     3
 72
     8
 73
     4
 74
     0
 42
0.000000001
 43
0.0000000001
 40
0.1666666666666666
 40
0.1666666666666666
 40
0.1666666666666666
 40
0.1666666666666666
 40
0.3333333333333333
 40
0.3333333333333333
 40
0.3333333333333333
 40
0.3333333333333333
 10
786.2484764057393
 20
1829.626811180743
 30
0.0
 10
786.1749402367087
 20
1829.258968557746
 30
0.0
 10
786.1014614151758
 20
1828.889536856874
 30
0.0
 10
786.0376424289236
 20
1828.513292720323
 30
0.0
  0
SPLINE
  5
26E
330
197
100
AcDbEntity
  8
P-SANR-FIXT
100
AcDbSpline
210
0.0
220
0.0
230
1.0
 70
     8
 71
     3
 72
     8
 73
     4
 74
     0
 42
0.000000001
 43
0.0000000001
 40
0.5
 40
0.5
 40
0.5
 40
0.5
 40
1.0
 40
1.0
 40
1.0
 40
1.0
 10
785.8847674637907
 20
1827.358899645831
 30
0.0
 10
785.7436089879203
 20
1826.195271230643
 30
0.0
 10
785.6664074431853
 20
1824.98826671996
 30
0.0
 10
785.6664074431853
 20
1823.745878730069
 30
0.0
  0
ARC
  5
26F
330
197
100
AcDbEntity
  8
P-SANR-FIXT
100
AcDbCircle
 10
815.6664074431851
 20
1823.745878730069
 30
0.0
 40
29.99999999999989
100
AcDbArc
 50
0.0000000000008685
 51
180.0000000000001
  0
SPLINE
  5
270
330
197
100
AcDbEntity
  8
P-SANR-FIXT
100
AcDbSpline
210
0.0
220
0.0
230
1.0
 70
     8
 71
     3
 72
     8
 73
     4
 74
     0
 42
0.000000001
 43
0.0000000001
 40
0.0
 40
0.0
 40
0.0
 40
0.0
 40
0.5
 40
0.5
 40
0.5
 40
0.5
 10
845.6664074431852
 20
1823.74587873007
 30
0.0
 10
845.6664074431852
 20
1824.988635157634
 30
0.0
 10
845.5891607307808
 20
1826.195822383432
 30
0.0
 10
845.4479808588752
 20
1827.359448279126
 30
0.0
  0
SPLINE
  5
271
330
197
100
AcDbEntity
  8
P-SANR-FIXT
100
AcDbSpline
210
0.0
220
0.0
230
1.0
 70
     8
 71
     3
 72
     8
 73
     4
 74
     0
 42
0.000000001
 43
0.0000000001
 40
0.6666666666666666
 40
0.6666666666666666
 40
0.6666666666666666
 40
0.6666666666666666
 40
0.8333333333333332
 40
0.8333333333333332
 40
0.8333333333333332
 40
0.8333333333333332
 10
845.2859776249161
 20
1828.508365460583
 30
0.0
 10
845.2251979899497
 20
1828.886372192701
 30
0.0
 10
845.1519179051025
 20
1829.254039681201
 30
0.0
 10
845.0754517463961
 20
1829.619145892655
 30
0.0
  0
SPLINE
  5
272
330
197
100
AcDbEntity
  8
P-SANR-FIXT
100
AcDbSpline
210
0.0
220
0.0
230
1.0
 70
     8
 71
     3
 72
     8
 73
     4
 74
     0
 42
0.000000001
 43
0.0000000001
 40
0.1666666666666793
 40
0.1666666666666793
 40
0.1666666666666793
 40
0.1666666666666793
 40
0.3333333333333333
 40
0.3333333333333333
 40
0.3333333333333333
 40
0.3333333333333333
 10
845.0842784313039
 20
1817.864645330044
 30
0.0
 10
845.1578023617077
 20
1818.232406953978
 30
0.0
 10
845.2312759534462
 20
1818.601760726397
 30
0.0
 10
845.295094570161
 20
1818.977955187995
 30
0.0
  0
SPLINE
  5
273
330
197
100
AcDbEntity
  8
P-SANR-FIXT
100
AcDbSpline
210
0.0
220
0.0
230
1.0
 70
     8
 71
     3
 72
     8
 73
     4
 74
     0
 42
0.000000001
 43
0.0000000001
 40
0.5
 40
0.5
 40
0.5
 40
0.5
 40
1.0
 40
1.0
 40
1.0
 40
1.0
 10
845.4479808588752
 20
1820.132309181013
 30
0.0
 10
845.5891607307808
 20
1821.295935076707
 30
0.0
 10
845.6664074431852
 20
1822.503122302505
 30
0.0
 10
845.6664074431852
 20
1823.745878730069
 30
0.0
  0
ARC
  5
274
330
197
100
AcDbEntity
  8
P-SANR-FIXT
100
AcDbCircle
 10
815.6664074431851
 20
1823.745878730069
 30
0.0
 40
30.0
100
AcDbArc
 50
180.0000000000001
 51
0.0
  0
SPLINE
  5
275
330
197
100
AcDbEntity
  8
P-SANR-FIXT
100
AcDbSpline
210
0.0
220
0.0
230
1.0
 70
     8
 71
     3
 72
     8
 73
     4
 74
     0
 42
0.000000001
 43
0.0000000001
 40
0.0
 40
0.0
 40
0.0
 40
0.0
 40
0.5
 40
0.5
 40
0.5
 40
0.5
 10
785.6664074431853
 20
1823.745878730069
 30
0.0
 10
785.6664074431853
 20
1822.503122302505
 30
0.0
 10
785.7436541555896
 20
1821.295935076707
 30
0.0
 10
785.8848340274952
 20
1820.132309181013
 30
0.0
  0
SPLINE
  5
276
330
197
100
AcDbEntity
  8
P-SANR-FIXT
100
AcDbSpline
210
0.0
220
0.0
230
1.0
 70
     8
 71
     3
 72
     8
 73
     4
 74
     0
 42
0.000000001
 43
0.0000000001
 40
0.6666666666666666
 40
0.6666666666666666
 40
0.6666666666666666
 40
0.6666666666666666
 40
0.8333333333333332
 40
0.8333333333333332
 40
0.8333333333333332
 40
0.8333333333333332
 10
786.0468372614543
 20
1818.983391999556
 30
0.0
 10
786.1076168964207
 20
1818.605385267438
 30
0.0
 10
786.1808969812678
 20
1818.237717778938
 30
0.0
 10
786.2573631399742
 20
1817.872611567484
 30
0.0
  0
ARC
  5
277
330
197
100
AcDbEntity
  8
P-SANR-FIXT
100
AcDbCircle
 10
815.6664074431851
 20
1823.745878730069
 30
0.0
 40
29.50000000000001
100
AcDbArc
 50
4.512045372412835
 51
5.000000000000246
  0
ARC
  5
278
330
197
100
AcDbEntity
  8
P-SANR-FIXT
100
AcDbCircle
 10
815.6664074431851
 20
1823.745878730069
 30
0.0
 40
29.50000000000012
100
AcDbArc
 50
9.004900680460119
 51
10.0000000000003
  0
ARC
  5
279
330
197
100
AcDbEntity
  8
P-SANR-FIXT
100
AcDbCircle
 10
815.6664074431851
 20
1823.745878730069
 30
0.0
 40
29.5000000000001
100
AcDbArc
 50
13.51042486647166
 51
15.00000000000058
  0
ARC
  5
27A
330
197
100
AcDbEntity
  8
P-SANR-FIXT
100
AcDbCircle
 10
815.6664074431851
 20
1823.745878730069
 30
0.0
 40
29.49999999999998
100
AcDbArc
 50
18.01666386288506
 51
27.0271086372937
  0
ARC
  5
27B
330
197
100
AcDbEntity
  8
P-SANR-FIXT
100
AcDbCircle
 10
815.6664074431851
 20
1823.745878730069
 30
0.0
 40
29.50000000000001
100
AcDbArc
 50
30.00000000000018
 51
31.52892460084712
  0
ARC
  5
27C
330
197
100
AcDbEntity
  8
P-SANR-FIXT
100
AcDbCircle
 10
815.6664074431851
 20
1823.745878730069
 30
0.0
 40
29.50000000000001
100
AcDbArc
 50
35.00000000000026
 51
36.02648281026503
  0
ARC
  5
27D
330
197
100
AcDbEntity
  8
P-SANR-FIXT
100
AcDbCircle
 10
815.6664074431851
 20
1823.745878730069
 30
0.0
 40
29.49999999999992
100
AcDbArc
 50
40.00000000000002
 51
40.51776464841773
  0
ARC
  5
27E
330
197
100
AcDbEntity
  8
P-SANR-FIXT
100
AcDbCircle
 10
815.6664074431851
 20
1823.745878730069
 30
0.0
 40
29.49999999999994
100
AcDbArc
 50
49.4822353515825
 51
50.0000000000005
  0
ARC
  5
27F
330
197
100
AcDbEntity
  8
P-SANR-FIXT
100
AcDbCircle
 10
815.6664074431851
 20
1823.745878730069
 30
0.0
 40
29.50000000000005
100
AcDbArc
 50
53.97351718973546
 51
55.0000000000004
  0
ARC
  5
280
330
197
100
AcDbEntity
  8
P-SANR-FIXT
100
AcDbCircle
 10
815.6664074431851
 20
1823.745878730069
 30
0.0
 40
29.50000000000006
100
AcDbArc
 50
58.47107539915353
 51
60.00000000000044
  0
ARC
  5
281
330
197
100
AcDbEntity
  8
P-SANR-FIXT
100
AcDbCircle
 10
815.6664074431851
 20
1823.745878730069
 30
0.0
 40
29.50000000000001
100
AcDbArc
 50
62.97289136270607
 51
71.98333613711492
  0
ARC
  5
282
330
197
100
AcDbEntity
  8
P-SANR-FIXT
100
AcDbCircle
 10
815.6664074431851
 20
1823.745878730069
 30
0.0
 40
29.49999999999994
100
AcDbArc
 50
75.00000000000023
 51
76.48957513352818
  0
ARC
  5
283
330
197
100
AcDbEntity
  8
P-SANR-FIXT
100
AcDbCircle
 10
815.6664074431851
 20
1823.745878730069
 30
0.0
 40
29.49999999999994
100
AcDbArc
 50
80.0000000000004
 51
80.99509931953985
  0
ARC
  5
284
330
197
100
AcDbEntity
  8
P-SANR-FIXT
100
AcDbCircle
 10
815.6664074431851
 20
1823.745878730069
 30
0.0
 40
29.49999999999993
100
AcDbArc
 50
85.00000000000019
 51
85.49891417052091
  0
ARC
  5
285
330
197
100
AcDbEntity
  8
P-SANR-FIXT
100
AcDbCircle
 10
815.6664074431851
 20
1823.745878730069
 30
0.0
 40
29.49999999999999
100
AcDbArc
 50
94.50108582947933
 51
95.00000000000028
  0
ARC
  5
286
330
197
100
AcDbEntity
  8
P-SANR-FIXT
100
AcDbCircle
 10
815.6664074431851
 20
1823.745878730069
 30
0.0
 40
29.49999999999999
100
AcDbArc
 50
99.00490068046032
 51
100.0000000000003
  0
ARC
  5
287
330
197
100
AcDbEntity
  8
P-SANR-FIXT
100
AcDbCircle
 10
815.6664074431851
 20
1823.745878730069
 30
0.0
 40
29.50000000000002
100
AcDbArc
 50
103.5104248664721
 51
105.0000000000003
  0
ARC
  5
288
330
197
100
AcDbEntity
  8
P-SANR-FIXT
100
AcDbCircle
 10
815.6664074431851
 20
1823.745878730069
 30
0.0
 40
29.49999999999998
100
AcDbArc
 50
108.0166638628853
 51
117.0271086372939
  0
ARC
  5
289
330
197
100
AcDbEntity
  8
P-SANR-FIXT
100
AcDbCircle
 10
815.6664074431851
 20
1823.745878730069
 30
0.0
 40
29.50000000000001
100
AcDbArc
 50
120.0000000000002
 51
121.5289246008465
  0
ARC
  5
28A
330
197
100
AcDbEntity
  8
P-SANR-FIXT
100
AcDbCircle
 10
815.6664074431851
 20
1823.745878730069
 30
0.0
 40
29.49999999999992
100
AcDbArc
 50
125.0000000000003
 51
126.0264828102648
  0
ARC
  5
28B
330
197
100
AcDbEntity
  8
P-SANR-FIXT
100
AcDbCircle
 10
815.6664074431851
 20
1823.745878730069
 30
0.0
 40
29.49999999999992
100
AcDbArc
 50
130.0000000000003
 51
130.5177646484181
  0
ARC
  5
28C
330
197
100
AcDbEntity
  8
P-SANR-FIXT
100
AcDbCircle
 10
815.6664074431851
 20
1823.745878730069
 30
0.0
 40
29.49999999999993
100
AcDbArc
 50
139.4822353515821
 51
140.0000000000004
  0
ARC
  5
28D
330
197
100
AcDbEntity
  8
P-SANR-FIXT
100
AcDbCircle
 10
815.6664074431851
 20
1823.745878730069
 30
0.0
 40
29.50000000000005
100
AcDbArc
 50
143.9735171897353
 51
145.0000000000001
  0
ARC
  5
28E
330
197
100
AcDbEntity
  8
P-SANR-FIXT
100
AcDbCircle
 10
815.6664074431851
 20
1823.745878730069
 30
0.0
 40
29.49999999999997
100
AcDbArc
 50
148.4710753991532
 51
150.0000000000003
  0
ARC
  5
28F
330
197
100
AcDbEntity
  8
P-SANR-FIXT
100
AcDbCircle
 10
815.6664074431851
 20
1823.745878730069
 30
0.0
 40
29.49999999999996
100
AcDbArc
 50
152.9728913627061
 51
161.9833361371144
  0
ARC
  5
290
330
197
100
AcDbEntity
  8
P-SANR-FIXT
100
AcDbCircle
 10
815.6664074431851
 20
1823.745878730069
 30
0.0
 40
29.49999999999994
100
AcDbArc
 50
165.0000000000001
 51
166.4895751335281
  0
ARC
  5
291
330
197
100
AcDbEntity
  8
P-SANR-FIXT
100
AcDbCircle
 10
815.6664074431851
 20
1823.745878730069
 30
0.0
 40
29.49999999999996
100
AcDbArc
 50
169.9999999999998
 51
170.9950993195399
  0
ARC
  5
292
330
197
100
AcDbEntity
  8
P-SANR-FIXT
100
AcDbCircle
 10
815.6664074431851
 20
1823.745878730069
 30
0.0
 40
29.49999999999994
100
AcDbArc
 50
175.0000000000002
 51
175.4879546275867
  0
ARC
  5
293
330
197
100
AcDbEntity
  8
P-SANR-FIXT
100
AcDbCircle
 10
815.6664074431851
 20
1823.745878730069
 30
0.0
 40
29.50000000000002
100
AcDbArc
 50
184.5010858294794
 51
184.9999999999999
  0
ARC
  5
294
330
197
100
AcDbEntity
  8
P-SANR-FIXT
100
AcDbCircle
 10
815.6664074431851
 20
1823.745878730069
 30
0.0
 40
29.49999999999995
100
AcDbArc
 50
189.0049006804606
 51
189.9999999999994
  0
ARC
  5
295
330
197
100
AcDbEntity
  8
P-SANR-FIXT
100
AcDbCircle
 10
815.6664074431851
 20
1823.745878730069
 30
0.0
 40
29.49999999999999
100
AcDbArc
 50
193.5104248664724
 51
194.9999999999995
  0
ARC
  5
296
330
197
100
AcDbEntity
  8
P-SANR-FIXT
100
AcDbCircle
 10
815.6664074431851
 20
1823.745878730069
 30
0.0
 40
29.50000000000001
100
AcDbArc
 50
198.016663862886
 51
207.0271086372942
  0
ARC
  5
297
330
197
100
AcDbEntity
  8
P-SANR-FIXT
100
AcDbCircle
 10
815.6664074431851
 20
1823.745878730069
 30
0.0
 40
29.5
100
AcDbArc
 50
209.9999999999996
 51
211.5289246008471
  0
ARC
  5
298
330
197
100
AcDbEntity
  8
P-SANR-FIXT
100
AcDbCircle
 10
815.6664074431851
 20
1823.745878730069
 30
0.0
 40
29.49999999999988
100
AcDbArc
 50
214.9999999999992
 51
216.0264828102653
  0
ARC
  5
299
330
197
100
AcDbEntity
  8
P-SANR-FIXT
100
AcDbCircle
 10
815.6664074431851
 20
1823.745878730069
 30
0.0
 40
29.50000000000003
100
AcDbArc
 50
219.9999999999993
 51
220.5177646484182
  0
ARC
  5
29A
330
197
100
AcDbEntity
  8
P-SANR-FIXT
100
AcDbCircle
 10
815.6664074431851
 20
1823.745878730069
 30
0.0
 40
29.50000000000004
100
AcDbArc
 50
229.4822353515826
 51
229.9999999999994
  0
ARC
  5
29B
330
197
100
AcDbEntity
  8
P-SANR-FIXT
100
AcDbCircle
 10
815.6664074431851
 20
1823.745878730069
 30
0.0
 40
29.50000000000001
100
AcDbArc
 50
233.9735171897356
 51
234.9999999999993
  0
ARC
  5
29C
330
197
100
AcDbEntity
  8
P-SANR-FIXT
100
AcDbCircle
 10
815.6664074431851
 20
1823.745878730069
 30
0.0
 40
29.50000000000008
100
AcDbArc
 50
238.4710753991538
 51
239.9999999999998
  0
ARC
  5
29D
330
197
100
AcDbEntity
  8
P-SANR-FIXT
100
AcDbCircle
 10
815.6664074431851
 20
1823.745878730069
 30
0.0
 40
29.4999999999999
100
AcDbArc
 50
242.9728913627065
 51
251.9833361371154
  0
ARC
  5
29E
330
197
100
AcDbEntity
  8
P-SANR-FIXT
100
AcDbCircle
 10
815.6664074431851
 20
1823.745878730069
 30
0.0
 40
29.49999999999989
100
AcDbArc
 50
254.9999999999994
 51
256.4895751335285
  0
ARC
  5
29F
330
197
100
AcDbEntity
  8
P-SANR-FIXT
100
AcDbCircle
 10
815.6664074431851
 20
1823.745878730069
 30
0.0
 40
29.50000000000002
100
AcDbArc
 50
259.9999999999992
 51
260.9950993195398
  0
ARC
  5
2A0
330
197
100
AcDbEntity
  8
P-SANR-FIXT
100
AcDbCircle
 10
815.6664074431851
 20
1823.745878730069
 30
0.0
 40
29.49999999999995
100
AcDbArc
 50
264.9999999999994
 51
265.4989141705207
  0
ARC
  5
2A1
330
197
100
AcDbEntity
  8
P-SANR-FIXT
100
AcDbCircle
 10
815.6664074431851
 20
1823.745878730069
 30
0.0
 40
29.50000000000002
100
AcDbArc
 50
274.5010858294798
 51
274.9999999999994
  0
ARC
  5
2A2
330
197
100
AcDbEntity
  8
P-SANR-FIXT
100
AcDbCircle
 10
815.6664074431851
 20
1823.745878730069
 30
0.0
 40
29.50000000000017
100
AcDbArc
 50
279.0049006804608
 51
279.9999999999991
  0
ARC
  5
2A3
330
197
100
AcDbEntity
  8
P-SANR-FIXT
100
AcDbCircle
 10
815.6664074431851
 20
1823.745878730069
 30
0.0
 40
29.50000000000018
100
AcDbArc
 50
283.5104248664722
 51
284.9999999999992
  0
ARC
  5
2A4
330
197
100
AcDbEntity
  8
P-SANR-FIXT
100
AcDbCircle
 10
815.6664074431851
 20
1823.745878730069
 30
0.0
 40
29.50000000000009
100
AcDbArc
 50
288.0166638628855
 51
297.027108637294
  0
ARC
  5
2A5
330
197
100
AcDbEntity
  8
P-SANR-FIXT
100
AcDbCircle
 10
815.6664074431851
 20
1823.745878730069
 30
0.0
 40
29.50000000000014
100
AcDbArc
 50
299.9999999999989
 51
301.5289246008468
  0
ARC
  5
2A6
330
197
100
AcDbEntity
  8
P-SANR-FIXT
100
AcDbCircle
 10
815.6664074431851
 20
1823.745878730069
 30
0.0
 40
29.50000000000001
100
AcDbArc
 50
304.9999999999989
 51
306.0264828102646
  0
ARC
  5
2A7
330
197
100
AcDbEntity
  8
P-SANR-FIXT
100
AcDbCircle
 10
815.6664074431851
 20
1823.745878730069
 30
0.0
 40
29.50000000000004
100
AcDbArc
 50
309.9999999999991
 51
310.5177646484175
  0
ARC
  5
2A8
330
197
100
AcDbEntity
  8
P-SANR-FIXT
100
AcDbCircle
 10
815.6664074431851
 20
1823.745878730069
 30
0.0
 40
29.50000000000003
100
AcDbArc
 50
319.4822353515822
 51
319.9999999999989
  0
ARC
  5
2A9
330
197
100
AcDbEntity
  8
P-SANR-FIXT
100
AcDbCircle
 10
815.6664074431851
 20
1823.745878730069
 30
0.0
 40
29.50000000000008
100
AcDbArc
 50
323.9735171897353
 51
324.9999999999986
  0
ARC
  5
2AA
330
197
100
AcDbEntity
  8
P-SANR-FIXT
100
AcDbCircle
 10
815.6664074431851
 20
1823.745878730069
 30
0.0
 40
29.50000000000016
100
AcDbArc
 50
328.4710753991532
 51
329.9999999999984
  0
ARC
  5
2AB
330
197
100
AcDbEntity
  8
P-SANR-FIXT
100
AcDbCircle
 10
815.6664074431851
 20
1823.745878730069
 30
0.0
 40
29.49999999999996
100
AcDbArc
 50
332.9728913627061
 51
341.9833361371146
  0
ARC
  5
2AC
330
197
100
AcDbEntity
  8
P-SANR-FIXT
100
AcDbCircle
 10
815.6664074431851
 20
1823.745878730069
 30
0.0
 40
29.49999999999995
100
AcDbArc
 50
344.9999999999984
 51
346.4895751335277
  0
ARC
  5
2AD
330
197
100
AcDbEntity
  8
P-SANR-FIXT
100
AcDbCircle
 10
815.6664074431851
 20
1823.745878730069
 30
0.0
 40
29.50000000000004
100
AcDbArc
 50
349.9999999999981
 51
350.9950993195396
  0
ARC
  5
2AE
330
197
100
AcDbEntity
  8
P-SANR-FIXT
100
AcDbCircle
 10
815.6664074431851
 20
1823.745878730069
 30
0.0
 40
29.49999999999997
100
AcDbArc
 50
354.9999999999985
 51
355.4989141705203
  0
LINE
  5
2AF
330
197
100
AcDbEntity
  8
P-SANR-FIXT
100
AcDbLine
 10
780.166407443187
 20
1832.512981793695
 30
0.0
 11
780.166407443187
 21
1833.498834708307
 31
0.0
  0
LINE
  5
2B0
330
197
100
AcDbEntity
  8
P-SANR-FIXT
100
AcDbLine
 10
780.166407443187
 20
1813.992922752495
 30
0.0
 11
780.166407443187
 21
1814.978775665822
 31
0.0
  0
LINE
  5
2B1
330
197
100
AcDbEntity
  8
P-SANR-FIXT
100
AcDbLine
 10
857.1664074431835
 20
1833.4988347083
 30
0.0
 11
857.1664074431835
 21
1832.512981793702
 31
0.0
  0
LINE
  5
2B2
330
197
100
AcDbEntity
  8
P-SANR-FIXT
100
AcDbLine
 10
857.1664074431835
 20
1814.978775665812
 30
0.0
 11
857.1664074431835
 21
1813.992922752509
 31
0.0
  0
LINE
  5
2B3
330
197
100
AcDbEntity
  8
P-SANR-FIXT
100
AcDbLine
 10
856.1664074431851
 20
1840.59587873007
 30
0.0
 11
856.1664074431853
 21
1823.74587873007
 31
0.0
  0
LINE
  5
2B4
330
197
100
AcDbEntity
  8
P-SANR-FIXT
100
AcDbLine
 10
856.1664074431853
 20
1823.74587873007
 30
0.0
 11
856.1664074431853
 21
1806.89587873007
 31
0.0
  0
SPLINE
  5
2B5
330
197
100
AcDbEntity
  8
P-SANR-FIXT
100
AcDbSpline
210
0.0
220
0.0
230
1.0
 70
     8
 71
     3
 72
    13
 73
     9
 74
     0
 42
0.000000001
 43
0.0000000001
 40
0.0
 40
0.0
 40
0.0
 40
0.0
 40
0.125
 40
0.25
 40
0.375
 40
0.5
 40
0.5625
 40
0.5768923063579594
 40
0.5768923063579594
 40
0.5768923063579594
 40
0.5768923063579594
 10
847.6664074431852
 20
1838.49587873007
 30
0.0
 10
847.6613764234013
 20
1838.49587873007
 30
0.0
 10
847.4939175603559
 20
1838.388237954382
 30
0.0
 10
846.7378257339538
 20
1837.941554808505
 30
0.0
 10
845.5749695599157
 20
1837.305155108098
 30
0.0
 10
844.323331251407
 20
1836.711926032165
 30
0.0
 10
843.395527416086
 20
1836.348325810625
 30
0.0
 10
843.0253251797701
 20
1836.217729332326
 30
0.0
 10
842.9554599829424
 20
1836.193616449222
 30
0.0
  0
SPLINE
  5
2B6
330
197
100
AcDbEntity
  8
P-SANR-FIXT
100
AcDbSpline
210
0.0
220
0.0
230
1.0
 70
     8
 71
     3
 72
    13
 73
     9
 74
     0
 42
0.000000001
 43
0.0000000001
 40
0.4231076936420406
 40
0.4231076936420406
 40
0.4231076936420406
 40
0.4231076936420406
 40
0.4375
 40
0.5
 40
0.625
 40
0.75
 40
0.875
 40
1.0
 40
1.0
 40
1.0
 40
1.0
 10
842.9554599829424
 20
1811.298141010917
 30
0.0
 10
843.0253251797703
 20
1811.274028127813
 30
0.0
 10
843.3955274160862
 20
1811.143431649513
 30
0.0
 10
844.323331251407
 20
1810.779831427973
 30
0.0
 10
845.5749695599157
 20
1810.186602352041
 30
0.0
 10
846.7378257339538
 20
1809.550202651634
 30
0.0
 10
847.4939175603559
 20
1809.103519505757
 30
0.0
 10
847.6613764234013
 20
1808.995878730069
 30
0.0
 10
847.6664074431852
 20
1808.995878730069
 30
0.0
  0
LINE
  5
2B7
330
197
100
AcDbEntity
  8
P-SANR-FIXT
100
AcDbLine
 10
781.1664074431851
 20
1840.595878730069
 30
0.0
 11
781.1664074431852
 21
1823.745878730069
 31
0.0
  0
LINE
  5
2B8
330
197
100
AcDbEntity
  8
P-SANR-FIXT
100
AcDbLine
 10
781.1664074431852
 20
1823.745878730069
 30
0.0
 11
781.1664074431853
 21
1806.895878730069
 31
0.0
  0
SPLINE
  5
2B9
330
197
100
AcDbEntity
  8
P-SANR-FIXT
100
AcDbSpline
210
0.0
220
0.0
230
1.0
 70
     8
 71
     3
 72
     8
 73
     4
 74
     0
 42
0.000000001
 43
0.0000000001
 40
0.8421348853492684
 40
0.8421348853492684
 40
0.8421348853492684
 40
0.8421348853492684
 40
1.0
 40
1.0
 40
1.0
 40
1.0
 10
844.5996478972226
 20
1831.5120641556
 30
0.0
 10
844.6999077820823
 20
1831.255923634716
 30
0.0
 10
844.7825029689054
 20
1830.990888653621
 30
0.0
 10
844.8458094247198
 20
1830.714558662453
 30
0.0
  0
SPLINE
  5
2BA
330
197
100
AcDbEntity
  8
P-SANR-FIXT
100
AcDbSpline
210
0.0
220
0.0
230
1.0
 70
     8
 71
     3
 72
     8
 73
     4
 74
     0
 42
0.000000001
 43
0.0000000001
 40
0.0
 40
0.0
 40
0.0
 40
0.0
 40
0.1578651146507483
 40
0.1578651146507483
 40
0.1578651146507483
 40
0.1578651146507483
 10
786.4870054616504
 20
1830.714558662453
 30
0.0
 10
786.5503119174649
 20
1830.990888653621
 30
0.0
 10
786.6329071042883
 20
1831.255923634716
 30
0.0
 10
786.7331669891481
 20
1831.5120641556
 30
0.0
  0
SPLINE
  5
2BB
330
197
100
AcDbEntity
  8
P-SANR-FIXT
100
AcDbSpline
210
0.0
220
0.0
230
1.0
 70
     8
 71
     3
 72
     8
 73
     4
 74
     0
 42
0.000000001
 43
0.0000000001
 40
0.8421348853492764
 40
0.8421348853492764
 40
0.8421348853492764
 40
0.8421348853492764
 40
1.0
 40
1.0
 40
1.0
 40
1.0
 10
786.7331669891479
 20
1815.979693304539
 30
0.0
 10
786.6329071042883
 20
1816.235833825422
 30
0.0
 10
786.5503119174649
 20
1816.500868806517
 30
0.0
 10
786.4870054616504
 20
1816.777198797686
 30
0.0
  0
SPLINE
  5
2BC
330
197
100
AcDbEntity
  8
P-SANR-FIXT
100
AcDbSpline
210
0.0
220
0.0
230
1.0
 70
     8
 71
     3
 72
     8
 73
     4
 74
     0
 42
0.000000001
 43
0.0000000001
 40
0.0
 40
0.0
 40
0.0
 40
0.0
 40
0.1578651146507563
 40
0.1578651146507563
 40
0.1578651146507563
 40
0.1578651146507563
 10
844.8458094247198
 20
1816.777198797686
 30
0.0
 10
844.7825029689054
 20
1816.500868806517
 30
0.0
 10
844.6999077820823
 20
1816.235833825422
 30
0.0
 10
844.5996478972224
 20
1815.979693304539
 30
0.0
  0
LINE
  5
2BD
330
197
100
AcDbEntity
  8
P-SANR-FIXT
100
AcDbLine
 10
847.6664074431853
 20
1793.74587873007
 30
0.0
 11
829.6664074431854
 21
1793.745878730069
 31
0.0
  0
ENDBLK
  5
2BF
330
197
100
AcDbEntity
  8
0
100
AcDbBlockEnd
  0
BLOCK
  5
3B6
330
2C1
100
AcDbEntity
  8
0
100
AcDbBlockBegin
  2
Automatic flow rate regulator valve_Caleffi_121 DN15 - 3_4___Pressure gauge-V2-Est - Idraulica
 70
     0
 10
0.0
 20
0.0
 30
0.0
  3
Automatic flow rate regulator valve_Caleffi_121 DN15 - 3_4___Pressure gauge-V2-Est - Idraulica
  1

  0
LINE
  5
2C2
330
2C1
100
AcDbEntity
  8
M-PIPE
100
AcDbLine
 10
1152.114353943097
 20
2003.482558850011
 30
0.0
 11
1150.114353943098
 21
2003.482558850012
 31
0.0
1001
REVIT
1002
{
1070
     3
1000
924018
1002
}
  0
LINE
  5
2C3
330
2C1
100
AcDbEntity
  8
M-PIPE
100
AcDbLine
 10
1150.114353943098
 20
1996.482558850011
 30
0.0
 11
1152.114353943097
 21
1996.482558850011
 31
0.0
1001
REVIT
1002
{
1070
     3
1000
924018
1002
}
  0
LINE
  5
2C4
330
2C1
100
AcDbEntity
  8
M-PIPE
100
AcDbLine
 10
1152.114353943096
 20
1999.982558850011
 30
0.0
 11
1152.114353943096
 21
2003.482558850011
 31
0.0
1001
REVIT
1002
{
1070
     3
1000
924018
1002
}
  0
LINE
  5
2C5
330
2C1
100
AcDbEntity
  8
M-PIPE
100
AcDbLine
 10
1152.114353943096
 20
1996.482558850011
 30
0.0
 11
1152.114353943096
 21
1999.982558850011
 31
0.0
1001
REVIT
1002
{
1070
     3
1000
924018
1002
}
  0
LINE
  5
2C6
330
2C1
100
AcDbEntity
  8
M-PIPE
100
AcDbLine
 10
1114.114353943115
 20
2006.532558850005
 30
0.0
 11
1097.114353943081
 21
2006.532558850006
 31
0.0
1001
REVIT
1002
{
1070
     3
1000
924018
1002
}
  0
LINE
  5
2C7
330
2C1
100
AcDbEntity
  8
M-PIPE
100
AcDbLine
 10
1097.114353943081
 20
1993.43255885002
 30
0.0
 11
1114.114353943114
 21
1993.43255885002
 31
0.0
1001
REVIT
1002
{
1070
     3
1000
924018
1002
}
  0
LINE
  5
2C8
330
2C1
100
AcDbEntity
  8
M-PIPE
100
AcDbLine
 10
1114.114353943113
 20
1992.982558849995
 30
0.0
 11
1114.114353943113
 21
2006.982558849995
 31
0.0
1001
REVIT
1002
{
1070
     3
1000
924018
1002
}
  0
LINE
  5
2C9
330
2C1
100
AcDbEntity
  8
M-PIPE
100
AcDbLine
 10
1114.114353943113
 20
2006.982558849995
 30
0.0
 11
1120.114353943095
 21
2006.982558849995
 31
0.0
1001
REVIT
1002
{
1070
     3
1000
924018
1002
}
  0
LINE
  5
2CA
330
2C1
100
AcDbEntity
  8
M-PIPE
100
AcDbLine
 10
1114.114353943113
 20
1992.982558849995
 30
0.0
 11
1120.114353943095
 21
1992.982558849995
 31
0.0
1001
REVIT
1002
{
1070
     3
1000
924018
1002
}
  0
LINE
  5
2CB
330
2C1
100
AcDbEntity
  8
M-PIPE
100
AcDbLine
 10
1150.114353943098
 20
2030.982558850023
 30
0.0
 11
1123.114353943098
 21
2030.982558850024
 31
0.0
1001
REVIT
1002
{
1070
     3
1000
924018
1002
}
  0
LINE
  5
2CC
330
2C1
100
AcDbEntity
  8
M-PIPE
100
AcDbLine
 10
1123.114353943096
 20
1968.98255885
 30
0.0
 11
1150.114353943096
 21
1968.982558849999
 31
0.0
1001
REVIT
1002
{
1070
     3
1000
924018
1002
}
  0
LWPOLYLINE
  5
2CD
330
2C1
100
AcDbEntity
  8
M-PIPE
100
AcDbPolyline
 90
       41
 70
   128
 43
0.0
 10
1120.114353943098
 20
2027.982558850025
 10
1120.116753623115
 20
2028.102526852585
 10
1120.12394882419
 20
2028.222302931932
 10
1120.135928035536
 20
2028.341695471891
 10
1120.152672092971
 20
2028.460513469867
 10
1120.174154209574
 20
2028.57856684241
 10
1120.200340018542
 20
2028.695666729306
 10
1120.231187628166
 20
2028.811625795717
 10
1120.26664768885
 20
2028.926258531873
 10
1120.306663472064
 20
2029.03938154985
 10
1120.351170961089
 20
2029.150813876951
 10
1120.400098953438
 20
2029.260377245222
 10
1120.45336917476
 20
2029.367896376649
 10
1120.510896404065
 20
2029.473199263556
 10
1120.572588610057
 20
2029.576117443787
 10
1120.638347098369
 20
2029.67648627021
 10
1120.708066669445
 20
2029.774145174112
 10
1120.781635786845
 20
2029.86893792208
 10
1120.858936755675
 20
2029.960712865939
 10
1120.939845910875
 20
2030.049323185356
 10
1121.024233815057
 20
2030.134627122723
 10
1121.111965465574
 20
2030.216488209937
 10
1121.202900510502
 20
2030.294775486721
 10
1121.296893473167
 20
2030.369363710134
 10
1121.39379398488
 20
2030.440133554928
 10
1121.493447025493
 20
2030.506971804448
 10
1121.595693171399
 20
2030.569771531755
 10
1121.700368850577
 20
2030.628432270679
 10
1121.807306604268
 20
2030.682860176554
 10
1121.916335354879
 20
2030.73296817634
 10
1122.027280679668
 20
2030.778676107926
 10
1122.139965089782
 20
2030.819910848373
 10
1122.254208314202
 20
2030.856606430892
 10
1122.369827588141
 20
2030.888704150379
 10
1122.486637945424
 20
2030.91615265733
 10
1122.604452514397
 20
2030.93890803999
 10
1122.723082816883
 20
2030.9569338946
 10
1122.842339069705
 20
2030.970201383637
 10
1122.962030488297
 20
2030.978689281951
 10
1123.081965591923
 20
2030.982384010715
 10
1123.114353943098
 20
2030.982558850024
1001
REVIT
1002
{
1070
     3
1000
924018
1002
}
  0
LWPOLYLINE
  5
2CE
330
2C1
100
AcDbEntity
  8
M-PIPE
100
AcDbPolyline
 90
       35
 70
   128
 43
0.0
 10
1120.114353943096
 20
2006.982558849996
 10
1120.114353943096
 20
2007.720517009811
 10
1120.114353943096
 20
2008.790422547267
 10
1120.114353943096
 20
2009.846237381719
 10
1120.114353943097
 20
2010.886272434659
 10
1120.114353943097
 20
2011.908863871866
 10
1120.114353943097
 20
2012.912375765179
 10
1120.114353943097
 20
2013.895202709643
 10
1120.114353943097
 20
2014.855772391804
 10
1120.114353943097
 20
2015.79254810508
 10
1120.114353943097
 20
2016.704031208166
 10
1120.114353943097
 20
2017.588763522537
 10
1120.114353943097
 20
2018.445329665222
 10
1120.114353943097
 20
2019.272359313116
 10
1120.114353943097
 20
2020.068529395208
 10
1120.114353943097
 20
2020.832566209205
 10
1120.114353943097
 20
2021.563247459193
 10
1120.114353943097
 20
2022.25940421104
 10
1120.114353943097
 20
2022.91992276245
 10
1120.114353943097
 20
2023.543746424644
 10
1120.114353943097
 20
2024.129877212836
 10
1120.114353943097
 20
2024.677377442802
 10
1120.114353943097
 20
2025.185371230965
 10
1120.114353943097
 20
2025.653045895633
 10
1120.114353943097
 20
2026.079653257106
 10
1120.114353943097
 20
2026.464510834611
 10
1120.114353943097
 20
2026.807002938122
 10
1120.114353943097
 20
2027.106581653336
 10
1120.114353943097
 20
2027.362767718213
 10
1120.114353943097
 20
2027.575151289701
 10
1120.114353943097
 20
2027.743392599392
 10
1120.114353943097
 20
2027.867222497079
 10
1120.114353943098
 20
2027.94644288134
 10
1120.114353943098
 20
2027.980927016463
 10
1120.114353943098
 20
2027.982558850025
1001
REVIT
1002
{
1070
     3
1000
924018
1002
}
  0
LWPOLYLINE
  5
2CF
330
2C1
100
AcDbEntity
  8
M-PIPE
100
AcDbPolyline
 90
       41
 70
   128
 43
0.0
 10
1120.114353943098
 20
2027.982558850025
 10
1120.114353943098
 20
2027.960161836532
 10
1120.114353943098
 20
2027.893006626498
 10
1120.114353943098
 20
2027.781200653933
 10
1120.114353943098
 20
2027.624922784542
 10
1120.114353943098
 20
2027.424423029579
 10
1120.114353943098
 20
2027.180022145881
 10
1120.114353943098
 20
2026.892111122725
 10
1120.114353943098
 20
2026.561150556332
 10
1120.114353943098
 20
2026.187669913006
 10
1120.114353943098
 20
2025.772266682104
 10
1120.114353943098
 20
2025.315605420182
 10
1120.114353943098
 20
2024.818416687843
 10
1120.114353943098
 20
2024.281495880997
 10
1120.114353943098
 20
2023.705701958398
 10
1120.114353943098
 20
2023.091956067493
 10
1120.114353943098
 20
2022.441240070782
 10
1120.114353943098
 20
2021.754594975048
 10
1120.114353943098
 20
2021.033119265966
 10
1120.114353943098
 20
2020.277967150767
 10
1120.114353943098
 20
2019.490346711742
 10
1120.114353943098
 20
2018.671517973577
 10
1120.114353943098
 20
2017.82279088758
 10
1120.114353943098
 20
2016.945523236037
 10
1120.114353943098
 20
2016.041118460048
 10
1120.114353943098
 20
2015.111023414327
 10
1120.114353943098
 20
2014.156726052537
 10
1120.114353943098
 20
2013.179753046883
 10
1120.114353943098
 20
2012.181667345766
 10
1120.114353943098
 20
2011.164065673392
 10
1120.114353943098
 20
2010.128575975363
 10
1120.114353943098
 20
2009.076854814302
 10
1120.114353943098
 20
2008.01058471971
 10
1120.114353943098
 20
2006.931471496281
 10
1120.114353943098
 20
2005.841241494974
 10
1120.114353943097
 20
2004.741638851221
 10
1120.114353943097
 20
2003.634422694682
 10
1120.114353943097
 20
2002.521364335014
 10
1120.114353943097
 20
2001.404244428153
 10
1120.114353943097
 20
2000.284850127644
 10
1120.114353943097
 20
1999.982558850012
1001
REVIT
1002
{
1070
     3
1000
924018
1002
}
  0
LWPOLYLINE
  5
2D0
330
2C1
100
AcDbEntity
  8
M-PIPE
100
AcDbPolyline
 90
       41
 70
   128
 43
0.0
 10
1123.114353943096
 20
1968.98255885
 10
1122.994385940536
 20
1968.984958530017
 10
1122.874609861189
 20
1968.992153731092
 10
1122.75521732123
 20
1969.004132942438
 10
1122.636399323253
 20
1969.020876999873
 10
1122.518345950711
 20
1969.042359116476
 10
1122.401246063815
 20
1969.068544925443
 10
1122.285286997404
 20
1969.099392535067
 10
1122.170654261248
 20
1969.134852595752
 10
1122.057531243271
 20
1969.174868378966
 10
1121.94609891617
 20
1969.219375867991
 10
1121.836535547898
 20
1969.26830386034
 10
1121.729016416472
 20
1969.321574081662
 10
1121.623713529565
 20
1969.379101310967
 10
1121.520795349334
 20
1969.44079351696
 10
1121.420426522911
 20
1969.50655200527
 10
1121.322767619009
 20
1969.576271576347
 10
1121.227974871041
 20
1969.649840693747
 10
1121.136199927182
 20
1969.727141662577
 10
1121.047589607765
 20
1969.808050817777
 10
1120.962285670398
 20
1969.892438721959
 10
1120.880424583184
 20
1969.980170372476
 10
1120.802137306399
 20
1970.071105417404
 10
1120.727549082987
 20
1970.165098380069
 10
1120.656779238193
 20
1970.261998891782
 10
1120.589940988672
 20
1970.361651932395
 10
1120.527141261366
 20
1970.463898078302
 10
1120.468480522441
 20
1970.568573757479
 10
1120.414052616567
 20
1970.67551151117
 10
1120.363944616781
 20
1970.784540261781
 10
1120.318236685194
 20
1970.89548558657
 10
1120.277001944748
 20
1971.008169996683
 10
1120.240306362228
 20
1971.122413221104
 10
1120.208208642741
 20
1971.238032495042
 10
1120.180760135791
 20
1971.354842852326
 10
1120.158004753131
 20
1971.472657421299
 10
1120.139978898521
 20
1971.591287723785
 10
1120.126711409483
 20
1971.710543976607
 10
1120.11822351117
 20
1971.830235395199
 10
1120.114528782406
 20
1971.950170498825
 10
1120.114353943096
 20
1971.98255885
1001
REVIT
1002
{
1070
     3
1000
924018
1002
}
  0
LWPOLYLINE
  5
2D1
330
2C1
100
AcDbEntity
  8
M-PIPE
100
AcDbPolyline
 90
       41
 70
   128
 43
0.0
 10
1120.114353943097
 20
1999.982558850012
 10
1120.114353943097
 20
1998.862857492786
 10
1120.114353943097
 20
1997.744947418874
 10
1120.114353943097
 20
1996.630617045921
 10
1120.114353943097
 20
1995.521649064811
 10
1120.114353943097
 20
1994.419817587748
 10
1120.114353943097
 20
1993.326885310049
 10
1120.114353943097
 20
1992.244600690214
 10
1120.114353943097
 20
1991.174695152757
 10
1120.114353943097
 20
1990.118880318305
 10
1120.114353943097
 20
1989.078845265365
 10
1120.114353943097
 20
1988.056253828159
 10
1120.114353943097
 20
1987.052741934845
 10
1120.114353943097
 20
1986.069914990381
 10
1120.114353943097
 20
1985.109345308221
 10
1120.114353943097
 20
1984.172569594944
 10
1120.114353943097
 20
1983.261086491858
 10
1120.114353943097
 20
1982.376354177487
 10
1120.114353943097
 20
1981.519788034803
 10
1120.114353943097
 20
1980.692758386908
 10
1120.114353943097
 20
1979.896588304817
 10
1120.114353943097
 20
1979.132551490819
 10
1120.114353943097
 20
1978.401870240832
 10
1120.114353943097
 20
1977.705713488984
 10
1120.114353943097
 20
1977.045194937574
 10
1120.114353943096
 20
1976.421371275381
 10
1120.114353943096
 20
1975.835240487188
 10
1120.114353943096
 20
1975.287740257223
 10
1120.114353943096
 20
1974.779746469059
 10
1120.114353943096
 20
1974.312071804391
 10
1120.114353943096
 20
1973.885464442918
 10
1120.114353943096
 20
1973.500606865413
 10
1120.114353943096
 20
1973.158114761902
 10
1120.114353943096
 20
1972.858536046689
 10
1120.114353943096
 20
1972.602349981811
 10
1120.114353943096
 20
1972.389966410323
 10
1120.114353943096
 20
1972.221725100633
 10
1120.114353943096
 20
1972.097895202946
 10
1120.114353943096
 20
1972.018674818684
 10
1120.114353943096
 20
1971.984190683561
 10
1120.114353943096
 20
1971.98255885
1001
REVIT
1002
{
1070
     3
1000
924018
1002
}
  0
LWPOLYLINE
  5
2D2
330
2C1
100
AcDbEntity
  8
M-PIPE
100
AcDbPolyline
 90
       34
 70
   128
 43
0.0
 10
1120.114353943096
 20
1971.98255885
 10
1120.114353943096
 20
1972.004955863492
 10
1120.114353943096
 20
1972.072111073526
 10
1120.114353943096
 20
1972.183917046091
 10
1120.114353943096
 20
1972.340194915483
 10
1120.114353943096
 20
1972.540694670445
 10
1120.114353943096
 20
1972.785095554143
 10
1120.114353943096
 20
1973.073006577299
 10
1120.114353943096
 20
1973.403967143692
 10
1120.114353943096
 20
1973.777447787018
 10
1120.114353943096
 20
1974.19285101792
 10
1120.114353943096
 20
1974.649512279842
 10
1120.114353943096
 20
1975.146701012181
 10
1120.114353943096
 20
1975.683621819027
 10
1120.114353943096
 20
1976.259415741626
 10
1120.114353943096
 20
1976.873161632531
 10
1120.114353943096
 20
1977.523877629242
 10
1120.114353943096
 20
1978.210522724976
 10
1120.114353943096
 20
1978.931998434057
 10
1120.114353943096
 20
1979.687150549258
 10
1120.114353943096
 20
1980.474770988283
 10
1120.114353943096
 20
1981.293599726447
 10
1120.114353943096
 20
1982.142326812444
 10
1120.114353943096
 20
1983.019594463987
 10
1120.114353943096
 20
1983.923999239976
 10
1120.114353943096
 20
1984.854094285697
 10
1120.114353943096
 20
1985.808391647488
 10
1120.114353943096
 20
1986.785364653141
 10
1120.114353943096
 20
1987.783450354259
 10
1120.114353943096
 20
1988.801052026632
 10
1120.114353943096
 20
1989.836541724661
 10
1120.114353943096
 20
1990.888262885722
 10
1120.114353943096
 20
1991.954532980313
 10
1120.114353943096
 20
1992.982558849996
1001
REVIT
1002
{
1070
     3
1000
924018
1002
}
  0
LINE
  5
2D3
330
2C1
100
AcDbEntity
  8
M-PIPE
100
AcDbLine
 10
1150.114353943096
 20
1999.982558850011
 30
0.0
 11
1150.114353943097
 21
2030.982558850022
 31
0.0
1001
REVIT
1002
{
1070
     3
1000
924018
1002
}
  0
LINE
  5
2D4
330
2C1
100
AcDbEntity
  8
M-PIPE
100
AcDbLine
 10
1150.114353943095
 20
1968.982558849998
 30
0.0
 11
1150.114353943096
 21
1999.982558850011
 31
0.0
1001
REVIT
1002
{
1070
     3
1000
924018
1002
}
  0
LINE
  5
2D5
330
2C1
100
AcDbEntity
  8
P-SANR-FIXT
100
AcDbLine
 10
1037.114353943113
 20
2009.482558850027
 30
0.0
 11
1032.064779426996
 21
2009.482558850027
 31
0.0
  0
LINE
  5
2D6
330
2C1
100
AcDbEntity
  8
P-SANR-FIXT
100
AcDbLine
 10
1032.064779426996
 20
1990.482558849995
 30
0.0
 11
1037.114353943113
 21
1990.482558849995
 31
0.0
  0
LINE
  5
2D7
330
2C1
100
AcDbEntity
  8
P-SANR-FIXT
100
AcDbLine
 10
1032.064779426996
 20
2009.482558850027
 30
0.0
 11
1031.114353943062
 21
2008.532133366094
 31
0.0
  0
LINE
  5
2D8
330
2C1
100
AcDbEntity
  8
P-SANR-FIXT
100
AcDbLine
 10
1031.114353943062
 20
1991.432984333929
 30
0.0
 11
1032.064779426996
 21
1990.482558849995
 31
0.0
  0
LINE
  5
2D9
330
2C1
100
AcDbEntity
  8
P-SANR-FIXT
100
AcDbLine
 10
1037.114353943112
 20
1990.482558849994
 30
0.0
 11
1037.114353943112
 21
2009.482558850027
 31
0.0
  0
LINE
  5
2DA
330
2C1
100
AcDbEntity
  8
P-SANR-FIXT
100
AcDbLine
 10
1031.114353943062
 20
1991.432984333928
 30
0.0
 11
1031.114353943062
 21
2008.532133366093
 31
0.0
  0
LINE
  5
2DB
330
2C1
100
AcDbEntity
  8
P-SANR-FIXT
100
AcDbLine
 10
1032.064779426995
 20
2009.482558850027
 30
0.0
 11
1032.064779426995
 21
1990.482558849994
 31
0.0
  0
ARC
  5
2DC
330
2C1
100
AcDbEntity
  8
P-SANR-FIXT
100
AcDbCircle
 10
1067.114353943079
 20
1999.982558850011
 30
0.0
 40
18.50000000000022
100
AcDbArc
 50
239.8400901845856
 51
240.000000000001
  0
ARC
  5
2DD
330
2C1
100
AcDbEntity
  8
P-SANR-FIXT
100
AcDbCircle
 10
1067.114353943079
 20
1999.982558850011
 30
0.0
 40
18.50000000000022
100
AcDbArc
 50
179.8441211361854
 51
180.0000000000017
  0
ARC
  5
2DE
330
2C1
100
AcDbEntity
  8
P-SANR-FIXT
100
AcDbCircle
 10
1067.114353943079
 20
1999.982558850011
 30
0.0
 40
18.50000000000009
100
AcDbArc
 50
119.8479538628818
 51
120.0000000000021
  0
ARC
  5
2DF
330
2C1
100
AcDbEntity
  8
P-SANR-FIXT
100
AcDbCircle
 10
1067.114353943079
 20
1999.982558850011
 30
0.0
 40
18.50000000000006
100
AcDbArc
 50
59.99999999999991
 51
60.1520461367045
  0
ARC
  5
2E0
330
2C1
100
AcDbEntity
  8
P-SANR-FIXT
100
AcDbCircle
 10
1067.114353943079
 20
1999.982558850011
 30
0.0
 40
18.5
100
AcDbArc
 50
359.8441211361879
 51
0.0000000000007042
  0
ARC
  5
2E1
330
2C1
100
AcDbEntity
  8
P-SANR-FIXT
100
AcDbCircle
 10
1067.114353943079
 20
1999.982558850011
 30
0.0
 40
18.50000000000025
100
AcDbArc
 50
299.8479538632972
 51
300.0000000000002
  0
ARC
  5
2E2
330
2C1
100
AcDbEntity
  8
P-SANR-FIXT
100
AcDbCircle
 10
1067.114353943079
 20
1999.982558850011
 30
0.0
 40
16.16580753732683
100
AcDbArc
 50
90.0
 51
269.9999999999997
  0
ARC
  5
2E3
330
2C1
100
AcDbEntity
  8
P-SANR-FIXT
100
AcDbCircle
 10
1067.114353943079
 20
1999.982558850011
 30
0.0
 40
16.16580753732683
100
AcDbArc
 50
269.9999999999997
 51
89.9999999999992
  0
SPLINE
  5
2E4
330
2C1
100
AcDbEntity
  8
P-SANR-FIXT
100
AcDbSpline
210
0.0
220
0.0
230
1.0
 70
     8
 71
     3
 72
    10
 73
     6
 74
     0
 42
0.000000001
 43
0.0000000001
 40
0.0
 40
0.0
 40
0.0
 40
0.0
 40
0.4
 40
0.7
 40
1.0
 40
1.0
 40
1.0
 40
1.0
 10
1082.114353943146
 20
2012.684264772187
 30
0.0
 10
1082.951336531519
 20
2012.201032649484
 30
0.0
 10
1084.255783481768
 20
2011.035139678556
 30
0.0
 10
1085.388062051358
 20
2008.806974395878
 30
0.0
 10
1085.614353943146
 20
2007.345441223648
 30
0.0
 10
1085.614353943146
 20
2006.622086945696
 30
0.0
  0
SPLINE
  5
2E5
330
2C1
100
AcDbEntity
  8
P-SANR-FIXT
100
AcDbSpline
210
0.0
220
0.0
230
1.0
 70
    24
 71
     3
 72
     9
 73
     5
 74
     0
 42
0.000000001
 43
0.0000000001
 40
0.0
 40
0.0
 40
0.0
 40
0.0
 40
0.5
 40
1.0
 40
1.0
 40
1.0
 40
1.0
 10
1085.614353943146
 20
2006.622086945696
 30
0.0
 10
1085.614353943146
 20
2004.375399426354
 30
0.0
 10
1085.614353943146
 20
1999.915535875117
 30
0.0
 10
1085.614353943146
 20
1995.522695298774
 30
0.0
 10
1085.614353943146
 20
1993.343030754326
 30
0.0
  0
SPLINE
  5
2E6
330
2C1
100
AcDbEntity
  8
P-SANR-FIXT
100
AcDbSpline
210
0.0
220
0.0
230
1.0
 70
     8
 71
     3
 72
    10
 73
     6
 74
     0
 42
0.000000001
 43
0.0000000001
 40
0.0
 40
0.0
 40
0.0
 40
0.0
 40
0.4
 40
0.7
 40
1.0
 40
1.0
 40
1.0
 40
1.0
 10
1085.614353943146
 20
1993.343030754326
 30
0.0
 10
1085.614353943146
 20
1992.376566508918
 30
0.0
 10
1085.256884487354
 20
1990.663935826648
 30
0.0
 10
1083.893376033518
 20
1988.569271179884
 30
0.0
 10
1082.740797123788
 20
1987.642530066811
 30
0.0
 10
1082.114353943146
 20
1987.280852927835
 30
0.0
  0
SPLINE
  5
2E7
330
2C1
100
AcDbEntity
  8
P-SANR-FIXT
100
AcDbSpline
210
0.0
220
0.0
230
1.0
 70
    24
 71
     3
 72
     9
 73
     5
 74
     0
 42
0.000000001
 43
0.0000000001
 40
0.0
 40
0.0
 40
0.0
 40
0.0
 40
0.5
 40
1.0
 40
1.0
 40
1.0
 40
1.0
 10
1082.114353943146
 20
1987.280852927835
 30
0.0
 10
1080.168665477031
 20
1986.157509168164
 30
0.0
 10
1076.306310344247
 20
1983.927577392545
 30
0.0
 10
1072.501998810359
 20
1981.731157104374
 30
0.0
 10
1070.614353943139
 20
1980.64132483215
 30
0.0
  0
SPLINE
  5
2E8
330
2C1
100
AcDbEntity
  8
P-SANR-FIXT
100
AcDbSpline
210
0.0
220
0.0
230
1.0
 70
     8
 71
     3
 72
     9
 73
     5
 74
     0
 42
0.000000001
 43
0.0000000001
 40
0.0
 40
0.0
 40
0.0
 40
0.0
 40
0.5
 40
1.0
 40
1.0
 40
1.0
 40
1.0
 10
1070.614353943139
 20
1980.64132483215
 30
0.0
 10
1070.090878745347
 20
1980.33909628579
 30
0.0
 10
1068.959487439222
 20
1979.867732675225
 30
0.0
 10
1067.731627326777
 20
1979.703502658636
 30
0.0
 10
1067.114353943079
 20
1979.70350265864
 30
0.0
  0
SPLINE
  5
2E9
330
2C1
100
AcDbEntity
  8
P-SANR-FIXT
100
AcDbSpline
210
0.0
220
0.0
230
1.0
 70
     8
 71
     3
 72
     9
 73
     5
 74
     0
 42
0.000000001
 43
0.0000000001
 40
0.0
 40
0.0
 40
0.0
 40
0.0
 40
0.5
 40
1.0
 40
1.0
 40
1.0
 40
1.0
 10
1067.114353943079
 20
1979.70350265864
 30
0.0
 10
1066.497080559402
 20
1979.703502658646
 30
0.0
 10
1065.269220447
 20
1979.867732675245
 30
0.0
 10
1064.137829140914
 20
1980.3390962858
 30
0.0
 10
1063.614353943139
 20
1980.64132483215
 30
0.0
  0
SPLINE
  5
2EA
330
2C1
100
AcDbEntity
  8
P-SANR-FIXT
100
AcDbSpline
210
0.0
220
0.0
230
1.0
 70
    24
 71
     3
 72
     9
 73
     5
 74
     0
 42
0.000000001
 43
0.0000000001
 40
0.0
 40
0.0
 40
0.0
 40
0.0
 40
0.5
 40
1.0
 40
1.0
 40
1.0
 40
1.0
 10
1063.614353943139
 20
1980.64132483215
 30
0.0
 10
1061.668665477023
 20
1981.764668591821
 30
0.0
 10
1057.806310344239
 20
1983.994600367439
 30
0.0
 10
1054.001998810351
 20
1986.191020655611
 30
0.0
 10
1052.114353943131
 20
1987.280852927834
 30
0.0
  0
SPLINE
  5
2EB
330
2C1
100
AcDbEntity
  8
P-SANR-FIXT
100
AcDbSpline
210
0.0
220
0.0
230
1.0
 70
     8
 71
     3
 72
    10
 73
     6
 74
     0
 42
0.000000001
 43
0.0000000001
 40
0.0
 40
0.0
 40
0.0
 40
0.0
 40
0.4
 40
0.7
 40
1.0
 40
1.0
 40
1.0
 40
1.0
 10
1052.114353943131
 20
1987.280852927834
 30
0.0
 10
1051.277371354758
 20
1987.764085050539
 30
0.0
 10
1049.972924404508
 20
1988.929978021466
 30
0.0
 10
1048.840645834919
 20
1991.158143304145
 30
0.0
 10
1048.614353943131
 20
1992.619676476374
 30
0.0
 10
1048.614353943131
 20
1993.343030754326
 30
0.0
  0
SPLINE
  5
2EC
330
2C1
100
AcDbEntity
  8
P-SANR-FIXT
100
AcDbSpline
210
0.0
220
0.0
230
1.0
 70
    24
 71
     3
 72
     9
 73
     5
 74
     0
 42
0.000000001
 43
0.0000000001
 40
0.0
 40
0.0
 40
0.0
 40
0.0
 40
0.5
 40
1.0
 40
1.0
 40
1.0
 40
1.0
 10
1048.614353943131
 20
1993.343030754326
 30
0.0
 10
1048.614353943131
 20
1995.589718273668
 30
0.0
 10
1048.614353943131
 20
2000.049581824906
 30
0.0
 10
1048.614353943131
 20
2004.442422401249
 30
0.0
 10
1048.614353943131
 20
2006.622086945696
 30
0.0
  0
SPLINE
  5
2ED
330
2C1
100
AcDbEntity
  8
P-SANR-FIXT
100
AcDbSpline
210
0.0
220
0.0
230
1.0
 70
     8
 71
     3
 72
    10
 73
     6
 74
     0
 42
0.000000001
 43
0.0000000001
 40
0.0
 40
0.0
 40
0.0
 40
0.0
 40
0.4
 40
0.7
 40
1.0
 40
1.0
 40
1.0
 40
1.0
 10
1048.614353943131
 20
2006.622086945696
 30
0.0
 10
1048.614353943131
 20
2007.588551191104
 30
0.0
 10
1048.971823398922
 20
2009.301181873373
 30
0.0
 10
1050.335331852758
 20
2011.395846520137
 30
0.0
 10
1051.487910762488
 20
2012.322587633211
 30
0.0
 10
1052.114353943131
 20
2012.684264772187
 30
0.0
  0
SPLINE
  5
2EE
330
2C1
100
AcDbEntity
  8
P-SANR-FIXT
100
AcDbSpline
210
0.0
220
0.0
230
1.0
 70
    24
 71
     3
 72
     9
 73
     5
 74
     0
 42
0.000000001
 43
0.0000000001
 40
0.0
 40
0.0
 40
0.0
 40
0.0
 40
0.5
 40
1.0
 40
1.0
 40
1.0
 40
1.0
 10
1052.114353943131
 20
2012.684264772187
 30
0.0
 10
1054.060042409247
 20
2013.807608531859
 30
0.0
 10
1057.922397542031
 20
2016.037540307477
 30
0.0
 10
1061.726709075919
 20
2018.233960595649
 30
0.0
 10
1063.614353943138
 20
2019.323792867873
 30
0.0
  0
SPLINE
  5
2EF
330
2C1
100
AcDbEntity
  8
P-SANR-FIXT
100
AcDbSpline
210
0.0
220
0.0
230
1.0
 70
     8
 71
     3
 72
     9
 73
     5
 74
     0
 42
0.000000001
 43
0.0000000001
 40
0.0
 40
0.0
 40
0.0
 40
0.0
 40
0.5
 40
1.0
 40
1.0
 40
1.0
 40
1.0
 10
1063.614353943138
 20
2019.323792867873
 30
0.0
 10
1064.137829140914
 20
2019.626021414222
 30
0.0
 10
1065.269220447
 20
2020.097385024777
 30
0.0
 10
1066.497080559402
 20
2020.261615041376
 30
0.0
 10
1067.114353943079
 20
2020.261615041381
 30
0.0
  0
SPLINE
  5
2F0
330
2C1
100
AcDbEntity
  8
P-SANR-FIXT
100
AcDbSpline
210
0.0
220
0.0
230
1.0
 70
     8
 71
     3
 72
     9
 73
     5
 74
     0
 42
0.000000001
 43
0.0000000001
 40
0.0
 40
0.0
 40
0.0
 40
0.0
 40
0.5
 40
1.0
 40
1.0
 40
1.0
 40
1.0
 10
1067.114353943079
 20
2020.261615041381
 30
0.0
 10
1067.731627326776
 20
2020.261615041386
 30
0.0
 10
1068.959487439221
 20
2020.097385024797
 30
0.0
 10
1070.090878745346
 20
2019.626021414232
 30
0.0
 10
1070.614353943138
 20
2019.323792867873
 30
0.0
  0
SPLINE
  5
2F1
330
2C1
100
AcDbEntity
  8
P-SANR-FIXT
100
AcDbSpline
210
0.0
220
0.0
230
1.0
 70
    24
 71
     3
 72
     9
 73
     5
 74
     0
 42
0.000000001
 43
0.0000000001
 40
0.0
 40
0.0
 40
0.0
 40
0.0
 40
0.5
 40
1.0
 40
1.0
 40
1.0
 40
1.0
 10
1070.614353943138
 20
2019.323792867873
 30
0.0
 10
1072.501998810358
 20
2018.233960595648
 30
0.0
 10
1076.306310344246
 20
2016.037540307477
 30
0.0
 10
1080.16866547703
 20
2013.807608531859
 30
0.0
 10
1082.114353943146
 20
2012.684264772187
 30
0.0
  0
ARC
  5
2F2
330
2C1
100
AcDbEntity
  8
P-SANR-FIXT
100
AcDbCircle
 10
1067.114353943079
 20
1999.982558850011
 30
0.0
 40
11.95000000003097
100
AcDbArc
 50
90.0
 51
269.9999999999997
  0
ARC
  5
2F3
330
2C1
100
AcDbEntity
  8
P-SANR-FIXT
100
AcDbCircle
 10
1067.114353943079
 20
1999.982558850011
 30
0.0
 40
11.95000000003074
100
AcDbArc
 50
269.9999999999997
 51
90.0
  0
ARC
  5
2F4
330
2C1
100
AcDbEntity
  8
P-SANR-FIXT
100
AcDbCircle
 10
1067.114353943079
 20
1999.982558850011
 30
0.0
 40
13.25000000003092
100
AcDbArc
 50
90.00000000000101
 51
269.9999999999997
  0
ARC
  5
2F5
330
2C1
100
AcDbEntity
  8
P-SANR-FIXT
100
AcDbCircle
 10
1067.114353943079
 20
1999.982558850011
 30
0.0
 40
13.25000000003092
100
AcDbArc
 50
269.9999999999997
 51
90.0
  0
LINE
  5
2F6
330
2C1
100
AcDbEntity
  8
P-SANR-FIXT
100
AcDbLine
 10
1049.114353943081
 20
2053.282558850038
 30
0.0
 11
1048.864095653633
 21
2053.138072159258
 31
0.0
  0
LINE
  5
2F7
330
2C1
100
AcDbEntity
  8
P-SANR-FIXT
100
AcDbLine
 10
1085.364612232526
 20
2053.13807215926
 30
0.0
 11
1085.11435394308
 21
2053.282558850038
 31
0.0
  0
LINE
  5
2F8
330
2C1
100
AcDbEntity
  8
P-SANR-FIXT
100
AcDbLine
 10
1047.11435394308
 20
2039.828076178137
 30
0.0
 11
1038.726125375427
 21
2037.580457107507
 31
0.0
  0
LINE
  5
2F9
330
2C1
100
AcDbEntity
  8
P-SANR-FIXT
100
AcDbLine
 10
1095.502582510734
 20
2037.580457107507
 30
0.0
 11
1087.11435394308
 21
2039.828076178137
 31
0.0
  0
LINE
  5
2FA
330
2C1
100
AcDbEntity
  8
P-SANR-FIXT
100
AcDbLine
 10
1037.614353943081
 20
2036.131568368073
 30
0.0
 11
1037.614353943081
 21
2034.782558850009
 31
0.0
  0
LINE
  5
2FB
330
2C1
100
AcDbEntity
  8
P-SANR-FIXT
100
AcDbLine
 10
1096.61435394308
 20
2034.782558850009
 30
0.0
 11
1096.61435394308
 21
2036.131568368073
 31
0.0
  0
LINE
  5
2FC
330
2C1
100
AcDbEntity
  8
P-SANR-FIXT
100
AcDbLine
 10
1049.114353943081
 20
2107.282558850039
 30
0.0
 11
1049.114353943081
 21
2053.282558850038
 31
0.0
  0
LINE
  5
2FD
330
2C1
100
AcDbEntity
  8
P-SANR-FIXT
100
AcDbLine
 10
1085.11435394308
 20
2053.282558850038
 30
0.0
 11
1085.11435394308
 21
2107.282558850039
 31
0.0
  0
LWPOLYLINE
  5
2FE
330
2C1
100
AcDbEntity
  8
P-SANR-FIXT
100
AcDbPolyline
 90
       34
 70
   128
 43
0.0
 10
1037.61435394308
 20
2036.131568368073
 10
1037.615553783089
 20
2036.191552369353
 10
1037.619151383627
 20
2036.251440409027
 10
1037.6251409893
 20
2036.311136679007
 10
1037.633513018017
 20
2036.370545677995
 10
1037.644254076319
 20
2036.429572364266
 10
1037.657346980803
 20
2036.488122307714
 10
1037.672770785614
 20
2036.546101840919
 10
1037.690500815957
 20
2036.603418208997
 10
1037.710508707563
 20
2036.659979717986
 10
1037.732762452076
 20
2036.715695881536
 10
1037.757226448251
 20
2036.770477565672
 10
1037.783861558912
 20
2036.824237131385
 10
1037.812625173564
 20
2036.876888574838
 10
1037.84347127656
 20
2036.928347664954
 10
1037.876350520716
 20
2036.978532078165
 10
1037.911210306254
 20
2037.027361530117
 10
1037.947994864954
 20
2037.0747579041
 10
1037.986645349369
 20
2037.12064537603
 10
1038.027099926969
 20
2037.164950535739
 10
1038.06929387906
 20
2037.207602504422
 10
1038.113159704318
 20
2037.24853304803
 10
1038.158627226783
 20
2037.287676686422
 10
1038.205623708115
 20
2037.324970798128
 10
1038.254073963972
 20
2037.360355720525
 10
1038.303900484278
 20
2037.393774845285
 10
1038.355023557231
 20
2037.425174708938
 10
1038.40736139682
 20
2037.454505078401
 10
1038.460830273665
 20
2037.481719031338
 10
1038.515344648971
 20
2037.506773031231
 10
1038.570817311366
 20
2037.529626997024
 10
1038.627159516422
 20
2037.550244367247
 10
1038.684281128632
 20
2037.568592158507
 10
1038.726125375427
 20
2037.580457107507
  0
LWPOLYLINE
  5
2FF
330
2C1
100
AcDbEntity
  8
P-SANR-FIXT
100
AcDbPolyline
 90
       34
 70
   128
 43
0.0
 10
1095.502582510734
 20
2037.580457107507
 10
1095.56021206529
 20
2037.563773149122
 10
1095.61712834196
 20
2037.544797968609
 10
1095.673240286846
 20
2037.523561922208
 10
1095.728458132804
 20
2037.500098983063
 10
1095.782693543061
 20
2037.474446686871
 10
1095.835859752529
 20
2037.446646071835
 10
1095.887871706615
 20
2037.416741613008
 10
1095.938646197288
 20
2037.384781151144
 10
1095.988101996194
 20
2037.350815816166
 10
1096.036159984604
 20
2037.314899945363
 10
1096.08274327999
 20
2037.277090996466
 10
1096.127777359015
 20
2037.23744945573
 10
1096.171190176759
 20
2037.196038741162
 10
1096.212912281977
 20
2037.152925101072
 10
1096.252876928199
 20
2037.108177508087
 10
1096.291020180516
 20
2037.06186754881
 10
1096.327281017863
 20
2037.014069309297
 10
1096.361601430633
 20
2036.964859256535
 10
1096.393926513489
 20
2036.91431611611
 10
1096.424204553194
 20
2036.862520746266
 10
1096.452387111342
 20
2036.809556008546
 10
1096.478429101852
 20
2036.75550663523
 10
1096.502288863096
 20
2036.700459093786
 10
1096.523928224545
 20
2036.644501448538
 10
1096.543312567836
 20
2036.587723219781
 10
1096.560410882156
 20
2036.530215240569
 10
1096.57519581385
 20
2036.472069511402
 10
1096.587643710179
 20
2036.413379053042
 10
1096.597734657167
 20
2036.354237757702
 10
1096.605452511449
 20
2036.294740238838
 10
1096.610784926106
 20
2036.23498167979
 10
1096.613723370412
 20
2036.175057681504
 10
1096.614353943081
 20
2036.131568368073
  0
LINE
  5
300
330
2C1
100
AcDbEntity
  8
P-SANR-FIXT
100
AcDbLine
 10
1065.074770303503
 20
2052.127858311658
 30
0.0
 11
1065.074770303503
 21
2039.828076178137
 31
0.0
  0
LINE
  5
301
330
2C1
100
AcDbEntity
  8
P-SANR-FIXT
100
AcDbLine
 10
1065.074770303503
 20
2039.828076178137
 30
0.0
 11
1067.114353943079
 21
2039.828076178137
 31
0.0
  0
LINE
  5
302
330
2C1
100
AcDbEntity
  8
P-SANR-FIXT
100
AcDbLine
 10
1067.114353943079
 20
2039.828076178137
 30
0.0
 11
1069.153937582653
 21
2039.828076178137
 31
0.0
  0
LINE
  5
303
330
2C1
100
AcDbEntity
  8
P-SANR-FIXT
100
AcDbLine
 10
1069.153937582653
 20
2052.127858311658
 30
0.0
 11
1067.114353943079
 21
2052.127858311658
 31
0.0
  0
LINE
  5
304
330
2C1
100
AcDbEntity
  8
P-SANR-FIXT
100
AcDbLine
 10
1067.114353943079
 20
2052.127858311658
 30
0.0
 11
1065.074770303503
 21
2052.127858311658
 31
0.0
  0
LINE
  5
305
330
2C1
100
AcDbEntity
  8
P-SANR-FIXT
100
AcDbLine
 10
1069.153937582654
 20
2039.828076178137
 30
0.0
 11
1069.153937582654
 21
2052.127858311658
 31
0.0
  0
LINE
  5
306
330
2C1
100
AcDbEntity
  8
P-SANR-FIXT
100
AcDbLine
 10
1083.261809766074
 20
2039.828076178137
 30
0.0
 11
1083.324770303486
 21
2039.828076178137
 31
0.0
  0
SPLINE
  5
307
330
2C1
100
AcDbEntity
  8
P-SANR-FIXT
100
AcDbSpline
210
0.0
220
0.0
230
1.0
 70
     8
 71
     3
 72
     9
 73
     5
 74
     0
 42
0.000000001
 43
0.0000000001
 40
0.0
 40
0.0
 40
0.0
 40
0.0
 40
0.5
 40
1.0
 40
1.0
 40
1.0
 40
1.0
 10
1083.324770303486
 20
2052.127858311658
 30
0.0
 10
1081.001838793219
 20
2052.801385818639
 30
0.0
 10
1076.317101829481
 20
2053.47491332562
 30
0.0
 10
1071.554616979331
 20
2052.801385818639
 30
0.0
 10
1069.153937582654
 20
2052.127858311658
 30
0.0
  0
LINE
  5
308
330
2C1
100
AcDbEntity
  8
P-SANR-FIXT
100
AcDbLine
 10
1083.324770303486
 20
2039.828076178137
 30
0.0
 11
1083.324770303486
 21
2052.127858311658
 31
0.0
  0
LINE
  5
309
330
2C1
100
AcDbEntity
  8
P-SANR-FIXT
100
AcDbLine
 10
1083.324770303486
 20
2039.828076178137
 30
0.0
 11
1085.364353943061
 21
2039.828076178137
 31
0.0
  0
LINE
  5
30A
330
2C1
100
AcDbEntity
  8
P-SANR-FIXT
100
AcDbLine
 10
1085.364353943061
 20
2052.127858311658
 30
0.0
 11
1083.324770303486
 21
2052.127858311658
 31
0.0
  0
LINE
  5
30B
330
2C1
100
AcDbEntity
  8
P-SANR-FIXT
100
AcDbLine
 10
1085.364353943061
 20
2039.828076178137
 30
0.0
 11
1085.364353943061
 21
2052.127858311658
 31
0.0
  0
SPLINE
  5
30C
330
2C1
100
AcDbEntity
  8
P-SANR-FIXT
100
AcDbSpline
210
0.0
220
0.0
230
1.0
 70
    24
 71
     3
 72
     8
 73
     4
 74
     0
 42
0.000000001
 43
0.0000000001
 40
0.5
 40
0.5
 40
0.5
 40
0.5
 40
1.0
 40
1.0
 40
1.0
 40
1.0
 10
1085.364353943061
 20
2053.13814957213
 30
0.0
 10
1085.364353943061
 20
2053.13814957213
 30
0.0
 10
1085.364353943061
 20
2052.801385818639
 30
0.0
 10
1085.364353943061
 20
2052.127858311658
 30
0.0
  0
SPLINE
  5
30D
330
2C1
100
AcDbEntity
  8
P-SANR-FIXT
100
AcDbSpline
210
0.0
220
0.0
230
1.0
 70
    24
 71
     3
 72
     9
 73
     5
 74
     0
 42
0.000000001
 43
0.0000000001
 40
0.0
 40
0.0
 40
0.0
 40
0.0
 40
0.5
 40
0.5043767656529017
 40
0.5043767656529017
 40
0.5043767656529017
 40
0.5043767656529017
 10
1048.864353943095
 20
2052.127858311657
 30
0.0
 10
1048.864353943095
 20
2052.801385818638
 30
0.0
 10
1048.864353943095
 20
2053.141097444187
 30
0.0
 10
1048.864353943095
 20
2053.138123767839
 30
0.0
 10
1048.864353943095
 20
2053.138072159258
 30
0.0
  0
LINE
  5
30E
330
2C1
100
AcDbEntity
  8
P-SANR-FIXT
100
AcDbLine
 10
1048.864353943095
 20
2039.828076178137
 30
0.0
 11
1048.864353943095
 21
2052.127858311657
 31
0.0
  0
LINE
  5
30F
330
2C1
100
AcDbEntity
  8
P-SANR-FIXT
100
AcDbLine
 10
1048.864353943095
 20
2039.828076178137
 30
0.0
 11
1050.903937582671
 21
2039.828076178137
 31
0.0
  0
LINE
  5
310
330
2C1
100
AcDbEntity
  8
P-SANR-FIXT
100
AcDbLine
 10
1050.903937582671
 20
2052.127858311658
 30
0.0
 11
1048.864353943095
 21
2052.127858311658
 31
0.0
  0
SPLINE
  5
311
330
2C1
100
AcDbEntity
  8
P-SANR-FIXT
100
AcDbSpline
210
0.0
220
0.0
230
1.0
 70
     8
 71
     3
 72
     9
 73
     5
 74
     0
 42
0.000000001
 43
0.0000000001
 40
0.0
 40
0.0
 40
0.0
 40
0.0
 40
0.5
 40
1.0
 40
1.0
 40
1.0
 40
1.0
 10
1065.074770303503
 20
2052.127858311658
 30
0.0
 10
1062.674090906825
 20
2052.801385818638
 30
0.0
 10
1057.911606056675
 20
2053.47491332562
 30
0.0
 10
1053.226869092937
 20
2052.801385818638
 30
0.0
 10
1050.903937582671
 20
2052.127858311657
 30
0.0
  0
LINE
  5
312
330
2C1
100
AcDbEntity
  8
P-SANR-FIXT
100
AcDbLine
 10
1050.903937582671
 20
2039.828076178137
 30
0.0
 11
1050.903937582671
 21
2052.127858311657
 31
0.0
  0
LINE
  5
313
330
2C1
100
AcDbEntity
  8
P-SANR-FIXT
100
AcDbLine
 10
1067.114353943079
 20
2053.282558850038
 30
0.0
 11
1054.386431881723
 21
2053.282558850038
 31
0.0
  0
LINE
  5
314
330
2C1
100
AcDbEntity
  8
P-SANR-FIXT
100
AcDbLine
 10
1054.386431881723
 20
2053.282558850038
 30
0.0
 11
1049.11435394308
 21
2053.282558850038
 31
0.0
  0
LINE
  5
315
330
2C1
100
AcDbEntity
  8
P-SANR-FIXT
100
AcDbLine
 10
1085.114353943078
 20
2053.282558850038
 30
0.0
 11
1079.842276004438
 21
2053.282558850038
 31
0.0
  0
LINE
  5
316
330
2C1
100
AcDbEntity
  8
P-SANR-FIXT
100
AcDbLine
 10
1079.842276004438
 20
2053.282558850038
 30
0.0
 11
1067.11435394308
 21
2053.282558850038
 31
0.0
  0
LINE
  5
317
330
2C1
100
AcDbEntity
  8
P-SANR-FIXT
100
AcDbLine
 10
1067.114353943079
 20
2034.782558850008
 30
0.0
 11
1064.799810619108
 21
2034.782558850008
 31
0.0
  0
LINE
  5
318
330
2C1
100
AcDbEntity
  8
P-SANR-FIXT
100
AcDbLine
 10
1064.542291091825
 20
2034.782558850008
 30
0.0
 11
1062.499537224393
 21
2034.782558850008
 31
0.0
  0
LINE
  5
319
330
2C1
100
AcDbEntity
  8
P-SANR-FIXT
100
AcDbLine
 10
1061.988764548409
 20
2034.782558850008
 30
0.0
 11
1059.616082353382
 21
2034.782558850008
 31
0.0
  0
LINE
  5
31A
330
2C1
100
AcDbEntity
  8
P-SANR-FIXT
100
AcDbLine
 10
1059.473768812205
 20
2034.782558850008
 30
0.0
 11
1057.998352609018
 21
2034.782558850008
 31
0.0
  0
LINE
  5
31B
330
2C1
100
AcDbEntity
  8
P-SANR-FIXT
100
AcDbLine
 10
1057.017001683973
 20
2034.782558850008
 30
0.0
 11
1055.825192688309
 21
2034.782558850008
 31
0.0
  0
LINE
  5
31C
330
2C1
100
AcDbEntity
  8
P-SANR-FIXT
100
AcDbLine
 10
1054.637698778816
 20
2034.782558850008
 30
0.0
 11
1052.354471355307
 21
2034.782558850008
 31
0.0
  0
LINE
  5
31D
330
2C1
100
AcDbEntity
  8
P-SANR-FIXT
100
AcDbLine
 10
1051.73967818338
 20
2034.782558850008
 30
0.0
 11
1050.185148310398
 21
2034.782558850008
 31
0.0
  0
LINE
  5
31E
330
2C1
100
AcDbEntity
  8
P-SANR-FIXT
100
AcDbLine
 10
1049.774689000452
 20
2034.782558850008
 30
0.0
 11
1048.146622867288
 21
2034.782558850008
 31
0.0
  0
LINE
  5
31F
330
2C1
100
AcDbEntity
  8
P-SANR-FIXT
100
AcDbLine
 10
1047.955636517339
 20
2034.782558850008
 30
0.0
 11
1044.682377957879
 21
2034.782558850008
 31
0.0
  0
LINE
  5
320
330
2C1
100
AcDbEntity
  8
P-SANR-FIXT
100
AcDbLine
 10
1044.508775866631
 20
2034.782558850008
 30
0.0
 11
1043.248352609019
 21
2034.782558850008
 31
0.0
  0
LINE
  5
321
330
2C1
100
AcDbEntity
  8
P-SANR-FIXT
100
AcDbLine
 10
1042.935941290808
 20
2034.782558850008
 30
0.0
 11
1041.961469094634
 21
2034.782558850008
 31
0.0
  0
LINE
  5
322
330
2C1
100
AcDbEntity
  8
P-SANR-FIXT
100
AcDbLine
 10
1041.54861384143
 20
2034.782558850008
 30
0.0
 11
1040.579327467899
 21
2034.782558850008
 31
0.0
  0
LINE
  5
323
330
2C1
100
AcDbEntity
  8
P-SANR-FIXT
100
AcDbLine
 10
1040.141647978972
 20
2034.782558850008
 30
0.0
 11
1039.594193097512
 21
2034.782558850008
 31
0.0
  0
LINE
  5
324
330
2C1
100
AcDbEntity
  8
P-SANR-FIXT
100
AcDbLine
 10
1039.23691725831
 20
2034.782558850008
 30
0.0
 11
1038.797973046507
 21
2034.782558850008
 31
0.0
  0
LINE
  5
325
330
2C1
100
AcDbEntity
  8
P-SANR-FIXT
100
AcDbLine
 10
1038.529431015693
 20
2034.782558850008
 30
0.0
 11
1038.196321737311
 21
2034.782558850008
 31
0.0
  0
LINE
  5
326
330
2C1
100
AcDbEntity
  8
P-SANR-FIXT
100
AcDbLine
 10
1038.021800599643
 20
2034.782558850008
 30
0.0
 11
1037.794383449862
 21
2034.782558850008
 31
0.0
  0
LINE
  5
327
330
2C1
100
AcDbEntity
  8
P-SANR-FIXT
100
AcDbLine
 10
1037.720082396958
 20
2034.782558850008
 30
0.0
 11
1037.614353943079
 21
2034.782558850008
 31
0.0
  0
LINE
  5
328
330
2C1
100
AcDbEntity
  8
P-SANR-FIXT
100
AcDbLine
 10
1096.614353943079
 20
2034.782558850008
 30
0.0
 11
1096.512397951335
 21
2034.782558850008
 31
0.0
  0
LINE
  5
329
330
2C1
100
AcDbEntity
  8
P-SANR-FIXT
100
AcDbLine
 10
1096.434324436296
 20
2034.782558850008
 30
0.0
 11
1096.206907286516
 21
2034.782558850008
 31
0.0
  0
LINE
  5
32A
330
2C1
100
AcDbEntity
  8
P-SANR-FIXT
100
AcDbLine
 10
1096.032386148849
 20
2034.782558850008
 30
0.0
 11
1095.699276870464
 21
2034.782558850008
 31
0.0
  0
LINE
  5
32B
330
2C1
100
AcDbEntity
  8
P-SANR-FIXT
100
AcDbLine
 10
1095.43073483965
 20
2034.782558850008
 30
0.0
 11
1095.090670251081
 21
2034.782558850008
 31
0.0
  0
LINE
  5
32C
330
2C1
100
AcDbEntity
  8
P-SANR-FIXT
100
AcDbLine
 10
1094.634514788648
 20
2034.782558850008
 30
0.0
 11
1094.087059907188
 21
2034.782558850008
 31
0.0
  0
LINE
  5
32D
330
2C1
100
AcDbEntity
  8
P-SANR-FIXT
100
AcDbLine
 10
1093.649380418261
 20
2034.782558850008
 30
0.0
 11
1092.680094044728
 21
2034.782558850008
 31
0.0
  0
LINE
  5
32E
330
2C1
100
AcDbEntity
  8
P-SANR-FIXT
100
AcDbLine
 10
1092.267238791525
 20
2034.782558850008
 30
0.0
 11
1091.29276659535
 21
2034.782558850008
 31
0.0
  0
LINE
  5
32F
330
2C1
100
AcDbEntity
  8
P-SANR-FIXT
100
AcDbLine
 10
1091.150380975622
 20
2034.782558850008
 30
0.0
 11
1089.719932019527
 21
2034.782558850008
 31
0.0
  0
LINE
  5
330
330
2C1
100
AcDbEntity
  8
P-SANR-FIXT
100
AcDbLine
 10
1089.54632992828
 20
2034.782558850008
 30
0.0
 11
1086.27307136882
 21
2034.782558850008
 31
0.0
  0
LINE
  5
331
330
2C1
100
AcDbEntity
  8
P-SANR-FIXT
100
AcDbLine
 10
1086.08208501887
 20
2034.782558850008
 30
0.0
 11
1084.454018885707
 21
2034.782558850008
 31
0.0
  0
LINE
  5
332
330
2C1
100
AcDbEntity
  8
P-SANR-FIXT
100
AcDbLine
 10
1084.04355957576
 20
2034.782558850008
 30
0.0
 11
1082.5280616022
 21
2034.782558850008
 31
0.0
  0
LINE
  5
333
330
2C1
100
AcDbEntity
  8
P-SANR-FIXT
100
AcDbLine
 10
1081.874236530852
 20
2034.782558850008
 30
0.0
 11
1079.591009107342
 21
2034.782558850008
 31
0.0
  0
LINE
  5
334
330
2C1
100
AcDbEntity
  8
P-SANR-FIXT
100
AcDbLine
 10
1078.403515197849
 20
2034.782558850008
 30
0.0
 11
1077.211706202185
 21
2034.782558850008
 31
0.0
  0
LINE
  5
335
330
2C1
100
AcDbEntity
  8
P-SANR-FIXT
100
AcDbLine
 10
1076.23035527714
 20
2034.782558850008
 30
0.0
 11
1074.754939073953
 21
2034.782558850008
 31
0.0
  0
LINE
  5
336
330
2C1
100
AcDbEntity
  8
P-SANR-FIXT
100
AcDbLine
 10
1074.000992176828
 20
2034.782558850008
 30
0.0
 11
1072.239943337749
 21
2034.782558850008
 31
0.0
  0
LINE
  5
337
330
2C1
100
AcDbEntity
  8
P-SANR-FIXT
100
AcDbLine
 10
1071.729170661766
 20
2034.782558850008
 30
0.0
 11
1069.686416794333
 21
2034.782558850008
 31
0.0
  0
LINE
  5
338
330
2C1
100
AcDbEntity
  8
P-SANR-FIXT
100
AcDbLine
 10
1069.428897267051
 20
2034.782558850008
 30
0.0
 11
1067.11435394308
 21
2034.782558850008
 31
0.0
  0
LINE
  5
339
330
2C1
100
AcDbEntity
  8
P-SANR-FIXT
100
AcDbLine
 10
1050.903937582671
 20
2039.828076178137
 30
0.0
 11
1065.074770303502
 21
2039.828076178137
 31
0.0
  0
LINE
  5
33A
330
2C1
100
AcDbEntity
  8
P-SANR-FIXT
100
AcDbLine
 10
1047.114353943079
 20
2039.828076178137
 30
0.0
 11
1048.864353943095
 21
2039.828076178137
 31
0.0
  0
LINE
  5
33B
330
2C1
100
AcDbEntity
  8
P-SANR-FIXT
100
AcDbLine
 10
1085.364353943061
 20
2039.828076178137
 30
0.0
 11
1087.114353943078
 21
2039.828076178137
 31
0.0
  0
LINE
  5
33C
330
2C1
100
AcDbEntity
  8
P-SANR-FIXT
100
AcDbLine
 10
1069.153937582653
 20
2039.828076178137
 30
0.0
 11
1083.324770303486
 21
2039.828076178137
 31
0.0
  0
LINE
  5
33D
330
2C1
100
AcDbEntity
  8
P-SANR-FIXT
100
AcDbLine
 10
1049.11435394308
 20
2107.282558850038
 30
0.0
 11
1067.114353943079
 21
2107.282558850038
 31
0.0
  0
LINE
  5
33E
330
2C1
100
AcDbEntity
  8
P-SANR-FIXT
100
AcDbLine
 10
1067.114353943079
 20
2107.282558850038
 30
0.0
 11
1085.114353943078
 21
2107.282558850038
 31
0.0
  0
LINE
  5
33F
330
2C1
100
AcDbEntity
  8
P-SANR-FIXT
100
AcDbLine
 10
1054.1150314347
 20
1950.982558850011
 30
0.0
 11
1053.614165852153
 21
1950.6933839711
 31
0.0
  0
LINE
  5
340
330
2C1
100
AcDbEntity
  8
P-SANR-FIXT
100
AcDbLine
 10
1080.614542034006
 20
1950.693383971101
 30
0.0
 11
1080.113676451461
 21
1950.982558850011
 31
0.0
  0
LINE
  5
341
330
2C1
100
AcDbEntity
  8
P-SANR-FIXT
100
AcDbLine
 10
1053.614165852153
 20
1946.27173372889
 30
0.0
 11
1054.115031434672
 21
1945.982558849995
 31
0.0
  0
LINE
  5
342
330
2C1
100
AcDbEntity
  8
P-SANR-FIXT
100
AcDbLine
 10
1080.113676451489
 20
1945.982558849995
 30
0.0
 11
1080.614542034006
 21
1946.271733728889
 31
0.0
  0
LINE
  5
343
330
2C1
100
AcDbEntity
  8
P-SANR-FIXT
100
AcDbLine
 10
1067.114353943079
 20
1945.982558849994
 30
0.0
 11
1054.115031434671
 21
1945.982558849994
 31
0.0
  0
LINE
  5
344
330
2C1
100
AcDbEntity
  8
P-SANR-FIXT
100
AcDbLine
 10
1080.113676451488
 20
1945.982558849994
 30
0.0
 11
1067.11435394308
 21
1945.982558849994
 31
0.0
  0
LINE
  5
345
330
2C1
100
AcDbEntity
  8
P-SANR-FIXT
100
AcDbLine
 10
1065.510651155593
 20
1949.97180472896
 30
0.0
 11
1065.510651155593
 21
1946.993312971029
 31
0.0
  0
LINE
  5
346
330
2C1
100
AcDbEntity
  8
P-SANR-FIXT
100
AcDbLine
 10
1065.510651155593
 20
1946.993312971029
 30
0.0
 11
1067.114353943079
 21
1946.993312971029
 31
0.0
  0
LINE
  5
347
330
2C1
100
AcDbEntity
  8
P-SANR-FIXT
100
AcDbLine
 10
1067.114353943079
 20
1946.993312971029
 30
0.0
 11
1068.718056730563
 21
1946.993312971029
 31
0.0
  0
LINE
  5
348
330
2C1
100
AcDbEntity
  8
P-SANR-FIXT
100
AcDbLine
 10
1068.718056730563
 20
1949.97180472896
 30
0.0
 11
1067.114353943079
 21
1949.97180472896
 31
0.0
  0
LINE
  5
349
330
2C1
100
AcDbEntity
  8
P-SANR-FIXT
100
AcDbLine
 10
1067.114353943079
 20
1949.97180472896
 30
0.0
 11
1065.510651155593
 21
1949.97180472896
 31
0.0
  0
LINE
  5
34A
330
2C1
100
AcDbEntity
  8
P-SANR-FIXT
100
AcDbLine
 10
1068.718056730563
 20
1946.993312971029
 30
0.0
 11
1068.718056730563
 21
1949.97180472896
 31
0.0
  0
SPLINE
  5
34B
330
2C1
100
AcDbEntity
  8
P-SANR-FIXT
100
AcDbSpline
210
0.0
220
0.0
230
1.0
 70
     8
 71
     3
 72
     9
 73
     5
 74
     0
 42
0.000000001
 43
0.0000000001
 40
0.0
 40
0.0
 40
0.0
 40
0.0
 40
0.5
 40
1.0
 40
1.0
 40
1.0
 40
1.0
 10
1068.718056730563
 20
1946.993312971029
 30
0.0
 10
1070.462039467939
 20
1946.512222606641
 30
0.0
 10
1073.921454609489
 20
1946.031132242253
 30
0.0
 10
1077.323769084637
 20
1946.512222606641
 30
0.0
 10
1079.010651155611
 20
1946.993312971029
 30
0.0
  0
SPLINE
  5
34C
330
2C1
100
AcDbEntity
  8
P-SANR-FIXT
100
AcDbSpline
210
0.0
220
0.0
230
1.0
 70
     8
 71
     3
 72
     9
 73
     5
 74
     0
 42
0.000000001
 43
0.0000000001
 40
0.0
 40
0.0
 40
0.0
 40
0.0
 40
0.5
 40
1.0
 40
1.0
 40
1.0
 40
1.0
 10
1079.010651155611
 20
1949.97180472896
 30
0.0
 10
1077.323769084637
 20
1950.452895093348
 30
0.0
 10
1073.921454609489
 20
1950.933985457736
 30
0.0
 10
1070.462039467939
 20
1950.452895093348
 30
0.0
 10
1068.718056730563
 20
1949.97180472896
 30
0.0
  0
LINE
  5
34D
330
2C1
100
AcDbEntity
  8
P-SANR-FIXT
100
AcDbLine
 10
1079.010651155611
 20
1946.993312971029
 30
0.0
 11
1079.010651155611
 21
1949.97180472896
 31
0.0
  0
LINE
  5
34E
330
2C1
100
AcDbEntity
  8
P-SANR-FIXT
100
AcDbLine
 10
1079.010651155611
 20
1946.993312971029
 30
0.0
 11
1080.614353943096
 21
1946.993312971029
 31
0.0
  0
LINE
  5
34F
330
2C1
100
AcDbEntity
  8
P-SANR-FIXT
100
AcDbLine
 10
1080.614353943096
 20
1949.97180472896
 30
0.0
 11
1079.010651155611
 21
1949.97180472896
 31
0.0
  0
LINE
  5
350
330
2C1
100
AcDbEntity
  8
P-SANR-FIXT
100
AcDbLine
 10
1080.614353943096
 20
1946.993312971028
 30
0.0
 11
1080.614353943096
 21
1949.97180472896
 31
0.0
  0
SPLINE
  5
351
330
2C1
100
AcDbEntity
  8
P-SANR-FIXT
100
AcDbSpline
210
0.0
220
0.0
230
1.0
 70
    24
 71
     3
 72
     8
 73
     4
 74
     0
 42
0.000000001
 43
0.0000000001
 40
0.0
 40
0.0
 40
0.0
 40
0.0
 40
0.5
 40
0.5
 40
0.5
 40
0.5
 10
1080.614353943096
 20
1946.993312971028
 30
0.0
 10
1080.614353943096
 20
1946.512222606641
 30
0.0
 10
1080.614353943096
 20
1946.271677424446
 30
0.0
 10
1080.614353943096
 20
1946.271677424446
 30
0.0
  0
SPLINE
  5
352
330
2C1
100
AcDbEntity
  8
P-SANR-FIXT
100
AcDbSpline
210
0.0
220
0.0
230
1.0
 70
    24
 71
     3
 72
     8
 73
     4
 74
     0
 42
0.000000001
 43
0.0000000001
 40
0.5
 40
0.5
 40
0.5
 40
0.5
 40
1.0
 40
1.0
 40
1.0
 40
1.0
 10
1080.614353943096
 20
1950.693440275542
 30
0.0
 10
1080.614353943096
 20
1950.693440275542
 30
0.0
 10
1080.614353943096
 20
1950.452895093348
 30
0.0
 10
1080.614353943096
 20
1949.97180472896
 30
0.0
  0
SPLINE
  5
353
330
2C1
100
AcDbEntity
  8
P-SANR-FIXT
100
AcDbSpline
210
0.0
220
0.0
230
1.0
 70
    24
 71
     3
 72
     9
 73
     5
 74
     0
 42
0.000000001
 43
0.0000000001
 40
0.4955834579152537
 40
0.4955834579152537
 40
0.4955834579152537
 40
0.4955834579152537
 40
0.5
 40
1.0
 40
1.0
 40
1.0
 40
1.0
 10
1053.61435394306
 20
1946.271733728889
 30
0.0
 10
1053.61435394306
 20
1946.271696192595
 30
0.0
 10
1053.61435394306
 20
1946.269552668608
 30
0.0
 10
1053.61435394306
 20
1946.512222606605
 30
0.0
 10
1053.61435394306
 20
1946.993312971029
 30
0.0
  0
SPLINE
  5
354
330
2C1
100
AcDbEntity
  8
P-SANR-FIXT
100
AcDbSpline
210
0.0
220
0.0
230
1.0
 70
    24
 71
     3
 72
     9
 73
     5
 74
     0
 42
0.000000001
 43
0.0000000001
 40
0.0
 40
0.0
 40
0.0
 40
0.0
 40
0.5
 40
0.5044165420847459
 40
0.5044165420847459
 40
0.5044165420847459
 40
0.5044165420847459
 10
1053.61435394306
 20
1949.971804728959
 30
0.0
 10
1053.61435394306
 20
1950.452895093347
 30
0.0
 10
1053.61435394306
 20
1950.695565031382
 30
0.0
 10
1053.61435394306
 20
1950.693421507394
 30
0.0
 10
1053.61435394306
 20
1950.6933839711
 30
0.0
  0
LINE
  5
355
330
2C1
100
AcDbEntity
  8
P-SANR-FIXT
100
AcDbLine
 10
1053.61435394306
 20
1946.993312971029
 30
0.0
 11
1053.61435394306
 21
1949.971804728959
 31
0.0
  0
LINE
  5
356
330
2C1
100
AcDbEntity
  8
P-SANR-FIXT
100
AcDbLine
 10
1053.61435394306
 20
1946.993312971029
 30
0.0
 11
1055.218056730545
 21
1946.993312971029
 31
0.0
  0
LINE
  5
357
330
2C1
100
AcDbEntity
  8
P-SANR-FIXT
100
AcDbLine
 10
1055.218056730545
 20
1949.97180472896
 30
0.0
 11
1053.61435394306
 21
1949.97180472896
 31
0.0
  0
SPLINE
  5
358
330
2C1
100
AcDbEntity
  8
P-SANR-FIXT
100
AcDbSpline
210
0.0
220
0.0
230
1.0
 70
     8
 71
     3
 72
     9
 73
     5
 74
     0
 42
0.000000001
 43
0.0000000001
 40
0.0
 40
0.0
 40
0.0
 40
0.0
 40
0.5
 40
1.0
 40
1.0
 40
1.0
 40
1.0
 10
1065.510651155593
 20
1949.97180472896
 30
0.0
 10
1063.766668418218
 20
1950.452895093348
 30
0.0
 10
1060.307253276668
 20
1950.933985457735
 30
0.0
 10
1056.904938801519
 20
1950.452895093347
 30
0.0
 10
1055.218056730545
 20
1949.97180472896
 30
0.0
  0
LINE
  5
359
330
2C1
100
AcDbEntity
  8
P-SANR-FIXT
100
AcDbLine
 10
1055.218056730545
 20
1946.993312971029
 30
0.0
 11
1055.218056730545
 21
1949.97180472896
 31
0.0
  0
SPLINE
  5
35A
330
2C1
100
AcDbEntity
  8
P-SANR-FIXT
100
AcDbSpline
210
0.0
220
0.0
230
1.0
 70
     8
 71
     3
 72
     9
 73
     5
 74
     0
 42
0.000000001
 43
0.0000000001
 40
0.0
 40
0.0
 40
0.0
 40
0.0
 40
0.5
 40
1.0
 40
1.0
 40
1.0
 40
1.0
 10
1055.218056730545
 20
1946.993312971029
 30
0.0
 10
1056.904938801519
 20
1946.512222606642
 30
0.0
 10
1060.307253276668
 20
1946.031132242254
 30
0.0
 10
1063.766668418218
 20
1946.512222606641
 30
0.0
 10
1065.510651155593
 20
1946.993312971029
 30
0.0
  0
LINE
  5
35B
330
2C1
100
AcDbEntity
  8
P-SANR-FIXT
100
AcDbLine
 10
1049.957052907726
 20
2111.48255885006
 30
0.0
 11
1049.364353943081
 21
2110.889859885414
 31
0.0
  0
LINE
  5
35C
330
2C1
100
AcDbEntity
  8
P-SANR-FIXT
100
AcDbLine
 10
1084.864353943081
 20
2110.889859885414
 30
0.0
 11
1084.271654978435
 21
2111.48255885006
 31
0.0
  0
LINE
  5
35D
330
2C1
100
AcDbEntity
  8
P-SANR-FIXT
100
AcDbLine
 10
1049.364353943081
 20
2110.889859885414
 30
0.0
 11
1049.364353943081
 21
2107.98255885006
 31
0.0
  0
LINE
  5
35E
330
2C1
100
AcDbEntity
  8
P-SANR-FIXT
100
AcDbLine
 10
1084.864353943081
 20
2107.98255885006
 30
0.0
 11
1084.864353943081
 21
2110.889859885414
 31
0.0
  0
LINE
  5
35F
330
2C1
100
AcDbEntity
  8
P-SANR-FIXT
100
AcDbLine
 10
1049.364353943081
 20
2107.98255885006
 30
0.0
 11
1050.064353943102
 21
2107.282558850039
 31
0.0
  0
LINE
  5
360
330
2C1
100
AcDbEntity
  8
P-SANR-FIXT
100
AcDbLine
 10
1084.16435394306
 20
2107.282558850039
 30
0.0
 11
1084.864353943081
 21
2107.98255885006
 31
0.0
  0
LINE
  5
361
330
2C1
100
AcDbEntity
  8
P-SANR-FIXT
100
AcDbLine
 10
1067.114353943079
 20
2111.482558850059
 30
0.0
 11
1049.957052907725
 21
2111.482558850059
 31
0.0
  0
LINE
  5
362
330
2C1
100
AcDbEntity
  8
P-SANR-FIXT
100
AcDbLine
 10
1084.271654978434
 20
2111.482558850059
 30
0.0
 11
1067.114353943079
 21
2111.482558850059
 31
0.0
  0
LINE
  5
363
330
2C1
100
AcDbEntity
  8
P-SANR-FIXT
100
AcDbLine
 10
1049.364353943079
 20
2110.889859885414
 30
0.0
 11
1067.114353943079
 21
2110.889859885414
 31
0.0
  0
LINE
  5
364
330
2C1
100
AcDbEntity
  8
P-SANR-FIXT
100
AcDbLine
 10
1067.114353943079
 20
2110.889859885414
 30
0.0
 11
1084.864353943079
 21
2110.889859885414
 31
0.0
  0
LINE
  5
365
330
2C1
100
AcDbEntity
  8
P-SANR-FIXT
100
AcDbLine
 10
1049.364353943079
 20
2107.982558850059
 30
0.0
 11
1067.114353943079
 21
2107.982558850059
 31
0.0
  0
LINE
  5
366
330
2C1
100
AcDbEntity
  8
P-SANR-FIXT
100
AcDbLine
 10
1067.114353943079
 20
2107.982558850059
 30
0.0
 11
1084.864353943079
 21
2107.982558850059
 31
0.0
  0
LINE
  5
367
330
2C1
100
AcDbEntity
  8
P-SANR-FIXT
100
AcDbLine
 10
1052.86435394308
 20
1960.238971215058
 30
0.0
 11
1052.86435394308
 21
1951.482558850011
 31
0.0
  0
LINE
  5
368
330
2C1
100
AcDbEntity
  8
P-SANR-FIXT
100
AcDbLine
 10
1081.364353943081
 20
1951.482558850011
 30
0.0
 11
1081.364353943081
 21
1960.238971215058
 31
0.0
  0
LINE
  5
369
330
2C1
100
AcDbEntity
  8
P-SANR-FIXT
100
AcDbLine
 10
1045.11435394308
 20
1986.506868408243
 30
0.0
 11
1045.11435394308
 21
1969.982558850011
 31
0.0
  0
LINE
  5
36A
330
2C1
100
AcDbEntity
  8
P-SANR-FIXT
100
AcDbLine
 10
1089.11435394308
 20
1969.982558850011
 30
0.0
 11
1089.11435394308
 21
1986.506868408243
 31
0.0
  0
LINE
  5
36B
330
2C1
100
AcDbEntity
  8
P-SANR-FIXT
100
AcDbLine
 10
1043.61435394308
 20
2007.982558850011
 30
0.0
 11
1043.61435394308
 21
1988.443360081346
 31
0.0
  0
LINE
  5
36C
330
2C1
100
AcDbEntity
  8
P-SANR-FIXT
100
AcDbLine
 10
1090.614353943081
 20
1988.443360081346
 30
0.0
 11
1090.614353943081
 21
2007.982558850011
 31
0.0
  0
LINE
  5
36D
330
2C1
100
AcDbEntity
  8
P-SANR-FIXT
100
AcDbLine
 10
1037.11435394308
 20
2034.282558850011
 30
0.0
 11
1037.11435394308
 21
2012.982558850011
 31
0.0
  0
LINE
  5
36E
330
2C1
100
AcDbEntity
  8
P-SANR-FIXT
100
AcDbLine
 10
1097.114353943081
 20
2012.982558850011
 30
0.0
 11
1097.114353943081
 21
2034.282558850011
 31
0.0
  0
LWPOLYLINE
  5
36F
330
2C1
100
AcDbEntity
  8
P-SANR-FIXT
100
AcDbPolyline
 90
       35
 70
   128
 43
0.0
 10
1052.86435394308
 20
1960.238971215058
 10
1052.862754156402
 20
1960.318949883432
 10
1052.857957355686
 20
1960.398800602997
 10
1052.849971214788
 20
1960.478395629636
 10
1052.838808509832
 20
1960.557607628287
 10
1052.824487098763
 20
1960.636309876649
 10
1052.807029892785
 20
1960.714376467913
 10
1052.786464819702
 20
1960.791682512187
 10
1052.762824779245
 20
1960.868104336291
 10
1052.736147590437
 20
1960.943519681609
 10
1052.706475931086
 20
1961.017807899676
 10
1052.67385726952
 20
1961.09085014519
 10
1052.638343788639
 20
1961.162529566142
 10
1052.599992302436
 20
1961.232731490746
 10
1052.558864165107
 20
1961.301343610901
 10
1052.5150251729
 20
1961.368256161849
 10
1052.468545458849
 20
1961.433362097784
 10
1052.419499380582
 20
1961.496557263096
 10
1052.367965401362
 20
1961.557740559001
 10
1052.314025964562
 20
1961.61681410528
 10
1052.257767361775
 20
1961.673683396858
 10
1052.199279594763
 20
1961.728257455
 10
1052.138656231478
 20
1961.780448972857
 10
1052.075994256367
 20
1961.830174455132
 10
1052.011393915226
 20
1961.877354351661
 10
1051.944958554817
 20
1961.921913184674
 10
1051.876794457546
 20
1961.963779669545
 10
1051.807010671428
 20
1962.002886828829
 10
1051.735718835634
 20
1962.039172099412
 10
1051.663033001893
 20
1962.072577432602
 10
1051.589069452034
 20
1962.103049386993
 10
1051.513946511958
 20
1962.130539213958
 10
1051.437784362345
 20
1962.155002935637
 10
1051.360704846385
 20
1962.176401415295
 10
1051.31435394308
 20
1962.187688742049
  0
LWPOLYLINE
  5
370
330
2C1
100
AcDbEntity
  8
P-SANR-FIXT
100
AcDbPolyline
 90
       35
 70
   128
 43
0.0
 10
1082.914353943081
 20
1962.187688742049
 10
1082.836785978661
 20
1962.168134775495
 10
1082.760062010443
 20
1962.145494558778
 10
1082.684304780408
 20
1962.119804311415
 10
1082.609635483964
 20
1962.091105132319
 10
1082.536173576056
 20
1962.059442934058
 10
1082.464036580067
 20
1962.024868369392
 10
1082.393339899801
 20
1961.98743675025
 10
1082.324196634866
 20
1961.947207959239
 10
1082.256717399735
 20
1961.904246353841
 10
1082.191010146791
 20
1961.858620663461
 10
1082.127179993621
 20
1961.810403879469
 10
1082.065329054853
 20
1961.759673138437
 10
1082.005556278796
 20
1961.706509598725
 10
1081.947957289141
 20
1961.650998310658
 10
1081.892624231983
 20
1961.593228080455
 10
1081.839645628411
 20
1961.533291328159
 10
1081.789106232889
 20
1961.47128393979
 10
1081.741086897667
 20
1961.40730511394
 10
1081.695664443441
 20
1961.341457203084
 10
1081.652911536445
 20
1961.27384554983
 10
1081.612896572212
 20
1961.204578318404
 10
1081.575683566148
 20
1961.133766321596
 10
1081.541332051124
 20
1961.061522843498
 10
1081.509896982237
 20
1960.987963458262
 10
1081.481428648891
 20
1960.913205845213
 10
1081.455972594346
 20
1960.837369600586
 10
1081.43356954286
 20
1960.760576046194
 10
1081.414255334535
 20
1960.682948035341
 10
1081.398060867985
 20
1960.604609756286
 10
1081.385012050901
 20
1960.525686533563
 10
1081.375129758609
 20
1960.446304627494
 10
1081.368429800666
 20
1960.366591032193
 10
1081.364922895576
 20
1960.286673272409
 10
1081.364353943081
 20
1960.238971215058
  0
LWPOLYLINE
  5
371
330
2C1
100
AcDbEntity
  8
P-SANR-FIXT
100
AcDbPolyline
 90
       35
 70
   128
 43
0.0
 10
1051.31435394308
 20
1962.187688742049
 10
1051.004082085402
 20
1962.265904608263
 10
1050.697186212529
 20
1962.356465475132
 10
1050.394157292389
 20
1962.459226464588
 10
1050.095480106613
 20
1962.574023180967
 10
1049.801632474983
 20
1962.700671974015
 10
1049.513084491026
 20
1962.838970232678
 10
1049.230297769963
 20
1962.988696709243
 10
1048.953724710221
 20
1963.14961187329
 10
1048.683807769699
 20
1963.321458294883
 10
1048.420978757921
 20
1963.503961056404
 10
1048.16565814524
 20
1963.696828192368
 10
1047.91825439017
 20
1963.8997511565
 10
1047.679163285943
 20
1964.112405315344
 10
1047.448767327321
 20
1964.334450467612
 10
1047.22743509869
 20
1964.565531388426
 10
1047.015520684402
 20
1964.805278397608
 10
1046.813363102312
 20
1965.053307951086
 10
1046.621285761428
 20
1965.309223254485
 10
1046.43959594452
 20
1965.572614897912
 10
1046.268584316538
 20
1965.843061510923
 10
1046.108524459606
 20
1966.120130436632
 10
1045.959672435349
 20
1966.403378423862
 10
1045.822266375255
 20
1966.692352336255
 10
1045.696526099706
 20
1966.986589877198
 10
1045.582652766321
 20
1967.285620329391
 10
1045.480828548142
 20
1967.5889653079
 10
1045.391216342197
 20
1967.896139525471
 10
1045.313959508897
 20
1968.206651568883
 10
1045.249181642698
 20
1968.520004685104
 10
1045.196986374364
 20
1968.835697575993
 10
1045.157457205193
 20
1969.153225200271
 10
1045.130657373421
 20
1969.472079581473
 10
1045.116629753063
 20
1969.791750620609
 10
1045.11435394308
 20
1969.982558850011
  0
LWPOLYLINE
  5
372
330
2C1
100
AcDbEntity
  8
P-SANR-FIXT
100
AcDbPolyline
 90
       35
 70
   128
 43
0.0
 10
1089.11435394308
 20
1969.982558850011
 10
1089.107954796369
 20
1969.662644176518
 10
1089.088767593502
 20
1969.343241298258
 10
1089.056823029912
 20
1969.0248611917
 10
1089.012172210086
 20
1968.708013197097
 10
1088.954886565811
 20
1968.39320420365
 10
1088.885057741897
 20
1968.080937838594
 10
1088.802797449567
 20
1967.771713661498
 10
1088.70823728774
 20
1967.466026365082
 10
1088.601528532504
 20
1967.16436498381
 10
1088.482841895104
 20
1966.867212111542
 10
1088.35236724884
 20
1966.575043129483
 10
1088.210313325315
 20
1966.288325445679
 10
1088.056907380502
 20
1966.007517747261
 10
1087.892394831188
 20
1965.733069266644
 10
1087.717038862358
 20
1965.465419062851
 10
1087.531120006155
 20
1965.204995319112
 10
1087.334935693088
 20
1964.952214657864
 10
1087.128799776208
 20
1964.707481474239
 10
1086.913042029008
 20
1964.471187289127
 10
1086.688007617858
 20
1964.243710122815
 10
1086.454056549811
 20
1964.025413890244
 10
1086.21156309667
 20
1963.81664781882
 10
1085.960915196229
 20
1963.61774588972
 10
1085.70251383166
 20
1963.429026303603
 10
1085.436772390026
 20
1963.250790971548
 10
1085.164116000943
 20
1963.083325032064
 10
1084.884980856471
 20
1962.926896394932
 10
1084.599813513295
 20
1962.781755312599
 10
1084.309070178331
 20
1962.648133979837
 10
1084.013215978894
 20
1962.526246162273
 10
1083.712724218591
 20
1962.416286854415
 10
1083.408075620136
 20
1962.318431967698
 10
1083.0997575563
 20
1962.232838049065
 10
1082.914353943081
 20
1962.187688742049
  0
LWPOLYLINE
  5
373
330
2C1
100
AcDbEntity
  8
P-SANR-FIXT
100
AcDbPolyline
 90
       34
 70
   128
 43
0.0
 10
1045.11435394308
 20
1986.506868408243
 10
1045.113554049741
 20
1986.546857742429
 10
1045.111155649383
 20
1986.586783102212
 10
1045.107162578934
 20
1986.626580615532
 10
1045.101581226456
 20
1986.666186614857
 10
1045.094420520922
 20
1986.705537739038
 10
1045.085691917932
 20
1986.74457103467
 10
1045.075409381391
 20
1986.783224056807
 10
1045.063589361163
 20
1986.821434968859
 10
1045.050250766758
 20
1986.859142641518
 10
1045.035414937083
 20
1986.896286750551
 10
1045.0191056063
 20
1986.932807873309
 10
1045.00134886586
 20
1986.968647583784
 10
1044.982173122758
 20
1987.003748546086
 10
1044.961609054094
 20
1987.038054606164
 10
1044.93968955799
 20
1987.071510881637
 10
1044.916449700965
 20
1987.104063849605
 10
1044.891926661832
 20
1987.135661432261
 10
1044.866159672221
 20
1987.166253080214
 10
1044.839189953822
 20
1987.195789853353
 10
1044.811060652428
 20
1987.224224499142
 10
1044.781816768922
 20
1987.251511528214
 10
1044.751505087279
 20
1987.277607287142
 10
1044.720174099724
 20
1987.302470028279
 10
1044.687873929153
 20
1987.326059976544
 10
1044.654656248949
 20
1987.348339393051
 10
1044.620574200313
 20
1987.369272635486
 10
1044.585682307254
 20
1987.388826215127
 10
1044.550036389357
 20
1987.406968850419
 10
1044.513693472487
 20
1987.423671517014
 10
1044.476711697557
 20
1987.43890749421
 10
1044.439150227519
 20
1987.452652407693
 10
1044.401069152713
 20
1987.464884268532
 10
1044.36435394308
 20
1987.475114244795
  0
LWPOLYLINE
  5
374
330
2C1
100
AcDbEntity
  8
P-SANR-FIXT
100
AcDbPolyline
 90
       34
 70
   128
 43
0.0
 10
1089.864353943081
 20
1987.475114244795
 10
1089.825834410083
 20
1987.464342417853
 10
1089.78777644679
 20
1987.452038836746
 10
1089.750240937825
 20
1987.438223184578
 10
1089.713287931996
 20
1987.422917563448
 10
1089.676976546227
 20
1987.406146459082
 10
1089.641364870992
 20
1987.387936701671
 10
1089.606509877373
 20
1987.368317422941
 10
1089.572467325925
 20
1987.347320009554
 10
1089.539291677468
 20
1987.324978052892
 10
1089.507036005963
 20
1987.301327295319
 10
1089.475751913602
 20
1987.276405573002
 10
1089.445489448261
 20
1987.250252755381
 10
1089.416297023429
 20
1987.222910681384
 10
1089.388221340756
 20
1987.194423092499
 10
1089.361307315348
 20
1987.164835562788
 10
1089.335598003903
 20
1987.13419542599
 10
1089.311134535834
 20
1987.102551699785
 10
1089.287956047473
 20
1987.069955007386
 10
1089.266099619456
 20
1987.036457496548
 10
1089.245600217405
 20
1987.002112756141
 10
1089.226490635992
 20
1986.966975730424
 10
1089.208801446468
 20
1986.931102631142
 10
1089.192560947766
 20
1986.894550847603
 10
1089.177795121217
 20
1986.857378854861
 10
1089.164527588994
 20
1986.819646120177
 10
1089.152779576319
 20
1986.781413007876
 10
1089.142569877507
 20
1986.742740682782
 10
1089.133914825896
 20
1986.703691012365
 10
1089.126828267723
 20
1986.664326467768
 10
1089.12132153997
 20
1986.624710023865
 10
1089.117403452227
 20
1986.584905058515
 10
1089.115080272597
 20
1986.544975251172
 10
1089.11435394308
 20
1986.506868408243
  0
LWPOLYLINE
  5
375
330
2C1
100
AcDbEntity
  8
P-SANR-FIXT
100
AcDbPolyline
 90
       34
 70
   128
 43
0.0
 10
1044.36435394308
 20
1987.475114244795
 10
1044.325834410082
 20
1987.485886071737
 10
1044.28777644679
 20
1987.498189652843
 10
1044.250240937825
 20
1987.51200530501
 10
1044.213287931995
 20
1987.527310926141
 10
1044.176976546227
 20
1987.544082030506
 10
1044.141364870992
 20
1987.562291787918
 10
1044.106509877373
 20
1987.581911066648
 10
1044.072467325925
 20
1987.602908480035
 10
1044.039291677468
 20
1987.625250436697
 10
1044.007036005963
 20
1987.64890119427
 10
1043.975751913603
 20
1987.673822916587
 10
1043.945489448261
 20
1987.699975734208
 10
1043.916297023429
 20
1987.727317808204
 10
1043.888221340756
 20
1987.755805397091
 10
1043.861307315348
 20
1987.785392926801
 10
1043.835598003902
 20
1987.8160330636
 10
1043.811134535834
 20
1987.847676789804
 10
1043.787956047473
 20
1987.880273482203
 10
1043.766099619456
 20
1987.913770993041
 10
1043.745600217405
 20
1987.948115733448
 10
1043.726490635991
 20
1987.983252759165
 10
1043.708801446468
 20
1988.019125858446
 10
1043.692560947765
 20
1988.055677641986
 10
1043.677795121217
 20
1988.092849634728
 10
1043.664527588994
 20
1988.130582369412
 10
1043.652779576319
 20
1988.168815481713
 10
1043.642569877507
 20
1988.207487806808
 10
1043.633914825895
 20
1988.246537477224
 10
1043.626828267723
 20
1988.285902021821
 10
1043.62132153997
 20
1988.325518465724
 10
1043.617403452226
 20
1988.365323431074
 10
1043.615080272597
 20
1988.405253238417
 10
1043.61435394308
 20
1988.443360081346
  0
LWPOLYLINE
  5
376
330
2C1
100
AcDbEntity
  8
P-SANR-FIXT
100
AcDbPolyline
 90
       34
 70
   128
 43
0.0
 10
1090.614353943081
 20
1988.443360081346
 10
1090.613554049742
 20
1988.40337074716
 10
1090.611155649384
 20
1988.363445387377
 10
1090.607162578934
 20
1988.323647874057
 10
1090.601581226456
 20
1988.284041874732
 10
1090.594420520922
 20
1988.244690750551
 10
1090.585691917933
 20
1988.205657454919
 10
1090.575409381391
 20
1988.167004432782
 10
1090.563589361163
 20
1988.12879352073
 10
1090.550250766759
 20
1988.091085848071
 10
1090.535414937084
 20
1988.053941739038
 10
1090.519105606301
 20
1988.01742061628
 10
1090.50134886586
 20
1987.981580905805
 10
1090.482173122758
 20
1987.946479943502
 10
1090.461609054094
 20
1987.912173883426
 10
1090.43968955799
 20
1987.878717607951
 10
1090.416449700965
 20
1987.846164639984
 10
1090.391926661832
 20
1987.814567057328
 10
1090.366159672222
 20
1987.783975409375
 10
1090.339189953822
 20
1987.754438636236
 10
1090.311060652428
 20
1987.726003990447
 10
1090.281816768922
 20
1987.698716961376
 10
1090.251505087279
 20
1987.672621202447
 10
1090.220174099724
 20
1987.64775846131
 10
1090.187873929153
 20
1987.624168513045
 10
1090.154656248949
 20
1987.601889096539
 10
1090.120574200313
 20
1987.580955854103
 10
1090.085682307254
 20
1987.561402274461
 10
1090.050036389357
 20
1987.54325963917
 10
1090.013693472487
 20
1987.526556972575
 10
1089.976711697557
 20
1987.511320995379
 10
1089.939150227519
 20
1987.497576081897
 10
1089.901069152713
 20
1987.485344221057
 10
1089.864353943081
 20
1987.475114244795
  0
LWPOLYLINE
  5
377
330
2C1
100
AcDbEntity
  8
P-SANR-FIXT
100
AcDbPolyline
 90
       38
 70
   128
 43
0.0
 10
1043.61435394308
 20
2007.982558850011
 10
1043.612354209733
 20
2008.082532185478
 10
1043.606358208837
 20
2008.182345584934
 10
1043.596375532715
 20
2008.281839368233
 10
1043.582422151519
 20
2008.380854366547
 10
1043.564520387683
 20
2008.479232176999
 10
1043.542698880211
 20
2008.576815416079
 10
1043.516992538857
 20
2008.673447971421
 10
1043.487442488287
 20
2008.768975251552
 10
1043.454096002275
 20
2008.863244433199
 10
1043.417006428088
 20
2008.956104705783
 10
1043.37623310113
 20
2009.047407512676
 10
1043.331841250029
 20
2009.137006788865
 10
1043.283901892275
 20
2009.224759194621
 10
1043.232491720614
 20
2009.310524344813
 10
1043.177692980354
 20
2009.394165033499
 10
1043.119593337791
 20
2009.475547453417
 10
1043.058285739958
 20
2009.554541410057
 10
1042.993868265932
 20
2009.63102052994
 10
1042.926443969933
 20
2009.704862462788
 10
1042.856120716448
 20
2009.77594907726
 10
1042.783011007684
 20
2009.844166649938
 10
1042.707231803577
 20
2009.909406047259
 10
1042.628904334689
 20
2009.971562900102
 10
1042.548153908262
 20
2010.030537770764
 10
1042.465109707751
 20
2010.086236312031
 10
1042.379904586162
 20
2010.13856941812
 10
1042.292674853515
 20
2010.187453367224
 10
1042.203560058772
 20
2010.232809955453
 10
1042.112702766596
 20
2010.274566621941
 10
1042.020248329272
 20
2010.312656564929
 10
1041.926344654177
 20
2010.347018848635
 10
1041.83114196716
 20
2010.377598500734
 10
1041.734792572211
 20
2010.404346600307
 10
1041.637450607809
 20
2010.427220356099
 10
1041.539271800331
 20
2010.446183174983
 10
1041.440413214926
 20
2010.461204720491
 10
1041.341033004241
 20
2010.472260961355
  0
LWPOLYLINE
  5
378
330
2C1
100
AcDbEntity
  8
P-SANR-FIXT
100
AcDbPolyline
 90
        4
 70
   128
 43
0.0
 10
1041.305465823129
 20
2010.474783202466
 10
1041.241290155414
 20
2010.47933420995
 10
1041.141344235726
 20
2010.482413150587
 10
1041.114353943081
 20
2010.482558850011
  0
LWPOLYLINE
  5
379
330
2C1
100
AcDbEntity
  8
P-SANR-FIXT
100
AcDbPolyline
 90
        3
 70
   128
 43
0.0
 10
1093.041986601775
 20
2010.481111310175
 10
1093.014380607614
 20
2010.480559116664
 10
1092.914567208158
 20
2010.474563115768
  0
LWPOLYLINE
  5
37A
330
2C1
100
AcDbEntity
  8
P-SANR-FIXT
100
AcDbPolyline
 90
       38
 70
   128
 43
0.0
 10
1092.815073424858
 20
2010.464580439646
 10
1092.716058426545
 20
2010.45062705845
 10
1092.617680616093
 20
2010.432725294615
 10
1092.520097377013
 20
2010.410903787141
 10
1092.42346482167
 20
2010.385197445788
 10
1092.32793754154
 20
2010.355647395217
 10
1092.233668359893
 20
2010.322300909206
 10
1092.140808087309
 20
2010.285211335019
 10
1092.049505280416
 20
2010.244438008061
 10
1091.959906004227
 20
2010.20004615696
 10
1091.872153598471
 20
2010.152106799205
 10
1091.786388448278
 20
2010.100696627545
 10
1091.702747759593
 20
2010.045897887286
 10
1091.621365339675
 20
2009.987798244722
 10
1091.542371383035
 20
2009.926490646888
 10
1091.465892263152
 20
2009.862073172864
 10
1091.392050330304
 20
2009.794648876864
 10
1091.320963715832
 20
2009.724325623379
 10
1091.252746143154
 20
2009.651215914614
 10
1091.187506745833
 20
2009.575436710508
 10
1091.12534989299
 20
2009.49710924162
 10
1091.066375022328
 20
2009.416358815192
 10
1091.010676481061
 20
2009.333314614682
 10
1090.958343374972
 20
2009.248109493094
 10
1090.909459425868
 20
2009.160879760446
 10
1090.864102837639
 20
2009.071764965703
 10
1090.822346171151
 20
2008.980907673527
 10
1090.784256228163
 20
2008.888453236203
 10
1090.749893944457
 20
2008.794549561108
 10
1090.719314292358
 20
2008.699346874091
 10
1090.692566192785
 20
2008.602997479142
 10
1090.669692436992
 20
2008.50565551474
 10
1090.65072961811
 20
2008.407476707262
 10
1090.635708072601
 20
2008.308618121857
 10
1090.624651831737
 20
2008.209237911172
 10
1090.617578583142
 20
2008.109495062345
 10
1090.614499642506
 20
2008.009549142657
 10
1090.614353943081
 20
2007.982558850011
  0
LWPOLYLINE
  5
37B
330
2C1
100
AcDbEntity
  8
P-SANR-FIXT
100
AcDbPolyline
 90
       41
 70
   128
 43
0.0
 10
1039.614353943081
 20
2010.482558850011
 10
1039.514380607614
 20
2010.484558583359
 10
1039.414567208158
 20
2010.490554584255
 10
1039.315073424858
 20
2010.500537260377
 10
1039.216058426545
 20
2010.514490641572
 10
1039.117680616093
 20
2010.532392405409
 10
1039.020097377013
 20
2010.554213912881
 10
1038.92346482167
 20
2010.579920254234
 10
1038.82793754154
 20
2010.609470304805
 10
1038.733668359893
 20
2010.642816790817
 10
1038.640808087309
 20
2010.679906365004
 10
1038.549505280415
 20
2010.720679691961
 10
1038.459906004227
 20
2010.765071543064
 10
1038.372153598471
 20
2010.813010900817
 10
1038.286388448278
 20
2010.864421072477
 10
1038.202747759593
 20
2010.919219812737
 10
1038.121365339675
 20
2010.977319455301
 10
1038.042371383034
 20
2011.038627053134
 10
1037.965892263152
 20
2011.103044527159
 10
1037.892050330304
 20
2011.170468823159
 10
1037.820963715832
 20
2011.240792076643
 10
1037.752746143153
 20
2011.313901785408
 10
1037.687506745833
 20
2011.389680989515
 10
1037.62534989299
 20
2011.468008458403
 10
1037.566375022328
 20
2011.54875888483
 10
1037.510676481061
 20
2011.631803085341
 10
1037.458343374972
 20
2011.717008206929
 10
1037.409459425868
 20
2011.804237939577
 10
1037.364102837639
 20
2011.89335273432
 10
1037.322346171151
 20
2011.984210026496
 10
1037.284256228162
 20
2012.076664463819
 10
1037.249893944457
 20
2012.170568138914
 10
1037.219314292357
 20
2012.265770825932
 10
1037.192566192785
 20
2012.36212022088
 10
1037.169692436992
 20
2012.459462185283
 10
1037.150729618109
 20
2012.557640992761
 10
1037.135708072601
 20
2012.656499578167
 10
1037.124651831736
 20
2012.75587978885
 10
1037.117578583141
 20
2012.855622637677
 10
1037.114499642505
 20
2012.955568557366
 10
1037.11435394308
 20
2012.982558850011
  0
LWPOLYLINE
  5
37C
330
2C1
100
AcDbEntity
  8
P-SANR-FIXT
100
AcDbPolyline
 90
       10
 70
   128
 43
0.0
 10
1041.114355984475
 20
2010.482558850011
 10
1040.879997743361
 20
2010.482558850011
 10
1040.57120119042
 20
2010.482558850011
 10
1040.304868019646
 20
2010.482558850011
 10
1040.081424307297
 20
2010.482558850011
 10
1039.901227515649
 20
2010.482558850011
 10
1039.764565921127
 20
2010.482558850011
 10
1039.67165815313
 20
2010.482558850011
 10
1039.622652844267
 20
2010.482558850011
 10
1039.614353943081
 20
2010.482558850011
  0
LWPOLYLINE
  5
37D
330
2C1
100
AcDbEntity
  8
P-SANR-FIXT
100
AcDbPolyline
 90
       24
 70
   128
 43
0.0
 10
1039.614353943081
 20
2010.482558850011
 10
1039.636351009904
 20
2010.482558850011
 10
1039.702307019759
 20
2010.482558850011
 10
1039.812116457099
 20
2010.482558850011
 10
1039.965603650251
 20
2010.482558850011
 10
1040.162523052446
 20
2010.482558850011
 10
1040.40255963465
 20
2010.482558850011
 10
1040.685329389535
 20
2010.482558850011
 10
1041.010379945813
 20
2010.482558850011
 10
1041.377191291937
 20
2010.482558850011
 10
1041.785176608001
 20
2010.482558850011
 10
1042.233683204531
 20
2010.482558850011
 10
1042.72199356665
 20
2010.482558850011
 10
1043.249326501945
 20
2010.482558850011
 10
1043.814838390212
 20
2010.482558850011
 10
1044.417624533064
 20
2010.482558850011
 10
1045.056720601262
 20
2010.482558850011
 10
1045.73110417743
 20
2010.482558850011
 10
1046.439696391706
 20
2010.482558850011
 10
1047.181363647705
 20
2010.482558850011
 10
1047.954919436033
 20
2010.482558850011
 10
1048.759126232444
 20
2010.482558850011
 10
1049.59269747762
 20
2010.482558850011
 10
1049.805248648485
 20
2010.482558850011
  0
LWPOLYLINE
  5
37E
330
2C1
100
AcDbEntity
  8
P-SANR-FIXT
100
AcDbPolyline
 90
       41
 70
   128
 43
0.0
 10
1097.114353943081
 20
2012.982558850011
 10
1097.112354209733
 20
2012.882585514545
 10
1097.106358208837
 20
2012.782772115088
 10
1097.096375532715
 20
2012.683278331789
 10
1097.08242215152
 20
2012.584263333476
 10
1097.064520387684
 20
2012.485885523024
 10
1097.042698880211
 20
2012.388302283943
 10
1097.016992538857
 20
2012.291669728601
 10
1096.987442488287
 20
2012.196142448471
 10
1096.954096002275
 20
2012.101873266824
 10
1096.917006428088
 20
2012.00901299424
 10
1096.876233101131
 20
2011.917710187347
 10
1096.831841250029
 20
2011.828110911158
 10
1096.783901892274
 20
2011.740358505402
 10
1096.732491720614
 20
2011.654593355209
 10
1096.677692980355
 20
2011.570952666524
 10
1096.619593337791
 20
2011.489570246605
 10
1096.558285739958
 20
2011.410576289965
 10
1096.493868265933
 20
2011.334097170083
 10
1096.426443969933
 20
2011.260255237235
 10
1096.356120716448
 20
2011.189168622763
 10
1096.283011007684
 20
2011.120951050084
 10
1096.207231803577
 20
2011.055711652764
 10
1096.128904334689
 20
2010.99355479992
 10
1096.048153908262
 20
2010.934579929259
 10
1095.965109707751
 20
2010.878881387992
 10
1095.879904586163
 20
2010.826548281903
 10
1095.792674853515
 20
2010.777664332799
 10
1095.703560058773
 20
2010.73230774457
 10
1095.612702766596
 20
2010.690551078082
 10
1095.520248329272
 20
2010.652461135093
 10
1095.426344654178
 20
2010.618098851387
 10
1095.331141967161
 20
2010.587519199289
 10
1095.234792572212
 20
2010.560771099715
 10
1095.137450607809
 20
2010.537897343923
 10
1095.039271800331
 20
2010.51893452504
 10
1094.940413214926
 20
2010.503912979532
 10
1094.841033004242
 20
2010.492856738667
 10
1094.741290155415
 20
2010.485783490072
 10
1094.641344235727
 20
2010.482704549437
 10
1094.614353943081
 20
2010.482558850011
  0
LWPOLYLINE
  5
37F
330
2C1
100
AcDbEntity
  8
P-SANR-FIXT
100
AcDbPolyline
 90
       24
 70
   128
 43
0.0
 10
1084.423582840156
 20
2010.482558850011
 10
1084.960997192659
 20
2010.482558850011
 10
1085.783395107847
 20
2010.482558850011
 10
1086.575926539687
 20
2010.482558850011
 10
1087.337323606953
 20
2010.482558850011
 10
1088.06636823676
 20
2010.482558850011
 10
1088.761894113222
 20
2010.482558850011
 10
1089.422788543308
 20
2010.482558850011
 10
1090.047994236912
 20
2010.482558850011
 10
1090.636510998294
 20
2010.482558850011
 10
1091.187397326181
 20
2010.482558850011
 10
1091.699771919964
 20
2010.482558850011
 10
1092.172815089593
 20
2010.482558850011
 10
1092.605770066908
 20
2010.482558850011
 10
1092.997944216304
 20
2010.482558850011
 10
1093.348710142801
 20
2010.482558850011
 10
1093.657506695741
 20
2010.482558850011
 10
1093.923839866515
 20
2010.482558850011
 10
1094.147283578864
 20
2010.482558850011
 10
1094.327480370512
 20
2010.482558850011
 10
1094.464141965034
 20
2010.482558850011
 10
1094.557049733032
 20
2010.482558850011
 10
1094.606055041895
 20
2010.482558850011
 10
1094.614353943081
 20
2010.482558850011
  0
LWPOLYLINE
  5
380
330
2C1
100
AcDbEntity
  8
P-SANR-FIXT
100
AcDbPolyline
 90
       10
 70
   128
 43
0.0
 10
1094.614353943081
 20
2010.482558850011
 10
1094.592356876258
 20
2010.482558850011
 10
1094.526400866403
 20
2010.482558850011
 10
1094.416591429062
 20
2010.482558850011
 10
1094.263104235911
 20
2010.482558850011
 10
1094.066184833715
 20
2010.482558850011
 10
1093.826148251512
 20
2010.482558850011
 10
1093.543378496627
 20
2010.482558850011
 10
1093.218327940348
 20
2010.482558850011
 10
1093.114351901686
 20
2010.482558850011
  0
LINE
  5
381
330
2C1
100
AcDbEntity
  8
P-SANR-FIXT
100
AcDbLine
 10
1037.61435394308
 20
2034.782558850011
 30
0.0
 11
1037.11435394308
 21
2034.282558850011
 31
0.0
  0
LINE
  5
382
330
2C1
100
AcDbEntity
  8
P-SANR-FIXT
100
AcDbLine
 10
1097.114353943081
 20
2034.282558850011
 30
0.0
 11
1096.614353943081
 21
2034.782558850011
 31
0.0
  0
LINE
  5
383
330
2C1
100
AcDbEntity
  8
P-SANR-FIXT
100
AcDbLine
 10
1052.86435394308
 20
1951.482558850011
 30
0.0
 11
1052.907667312611
 21
1951.43924548048
 31
0.0
  0
LINE
  5
384
330
2C1
100
AcDbEntity
  8
P-SANR-FIXT
100
AcDbLine
 10
1052.918579495273
 20
1951.428333297819
 30
0.0
 11
1053.364353943081
 21
1950.982558850011
 31
0.0
  0
LINE
  5
385
330
2C1
100
AcDbEntity
  8
P-SANR-FIXT
100
AcDbLine
 10
1080.864353943081
 20
1950.982558850011
 30
0.0
 11
1081.310128390888
 21
1951.428333297819
 31
0.0
  0
LINE
  5
386
330
2C1
100
AcDbEntity
  8
P-SANR-FIXT
100
AcDbLine
 10
1081.32104057355
 20
1951.43924548048
 30
0.0
 11
1081.364353943081
 21
1951.482558850011
 31
0.0
  0
LINE
  5
387
330
2C1
100
AcDbEntity
  8
P-SANR-FIXT
100
AcDbLine
 10
1037.114353943113
 20
1990.982558850011
 30
0.0
 11
1043.622257285859
 21
1990.982558850011
 31
0.0
  0
LINE
  5
388
330
2C1
100
AcDbEntity
  8
P-SANR-FIXT
100
AcDbLine
 10
1090.606450600303
 20
1990.982558850011
 30
0.0
 11
1097.114353943081
 21
1990.982558850011
 31
0.0
  0
LINE
  5
389
330
2C1
100
AcDbEntity
  8
P-SANR-FIXT
100
AcDbLine
 10
1097.114353943081
 20
2008.982558850012
 30
0.0
 11
1090.805340384263
 21
2008.982558850012
 31
0.0
  0
LINE
  5
38A
330
2C1
100
AcDbEntity
  8
P-SANR-FIXT
100
AcDbLine
 10
1043.422427803801
 20
2008.982558850012
 30
0.0
 11
1037.114353943113
 21
2008.982558850012
 31
0.0
  0
LINE
  5
38B
330
2C1
100
AcDbEntity
  8
P-SANR-FIXT
100
AcDbLine
 10
1067.114353943079
 20
1950.982558850011
 30
0.0
 11
1053.364353943079
 21
1950.982558850011
 31
0.0
  0
LINE
  5
38C
330
2C1
100
AcDbEntity
  8
P-SANR-FIXT
100
AcDbLine
 10
1080.864353943079
 20
1950.982558850011
 30
0.0
 11
1067.114353943079
 21
1950.982558850011
 31
0.0
  0
LINE
  5
38D
330
2C1
100
AcDbEntity
  8
P-SANR-FIXT
100
AcDbLine
 10
1052.864353943079
 20
1951.48255885001
 30
0.0
 11
1067.114353943079
 21
1951.48255885001
 31
0.0
  0
LINE
  5
38E
330
2C1
100
AcDbEntity
  8
P-SANR-FIXT
100
AcDbLine
 10
1067.114353943079
 20
1951.48255885001
 30
0.0
 11
1081.364353943079
 21
1951.48255885001
 31
0.0
  0
LINE
  5
38F
330
2C1
100
AcDbEntity
  8
P-SANR-FIXT
100
AcDbLine
 10
1067.114353943079
 20
2034.282558850011
 30
0.0
 11
1037.114353943079
 21
2034.282558850011
 31
0.0
  0
LINE
  5
390
330
2C1
100
AcDbEntity
  8
P-SANR-FIXT
100
AcDbLine
 10
1097.114353943079
 20
2034.282558850011
 30
0.0
 11
1067.114353943079
 21
2034.282558850011
 31
0.0
  0
LINE
  5
391
330
2C1
100
AcDbEntity
  8
P-SANR-FIXT
100
AcDbLine
 10
1037.726610349373
 20
2034.782558850011
 30
0.0
 11
1037.794404598683
 21
2034.782558850011
 31
0.0
  0
LINE
  5
392
330
2C1
100
AcDbEntity
  8
P-SANR-FIXT
100
AcDbLine
 10
1038.021731870506
 20
2034.782558850011
 30
0.0
 11
1038.196386848671
 21
2034.782558850011
 31
0.0
  0
LINE
  5
393
330
2C1
100
AcDbEntity
  8
P-SANR-FIXT
100
AcDbLine
 10
1038.529305738053
 20
2034.782558850011
 30
0.0
 11
1038.798095593159
 21
2034.782558850011
 31
0.0
  0
LINE
  5
394
330
2C1
100
AcDbEntity
  8
P-SANR-FIXT
100
AcDbLine
 10
1039.236742321736
 20
2034.782558850011
 30
0.0
 11
1039.594376215947
 21
2034.782558850011
 31
0.0
  0
LINE
  5
395
330
2C1
100
AcDbEntity
  8
P-SANR-FIXT
100
AcDbLine
 10
1040.141442090539
 20
2034.782558850011
 30
0.0
 11
1040.57956117338
 21
2034.782558850011
 31
0.0
  0
LINE
  5
396
330
2C1
100
AcDbEntity
  8
P-SANR-FIXT
100
AcDbLine
 10
1041.566604531438
 20
2034.782558850011
 30
0.0
 11
1041.942068203729
 21
2034.782558850011
 31
0.0
  0
LINE
  5
397
330
2C1
100
AcDbEntity
  8
P-SANR-FIXT
100
AcDbLine
 10
1043.234499453445
 20
2034.782558850011
 30
0.0
 11
1044.51604287107
 21
2034.782558850011
 31
0.0
  0
LINE
  5
398
330
2C1
100
AcDbEntity
  8
P-SANR-FIXT
100
AcDbLine
 10
1044.675137661842
 20
2034.782558850011
 30
0.0
 11
1047.948682368168
 21
2034.782558850011
 31
0.0
  0
LINE
  5
399
330
2C1
100
AcDbEntity
  8
P-SANR-FIXT
100
AcDbLine
 10
1048.152119457326
 20
2034.782558850011
 30
0.0
 11
1049.763659695268
 21
2034.782558850011
 31
0.0
  0
LINE
  5
39A
330
2C1
100
AcDbEntity
  8
P-SANR-FIXT
100
AcDbLine
 10
1050.193849070724
 20
2034.782558850011
 30
0.0
 11
1051.687950329837
 21
2034.782558850011
 31
0.0
  0
LINE
  5
39B
330
2C1
100
AcDbEntity
  8
P-SANR-FIXT
100
AcDbLine
 10
1051.728319801031
 20
2034.782558850011
 30
0.0
 11
1053.709199492901
 21
2034.782558850011
 31
0.0
  0
LINE
  5
39C
330
2C1
100
AcDbEntity
  8
P-SANR-FIXT
100
AcDbLine
 10
1054.647115221729
 20
2034.782558850011
 30
0.0
 11
1055.81444537623
 21
2034.782558850011
 31
0.0
  0
LINE
  5
39D
330
2C1
100
AcDbEntity
  8
P-SANR-FIXT
100
AcDbLine
 10
1057.024759714972
 20
2034.782558850011
 30
0.0
 11
1057.99019315939
 21
2034.782558850011
 31
0.0
  0
LINE
  5
39E
330
2C1
100
AcDbEntity
  8
P-SANR-FIXT
100
AcDbLine
 10
1059.479192112555
 20
2034.782558850011
 30
0.0
 11
1059.619502339607
 21
2034.782558850011
 31
0.0
  0
LINE
  5
39F
330
2C1
100
AcDbEntity
  8
P-SANR-FIXT
100
AcDbLine
 10
1060.222496653864
 20
2034.782558850011
 30
0.0
 11
1061.991732701905
 21
2034.782558850011
 31
0.0
  0
LINE
  5
3A0
330
2C1
100
AcDbEntity
  8
P-SANR-FIXT
100
AcDbLine
 10
1062.497045082564
 20
2034.782558850011
 30
0.0
 11
1064.543259532023
 21
2034.782558850011
 31
0.0
  0
LINE
  5
3A1
330
2C1
100
AcDbEntity
  8
P-SANR-FIXT
100
AcDbLine
 10
1064.799253279593
 20
2034.782558850011
 30
0.0
 11
1067.114353943079
 21
2034.782558850011
 31
0.0
  0
LINE
  5
3A2
330
2C1
100
AcDbEntity
  8
P-SANR-FIXT
100
AcDbLine
 10
1067.114353943079
 20
2034.782558850011
 30
0.0
 11
1069.429454606566
 21
2034.782558850011
 31
0.0
  0
LINE
  5
3A3
330
2C1
100
AcDbEntity
  8
P-SANR-FIXT
100
AcDbLine
 10
1069.685448354135
 20
2034.782558850011
 30
0.0
 11
1071.731662803595
 21
2034.782558850011
 31
0.0
  0
LINE
  5
3A4
330
2C1
100
AcDbEntity
  8
P-SANR-FIXT
100
AcDbLine
 10
1072.236975184254
 20
2034.782558850011
 30
0.0
 11
1074.006211232295
 21
2034.782558850011
 31
0.0
  0
LINE
  5
3A5
330
2C1
100
AcDbEntity
  8
P-SANR-FIXT
100
AcDbLine
 10
1074.749515773604
 20
2034.782558850011
 30
0.0
 11
1075.387808896801
 21
2034.782558850011
 31
0.0
  0
LINE
  5
3A6
330
2C1
100
AcDbEntity
  8
P-SANR-FIXT
100
AcDbLine
 10
1076.238514726769
 20
2034.782558850011
 30
0.0
 11
1077.203948171186
 21
2034.782558850011
 31
0.0
  0
LINE
  5
3A7
330
2C1
100
AcDbEntity
  8
P-SANR-FIXT
100
AcDbLine
 10
1078.414262509929
 20
2034.782558850011
 30
0.0
 11
1079.58159266443
 21
2034.782558850011
 31
0.0
  0
LINE
  5
3A8
330
2C1
100
AcDbEntity
  8
P-SANR-FIXT
100
AcDbLine
 10
1080.519508393258
 20
2034.782558850011
 30
0.0
 11
1081.864353943079
 21
2034.782558850011
 31
0.0
  0
LINE
  5
3A9
330
2C1
100
AcDbEntity
  8
P-SANR-FIXT
100
AcDbLine
 10
1082.540757556322
 20
2034.782558850011
 30
0.0
 11
1084.034858815435
 21
2034.782558850011
 31
0.0
  0
LINE
  5
3AA
330
2C1
100
AcDbEntity
  8
P-SANR-FIXT
100
AcDbLine
 10
1084.465048190891
 20
2034.782558850011
 30
0.0
 11
1086.076588428832
 21
2034.782558850011
 31
0.0
  0
LINE
  5
3AB
330
2C1
100
AcDbEntity
  8
P-SANR-FIXT
100
AcDbLine
 10
1086.280025517991
 20
2034.782558850011
 30
0.0
 11
1089.553570224317
 21
2034.782558850011
 31
0.0
  0
LINE
  5
3AC
330
2C1
100
AcDbEntity
  8
P-SANR-FIXT
100
AcDbLine
 10
1089.712665015089
 20
2034.782558850011
 30
0.0
 11
1090.994208432714
 21
2034.782558850011
 31
0.0
  0
LINE
  5
3AD
330
2C1
100
AcDbEntity
  8
P-SANR-FIXT
100
AcDbLine
 10
1091.149307911766
 20
2034.782558850011
 30
0.0
 11
1091.279339249604
 21
2034.782558850011
 31
0.0
  0
LINE
  5
3AE
330
2C1
100
AcDbEntity
  8
P-SANR-FIXT
100
AcDbLine
 10
1092.286639682429
 20
2034.782558850011
 30
0.0
 11
1092.66210335472
 21
2034.782558850011
 31
0.0
  0
LINE
  5
3AF
330
2C1
100
AcDbEntity
  8
P-SANR-FIXT
100
AcDbLine
 10
1093.649146712778
 20
2034.782558850011
 30
0.0
 11
1094.087265795619
 21
2034.782558850011
 31
0.0
  0
LINE
  5
3B0
330
2C1
100
AcDbEntity
  8
P-SANR-FIXT
100
AcDbLine
 10
1094.634331670208
 20
2034.782558850011
 30
0.0
 11
1095.105515260365
 21
2034.782558850011
 31
0.0
  0
LINE
  5
3B1
330
2C1
100
AcDbEntity
  8
P-SANR-FIXT
100
AcDbLine
 10
1095.430612293
 20
2034.782558850011
 30
0.0
 11
1095.699402148105
 21
2034.782558850011
 31
0.0
  0
LINE
  5
3B2
330
2C1
100
AcDbEntity
  8
P-SANR-FIXT
100
AcDbLine
 10
1096.03232103749
 20
2034.782558850011
 30
0.0
 11
1096.206976015652
 21
2034.782558850011
 31
0.0
  0
LINE
  5
3B3
330
2C1
100
AcDbEntity
  8
P-SANR-FIXT
100
AcDbLine
 10
1096.434303287476
 20
2034.782558850011
 30
0.0
 11
1096.502097536786
 21
2034.782558850011
 31
0.0
  0
LINE
  5
3B4
330
2C1
100
AcDbEntity
  8
P-SANR-FIXT
100
AcDbLine
 10
1097.114353943079
 20
1999.982558850011
 30
0.0
 11
1097.114353943079
 21
1990.98255885001
 31
0.0
  0
LINE
  5
3B5
330
2C1
100
AcDbEntity
  8
P-SANR-FIXT
100
AcDbLine
 10
1097.114353943079
 20
2008.982558850011
 30
0.0
 11
1097.114353943079
 21
1999.982558850011
 31
0.0
  0
ENDBLK
  5
3B7
330
2C1
100
AcDbEntity
  8
0
100
AcDbBlockEnd
  0
ENDSEC
  0
SECTION
  2
ENTITIES
  0
INSERT
  5
196
330
71
100
AcDbEntity
  8
P-SANR-FIXT
100
AcDbBlockReference
  2
Automatic flow rate regulator valve_Caleffi_121 DN15 - 3_4___Pressure gauge-929094-Est - Idraulica
 10
0.0
 20
0.0
 30
0.0
1001
REVIT
1002
{
1070
     1
1000
863131
1002
}
1002
{
1070
     5
1000
929094
1002
}
1002
{
1070
     2
1000
-2001160
1002
}
  0
INSERT
  5
2C0
330
71
100
AcDbEntity
  8
P-SANR-FIXT
100
AcDbBlockReference
  2
Automatic flow rate regulator valve_Caleffi_121 DN15 - 3_4___Pressure gauge-V1-Est - Idraulica
 10
0.0
 20
0.0
 30
0.0
1001
REVIT
1002
{
1070
     1
1000
863152
1002
}
1002
{
1070
     5
1000
929094
1002
}
1002
{
1070
     2
1000
-2001160
1002
}
  0
INSERT
  5
3B8
330
71
100
AcDbEntity
  8
P-SANR-FIXT
100
AcDbBlockReference
  2
Automatic flow rate regulator valve_Caleffi_121 DN15 - 3_4___Pressure gauge-V2-Est - Idraulica
 10
0.0
 20
0.0
 30
0.0
1001
REVIT
1002
{
1070
     1
1000
863172
1002
}
1002
{
1070
     5
1000
929094
1002
}
1002
{
1070
     2
1000
-2001160
1002
}
  0
ENDSEC
  0
SECTION
  2
OBJECTS
  0
DICTIONARY
  5
C
330
0
100
AcDbDictionary
281
     1
  3
ACAD_CIP_PREVIOUS_PRODUCT_INFO
350
7A
  3
ACAD_COLOR
350
63
  3
ACAD_DETAILVIEWSTYLE
350
6B
  3
ACAD_GROUP
350
D
  3
ACAD_IMAGE_VARS
350
7B
  3
ACAD_LAYOUT
350
62
  3
ACAD_MATERIAL
350
10
  3
ACAD_MLEADERSTYLE
350
66
  3
ACAD_MLINESTYLE
350
5F
  3
ACAD_PLOTSETTINGS
350
61
  3
ACAD_PLOTSTYLENAME
350
E
  3
ACAD_SCALELIST
350
42
  3
ACAD_SECTIONVIEWSTYLE
350
68
  3
ACAD_TABLESTYLE
350
64
  3
ACAD_VISUALSTYLE
350
29
  3
ACDB_RECOMPOSE_DATA
350
3C3
  3
AcDbVariableDictionary
350
7C
  3
REVIT_DICTIONARY
350
3BA
  0
DICTIONARY
  5
3BF
330
71
100
AcDbDictionary
280
     1
281
     1
  3
ACAD_SORTENTS
360
3C0
  0
XRECORD
  5
7A
102
{ACAD_REACTORS
330
C
102
}
330
C
100
AcDbXrecord
280
     1
300
RVT
300
2013
300
RVT2013
  0
DICTIONARY
  5
63
102
{ACAD_REACTORS
330
C
102
}
330
C
100
AcDbDictionary
281
     1
  0
DICTIONARY
  5
6B
102
{ACAD_REACTORS
330
C
102
}
330
C
100
AcDbDictionary
281
     1
  3
Imperial24
350
6C
  0
DICTIONARY
  5
D
102
{ACAD_REACTORS
330
C
102
}
330
C
100
AcDbDictionary
281
     1
  0
RASTERVARIABLES
  5
7B
102
{ACAD_REACTORS
330
C
102
}
330
C
100
AcDbRasterVariables
 90
        0
 70
     0
 71
     1
 72
     1
  0
DICTIONARY
  5
62
102
{ACAD_REACTORS
330
C
102
}
330
C
100
AcDbDictionary
281
     1
  3
Layout1
350
70
  3
Layout2
350
78
  3
Model
350
74
  0
DICTIONARY
  5
10
102
{ACAD_REACTORS
330
C
102
}
330
C
100
AcDbDictionary
281
     1
  3
ByBlock
350
19
  3
ByLayer
350
11
  3
Global
350
21
  0
DICTIONARY
  5
66
102
{ACAD_REACTORS
330
C
102
}
330
C
100
AcDbDictionary
281
     1
  3
Standard
350
67
  0
DICTIONARY
  5
5F
102
{ACAD_REACTORS
330
C
102
}
330
C
100
AcDbDictionary
281
     1
  3
Standard
350
60
  0
DICTIONARY
  5
61
102
{ACAD_REACTORS
330
C
102
}
330
C
100
AcDbDictionary
281
     1
  0
ACDBDICTIONARYWDFLT
  5
E
102
{ACAD_REACTORS
330
C
102
}
330
C
100
AcDbDictionary
281
     1
  3
Normal
350
F
100
AcDbDictionaryWithDefault
340
F
  0
DICTIONARY
  5
42
102
{ACAD_REACTORS
330
C
102
}
330
C
100
AcDbDictionary
281
     1
  3
A0
350
43
  3
A1
350
44
  3
A2
350
45
  3
A3
350
46
  3
A4
350
47
  3
A5
350
48
  3
A6
350
49
  3
A7
350
4A
  3
A8
350
4B
  3
A9
350
4C
  3
B0
350
4D
  3
B1
350
4E
  3
B2
350
4F
  3
B3
350
50
  3
B4
350
51
  3
B5
350
52
  3
B6
350
53
  0
DICTIONARY
  5
68
102
{ACAD_REACTORS
330
C
102
}
330
C
100
AcDbDictionary
281
     1
  3
Imperial24
350
6A
  0
DICTIONARY
  5
64
102
{ACAD_REACTORS
330
C
102
}
330
C
100
AcDbDictionary
281
     1
  3
Standard
350
65
  0
DICTIONARY
  5
29
102
{ACAD_REACTORS
330
C
102
}
330
C
100
AcDbDictionary
281
     1
  3
2dWireframe
350
2F
  3
Basic
350
2E
  3
Brighten
350
35
  3
ColorChange
350
39
  3
Conceptual
350
32
  3
Dim
350
34
  3
EdgeColorOff
350
41
  3
Facepattern
350
38
  3
Flat
350
2A
  3
FlatWithEdges
350
2B
  3
Gouraud
350
2C
  3
GouraudWithEdges
350
2D
  3
Hidden
350
31
  3
JitterOff
350
3F
  3
Linepattern
350
37
  3
OverhangOff
350
40
  3
Realistic
350
33
  3
Shaded
350
3E
  3
Shaded with edges
350
3D
  3
Shades of Gray
350
3A
  3
Sketchy
350
3B
  3
Thicken
350
36
  3
Wireframe
350
30
  3
X-Ray
350
3C
  0
XRECORD
  5
3C3
102
{ACAD_REACTORS
330
C
102
}
330
C
100
AcDbXrecord
280
     1
 90
        1
330
65
  0
DICTIONARY
  5
7C
102
{ACAD_REACTORS
330
C
102
}
330
C
100
AcDbDictionary
281
     1
  3
CANNOSCALE
350
81
  3
CMLEADERSTYLE
350
7E
  3
CTABLESTYLE
350
7D
  3
CVIEWDETAILSTYLE
350
7F
  3
CVIEWSECTIONSTYLE
350
80
  0
DICTIONARY
  5
3BA
102
{ACAD_REACTORS
330
C
102
}
330
C
100
AcDbDictionary
281
     1
  3
DRAWING_TOOL
350
3BE
  3
REVIT_CATEGORY_MAPPING
350
3BC
  3
REVIT_SUB_CATEGORY_MAPPING
350
3BD
  3
REVIT_TYPE_MAPPING
350
3BB
  0
SORTENTSTABLE
  5
3C0
102
{ACAD_REACTORS
330
3BF
102
}
330
3BF
100
AcDbSortentsTable
330
71
  0
ACDBDETAILVIEWSTYLE
  5
6C
102
{ACAD_REACTORS
330
6B
102
}
330
6B
100
AcDbModelDocViewStyle
 70
     0
  3
Imperial24
290
     1
100
AcDbDetailViewStyle
 70
     0
 71
     0
 90
        3
 71
     1
340
55
 62
   256
 40
0.24
340
0
 62
   256
 40
0.24
300

 40
0.36
280
     3
 71
     2
340
5D
 90
       25
 62
   256
 71
     3
340
55
 62
   256
 40
0.24
 90
        1
 40
0.75
 90
        1
300
%<\AcVar ViewType \f "%tc1">% %<\AcVar ViewDetailId>%\PSCALA %<\AcVar ViewScale \f "%sn">%
 71
     4
340
5D
 90
       25
 62
   256
340
5D
 90
       25
 62
   256
280
     0
  0
LAYOUT
  5
70
102
{ACAD_REACTORS
330
62
102
}
330
62
100
AcDbPlotSettings
  1

  2

  4

  6

 40
0.0
 41
0.0
 42
0.0
 43
0.0
 44
0.0
 45
0.0
 46
0.0
 47
0.0
 48
0.0
 49
0.0
140
0.0
141
0.0
142
1.0
143
1.0
 70
   688
 72
     0
 73
     0
 74
     5
  7

 75
    16
147
1.0
 76
     0
 77
     2
 78
   300
148
0.0
149
0.0
100
AcDbLayout
  1
Layout1
 70
     1
 71
     1
 10
0.0
 20
0.0
 11
12.0
 21
9.0
 12
0.0
 22
0.0
 32
0.0
 14
0.0
 24
0.0
 34
0.0
 15
0.0
 25
0.0
 35
0.0
146
0.0
 13
0.0
 23
0.0
 33
0.0
 16
1.0
 26
0.0
 36
0.0
 17
0.0
 27
1.0
 37
0.0
 76
     0
330
6D
  0
LAYOUT
  5
78
102
{ACAD_REACTORS
330
62
102
}
330
62
100
AcDbPlotSettings
  1

  2

  4

  6

 40
0.0
 41
0.0
 42
0.0
 43
0.0
 44
0.0
 45
0.0
 46
0.0
 47
0.0
 48
0.0
 49
0.0
140
0.0
141
0.0
142
1.0
143
1.0
 70
   688
 72
     0
 73
     0
 74
     5
  7

 75
    16
147
1.0
 76
     0
 77
     2
 78
   300
148
0.0
149
0.0
100
AcDbLayout
  1
Layout2
 70
     1
 71
     2
 10
0.0
 20
0.0
 11
12.0
 21
9.0
 12
0.0
 22
0.0
 32
0.0
 14
0.0
 24
0.0
 34
0.0
 15
0.0
 25
0.0
 35
0.0
146
0.0
 13
0.0
 23
0.0
 33
0.0
 16
1.0
 26
0.0
 36
0.0
 17
0.0
 27
1.0
 37
0.0
 76
     0
330
75
  0
LAYOUT
  5
74
102
{ACAD_REACTORS
330
62
102
}
330
62
100
AcDbPlotSettings
  1

  2

  4

  6

 40
0.0
 41
0.0
 42
0.0
 43
0.0
 44
0.0
 45
0.0
 46
0.0
 47
0.0
 48
0.0
 49
0.0
140
0.0
141
0.0
142
1.0
143
1.0
 70
  1712
 72
     0
 73
     0
 74
     0
  7

 75
     0
147
1.0
 76
     0
 77
     2
 78
   300
148
0.0
149
0.0
100
AcDbLayout
  1
Model
 70
     1
 71
     0
 10
0.0
 20
0.0
 11
12.0
 21
9.0
 12
0.0
 22
0.0
 32
0.0
 14
0.0
 24
0.0
 34
0.0
 15
0.0
 25
0.0
 35
0.0
146
0.0
 13
0.0
 23
0.0
 33
0.0
 16
1.0
 26
0.0
 36
0.0
 17
0.0
 27
1.0
 37
0.0
 76
     0
330
71
  0
MATERIAL
  5
19
102
{ACAD_XDICTIONARY
360
1A
102
}
102
{ACAD_REACTORS
330
10
102
}
330
10
100
AcDbMaterial
  1
ByBlock
 72
     0
 43
0.0208333333333333
 43
0.0
 43
0.0
 43
0.0
 43
0.0
 43
0.0208333333333333
 43
0.0
 43
0.0
 43
0.0
 43
0.0
 43
1.0
 43
0.0
 43
0.0
 43
0.0
 43
0.0
 43
1.0
 77
     0
 47
0.0208333333333333
 47
0.0
 47
0.0
 47
0.0
 47
0.0
 47
0.0208333333333333
 47
0.0
 47
0.0
 47
0.0
 47
0.0
 47
1.0
 47
0.0
 47
0.0
 47
0.0
 47
0.0
 47
1.0
171
     0
 49
0.0208333333333333
 49
0.0
 49
0.0
 49
0.0
 49
0.0
 49
0.0208333333333333
 49
0.0
 49
0.0
 49
0.0
 49
0.0
 49
1.0
 49
0.0
 49
0.0
 49
0.0
 49
0.0
 49
1.0
175
     0
142
0.0208333333333333
142
0.0
142
0.0
142
0.0
142
0.0
142
0.0208333333333333
142
0.0
142
0.0
142
0.0
142
0.0
142
1.0
142
0.0
142
0.0
142
0.0
142
0.0
142
1.0
179
     0
144
0.0208333333333333
144
0.0
144
0.0
144
0.0
144
0.0
144
0.0208333333333333
144
0.0
144
0.0
144
0.0
144
0.0
144
1.0
144
0.0
144
0.0
144
0.0
144
0.0
144
1.0
147
0.0208333333333333
147
0.0
147
0.0
147
0.0
147
0.0
147
0.0208333333333333
147
0.0
147
0.0
147
0.0
147
0.0
147
1.0
147
0.0
147
0.0
147
0.0
147
0.0
147
1.0
  0
MATERIAL
  5
11
102
{ACAD_XDICTIONARY
360
12
102
}
102
{ACAD_REACTORS
330
10
102
}
330
10
100
AcDbMaterial
  1
ByLayer
 72
     0
 43
0.0208333333333333
 43
0.0
 43
0.0
 43
0.0
 43
0.0
 43
0.0208333333333333
 43
0.0
 43
0.0
 43
0.0
 43
0.0
 43
1.0
 43
0.0
 43
0.0
 43
0.0
 43
0.0
 43
1.0
 77
     0
 47
0.0208333333333333
 47
0.0
 47
0.0
 47
0.0
 47
0.0
 47
0.0208333333333333
 47
0.0
 47
0.0
 47
0.0
 47
0.0
 47
1.0
 47
0.0
 47
0.0
 47
0.0
 47
0.0
 47
1.0
171
     0
 49
0.0208333333333333
 49
0.0
 49
0.0
 49
0.0
 49
0.0
 49
0.0208333333333333
 49
0.0
 49
0.0
 49
0.0
 49
0.0
 49
1.0
 49
0.0
 49
0.0
 49
0.0
 49
0.0
 49
1.0
175
     0
142
0.0208333333333333
142
0.0
142
0.0
142
0.0
142
0.0
142
0.0208333333333333
142
0.0
142
0.0
142
0.0
142
0.0
142
1.0
142
0.0
142
0.0
142
0.0
142
0.0
142
1.0
179
     0
144
0.0208333333333333
144
0.0
144
0.0
144
0.0
144
0.0
144
0.0208333333333333
144
0.0
144
0.0
144
0.0
144
0.0
144
1.0
144
0.0
144
0.0
144
0.0
144
0.0
144
1.0
147
0.0208333333333333
147
0.0
147
0.0
147
0.0
147
0.0
147
0.0208333333333333
147
0.0
147
0.0
147
0.0
147
0.0
147
1.0
147
0.0
147
0.0
147
0.0
147
0.0
147
1.0
  0
MATERIAL
  5
21
102
{ACAD_XDICTIONARY
360
22
102
}
102
{ACAD_REACTORS
330
10
102
}
330
10
100
AcDbMaterial
  1
Global
 72
     0
 43
0.0208333333333333
 43
0.0
 43
0.0
 43
0.0
 43
0.0
 43
0.0208333333333333
 43
0.0
 43
0.0
 43
0.0
 43
0.0
 43
1.0
 43
0.0
 43
0.0
 43
0.0
 43
0.0
 43
1.0
 77
     0
 47
0.0208333333333333
 47
0.0
 47
0.0
 47
0.0
 47
0.0
 47
0.0208333333333333
 47
0.0
 47
0.0
 47
0.0
 47
0.0
 47
1.0
 47
0.0
 47
0.0
 47
0.0
 47
0.0
 47
1.0
171
     0
 49
0.0208333333333333
 49
0.0
 49
0.0
 49
0.0
 49
0.0
 49
0.0208333333333333
 49
0.0
 49
0.0
 49
0.0
 49
0.0
 49
1.0
 49
0.0
 49
0.0
 49
0.0
 49
0.0
 49
1.0
175
     0
142
0.0208333333333333
142
0.0
142
0.0
142
0.0
142
0.0
142
0.0208333333333333
142
0.0
142
0.0
142
0.0
142
0.0
142
1.0
142
0.0
142
0.0
142
0.0
142
0.0
142
1.0
179
     0
144
0.0208333333333333
144
0.0
144
0.0
144
0.0
144
0.0
144
0.0208333333333333
144
0.0
144
0.0
144
0.0
144
0.0
144
1.0
144
0.0
144
0.0
144
0.0
144
0.0
144
1.0
147
0.0208333333333333
147
0.0
147
0.0
147
0.0
147
0.0
147
0.0208333333333333
147
0.0
147
0.0
147
0.0
147
0.0
147
1.0
147
0.0
147
0.0
147
0.0
147
0.0
147
1.0
  0
MLEADERSTYLE
  5
67
102
{ACAD_REACTORS
330
66
102
}
330
66
100
AcDbMLeaderStyle
179
     2
170
     2
171
     1
172
     0
 90
        2
 40
0.0
 41
0.0
173
     1
 91
-1056964608
340
5B
 92
       -2
290
     1
 42
0.09
291
     1
 43
0.36
  3
Standard
 44
0.18
300

342
55
174
     1
178
     6
175
     1
176
     0
 93
-1056964608
 45
0.18
292
     0
297
     0
 46
0.18
 94
-1056964608
 47
1.0
 49
1.0
140
1.0
293
     1
141
0.0
294
     1
177
     0
142
1.0
295
     1
296
     0
143
0.125
271
     0
272
     9
273
     9
298
     1
  0
MLINESTYLE
  5
60
102
{ACAD_REACTORS
330
5F
102
}
330
5F
100
AcDbMlineStyle
  2
STANDARD
 70
     0
  3

 62
   256
 51
90.0
 52
90.0
 71
     2
 49
0.5
 62
   256
  6
BYLAYER
 49
-0.5
 62
   256
  6
BYLAYER
  0
ACDBPLACEHOLDER
  5
F
102
{ACAD_REACTORS
330
E
102
}
330
E
  0
SCALE
  5
43
102
{ACAD_REACTORS
330
42
102
}
330
42
100
AcDbScale
 70
     0
300
1:1
140
1.0
141
1.0
290
     1
  0
SCALE
  5
44
102
{ACAD_REACTORS
330
42
102
}
330
42
100
AcDbScale
 70
     0
300
1/128" = 1'-0"
140
0.0078125
141
12.0
290
     0
  0
SCALE
  5
45
102
{ACAD_REACTORS
330
42
102
}
330
42
100
AcDbScale
 70
     0
300
1/64" = 1'-0"
140
0.015625
141
12.0
290
     0
  0
SCALE
  5
46
102
{ACAD_REACTORS
330
42
102
}
330
42
100
AcDbScale
 70
     0
300
1/32" = 1'-0"
140
0.03125
141
12.0
290
     0
  0
SCALE
  5
47
102
{ACAD_REACTORS
330
42
102
}
330
42
100
AcDbScale
 70
     0
300
1/16" = 1'-0"
140
0.0625
141
12.0
290
     0
  0
SCALE
  5
48
102
{ACAD_REACTORS
330
42
102
}
330
42
100
AcDbScale
 70
     0
300
3/32" = 1'-0"
140
0.09375
141
12.0
290
     0
  0
SCALE
  5
49
102
{ACAD_REACTORS
330
42
102
}
330
42
100
AcDbScale
 70
     0
300
1/8" = 1'-0"
140
0.125
141
12.0
290
     0
  0
SCALE
  5
4A
102
{ACAD_REACTORS
330
42
102
}
330
42
100
AcDbScale
 70
     0
300
3/16" = 1'-0"
140
0.1875
141
12.0
290
     0
  0
SCALE
  5
4B
102
{ACAD_REACTORS
330
42
102
}
330
42
100
AcDbScale
 70
     0
300
1/4" = 1'-0"
140
0.25
141
12.0
290
     0
  0
SCALE
  5
4C
102
{ACAD_REACTORS
330
42
102
}
330
42
100
AcDbScale
 70
     0
300
3/8" = 1'-0"
140
0.375
141
12.0
290
     0
  0
SCALE
  5
4D
102
{ACAD_REACTORS
330
42
102
}
330
42
100
AcDbScale
 70
     0
300
1/2" = 1'-0"
140
0.5
141
12.0
290
     0
  0
SCALE
  5
4E
102
{ACAD_REACTORS
330
42
102
}
330
42
100
AcDbScale
 70
     0
300
3/4" = 1'-0"
140
0.75
141
12.0
290
     0
  0
SCALE
  5
4F
102
{ACAD_REACTORS
330
42
102
}
330
42
100
AcDbScale
 70
     0
300
1" = 1'-0"
140
1.0
141
12.0
290
     0
  0
SCALE
  5
50
102
{ACAD_REACTORS
330
42
102
}
330
42
100
AcDbScale
 70
     0
300
1-1/2" = 1'-0"
140
1.5
141
12.0
290
     0
  0
SCALE
  5
51
102
{ACAD_REACTORS
330
42
102
}
330
42
100
AcDbScale
 70
     0
300
3" = 1'-0"
140
3.0
141
12.0
290
     0
  0
SCALE
  5
52
102
{ACAD_REACTORS
330
42
102
}
330
42
100
AcDbScale
 70
     0
300
6" = 1'-0"
140
6.0
141
12.0
290
     0
  0
SCALE
  5
53
102
{ACAD_REACTORS
330
42
102
}
330
42
100
AcDbScale
 70
     0
300
1'-0" = 1'-0"
140
12.0
141
12.0
290
     0
  0
ACDBSECTIONVIEWSTYLE
  5
6A
102
{ACAD_REACTORS
330
68
102
}
330
68
100
AcDbModelDocViewStyle
 70
     0
  3
Imperial24
290
     1
100
AcDbSectionViewStyle
 70
     0
 71
     0
 90
       78
 71
     1
340
55
 62
   256
 40
0.24
340
0
340
0
 62
   256
 40
0.24
300
I, O, Q, S, X, Z
 40
0.48
 90
        3
 40
0.18
 90
        1
 71
     2
340
69
 90
       25
 62
   256
340
5D
 90
       50
 62
   256
 40
0.24
 40
0.0
 40
0.24
 71
     3
340
55
 62
   256
 40
0.24
 90
        1
 40
0.75
 90
        1
300
%<\AcVar ViewType \f "%tc1">% %<\AcVar ViewSectionStartId>%-%<\AcVar ViewSectionEndId>%\PSCALA %<\AcVar ViewScale \f "%sn">%
 71
     4
 62
   256
 62
   257
300
ANSI31
 40
1.0
 90
        0
290
     0
290
     0
 90
        6
 40
0.0
 40
1.570796326794896
 40
0.2617993877991494
 40
1.308996938995747
 40
-0.2617993877991494
 40
1.832595714594046
  0
TABLESTYLE
  5
65
102
{ACAD_XDICTIONARY
360
3C1
102
}
102
{ACAD_REACTORS
330
64
102
}
330
64
100
AcDbTableStyle
280
     0
  3
Standard
 70
     0
 71
     0
 40
0.06
 41
0.06
280
     0
281
     0
  7
Standard
140
0.18
170
     2
 62
     0
 63
     7
283
     0
 90
      512
 91
        0
  1

274
    -2
284
     1
 64
     0
275
    -2
285
     1
 65
     0
276
    -2
286
     1
 66
     0
277
    -2
287
     1
 67
     0
278
    -2
288
     1
 68
     0
279
    -2
289
     1
 69
     0
  7
Standard
140
0.25
170
     5
 62
     0
 63
     7
283
     0
 90
      512
 91
        0
  1

274
    -2
284
     1
 64
     0
275
    -2
285
     1
 65
     0
276
    -2
286
     1
 66
     0
277
    -2
287
     1
 67
     0
278
    -2
288
     1
 68
     0
279
    -2
289
     1
 69
     0
  7
Standard
140
0.18
170
     5
 62
     0
 63
     7
283
     0
 90
      512
 91
        0
  1

274
    -2
284
     1
 64
     0
275
    -2
285
     1
 65
     0
276
    -2
286
     1
 66
     0
277
    -2
287
     1
 67
     0
278
    -2
288
     1
 68
     0
279
    -2
289
     1
 69
     0
  0
VISUALSTYLE
  5
2F
102
{ACAD_REACTORS
330
29
102
}
330
29
100
AcDbVisualStyle
  2
2dWireframe
 70
     4
177
     3
291
     0
 70
    58
 90
        0
176
     1
 90
        2
176
     1
 90
        0
176
     1
 90
        0
176
     1
 40
0.6
176
     1
 40
30.0
176
     1
 62
     7
420
 16777215
176
     1
 90
        1
176
     1
 90
        4
176
     1
 62
     7
176
     1
 62
   257
176
     1
 90
        1
176
     1
 90
        1
176
     1
 40
1.0
176
     1
 90
        0
176
     1
 62
   257
176
     1
 40
1.0
176
     1
 90
        1
176
     1
 90
        6
176
     1
 90
        2
176
     1
 62
     7
176
     1
 90
        5
176
     1
 90
        0
176
     1
 90
        0
176
     1
290
     0
176
     1
 90
        1
176
     1
 40
0.0
176
     1
 90
        0
176
     1
290
     1
176
     1
290
     1
176
     1
290
     0
176
     1
290
     0
176
     1
290
     0
176
     1
290
     0
176
     1
290
     0
176
     1
290
     0
176
     1
290
     0
176
     1
 90
       50
176
     1
 40
0.0
176
     1
 40
1.0
176
     1
 90
        0
176
     1
 62
    18
420
        0
176
     1
 90
       50
176
     1
 90
        3
176
     1
 62
     5
420
      255
176
     1
290
     0
176
     1
 90
       50
176
     1
 90
       50
176
     1
 90
       50
176
     1
290
     0
176
     1
 90
       50
176
     1
 62
   256
176
     0
 40
1.0
176
     0
 90
        2
176
     1
  1
strokes_ogs.tif
176
     1
290
     0
176
     1
 40
1.0
176
     1
 40
1.0
176
     1
  0
VISUALSTYLE
  5
2E
102
{ACAD_REACTORS
330
29
102
}
330
29
100
AcDbVisualStyle
  2
Basic
 70
     7
177
     3
291
     1
 70
    58
 90
        1
176
     1
 90
        0
176
     1
 90
        1
176
     1
 90
        0
176
     1
 40
0.6
176
     1
 40
30.0
176
     1
 62
     7
420
 16777215
176
     1
 90
        0
176
     1
 90
        4
176
     1
 62
     7
176
     1
 62
   257
176
     1
 90
        1
176
     1
 90
        1
176
     1
 40
1.0
176
     1
 90
        8
176
     1
 62
     7
176
     1
 40
1.0
176
     1
 90
        1
176
     1
 90
        6
176
     1
 90
        2
176
     1
 62
     7
176
     1
 90
        5
176
     1
 90
        0
176
     1
 90
        0
176
     1
290
     0
176
     1
 90
        1
176
     1
 40
0.0
176
     1
 90
        0
176
     1
290
     0
176
     1
290
     1
176
     1
290
     1
176
     1
290
     0
176
     1
290
     0
176
     1
290
     0
176
     1
290
     0
176
     1
290
     0
176
     1
290
     0
176
     1
 90
       50
176
     1
 40
0.0
176
     1
 40
1.0
176
     1
 90
        0
176
     1
 62
    18
420
        0
176
     1
 90
       50
176
     1
 90
        3
176
     1
 62
     5
420
      255
176
     1
290
     0
176
     1
 90
       50
176
     1
 90
       50
176
     1
 90
       50
176
     1
290
     0
176
     1
 90
       50
176
     1
 62
   256
176
     0
 40
1.0
176
     0
 90
        2
176
     1
  1
strokes_ogs.tif
176
     1
290
     0
176
     1
 40
1.0
176
     1
 40
1.0
176
     1
  0
VISUALSTYLE
  5
35
102
{ACAD_REACTORS
330
29
102
}
330
29
100
AcDbVisualStyle
  2
Brighten
 70
    12
177
     3
291
     1
 70
    58
 90
        2
176
     1
 90
        2
176
     1
 90
        0
176
     1
 90
        0
176
     1
 40
0.6
176
     1
 40
30.0
176
     1
 62
     7
420
 16777215
176
     1
 90
        1
176
     1
 90
        4
176
     1
 62
     7
176
     1
 62
   257
176
     1
 90
        1
176
     1
 90
        1
176
     1
 40
1.0
176
     1
 90
        8
176
     1
 62
     7
176
     1
 40
1.0
176
     1
 90
        1
176
     1
 90
        6
176
     1
 90
        2
176
     1
 62
     7
176
     1
 90
        5
176
     1
 90
        0
176
     1
 90
        0
176
     1
290
     0
176
     1
 90
        1
176
     1
 40
50.0
176
     1
 90
        0
176
     1
290
     0
176
     1
290
     1
176
     1
290
     1
176
     1
290
     0
176
     1
290
     0
176
     1
290
     0
176
     1
290
     0
176
     1
290
     0
176
     1
290
     0
176
     1
 90
       50
176
     1
 40
0.0
176
     1
 40
1.0
176
     1
 90
        0
176
     1
 62
    18
420
        0
176
     1
 90
       50
176
     1
 90
        3
176
     1
 62
     5
420
      255
176
     1
290
     0
176
     1
 90
       50
176
     1
 90
       50
176
     1
 90
       50
176
     1
290
     0
176
     1
 90
       50
176
     1
 62
   256
176
     0
 40
1.0
176
     0
 90
        2
176
     1
  1
strokes_ogs.tif
176
     1
290
     0
176
     1
 40
1.0
176
     1
 40
1.0
176
     1
  0
VISUALSTYLE
  5
39
102
{ACAD_REACTORS
330
29
102
}
330
29
100
AcDbVisualStyle
  2
ColorChange
 70
    16
177
     3
291
     1
 70
    58
 90
        2
176
     1
 90
        2
176
     1
 90
        3
176
     1
 90
        0
176
     1
 40
0.6
176
     1
 40
30.0
176
     1
 62
     8
420
  8421504
176
     1
 90
        1
176
     1
 90
        4
176
     1
 62
     7
176
     1
 62
   257
176
     1
 90
        1
176
     1
 90
        1
176
     1
 40
1.0
176
     1
 90
        8
176
     1
 62
     8
420
  8421504
176
     1
 40
1.0
176
     1
 90
        1
176
     1
 90
        6
176
     1
 90
        2
176
     1
 62
     7
176
     1
 90
        5
176
     1
 90
        0
176
     1
 90
        0
176
     1
290
     0
176
     1
 90
        1
176
     1
 40
0.0
176
     1
 90
        0
176
     1
290
     0
176
     1
290
     1
176
     1
290
     1
176
     1
290
     0
176
     1
290
     0
176
     1
290
     0
176
     1
290
     0
176
     1
290
     0
176
     1
290
     0
176
     1
 90
       50
176
     1
 40
0.0
176
     1
 40
1.0
176
     1
 90
        0
176
     1
 62
    18
420
        0
176
     1
 90
       50
176
     1
 90
        3
176
     1
 62
     5
420
      255
176
     1
290
     0
176
     1
 90
       50
176
     1
 90
       50
176
     1
 90
       50
176
     1
290
     0
176
     1
 90
       50
176
     1
 62
   256
176
     0
 40
1.0
176
     0
 90
        2
176
     1
  1
strokes_ogs.tif
176
     1
290
     0
176
     1
 40
1.0
176
     1
 40
1.0
176
     1
  0
VISUALSTYLE
  5
32
102
{ACAD_REACTORS
330
29
102
}
330
29
100
AcDbVisualStyle
  2
Conceptual
 70
     9
177
     3
291
     0
 70
    58
 90
        3
176
     1
 90
        2
176
     1
 90
        0
176
     1
 90
        0
176
     1
 40
0.6
176
     1
 40
30.0
176
     1
 62
     7
420
 16777215
176
     1
 90
        2
176
     1
 90
        2
176
     1
 62
     7
176
     1
 62
   257
176
     1
 90
        1
176
     1
 90
        1
176
     1
 40
179.0
176
     1
 90
        8
176
     1
 62
     7
176
     1
 40
1.0
176
     1
 90
        1
176
     1
 90
        6
176
     1
 90
        2
176
     1
 62
     7
176
     1
 90
        3
176
     1
 90
        0
176
     1
 90
        0
176
     1
290
     0
176
     1
 90
        1
176
     1
 40
0.0
176
     1
 90
        0
176
     1
290
     0
176
     1
290
     1
176
     1
290
     1
176
     1
290
     0
176
     1
290
     0
176
     1
290
     0
176
     1
290
     0
176
     1
290
     0
176
     1
290
     0
176
     1
 90
       50
176
     1
 40
0.0
176
     1
 40
1.0
176
     1
 90
        0
176
     1
 62
    18
420
        0
176
     1
 90
       50
176
     1
 90
        3
176
     1
 62
     5
420
      255
176
     1
290
     0
176
     1
 90
       50
176
     1
 90
       50
176
     1
 90
       50
176
     1
290
     0
176
     1
 90
       50
176
     1
 62
   256
176
     0
 40
1.0
176
     0
 90
        2
176
     1
  1
strokes_ogs.tif
176
     1
290
     0
176
     1
 40
1.0
176
     1
 40
1.0
176
     1
  0
VISUALSTYLE
  5
34
102
{ACAD_REACTORS
330
29
102
}
330
29
100
AcDbVisualStyle
  2
Dim
 70
    11
177
     3
291
     1
 70
    58
 90
        2
176
     1
 90
        2
176
     1
 90
        0
176
     1
 90
        0
176
     1
 40
0.6
176
     1
 40
30.0
176
     1
 62
     7
420
 16777215
176
     1
 90
        1
176
     1
 90
        4
176
     1
 62
     7
176
     1
 62
   257
176
     1
 90
        1
176
     1
 90
        1
176
     1
 40
1.0
176
     1
 90
        8
176
     1
 62
     7
176
     1
 40
1.0
176
     1
 90
        1
176
     1
 90
        6
176
     1
 90
        2
176
     1
 62
     7
176
     1
 90
        5
176
     1
 90
        0
176
     1
 90
        0
176
     1
290
     0
176
     1
 90
        1
176
     1
 40
-50.0
176
     1
 90
        0
176
     1
290
     0
176
     1
290
     1
176
     1
290
     1
176
     1
290
     0
176
     1
290
     0
176
     1
290
     0
176
     1
290
     0
176
     1
290
     0
176
     1
290
     0
176
     1
 90
       50
176
     1
 40
0.0
176
     1
 40
1.0
176
     1
 90
        0
176
     1
 62
    18
420
        0
176
     1
 90
       50
176
     1
 90
        3
176
     1
 62
     5
420
      255
176
     1
290
     0
176
     1
 90
       50
176
     1
 90
       50
176
     1
 90
       50
176
     1
290
     0
176
     1
 90
       50
176
     1
 62
   256
176
     0
 40
1.0
176
     0
 90
        2
176
     1
  1
strokes_ogs.tif
176
     1
290
     0
176
     1
 40
1.0
176
     1
 40
1.0
176
     1
  0
VISUALSTYLE
  5
41
102
{ACAD_REACTORS
330
29
102
}
330
29
100
AcDbVisualStyle
  2
EdgeColorOff
 70
    22
177
     3
291
     1
 70
    58
 90
        2
176
     0
 90
        2
176
     0
 90
        0
176
     0
 90
        0
176
     0
 40
0.6
176
     0
 40
30.0
176
     0
 62
     7
420
 16777215
176
     0
 90
        1
176
     0
 90
        4
176
     0
 62
     7
176
     0
 62
   257
176
     0
 90
        1
176
     0
 90
        1
176
     0
 40
1.0
176
     0
 90
        8
176
     2
 62
     7
176
     0
 40
1.0
176
     0
 90
        1
176
     0
 90
        6
176
     0
 90
        2
176
     0
 62
     7
176
     0
 90
        5
176
     0
 90
        0
176
     0
 90
        0
176
     0
290
     0
176
     0
 90
        1
176
     0
 40
0.0
176
     0
 90
        0
176
     0
290
     0
176
     0
290
     1
176
     0
290
     1
176
     0
290
     0
176
     0
290
     0
176
     0
290
     0
176
     0
290
     0
176
     0
290
     0
176
     0
290
     0
176
     0
 90
       50
176
     0
 40
0.0
176
     0
 40
1.0
176
     0
 90
        0
176
     0
 62
    18
420
        0
176
     0
 90
       50
176
     0
 90
        3
176
     0
 62
     5
420
      255
176
     0
290
     0
176
     0
 90
       50
176
     0
 90
       50
176
     0
 90
       50
176
     0
290
     0
176
     0
 90
       50
176
     0
 62
   256
176
     0
 40
1.0
176
     0
 90
        2
176
     0
  1
strokes_ogs.tif
176
     0
290
     0
176
     0
 40
1.0
176
     0
 40
1.0
176
     0
  0
VISUALSTYLE
  5
38
102
{ACAD_REACTORS
330
29
102
}
330
29
100
AcDbVisualStyle
  2
Facepattern
 70
    15
177
     3
291
     1
 70
    58
 90
        2
176
     1
 90
        2
176
     1
 90
        0
176
     1
 90
        0
176
     1
 40
0.6
176
     1
 40
30.0
176
     1
 62
     7
420
 16777215
176
     1
 90
        1
176
     1
 90
        4
176
     1
 62
     7
176
     1
 62
   257
176
     1
 90
        1
176
     1
 90
        1
176
     1
 40
1.0
176
     1
 90
        8
176
     1
 62
     7
176
     1
 40
1.0
176
     1
 90
        1
176
     1
 90
        6
176
     1
 90
        2
176
     1
 62
     7
176
     1
 90
        5
176
     1
 90
        0
176
     1
 90
        0
176
     1
290
     0
176
     1
 90
        1
176
     1
 40
0.0
176
     1
 90
        0
176
     1
290
     0
176
     1
290
     1
176
     1
290
     1
176
     1
290
     0
176
     1
290
     0
176
     1
290
     0
176
     1
290
     0
176
     1
290
     0
176
     1
290
     0
176
     1
 90
       50
176
     1
 40
0.0
176
     1
 40
1.0
176
     1
 90
        0
176
     1
 62
    18
420
        0
176
     1
 90
       50
176
     1
 90
        3
176
     1
 62
     5
420
      255
176
     1
290
     0
176
     1
 90
       50
176
     1
 90
       50
176
     1
 90
       50
176
     1
290
     0
176
     1
 90
       50
176
     1
 62
   256
176
     0
 40
1.0
176
     0
 90
        2
176
     1
  1
strokes_ogs.tif
176
     1
290
     0
176
     1
 40
1.0
176
     1
 40
1.0
176
     1
  0
VISUALSTYLE
  5
2A
102
{ACAD_REACTORS
330
29
102
}
330
29
100
AcDbVisualStyle
  2
Flat
 70
     0
177
     3
291
     1
 70
    58
 90
        2
176
     1
 90
        1
176
     1
 90
        1
176
     1
 90
        2
176
     1
 40
0.6
176
     1
 40
30.0
176
     1
 62
     7
420
 16777215
176
     1
 90
        0
176
     1
 90
        0
176
     1
 62
     7
176
     1
 62
   257
176
     1
 90
        1
176
     1
 90
        1
176
     1
 40
1.0
176
     1
 90
        8
176
     1
 62
     7
176
     1
 40
1.0
176
     1
 90
        1
176
     1
 90
        6
176
     1
 90
        2
176
     1
 62
     7
176
     1
 90
        5
176
     1
 90
        0
176
     1
 90
        0
176
     1
290
     0
176
     1
 90
       13
176
     1
 40
0.0
176
     1
 90
        0
176
     1
290
     0
176
     1
290
     1
176
     1
290
     1
176
     1
290
     0
176
     1
290
     0
176
     1
290
     0
176
     1
290
     0
176
     1
290
     0
176
     1
290
     0
176
     1
 90
       50
176
     1
 40
0.0
176
     1
 40
1.0
176
     1
 90
        0
176
     1
 62
    18
420
        0
176
     1
 90
       50
176
     1
 90
        3
176
     1
 62
     5
420
      255
176
     1
290
     0
176
     1
 90
       50
176
     1
 90
       50
176
     1
 90
       50
176
     1
290
     0
176
     1
 90
       50
176
     1
 62
   256
176
     0
 40
1.0
176
     0
 90
        2
176
     1
  1
strokes_ogs.tif
176
     1
290
     0
176
     1
 40
1.0
176
     1
 40
1.0
176
     1
  0
VISUALSTYLE
  5
2B
102
{ACAD_REACTORS
330
29
102
}
330
29
100
AcDbVisualStyle
  2
FlatWithEdges
 70
     1
177
     3
291
     1
 70
    58
 90
        2
176
     1
 90
        1
176
     1
 90
        1
176
     1
 90
        2
176
     1
 40
0.6
176
     1
 40
30.0
176
     1
 62
     7
420
 16777215
176
     1
 90
        1
176
     1
 90
        0
176
     1
 62
     7
176
     1
 62
   257
176
     1
 90
        1
176
     1
 90
        1
176
     1
 40
1.0
176
     1
 90
        0
176
     1
 62
   257
176
     1
 40
1.0
176
     1
 90
        1
176
     1
 90
        6
176
     1
 90
        2
176
     1
 62
     7
176
     1
 90
        5
176
     1
 90
        0
176
     1
 90
        0
176
     1
290
     0
176
     1
 90
       13
176
     1
 40
0.0
176
     1
 90
        0
176
     1
290
     0
176
     1
290
     1
176
     1
290
     1
176
     1
290
     0
176
     1
290
     0
176
     1
290
     0
176
     1
290
     0
176
     1
290
     0
176
     1
290
     0
176
     1
 90
       50
176
     1
 40
0.0
176
     1
 40
1.0
176
     1
 90
        0
176
     1
 62
    18
420
        0
176
     1
 90
       50
176
     1
 90
        3
176
     1
 62
     5
420
      255
176
     1
290
     0
176
     1
 90
       50
176
     1
 90
       50
176
     1
 90
       50
176
     1
290
     0
176
     1
 90
       50
176
     1
 62
   256
176
     0
 40
1.0
176
     0
 90
        2
176
     1
  1
strokes_ogs.tif
176
     1
290
     0
176
     1
 40
1.0
176
     1
 40
1.0
176
     1
  0
VISUALSTYLE
  5
2C
102
{ACAD_REACTORS
330
29
102
}
330
29
100
AcDbVisualStyle
  2
Gouraud
 70
     2
177
     3
291
     1
 70
    58
 90
        2
176
     1
 90
        2
176
     1
 90
        1
176
     1
 90
        2
176
     1
 40
0.6
176
     1
 40
30.0
176
     1
 62
     7
420
 16777215
176
     1
 90
        0
176
     1
 90
        0
176
     1
 62
     7
176
     1
 62
   257
176
     1
 90
        1
176
     1
 90
        1
176
     1
 40
1.0
176
     1
 90
        0
176
     1
 62
     7
176
     1
 40
1.0
176
     1
 90
        1
176
     1
 90
        6
176
     1
 90
        2
176
     1
 62
     7
176
     1
 90
        5
176
     1
 90
        0
176
     1
 90
        0
176
     1
290
     0
176
     1
 90
       13
176
     1
 40
0.0
176
     1
 90
        0
176
     1
290
     0
176
     1
290
     1
176
     1
290
     1
176
     1
290
     0
176
     1
290
     0
176
     1
290
     0
176
     1
290
     0
176
     1
290
     0
176
     1
290
     0
176
     1
 90
       50
176
     1
 40
0.0
176
     1
 40
1.0
176
     1
 90
        0
176
     1
 62
    18
420
        0
176
     1
 90
       50
176
     1
 90
        3
176
     1
 62
     5
420
      255
176
     1
290
     0
176
     1
 90
       50
176
     1
 90
       50
176
     1
 90
       50
176
     1
290
     0
176
     1
 90
       50
176
     1
 62
   256
176
     0
 40
1.0
176
     0
 90
        2
176
     1
  1
strokes_ogs.tif
176
     1
290
     0
176
     1
 40
1.0
176
     1
 40
1.0
176
     1
  0
VISUALSTYLE
  5
2D
102
{ACAD_REACTORS
330
29
102
}
330
29
100
AcDbVisualStyle
  2
GouraudWithEdges
 70
     3
177
     3
291
     1
 70
    58
 90
        2
176
     1
 90
        2
176
     1
 90
        1
176
     1
 90
        2
176
     1
 40
0.6
176
     1
 40
30.0
176
     1
 62
     7
420
 16777215
176
     1
 90
        1
176
     1
 90
        0
176
     1
 62
     7
176
     1
 62
   257
176
     1
 90
        1
176
     1
 90
        1
176
     1
 40
1.0
176
     1
 90
        0
176
     1
 62
   257
176
     1
 40
1.0
176
     1
 90
        1
176
     1
 90
        6
176
     1
 90
        2
176
     1
 62
     7
176
     1
 90
        5
176
     1
 90
        0
176
     1
 90
        0
176
     1
290
     0
176
     1
 90
       13
176
     1
 40
0.0
176
     1
 90
        0
176
     1
290
     0
176
     1
290
     1
176
     1
290
     1
176
     1
290
     0
176
     1
290
     0
176
     1
290
     0
176
     1
290
     0
176
     1
290
     0
176
     1
290
     0
176
     1
 90
       50
176
     1
 40
0.0
176
     1
 40
1.0
176
     1
 90
        0
176
     1
 62
    18
420
        0
176
     1
 90
       50
176
     1
 90
        3
176
     1
 62
     5
420
      255
176
     1
290
     0
176
     1
 90
       50
176
     1
 90
       50
176
     1
 90
       50
176
     1
290
     0
176
     1
 90
       50
176
     1
 62
   256
176
     0
 40
1.0
176
     0
 90
        2
176
     1
  1
strokes_ogs.tif
176
     1
290
     0
176
     1
 40
1.0
176
     1
 40
1.0
176
     1
  0
VISUALSTYLE
  5
31
102
{ACAD_REACTORS
330
29
102
}
330
29
100
AcDbVisualStyle
  2
Hidden
 70
     6
177
     3
291
     0
 70
    58
 90
        1
176
     1
 90
        2
176
     1
 90
        2
176
     1
 90
        0
176
     1
 40
0.6
176
     1
 40
30.0
176
     1
 62
     7
420
 16777215
176
     1
 90
        2
176
     1
 90
        2
176
     1
 62
     7
176
     1
 62
   257
176
     1
 90
        2
176
     1
 90
        1
176
     1
 40
40.0
176
     1
 90
        0
176
     1
 62
   257
176
     1
 40
1.0
176
     1
 90
        1
176
     1
 90
        6
176
     1
 90
        2
176
     1
 62
     7
176
     1
 90
        3
176
     1
 90
        0
176
     1
 90
        0
176
     1
290
     0
176
     1
 90
        1
176
     1
 40
0.0
176
     1
 90
        0
176
     1
290
     0
176
     1
290
     1
176
     1
290
     1
176
     1
290
     0
176
     1
290
     0
176
     1
290
     0
176
     1
290
     0
176
     1
290
     0
176
     1
290
     0
176
     1
 90
       50
176
     1
 40
0.0
176
     1
 40
1.0
176
     1
 90
        0
176
     1
 62
    18
420
        0
176
     1
 90
       50
176
     1
 90
        3
176
     1
 62
     5
420
      255
176
     1
290
     0
176
     1
 90
       50
176
     1
 90
       50
176
     1
 90
       50
176
     1
290
     0
176
     1
 90
       50
176
     1
 62
   256
176
     0
 40
1.0
176
     0
 90
        2
176
     1
  1
strokes_ogs.tif
176
     1
290
     0
176
     1
 40
1.0
176
     1
 40
1.0
176
     1
  0
VISUALSTYLE
  5
3F
102
{ACAD_REACTORS
330
29
102
}
330
29
100
AcDbVisualStyle
  2
JitterOff
 70
    20
177
     3
291
     1
 70
    58
 90
        2
176
     0
 90
        2
176
     0
 90
        0
176
     0
 90
        0
176
     0
 40
0.6
176
     0
 40
30.0
176
     0
 62
     7
420
 16777215
176
     0
 90
        1
176
     0
 90
        4
176
     0
 62
     7
176
     0
 62
   257
176
     0
 90
        1
176
     0
 90
        1
176
     0
 40
1.0
176
     0
 90
       10
176
     2
 62
     7
176
     0
 40
1.0
176
     0
 90
        1
176
     0
 90
        6
176
     0
 90
        2
176
     0
 62
     7
176
     0
 90
        5
176
     0
 90
        0
176
     0
 90
        0
176
     0
290
     0
176
     0
 90
        1
176
     0
 40
0.0
176
     0
 90
        0
176
     0
290
     0
176
     0
290
     1
176
     0
290
     1
176
     0
290
     0
176
     0
290
     0
176
     0
290
     0
176
     0
290
     0
176
     0
290
     0
176
     0
290
     0
176
     0
 90
       50
176
     0
 40
0.0
176
     0
 40
1.0
176
     0
 90
        0
176
     0
 62
    18
420
        0
176
     0
 90
       50
176
     0
 90
        3
176
     0
 62
     5
420
      255
176
     0
290
     0
176
     0
 90
       50
176
     0
 90
       50
176
     0
 90
       50
176
     0
290
     0
176
     0
 90
       50
176
     0
 62
   256
176
     0
 40
1.0
176
     0
 90
        2
176
     0
  1
strokes_ogs.tif
176
     0
290
     0
176
     0
 40
1.0
176
     0
 40
1.0
176
     0
  0
VISUALSTYLE
  5
37
102
{ACAD_REACTORS
330
29
102
}
330
29
100
AcDbVisualStyle
  2
Linepattern
 70
    14
177
     3
291
     1
 70
    58
 90
        2
176
     1
 90
        2
176
     1
 90
        0
176
     1
 90
        0
176
     1
 40
0.6
176
     1
 40
30.0
176
     1
 62
     7
420
 16777215
176
     1
 90
        1
176
     1
 90
        4
176
     1
 62
     7
176
     1
 62
   257
176
     1
 90
        7
176
     1
 90
        7
176
     1
 40
1.0
176
     1
 90
        8
176
     1
 62
     7
176
     1
 40
1.0
176
     1
 90
        1
176
     1
 90
        6
176
     1
 90
        2
176
     1
 62
     7
176
     1
 90
        5
176
     1
 90
        0
176
     1
 90
        0
176
     1
290
     0
176
     1
 90
        1
176
     1
 40
0.0
176
     1
 90
        0
176
     1
290
     0
176
     1
290
     1
176
     1
290
     1
176
     1
290
     0
176
     1
290
     0
176
     1
290
     0
176
     1
290
     0
176
     1
290
     0
176
     1
290
     0
176
     1
 90
       50
176
     1
 40
0.0
176
     1
 40
1.0
176
     1
 90
        0
176
     1
 62
    18
420
        0
176
     1
 90
       50
176
     1
 90
        3
176
     1
 62
     5
420
      255
176
     1
290
     0
176
     1
 90
       50
176
     1
 90
       50
176
     1
 90
       50
176
     1
290
     0
176
     1
 90
       50
176
     1
 62
   256
176
     0
 40
1.0
176
     0
 90
        2
176
     1
  1
strokes_ogs.tif
176
     1
290
     0
176
     1
 40
1.0
176
     1
 40
1.0
176
     1
  0
VISUALSTYLE
  5
40
102
{ACAD_REACTORS
330
29
102
}
330
29
100
AcDbVisualStyle
  2
OverhangOff
 70
    21
177
     3
291
     1
 70
    58
 90
        2
176
     0
 90
        2
176
     0
 90
        0
176
     0
 90
        0
176
     0
 40
0.6
176
     0
 40
30.0
176
     0
 62
     7
420
 16777215
176
     0
 90
        1
176
     0
 90
        4
176
     0
 62
     7
176
     0
 62
   257
176
     0
 90
        1
176
     0
 90
        1
176
     0
 40
1.0
176
     0
 90
        9
176
     2
 62
     7
176
     0
 40
1.0
176
     0
 90
        1
176
     0
 90
        6
176
     0
 90
        2
176
     0
 62
     7
176
     0
 90
        5
176
     0
 90
        0
176
     0
 90
        0
176
     0
290
     0
176
     0
 90
        1
176
     0
 40
0.0
176
     0
 90
        0
176
     0
290
     0
176
     0
290
     1
176
     0
290
     1
176
     0
290
     0
176
     0
290
     0
176
     0
290
     0
176
     0
290
     0
176
     0
290
     0
176
     0
290
     0
176
     0
 90
       50
176
     0
 40
0.0
176
     0
 40
1.0
176
     0
 90
        0
176
     0
 62
    18
420
        0
176
     0
 90
       50
176
     0
 90
        3
176
     0
 62
     5
420
      255
176
     0
290
     0
176
     0
 90
       50
176
     0
 90
       50
176
     0
 90
       50
176
     0
290
     0
176
     0
 90
       50
176
     0
 62
   256
176
     0
 40
1.0
176
     0
 90
        2
176
     0
  1
strokes_ogs.tif
176
     0
290
     0
176
     0
 40
1.0
176
     0
 40
1.0
176
     0
  0
VISUALSTYLE
  5
33
102
{ACAD_REACTORS
330
29
102
}
330
29
100
AcDbVisualStyle
  2
Realistic
 70
     8
177
     3
291
     0
 70
    58
 90
        2
176
     1
 90
        3
176
     1
 90
        0
176
     1
 90
        2
176
     1
 40
0.6
176
     1
 40
30.0
176
     1
 62
     7
420
 16777215
176
     1
 90
        0
176
     1
 90
        0
176
     1
 62
     7
176
     1
 62
   257
176
     1
 90
        1
176
     1
 90
        1
176
     1
 40
1.0
176
     1
 90
        8
176
     1
 62
   257
176
     1
 40
1.0
176
     1
 90
        1
176
     1
 90
        6
176
     1
 90
        2
176
     1
 62
     7
176
     1
 90
        3
176
     1
 90
        0
176
     1
 90
        0
176
     1
290
     0
176
     1
 90
       13
176
     1
 40
0.0
176
     1
 90
        0
176
     1
290
     0
176
     1
290
     1
176
     1
290
     1
176
     1
290
     0
176
     1
290
     0
176
     1
290
     0
176
     1
290
     0
176
     1
290
     0
176
     1
290
     0
176
     1
 90
       50
176
     1
 40
0.0
176
     1
 40
1.0
176
     1
 90
        0
176
     1
 62
    18
420
        0
176
     1
 90
       50
176
     1
 90
        3
176
     1
 62
     5
420
      255
176
     1
290
     0
176
     1
 90
       50
176
     1
 90
       50
176
     1
 90
       50
176
     1
290
     0
176
     1
 90
       50
176
     1
 62
   256
176
     0
 40
1.0
176
     0
 90
        2
176
     1
  1
strokes_ogs.tif
176
     1
290
     0
176
     1
 40
1.0
176
     1
 40
1.0
176
     1
  0
VISUALSTYLE
  5
3E
102
{ACAD_REACTORS
330
29
102
}
330
29
100
AcDbVisualStyle
  2
Shaded
 70
    27
177
     3
291
     0
 70
    58
 90
        2
176
     1
 90
        2
176
     1
 90
        1
176
     1
 90
        2
176
     1
 40
0.6
176
     1
 40
30.0
176
     1
 62
     7
420
 16777215
176
     1
 90
        0
176
     1
 90
        4
176
     1
 62
     7
176
     1
 62
   257
176
     1
 90
        1
176
     1
 90
        1
176
     1
 40
1.0
176
     1
 90
        8
176
     1
 62
   257
176
     1
 40
1.0
176
     1
 90
        1
176
     1
 90
        6
176
     1
 90
        2
176
     1
 62
     8
420
  7895160
176
     1
 90
        3
176
     1
 90
        0
176
     1
 90
        0
176
     1
290
     0
176
     1
 90
        5
176
     1
 40
0.0
176
     1
 90
        0
176
     1
290
     0
176
     1
290
     1
176
     1
290
     1
176
     1
290
     0
176
     1
290
     0
176
     1
290
     0
176
     1
290
     0
176
     1
290
     0
176
     1
290
     0
176
     1
 90
       50
176
     1
 40
0.0
176
     1
 40
1.0
176
     1
 90
        0
176
     1
 62
    18
420
        0
176
     1
 90
       50
176
     1
 90
        3
176
     1
 62
     5
420
      255
176
     1
290
     0
176
     1
 90
       50
176
     1
 90
       50
176
     1
 90
       50
176
     1
290
     0
176
     1
 90
       50
176
     1
 62
   256
176
     0
 40
1.0
176
     0
 90
        2
176
     1
  1
strokes_ogs.tif
176
     1
290
     0
176
     1
 40
1.0
176
     1
 40
1.0
176
     1
  0
VISUALSTYLE
  5
3D
102
{ACAD_REACTORS
330
29
102
}
330
29
100
AcDbVisualStyle
  2
Shaded with edges
 70
    26
177
     3
291
     0
 70
    58
 90
        2
176
     1
 90
        2
176
     1
 90
        1
176
     1
 90
        2
176
     1
 40
0.6
176
     1
 40
30.0
176
     1
 62
     7
420
 16777215
176
     1
 90
        1
176
     1
 90
       10
176
     1
 62
     7
176
     1
 62
   257
176
     1
 90
        2
176
     1
 90
        1
176
     1
 40
1.0
176
     1
 90
        8
176
     1
 62
   257
176
     1
 40
1.0
176
     1
 90
        1
176
     1
 90
        6
176
     1
 90
        2
176
     1
 62
     7
176
     1
 90
        3
176
     1
 90
        0
176
     1
 90
        0
176
     1
290
     0
176
     1
 90
        5
176
     1
 40
0.0
176
     1
 90
        0
176
     1
290
     0
176
     1
290
     1
176
     1
290
     1
176
     1
290
     0
176
     1
290
     0
176
     1
290
     0
176
     1
290
     0
176
     1
290
     0
176
     1
290
     0
176
     1
 90
       50
176
     1
 40
0.0
176
     1
 40
1.0
176
     1
 90
        0
176
     1
 62
    18
420
        0
176
     1
 90
       50
176
     1
 90
        3
176
     1
 62
     5
420
      255
176
     1
290
     0
176
     1
 90
       50
176
     1
 90
       50
176
     1
 90
       50
176
     1
290
     0
176
     1
 90
       50
176
     1
 62
   256
176
     0
 40
1.0
176
     0
 90
        2
176
     1
  1
strokes_ogs.tif
176
     1
290
     0
176
     1
 40
1.0
176
     1
 40
1.0
176
     1
  0
VISUALSTYLE
  5
3A
102
{ACAD_REACTORS
330
29
102
}
330
29
100
AcDbVisualStyle
  2
Shades of Gray
 70
    23
177
     3
291
     0
 70
    58
 90
        2
176
     1
 90
        2
176
     1
 90
        3
176
     1
 90
        0
176
     1
 40
0.6
176
     1
 40
30.0
176
     1
 62
     7
420
 16777215
176
     1
 90
        2
176
     1
 90
        2
176
     1
 62
     7
176
     1
 62
     7
176
     1
 90
        1
176
     1
 90
        1
176
     1
 40
40.0
176
     1
 90
        8
176
     1
 62
     7
176
     1
 40
1.0
176
     1
 90
        1
176
     1
 90
        6
176
     1
 90
        2
176
     1
 62
     7
176
     1
 90
        3
176
     1
 90
        0
176
     1
 90
        0
176
     1
290
     0
176
     1
 90
        1
176
     1
 40
0.0
176
     1
 90
        0
176
     1
290
     0
176
     1
290
     1
176
     1
290
     1
176
     1
290
     0
176
     1
290
     0
176
     1
290
     0
176
     1
290
     0
176
     1
290
     0
176
     1
290
     0
176
     1
 90
       50
176
     1
 40
0.0
176
     1
 40
1.0
176
     1
 90
        0
176
     1
 62
    18
420
        0
176
     1
 90
       50
176
     1
 90
        3
176
     1
 62
     5
420
      255
176
     1
290
     0
176
     1
 90
       50
176
     1
 90
       50
176
     1
 90
       50
176
     1
290
     0
176
     1
 90
       50
176
     1
 62
   256
176
     0
 40
1.0
176
     0
 90
        2
176
     1
  1
strokes_ogs.tif
176
     1
290
     0
176
     1
 40
1.0
176
     1
 40
1.0
176
     1
  0
VISUALSTYLE
  5
3B
102
{ACAD_REACTORS
330
29
102
}
330
29
100
AcDbVisualStyle
  2
Sketchy
 70
    24
177
     3
291
     0
 70
    58
 90
        1
176
     1
 90
        2
176
     1
 90
        2
176
     1
 90
        0
176
     1
 40
0.6
176
     1
 40
30.0
176
     1
 62
     7
420
 16777215
176
     1
 90
        2
176
     1
 90
        2
176
     1
 62
     7
176
     1
 62
     7
176
     1
 90
        1
176
     1
 90
        1
176
     1
 40
40.0
176
     1
 90
       11
176
     1
 62
     7
176
     1
 40
1.0
176
     1
 90
        1
176
     1
 90
        6
176
     1
 90
        2
176
     1
 62
     7
176
     1
 90
        6
176
     1
 90
        0
176
     1
 90
        0
176
     1
290
     0
176
     1
 90
        1
176
     1
 40
0.0
176
     1
 90
        0
176
     1
290
     0
176
     1
290
     1
176
     1
290
     1
176
     1
290
     0
176
     1
290
     0
176
     1
290
     0
176
     1
290
     0
176
     1
290
     0
176
     1
290
     0
176
     1
 90
       50
176
     1
 40
0.0
176
     1
 40
1.0
176
     1
 90
        0
176
     1
 62
    18
420
        0
176
     1
 90
       50
176
     1
 90
        3
176
     1
 62
     5
420
      255
176
     1
290
     0
176
     1
 90
       50
176
     1
 90
       50
176
     1
 90
       50
176
     1
290
     0
176
     1
 90
       50
176
     1
 62
   256
176
     0
 40
1.0
176
     0
 90
        2
176
     1
  1
strokes_ogs.tif
176
     1
290
     0
176
     1
 40
1.0
176
     1
 40
1.0
176
     1
  0
VISUALSTYLE
  5
36
102
{ACAD_REACTORS
330
29
102
}
330
29
100
AcDbVisualStyle
  2
Thicken
 70
    13
177
     3
291
     1
 70
    58
 90
        2
176
     1
 90
        2
176
     1
 90
        0
176
     1
 90
        0
176
     1
 40
0.6
176
     1
 40
30.0
176
     1
 62
     7
420
 16777215
176
     1
 90
        1
176
     1
 90
        4
176
     1
 62
     7
176
     1
 62
   257
176
     1
 90
        1
176
     1
 90
        1
176
     1
 40
1.0
176
     1
 90
       12
176
     1
 62
     7
176
     1
 40
1.0
176
     1
 90
        1
176
     1
 90
        6
176
     1
 90
        2
176
     1
 62
     7
176
     1
 90
        5
176
     1
 90
        0
176
     1
 90
        0
176
     1
290
     0
176
     1
 90
        1
176
     1
 40
0.0
176
     1
 90
        0
176
     1
290
     0
176
     1
290
     1
176
     1
290
     1
176
     1
290
     0
176
     1
290
     0
176
     1
290
     0
176
     1
290
     0
176
     1
290
     0
176
     1
290
     0
176
     1
 90
       50
176
     1
 40
0.0
176
     1
 40
1.0
176
     1
 90
        0
176
     1
 62
    18
420
        0
176
     1
 90
       50
176
     1
 90
        3
176
     1
 62
     5
420
      255
176
     1
290
     0
176
     1
 90
       50
176
     1
 90
       50
176
     1
 90
       50
176
     1
290
     0
176
     1
 90
       50
176
     1
 62
   256
176
     0
 40
1.0
176
     0
 90
        2
176
     1
  1
strokes_ogs.tif
176
     1
290
     0
176
     1
 40
1.0
176
     1
 40
1.0
176
     1
  0
VISUALSTYLE
  5
30
102
{ACAD_REACTORS
330
29
102
}
330
29
100
AcDbVisualStyle
  2
Wireframe
 70
     5
177
     3
291
     0
 70
    58
 90
        0
176
     1
 90
        2
176
     1
 90
        0
176
     1
 90
        0
176
     1
 40
0.6
176
     1
 40
30.0
176
     1
 62
     7
420
 16777215
176
     1
 90
        1
176
     1
 90
        4
176
     1
 62
     7
176
     1
 62
   257
176
     1
 90
        1
176
     1
 90
        1
176
     1
 40
1.0
176
     1
 90
        0
176
     1
 62
   257
176
     1
 40
1.0
176
     1
 90
        1
176
     1
 90
        6
176
     1
 90
        2
176
     1
 62
     7
176
     1
 90
        3
176
     1
 90
        0
176
     1
 90
        0
176
     1
290
     0
176
     1
 90
        1
176
     1
 40
0.0
176
     1
 90
        0
176
     1
290
     0
176
     1
290
     1
176
     1
290
     1
176
     1
290
     0
176
     1
290
     0
176
     1
290
     0
176
     1
290
     0
176
     1
290
     0
176
     1
290
     0
176
     1
 90
       50
176
     1
 40
0.0
176
     1
 40
1.0
176
     1
 90
        0
176
     1
 62
    18
420
        0
176
     1
 90
       50
176
     1
 90
        3
176
     1
 62
     5
420
      255
176
     1
290
     0
176
     1
 90
       50
176
     1
 90
       50
176
     1
 90
       50
176
     1
290
     0
176
     1
 90
       50
176
     1
 62
   256
176
     0
 40
1.0
176
     0
 90
        2
176
     1
  1
strokes_ogs.tif
176
     1
290
     0
176
     1
 40
1.0
176
     1
 40
1.0
176
     1
  0
VISUALSTYLE
  5
3C
102
{ACAD_REACTORS
330
29
102
}
330
29
100
AcDbVisualStyle
  2
X-Ray
 70
    25
177
     3
291
     0
 70
    58
 90
        2
176
     1
 90
        2
176
     1
 90
        1
176
     1
 90
        1
176
     1
 40
0.5
176
     1
 40
30.0
176
     1
 62
     7
420
 16777215
176
     1
 90
        1
176
     1
 90
        0
176
     1
 62
     7
176
     1
 62
   257
176
     1
 90
        1
176
     1
 90
        1
176
     1
 40
1.0
176
     1
 90
        8
176
     1
 62
     7
176
     1
 40
1.0
176
     1
 90
        1
176
     1
 90
        6
176
     1
 90
        2
176
     1
 62
     7
176
     1
 90
        3
176
     1
 90
        0
176
     1
 90
        0
176
     1
290
     0
176
     1
 90
       13
176
     1
 40
0.0
176
     1
 90
        0
176
     1
290
     0
176
     1
290
     1
176
     1
290
     1
176
     1
290
     0
176
     1
290
     0
176
     1
290
     0
176
     1
290
     0
176
     1
290
     0
176
     1
290
     0
176
     1
 90
       50
176
     1
 40
0.0
176
     1
 40
1.0
176
     1
 90
        0
176
     1
 62
    18
420
        0
176
     1
 90
       50
176
     1
 90
        3
176
     1
 62
     5
420
      255
176
     1
290
     0
176
     1
 90
       50
176
     1
 90
       50
176
     1
 90
       50
176
     1
290
     0
176
     1
 90
       50
176
     1
 62
   256
176
     0
 40
1.0
176
     0
 90
        2
176
     1
  1
strokes_ogs.tif
176
     1
290
     0
176
     1
 40
1.0
176
     1
 40
1.0
176
     1
  0
DICTIONARYVAR
  5
81
102
{ACAD_REACTORS
330
7C
102
}
330
7C
100
DictionaryVariables
280
     0
  1
1:1
  0
DICTIONARYVAR
  5
7E
102
{ACAD_REACTORS
330
7C
102
}
330
7C
100
DictionaryVariables
280
     0
  1
STANDARD
  0
DICTIONARYVAR
  5
7D
102
{ACAD_REACTORS
330
7C
102
}
330
7C
100
DictionaryVariables
280
     0
  1
STANDARD
  0
DICTIONARYVAR
  5
7F
102
{ACAD_REACTORS
330
7C
102
}
330
7C
100
DictionaryVariables
280
     0
  1
Imperial24
  0
DICTIONARYVAR
  5
80
102
{ACAD_REACTORS
330
7C
102
}
330
7C
100
DictionaryVariables
280
     0
  1
Imperial24
  0
XRECORD
  5
3BE
102
{ACAD_REACTORS
330
3BA
102
}
330
3BA
100
AcDbXrecord
280
     1
  1
BUILDING_ID
  1
Progetto per messa in tavola DXF, DWG
  1
FLOOR_ID
  1
694395
  0
XRECORD
  5
3BC
102
{ACAD_REACTORS
330
3BA
102
}
330
3BA
100
AcDbXrecord
280
     1
  1
-2001160
  1
Apparecchi idraulici
  0
XRECORD
  5
3BD
102
{ACAD_REACTORS
330
3BA
102
}
330
3BA
100
AcDbXrecord
280
     1
  1
924018
  1
Pressure gauge
  0
XRECORD
  5
3BB
102
{ACAD_REACTORS
330
3BA
102
}
330
3BA
100
AcDbXrecord
280
     1
  1
929094
  1
Automatic flow rate regulator valve_Caleffi_121 DN15 : 3/4''_Pressure gauge
  0
DICTIONARY
  5
1A
330
19
100
AcDbDictionary
280
     1
281
     1
  3
BUMPTILE
360
1C
  3
DIFFUSETILE
360
1B
  3
OPACITYTILE
360
1F
  3
REFLECTIONTILE
360
1E
  3
REFRACTIONTILE
360
20
  3
SPECULARTILE
360
1D
  0
DICTIONARY
  5
12
330
11
100
AcDbDictionary
280
     1
281
     1
  3
BUMPTILE
360
14
  3
DIFFUSETILE
360
13
  3
OPACITYTILE
360
17
  3
REFLECTIONTILE
360
16
  3
REFRACTIONTILE
360
18
  3
SPECULARTILE
360
15
  0
DICTIONARY
  5
22
330
21
100
AcDbDictionary
280
     1
281
     1
  3
BUMPTILE
360
24
  3
DIFFUSETILE
360
23
  3
OPACITYTILE
360
27
  3
REFLECTIONTILE
360
26
  3
REFRACTIONTILE
360
28
  3
SPECULARTILE
360
25
  0
DICTIONARY
  5
3C1
330
65
100
AcDbDictionary
280
     1
281
     1
  3
ACAD_ROUNDTRIP_2008_TABLESTYLE_CELLSTYLEMAP
360
3C2
  0
XRECORD
  5
1C
102
{ACAD_REACTORS
330
1A
102
}
330
1A
100
AcDbXrecord
280
     1
270
     1
271
     1
  0
XRECORD
  5
1B
102
{ACAD_REACTORS
330
1A
102
}
330
1A
100
AcDbXrecord
280
     1
270
     1
271
     1
  0
XRECORD
  5
1F
102
{ACAD_REACTORS
330
1A
102
}
330
1A
100
AcDbXrecord
280
     1
270
     1
271
     1
  0
XRECORD
  5
1E
102
{ACAD_REACTORS
330
1A
102
}
330
1A
100
AcDbXrecord
280
     1
270
     1
271
     1
  0
XRECORD
  5
20
102
{ACAD_REACTORS
330
1A
102
}
330
1A
100
AcDbXrecord
280
     1
270
     1
271
     1
  0
XRECORD
  5
1D
102
{ACAD_REACTORS
330
1A
102
}
330
1A
100
AcDbXrecord
280
     1
270
     1
271
     1
  0
XRECORD
  5
14
102
{ACAD_REACTORS
330
12
102
}
330
12
100
AcDbXrecord
280
     1
270
     1
271
     1
  0
XRECORD
  5
13
102
{ACAD_REACTORS
330
12
102
}
330
12
100
AcDbXrecord
280
     1
270
     1
271
     1
  0
XRECORD
  5
17
102
{ACAD_REACTORS
330
12
102
}
330
12
100
AcDbXrecord
280
     1
270
     1
271
     1
  0
XRECORD
  5
16
102
{ACAD_REACTORS
330
12
102
}
330
12
100
AcDbXrecord
280
     1
270
     1
271
     1
  0
XRECORD
  5
18
102
{ACAD_REACTORS
330
12
102
}
330
12
100
AcDbXrecord
280
     1
270
     1
271
     1
  0
XRECORD
  5
15
102
{ACAD_REACTORS
330
12
102
}
330
12
100
AcDbXrecord
280
     1
270
     1
271
     1
  0
XRECORD
  5
24
102
{ACAD_REACTORS
330
22
102
}
330
22
100
AcDbXrecord
280
     1
270
     1
271
     1
  0
XRECORD
  5
23
102
{ACAD_REACTORS
330
22
102
}
330
22
100
AcDbXrecord
280
     1
270
     1
271
     1
  0
XRECORD
  5
27
102
{ACAD_REACTORS
330
22
102
}
330
22
100
AcDbXrecord
280
     1
270
     1
271
     1
  0
XRECORD
  5
26
102
{ACAD_REACTORS
330
22
102
}
330
22
100
AcDbXrecord
280
     1
270
     1
271
     1
  0
XRECORD
  5
28
102
{ACAD_REACTORS
330
22
102
}
330
22
100
AcDbXrecord
280
     1
270
     1
271
     1
  0
XRECORD
  5
25
102
{ACAD_REACTORS
330
22
102
}
330
22
100
AcDbXrecord
280
     1
270
     1
271
     1
  0
CELLSTYLEMAP
  5
3C2
102
{ACAD_REACTORS
330
3C1
102
}
330
3C1
100
AcDbCellStyleMap
 90
        3
300
CELLSTYLE
  1
TABLEFORMAT_BEGIN
 90
        5
170
     1
 91
        0
 92
    32768
 62
   257
 93
        1
300
CONTENTFORMAT
  1
CONTENTFORMAT_BEGIN
 90
        0
 91
        0
 92
      512
 93
        0
300

 40
0.0
140
1.0
 94
        5
 62
     0
340
55
144
0.25
309
CONTENTFORMAT_END
171
     0
 94
        0
309
TABLEFORMAT_END
  1
CELLSTYLE_BEGIN
 90
        1
 91
        1
300
_TITLE
309
CELLSTYLE_END
300
CELLSTYLE
  1
TABLEFORMAT_BEGIN
 90
        5
170
     1
 91
        0
 92
        0
 62
   257
 93
        1
300
CONTENTFORMAT
  1
CONTENTFORMAT_BEGIN
 90
        0
 91
        0
 92
      512
 93
        0
300

 40
0.0
140
1.0
 94
        5
 62
     0
340
55
144
0.18
309
CONTENTFORMAT_END
171
     0
 94
        0
309
TABLEFORMAT_END
  1
CELLSTYLE_BEGIN
 90
        2
 91
        1
300
_HEADER
309
CELLSTYLE_END
300
CELLSTYLE
  1
TABLEFORMAT_BEGIN
 90
        5
170
     1
 91
        0
 92
        0
 62
   257
 93
        1
300
CONTENTFORMAT
  1
CONTENTFORMAT_BEGIN
 90
        0
 91
        0
 92
      512
 93
        0
300

 40
0.0
140
1.0
 94
        2
 62
     0
340
55
144
0.18
309
CONTENTFORMAT_END
171
     0
 94
        0
309
TABLEFORMAT_END
  1
CELLSTYLE_BEGIN
 90
        3
 91
        2
300
_DATA
309
CELLSTYLE_END
  0
ENDSEC
  0
EOF
