  0
SECTION
  2
HEADER
  9
$ACADVER
  1
AC1027
  9
$ACADMAINTVER
 70
    20
  9
$DWGCODEPAGE
  3
ANSI_1252
  9
$REQUIREDVERSIONS
160
                 0
  9
$INSBASE
 10
0.0
 20
0.0
 30
0.0
  9
$EXTMIN
 10
607.3686398731338
 20
1651.155266574606
 30
-0.00000001
  9
$EXTMAX
 10
1218.614353953126
 20
2177.374720262088
 30
0.00000001
  9
$LIMMIN
 10
0.0
 20
0.0
  9
$LIMMAX
 10
12.0
 20
9.0
  9
$ORTHOMODE
 70
     0
  9
$REGENMODE
 70
     1
  9
$FILLMODE
 70
     1
  9
$QTEXTMODE
 70
     0
  9
$MIRRTEXT
 70
     0
  9
$LTSCALE
 40
1.0
  9
$ATTMODE
 70
     1
  9
$TEXTSIZE
 40
0.2
  9
$TRACEWID
 40
0.05
  9
$TEXTSTYLE
  7
Standard
  9
$CLAYER
  8
0
  9
$CELTYPE
  6
ByLayer
  9
$CECOLOR
 62
   256
  9
$CELTSCALE
 40
1.0
  9
$DISPSILH
 70
     0
  9
$DIMSCALE
 40
1.0
  9
$DIMASZ
 40
0.18
  9
$DIMEXO
 40
0.0625
  9
$DIMDLI
 40
0.38
  9
$DIMRND
 40
0.0
  9
$DIMDLE
 40
0.0
  9
$DIMEXE
 40
0.18
  9
$DIMTP
 40
0.0
  9
$DIMTM
 40
0.0
  9
$DIMTXT
 40
0.18
  9
$DIMCEN
 40
0.09
  9
$DIMTSZ
 40
0.0
  9
$DIMTOL
 70
     0
  9
$DIMLIM
 70
     0
  9
$DIMTIH
 70
     1
  9
$DIMTOH
 70
     1
  9
$DIMSE1
 70
     0
  9
$DIMSE2
 70
     0
  9
$DIMTAD
 70
     0
  9
$DIMZIN
 70
     0
  9
$DIMBLK
  1

  9
$DIMASO
 70
     1
  9
$DIMSHO
 70
     1
  9
$DIMPOST
  1

  9
$DIMAPOST
  1

  9
$DIMALT
 70
     0
  9
$DIMALTD
 70
     2
  9
$DIMALTF
 40
25.4
  9
$DIMLFAC
 40
1.0
  9
$DIMTOFL
 70
     0
  9
$DIMTVP
 40
0.0
  9
$DIMTIX
 70
     0
  9
$DIMSOXD
 70
     0
  9
$DIMSAH
 70
     0
  9
$DIMBLK1
  1

  9
$DIMBLK2
  1

  9
$DIMSTYLE
  2
Standard
  9
$DIMCLRD
 70
     0
  9
$DIMCLRE
 70
     0
  9
$DIMCLRT
 70
     0
  9
$DIMTFAC
 40
1.0
  9
$DIMGAP
 40
0.09
  9
$DIMJUST
 70
     0
  9
$DIMSD1
 70
     0
  9
$DIMSD2
 70
     0
  9
$DIMTOLJ
 70
     1
  9
$DIMTZIN
 70
     0
  9
$DIMALTZ
 70
     0
  9
$DIMALTTZ
 70
     0
  9
$DIMUPT
 70
     0
  9
$DIMDEC
 70
     4
  9
$DIMTDEC
 70
     4
  9
$DIMALTU
 70
     2
  9
$DIMALTTD
 70
     2
  9
$DIMTXSTY
  7
Standard
  9
$DIMAUNIT
 70
     0
  9
$DIMADEC
 70
     0
  9
$DIMALTRND
 40
0.0
  9
$DIMAZIN
 70
     0
  9
$DIMDSEP
 70
    46
  9
$DIMATFIT
 70
     3
  9
$DIMFRAC
 70
     0
  9
$DIMLDRBLK
  1

  9
$DIMLUNIT
 70
     2
  9
$DIMLWD
 70
    -2
  9
$DIMLWE
 70
    -2
  9
$DIMTMOVE
 70
     0
  9
$DIMFXL
 40
1.0
  9
$DIMFXLON
 70
     0
  9
$DIMJOGANG
 40
0.7853981633974483
  9
$DIMTFILL
 70
     0
  9
$DIMTFILLCLR
 70
     0
  9
$DIMARCSYM
 70
     0
  9
$DIMLTYPE
  6

  9
$DIMLTEX1
  6

  9
$DIMLTEX2
  6

  9
$DIMTXTDIRECTION
 70
     0
  9
$LUNITS
 70
     2
  9
$LUPREC
 70
     4
  9
$SKETCHINC
 40
0.1
  9
$FILLETRAD
 40
0.0
  9
$AUNITS
 70
     0
  9
$AUPREC
 70
     0
  9
$MENU
  1
.
  9
$ELEVATION
 40
0.0
  9
$PELEVATION
 40
0.0
  9
$THICKNESS
 40
0.0
  9
$LIMCHECK
 70
     0
  9
$CHAMFERA
 40
0.0
  9
$CHAMFERB
 40
0.0
  9
$CHAMFERC
 40
0.0
  9
$CHAMFERD
 40
0.0
  9
$SKPOLY
 70
     0
  9
$TDCREATE
 40
2457571.606311621
  9
$TDUCREATE
 40
2457571.522978287
  9
$TDUPDATE
 40
2457571.606311621
  9
$TDUUPDATE
 40
2457571.522978287
  9
$TDINDWG
 40
0.0000224306
  9
$TDUSRTIMER
 40
0.0000224306
  9
$USRTIMER
 70
     1
  9
$ANGBASE
 50
0.0
  9
$ANGDIR
 70
     0
  9
$PDMODE
 70
     0
  9
$PDSIZE
 40
0.0
  9
$PLINEWID
 40
0.0
  9
$SPLFRAME
 70
     0
  9
$SPLINETYPE
 70
     6
  9
$SPLINESEGS
 70
     8
  9
$HANDSEED
  5
32C
  9
$SURFTAB1
 70
     6
  9
$SURFTAB2
 70
     6
  9
$SURFTYPE
 70
     6
  9
$SURFU
 70
     6
  9
$SURFV
 70
     6
  9
$UCSBASE
  2

  9
$UCSNAME
  2

  9
$UCSORG
 10
0.0
 20
0.0
 30
0.0
  9
$UCSXDIR
 10
1.0
 20
0.0
 30
0.0
  9
$UCSYDIR
 10
0.0
 20
1.0
 30
0.0
  9
$UCSORTHOREF
  2

  9
$UCSORTHOVIEW
 70
     0
  9
$UCSORGTOP
 10
0.0
 20
0.0
 30
0.0
  9
$UCSORGBOTTOM
 10
0.0
 20
0.0
 30
0.0
  9
$UCSORGLEFT
 10
0.0
 20
0.0
 30
0.0
  9
$UCSORGRIGHT
 10
0.0
 20
0.0
 30
0.0
  9
$UCSORGFRONT
 10
0.0
 20
0.0
 30
0.0
  9
$UCSORGBACK
 10
0.0
 20
0.0
 30
0.0
  9
$PUCSBASE
  2

  9
$PUCSNAME
  2

  9
$PUCSORG
 10
0.0
 20
0.0
 30
0.0
  9
$PUCSXDIR
 10
1.0
 20
0.0
 30
0.0
  9
$PUCSYDIR
 10
0.0
 20
1.0
 30
0.0
  9
$PUCSORTHOREF
  2

  9
$PUCSORTHOVIEW
 70
     0
  9
$PUCSORGTOP
 10
0.0
 20
0.0
 30
0.0
  9
$PUCSORGBOTTOM
 10
0.0
 20
0.0
 30
0.0
  9
$PUCSORGLEFT
 10
0.0
 20
0.0
 30
0.0
  9
$PUCSORGRIGHT
 10
0.0
 20
0.0
 30
0.0
  9
$PUCSORGFRONT
 10
0.0
 20
0.0
 30
0.0
  9
$PUCSORGBACK
 10
0.0
 20
0.0
 30
0.0
  9
$USERI1
 70
     0
  9
$USERI2
 70
     0
  9
$USERI3
 70
     0
  9
$USERI4
 70
     0
  9
$USERI5
 70
     0
  9
$USERR1
 40
0.0
  9
$USERR2
 40
0.0
  9
$USERR3
 40
0.0
  9
$USERR4
 40
0.0
  9
$USERR5
 40
0.0
  9
$WORLDVIEW
 70
     1
  9
$SHADEDGE
 70
     3
  9
$SHADEDIF
 70
    70
  9
$TILEMODE
 70
     1
  9
$MAXACTVP
 70
    64
  9
$PINSBASE
 10
0.0
 20
0.0
 30
0.0
  9
$PLIMCHECK
 70
     0
  9
$PEXTMIN
 10
1.000000000000000E+20
 20
1.000000000000000E+20
 30
1.000000000000000E+20
  9
$PEXTMAX
 10
-1.000000000000000E+20
 20
-1.000000000000000E+20
 30
-1.000000000000000E+20
  9
$PLIMMIN
 10
0.0
 20
0.0
  9
$PLIMMAX
 10
12.0
 20
9.0
  9
$UNITMODE
 70
     0
  9
$VISRETAIN
 70
     1
  9
$PLINEGEN
 70
     0
  9
$PSLTSCALE
 70
     1
  9
$TREEDEPTH
 70
  3020
  9
$CMLSTYLE
  2
Standard
  9
$CMLJUST
 70
     0
  9
$CMLSCALE
 40
1.0
  9
$PROXYGRAPHICS
 70
     1
  9
$MEASUREMENT
 70
     1
  9
$CELWEIGHT
370
    -1
  9
$ENDCAPS
280
     0
  9
$JOINSTYLE
280
     0
  9
$LWDISPLAY
290
     0
  9
$INSUNITS
 70
     4
  9
$HYPERLINKBASE
  1

  9
$STYLESHEET
  1

  9
$XEDIT
290
     1
  9
$CEPSNTYPE
380
     0
  9
$PSTYLEMODE
290
     1
  9
$FINGERPRINTGUID
  2
{2DD666E7-D942-441E-847B-4AB6E1D9F3CD}
  9
$VERSIONGUID
  2
{C7F1F5A8-BC05-4427-A2F4-A6AD78032B3F}
  9
$EXTNAMES
290
     1
  9
$PSVPSCALE
 40
0.0
  9
$OLESTARTUP
290
     0
  9
$SORTENTS
280
   127
  9
$INDEXCTL
280
     0
  9
$HIDETEXT
280
     1
  9
$XCLIPFRAME
280
     2
  9
$HALOGAP
280
     0
  9
$OBSCOLOR
 70
   257
  9
$OBSLTYPE
280
     0
  9
$INTERSECTIONDISPLAY
280
     0
  9
$INTERSECTIONCOLOR
 70
   257
  9
$DIMASSOC
280
     2
  9
$PROJECTNAME
  1

  9
$CAMERADISPLAY
290
     0
  9
$LENSLENGTH
 40
50.0
  9
$CAMERAHEIGHT
 40
0.0
  9
$STEPSPERSEC
 40
2.0
  9
$STEPSIZE
 40
6.0
  9
$3DDWFPREC
 40
2.0
  9
$PSOLWIDTH
 40
0.25
  9
$PSOLHEIGHT
 40
4.0
  9
$LOFTANG1
 40
1.570796326794896
  9
$LOFTANG2
 40
1.570796326794896
  9
$LOFTMAG1
 40
0.0
  9
$LOFTMAG2
 40
0.0
  9
$LOFTPARAM
 70
     7
  9
$LOFTNORMALS
280
     1
  9
$LATITUDE
 40
37.795
  9
$LONGITUDE
 40
-122.394
  9
$NORTHDIRECTION
 40
0.0
  9
$TIMEZONE
 70
 -8000
  9
$LIGHTGLYPHDISPLAY
280
     1
  9
$TILEMODELIGHTSYNCH
280
     1
  9
$CMATERIAL
347
11
  9
$SOLIDHIST
280
     0
  9
$SHOWHIST
280
     1
  9
$DWFFRAME
280
     2
  9
$DGNFRAME
280
     0
  9
$REALWORLDSCALE
290
     1
  9
$INTERFERECOLOR
 62
     1
  9
$INTERFEREOBJVS
345
33
  9
$INTERFEREVPVS
346
30
  9
$CSHADOW
280
     0
  9
$SHADOWPLANELOCATION
 40
0.0
  0
ENDSEC
  0
SECTION
  2
CLASSES
  0
CLASS
  1
ACDBDICTIONARYWDFLT
  2
AcDbDictionaryWithDefault
  3
ObjectDBX Classes
 90
        0
 91
        1
280
     0
281
     0
  0
CLASS
  1
MATERIAL
  2
AcDbMaterial
  3
ObjectDBX Classes
 90
     1153
 91
        3
280
     0
281
     0
  0
CLASS
  1
VISUALSTYLE
  2
AcDbVisualStyle
  3
ObjectDBX Classes
 90
     4095
 91
       24
280
     0
281
     0
  0
CLASS
  1
SCALE
  2
AcDbScale
  3
ObjectDBX Classes
 90
     1153
 91
       17
280
     0
281
     0
  0
CLASS
  1
TABLESTYLE
  2
AcDbTableStyle
  3
ObjectDBX Classes
 90
     4095
 91
        1
280
     0
281
     0
  0
CLASS
  1
MLEADERSTYLE
  2
AcDbMLeaderStyle
  3
ACDB_MLEADERSTYLE_CLASS
 90
     4095
 91
        1
280
     0
281
     0
  0
CLASS
  1
ACDBSECTIONVIEWSTYLE
  2
AcDbSectionViewStyle
  3
ObjectDBX Classes
 90
     1025
 91
        1
280
     0
281
     0
  0
CLASS
  1
ACDBDETAILVIEWSTYLE
  2
AcDbDetailViewStyle
  3
ObjectDBX Classes
 90
     1025
 91
        1
280
     0
281
     0
  0
CLASS
  1
RASTERVARIABLES
  2
AcDbRasterVariables
  3
ISM
 90
        0
 91
        1
280
     0
281
     0
  0
CLASS
  1
DICTIONARYVAR
  2
AcDbDictionaryVar
  3
ObjectDBX Classes
 90
        0
 91
        5
280
     0
281
     0
  0
CLASS
  1
CELLSTYLEMAP
  2
AcDbCellStyleMap
  3
ObjectDBX Classes
 90
     1152
 91
        2
280
     0
281
     0
  0
CLASS
  1
SORTENTSTABLE
  2
AcDbSortentsTable
  3
ObjectDBX Classes
 90
        0
 91
        1
280
     0
281
     0
  0
ENDSEC
  0
SECTION
  2
TABLES
  0
TABLE
  2
VPORT
  5
8
330
0
100
AcDbSymbolTable
 70
     1
  0
VPORT
  5
57
330
8
100
AcDbSymbolTableRecord
100
AcDbViewportTableRecord
  2
*Active
 70
     0
 10
0.0
 20
0.0
 11
1.0
 21
1.0
 12
912.9914969131302
 22
1914.264993418347
 13
0.0
 23
0.0
 14
1.0
 24
1.0
 15
0.0
 25
0.0
 16
0.0
 26
0.0
 36
1.0
 17
0.0
 27
0.0
 37
0.0
 40
526.219453687482
 41
1.161579469927782
 42
50.0
 43
0.0
 44
0.0
 50
0.0
 51
0.0
 71
     0
 72
  1000
 73
     1
 74
     1
 75
     0
 76
     0
 77
     0
 78
     0
281
     0
 65
     1
110
0.0
120
0.0
130
0.0
111
1.0
121
0.0
131
0.0
112
0.0
122
1.0
132
0.0
 79
     0
146
0.0
 60
     3
 61
     5
292
     1
282
     1
141
0.0
142
0.0
 63
   250
421
  3355443
  0
ENDTAB
  0
TABLE
  2
LTYPE
  5
5
330
0
100
AcDbSymbolTable
 70
     3
  0
LTYPE
  5
5B
330
5
100
AcDbSymbolTableRecord
100
AcDbLinetypeTableRecord
  2
ByBlock
 70
     0
  3

 72
    65
 73
     0
 40
0.0
  0
LTYPE
  5
5C
330
5
100
AcDbSymbolTableRecord
100
AcDbLinetypeTableRecord
  2
ByLayer
 70
     0
  3

 72
    65
 73
     0
 40
0.0
  0
LTYPE
  5
5D
330
5
100
AcDbSymbolTableRecord
100
AcDbLinetypeTableRecord
  2
Continuous
 70
     0
  3
Solid line
 72
    65
 73
     0
 40
0.0
  0
LTYPE
  5
69
330
5
100
AcDbSymbolTableRecord
100
AcDbLinetypeTableRecord
  2
PHANTOM2
 70
     0
  3
___ _ _ ___ _ _ ___ _ _ ___ _ _
 72
    65
 73
     6
 40
1.25
 49
0.625
 74
     0
 49
-0.125
 74
     0
 49
0.125
 74
     0
 49
-0.125
 74
     0
 49
0.125
 74
     0
 49
-0.125
 74
     0
  0
LTYPE
  5
86
330
5
100
AcDbSymbolTableRecord
100
AcDbLinetypeTableRecord
  2
Nascosto 1_5 mm
 70
     0
  3

 72
    65
 73
     2
 40
2.2
 49
1.5
 74
     0
 49
-0.7000000000000001
 74
     0
  0
ENDTAB
  0
TABLE
  2
LAYER
  5
2
330
0
100
AcDbSymbolTable
 70
     4
  0
LAYER
  5
54
330
2
100
AcDbSymbolTableRecord
100
AcDbLayerTableRecord
  2
0
 70
     0
 62
     7
  6
Continuous
370
    -3
390
F
347
21
348
0
  0
LAYER
  5
85
330
2
100
AcDbSymbolTableRecord
100
AcDbLayerTableRecord
  2
P-SANR-FIXT
 70
     0
 62
     6
  6
Continuous
370
    18
390
F
347
21
348
0
  0
LAYER
  5
88
330
2
100
AcDbSymbolTableRecord
100
AcDbLayerTableRecord
  2
M-PIPE
 70
     0
 62
     3
  6
Continuous
370
    18
390
F
347
21
348
0
  0
ENDTAB
  0
TABLE
  2
STYLE
  5
3
330
0
100
AcDbSymbolTable
 70
     2
  0
STYLE
  5
55
330
3
100
AcDbSymbolTableRecord
100
AcDbTextStyleTableRecord
  2
Standard
 70
     0
 40
0.0
 41
1.0
 50
0.0
 71
     0
 42
0.2
  3
txt
  4

  0
STYLE
  5
5A
330
3
100
AcDbSymbolTableRecord
100
AcDbTextStyleTableRecord
  2
Annotative
 70
     0
 40
0.0
 41
1.0
 50
0.0
 71
     0
 42
0.2
  3
txt
  4

1001
AcadAnnotative
1000
AnnotativeData
1002
{
1070
     1
1070
     1
1002
}
  0
ENDTAB
  0
TABLE
  2
VIEW
  5
6
330
0
100
AcDbSymbolTable
 70
     0
  0
ENDTAB
  0
TABLE
  2
UCS
  5
7
330
0
100
AcDbSymbolTable
 70
     0
  0
ENDTAB
  0
TABLE
  2
APPID
  5
9
330
0
100
AcDbSymbolTable
 70
     3
  0
APPID
  5
56
330
9
100
AcDbSymbolTableRecord
100
AcDbRegAppTableRecord
  2
ACAD
 70
     0
  0
APPID
  5
5E
330
9
100
AcDbSymbolTableRecord
100
AcDbRegAppTableRecord
  2
AcadAnnotative
 70
     0
  0
APPID
  5
79
330
9
100
AcDbSymbolTableRecord
100
AcDbRegAppTableRecord
  2
REVIT
 70
     0
  0
ENDTAB
  0
TABLE
  2
DIMSTYLE
  5
A
330
0
100
AcDbSymbolTable
 70
     2
100
AcDbDimStyleTable
 71
     0
  0
DIMSTYLE
105
58
330
A
100
AcDbSymbolTableRecord
100
AcDbDimStyleTableRecord
  2
Standard
 70
     0
340
55
  0
DIMSTYLE
105
59
330
A
100
AcDbSymbolTableRecord
100
AcDbDimStyleTableRecord
  2
Annotative
 70
     0
340
55
1001
AcadAnnotative
1000
AnnotativeData
1002
{
1070
     1
1070
     1
1002
}
  0
ENDTAB
  0
TABLE
  2
BLOCK_RECORD
  5
1
330
0
100
AcDbSymbolTable
 70
     4
  0
BLOCK_RECORD
  5
71
102
{ACAD_XDICTIONARY
360
327
102
}
330
1
100
AcDbSymbolTableRecord
100
AcDbBlockTableRecord
  2
*Model_Space
340
74
 70
     0
280
     1
281
     0
  0
BLOCK_RECORD
  5
6D
330
1
100
AcDbSymbolTableRecord
100
AcDbBlockTableRecord
  2
*Paper_Space
340
70
 70
     0
280
     1
281
     0
  0
BLOCK_RECORD
  5
75
330
1
100
AcDbSymbolTableRecord
100
AcDbBlockTableRecord
  2
*Paper_Space0
340
78
 70
     0
280
     1
281
     0
  0
BLOCK_RECORD
  5
87
330
1
100
AcDbSymbolTableRecord
100
AcDbBlockTableRecord
  2
Automatic flow rate regulator valve_Caleffi_121 DN15 - 2___Pressure gauge H-980146-Est - Idraulica
340
0
102
{BLKREFS
331
186
102
}
 70
     0
280
     1
281
     0
  0
BLOCK_RECORD
  5
187
330
1
100
AcDbSymbolTableRecord
100
AcDbBlockTableRecord
  2
Automatic flow rate regulator valve_Caleffi_121 DN15 - 2___Pressure gauge H-V1-Est - Idraulica
340
0
102
{BLKREFS
331
27F
102
}
 70
     0
280
     1
281
     0
  0
BLOCK_RECORD
  5
280
330
1
100
AcDbSymbolTableRecord
100
AcDbBlockTableRecord
  2
Automatic flow rate regulator valve_Caleffi_121 DN15 - 2___Pressure gauge H-V2-Est - Idraulica
340
0
102
{BLKREFS
331
320
102
}
 70
     0
280
     1
281
     0
  0
ENDTAB
  0
ENDSEC
  0
SECTION
  2
BLOCKS
  0
BLOCK
  5
72
330
71
100
AcDbEntity
  8
0
100
AcDbBlockBegin
  2
*Model_Space
 70
     0
 10
0.0
 20
0.0
 30
0.0
  3
*Model_Space
  1

  0
ENDBLK
  5
73
330
71
100
AcDbEntity
  8
0
100
AcDbBlockEnd
  0
BLOCK
  5
6E
330
6D
100
AcDbEntity
 67
     1
  8
0
100
AcDbBlockBegin
  2
*Paper_Space
 70
     0
 10
0.0
 20
0.0
 30
0.0
  3
*Paper_Space
  1

  0
ENDBLK
  5
6F
330
6D
100
AcDbEntity
 67
     1
  8
0
100
AcDbBlockEnd
  0
BLOCK
  5
76
330
75
100
AcDbEntity
 67
     1
  8
0
100
AcDbBlockBegin
  2
*Paper_Space0
 70
     0
 10
0.0
 20
0.0
 30
0.0
  3
*Paper_Space0
  1

  0
ENDBLK
  5
77
330
75
100
AcDbEntity
 67
     1
  8
0
100
AcDbBlockEnd
  0
BLOCK
  5
184
330
87
100
AcDbEntity
  8
0
100
AcDbBlockBegin
  2
Automatic flow rate regulator valve_Caleffi_121 DN15 - 2___Pressure gauge H-980146-Est - Idraulica
 70
     0
 10
0.0
 20
0.0
 30
0.0
  3
Automatic flow rate regulator valve_Caleffi_121 DN15 - 2___Pressure gauge H-980146-Est - Idraulica
  1

  0
ARC
  5
89
330
87
100
AcDbEntity
  8
M-PIPE
100
AcDbCircle
 10
792.2530570873268
 20
2115.90813158075
 30
0.0
 40
3.999999999999974
100
AcDbArc
 50
164.0000000000045
 51
343.9999999999912
1001
REVIT
1002
{
1070
     3
1000
923236
1002
}
  0
ARC
  5
8A
330
87
100
AcDbEntity
  8
M-PIPE
100
AcDbCircle
 10
792.2530570873268
 20
2115.90813158075
 30
0.0
 40
4.000000000000083
100
AcDbArc
 50
343.999999999991
 51
164.0000000000034
1001
REVIT
1002
{
1070
     3
1000
923236
1002
}
  0
ARC
  5
8B
330
87
100
AcDbEntity
  8
M-PIPE
100
AcDbCircle
 10
792.2530570873269
 20
2115.90813158075
 30
0.0
 40
30.99999999999992
100
AcDbArc
 50
163.9999999999988
 51
343.9999999999969
1001
REVIT
1002
{
1070
     3
1000
923236
1002
}
  0
ARC
  5
8C
330
87
100
AcDbEntity
  8
M-PIPE
100
AcDbCircle
 10
792.2530570873269
 20
2115.90813158075
 30
0.0
 40
31.00000000000002
100
AcDbArc
 50
343.9999999999975
 51
163.9999999999986
1001
REVIT
1002
{
1070
     3
1000
923236
1002
}
  0
LINE
  5
8D
330
87
100
AcDbEntity
  8
M-PIPE
100
AcDbLine
 10
783.6168408968203
 20
2062.208357187222
 30
0.0
 11
786.9244891666247
 21
2073.743497538482
 31
0.0
1001
REVIT
1002
{
1070
     3
1000
923236
1002
}
  0
LINE
  5
8E
330
87
100
AcDbEntity
  8
M-PIPE
100
AcDbLine
 10
774.4280871194471
 20
2077.326783164098
 30
0.0
 11
771.1204388496428
 21
2065.791642812838
 31
0.0
1001
REVIT
1002
{
1070
     3
1000
923236
1002
}
  0
LINE
  5
8F
330
87
100
AcDbEntity
  8
M-PIPE
100
AcDbLine
 10
787.4051200146147
 20
2073.605678860566
 30
0.0
 11
773.9474562714783
 21
2077.464601842004
 31
0.0
1001
REVIT
1002
{
1070
     3
1000
923236
1002
}
  0
LINE
  5
90
330
87
100
AcDbEntity
  8
M-PIPE
100
AcDbLine
 10
790.6657498426559
 20
2084.976846418895
 30
0.0
 11
787.4051200146147
 21
2073.605678860566
 31
0.0
1001
REVIT
1002
{
1070
     3
1000
923236
1002
}
  0
LINE
  5
91
330
87
100
AcDbEntity
  8
M-PIPE
100
AcDbLine
 10
773.9474562714783
 20
2077.464601842004
 30
0.0
 11
777.2080860995136
 21
2088.835769400313
 31
0.0
1001
REVIT
1002
{
1070
     3
1000
923236
1002
}
  0
LWPOLYLINE
  5
92
330
87
100
AcDbEntity
  8
M-PIPE
100
AcDbPolyline
 90
        3
 70
   128
 43
0.0
 10
665.7538779834839
 20
2108.750177039342
 10
662.6687587537626
 20
2120.345988367679
 10
661.6140538118684
 20
2124.80233751163
1001
REVIT
1002
{
1070
     3
1000
923097
1002
}
  0
LWPOLYLINE
  5
93
330
87
100
AcDbEntity
  8
M-PIPE
100
AcDbPolyline
 90
        3
 70
   128
 43
0.0
 10
721.0026274455382
 20
2146.418010569812
 10
726.2582027273683
 20
2135.630993860778
 10
728.1494680036689
 20
2131.460314556165
1001
REVIT
1002
{
1070
     3
1000
923097
1002
}
  0
ELLIPSE
  5
94
330
87
100
AcDbEntity
  8
M-PIPE
100
AcDbEllipse
 10
639.3147265645827
 20
2077.104975757228
 30
0.0
 11
-102.6060429976968
 21
281.9077862357736
 31
0.0
210
0.0
220
0.0
230
0.9999999999999996
 40
0.2588190451030422
 41
4.791451455487145
 42
4.836688948174558
1001
REVIT
1002
{
1070
     3
1000
923097
1002
}
  0
LINE
  5
95
330
87
100
AcDbEntity
  8
M-PIPE
100
AcDbLine
 10
703.9460688702046
 20
2125.843531020922
 30
0.0
 11
687.9051562570074
 21
2120.005116299253
 31
0.0
1001
REVIT
1002
{
1070
     3
1000
923097
1002
}
  0
ELLIPSE
  5
96
330
87
100
AcDbEntity
  8
M-PIPE
100
AcDbEllipse
 10
768.7441763190759
 20
2124.213442905313
 30
0.0
 11
-102.606042997693
 21
281.9077862357755
 31
0.0
210
0.0
220
0.0
230
0.9999999999999998
 40
0.2588190451030393
 41
1.446496359005032
 42
1.491733851692444
1001
REVIT
1002
{
1070
     3
1000
923097
1002
}
  0
LINE
  5
97
330
87
100
AcDbEntity
  8
M-PIPE
100
AcDbLine
 10
683.6228936697523
 20
2132.812900110632
 30
0.0
 11
661.6140538118668
 21
2124.802337511632
 31
0.0
1001
REVIT
1002
{
1070
     3
1000
923097
1002
}
  0
LINE
  5
98
330
87
100
AcDbEntity
  8
M-PIPE
100
AcDbLine
 10
683.6228936697522
 20
2132.812900110632
 30
0.0
 11
683.6442470277699
 21
2132.820672097352
 31
0.0
1001
REVIT
1002
{
1070
     3
1000
923097
1002
}
  0
LINE
  5
99
330
87
100
AcDbEntity
  8
M-PIPE
100
AcDbLine
 10
698.9724342296329
 20
2138.39967598409
 30
0.0
 11
698.9937875876507
 21
2138.40744797081
 31
0.0
1001
REVIT
1002
{
1070
     3
1000
923097
1002
}
  0
LINE
  5
9A
330
87
100
AcDbEntity
  8
M-PIPE
100
AcDbLine
 10
721.0026274455369
 20
2146.41801056981
 30
0.0
 11
698.9937875876515
 21
2138.407447970808
 31
0.0
1001
REVIT
1002
{
1070
     3
1000
923097
1002
}
  0
LINE
  5
9B
330
87
100
AcDbEntity
  8
M-PIPE
100
AcDbLine
 10
688.7509073329447
 20
2120.312944516495
 30
0.0
 11
684.1336353980404
 21
2132.998794897126
 31
0.0
1001
REVIT
1002
{
1070
     3
1000
923097
1002
}
  0
LINE
  5
9C
330
87
100
AcDbEntity
  8
M-PIPE
100
AcDbLine
 10
698.483045859364
 20
2138.221553184316
 30
0.0
 11
703.1003177942683
 21
2125.535702803685
 31
0.0
1001
REVIT
1002
{
1070
     3
1000
923097
1002
}
  0
LINE
  5
9D
330
87
100
AcDbEntity
  8
M-PIPE
100
AcDbLine
 10
747.667420531897
 20
2087.483735231397
 30
0.0
 11
746.2993399586009
 21
2091.242505714522
 31
0.0
1001
REVIT
1002
{
1070
     3
1000
923097
1002
}
  0
LINE
  5
9E
330
87
100
AcDbEntity
  8
M-PIPE
100
AcDbLine
 10
677.7017786412378
 20
2066.275035251752
 30
0.0
 11
679.0698592145335
 21
2062.516264768627
 31
0.0
1001
REVIT
1002
{
1070
     3
1000
923097
1002
}
  0
LWPOLYLINE
  5
9F
330
87
100
AcDbEntity
  8
M-PIPE
100
AcDbPolyline
 90
        4
 70
   128
 43
0.0
 10
675.9467684732848
 20
2078.406397059514
 10
671.6434120506996
 20
2089.60737579015
 10
667.791417535929
 20
2100.971483290617
 10
665.4719701972587
 20
2108.647570996327
1001
REVIT
1002
{
1070
     3
1000
923097
1002
}
  0
LWPOLYLINE
  5
A0
330
87
100
AcDbEntity
  8
M-PIPE
100
AcDbPolyline
 90
        4
 70
   128
 43
0.0
 10
728.4313757899089
 20
2131.562920599144
 10
733.0825766266221
 20
2120.501856825685
 10
737.287732423071
 20
2109.263642298832
 10
739.8458666867248
 20
2101.663766805658
1001
REVIT
1002
{
1070
     3
1000
923097
1002
}
  0
LINE
  5
A1
330
87
100
AcDbEntity
  8
M-PIPE
100
AcDbLine
 10
679.0698592145324
 20
2062.516264768626
 30
0.0
 11
747.6674205318957
 21
2087.483735231396
 31
0.0
1001
REVIT
1002
{
1070
     3
1000
923097
1002
}
  0
LINE
  5
A2
330
87
100
AcDbEntity
  8
M-PIPE
100
AcDbLine
 10
746.2993399585996
 20
2091.242505714522
 30
0.0
 11
744.8898010274364
 21
2090.729475499539
 31
0.0
1001
REVIT
1002
{
1070
     3
1000
923097
1002
}
  0
LINE
  5
A3
330
87
100
AcDbEntity
  8
M-PIPE
100
AcDbLine
 10
744.8898010274358
 20
2090.729475499538
 30
0.0
 11
740.7855593075214
 21
2102.005786948987
 31
0.0
1001
REVIT
1002
{
1070
     3
1000
923097
1002
}
  0
LINE
  5
A4
330
87
100
AcDbEntity
  8
M-PIPE
100
AcDbLine
 10
738.0338072259351
 20
2101.00423109921
 30
0.0
 11
742.1380489458495
 21
2089.727919649761
 31
0.0
1001
REVIT
1002
{
1070
     3
1000
923097
1002
}
  0
LINE
  5
A5
330
87
100
AcDbEntity
  8
M-PIPE
100
AcDbLine
 10
742.1380489458478
 20
2089.72791964976
 30
0.0
 11
728.3754813612217
 21
2084.71875470188
 31
0.0
1001
REVIT
1002
{
1070
     3
1000
923097
1002
}
  0
LINE
  5
A6
330
87
100
AcDbEntity
  8
M-PIPE
100
AcDbLine
 10
728.3754813612191
 20
2084.718754701878
 30
0.0
 11
724.2712396413047
 21
2095.995066151327
 31
0.0
1001
REVIT
1002
{
1070
     3
1000
923097
1002
}
  0
LINE
  5
A7
330
87
100
AcDbEntity
  8
M-PIPE
100
AcDbLine
 10
717.6279224456447
 20
2093.577096435318
 30
0.0
 11
721.732164165559
 21
2082.30078498587
 31
0.0
1001
REVIT
1002
{
1070
     3
1000
923097
1002
}
  0
LINE
  5
A8
330
87
100
AcDbEntity
  8
M-PIPE
100
AcDbLine
 10
721.7321641655562
 20
2082.300784985869
 30
0.0
 11
702.268954434278
 21
2075.216755980403
 31
0.0
1001
REVIT
1002
{
1070
     3
1000
923097
1002
}
  0
LINE
  5
A9
330
87
100
AcDbEntity
  8
M-PIPE
100
AcDbLine
 10
702.2689544342758
 20
2075.216755980402
 30
0.0
 11
698.1647127143613
 21
2086.493067429851
 31
0.0
1001
REVIT
1002
{
1070
     3
1000
923097
1002
}
  0
LINE
  5
AA
330
87
100
AcDbEntity
  8
M-PIPE
100
AcDbLine
 10
691.5213955187498
 20
2084.07509771386
 30
0.0
 11
695.6256372386643
 21
2072.798786264411
 31
0.0
1001
REVIT
1002
{
1070
     3
1000
923097
1002
}
  0
LINE
  5
AB
330
87
100
AcDbEntity
  8
M-PIPE
100
AcDbLine
 10
695.6256372386635
 20
2072.798786264411
 30
0.0
 11
681.8630696539599
 21
2067.789621316502
 31
0.0
1001
REVIT
1002
{
1070
     3
1000
923097
1002
}
  0
LINE
  5
AC
330
87
100
AcDbEntity
  8
M-PIPE
100
AcDbLine
 10
681.8630696539598
 20
2067.789621316501
 30
0.0
 11
677.7588279340451
 21
2079.065932765951
 31
0.0
1001
REVIT
1002
{
1070
     3
1000
923097
1002
}
  0
LINE
  5
AD
330
87
100
AcDbEntity
  8
M-PIPE
100
AcDbLine
 10
675.0070758525075
 20
2078.064376916191
 30
0.0
 11
679.1113175724222
 21
2066.788065466742
 31
0.0
1001
REVIT
1002
{
1070
     3
1000
923097
1002
}
  0
LINE
  5
AE
330
87
100
AcDbEntity
  8
M-PIPE
100
AcDbLine
 10
679.1113175724226
 20
2066.788065466742
 30
0.0
 11
677.7017786412365
 21
2066.27503525175
 31
0.0
1001
REVIT
1002
{
1070
     3
1000
923097
1002
}
  0
LINE
  5
AF
330
87
100
AcDbEntity
  8
M-PIPE
100
AcDbLine
 10
677.7588279340457
 20
2079.065932765951
 30
0.0
 11
675.0070758525081
 21
2078.064376916191
 31
0.0
1001
REVIT
1002
{
1070
     3
1000
923097
1002
}
  0
LINE
  5
B0
330
87
100
AcDbEntity
  8
M-PIPE
100
AcDbLine
 10
677.7588279340456
 20
2079.065932765951
 30
0.0
 11
691.5213955187496
 21
2084.07509771386
 31
0.0
1001
REVIT
1002
{
1070
     3
1000
923097
1002
}
  0
LINE
  5
B1
330
87
100
AcDbEntity
  8
M-PIPE
100
AcDbLine
 10
698.1647127143637
 20
2086.493067429852
 30
0.0
 11
691.5213955187497
 21
2084.07509771386
 31
0.0
1001
REVIT
1002
{
1070
     3
1000
923097
1002
}
  0
LINE
  5
B2
330
87
100
AcDbEntity
  8
M-PIPE
100
AcDbLine
 10
698.1647127143636
 20
2086.493067429852
 30
0.0
 11
717.6279224456428
 21
2093.577096435318
 31
0.0
1001
REVIT
1002
{
1070
     3
1000
923097
1002
}
  0
LINE
  5
B3
330
87
100
AcDbEntity
  8
M-PIPE
100
AcDbLine
 10
724.2712396413073
 20
2095.995066151328
 30
0.0
 11
717.6279224456431
 21
2093.577096435318
 31
0.0
1001
REVIT
1002
{
1070
     3
1000
923097
1002
}
  0
LINE
  5
B4
330
87
100
AcDbEntity
  8
M-PIPE
100
AcDbLine
 10
724.2712396413073
 20
2095.995066151328
 30
0.0
 11
738.0338072259339
 21
2101.004231099209
 31
0.0
1001
REVIT
1002
{
1070
     3
1000
923097
1002
}
  0
LINE
  5
B5
330
87
100
AcDbEntity
  8
M-PIPE
100
AcDbLine
 10
740.785559307522
 20
2102.005786948987
 30
0.0
 11
738.033807225934
 21
2101.004231099209
 31
0.0
1001
REVIT
1002
{
1070
     3
1000
923097
1002
}
  0
LINE
  5
B6
330
87
100
AcDbEntity
  8
M-PIPE
100
AcDbLine
 10
728.4313757899076
 20
2131.562920599143
 30
0.0
 11
665.4719701972574
 21
2108.647570996326
 31
0.0
1001
REVIT
1002
{
1070
     3
1000
923097
1002
}
  0
LWPOLYLINE
  5
B7
330
87
100
AcDbEntity
  8
P-SANR-FIXT
100
AcDbPolyline
 90
        7
 70
   128
 43
0.0
 10
678.4967380201791
 20
2172.450431294288
 10
682.1029027127669
 20
2173.681869656826
 10
685.8037071201639
 20
2174.782473099909
 10
689.5455636776589
 20
2175.734203473421
 10
693.3224862129799
 20
2176.535538211792
 10
697.1284324557709
 20
2177.185195350381
 10
698.0059377230843
 20
2177.312860456081
  0
LWPOLYLINE
  5
B8
330
87
100
AcDbEntity
  8
P-SANR-FIXT
100
AcDbPolyline
 90
        7
 70
   128
 43
0.0
 10
659.3717134738669
 20
2163.251152805401
 10
662.6867872166325
 20
2165.230437342995
 10
666.0783595248175
 20
2167.075571072319
 10
669.5410046062249
 20
2168.783602173013
 10
673.0691829673835
 20
2170.351798159677
 10
676.6572502755528
 20
2171.777650253261
 10
677.489114729544
 20
2172.084758383343
  0
LWPOLYLINE
  5
B9
330
87
100
AcDbEntity
  8
P-SANR-FIXT
100
AcDbPolyline
 90
       80
 70
   128
 43
0.0
 10
677.4891147295436
 20
2172.084758383343
 10
677.489498660838
 20
2172.084898122906
 10
677.4906498405132
 20
2172.085317118042
 10
677.4925664269275
 20
2172.086014698447
 10
677.4952453539509
 20
2172.086989748144
 10
677.4986823358722
 20
2172.088240707259
 10
677.5028718742531
 20
2172.089765574526
 10
677.5078072667265
 20
2172.09156191048
 10
677.5134806177166
 20
2172.093626841368
 10
677.5198828510722
 20
2172.095957063743
 10
677.5270037245863
 20
2172.098548849744
 10
677.5348318463793
 20
2172.101398053067
 10
677.543354693127
 20
2172.104500115594
 10
677.5525586300926
 20
2172.107850074688
 10
677.56242893294
 20
2172.111442571127
 10
677.5729498112905
 20
2172.115271857686
 10
677.584104433983
 20
2172.11933180832
 10
677.5958749560008
 20
2172.123615927976
 10
677.6082425470194
 20
2172.128117362977
 10
677.6211874215317
 20
2172.132828911985
 10
677.6346888704996
 20
2172.137743037529
 10
677.6487252944852
 20
2172.142851878055
 10
677.6632742382043
 20
2172.148147260509
 10
677.6783124264506
 20
2172.153620713408
 10
677.6938158013307
 20
2172.159263480395
 10
677.7097595607521
 20
2172.165066534247
 10
677.7261181981008
 20
2172.171020591315
 10
677.7428655430469
 20
2172.177116126379
 10
677.759974803411
 20
2172.183343387882
 10
677.7774186080261
 20
2172.189692413533
 10
677.7951690505262
 20
2172.196153046249
 10
677.8131977339898
 20
2172.202714950393
 10
677.8314758163692
 20
2172.209367628318
 10
677.8499740566319
 20
2172.21610043716
 10
677.8686628615393
 20
2172.22290260586
 10
677.8875123329904
 20
2172.2297632524
 10
677.906492315852
 20
2172.236671401209
 10
677.9255724462002
 20
2172.243616000721
 10
677.9447221998965
 20
2172.250585941061
 10
677.9639109414205
 20
2172.257570071808
 10
677.9831079728788
 20
2172.264557219845
 10
678.0022825831164
 20
2172.271536207225
 10
678.021404096847
 20
2172.278495869057
 10
678.040441923728
 20
2172.285425071367
 10
678.0593656072974
 20
2172.292312728909
 10
678.0781448736984
 20
2172.2991478229
 10
678.0967496801109
 20
2172.305919418649
 10
678.1151502628131
 20
2172.312616683045
 10
678.1333171847983
 20
2172.319228901896
 10
678.1512213828663
 20
2172.325745497062
 10
678.1688342141198
 20
2172.332156043379
 10
678.1861275017864
 20
2172.338450285342
 10
678.2030735802942
 20
2172.344618153506
 10
678.2196453395329
 20
2172.350649780599
 10
678.235816268223
 20
2172.356535517302
 10
678.2515604963277
 20
2172.362265947694
 10
678.2668528364411
 20
2172.367831904308
 10
678.2816688240806
 20
2172.373224482799
 10
678.2959847568275
 20
2172.378435056195
 10
678.3097777322425
 20
2172.383455288688
 10
678.3230256845075
 20
2172.388277148978
 10
678.3357074197253
 20
2172.392892923116
 10
678.3478026498242
 20
2172.397295226848
 10
678.3592920250168
 20
2172.401477017429
 10
678.3701571647533
 20
2172.405431604884
 10
678.3803806871284
 20
2172.409152662718
 10
678.3899462366868
 20
2172.412634238031
 10
678.3988385105898
 20
2172.415870761048
 10
678.4070432830962
 20
2172.418857054018
 10
678.4145474283199
 20
2172.421588339513
 10
678.4213389412299
 20
2172.424060248058
 10
678.427406956854
 20
2172.426268825127
 10
678.4327417676616
 20
2172.428210537466
 10
678.4373348390934
 20
2172.429882278751
 10
678.4411788232152
 20
2172.431281374552
 10
678.4442675704723
 20
2172.432405586615
 10
678.4465961395279
 20
2172.43325311644
 10
678.4481608051683
 20
2172.43382260816
 10
678.4489590642622
 20
2172.434113150709
 10
678.4490709530575
 20
2172.4341538749
  0
LWPOLYLINE
  5
BA
330
87
100
AcDbEntity
  8
P-SANR-FIXT
100
AcDbPolyline
 90
       80
 70
   128
 43
0.0
 10
678.4490709530575
 20
2172.4341538749
 10
678.4486870217631
 20
2172.434014135337
 10
678.4475358420877
 20
2172.433595140201
 10
678.4456192556737
 20
2172.432897559795
 10
678.4429403286501
 20
2172.431922510098
 10
678.4395033467287
 20
2172.430671550983
 10
678.4353138083478
 20
2172.429146683717
 10
678.4303784158746
 20
2172.427350347763
 10
678.4247050648846
 20
2172.425285416874
 10
678.418302831529
 20
2172.422955194499
 10
678.4111819580153
 20
2172.420363408498
 10
678.4033538362218
 20
2172.417514205176
 10
678.3948309894741
 20
2172.414412142648
 10
678.3856270525086
 20
2172.411062183554
 10
678.3757567496612
 20
2172.407469687115
 10
678.3652358713107
 20
2172.403640400557
 10
678.3540812486181
 20
2172.399580449922
 10
678.3423107266003
 20
2172.395296330266
 10
678.3299431355817
 20
2172.390794895266
 10
678.3169982610694
 20
2172.386083346257
 10
678.3034968121016
 20
2172.381169220713
 10
678.2894603881159
 20
2172.376060380187
 10
678.2749114443969
 20
2172.370764997733
 10
678.2598732561506
 20
2172.365291544835
 10
678.2443698812705
 20
2172.359648777847
 10
678.2284261218491
 20
2172.353845723995
 10
678.2120674845003
 20
2172.347891666928
 10
678.1953201395542
 20
2172.341796131864
 10
678.17821087919
 20
2172.335568870361
 10
678.1607670745748
 20
2172.329219844709
 10
678.1430166320748
 20
2172.322759211994
 10
678.1249879486113
 20
2172.31619730785
 10
678.1067098662319
 20
2172.309544629924
 10
678.0882116259691
 20
2172.302811821082
 10
678.0695228210617
 20
2172.296009652382
 10
678.0506733496105
 20
2172.289149005842
 10
678.031693366749
 20
2172.282240857034
 10
678.0126132364008
 20
2172.275296257521
 10
677.9934634827045
 20
2172.268326317182
 10
677.9742747411805
 20
2172.261342186434
 10
677.9550777097223
 20
2172.254355038397
 10
677.9359030994847
 20
2172.247376051018
 10
677.916781585754
 20
2172.240416389185
 10
677.8977437588729
 20
2172.233487186876
 10
677.8788200753036
 20
2172.226599529333
 10
677.8600408089026
 20
2172.219764435343
 10
677.8414360024902
 20
2172.212992839593
 10
677.8230354197879
 20
2172.206295575197
 10
677.8048684978029
 20
2172.199683356346
 10
677.7869642997347
 20
2172.193166761181
 10
677.7693514684811
 20
2172.186756214863
 10
677.7520581808147
 20
2172.1804619729
 10
677.7351121023068
 20
2172.174294104736
 10
677.7185403430681
 20
2172.168262477644
 10
677.7023694143784
 20
2172.16237674094
 10
677.6866251862734
 20
2172.156646310548
 10
677.6713328461603
 20
2172.151080353935
 10
677.6565168585205
 20
2172.145687775443
 10
677.6422009257737
 20
2172.140477202047
 10
677.6284079503589
 20
2172.135456969554
 10
677.6151599980937
 20
2172.130635109264
 10
677.6024782628759
 20
2172.126019335126
 10
677.590383032777
 20
2172.121617031394
 10
677.5788936575844
 20
2172.117435240814
 10
677.5680285178479
 20
2172.113480653358
 10
677.5578049954727
 20
2172.109759595524
 10
677.5482394459144
 20
2172.106278020211
 10
677.5393471720113
 20
2172.103041497194
 10
677.531142399505
 20
2172.100055204224
 10
677.5236382542812
 20
2172.097323918729
 10
677.5168467413712
 20
2172.094852010184
 10
677.5107787257471
 20
2172.092643433115
 10
677.5054439149394
 20
2172.090701720776
 10
677.5008508435075
 20
2172.089029979491
 10
677.4970068593857
 20
2172.08763088369
 10
677.4939181121286
 20
2172.086506671627
 10
677.4915895430732
 20
2172.085659141802
 10
677.4900248774329
 20
2172.085089650083
 10
677.4892266183391
 20
2172.084799107533
 10
677.4891147295436
 20
2172.084758383343
  0
LWPOLYLINE
  5
BB
330
87
100
AcDbEntity
  8
P-SANR-FIXT
100
AcDbPolyline
 90
       30
 70
   128
 43
0.0
 10
698.0059377230843
 20
2177.312860456081
 10
698.2626319286335
 20
2177.343781156748
 10
698.5203573044298
 20
2177.364412093783
 10
698.7787015448503
 20
2177.374720262088
 10
699.0372513542211
 20
2177.374689170793
 10
699.2955931080009
 20
2177.364318869636
 10
699.5533135144945
 20
2177.343625948887
 10
699.8100002760286
 20
2177.312643512807
 10
700.0652427485412
 20
2177.271421126683
 10
700.3186325985258
 20
2177.220024737538
 10
700.5697644562758
 20
2177.158536568633
 10
700.8182365643904
 20
2177.087054987919
 10
701.0636514205016
 20
2177.005694350679
 10
701.3056164131919
 20
2176.914584816574
 10
701.5437444500893
 20
2176.813872141425
 10
701.7776545771329
 20
2176.703717444028
 10
702.0069725880172
 20
2176.584296948399
 10
702.2313316228438
 20
2176.455801701856
 10
702.4503727550175
 20
2176.318437269385
 10
702.6637455654532
 20
2176.172423404772
 10
702.8711087031714
 20
2176.017993699055
 10
703.0721304313865
 20
2175.855395206818
 10
703.2664891582157
 20
2175.684888050964
 10
703.4538739511576
 20
2175.506745006568
 10
703.6339850345163
 20
2175.321251064501
 10
703.8065342689803
 20
2175.128702975499
 10
703.9712456125828
 20
2174.929408775431
 10
704.1278555623108
 20
2174.723687292502
 10
704.2761135756528
 20
2174.511867637201
 10
704.28439346516
 20
2174.499488653315
  0
LWPOLYLINE
  5
BC
330
87
100
AcDbEntity
  8
P-SANR-FIXT
100
AcDbPolyline
 90
       30
 70
   128
 43
0.0
 10
656.3705378775401
 20
2157.060271410493
 10
656.3473617190497
 20
2157.317780382317
 10
656.3345017113443
 20
2157.576010173577
 10
656.331978427693
 20
2157.834547671692
 10
656.3397959048114
 20
2158.092979271819
 10
656.3579416364039
 20
2158.350891538524
 10
656.3863865931705
 20
2158.607871867201
 10
656.4250852692487
 20
2158.863509144143
 10
656.4739757550118
 20
2159.117394404239
 10
656.5329798361119
 20
2159.369121485232
 10
656.6020031186063
 20
2159.618287677494
 10
656.6809351799671
 20
2159.864494368267
 10
656.7696497457344
 20
2160.107347679369
 10
656.8680048915271
 20
2160.346459097307
 10
656.9758432700938
 20
2160.581446094821
 10
657.0929923630329
 20
2160.811932742841
 10
657.2192647567858
 20
2161.0375503119
 10
657.3544584424597
 20
2161.257937862016
 10
657.4983571389974
 20
2161.472742820123
 10
657.6507306391805
 20
2161.681621544109
 10
657.811335177914
 20
2161.884239872576
 10
657.9799138221959
 20
2162.08027365942
 10
658.1561968821573
 20
2162.2694092924
 10
658.3399023425069
 20
2162.451344194851
 10
658.530736313697
 20
2162.62578730974
 10
658.7283935020824
 20
2162.792459565295
 10
658.9325576983267
 20
2162.951094321462
 10
659.1429022832679
 20
2163.101437796473
 10
659.3590907504419
 20
2163.243249472836
 10
659.3717134738668
 20
2163.251152805401
  0
LWPOLYLINE
  5
BD
330
87
100
AcDbEntity
  8
P-SANR-FIXT
100
AcDbPolyline
 90
        4
 70
   128
 43
0.0
 10
704.2843934651605
 20
2174.499488653315
 10
710.8765945518772
 20
2164.177794692673
 10
717.0507649116913
 20
2153.600739253995
 10
720.940432761417
 20
2146.395373556064
  0
LWPOLYLINE
  5
BE
330
87
100
AcDbEntity
  8
P-SANR-FIXT
100
AcDbPolyline
 90
        3
 70
   128
 43
0.0
 10
661.674776568798
 20
2124.832368526128
 10
659.2851070073633
 20
2136.836507473604
 10
658.4659672575739
 20
2142.027770936767
  0
LWPOLYLINE
  5
BF
330
87
100
AcDbEntity
  8
P-SANR-FIXT
100
AcDbPolyline
 90
        3
 70
   128
 43
0.0
 10
658.4564661458593
 20
2142.087983829764
 10
657.3762113820472
 20
2148.934052632707
 10
656.3705378775401
 20
2157.060271410493
  0
SPLINE
  5
C0
330
87
100
AcDbEntity
  8
P-SANR-FIXT
100
AcDbSpline
210
0.0
220
0.0
230
1.0
 70
     8
 71
     3
 72
     9
 73
     5
 74
     0
 42
0.000000001
 43
0.0000000001
 40
0.0
 40
0.0
 40
0.0
 40
0.0
 40
0.5
 40
1.0
 40
1.0
 40
1.0
 40
1.0
 10
659.9877159725661
 20
2158.376816569122
 30
0.0
 10
659.8318332854343
 20
2158.455243147715
 30
0.0
 10
659.5432885229747
 20
2158.485384679674
 30
0.0
 10
659.3029308697555
 20
2158.262738411577
 30
0.0
 10
659.1953041703394
 20
2158.08840225983
 30
0.0
  0
SPLINE
  5
C1
330
87
100
AcDbEntity
  8
P-SANR-FIXT
100
AcDbSpline
210
0.0
220
0.0
230
1.0
 70
     8
 71
     3
 72
     9
 73
     5
 74
     0
 42
0.000000001
 43
0.0000000001
 40
0.0
 40
0.0
 40
0.0
 40
0.0
 40
0.5
 40
1.0
 40
1.0
 40
1.0
 40
1.0
 10
681.119877474353
 20
2166.068294341478
 30
0.0
 10
680.8129274605345
 20
2166.091736910038
 30
0.0
 10
680.2405844173221
 20
2166.018584315517
 30
0.0
 10
679.7551226281369
 20
2165.706727437383
 30
0.0
 10
679.5350538683456
 20
2165.491465722328
 30
0.0
  0
SPLINE
  5
C2
330
87
100
AcDbEntity
  8
P-SANR-FIXT
100
AcDbSpline
210
0.0
220
0.0
230
1.0
 70
     8
 71
     3
 72
     9
 73
     5
 74
     0
 42
0.000000001
 43
0.0000000001
 40
0.0
 40
0.0
 40
0.0
 40
0.0
 40
0.5
 40
1.0
 40
1.0
 40
1.0
 40
1.0
 10
701.4596271723534
 20
2173.471357803975
 30
0.0
 10
701.2651192190733
 20
2173.5357259354
 30
0.0
 10
700.9378803119916
 20
2173.551783950475
 30
0.0
 10
700.7362168034009
 20
2173.343221199264
 30
0.0
 10
700.6672153701365
 20
2173.182943494687
 30
0.0
  0
SPLINE
  5
C3
330
87
100
AcDbEntity
  8
P-SANR-FIXT
100
AcDbSpline
210
0.0
220
0.0
230
1.0
 70
     8
 71
     3
 72
    23
 73
    19
 74
     0
 42
0.000000001
 43
0.0000000001
 40
0.0
 40
0.0
 40
0.0
 40
0.0
 40
0.25
 40
0.3125
 40
0.375
 40
0.4375
 40
0.46875
 40
0.5
 40
0.53125
 40
0.5625
 40
0.625
 40
0.6875
 40
0.71875
 40
0.75
 40
0.78125
 40
0.8125
 40
0.875
 40
1.0
 40
1.0
 40
1.0
 40
1.0
 10
718.3033510445542
 20
2149.292573561293
 30
0.0
 10
717.0998677605513
 20
2151.514509480716
 30
0.0
 10
715.5331628184393
 20
2154.254130244218
 30
0.0
 10
713.5886611477785
 20
2157.505467795946
 30
0.0
 10
712.607048122811
 20
2159.126681859126
 30
0.0
 10
711.7726298305434
 20
2160.465424070403
 30
0.0
 10
711.0935296811496
 20
2161.527303736641
 30
0.0
 10
710.575244053099
 20
2162.315165708805
 30
0.0
 10
710.0572988945693
 20
2163.106432025596
 30
0.0
 10
709.3737414874399
 20
2164.174045262788
 30
0.0
 10
708.5145079692928
 20
2165.507982124258
 30
0.0
 10
707.6209629181371
 20
2166.799688145224
 30
0.0
 10
706.8719050113916
 20
2167.783859107213
 30
0.0
 10
706.2888042058963
 20
2168.489039370504
 30
0.0
 10
705.6899351206554
 20
2169.166593296969
 30
0.0
 10
704.8830135068535
 20
2170.048645491261
 30
0.0
 10
703.4516471121805
 20
2171.530238271433
 30
0.0
 10
702.2283801009166
 20
2172.709401538793
 30
0.0
 10
701.4596271723534
 20
2173.471357803975
 30
0.0
  0
LINE
  5
C4
330
87
100
AcDbEntity
  8
P-SANR-FIXT
100
AcDbLine
 10
710.4877133400599
 20
2146.44791407505
 30
0.0
 11
718.3033510445534
 21
2149.292573561295
 31
0.0
  0
SPLINE
  5
C5
330
87
100
AcDbEntity
  8
P-SANR-FIXT
100
AcDbSpline
210
0.0
220
0.0
230
1.0
 70
     8
 71
     3
 72
     9
 73
     5
 74
     0
 42
0.000000001
 43
0.0000000001
 40
0.0
 40
0.0
 40
0.0
 40
0.0
 40
0.5
 40
1.0
 40
1.0
 40
1.0
 40
1.0
 10
702.3761776982756
 20
2165.713037921345
 30
0.0
 10
703.5462608506521
 20
2162.498260881307
 30
0.0
 10
706.2029901729423
 20
2156.121665233652
 30
0.0
 10
709.0714452080272
 20
2149.697609276827
 30
0.0
 10
710.4877133400606
 20
2146.447914075049
 30
0.0
  0
SPLINE
  5
C6
330
87
100
AcDbEntity
  8
P-SANR-FIXT
100
AcDbSpline
210
0.0
220
0.0
230
1.0
 70
     8
 71
     3
 72
    21
 73
    17
 74
     0
 42
0.000000001
 43
0.0000000001
 40
0.0
 40
0.0
 40
0.0
 40
0.0
 40
0.1666666666666666
 40
0.25
 40
0.2916666666666666
 40
0.3333333333333333
 40
0.375
 40
0.4166666666666666
 40
0.5
 40
0.5833333333333333
 40
0.625
 40
0.6666666666666666
 40
0.7083333333333333
 40
0.75
 40
0.8333333333333332
 40
1.0
 40
1.0
 40
1.0
 40
1.0
 10
700.6672153701365
 20
2173.182943494687
 30
0.0
 10
700.616076687571
 20
2172.829874673599
 30
0.0
 10
700.5982882025936
 20
2172.286795979031
 30
0.0
 10
700.6603926227231
 20
2171.622586984669
 30
0.0
 10
700.7170638245976
 20
2171.233000887077
 30
0.0
 10
700.7689603369771
 20
2170.93641157084
 30
0.0
 10
700.8318874203645
 20
2170.63170063231
 30
0.0
 10
700.9305827908113
 20
2170.212292299781
 30
0.0
 10
701.0752658193978
 20
2169.670099125497
 30
0.0
 10
701.2372671710642
 20
2169.116567291132
 30
0.0
 10
701.3718888991856
 20
2168.674951055043
 30
0.0
 10
701.4737868617979
 20
2168.347376126756
 30
0.0
 10
701.5773480990885
 20
2168.021957794236
 30
0.0
 10
701.7197867558157
 20
2167.585963634846
 30
0.0
 10
701.9783365088739
 20
2166.820363155272
 30
0.0
 10
702.214253328945
 20
2166.157921469741
 30
0.0
 10
702.3761776982756
 20
2165.713037921345
 30
0.0
  0
SPLINE
  5
C7
330
87
100
AcDbEntity
  8
P-SANR-FIXT
100
AcDbSpline
210
0.0
220
0.0
230
1.0
 70
     8
 71
     3
 72
    23
 73
    19
 74
     0
 42
0.000000001
 43
0.0000000001
 40
0.0
 40
0.0
 40
0.0
 40
0.0
 40
0.25
 40
0.3125
 40
0.375
 40
0.4375
 40
0.46875
 40
0.5
 40
0.53125
 40
0.5625
 40
0.625
 40
0.6875
 40
0.71875
 40
0.75
 40
0.78125
 40
0.8125
 40
0.875
 40
1.0
 40
1.0
 40
1.0
 40
1.0
 10
697.8843562393893
 20
2141.860667238578
 30
0.0
 10
696.8355176367087
 20
2144.138889218848
 30
0.0
 10
695.4706697715642
 20
2146.951979949891
 30
0.0
 10
693.7379612222789
 20
2150.280403893553
 30
0.0
 10
692.8536175158471
 20
2151.937021093352
 30
0.0
 10
692.0943199357341
 20
2153.3031050078
 30
0.0
 10
691.4705945829934
 20
2154.385139451727
 30
0.0
 10
690.9916664834113
 20
2155.187326392733
 30
0.0
 10
690.5080996070661
 20
2155.991105380927
 30
0.0
 10
689.8627043070899
 20
2157.072608489172
 30
0.0
 10
689.0408176273851
 20
2158.42013848814
 30
0.0
 10
688.1706609944211
 20
2159.72035719713
 30
0.0
 10
687.4253906244051
 20
2160.705906709748
 30
0.0
 10
686.8341194105846
 20
2161.408113187615
 30
0.0
 10
686.2119571783686
 20
2162.077189101941
 30
0.0
 10
685.3502444591087
 20
2162.939298964779
 30
0.0
 10
683.7490196086342
 20
2164.359068323091
 30
0.0
 10
682.2116179882981
 20
2165.423895943314
 30
0.0
 10
681.119877474353
 20
2166.068294341478
 30
0.0
  0
LINE
  5
C8
330
87
100
AcDbEntity
  8
P-SANR-FIXT
100
AcDbLine
 10
682.253080830259
 20
2136.171348266039
 30
0.0
 11
697.8843562393888
 21
2141.860667238579
 31
0.0
  0
SPLINE
  5
C9
330
87
100
AcDbEntity
  8
P-SANR-FIXT
100
AcDbSpline
210
0.0
220
0.0
230
1.0
 70
     8
 71
     3
 72
    23
 73
    19
 74
     0
 42
0.000000001
 43
0.0000000001
 40
0.0
 40
0.0
 40
0.0
 40
0.0
 40
0.125
 40
0.1875
 40
0.21875
 40
0.25
 40
0.28125
 40
0.3125
 40
0.375
 40
0.4375
 40
0.46875
 40
0.5
 40
0.53125
 40
0.5625
 40
0.625
 40
0.6875
 40
0.75
 40
1.0
 40
1.0
 40
1.0
 40
1.0
 10
679.5350538683456
 20
2165.491465722328
 30
0.0
 10
679.1129434203517
 20
2164.296070634904
 30
0.0
 10
678.619683452982
 20
2162.492142640889
 30
0.0
 10
678.3056842062274
 20
2160.375288719236
 30
0.0
 10
678.1997275040942
 20
2159.160975990401
 30
0.0
 10
678.1531972910544
 20
2158.248515930125
 30
0.0
 10
678.1516268867464
 20
2157.330532749623
 30
0.0
 10
678.2142156766175
 20
2156.096507462351
 30
0.0
 10
678.3834014993133
 20
2154.541156243335
 30
0.0
 10
678.6199753624702
 20
2152.980589801408
 30
0.0
 10
678.8207506771249
 20
2151.737258252946
 30
0.0
 10
678.9669761331618
 20
2150.810697028975
 30
0.0
 10
679.1157317501548
 20
2149.888337132133
 30
0.0
 10
679.3334487434657
 20
2148.65852773051
 30
0.0
 10
679.6298948655456
 20
2147.123979662451
 30
0.0
 10
680.0173012934507
 20
2145.286492084971
 30
0.0
 10
680.8294392084961
 20
2141.623007831906
 30
0.0
 10
681.5921249525378
 20
2138.590748012578
 30
0.0
 10
682.2530808302594
 20
2136.171348266037
 30
0.0
  0
SPLINE
  5
CA
330
87
100
AcDbEntity
  8
P-SANR-FIXT
100
AcDbSpline
210
0.0
220
0.0
230
1.0
 70
     8
 71
     3
 72
    21
 73
    17
 74
     0
 42
0.000000001
 43
0.0000000001
 40
0.0
 40
0.0
 40
0.0
 40
0.0
 40
0.1666666666666666
 40
0.25
 40
0.2916666666666666
 40
0.3333333333333333
 40
0.375
 40
0.4166666666666666
 40
0.5
 40
0.5833333333333333
 40
0.625
 40
0.6666666666666666
 40
0.7083333333333333
 40
0.75
 40
0.8333333333333332
 40
1.0
 40
1.0
 40
1.0
 40
1.0
 10
663.480137625663
 20
2151.55603710409
 30
0.0
 10
663.3182132563324
 20
2152.000920652485
 30
0.0
 10
663.0731267177873
 20
2152.660024833434
 30
0.0
 10
662.7790688171476
 20
2153.412701404214
 30
0.0
 10
662.6079315150666
 20
2153.838250110931
 30
0.0
 10
662.4780891533073
 20
2154.154102896421
 30
0.0
 10
662.3455864161847
 20
2154.47053859776
 30
0.0
 10
662.1648471981412
 20
2154.895369440237
 30
0.0
 10
661.9331440286665
 20
2155.423531887645
 30
0.0
 10
661.6954626042424
 20
2155.93187641401
 30
0.0
 10
661.5014771647864
 20
2156.316601997797
 30
0.0
 10
661.353817691514
 20
2156.590472868531
 30
0.0
 10
661.2029287887971
 20
2156.851031901267
 30
0.0
 10
660.9959203316402
 20
2157.185899712834
 30
0.0
 10
660.6165497657561
 20
2157.734633273802
 30
0.0
 10
660.2538387397348
 20
2158.139221472215
 30
0.0
 10
659.9877159725661
 20
2158.376816569122
 30
0.0
  0
SPLINE
  5
CB
330
87
100
AcDbEntity
  8
P-SANR-FIXT
100
AcDbSpline
210
0.0
220
0.0
230
1.0
 70
     8
 71
     3
 72
     9
 73
     5
 74
     0
 42
0.000000001
 43
0.0000000001
 40
0.0
 40
0.0
 40
0.0
 40
0.0
 40
0.5
 40
1.0
 40
1.0
 40
1.0
 40
1.0
 10
669.6497237295879
 20
2131.584101429564
 30
0.0
 10
668.6457842511377
 20
2134.983871987982
 30
0.0
 10
666.7138447181209
 20
2141.748791711489
 30
0.0
 10
664.6502207780395
 20
2148.341260064051
 30
0.0
 10
663.480137625663
 20
2151.55603710409
 30
0.0
  0
LINE
  5
CC
330
87
100
AcDbEntity
  8
P-SANR-FIXT
100
AcDbLine
 10
661.8340860250938
 20
2128.739441943322
 30
0.0
 11
669.6497237295875
 21
2131.584101429567
 31
0.0
  0
SPLINE
  5
CD
330
87
100
AcDbEntity
  8
P-SANR-FIXT
100
AcDbSpline
210
0.0
220
0.0
230
1.0
 70
     8
 71
     3
 72
    23
 73
    19
 74
     0
 42
0.000000001
 43
0.0000000001
 40
0.0
 40
0.0
 40
0.0
 40
0.0
 40
0.125
 40
0.1875
 40
0.21875
 40
0.25
 40
0.28125
 40
0.3125
 40
0.375
 40
0.4375
 40
0.46875
 40
0.5
 40
0.53125
 40
0.5625
 40
0.625
 40
0.6875
 40
0.75
 40
1.0
 40
1.0
 40
1.0
 40
1.0
 10
659.1953041703394
 20
2158.08840225983
 30
0.0
 10
659.0961813076648
 20
2157.010565039596
 30
0.0
 10
658.9170559492929
 20
2155.320972692925
 30
0.0
 10
658.7729151582843
 20
2153.26594219329
 30
0.0
 10
658.7217495615869
 20
2152.071571795972
 30
0.0
 10
658.6985124955096
 20
2151.167589747872
 30
0.0
 10
658.7051124995207
 20
2150.252580352811
 30
0.0
 10
658.7639137526642
 20
2149.017176514906
 30
0.0
 10
658.9097111571842
 20
2147.453312607822
 30
0.0
 10
659.1089381819231
 20
2145.87915302833
 30
0.0
 10
659.2715513894425
 20
2144.621931608767
 30
0.0
 10
659.3833985633059
 20
2143.682857713363
 30
0.0
 10
659.4927966518397
 20
2142.746172847652
 30
0.0
 10
659.6551388485115
 20
2141.496208668303
 30
0.0
 10
659.876464258456
 20
2139.934318897021
 30
0.0
 10
660.1666013678483
 20
2138.061428182859
 30
0.0
 10
660.7669461615619
 20
2134.32085753774
 30
0.0
 10
661.3277748286692
 20
2131.215127750781
 30
0.0
 10
661.8340860250943
 20
2128.73944194332
 30
0.0
  0
LINE
  5
CE
330
87
100
AcDbEntity
  8
P-SANR-FIXT
100
AcDbLine
 10
683.6388196144558
 20
2132.818696680457
 30
0.0
 11
698.9778616429467
 21
2138.401651400985
 31
0.0
  0
LINE
  5
CF
330
87
100
AcDbEntity
  8
P-SANR-FIXT
100
AcDbLine
 10
677.1009956560174
 20
2061.054732597243
 30
0.0
 11
684.625438809182
 21
2040.381494939953
 31
0.0
  0
LINE
  5
D0
330
87
100
AcDbEntity
  8
P-SANR-FIXT
100
AcDbLine
 10
757.639555444248
 20
2066.956460076357
 30
0.0
 11
750.1151122910833
 21
2087.629697733647
 31
0.0
  0
LINE
  5
D1
330
87
100
AcDbEntity
  8
P-SANR-FIXT
100
AcDbLine
 10
750.1151122910821
 20
2087.629697733647
 30
0.0
 11
677.1009956560162
 21
2061.054732597242
 31
0.0
  0
LINE
  5
D2
330
87
100
AcDbEntity
  8
P-SANR-FIXT
100
AcDbLine
 10
684.6254388091807
 20
2040.381494939952
 30
0.0
 11
757.6395554442466
 21
2066.956460076356
 31
0.0
  0
LINE
  5
D3
330
87
100
AcDbEntity
  8
P-SANR-FIXT
100
AcDbLine
 10
648.812015546194
 20
1956.000000000015
 30
0.0
 11
674.9252642002447
 21
1956.000000000015
 31
0.0
  0
LINE
  5
D4
330
87
100
AcDbEntity
  8
P-SANR-FIXT
100
AcDbLine
 10
674.9252642002447
 20
2043.999999999975
 30
0.0
 11
648.812015546194
 21
2043.999999999975
 31
0.0
  0
LINE
  5
D5
330
87
100
AcDbEntity
  8
P-SANR-FIXT
100
AcDbLine
 10
647.3686398732244
 20
1958.500000000008
 30
0.0
 11
648.8120155461992
 21
1956.000000000007
 31
0.0
  0
LINE
  5
D6
330
87
100
AcDbEntity
  8
P-SANR-FIXT
100
AcDbLine
 10
648.8120155461938
 20
2043.999999999976
 30
0.0
 11
647.3686398732244
 21
2041.499999999984
 31
0.0
  0
LINE
  5
D7
330
87
100
AcDbEntity
  8
P-SANR-FIXT
100
AcDbLine
 10
674.9252642002443
 20
1956.000000000015
 30
0.0
 11
676.3686398732239
 21
1958.500000000025
 31
0.0
  0
LINE
  5
D8
330
87
100
AcDbEntity
  8
P-SANR-FIXT
100
AcDbLine
 10
676.3686398732239
 20
2041.499999999967
 30
0.0
 11
674.9252642002402
 21
2043.999999999984
 31
0.0
  0
LINE
  5
D9
330
87
100
AcDbEntity
  8
P-SANR-FIXT
100
AcDbLine
 10
647.3686398732232
 20
1958.500000000007
 30
0.0
 11
647.3686398732231
 21
1964.059945742951
 31
0.0
  0
LINE
  5
DA
330
87
100
AcDbEntity
  8
P-SANR-FIXT
100
AcDbLine
 10
647.3686398732231
 20
1964.059945742951
 30
0.0
 11
647.3686398732231
 21
1999.999999999995
 31
0.0
  0
LINE
  5
DB
330
87
100
AcDbEntity
  8
P-SANR-FIXT
100
AcDbLine
 10
647.3686398732231
 20
1999.999999999995
 30
0.0
 11
647.3686398732231
 21
2035.940054257039
 31
0.0
  0
LINE
  5
DC
330
87
100
AcDbEntity
  8
P-SANR-FIXT
100
AcDbLine
 10
647.3686398732231
 20
2035.940054257039
 30
0.0
 11
647.3686398732232
 21
2041.499999999983
 31
0.0
  0
LINE
  5
DD
330
87
100
AcDbEntity
  8
P-SANR-FIXT
100
AcDbLine
 10
676.3686398732229
 20
2041.499999999966
 30
0.0
 11
676.3686398732228
 21
2035.940054257024
 31
0.0
  0
LINE
  5
DE
330
87
100
AcDbEntity
  8
P-SANR-FIXT
100
AcDbLine
 10
676.3686398732228
 20
2035.940054257024
 30
0.0
 11
676.3686398732228
 21
1999.999999999995
 31
0.0
  0
LINE
  5
DF
330
87
100
AcDbEntity
  8
P-SANR-FIXT
100
AcDbLine
 10
676.3686398732228
 20
1999.999999999995
 30
0.0
 11
676.3686398732228
 21
1964.059945742966
 31
0.0
  0
LINE
  5
E0
330
87
100
AcDbEntity
  8
P-SANR-FIXT
100
AcDbLine
 10
676.3686398732228
 20
1964.059945742966
 30
0.0
 11
676.3686398732229
 21
1958.500000000024
 31
0.0
  0
LINE
  5
E1
330
87
100
AcDbEntity
  8
P-SANR-FIXT
100
AcDbLine
 10
674.9252642002435
 20
1956.000000000014
 30
0.0
 11
674.9252642002435
 21
1956.749849984373
 31
0.0
  0
LINE
  5
E2
330
87
100
AcDbEntity
  8
P-SANR-FIXT
100
AcDbLine
 10
648.8120155461928
 20
1956.749849984373
 30
0.0
 11
648.8120155461928
 21
1956.000000000014
 31
0.0
  0
LINE
  5
E3
330
87
100
AcDbEntity
  8
P-SANR-FIXT
100
AcDbLine
 10
648.8120155461928
 20
2043.999999999975
 30
0.0
 11
648.8120155461928
 21
2043.250150015614
 31
0.0
  0
LINE
  5
E4
330
87
100
AcDbEntity
  8
P-SANR-FIXT
100
AcDbLine
 10
648.8120155461989
 20
2043.250150015614
 30
0.0
 11
674.9252642002375
 21
2043.250150015614
 31
0.0
  0
LINE
  5
E5
330
87
100
AcDbEntity
  8
P-SANR-FIXT
100
AcDbLine
 10
674.9252642002435
 20
2043.250150015614
 30
0.0
 11
674.9252642002435
 21
2043.999999999975
 31
0.0
  0
SPLINE
  5
E6
330
87
100
AcDbEntity
  8
P-SANR-FIXT
100
AcDbSpline
210
0.0
220
0.0
230
1.0
 70
     8
 71
     3
 72
     9
 73
     5
 74
     0
 42
0.000000001
 43
0.0000000001
 40
0.0
 40
0.0
 40
0.0
 40
0.0
 40
0.5
 40
1.0
 40
1.0
 40
1.0
 40
1.0
 10
648.8120155461989
 20
2043.250150015614
 30
0.0
 10
648.3385047723556
 20
2042.04306563447
 30
0.0
 10
647.6244313863499
 20
2039.61763196024
 30
0.0
 10
647.3762543237052
 20
2037.169668462123
 30
0.0
 10
647.3686398732231
 20
2035.940054257093
 30
0.0
  0
SPLINE
  5
E7
330
87
100
AcDbEntity
  8
P-SANR-FIXT
100
AcDbSpline
210
0.0
220
0.0
230
1.0
 70
     8
 71
     3
 72
     9
 73
     5
 74
     0
 42
0.000000001
 43
0.0000000001
 40
0.0
 40
0.0
 40
0.0
 40
0.0
 40
0.5
 40
1.0
 40
1.0
 40
1.0
 40
1.0
 10
647.3686398732231
 20
2035.940054257093
 30
0.0
 10
647.3762543237053
 20
2034.710440052053
 30
0.0
 10
647.6244313863536
 20
2032.262476553918
 30
0.0
 10
648.3385047723692
 20
2029.83704287967
 30
0.0
 10
648.812015546219
 20
2028.629958498518
 30
0.0
  0
LINE
  5
E8
330
87
100
AcDbEntity
  8
P-SANR-FIXT
100
AcDbLine
 10
648.812015546219
 20
2028.629958498518
 30
0.0
 11
674.9252642002172
 21
2028.629958498518
 31
0.0
  0
SPLINE
  5
E9
330
87
100
AcDbEntity
  8
P-SANR-FIXT
100
AcDbSpline
210
0.0
220
0.0
230
1.0
 70
     8
 71
     3
 72
     9
 73
     5
 74
     0
 42
0.000000001
 43
0.0000000001
 40
0.0
 40
0.0
 40
0.0
 40
0.0
 40
0.5
 40
1.0
 40
1.0
 40
1.0
 40
1.0
 10
674.9252642002172
 20
2028.629958498518
 30
0.0
 10
675.3987749740653
 20
2029.83704287967
 30
0.0
 10
676.112848360081
 20
2032.262476553919
 30
0.0
 10
676.3610254227355
 20
2034.710440052053
 30
0.0
 10
676.3686398732228
 20
2035.940054257093
 30
0.0
  0
SPLINE
  5
EA
330
87
100
AcDbEntity
  8
P-SANR-FIXT
100
AcDbSpline
210
0.0
220
0.0
230
1.0
 70
     8
 71
     3
 72
     9
 73
     5
 74
     0
 42
0.000000001
 43
0.0000000001
 40
0.0
 40
0.0
 40
0.0
 40
0.0
 40
0.5
 40
1.0
 40
1.0
 40
1.0
 40
1.0
 10
676.3686398732228
 20
2035.940054257093
 30
0.0
 10
676.3610254227359
 20
2037.169668462122
 30
0.0
 10
676.1128483600848
 20
2039.617631960239
 30
0.0
 10
675.398774974079
 20
2042.04306563447
 30
0.0
 10
674.9252642002375
 20
2043.250150015614
 30
0.0
  0
LINE
  5
EB
330
87
100
AcDbEntity
  8
P-SANR-FIXT
100
AcDbLine
 10
648.8120155461928
 20
2028.629958498518
 30
0.0
 11
648.8120155461928
 21
2014.620191517181
 31
0.0
  0
LINE
  5
EC
330
87
100
AcDbEntity
  8
P-SANR-FIXT
100
AcDbLine
 10
648.8120155462254
 20
2014.620191517181
 30
0.0
 11
674.9252642002106
 21
2014.620191517181
 31
0.0
  0
LINE
  5
ED
330
87
100
AcDbEntity
  8
P-SANR-FIXT
100
AcDbLine
 10
674.9252642002434
 20
2014.620191517181
 30
0.0
 11
674.9252642002434
 21
2028.629958498518
 31
0.0
  0
SPLINE
  5
EE
330
87
100
AcDbEntity
  8
P-SANR-FIXT
100
AcDbSpline
210
0.0
220
0.0
230
1.0
 70
     8
 71
     3
 72
     9
 73
     5
 74
     0
 42
0.000000001
 43
0.0000000001
 40
0.0
 40
0.0
 40
0.0
 40
0.0
 40
0.5
 40
1.0
 40
1.0
 40
1.0
 40
1.0
 10
648.8120155462254
 20
2014.620191517181
 30
0.0
 10
648.3385047723734
 20
2012.20602275487
 30
0.0
 10
647.6244313863543
 20
2007.355155406362
 30
0.0
 10
647.3762543237052
 20
2002.45922841008
 30
0.0
 10
647.3686398732231
 20
1999.999999999995
 30
0.0
  0
SPLINE
  5
EF
330
87
100
AcDbEntity
  8
P-SANR-FIXT
100
AcDbSpline
210
0.0
220
0.0
230
1.0
 70
     8
 71
     3
 72
     9
 73
     5
 74
     0
 42
0.000000001
 43
0.0000000001
 40
0.0
 40
0.0
 40
0.0
 40
0.0
 40
0.5
 40
1.0
 40
1.0
 40
1.0
 40
1.0
 10
647.3686398732231
 20
1999.999999999995
 30
0.0
 10
647.3762543237052
 20
1997.54077158991
 30
0.0
 10
647.6244313863544
 20
1992.644844593628
 30
0.0
 10
648.3385047723735
 20
1987.793977245119
 30
0.0
 10
648.8120155462257
 20
1985.379808482808
 30
0.0
  0
LINE
  5
F0
330
87
100
AcDbEntity
  8
P-SANR-FIXT
100
AcDbLine
 10
648.8120155462257
 20
1985.379808482808
 30
0.0
 11
674.9252642002103
 21
1985.379808482808
 31
0.0
  0
SPLINE
  5
F1
330
87
100
AcDbEntity
  8
P-SANR-FIXT
100
AcDbSpline
210
0.0
220
0.0
230
1.0
 70
     8
 71
     3
 72
     9
 73
     5
 74
     0
 42
0.000000001
 43
0.0000000001
 40
0.0
 40
0.0
 40
0.0
 40
0.0
 40
0.5
 40
1.0
 40
1.0
 40
1.0
 40
1.0
 10
674.9252642002103
 20
1985.379808482808
 30
0.0
 10
675.3987749740608
 20
1987.793977245119
 30
0.0
 10
676.1128483600803
 20
1992.644844593628
 30
0.0
 10
676.3610254227359
 20
1997.54077158991
 30
0.0
 10
676.3686398732228
 20
1999.999999999995
 30
0.0
  0
SPLINE
  5
F2
330
87
100
AcDbEntity
  8
P-SANR-FIXT
100
AcDbSpline
210
0.0
220
0.0
230
1.0
 70
     8
 71
     3
 72
     9
 73
     5
 74
     0
 42
0.000000001
 43
0.0000000001
 40
0.0
 40
0.0
 40
0.0
 40
0.0
 40
0.5
 40
1.0
 40
1.0
 40
1.0
 40
1.0
 10
676.3686398732228
 20
1999.999999999995
 30
0.0
 10
676.3610254227359
 20
2002.45922841008
 30
0.0
 10
676.1128483600803
 20
2007.355155406362
 30
0.0
 10
675.3987749740612
 20
2012.20602275487
 30
0.0
 10
674.9252642002106
 20
2014.620191517181
 30
0.0
  0
LINE
  5
F3
330
87
100
AcDbEntity
  8
P-SANR-FIXT
100
AcDbLine
 10
648.8120155461928
 20
1985.379808482808
 30
0.0
 11
648.8120155461928
 21
1971.370041501477
 31
0.0
  0
LINE
  5
F4
330
87
100
AcDbEntity
  8
P-SANR-FIXT
100
AcDbLine
 10
648.8120155462195
 20
1971.370041501476
 30
0.0
 11
674.9252642002166
 21
1971.370041501476
 31
0.0
  0
LINE
  5
F5
330
87
100
AcDbEntity
  8
P-SANR-FIXT
100
AcDbLine
 10
674.9252642002434
 20
1971.370041501477
 30
0.0
 11
674.9252642002434
 21
1985.379808482808
 31
0.0
  0
SPLINE
  5
F6
330
87
100
AcDbEntity
  8
P-SANR-FIXT
100
AcDbSpline
210
0.0
220
0.0
230
1.0
 70
     8
 71
     3
 72
     9
 73
     5
 74
     0
 42
0.000000001
 43
0.0000000001
 40
0.0
 40
0.0
 40
0.0
 40
0.0
 40
0.5
 40
1.0
 40
1.0
 40
1.0
 40
1.0
 10
648.8120155462195
 20
1971.370041501477
 30
0.0
 10
648.3385047723693
 20
1970.162957120324
 30
0.0
 10
647.6244313863531
 20
1967.737523446075
 30
0.0
 10
647.376254323705
 20
1965.289559947939
 30
0.0
 10
647.3686398732231
 20
1964.059945742899
 30
0.0
  0
SPLINE
  5
F7
330
87
100
AcDbEntity
  8
P-SANR-FIXT
100
AcDbSpline
210
0.0
220
0.0
230
1.0
 70
     8
 71
     3
 72
     9
 73
     5
 74
     0
 42
0.000000001
 43
0.0000000001
 40
0.0
 40
0.0
 40
0.0
 40
0.0
 40
0.5
 40
1.0
 40
1.0
 40
1.0
 40
1.0
 10
647.3686398732231
 20
1964.059945742899
 30
0.0
 10
647.3762543237049
 20
1962.830331537868
 30
0.0
 10
647.6244313863494
 20
1960.38236803975
 30
0.0
 10
648.3385047723559
 20
1957.956934365517
 30
0.0
 10
648.8120155461997
 20
1956.749849984373
 30
0.0
  0
LINE
  5
F8
330
87
100
AcDbEntity
  8
P-SANR-FIXT
100
AcDbLine
 10
674.9252642002366
 20
1956.749849984373
 30
0.0
 11
648.8120155461999
 21
1956.749849984373
 31
0.0
  0
SPLINE
  5
F9
330
87
100
AcDbEntity
  8
P-SANR-FIXT
100
AcDbSpline
210
0.0
220
0.0
230
1.0
 70
     8
 71
     3
 72
     9
 73
     5
 74
     0
 42
0.000000001
 43
0.0000000001
 40
0.0
 40
0.0
 40
0.0
 40
0.0
 40
0.5
 40
1.0
 40
1.0
 40
1.0
 40
1.0
 10
674.9252642002366
 20
1956.749849984373
 30
0.0
 10
675.3987749740788
 20
1957.956934365517
 30
0.0
 10
676.1128483600854
 20
1960.38236803975
 30
0.0
 10
676.3610254227361
 20
1962.830331537868
 30
0.0
 10
676.3686398732228
 20
1964.059945742899
 30
0.0
  0
SPLINE
  5
FA
330
87
100
AcDbEntity
  8
P-SANR-FIXT
100
AcDbSpline
210
0.0
220
0.0
230
1.0
 70
     8
 71
     3
 72
     9
 73
     5
 74
     0
 42
0.000000001
 43
0.0000000001
 40
0.0
 40
0.0
 40
0.0
 40
0.0
 40
0.5
 40
1.0
 40
1.0
 40
1.0
 40
1.0
 10
676.3686398732228
 20
1964.059945742899
 30
0.0
 10
676.3610254227359
 20
1965.289559947939
 30
0.0
 10
676.1128483600815
 20
1967.737523446075
 30
0.0
 10
675.3987749740653
 20
1970.162957120324
 30
0.0
 10
674.9252642002166
 20
1971.370041501477
 30
0.0
  0
LINE
  5
FB
330
87
100
AcDbEntity
  8
P-SANR-FIXT
100
AcDbLine
 10
789.8120155461995
 20
1956.000000000015
 30
0.0
 11
815.9252642002499
 21
1956.000000000015
 31
0.0
  0
LINE
  5
FC
330
87
100
AcDbEntity
  8
P-SANR-FIXT
100
AcDbLine
 10
815.9252642002499
 20
2043.999999999975
 30
0.0
 11
789.8120155461995
 21
2043.999999999975
 31
0.0
  0
LINE
  5
FD
330
87
100
AcDbEntity
  8
P-SANR-FIXT
100
AcDbLine
 10
815.9252642002497
 20
1956.000000000015
 30
0.0
 11
817.3686398732197
 21
1958.500000000008
 31
0.0
  0
LINE
  5
FE
330
87
100
AcDbEntity
  8
P-SANR-FIXT
100
AcDbLine
 10
817.3686398732197
 20
2041.499999999984
 30
0.0
 11
815.9252642002456
 21
2043.999999999984
 31
0.0
  0
LINE
  5
FF
330
87
100
AcDbEntity
  8
P-SANR-FIXT
100
AcDbLine
 10
788.3686398732202
 20
1958.500000000025
 30
0.0
 11
789.8120155462047
 21
1956.000000000007
 31
0.0
  0
LINE
  5
100
330
87
100
AcDbEntity
  8
P-SANR-FIXT
100
AcDbLine
 10
789.812015546199
 20
2043.999999999975
 30
0.0
 11
788.3686398732202
 21
2041.499999999967
 31
0.0
  0
LINE
  5
101
330
87
100
AcDbEntity
  8
P-SANR-FIXT
100
AcDbLine
 10
817.3686398732183
 20
2041.499999999983
 30
0.0
 11
817.3686398732181
 21
2035.940054257039
 31
0.0
  0
LINE
  5
102
330
87
100
AcDbEntity
  8
P-SANR-FIXT
100
AcDbLine
 10
817.3686398732181
 20
2035.940054257039
 30
0.0
 11
817.3686398732181
 21
1999.999999999995
 31
0.0
  0
LINE
  5
103
330
87
100
AcDbEntity
  8
P-SANR-FIXT
100
AcDbLine
 10
817.3686398732181
 20
1999.999999999995
 30
0.0
 11
817.3686398732181
 21
1964.059945742951
 31
0.0
  0
LINE
  5
104
330
87
100
AcDbEntity
  8
P-SANR-FIXT
100
AcDbLine
 10
817.3686398732181
 20
1964.059945742951
 30
0.0
 11
817.3686398732183
 21
1958.500000000007
 31
0.0
  0
LINE
  5
105
330
87
100
AcDbEntity
  8
P-SANR-FIXT
100
AcDbLine
 10
788.3686398732188
 20
1958.500000000024
 30
0.0
 11
788.3686398732187
 21
1964.059945742966
 31
0.0
  0
LINE
  5
106
330
87
100
AcDbEntity
  8
P-SANR-FIXT
100
AcDbLine
 10
788.3686398732187
 20
1964.059945742966
 30
0.0
 11
788.3686398732187
 21
1999.999999999995
 31
0.0
  0
LINE
  5
107
330
87
100
AcDbEntity
  8
P-SANR-FIXT
100
AcDbLine
 10
788.3686398732187
 20
1999.999999999995
 30
0.0
 11
788.3686398732187
 21
2035.940054257024
 31
0.0
  0
LINE
  5
108
330
87
100
AcDbEntity
  8
P-SANR-FIXT
100
AcDbLine
 10
788.3686398732187
 20
2035.940054257024
 30
0.0
 11
788.3686398732188
 21
2041.499999999966
 31
0.0
  0
LINE
  5
109
330
87
100
AcDbEntity
  8
P-SANR-FIXT
100
AcDbLine
 10
815.9252642002419
 20
1956.749849984373
 30
0.0
 11
789.812015546205
 21
1956.749849984373
 31
0.0
  0
LINE
  5
10A
330
87
100
AcDbEntity
  8
P-SANR-FIXT
100
AcDbLine
 10
789.8120155461982
 20
1956.749849984373
 30
0.0
 11
789.8120155461982
 21
1956.000000000014
 31
0.0
  0
LINE
  5
10B
330
87
100
AcDbEntity
  8
P-SANR-FIXT
100
AcDbLine
 10
815.9252642002487
 20
1956.000000000014
 30
0.0
 11
815.9252642002487
 21
1956.749849984373
 31
0.0
  0
LINE
  5
10C
330
87
100
AcDbEntity
  8
P-SANR-FIXT
100
AcDbLine
 10
789.8120155461982
 20
2043.999999999974
 30
0.0
 11
789.8120155461982
 21
2043.250150015614
 31
0.0
  0
LINE
  5
10D
330
87
100
AcDbEntity
  8
P-SANR-FIXT
100
AcDbLine
 10
815.9252642002487
 20
2043.250150015614
 30
0.0
 11
815.9252642002487
 21
2043.999999999974
 31
0.0
  0
LINE
  5
10E
330
87
100
AcDbEntity
  8
P-SANR-FIXT
100
AcDbLine
 10
789.8120155462041
 20
2043.250150015614
 30
0.0
 11
815.9252642002426
 21
2043.250150015614
 31
0.0
  0
SPLINE
  5
10F
330
87
100
AcDbEntity
  8
P-SANR-FIXT
100
AcDbSpline
210
0.0
220
0.0
230
1.0
 70
     8
 71
     3
 72
     9
 73
     5
 74
     0
 42
0.000000001
 43
0.0000000001
 40
0.0
 40
0.0
 40
0.0
 40
0.0
 40
0.5
 40
1.0
 40
1.0
 40
1.0
 40
1.0
 10
789.8120155462041
 20
2043.250150015614
 30
0.0
 10
789.3385047723626
 20
2042.04306563447
 30
0.0
 10
788.6244313863567
 20
2039.617631960239
 30
0.0
 10
788.3762543237055
 20
2037.169668462122
 30
0.0
 10
788.3686398732187
 20
2035.940054257093
 30
0.0
  0
SPLINE
  5
110
330
87
100
AcDbEntity
  8
P-SANR-FIXT
100
AcDbSpline
210
0.0
220
0.0
230
1.0
 70
     8
 71
     3
 72
     9
 73
     5
 74
     0
 42
0.000000001
 43
0.0000000001
 40
0.0
 40
0.0
 40
0.0
 40
0.0
 40
0.5
 40
1.0
 40
1.0
 40
1.0
 40
1.0
 10
788.3686398732187
 20
2035.940054257093
 30
0.0
 10
788.3762543237057
 20
2034.710440052053
 30
0.0
 10
788.6244313863604
 20
2032.262476553918
 30
0.0
 10
789.3385047723762
 20
2029.83704287967
 30
0.0
 10
789.8120155462243
 20
2028.629958498518
 30
0.0
  0
SPLINE
  5
111
330
87
100
AcDbEntity
  8
P-SANR-FIXT
100
AcDbSpline
210
0.0
220
0.0
230
1.0
 70
     8
 71
     3
 72
     9
 73
     5
 74
     0
 42
0.000000001
 43
0.0000000001
 40
0.0
 40
0.0
 40
0.0
 40
0.0
 40
0.5
 40
1.0
 40
1.0
 40
1.0
 40
1.0
 10
815.9252642002224
 20
2028.629958498518
 30
0.0
 10
816.3987749740723
 20
2029.83704287967
 30
0.0
 10
817.1128483600879
 20
2032.262476553918
 30
0.0
 10
817.361025422736
 20
2034.710440052053
 30
0.0
 10
817.3686398732181
 20
2035.940054257093
 30
0.0
  0
SPLINE
  5
112
330
87
100
AcDbEntity
  8
P-SANR-FIXT
100
AcDbSpline
210
0.0
220
0.0
230
1.0
 70
     8
 71
     3
 72
     9
 73
     5
 74
     0
 42
0.000000001
 43
0.0000000001
 40
0.0
 40
0.0
 40
0.0
 40
0.0
 40
0.5
 40
1.0
 40
1.0
 40
1.0
 40
1.0
 10
817.3686398732181
 20
2035.940054257093
 30
0.0
 10
817.361025422736
 20
2037.169668462123
 30
0.0
 10
817.1128483600918
 20
2039.61763196024
 30
0.0
 10
816.398774974086
 20
2042.04306563447
 30
0.0
 10
815.9252642002426
 20
2043.250150015614
 30
0.0
  0
LINE
  5
113
330
87
100
AcDbEntity
  8
P-SANR-FIXT
100
AcDbLine
 10
789.8120155462243
 20
2028.629958498518
 30
0.0
 11
815.9252642002224
 21
2028.629958498518
 31
0.0
  0
LINE
  5
114
330
87
100
AcDbEntity
  8
P-SANR-FIXT
100
AcDbLine
 10
789.8120155461981
 20
2028.629958498518
 30
0.0
 11
789.8120155461981
 21
2014.620191517181
 31
0.0
  0
LINE
  5
115
330
87
100
AcDbEntity
  8
P-SANR-FIXT
100
AcDbLine
 10
815.9252642002485
 20
2014.620191517181
 30
0.0
 11
815.9252642002485
 21
2028.629958498518
 31
0.0
  0
LINE
  5
116
330
87
100
AcDbEntity
  8
P-SANR-FIXT
100
AcDbLine
 10
789.8120155462308
 20
2014.620191517181
 30
0.0
 11
815.9252642002158
 21
2014.620191517181
 31
0.0
  0
SPLINE
  5
117
330
87
100
AcDbEntity
  8
P-SANR-FIXT
100
AcDbSpline
210
0.0
220
0.0
230
1.0
 70
     8
 71
     3
 72
     9
 73
     5
 74
     0
 42
0.000000001
 43
0.0000000001
 40
0.0
 40
0.0
 40
0.0
 40
0.0
 40
0.5
 40
1.0
 40
1.0
 40
1.0
 40
1.0
 10
789.8120155462308
 20
2014.620191517181
 30
0.0
 10
789.3385047723803
 20
2012.20602275487
 30
0.0
 10
788.6244313863612
 20
2007.355155406362
 30
0.0
 10
788.3762543237055
 20
2002.45922841008
 30
0.0
 10
788.3686398732187
 20
1999.999999999995
 30
0.0
  0
SPLINE
  5
118
330
87
100
AcDbEntity
  8
P-SANR-FIXT
100
AcDbSpline
210
0.0
220
0.0
230
1.0
 70
     8
 71
     3
 72
     9
 73
     5
 74
     0
 42
0.000000001
 43
0.0000000001
 40
0.0
 40
0.0
 40
0.0
 40
0.0
 40
0.5
 40
1.0
 40
1.0
 40
1.0
 40
1.0
 10
788.3686398732187
 20
1999.999999999995
 30
0.0
 10
788.3762543237055
 20
1997.54077158991
 30
0.0
 10
788.6244313863612
 20
1992.644844593628
 30
0.0
 10
789.3385047723804
 20
1987.793977245119
 30
0.0
 10
789.812015546231
 20
1985.379808482808
 30
0.0
  0
SPLINE
  5
119
330
87
100
AcDbEntity
  8
P-SANR-FIXT
100
AcDbSpline
210
0.0
220
0.0
230
1.0
 70
     8
 71
     3
 72
     9
 73
     5
 74
     0
 42
0.000000001
 43
0.0000000001
 40
0.0
 40
0.0
 40
0.0
 40
0.0
 40
0.5
 40
1.0
 40
1.0
 40
1.0
 40
1.0
 10
815.9252642002156
 20
1985.379808482808
 30
0.0
 10
816.3987749740678
 20
1987.793977245119
 30
0.0
 10
817.112848360087
 20
1992.644844593628
 30
0.0
 10
817.361025422736
 20
1997.54077158991
 30
0.0
 10
817.3686398732181
 20
1999.999999999995
 30
0.0
  0
SPLINE
  5
11A
330
87
100
AcDbEntity
  8
P-SANR-FIXT
100
AcDbSpline
210
0.0
220
0.0
230
1.0
 70
     8
 71
     3
 72
     9
 73
     5
 74
     0
 42
0.000000001
 43
0.0000000001
 40
0.0
 40
0.0
 40
0.0
 40
0.0
 40
0.5
 40
1.0
 40
1.0
 40
1.0
 40
1.0
 10
817.3686398732181
 20
1999.999999999995
 30
0.0
 10
817.361025422736
 20
2002.45922841008
 30
0.0
 10
817.112848360087
 20
2007.355155406363
 30
0.0
 10
816.398774974068
 20
2012.206022754871
 30
0.0
 10
815.9252642002158
 20
2014.620191517181
 30
0.0
  0
LINE
  5
11B
330
87
100
AcDbEntity
  8
P-SANR-FIXT
100
AcDbLine
 10
789.812015546231
 20
1985.379808482808
 30
0.0
 11
815.9252642002156
 21
1985.379808482808
 31
0.0
  0
LINE
  5
11C
330
87
100
AcDbEntity
  8
P-SANR-FIXT
100
AcDbLine
 10
789.8120155461981
 20
1985.379808482809
 30
0.0
 11
789.8120155461981
 21
1971.370041501477
 31
0.0
  0
LINE
  5
11D
330
87
100
AcDbEntity
  8
P-SANR-FIXT
100
AcDbLine
 10
815.9252642002485
 20
1971.370041501477
 30
0.0
 11
815.9252642002485
 21
1985.379808482809
 31
0.0
  0
SPLINE
  5
11E
330
87
100
AcDbEntity
  8
P-SANR-FIXT
100
AcDbSpline
210
0.0
220
0.0
230
1.0
 70
     8
 71
     3
 72
     9
 73
     5
 74
     0
 42
0.000000001
 43
0.0000000001
 40
0.0
 40
0.0
 40
0.0
 40
0.0
 40
0.5
 40
1.0
 40
1.0
 40
1.0
 40
1.0
 10
815.9252642002419
 20
1956.749849984373
 30
0.0
 10
816.3987749740858
 20
1957.956934365517
 30
0.0
 10
817.1128483600922
 20
1960.38236803975
 30
0.0
 10
817.3610254227366
 20
1962.830331537868
 30
0.0
 10
817.3686398732181
 20
1964.059945742899
 30
0.0
  0
SPLINE
  5
11F
330
87
100
AcDbEntity
  8
P-SANR-FIXT
100
AcDbSpline
210
0.0
220
0.0
230
1.0
 70
     8
 71
     3
 72
     9
 73
     5
 74
     0
 42
0.000000001
 43
0.0000000001
 40
0.0
 40
0.0
 40
0.0
 40
0.0
 40
0.5
 40
1.0
 40
1.0
 40
1.0
 40
1.0
 10
817.3686398732181
 20
1964.059945742899
 30
0.0
 10
817.3610254227364
 20
1965.289559947939
 30
0.0
 10
817.1128483600885
 20
1967.737523446075
 30
0.0
 10
816.3987749740723
 20
1970.162957120324
 30
0.0
 10
815.9252642002218
 20
1971.370041501477
 30
0.0
  0
LINE
  5
120
330
87
100
AcDbEntity
  8
P-SANR-FIXT
100
AcDbLine
 10
789.8120155462247
 20
1971.370041501477
 30
0.0
 11
815.9252642002218
 21
1971.370041501477
 31
0.0
  0
SPLINE
  5
121
330
87
100
AcDbEntity
  8
P-SANR-FIXT
100
AcDbSpline
210
0.0
220
0.0
230
1.0
 70
     8
 71
     3
 72
     9
 73
     5
 74
     0
 42
0.000000001
 43
0.0000000001
 40
0.0
 40
0.0
 40
0.0
 40
0.0
 40
0.5
 40
1.0
 40
1.0
 40
1.0
 40
1.0
 10
789.8120155462247
 20
1971.370041501477
 30
0.0
 10
789.3385047723763
 20
1970.162957120324
 30
0.0
 10
788.6244313863599
 20
1967.737523446075
 30
0.0
 10
788.3762543237055
 20
1965.289559947939
 30
0.0
 10
788.3686398732187
 20
1964.059945742899
 30
0.0
  0
SPLINE
  5
122
330
87
100
AcDbEntity
  8
P-SANR-FIXT
100
AcDbSpline
210
0.0
220
0.0
230
1.0
 70
     8
 71
     3
 72
     9
 73
     5
 74
     0
 42
0.000000001
 43
0.0000000001
 40
0.0
 40
0.0
 40
0.0
 40
0.0
 40
0.5
 40
1.0
 40
1.0
 40
1.0
 40
1.0
 10
788.3686398732187
 20
1964.059945742899
 30
0.0
 10
788.3762543237052
 20
1962.830331537868
 30
0.0
 10
788.6244313863564
 20
1960.38236803975
 30
0.0
 10
789.3385047723628
 20
1957.956934365517
 30
0.0
 10
789.812015546205
 20
1956.749849984373
 30
0.0
  0
LINE
  5
123
330
87
100
AcDbEntity
  8
P-SANR-FIXT
100
AcDbLine
 10
829.9686398732614
 20
2028.004742289182
 30
0.0
 11
829.9686398732614
 21
2014.421664582
 31
0.0
  0
LINE
  5
124
330
87
100
AcDbEntity
  8
P-SANR-FIXT
100
AcDbLine
 10
829.9686398732614
 20
2014.421664582
 30
0.0
 11
829.9686398732614
 21
2009.604686356128
 31
0.0
  0
LINE
  5
125
330
87
100
AcDbEntity
  8
P-SANR-FIXT
100
AcDbLine
 10
829.9686398732614
 20
2009.604686356128
 30
0.0
 11
829.9686398732614
 21
1990.395313643863
 31
0.0
  0
LINE
  5
126
330
87
100
AcDbEntity
  8
P-SANR-FIXT
100
AcDbLine
 10
829.9686398732614
 20
1990.395313643863
 30
0.0
 11
829.9686398732614
 21
1985.578335417991
 31
0.0
  0
LINE
  5
127
330
87
100
AcDbEntity
  8
P-SANR-FIXT
100
AcDbLine
 10
829.9686398732614
 20
1985.578335417991
 30
0.0
 11
829.9686398732614
 21
1971.995257710808
 31
0.0
  0
LINE
  5
128
330
87
100
AcDbEntity
  8
P-SANR-FIXT
100
AcDbLine
 10
829.9686398732614
 20
1971.995257710808
 30
0.0
 11
829.9686398732614
 21
1969.999999999996
 31
0.0
  0
LINE
  5
129
330
87
100
AcDbEntity
  8
P-SANR-FIXT
100
AcDbLine
 10
829.9686398732614
 20
2029.999999999994
 30
0.0
 11
829.9686398732614
 21
2028.004742289182
 31
0.0
  0
LINE
  5
12A
330
87
100
AcDbEntity
  8
P-SANR-FIXT
100
AcDbLine
 10
817.3686398732177
 20
2014.421664582
 30
0.0
 11
829.9686398732614
 21
2014.421664582
 31
0.0
  0
LINE
  5
12B
330
87
100
AcDbEntity
  8
P-SANR-FIXT
100
AcDbLine
 10
817.3686398732177
 20
2009.604686356127
 30
0.0
 11
829.9686398732614
 21
2009.604686356127
 31
0.0
  0
LINE
  5
12C
330
87
100
AcDbEntity
  8
P-SANR-FIXT
100
AcDbLine
 10
817.3686398732177
 20
1990.395313643863
 30
0.0
 11
829.9686398732614
 21
1990.395313643863
 31
0.0
  0
LINE
  5
12D
330
87
100
AcDbEntity
  8
P-SANR-FIXT
100
AcDbLine
 10
817.3686398732177
 20
1985.578335417991
 30
0.0
 11
829.9686398732614
 21
1985.578335417991
 31
0.0
  0
LINE
  5
12E
330
87
100
AcDbEntity
  8
P-SANR-FIXT
100
AcDbLine
 10
817.3686398732177
 20
1971.995257710808
 30
0.0
 11
829.9686398732614
 21
1971.995257710808
 31
0.0
  0
LINE
  5
12F
330
87
100
AcDbEntity
  8
P-SANR-FIXT
100
AcDbLine
 10
817.3686398732177
 20
1969.999999999996
 30
0.0
 11
829.9686398732614
 21
1969.999999999996
 31
0.0
  0
LINE
  5
130
330
87
100
AcDbEntity
  8
P-SANR-FIXT
100
AcDbLine
 10
817.3686398732177
 20
2029.999999999995
 30
0.0
 11
829.9686398732614
 21
2029.999999999995
 31
0.0
  0
LINE
  5
131
330
87
100
AcDbEntity
  8
P-SANR-FIXT
100
AcDbLine
 10
829.9686398732614
 20
2028.004742289182
 30
0.0
 11
817.3686398732177
 21
2028.004742289182
 31
0.0
  0
LINE
  5
132
330
87
100
AcDbEntity
  8
P-SANR-FIXT
100
AcDbLine
 10
856.3686398732359
 20
2029.999999999997
 30
0.0
 11
830.0273070142173
 21
2029.999999999997
 31
0.0
  0
LINE
  5
133
330
87
100
AcDbEntity
  8
P-SANR-FIXT
100
AcDbLine
 10
830.0273070142173
 20
1969.999999999996
 30
0.0
 11
856.3686398732359
 21
1969.999999999996
 31
0.0
  0
LINE
  5
134
330
87
100
AcDbEntity
  8
P-SANR-FIXT
100
AcDbLine
 10
857.3686398732361
 20
2028.999999999996
 30
0.0
 11
856.3686398732359
 21
2029.999999999997
 31
0.0
  0
LINE
  5
135
330
87
100
AcDbEntity
  8
P-SANR-FIXT
100
AcDbLine
 10
856.3686398732359
 20
1969.999999999996
 30
0.0
 11
857.3686398732361
 21
1970.999999999995
 31
0.0
  0
LINE
  5
136
330
87
100
AcDbEntity
  8
P-SANR-FIXT
100
AcDbLine
 10
830.0273070142159
 20
1969.999999999995
 30
0.0
 11
830.0273070142159
 21
2029.999999999995
 31
0.0
  0
LINE
  5
137
330
87
100
AcDbEntity
  8
P-SANR-FIXT
100
AcDbLine
 10
856.3686398732347
 20
1969.999999999995
 30
0.0
 11
856.3686398732347
 21
2029.999999999995
 31
0.0
  0
LINE
  5
138
330
87
100
AcDbEntity
  8
P-SANR-FIXT
100
AcDbLine
 10
857.3686398732347
 20
2028.999999999996
 30
0.0
 11
857.3686398732347
 21
1970.999999999994
 31
0.0
  0
LINE
  5
139
330
87
100
AcDbEntity
  8
P-SANR-FIXT
100
AcDbLine
 10
634.7686398731789
 20
2028.004742289182
 30
0.0
 11
634.7686398731789
 21
2029.999999999994
 31
0.0
  0
LINE
  5
13A
330
87
100
AcDbEntity
  8
P-SANR-FIXT
100
AcDbLine
 10
634.7686398731789
 20
1969.999999999996
 30
0.0
 11
634.7686398731789
 21
1971.995257710808
 31
0.0
  0
LINE
  5
13B
330
87
100
AcDbEntity
  8
P-SANR-FIXT
100
AcDbLine
 10
634.7686398731789
 20
1971.995257710808
 30
0.0
 11
634.7686398731788
 21
1985.578335417991
 31
0.0
  0
LINE
  5
13C
330
87
100
AcDbEntity
  8
P-SANR-FIXT
100
AcDbLine
 10
634.7686398731788
 20
1985.578335417991
 30
0.0
 11
634.7686398731788
 21
1990.395313643863
 31
0.0
  0
LINE
  5
13D
330
87
100
AcDbEntity
  8
P-SANR-FIXT
100
AcDbLine
 10
634.7686398731788
 20
1990.395313643863
 30
0.0
 11
634.7686398731788
 21
2009.604686356128
 31
0.0
  0
LINE
  5
13E
330
87
100
AcDbEntity
  8
P-SANR-FIXT
100
AcDbLine
 10
634.7686398731788
 20
2009.604686356128
 30
0.0
 11
634.7686398731788
 21
2014.421664582
 31
0.0
  0
LINE
  5
13F
330
87
100
AcDbEntity
  8
P-SANR-FIXT
100
AcDbLine
 10
634.7686398731788
 20
2014.421664582
 30
0.0
 11
634.7686398731789
 21
2028.004742289182
 31
0.0
  0
LINE
  5
140
330
87
100
AcDbEntity
  8
P-SANR-FIXT
100
AcDbLine
 10
647.3686398732226
 20
2028.004742289182
 30
0.0
 11
634.7686398731789
 21
2028.004742289182
 31
0.0
  0
LINE
  5
141
330
87
100
AcDbEntity
  8
P-SANR-FIXT
100
AcDbLine
 10
634.7686398731788
 20
2014.421664582
 30
0.0
 11
647.3686398732224
 21
2014.421664582
 31
0.0
  0
LINE
  5
142
330
87
100
AcDbEntity
  8
P-SANR-FIXT
100
AcDbLine
 10
634.7686398731788
 20
2009.604686356128
 30
0.0
 11
647.3686398732224
 21
2009.604686356128
 31
0.0
  0
LINE
  5
143
330
87
100
AcDbEntity
  8
P-SANR-FIXT
100
AcDbLine
 10
634.7686398731788
 20
1990.395313643863
 30
0.0
 11
647.3686398732224
 21
1990.395313643863
 31
0.0
  0
LINE
  5
144
330
87
100
AcDbEntity
  8
P-SANR-FIXT
100
AcDbLine
 10
634.7686398731788
 20
1985.578335417991
 30
0.0
 11
647.3686398732224
 21
1985.578335417991
 31
0.0
  0
LINE
  5
145
330
87
100
AcDbEntity
  8
P-SANR-FIXT
100
AcDbLine
 10
634.7686398731789
 20
1971.995257710808
 30
0.0
 11
647.3686398732226
 21
1971.995257710808
 31
0.0
  0
LINE
  5
146
330
87
100
AcDbEntity
  8
P-SANR-FIXT
100
AcDbLine
 10
634.7686398731789
 20
1969.999999999996
 30
0.0
 11
647.3686398732226
 21
1969.999999999996
 31
0.0
  0
LINE
  5
147
330
87
100
AcDbEntity
  8
P-SANR-FIXT
100
AcDbLine
 10
634.7686398731789
 20
2029.999999999994
 30
0.0
 11
647.3686398732226
 21
2029.999999999994
 31
0.0
  0
LINE
  5
148
330
87
100
AcDbEntity
  8
P-SANR-FIXT
100
AcDbLine
 10
634.7099727322256
 20
2029.999999999997
 30
0.0
 11
608.3686398732067
 21
2029.999999999997
 31
0.0
  0
LINE
  5
149
330
87
100
AcDbEntity
  8
P-SANR-FIXT
100
AcDbLine
 10
608.3686398732067
 20
1969.999999999995
 30
0.0
 11
634.7099727322256
 21
1969.999999999995
 31
0.0
  0
LINE
  5
14A
330
87
100
AcDbEntity
  8
P-SANR-FIXT
100
AcDbLine
 10
608.3686398732067
 20
2029.999999999996
 30
0.0
 11
607.3686398732067
 21
2028.999999999996
 31
0.0
  0
LINE
  5
14B
330
87
100
AcDbEntity
  8
P-SANR-FIXT
100
AcDbLine
 10
607.3686398732067
 20
1970.999999999995
 30
0.0
 11
608.3686398732067
 21
1969.999999999996
 31
0.0
  0
LINE
  5
14C
330
87
100
AcDbEntity
  8
P-SANR-FIXT
100
AcDbLine
 10
607.3686398732056
 20
1970.999999999994
 30
0.0
 11
607.3686398732056
 21
2028.999999999996
 31
0.0
  0
LINE
  5
14D
330
87
100
AcDbEntity
  8
P-SANR-FIXT
100
AcDbLine
 10
634.7099727322245
 20
2029.999999999995
 30
0.0
 11
634.7099727322245
 21
1969.999999999994
 31
0.0
  0
LINE
  5
14E
330
87
100
AcDbEntity
  8
P-SANR-FIXT
100
AcDbLine
 10
608.3686398732056
 20
2029.999999999995
 30
0.0
 11
608.3686398732056
 21
1969.999999999994
 31
0.0
  0
LINE
  5
14F
330
87
100
AcDbEntity
  8
P-SANR-FIXT
100
AcDbLine
 10
775.5459089439905
 20
2035.875650158899
 30
0.0
 11
779.5529244232308
 21
2049.849773817896
 31
0.0
  0
LINE
  5
150
330
87
100
AcDbEntity
  8
P-SANR-FIXT
100
AcDbLine
 10
782.0267225267414
 20
2051.221022498138
 30
0.0
 11
783.2034812536207
 21
2051.873310511823
 31
0.0
  0
LINE
  5
151
330
87
100
AcDbEntity
  8
P-SANR-FIXT
100
AcDbLine
 10
783.2064830937317
 20
2051.874974458968
 30
0.0
 11
783.2636215784967
 21
2051.90664683826
 31
0.0
  0
LINE
  5
152
330
87
100
AcDbEntity
  8
P-SANR-FIXT
100
AcDbLine
 10
783.2636215784967
 20
2051.90664683826
 30
0.0
 11
785.8270489875948
 21
2060.846380610486
 31
0.0
  0
LINE
  5
153
330
87
100
AcDbEntity
  8
P-SANR-FIXT
100
AcDbLine
 10
768.5243384607051
 20
2065.807853015192
 30
0.0
 11
766.0135064289228
 21
2057.051541121497
 31
0.0
  0
LINE
  5
154
330
87
100
AcDbEntity
  8
P-SANR-FIXT
100
AcDbLine
 10
785.8270489875948
 20
2060.846380610486
 30
0.0
 11
785.3471119495099
 21
2061.712209946715
 31
0.0
  0
LINE
  5
155
330
87
100
AcDbEntity
  8
P-SANR-FIXT
100
AcDbLine
 10
769.3901677969339
 20
2066.287790053277
 30
0.0
 11
768.5243384607052
 21
2065.807853015192
 31
0.0
  0
LWPOLYLINE
  5
156
330
87
100
AcDbEntity
  8
P-SANR-FIXT
100
AcDbPolyline
 90
       41
 70
   128
 43
0.0
 10
782.0267225267414
 20
2051.221022498138
 10
781.9494011353722
 20
2051.241529793156
 10
781.8713215197953
 20
2051.258928653564
 10
781.7926085907393
 20
2051.2731912449
 10
781.7133882720997
 20
2051.284294750059
 10
781.6337872994869
 20
2051.292221405803
 10
781.5539330174764
 20
2051.296958531171
 10
781.4739531758847
 20
2051.298498547775
 10
781.3939757253969
 20
2051.296838991916
 10
781.3141286128727
 20
2051.29198251853
 10
781.2345395766595
 20
2051.283936896938
 10
781.1553359422366
 20
2051.272714998419
 10
781.0766444185234
 20
2051.258334775615
 10
780.9985908951712
 20
2051.240819233818
 10
780.9213002411669
 20
2051.220196394154
 10
780.8448961050689
 20
2051.196499248771
 10
780.7695007171965
 20
2051.169765708046
 10
780.6952346940869
 20
2051.140038539938
 10
780.6222168455343
 20
2051.107365301579
 10
780.55056398452
 20
2051.071798263177
 10
780.4803907403367
 20
2051.033394324409
 10
780.4118093752054
 20
2050.992214923382
 10
780.3449296046807
 20
2050.948325938355
 10
780.2798584221282
 20
2050.90179758234
 10
780.2166999275591
 20
2050.852704290782
 10
780.1555551610913
 20
2050.801124602476
 10
780.096521941308
 20
2050.747141033919
 10
780.0396947087675
 20
2050.690839947304
 10
779.9851643749198
 20
2050.632311412361
 10
779.9330181766658
 20
2050.57164906226
 10
779.8833395367994
 20
2050.508949943819
 10
779.8362079305467
 20
2050.444314362255
 10
779.7916987584234
 20
2050.377845720707
 10
779.7498832256102
 20
2050.309650354826
 10
779.7108282280393
 20
2050.239837362648
 10
779.6745962453756
 20
2050.168518430067
 10
779.6412452410623
 20
2050.095807652162
 10
779.6108285695918
 20
2050.021821350668
 10
779.5833948911498
 20
2049.946677887882
 10
779.5589880937699
 20
2049.870497477318
 10
779.5529244232308
 20
2049.849773817896
  0
LWPOLYLINE
  5
157
330
87
100
AcDbEntity
  8
P-SANR-FIXT
100
AcDbPolyline
 90
       38
 70
   128
 43
0.0
 10
733.7773915441106
 20
1960.579823178237
 10
733.5502839728318
 20
1960.502270154585
 10
733.3202567696067
 20
1960.433861045645
 10
733.0876779288903
 20
1960.374705291397
 10
732.8529195272139
 20
1960.32489752843
 10
732.6163571279407
 20
1960.284517438537
 10
732.3783691804457
 20
1960.25362962125
 10
732.1393364146771
 20
1960.232283490487
 10
731.8996412320688
 20
1960.220513195504
 10
731.659667093781
 20
1960.218337566262
 10
731.4197979072432
 20
1960.225760083303
 10
731.1804174119843
 20
1960.242768872183
 10
730.9419085657316
 20
1960.26933672247
 10
730.7046529317602
 20
1960.305421131269
 10
730.4690300684724
 20
1960.350964371224
 10
730.2354169221858
 20
1960.405893582868
 10
730.0041872241
 20
1960.470120891178
 10
729.7757108924055
 20
1960.543543546162
 10
729.5503534404938
 20
1960.626044087236
 10
729.3284753922144
 20
1960.717490531133
 10
729.1104317051132
 20
1960.817736583049
 10
728.8965712025756
 20
1960.926621870687
 10
728.687236015785
 20
1961.043972200814
 10
728.4827610363842
 20
1961.169599837935
 10
728.2834733807215
 20
1961.303303804631
 10
728.0896918665332
 20
1961.444870203075
 10
727.9017265029044
 20
1961.59407255723
 10
727.7198779943196
 20
1961.750672175158
 10
727.5444372596004
 20
1961.914418530875
 10
727.3756849664968
 20
1962.085049665144
 10
727.2138910826794
 20
1962.262292604549
 10
727.0593144438481
 20
1962.445863798197
 10
726.9122023396505
 20
1962.635469571337
 10
726.7727901180706
 20
1962.83080659518
 10
726.6413008089239
 20
1963.031562372156
 10
726.5179447670552
 20
1963.237415735851
 10
726.4029193358168
 20
1963.448037364792
 10
726.3366199819622
 20
1963.579334628
  0
LWPOLYLINE
  5
158
330
87
100
AcDbEntity
  8
P-SANR-FIXT
100
AcDbPolyline
 90
        5
 70
   128
 43
0.0
 10
733.9188776756818
 20
1960.631319918691
 10
733.8740815286065
 20
1960.615015454546
 10
733.8129506616958
 20
1960.592765638595
 10
733.7817629950343
 20
1960.581414256254
 10
733.7773915441106
 20
1960.579823178237
  0
LWPOLYLINE
  5
159
330
87
100
AcDbEntity
  8
P-SANR-FIXT
100
AcDbPolyline
 90
       50
 70
   128
 43
0.0
 10
733.7773915441106
 20
1960.579823178237
 10
733.7923915877368
 20
1960.585282747629
 10
733.8373677217451
 20
1960.601652721661
 10
733.9122479939154
 20
1960.628906911865
 10
734.0169126117865
 20
1960.667001717351
 10
734.1511941342964
 20
1960.715876194556
 10
734.3148777396542
 20
1960.775452154744
 10
734.5077015690092
 20
1960.845634289087
 10
734.7293571453677
 20
1960.92631032114
 10
734.9794898670917
 20
1961.017351186464
 10
735.2576995751848
 20
1961.118611239093
 10
735.5635411934626
 20
1961.229928484547
 10
735.8965254405786
 20
1961.351124838976
 10
736.2561196127704
 20
1961.48200641407
 10
736.6417484360717
 20
1961.622363827227
 10
737.0527949866279
 20
1961.771972536526
 10
737.488601677644
 20
1961.93059319995
 10
737.948471311381
 20
1962.097972058273
 10
738.4316681945257
 20
1962.273841341028
 10
738.9374193151412
 20
1962.457919694879
 10
739.4649155793224
 20
1962.649912633728
 10
740.0133131055732
 20
1962.849513009828
 10
740.5817345748369
 20
1963.056401505158
 10
741.1692706340194
 20
1963.270247142258
 10
741.7749813507603
 20
1963.490707813729
 10
742.3978977171243
 20
1963.717430829522
 10
743.0370231998069
 20
1963.950053481179
 10
743.6913353343753
 20
1964.188203622082
 10
744.3597873609933
 20
1964.431500262806
 10
745.0413098990136
 20
1964.679554180627
 10
745.7348126577596
 20
1964.931968542192
 10
746.4391861807564
 20
1965.188339538368
 10
747.1533036206254
 20
1965.44825703025
 10
747.8760225418003
 20
1965.711305205299
 10
748.6061867481784
 20
1965.977063242547
 10
749.3426281327896
 20
1966.245105985828
 10
750.084168546518
 20
1966.51500462393
 10
750.8296216828882
 20
1966.786327376609
 10
751.5777949759037
 20
1967.05864018534
 10
752.3274915078974
 20
1967.331507407718
 10
753.0775119243449
 20
1967.604492514397
 10
753.8266563525755
 20
1967.877158787439
 10
754.5737263213132
 20
1968.149070018974
 10
755.3175266779742
 20
1968.419791209035
 10
756.0568675006571
 20
1968.68888926147
 10
756.7905660017632
 20
1968.955933676798
 10
757.5174484202044
 20
1969.220497240922
 10
758.2363518991716
 20
1969.482156708577
 10
758.9461263464561
 20
1969.740493480431
 10
759.0399906265875
 20
1969.77465728446
  0
LINE
  5
15A
330
87
100
AcDbEntity
  8
P-SANR-FIXT
100
AcDbLine
 10
726.3366199819635
 20
1963.579334627998
 30
0.0
 11
725.9694592327706
 21
1964.151493479874
 31
0.0
  0
LINE
  5
15B
330
87
100
AcDbEntity
  8
P-SANR-FIXT
100
AcDbLine
 10
755.7649472974142
 20
2059.421938425042
 30
0.0
 11
756.4314310634117
 21
2057.721585103609
 31
0.0
  0
LINE
  5
15C
330
87
100
AcDbEntity
  8
P-SANR-FIXT
100
AcDbLine
 10
755.6858358009413
 20
2060.202267979326
 30
0.0
 11
755.8459495584822
 21
2061.110318221538
 31
0.0
  0
LINE
  5
15D
330
87
100
AcDbEntity
  8
P-SANR-FIXT
100
AcDbLine
 10
689.7572481798656
 20
2037.055998098414
 30
0.0
 11
690.4635858787637
 21
2036.463310395782
 31
0.0
  0
LINE
  5
15E
330
87
100
AcDbEntity
  8
P-SANR-FIXT
100
AcDbLine
 10
755.7331617279167
 20
2062.39948902402
 30
0.0
 11
754.4915851646148
 21
2065.810692596216
 31
0.0
  0
LINE
  5
15F
330
87
100
AcDbEntity
  8
P-SANR-FIXT
100
AcDbLine
 10
687.7734090888147
 20
2041.527262420094
 30
0.0
 11
689.0149856521169
 21
2038.116058847897
 31
0.0
  0
LINE
  5
160
330
87
100
AcDbEntity
  8
P-SANR-FIXT
100
AcDbLine
 10
748.3766809426287
 20
2086.996960468495
 30
0.0
 11
747.5369033164056
 21
2087.38855520675
 31
0.0
  0
LINE
  5
161
330
87
100
AcDbEntity
  8
P-SANR-FIXT
100
AcDbLine
 10
679.2480520731752
 20
2062.563769150125
 30
0.0
 11
678.8394270044713
 21
2061.687469862396
 31
0.0
  0
LWPOLYLINE
  5
162
330
87
100
AcDbEntity
  8
P-SANR-FIXT
100
AcDbPolyline
 90
       15
 70
   128
 43
0.0
 10
690.9045691254694
 20
2035.814691387206
 10
690.8852616642543
 20
2035.86900921134
 10
690.8637975133273
 20
2035.922511494489
 10
690.8402110107513
 20
2035.975112644413
 10
690.8145398898985
 20
2036.026728510495
 10
690.7868252190861
 20
2036.077276518358
 10
690.7571113358756
 20
2036.126675801973
 10
690.725445776141
 20
2036.174847333025
 10
690.6918791980233
 20
2036.22171404734
 10
690.656465300887
 20
2036.267200968172
 10
690.6192607394127
 20
2036.311235326152
 10
690.5803250329626
 20
2036.3537466757
 10
690.5397204703607
 20
2036.394667007725
 10
690.4975120102457
 20
2036.433930858426
 10
690.4635858787637
 20
2036.463310395782
  0
LWPOLYLINE
  5
163
330
87
100
AcDbEntity
  8
P-SANR-FIXT
100
AcDbPolyline
 90
       15
 70
   128
 43
0.0
 10
755.6858358009413
 20
2060.202267979326
 10
755.6769628183232
 20
2060.145307692664
 10
755.6703747370833
 20
2060.088038143488
 10
755.6660820967463
 20
2060.030550950861
 10
755.6640917646213
 20
2059.972938082028
 10
755.6644069248148
 20
2059.915291705288
 10
755.6670270731379
 20
2059.857704042547
 10
755.6719480179123
 20
2059.800267221782
 10
755.6791618866757
 20
2059.743073129651
 10
755.6886571387774
 20
2059.686213264503
 10
755.7004185838394
 20
2059.629778589991
 10
755.7144274060586
 20
2059.573859389557
 10
755.730661194308
 20
2059.518545121992
 10
755.7490939779889
 20
2059.463924278324
 10
755.7649472974137
 20
2059.421938425043
  0
LWPOLYLINE
  5
164
330
87
100
AcDbEntity
  8
P-SANR-FIXT
100
AcDbPolyline
 90
       15
 70
   128
 43
0.0
 10
689.7572481798656
 20
2037.055998098414
 10
689.6819495655899
 20
2037.12179160437
 10
689.609342220671
 20
2037.190543623988
 10
689.5395423013724
 20
2037.262144168704
 10
689.4726614726748
 20
2037.336478692921
 10
689.4088067296372
 20
2037.413428277256
 10
689.3480802262265
 20
2037.49286981879
 10
689.2905791118943
 20
2037.574676228004
 10
689.2363953761567
 20
2037.658716632091
 10
689.1856157014331
 20
2037.744856584336
 10
689.1383213243702
 20
2037.832958279189
 10
689.0945879058819
 20
2037.922880772733
 10
689.0544854101094
 20
2038.014480208161
 10
689.0180779924906
 20
2038.107610045914
 10
689.0149856521171
 20
2038.116058847897
  0
LWPOLYLINE
  5
165
330
87
100
AcDbEntity
  8
P-SANR-FIXT
100
AcDbPolyline
 90
       15
 70
   128
 43
0.0
 10
755.7331617279166
 20
2062.39948902402
 10
755.7654754877713
 20
2062.30486086932
 10
755.7939792831631
 20
2062.20901620131
 10
755.8186275140998
 20
2062.112108351011
 10
755.8393807486697
 20
2062.014292350313
 10
755.8562057861251
 20
2061.915724683949
 10
755.8690757099944
 20
2061.816563039159
 10
755.8779699311457
 20
2061.716966053422
 10
755.8828742207221
 20
2061.617093060669
 10
755.8837807329061
 20
2061.517103836382
 10
755.8806880174726
 20
2061.417158341992
 10
755.8736010221054
 20
2061.317416468967
 10
755.8625310844861
 20
2061.218037783029
 10
755.8474959141532
 20
2061.119181268873
 10
755.8459495584822
 20
2061.110318221538
  0
LINE
  5
166
330
87
100
AcDbEntity
  8
P-SANR-FIXT
100
AcDbLine
 10
769.3901677969326
 20
2066.287790053276
 30
0.0
 11
785.3471119495086
 21
2061.712209946714
 31
0.0
  0
LINE
  5
167
330
87
100
AcDbEntity
  8
P-SANR-FIXT
100
AcDbLine
 10
768.6573631757182
 20
2052.974025730871
 30
0.0
 11
763.7998308181123
 21
2036.033797225532
 31
0.0
  0
SPLINE
  5
168
330
87
100
AcDbEntity
  8
P-SANR-FIXT
100
AcDbSpline
210
0.0
220
0.0
230
1.0
 70
     8
 71
     3
 72
     8
 73
     4
 74
     0
 42
0.000000001
 43
0.0000000001
 40
0.0
 40
0.0
 40
0.0
 40
0.0
 40
0.0156138312398101
 40
0.0156138312398101
 40
0.0156138312398101
 40
0.0156138312398101
 10
763.7998308181123
 20
2036.033797225532
 30
0.0
 10
763.8152997880723
 20
2035.946181845828
 30
0.0
 10
763.831807537977
 20
2035.857630555085
 30
0.0
 10
763.8492366955857
 20
2035.768172962317
 30
0.0
  0
ARC
  5
169
330
87
100
AcDbEntity
  8
P-SANR-FIXT
100
AcDbCircle
 10
948.9402767040447
 20
2163.808854685166
 30
0.0
 40
211.6418405107579
100
AcDbArc
 50
210.3877987305226
 51
210.7817002862416
  0
LINE
  5
16A
330
87
100
AcDbEntity
  8
P-SANR-FIXT
100
AcDbLine
 10
767.113820241049
 20
2055.497228416831
 30
0.0
 11
782.02672252674
 21
2051.221022498137
 31
0.0
  0
LINE
  5
16B
330
87
100
AcDbEntity
  8
P-SANR-FIXT
100
AcDbLine
 10
766.4512358047897
 20
2057.020932101747
 30
0.0
 11
766.37349367607
 21
2056.749813079155
 31
0.0
  0
LINE
  5
16C
330
87
100
AcDbEntity
  8
P-SANR-FIXT
100
AcDbLine
 10
783.2636215784955
 20
2051.906646838259
 30
0.0
 11
766.3734936760702
 21
2056.749813079155
 31
0.0
  0
LINE
  5
16D
330
87
100
AcDbEntity
  8
P-SANR-FIXT
100
AcDbLine
 10
785.8270489875935
 20
2060.846380610485
 30
0.0
 11
768.5243384607039
 21
2065.807853015191
 31
0.0
  0
SPLINE
  5
16E
330
87
100
AcDbEntity
  8
P-SANR-FIXT
100
AcDbSpline
210
0.0
220
0.0
230
1.0
 70
     8
 71
     3
 72
    12
 73
     8
 74
     0
 42
0.000000001
 43
0.0000000001
 40
-1.0
 40
-1.0
 40
-1.0
 40
-1.0
 40
-0.5714285714285714
 40
-0.4285714285714286
 40
-0.2857142857142857
 40
-0.1428571428571428
 40
0.0
 40
0.0
 40
0.0
 40
0.0
 10
767.113820241049
 20
2055.497228416831
 30
0.0
 10
767.5698108984985
 20
2055.365063539246
 30
0.0
 10
768.1080658147077
 20
2055.007662185692
 30
0.0
 10
768.5333415033809
 20
2054.346913091673
 30
0.0
 10
768.6945754816417
 20
2053.904985258987
 30
0.0
 10
768.7465860983329
 20
2053.433837273452
 30
0.0
 10
768.7001604979293
 20
2053.127514487296
 30
0.0
 10
768.6573631757182
 20
2052.974025730871
 30
0.0
  0
LINE
  5
16F
330
87
100
AcDbEntity
  8
P-SANR-FIXT
100
AcDbLine
 10
756.2676966561853
 20
1974.473355616954
 30
0.0
 11
726.3366199819622
 21
1963.579334627997
 31
0.0
  0
SPLINE
  5
170
330
87
100
AcDbEntity
  8
P-SANR-FIXT
100
AcDbSpline
210
0.0
220
0.0
230
1.0
 70
     8
 71
     3
 72
     9
 73
     5
 74
     0
 42
0.000000001
 43
0.0000000001
 40
-1.0
 40
-1.0
 40
-1.0
 40
-1.0
 40
-0.5
 40
0.0
 40
0.0
 40
0.0
 40
0.0
 10
763.7998308181123
 20
2036.033797225532
 30
0.0
 10
762.6905012273246
 20
2039.697749921154
 30
0.0
 10
760.3330210579902
 20
2046.977738336577
 30
0.0
 10
757.6978989131379
 20
2054.161892800357
 30
0.0
 10
756.3109273468324
 20
2057.730011544335
 30
0.0
  0
LINE
  5
171
330
87
100
AcDbEntity
  8
P-SANR-FIXT
100
AcDbLine
 10
766.4512358047897
 20
2057.020932101747
 30
0.0
 11
756.3109273468324
 21
2057.730011544335
 31
0.0
  0
LINE
  5
172
330
87
100
AcDbEntity
  8
P-SANR-FIXT
100
AcDbLine
 10
788.3686398732202
 20
2038.049999999996
 30
0.0
 11
787.3686398732218
 21
2038.049999999996
 31
0.0
  0
LINE
  5
173
330
87
100
AcDbEntity
  8
P-SANR-FIXT
100
AcDbLine
 10
787.3686398732218
 20
1961.949999999995
 30
0.0
 11
788.3686398732202
 21
1961.949999999995
 31
0.0
  0
LINE
  5
174
330
87
100
AcDbEntity
  8
P-SANR-FIXT
100
AcDbLine
 10
787.3686398732218
 20
2038.049999999995
 30
0.0
 11
786.5026144694373
 21
2036.549999999996
 31
0.0
  0
LINE
  5
175
330
87
100
AcDbEntity
  8
P-SANR-FIXT
100
AcDbLine
 10
786.5026144694373
 20
1963.449999999996
 30
0.0
 11
787.3686398732218
 21
1961.949999999995
 31
0.0
  0
LINE
  5
176
330
87
100
AcDbEntity
  8
P-SANR-FIXT
100
AcDbLine
 10
785.3767814445176
 20
2035.899999999996
 30
0.0
 11
775.3783719288305
 21
2035.899999999996
 31
0.0
  0
LINE
  5
177
330
87
100
AcDbEntity
  8
P-SANR-FIXT
100
AcDbLine
 10
690.9364552274533
 20
2035.899999999996
 30
0.0
 11
679.3653415391031
 21
2035.899999999996
 31
0.0
  0
LINE
  5
178
330
87
100
AcDbEntity
  8
P-SANR-FIXT
100
AcDbLine
 10
679.3653415391031
 20
1964.099999999995
 30
0.0
 11
726.0742134078382
 21
1964.099999999995
 31
0.0
  0
LINE
  5
179
330
87
100
AcDbEntity
  8
P-SANR-FIXT
100
AcDbLine
 10
743.4489978743787
 20
1964.099999999995
 30
0.0
 11
785.3767814445176
 21
1964.099999999995
 31
0.0
  0
LINE
  5
17A
330
87
100
AcDbEntity
  8
P-SANR-FIXT
100
AcDbLine
 10
678.2322436584174
 20
2036.554194366428
 30
0.0
 11
677.3686398732215
 21
2038.049999999996
 31
0.0
  0
LINE
  5
17B
330
87
100
AcDbEntity
  8
P-SANR-FIXT
100
AcDbLine
 10
677.3686398732215
 20
1961.949999999995
 30
0.0
 11
678.2322436584174
 21
1963.445805633563
 31
0.0
  0
LINE
  5
17C
330
87
100
AcDbEntity
  8
P-SANR-FIXT
100
AcDbLine
 10
677.3686398732215
 20
2038.049999999996
 30
0.0
 11
676.3686398732241
 21
2038.049999999996
 31
0.0
  0
LINE
  5
17D
330
87
100
AcDbEntity
  8
P-SANR-FIXT
100
AcDbLine
 10
676.3686398732241
 20
1961.949999999995
 30
0.0
 11
677.3686398732215
 21
1961.949999999995
 31
0.0
  0
LWPOLYLINE
  5
17E
330
87
100
AcDbEntity
  8
P-SANR-FIXT
100
AcDbPolyline
 90
       28
 70
   128
 43
0.0
 10
786.5026144694373
 20
1963.449999999996
 10
786.4757208558786
 20
1963.494501382397
 10
786.4470691736894
 20
1963.537891710739
 10
786.4167052594495
 20
1963.580101569753
 10
786.3846776889445
 20
1963.621063432667
 10
786.3510376994545
 20
1963.66071176924
 10
786.315839107787
 20
1963.698983150592
 10
786.2791382241799
 20
1963.735816350674
 10
786.2409937622179
 20
1963.771152444227
 10
786.2014667449028
 20
1963.804934901036
 10
786.1606204070309
 20
1963.837109676378
 10
786.1185200940288
 20
1963.867625297477
 10
786.0752331574168
 20
1963.896432945847
 10
786.0308288470591
 20
1963.923486535398
 10
785.9853782003799
 20
1963.948742786155
 10
785.9389539287185
 20
1963.972161293508
 10
785.8916303010064
 20
1963.993704592838
 10
785.8434830249521
 20
1964.013338219463
 10
785.7945891259269
 20
1964.031030763769
 10
785.7450268237388
 20
1964.046753921458
 10
785.6948754074991
 20
1964.060482538833
 10
785.6442151087748
 20
1964.072194653035
 10
785.5931269732374
 20
1964.081871527179
 10
785.5416927310052
 20
1964.089497680331
 10
785.4899946658938
 20
1964.095060912272
 10
785.438115483779
 20
1964.098552323018
 10
785.3861381802854
 20
1964.099966327058
 10
785.3767814445176
 20
1964.099999999996
  0
LWPOLYLINE
  5
17F
330
87
100
AcDbEntity
  8
P-SANR-FIXT
100
AcDbPolyline
 90
       28
 70
   128
 43
0.0
 10
785.3767814445176
 20
2035.899999999995
 10
785.4287675789602
 20
2035.901039861336
 10
785.4806705466775
 20
2035.904157781802
 10
785.5324073139931
 20
2035.909348773385
 10
785.5838951131161
 20
2035.916604531607
 10
785.6350515745512
 20
2035.925913448802
 10
785.6857948588729
 20
2035.937260632687
 10
785.7360437876509
 20
2035.950627930191
 10
785.7857179733184
 20
2035.965993956488
 10
785.8347379477752
 20
2035.983334129214
 10
785.8830252895188
 20
2036.002620707792
 10
785.9305027491034
 20
2036.02382283781
 10
785.9770943727214
 20
2036.046906600382
 10
786.0227256237146
 20
2036.071835066414
 10
786.0673235018148
 20
2036.098568355678
 10
786.1108166599312
 20
2036.127063700613
 10
786.1531355182887
 20
2036.157275514746
 10
786.1942123757415
 20
2036.189155465619
 10
786.2339815180804
 20
2036.222652552112
 10
786.2723793231613
 20
2036.257713186032
 10
786.3093443626869
 20
2036.294281277844
 10
786.3448175004797
 20
2036.332298326402
 10
786.3787419870861
 20
2036.371703512537
 10
786.4110635505649
 20
2036.412433796359
 10
786.4417304833088
 20
2036.454424018101
 10
786.4706937247677
 20
2036.497607002367
 10
786.4979069399339
 20
2036.541913665593
 10
786.5026144694373
 20
2036.549999999996
  0
LWPOLYLINE
  5
180
330
87
100
AcDbEntity
  8
P-SANR-FIXT
100
AcDbPolyline
 90
       28
 70
   128
 43
0.0
 10
679.3653415391031
 20
1964.099999999995
 10
679.3130199448186
 20
1964.098953428563
 10
679.2607820539235
 20
1964.095815388558
 10
679.2087114359
 20
1964.090590900173
 10
679.156891392629
 20
1964.083288321476
 10
679.1054048251253
 20
1964.073919335035
 10
679.0543341009138
 20
1964.062498929231
 10
679.0037609222585
 20
1964.049045374275
 10
678.9537661954572
 20
1964.033580192986
 10
678.9044299014078
 20
1964.016128126355
 10
678.8558309676558
 20
1963.996717093965
 10
678.8080471421286
 20
1963.975378149328
 10
678.7611548687534
 20
1963.952145430203
 10
678.7152291651645
 20
1963.927056103985
 10
678.6703435026906
 20
1963.900150308243
 10
678.6265696888165
 20
1963.871471086511
 10
678.5839777523068
 20
1963.841064319425
 10
678.5426358311739
 20
1963.808978651328
 10
678.5026100636724
 20
1963.775265412442
 10
678.4639644824921
 20
1963.739978536759
 10
678.4267609123187
 20
1963.703174475752
 10
678.3910588709286
 20
1963.664912108068
 10
678.3569154739715
 20
1963.625252645332
 10
678.3243853435991
 20
1963.584259534226
 10
678.2935205210808
 20
1963.541998354981
 10
678.2643703835484
 20
1963.49853671647
 10
678.2369815650037
 20
1963.453944148042
 10
678.2322436584174
 20
1963.445805633563
  0
LWPOLYLINE
  5
181
330
87
100
AcDbEntity
  8
P-SANR-FIXT
100
AcDbPolyline
 90
       28
 70
   128
 43
0.0
 10
678.2322436584174
 20
2036.554194366428
 10
678.259310813007
 20
2036.509405822327
 10
678.2881473808175
 20
2036.465735501774
 10
678.3187072294923
 20
2036.423253267968
 10
678.3509414697923
 20
2036.382027083418
 10
678.3847985338093
 20
2036.342122901226
 10
678.4202242574636
 20
2036.303604559572
 10
678.4571619671543
 20
2036.266533679584
 10
678.4955525704251
 20
2036.230969566764
 10
678.5353346505011
 20
2036.196969116104
 10
678.57644456454
 20
2036.164586721072
 10
678.6188165454491
 20
2036.133874186594
 10
678.6623828070978
 20
2036.104880646173
 10
678.7070736527613
 20
2036.077652483287
 10
678.75281758662
 20
2036.052233257191
 10
678.799541428138
 20
2036.028663633221
 10
678.8471704291356
 20
2036.00698131775
 10
678.8956283933722
 20
2035.987220997856
 10
678.9448377984418
 20
2035.969414285837
 10
678.9947199197935
 20
2035.953589668633
 10
679.0451949566745
 20
2035.939772462254
 10
679.0961821597932
 20
2035.927984771285
 10
679.1475999605011
 20
2035.918245453517
 10
679.1993661012859
 20
2035.910570089779
 10
679.2513977673648
 20
2035.904970959018
 10
679.3036117191718
 20
2035.901457018646
 10
679.3559244255223
 20
2035.90003389022
 10
679.3653415391031
 20
2035.899999999996
  0
LINE
  5
182
330
87
100
AcDbEntity
  8
P-SANR-FIXT
100
AcDbLine
 10
787.3686398732205
 20
2038.049999999994
 30
0.0
 11
787.3686398732205
 21
1961.949999999995
 31
0.0
  0
LINE
  5
183
330
87
100
AcDbEntity
  8
P-SANR-FIXT
100
AcDbLine
 10
677.3686398732206
 20
2038.049999999995
 30
0.0
 11
677.3686398732206
 21
1961.949999999995
 31
0.0
  0
ENDBLK
  5
185
330
87
100
AcDbEntity
  8
0
100
AcDbBlockEnd
  0
BLOCK
  5
27D
330
187
100
AcDbEntity
  8
0
100
AcDbBlockBegin
  2
Automatic flow rate regulator valve_Caleffi_121 DN15 - 2___Pressure gauge H-V1-Est - Idraulica
 70
     0
 10
0.0
 20
0.0
 30
0.0
  3
Automatic flow rate regulator valve_Caleffi_121 DN15 - 2___Pressure gauge H-V1-Est - Idraulica
  1

  0
LINE
  5
188
330
187
100
AcDbEntity
  8
M-PIPE
100
AcDbLine
 10
788.2530570872569
 20
1674.655266574673
 30
0.0
 11
788.2530570872569
 21
1672.655266574674
 31
0.0
1001
REVIT
1002
{
1070
     3
1000
923236
1002
}
  0
LINE
  5
189
330
187
100
AcDbEntity
  8
M-PIPE
100
AcDbLine
 10
796.2530570872571
 20
1672.655266574674
 30
0.0
 11
796.2530570872571
 21
1674.655266574673
 31
0.0
1001
REVIT
1002
{
1070
     3
1000
923236
1002
}
  0
LINE
  5
18A
330
187
100
AcDbEntity
  8
M-PIPE
100
AcDbLine
 10
788.4080103035024
 20
1672.655266574673
 30
0.0
 11
788.2530570872554
 21
1672.655266574673
 31
0.0
1001
REVIT
1002
{
1070
     3
1000
923236
1002
}
  0
LINE
  5
18B
330
187
100
AcDbEntity
  8
M-PIPE
100
AcDbLine
 10
796.252447867881
 20
1672.655266574673
 30
0.0
 11
788.4080103035024
 21
1672.655266574673
 31
0.0
1001
REVIT
1002
{
1070
     3
1000
923236
1002
}
  0
LINE
  5
18C
330
187
100
AcDbEntity
  8
M-PIPE
100
AcDbLine
 10
761.2530570872571
 20
1702.655266574674
 30
0.0
 11
761.2530570872569
 21
1674.655266574674
 31
0.0
1001
REVIT
1002
{
1070
     3
1000
923236
1002
}
  0
LINE
  5
18D
330
187
100
AcDbEntity
  8
M-PIPE
100
AcDbLine
 10
823.2530570872571
 20
1674.655266574674
 30
0.0
 11
823.2530570872572
 21
1702.655266574674
 31
0.0
1001
REVIT
1002
{
1070
     3
1000
923236
1002
}
  0
LINE
  5
18E
330
187
100
AcDbEntity
  8
M-PIPE
100
AcDbLine
 10
762.4539445131679
 20
1674.655266574673
 30
0.0
 11
761.2530570872555
 21
1674.655266574673
 31
0.0
1001
REVIT
1002
{
1070
     3
1000
923236
1002
}
  0
LINE
  5
18F
330
187
100
AcDbEntity
  8
M-PIPE
100
AcDbLine
 10
823.2483356371036
 20
1674.655266574674
 30
0.0
 11
762.4539445131678
 21
1674.655266574673
 31
0.0
1001
REVIT
1002
{
1070
     3
1000
923236
1002
}
  0
LINE
  5
190
330
187
100
AcDbEntity
  8
M-PIPE
100
AcDbLine
 10
762.4539445131678
 20
1702.655266574673
 30
0.0
 11
823.2483356371036
 21
1702.655266574673
 31
0.0
1001
REVIT
1002
{
1070
     3
1000
923236
1002
}
  0
LINE
  5
191
330
187
100
AcDbEntity
  8
M-PIPE
100
AcDbLine
 10
761.2530570872555
 20
1702.655266574673
 30
0.0
 11
762.4539445131678
 21
1702.655266574673
 31
0.0
1001
REVIT
1002
{
1070
     3
1000
923236
1002
}
  0
LINE
  5
192
330
187
100
AcDbEntity
  8
M-PIPE
100
AcDbLine
 10
691.024907203649
 20
1725.250666260523
 30
0.0
 11
689.1801208431699
 21
1724.841949321466
 31
0.0
1001
REVIT
1002
{
1070
     3
1000
923097
1002
}
  0
LWPOLYLINE
  5
193
330
187
100
AcDbEntity
  8
M-PIPE
100
AcDbPolyline
 90
        4
 70
   128
 43
0.0
 10
686.479539839919
 20
1724.136981478193
 10
684.0066256499514
 20
1723.375313320264
 10
681.6173513320237
 20
1722.527858139547
 10
681.1148522524336
 20
1722.335019895262
1001
REVIT
1002
{
1070
     3
1000
923097
1002
}
  0
LWPOLYLINE
  5
194
330
187
100
AcDbEntity
  8
M-PIPE
100
AcDbPolyline
 90
        4
 70
   128
 43
0.0
 10
681.1148522524369
 20
1662.975513253967
 10
683.485064119971
 20
1662.110628949857
 10
685.940691436511
 20
1661.329848594138
 10
686.4795398399162
 20
1661.173551671038
1001
REVIT
1002
{
1070
     3
1000
923097
1002
}
  0
LINE
  5
195
330
187
100
AcDbEntity
  8
M-PIPE
100
AcDbLine
 10
689.1801208431748
 20
1660.468583827764
 30
0.0
 11
691.0249072036537
 21
1660.059866888707
 31
0.0
1001
REVIT
1002
{
1070
     3
1000
923097
1002
}
  0
ELLIPSE
  5
196
330
187
100
AcDbEntity
  8
M-PIPE
100
AcDbEllipse
 10
696.9516729935036
 20
1692.655266574615
 30
0.0
 11
0.0
 21
33.20000000000005
 31
0.0
210
0.0
220
0.0
230
1.0
 40
0.9396926207859133
 41
4.712388980384691
 42
6.457718232379031
1001
REVIT
1002
{
1070
     3
1000
923097
1002
}
  0
ELLIPSE
  5
197
330
187
100
AcDbEntity
  8
M-PIPE
100
AcDbEllipse
 10
768.7441763190141
 20
1435.636496929272
 30
0.0
 11
-82.2646364790974
 21
288.5004845489207
 31
0.0
210
0.0
220
0.0
230
1.0
 40
0.33036608954929
 41
6.268322533308618
 42
6.313560025996039
1001
REVIT
1002
{
1070
     3
1000
923097
1002
}
  0
ELLIPSE
  5
198
330
187
100
AcDbEntity
  8
M-PIPE
100
AcDbEllipse
 10
695.9256125635347
 20
1692.655266574615
 30
0.0
 11
0.0
 21
32.97744693864711
 31
0.0
210
0.0
220
0.0
230
1.0
 40
0.9396926207859138
 41
6.021385919379932
 42
6.544984694979285
1001
REVIT
1002
{
1070
     3
1000
923097
1002
}
  0
ELLIPSE
  5
199
330
187
100
AcDbEntity
  8
M-PIPE
100
AcDbEllipse
 10
639.3147265645217
 20
1435.636496929268
 30
0.0
 11
82.26463647908351
 21
288.5004845489249
 31
0.0
210
0.0
220
0.0
230
1.0
 40
0.3303660895492804
 41
0.1729877240759607
 42
0.2182252167633769
1001
REVIT
1002
{
1070
     3
1000
923097
1002
}
  0
ELLIPSE
  5
19A
330
187
100
AcDbEntity
  8
M-PIPE
100
AcDbEllipse
 10
639.3147265645084
 20
1949.67403621996
 30
0.0
 11
-82.26463647909483
 21
288.5004845489216
 31
0.0
210
0.0
220
0.0
230
0.9999999999999998
 40
0.3303660895492906
 41
2.923367436826443
 42
2.968604929513856
1001
REVIT
1002
{
1070
     3
1000
923097
1002
}
  0
ELLIPSE
  5
19B
330
187
100
AcDbEntity
  8
M-PIPE
100
AcDbEllipse
 10
695.9256125635347
 20
1692.655266574615
 30
0.0
 11
0.0
 21
32.9774469386471
 31
0.0
210
0.0
220
0.0
230
1.0
 40
0.9396926207859179
 41
2.879793265790113
 42
3.403392041389457
1001
REVIT
1002
{
1070
     3
1000
923097
1002
}
  0
ELLIPSE
  5
19C
330
187
100
AcDbEntity
  8
M-PIPE
100
AcDbEllipse
 10
768.7441763190017
 20
1949.674036219962
 30
0.0
 11
82.26463647908797
 21
288.5004845489234
 31
0.0
210
0.0
220
0.0
230
1.0
 40
0.3303660895492797
 41
3.111217934773394
 42
3.156455427460799
1001
REVIT
1002
{
1070
     3
1000
923097
1002
}
  0
ELLIPSE
  5
19D
330
187
100
AcDbEntity
  8
M-PIPE
100
AcDbEllipse
 10
696.9516729935036
 20
1692.655266574615
 30
0.0
 11
0.0
 21
33.19999999999984
 31
0.0
210
0.0
220
0.0
230
1.0
 40
0.9396926207859214
 41
2.967059728390363
 42
4.712388980384685
1001
REVIT
1002
{
1070
     3
1000
923097
1002
}
  0
ELLIPSE
  5
19E
330
187
100
AcDbEntity
  8
M-PIPE
100
AcDbEllipse
 10
691.3083406286299
 20
1692.655266574615
 30
0.0
 11
0.0
 21
31.59999999999968
 31
0.0
210
0.0
220
0.0
230
1.0
 40
0.939692620785914
 41
4.712388980384699
 42
6.021385919379915
1001
REVIT
1002
{
1070
     3
1000
923097
1002
}
  0
LINE
  5
19F
330
187
100
AcDbEntity
  8
M-PIPE
100
AcDbLine
 10
698.9937875875784
 20
1723.178522685344
 30
0.0
 11
698.9724342295796
 21
1723.093716425083
 31
0.0
1001
REVIT
1002
{
1070
     3
1000
923097
1002
}
  0
LINE
  5
1A0
330
187
100
AcDbEntity
  8
M-PIPE
100
AcDbLine
 10
683.6442470276788
 20
1723.093716425083
 30
0.0
 11
683.62289366968
 21
1723.178522685344
 31
0.0
1001
REVIT
1002
{
1070
     3
1000
923097
1002
}
  0
ELLIPSE
  5
1A1
330
187
100
AcDbEntity
  8
M-PIPE
100
AcDbEllipse
 10
691.3083406286306
 20
1692.655266574615
 30
0.0
 11
0.0
 21
31.60000000000018
 31
0.0
210
0.0
220
0.0
230
0.9999999999999998
 40
0.9396926207859049
 41
0.2617993877997293
 42
0.4887340612400982
1001
REVIT
1002
{
1070
     3
1000
923097
1002
}
  0
ELLIPSE
  5
1A2
330
187
100
AcDbEntity
  8
M-PIPE
100
AcDbEllipse
 10
691.3083406286299
 20
1692.655266574615
 30
0.0
 11
0.0
 21
31.59999999999963
 31
0.0
210
0.0
220
0.0
230
1.0
 40
0.9396926207859209
 41
2.653551520545151
 42
2.8797932657901
1001
REVIT
1002
{
1070
     3
1000
923097
1002
}
  0
LINE
  5
1A3
330
187
100
AcDbEntity
  8
M-PIPE
100
AcDbLine
 10
683.6228936696808
 20
1662.132010463885
 30
0.0
 11
683.6442470276986
 21
1662.216816724221
 31
0.0
1001
REVIT
1002
{
1070
     3
1000
923097
1002
}
  0
LINE
  5
1A4
330
187
100
AcDbEntity
  8
M-PIPE
100
AcDbLine
 10
698.9724342295617
 20
1662.216816724221
 30
0.0
 11
698.9937875875795
 21
1662.132010463885
 31
0.0
1001
REVIT
1002
{
1070
     3
1000
923097
1002
}
  0
ELLIPSE
  5
1A5
330
187
100
AcDbEntity
  8
M-PIPE
100
AcDbEllipse
 10
691.3083406286306
 20
1692.655266574615
 30
0.0
 11
0.0
 21
31.59999999999991
 31
0.0
210
0.0
220
0.0
230
1.0
 40
0.939692620785912
 41
3.403392041389501
 42
4.712388980384692
1001
REVIT
1002
{
1070
     3
1000
923097
1002
}
  0
LINE
  5
1A6
330
187
100
AcDbEntity
  8
M-PIPE
100
AcDbLine
 10
687.9051562569353
 20
1724.509034257727
 30
0.0
 11
688.0401099011111
 21
1723.973057018372
 31
0.0
1001
REVIT
1002
{
1070
     3
1000
923097
1002
}
  0
LINE
  5
1A7
330
187
100
AcDbEntity
  8
M-PIPE
100
AcDbLine
 10
688.0401099011313
 20
1661.337476130935
 30
0.0
 11
687.9051562569358
 21
1660.801498891503
 31
0.0
1001
REVIT
1002
{
1070
     3
1000
923097
1002
}
  0
LINE
  5
1A8
330
187
100
AcDbEntity
  8
M-PIPE
100
AcDbLine
 10
713.3686398731425
 20
1729.155266574631
 30
0.0
 11
712.0005592998467
 21
1729.155266574631
 31
0.0
1001
REVIT
1002
{
1070
     3
1000
923097
1002
}
  0
LINE
  5
1A9
330
187
100
AcDbEntity
  8
M-PIPE
100
AcDbLine
 10
712.0005592998492
 20
1656.15526657464
 30
0.0
 11
713.3686398731454
 21
1656.15526657464
 31
0.0
1001
REVIT
1002
{
1070
     3
1000
923097
1002
}
  0
LWPOLYLINE
  5
1AA
330
187
100
AcDbEntity
  8
M-PIPE
100
AcDbPolyline
 90
        9
 70
   128
 43
0.0
 10
711.210860216859
 20
1726.471807180522
 10
708.459070164751
 20
1726.718105850518
 10
705.6873253378078
 20
1726.847734932967
 10
702.9080756326874
 20
1726.859355640063
 10
700.1338678978854
 20
1726.752847766267
 10
697.3771838284922
 20
1726.529311875597
 10
694.6502792700999
 20
1726.191049299097
 10
691.9650283899849
 20
1725.741520479935
 10
690.9753545507617
 20
1725.546026888543
1001
REVIT
1002
{
1070
     3
1000
923097
1002
}
  0
LWPOLYLINE
  5
1AB
330
187
100
AcDbEntity
  8
M-PIPE
100
AcDbPolyline
 90
        9
 70
   128
 43
0.0
 10
690.9753545507639
 20
1659.764506260728
 10
693.642110102157
 20
1659.274542722813
 10
696.3548250097978
 20
1658.894268077298
 10
699.1018060258384
 20
1658.627560686269
 10
701.8709219616896
 20
1658.477160697606
 10
704.6497568419896
 20
1658.444620560512
 10
707.425769181581
 20
1658.53027684361
 10
710.1864539746673
 20
1658.73324411128
 10
711.2108602168612
 20
1658.838725968749
1001
REVIT
1002
{
1070
     3
1000
923097
1002
}
  0
ELLIPSE
  5
1AC
330
187
100
AcDbEntity
  8
M-PIPE
100
AcDbEllipse
 10
713.3686398731425
 20
1692.655266574635
 30
0.0
 11
0.0
 21
36.49999999999546
 31
0.0
210
0.0
220
0.0
230
1.0
 40
0.9396926207859113
 41
4.712388980384697
 42
6.283185307179601
1001
REVIT
1002
{
1070
     3
1000
923097
1002
}
  0
ELLIPSE
  5
1AD
330
187
100
AcDbEntity
  8
M-PIPE
100
AcDbEllipse
 10
712.0005592998467
 20
1692.655266574635
 30
0.0
 11
0.0
 21
36.49999999999533
 31
0.0
210
0.0
220
0.0
230
1.0
 40
0.9396926207859197
 41
5.995503207762012
 42
6.570867406597169
1001
REVIT
1002
{
1070
     3
1000
923097
1002
}
  0
LINE
  5
1AE
330
187
100
AcDbEntity
  8
M-PIPE
100
AcDbLine
 10
721.73216416559
 20
1727.655266574619
 30
0.0
 11
717.6279224456751
 21
1727.655266574619
 31
0.0
1001
REVIT
1002
{
1070
     3
1000
923097
1002
}
  0
LINE
  5
1AF
330
187
100
AcDbEntity
  8
M-PIPE
100
AcDbLine
 10
724.271239641168
 20
1724.726913174097
 30
0.0
 11
728.3754813610826
 21
1724.726913174097
 31
0.0
1001
REVIT
1002
{
1070
     3
1000
923097
1002
}
  0
ELLIPSE
  5
1B0
330
187
100
AcDbEntity
  8
M-PIPE
100
AcDbEllipse
 10
712.0005592998466
 20
1692.655266574635
 30
0.0
 11
0.0
 21
36.49999999999554
 31
0.0
210
0.0
220
0.0
230
1.0
 40
0.9396926207859131
 41
5.210105044365881
 42
5.785469243198394
1001
REVIT
1002
{
1070
     3
1000
923097
1002
}
  0
LINE
  5
1B1
330
187
100
AcDbEntity
  8
M-PIPE
100
AcDbLine
 10
742.138048945814
 20
1710.081094658228
 30
0.0
 11
738.0338072258994
 21
1710.081094658228
 31
0.0
1001
REVIT
1002
{
1070
     3
1000
923097
1002
}
  0
LINE
  5
1B2
330
187
100
AcDbEntity
  8
M-PIPE
100
AcDbLine
 10
740.7855593074499
 20
1703.011424163184
 30
0.0
 11
744.8898010273644
 21
1703.011424163184
 31
0.0
1001
REVIT
1002
{
1070
     3
1000
923097
1002
}
  0
ELLIPSE
  5
1B3
330
187
100
AcDbEntity
  8
M-PIPE
100
AcDbEllipse
 10
712.0005592998463
 20
1692.655266574635
 30
0.0
 11
0.0
 21
36.49999999999574
 31
0.0
210
0.0
220
0.0
230
1.0
 40
0.9396926207859113
 41
4.712388980384697
 42
5.000071079799448
1001
REVIT
1002
{
1070
     3
1000
923097
1002
}
  0
ELLIPSE
  5
1B4
330
187
100
AcDbEntity
  8
M-PIPE
100
AcDbEllipse
 10
713.3686398731425
 20
1692.655266574635
 30
0.0
 11
0.0000000000002697
 21
36.49999999999591
 31
0.0
210
0.0
220
0.0
230
1.0
 40
0.9396926207858998
 41
3.141592653589831
 42
4.712388980384696
1001
REVIT
1002
{
1070
     3
1000
923097
1002
}
  0
ELLIPSE
  5
1B5
330
187
100
AcDbEntity
  8
M-PIPE
100
AcDbEllipse
 10
712.0005592998463
 20
1692.655266574635
 30
0.0
 11
0.0
 21
36.49999999999591
 31
0.0
210
0.0
220
0.0
230
1.0
 40
0.9396926207859028
 41
4.424706880969917
 42
4.712388980384697
1001
REVIT
1002
{
1070
     3
1000
923097
1002
}
  0
LINE
  5
1B6
330
187
100
AcDbEntity
  8
M-PIPE
100
AcDbLine
 10
744.8898010273642
 20
1682.299108986087
 30
0.0
 11
740.7855593074498
 21
1682.299108986087
 31
0.0
1001
REVIT
1002
{
1070
     3
1000
923097
1002
}
  0
LINE
  5
1B7
330
187
100
AcDbEntity
  8
M-PIPE
100
AcDbLine
 10
738.0338072258636
 20
1675.229438490972
 30
0.0
 11
742.138048945778
 21
1675.229438490972
 31
0.0
1001
REVIT
1002
{
1070
     3
1000
923097
1002
}
  0
ELLIPSE
  5
1B8
330
187
100
AcDbEntity
  8
M-PIPE
100
AcDbEllipse
 10
712.0005592998462
 20
1692.655266574635
 30
0.0
 11
0.0
 21
36.49999999999557
 31
0.0
210
0.0
220
0.0
230
1.0
 40
0.9396926207859138
 41
3.639308717573257
 42
4.214672916401191
1001
REVIT
1002
{
1070
     3
1000
923097
1002
}
  0
LINE
  5
1B9
330
187
100
AcDbEntity
  8
M-PIPE
100
AcDbLine
 10
728.3754813611477
 20
1660.583619975212
 30
0.0
 11
724.2712396412334
 21
1660.583619975212
 31
0.0
1001
REVIT
1002
{
1070
     3
1000
923097
1002
}
  0
LINE
  5
1BA
330
187
100
AcDbEntity
  8
M-PIPE
100
AcDbLine
 10
717.6279224455734
 20
1657.655266574619
 30
0.0
 11
721.7321641654879
 21
1657.655266574619
 31
0.0
1001
REVIT
1002
{
1070
     3
1000
923097
1002
}
  0
ELLIPSE
  5
1BB
330
187
100
AcDbEntity
  8
M-PIPE
100
AcDbEllipse
 10
712.0005592998462
 20
1692.655266574635
 30
0.0
 11
0.0
 21
36.49999999999571
 31
0.0
210
0.0
220
0.0
230
1.0
 40
0.9396926207859067
 41
2.853910554175448
 42
3.42927475300411
1001
REVIT
1002
{
1070
     3
1000
923097
1002
}
  0
LINE
  5
1BC
330
187
100
AcDbEntity
  8
M-PIPE
100
AcDbLine
 10
740.7855593074503
 20
1692.655266574635
 30
0.0
 11
740.7855593074503
 21
1703.011424163182
 31
0.0
1001
REVIT
1002
{
1070
     3
1000
923097
1002
}
  0
ELLIPSE
  5
1BD
330
187
100
AcDbEntity
  8
M-PIPE
100
AcDbEllipse
 10
707.8963175799318
 20
1692.655266574635
 30
0.0
 11
0.0
 21
36.49999999999535
 31
0.0
210
0.0
220
0.0
230
1.0
 40
0.9396926207859197
 41
5.000071079799456
 42
5.210105044365883
1001
REVIT
1002
{
1070
     3
1000
923097
1002
}
  0
LINE
  5
1BE
330
187
100
AcDbEntity
  8
M-PIPE
100
AcDbLine
 10
738.0338072258997
 20
1710.081094658227
 30
0.0
 11
724.2712396411675
 21
1724.726913174097
 31
0.0
1001
REVIT
1002
{
1070
     3
1000
923097
1002
}
  0
ELLIPSE
  5
1BF
330
187
100
AcDbEntity
  8
M-PIPE
100
AcDbEllipse
 10
707.8963175799318
 20
1692.655266574635
 30
0.0
 11
0.0
 21
36.49999999999535
 31
0.0
210
0.0
220
0.0
230
1.0
 40
0.9396926207859186
 41
5.785469243198388
 42
5.995503207762024
1001
REVIT
1002
{
1070
     3
1000
923097
1002
}
  0
LINE
  5
1C0
330
187
100
AcDbEntity
  8
M-PIPE
100
AcDbLine
 10
717.6279224456773
 20
1727.655266574618
 30
0.0
 11
698.1647127141866
 21
1727.655266574618
 31
0.0
1001
REVIT
1002
{
1070
     3
1000
923097
1002
}
  0
ELLIPSE
  5
1C1
330
187
100
AcDbEntity
  8
M-PIPE
100
AcDbEllipse
 10
707.8963175799318
 20
1692.655266574635
 30
0.0
 11
0.0
 21
36.4999999999957
 31
0.0
210
0.0
220
0.0
230
0.9999999999999998
 40
0.9396926207859072
 41
0.2876820994175684
 42
0.4177165670497139
1001
REVIT
1002
{
1070
     3
1000
923097
1002
}
  0
ELLIPSE
  5
1C2
330
187
100
AcDbEntity
  8
M-PIPE
100
AcDbEllipse
 10
707.8963175799318
 20
1692.655266574635
 30
0.0
 11
0.0
 21
36.49999999999562
 31
0.0
210
0.0
220
0.0
230
1.0
 40
0.9396926207859063
 41
2.728887336092974
 42
2.853910554175451
1001
REVIT
1002
{
1070
     3
1000
923097
1002
}
  0
LINE
  5
1C3
330
187
100
AcDbEntity
  8
M-PIPE
100
AcDbLine
 10
698.1647127142925
 20
1657.655266574619
 30
0.0
 11
717.6279224455716
 21
1657.655266574619
 31
0.0
1001
REVIT
1002
{
1070
     3
1000
923097
1002
}
  0
ELLIPSE
  5
1C4
330
187
100
AcDbEntity
  8
M-PIPE
100
AcDbEllipse
 10
707.8963175799318
 20
1692.655266574635
 30
0.0
 11
0.0
 21
36.49999999999564
 31
0.0
210
0.0
220
0.0
230
1.0
 40
0.9396926207859042
 41
3.429274753004148
 42
3.639308717573261
1001
REVIT
1002
{
1070
     3
1000
923097
1002
}
  0
LINE
  5
1C5
330
187
100
AcDbEntity
  8
M-PIPE
100
AcDbLine
 10
724.2712396412358
 20
1660.583619975213
 30
0.0
 11
738.0338072258624
 21
1675.22943849097
 31
0.0
1001
REVIT
1002
{
1070
     3
1000
923097
1002
}
  0
ELLIPSE
  5
1C6
330
187
100
AcDbEntity
  8
M-PIPE
100
AcDbEllipse
 10
707.8963175799318
 20
1692.655266574635
 30
0.0
 11
0.0
 21
36.49999999999565
 31
0.0
210
0.0
220
0.0
230
1.0
 40
0.9396926207859102
 41
4.214672916401219
 42
4.424706880969909
1001
REVIT
1002
{
1070
     3
1000
923097
1002
}
  0
LINE
  5
1C7
330
187
100
AcDbEntity
  8
M-PIPE
100
AcDbLine
 10
740.7855593074502
 20
1682.299108986088
 30
0.0
 11
740.7855593074503
 21
1692.655266574635
 31
0.0
1001
REVIT
1002
{
1070
     3
1000
923097
1002
}
  0
ELLIPSE
  5
1C8
330
187
100
AcDbEntity
  8
M-PIPE
100
AcDbEllipse
 10
707.896317579932
 20
1692.655266574635
 30
0.0
 11
0.0
 21
33.99999999999883
 31
0.0
210
0.0
220
0.0
230
1.0
 40
0.9396926207859104
 41
4.712388980384698
 42
6.195918844579882
1001
REVIT
1002
{
1070
     3
1000
923097
1002
}
  0
ELLIPSE
  5
1C9
330
187
100
AcDbEntity
  8
M-PIPE
100
AcDbEllipse
 10
707.896317579932
 20
1692.655266574635
 30
0.0
 11
0.0
 21
33.99999999999887
 31
0.0
210
0.0
220
0.0
230
1.0
 40
0.9396926207859117
 41
3.228859116189511
 42
4.712388980384691
1001
REVIT
1002
{
1070
     3
1000
923097
1002
}
  0
ELLIPSE
  5
1CA
330
187
100
AcDbEntity
  8
M-PIPE
100
AcDbEllipse
 10
696.9516729935109
 20
1692.655266574635
 30
0.0
 11
0.0
 21
33.4999999999971
 31
0.0
210
0.0
220
0.0
230
1.0
 40
0.9396926207859008
 41
4.712388980384705
 42
6.647460048874369
1001
REVIT
1002
{
1070
     3
1000
923097
1002
}
  0
ELLIPSE
  5
1CB
330
187
100
AcDbEntity
  8
M-PIPE
100
AcDbEllipse
 10
696.9516729935109
 20
1692.655266574635
 30
0.0
 11
0.0
 21
33.49999999999659
 31
0.0
210
0.0
220
0.0
230
1.0
 40
0.9396926207859198
 41
2.777317911895043
 42
4.712388980384691
1001
REVIT
1002
{
1070
     3
1000
923097
1002
}
  0
LINE
  5
1CC
330
187
100
AcDbEntity
  8
M-PIPE
100
AcDbLine
 10
728.375481361082
 20
1724.726913174097
 30
0.0
 11
742.1380489458144
 21
1710.081094658227
 31
0.0
1001
REVIT
1002
{
1070
     3
1000
923097
1002
}
  0
LINE
  5
1CD
330
187
100
AcDbEntity
  8
M-PIPE
100
AcDbLine
 10
744.889801027365
 20
1703.011424163182
 30
0.0
 11
744.8898010273648
 21
1682.299108986088
 31
0.0
1001
REVIT
1002
{
1070
     3
1000
923097
1002
}
  0
LINE
  5
1CE
330
187
100
AcDbEntity
  8
M-PIPE
100
AcDbLine
 10
742.1380489457766
 20
1675.22943849097
 30
0.0
 11
728.3754813611507
 21
1660.583619975214
 31
0.0
1001
REVIT
1002
{
1070
     3
1000
923097
1002
}
  0
LWPOLYLINE
  5
1CF
330
187
100
AcDbEntity
  8
P-SANR-FIXT
100
AcDbPolyline
 90
       22
 70
   128
 43
0.0
 10
664.2683233109076
 20
1711.573651897701
 10
663.559101347141
 20
1710.863953192719
 10
662.8784240113396
 20
1710.126059091466
 10
662.2272563981222
 20
1709.361241121536
 10
661.6065074940548
 20
1708.570798030907
 10
661.0170307912977
 20
1707.756053044713
 10
660.4596250016254
 20
1706.918351336957
 10
659.9350348398806
 20
1706.059057710076
 10
659.4439518493027
 20
1705.179554472302
 10
658.9870152446405
 20
1704.281239500426
 10
658.5648127523985
 20
1703.365524474034
 10
658.1778814308542
 20
1702.433833266298
 10
657.8267084555597
 20
1701.487600475947
 10
657.5117318588237
 20
1700.528270085046
 10
657.2333412141386
 20
1699.557294227538
 10
656.9918782586532
 20
1698.576132054028
 10
656.7876374485712
 20
1697.586248679117
 10
656.6208664438318
 20
1696.589114198325
 10
656.4917665195724
 20
1695.586202762609
 10
656.4004929027525
 20
1694.578991699234
 10
656.3471550329583
 20
1693.568960668584
 10
656.3316394902317
 20
1692.655266574655
  0
LWPOLYLINE
  5
1D0
330
187
100
AcDbEntity
  8
P-SANR-FIXT
100
AcDbPolyline
 90
       22
 70
   128
 43
0.0
 10
656.3316394902317
 20
1692.655266574655
 10
656.3506485587526
 20
1691.643961395253
 10
656.4076530323982
 20
1690.634138073662
 10
656.5025846770132
 20
1689.627277675039
 10
656.6353296410264
 20
1688.624859670465
 10
656.8057282636342
 20
1687.628361117776
 10
657.0135748066469
 20
1686.639255815335
 10
657.2586171105853
 20
1685.659013418904
 10
657.5405561760658
 20
1684.68909851109
 10
657.8590456721677
 20
1683.730969612099
 10
658.213691374375
 20
1682.786078119667
 10
658.6040505358742
 20
1681.85586716517
 10
659.0296311974794
 20
1680.941770372106
 10
659.4898914432729
 20
1680.045210502394
 10
659.9842386112294
 20
1679.167597975389
 10
660.5120284705747
 20
1678.310329244218
 10
661.0725643804531
 20
1677.474785014095
 10
661.6650964475796
 20
1676.662328287781
 10
662.288820703845
 20
1675.874302224342
 10
662.9428783283129
 20
1675.112027799052
 10
663.6263549414889
 20
1674.376801254599
 10
664.2683233109078
 20
1673.73688125161
  0
LWPOLYLINE
  5
1D1
330
187
100
AcDbEntity
  8
P-SANR-FIXT
100
AcDbPolyline
 90
       10
 70
   128
 43
0.0
 10
680.452154562878
 20
1721.996562375315
 10
678.203655219682
 20
1720.998962252251
 10
676.0601268490217
 20
1719.938981838668
 10
674.0263794205462
 20
1718.825998239316
 10
672.1060564379095
 20
1717.669523689531
 10
670.3016431401899
 20
1716.479065334803
 10
668.6144927876821
 20
1715.263990516875
 10
667.0448695537783
 20
1714.033399770565
 10
665.5920062951008
 20
1712.796009398007
 10
664.268323310929
 20
1711.573651897722
  0
LWPOLYLINE
  5
1D2
330
187
100
AcDbEntity
  8
P-SANR-FIXT
100
AcDbPolyline
 90
       10
 70
   128
 43
0.0
 10
664.2683233109296
 20
1673.736881251589
 10
665.6074113652887
 20
1672.500858383801
 10
667.0615557059111
 20
1671.263497176136
 10
668.6324738734914
 20
1670.033029313884
 10
670.3209219916398
 20
1668.818175942391
 10
672.1266241550799
 20
1667.628041201597
 10
674.0482148136122
 20
1666.471994685643
 10
676.0831960544918
 20
1665.35954434376
 10
678.2279115087161
 20
1664.300201692947
 10
680.4521545628787
 20
1663.313970773996
  0
ELLIPSE
  5
1D3
330
187
100
AcDbEntity
  8
P-SANR-FIXT
100
AcDbEllipse
 10
690.0687185347526
 20
1728.100128246211
 30
0.0
 11
0.0
 21
10.00000000000027
 31
0.0
210
0.0
220
0.0
230
1.0
 40
0.9396926207858717
 41
2.159389081876669
 42
2.70657664965066
  0
ELLIPSE
  5
1D4
330
187
100
AcDbEntity
  8
P-SANR-FIXT
100
AcDbEllipse
 10
690.068718534753
 20
1657.210404903099
 30
0.0
 11
0.0
 21
10.00000000000003
 31
0.0
210
0.0
220
0.0
230
0.9999999999999998
 40
0.9396926207858925
 41
0.4350519522223089
 42
0.982203571713123
  0
ELLIPSE
  5
1D5
330
187
100
AcDbEntity
  8
P-SANR-FIXT
100
AcDbEllipse
 10
718.913664778918
 20
1710.377697410438
 30
0.0
 11
0.0
 21
10.00000000000034
 31
0.0
210
0.0
220
0.0
230
1.0
 40
0.9396926207858829
 41
1.112191530688614
 42
1.570796326794914
  0
ELLIPSE
  5
1D6
330
187
100
AcDbEntity
  8
P-SANR-FIXT
100
AcDbEllipse
 10
718.913664778918
 20
1710.377697410438
 30
0.0
 11
0.0000000000018258
 21
10.00000000000023
 31
0.0
210
0.0
220
0.0
230
1.0
 40
0.9396926207858896
 41
1.57079632679509
 42
3.076598674095139
  0
ELLIPSE
  5
1D7
330
187
100
AcDbEntity
  8
P-SANR-FIXT
100
AcDbEllipse
 10
718.9136647789182
 20
1674.932835738873
 30
0.0
 11
0.0
 21
9.999999999999912
 31
0.0
210
0.0
220
0.0
230
1.0
 40
0.9396926207859236
 41
0.0649939794948729
 42
1.570796326794898
  0
ELLIPSE
  5
1D8
330
187
100
AcDbEntity
  8
P-SANR-FIXT
100
AcDbEllipse
 10
718.9136647789182
 20
1674.932835738873
 30
0.0
 11
0.0000000000046258
 21
10.0
 31
0.0
210
0.0
220
0.0
230
1.0
 40
0.939692620785911
 41
1.570796326795376
 42
2.029401122901724
  0
SPLINE
  5
1D9
330
187
100
AcDbEntity
  8
P-SANR-FIXT
100
AcDbSpline
210
0.0
220
0.0
230
1.0
 70
     8
 71
     3
 72
     9
 73
     5
 74
     0
 42
0.000000001
 43
0.0000000001
 40
0.0
 40
0.0
 40
0.0
 40
0.0
 40
0.5
 40
1.0
 40
1.0
 40
1.0
 40
1.0
 10
700.6672153700649
 20
1706.125797276341
 30
0.0
 10
700.7362168033291
 20
1705.871079966133
 30
0.0
 10
700.9378803119197
 20
1705.371753957686
 30
0.0
 10
701.2651192190013
 20
1704.896201760293
 30
0.0
 10
701.4596271722816
 20
1704.665215941975
 30
0.0
  0
SPLINE
  5
1DA
330
187
100
AcDbEntity
  8
P-SANR-FIXT
100
AcDbSpline
210
0.0
220
0.0
230
1.0
 70
     8
 71
     3
 72
     9
 73
     5
 74
     0
 42
0.000000001
 43
0.0000000001
 40
0.0
 40
0.0
 40
0.0
 40
0.0
 40
0.5
 40
1.0
 40
1.0
 40
1.0
 40
1.0
 10
679.5350538682742
 20
1718.135746643699
 30
0.0
 10
679.7551226280652
 20
1718.112015151762
 30
0.0
 10
680.24058441725
 20
1718.088241340661
 30
0.0
 10
680.8129274604623
 20
1718.112015151762
 30
0.0
 10
681.1198774742807
 20
1718.135746643699
 30
0.0
  0
SPLINE
  5
1DB
330
187
100
AcDbEntity
  8
P-SANR-FIXT
100
AcDbSpline
210
0.0
220
0.0
230
1.0
 70
     8
 71
     3
 72
     8
 73
     4
 74
     0
 42
0.000000001
 43
0.0000000001
 40
0.25
 40
0.25
 40
0.25
 40
0.25
 40
0.5
 40
0.5
 40
0.5
 40
0.5
 10
659.3660951460516
 20
1705.01668152628
 30
0.0
 10
659.4261213906208
 20
1705.135463722178
 30
0.0
 10
659.4872510746521
 20
1705.254921154823
 30
0.0
 10
659.5553353002128
 20
1705.37769741045
 30
0.0
  0
SPLINE
  5
1DC
330
187
100
AcDbEntity
  8
P-SANR-FIXT
100
AcDbSpline
210
0.0
220
0.0
230
1.0
 70
     8
 71
     3
 72
     9
 73
     5
 74
     0
 42
0.000000001
 43
0.0000000001
 40
0.25
 40
0.25
 40
0.25
 40
0.25
 40
0.5
 40
1.0
 40
1.0
 40
1.0
 40
1.0
 10
659.7626542301494
 20
1679.562909965439
 30
0.0
 10
659.6905725984604
 20
1679.687630324206
 30
0.0
 10
659.4831991095983
 20
1680.057667240973
 30
0.0
 10
659.302930869684
 20
1680.414331389022
 30
0.0
 10
659.1953041702679
 20
1680.645317207343
 30
0.0
  0
SPLINE
  5
1DD
330
187
100
AcDbEntity
  8
P-SANR-FIXT
100
AcDbSpline
210
0.0
220
0.0
230
1.0
 70
     8
 71
     3
 72
     9
 73
     5
 74
     0
 42
0.000000001
 43
0.0000000001
 40
0.0
 40
0.0
 40
0.0
 40
0.0
 40
0.5
 40
1.0
 40
1.0
 40
1.0
 40
1.0
 10
681.1198774742818
 20
1667.174786505612
 30
0.0
 10
680.8129274604632
 20
1667.198517997548
 30
0.0
 10
680.2405844172507
 20
1667.22229180865
 30
0.0
 10
679.7551226280655
 20
1667.198517997548
 30
0.0
 10
679.5350538682742
 20
1667.174786505612
 30
0.0
  0
SPLINE
  5
1DE
330
187
100
AcDbEntity
  8
P-SANR-FIXT
100
AcDbSpline
210
0.0
220
0.0
230
1.0
 70
     8
 71
     3
 72
     9
 73
     5
 74
     0
 42
0.000000001
 43
0.0000000001
 40
0.0
 40
0.0
 40
0.0
 40
0.0
 40
0.5
 40
1.0
 40
1.0
 40
1.0
 40
1.0
 10
701.4596271722819
 20
1680.645317207335
 30
0.0
 10
701.2651192190018
 20
1680.414331389017
 30
0.0
 10
700.9378803119201
 20
1679.938779191624
 30
0.0
 10
700.7362168033295
 20
1679.439453183177
 30
0.0
 10
700.6672153700651
 20
1679.184735872969
 30
0.0
  0
SPLINE
  5
1DF
330
187
100
AcDbEntity
  8
P-SANR-FIXT
100
AcDbSpline
210
0.0
220
0.0
230
1.0
 70
     8
 71
     3
 72
    23
 73
    19
 74
     0
 42
0.000000001
 43
0.0000000001
 40
0.0
 40
0.0
 40
0.0
 40
0.0
 40
0.25
 40
0.3125
 40
0.375
 40
0.4375
 40
0.46875
 40
0.5
 40
0.53125
 40
0.5625
 40
0.625
 40
0.6875
 40
0.71875
 40
0.75
 40
0.78125
 40
0.8125
 40
0.875
 40
1.0
 40
1.0
 40
1.0
 40
1.0
 10
682.2530808301878
 20
1722.548216892618
 30
0.0
 10
681.5921249524661
 20
1722.239030262685
 30
0.0
 10
680.8294392084246
 20
1721.806001740619
 30
0.0
 10
680.017301293379
 20
1721.262948116819
 30
0.0
 10
679.6298948654743
 20
1720.990762973971
 30
0.0
 10
679.333448743394
 20
1720.756265406556
 30
0.0
 10
679.1157317500832
 20
1720.563494045699
 30
0.0
 10
678.9669761330903
 20
1720.41370171783
 30
0.0
 10
678.8207506770535
 20
1720.26782561131
 30
0.0
 10
678.6199753623986
 20
1720.08434376208
 30
0.0
 10
678.3834014992419
 20
1719.858642648922
 30
0.0
 10
678.2142156765459
 20
1719.614563407493
 30
0.0
 10
678.1516268866749
 20
1719.400188341377
 30
0.0
 10
678.1531972909829
 20
1719.228106263243
 30
0.0
 10
678.1997275040225
 20
1719.051305606749
 30
0.0
 10
678.3056842061557
 20
1718.821363627127
 30
0.0
 10
678.6196834529106
 20
1718.441726801491
 30
0.0
 10
679.1129434202804
 20
1718.20391488304
 30
0.0
 10
679.5350538682742
 20
1718.135746643699
 30
0.0
  0
ELLIPSE
  5
1E0
330
187
100
AcDbEntity
  8
P-SANR-FIXT
100
AcDbEllipse
 10
690.068718534752
 20
1692.655266574655
 30
0.0
 11
0.0
 21
31.02845079977456
 31
0.0
210
0.0
220
0.0
230
0.9999999999999998
 40
0.9396926207859104
 41
6.011815189188455
 42
6.5545554251707
  0
SPLINE
  5
1E1
330
187
100
AcDbEntity
  8
P-SANR-FIXT
100
AcDbSpline
210
0.0
220
0.0
230
1.0
 70
     8
 71
     3
 72
    23
 73
    19
 74
     0
 42
0.000000001
 43
0.0000000001
 40
0.0
 40
0.0
 40
0.0
 40
0.0
 40
0.125
 40
0.1875
 40
0.21875
 40
0.25
 40
0.28125
 40
0.3125
 40
0.375
 40
0.4375
 40
0.46875
 40
0.5
 40
0.53125
 40
0.5625
 40
0.625
 40
0.6875
 40
0.75
 40
1.0
 40
1.0
 40
1.0
 40
1.0
 10
681.1198774742807
 20
1718.135746643699
 30
0.0
 10
682.2116179882258
 20
1718.20391488304
 30
0.0
 10
683.7490196085619
 20
1718.441726801491
 30
0.0
 10
685.3502444590366
 20
1718.821363627127
 30
0.0
 10
686.2119571782965
 20
1719.051305606749
 30
0.0
 10
686.8341194105127
 20
1719.228106263243
 30
0.0
 10
687.4253906243332
 20
1719.400188341377
 30
0.0
 10
688.1706609943493
 20
1719.614563407493
 30
0.0
 10
689.0408176273131
 20
1719.858642648922
 30
0.0
 10
689.8627043070181
 20
1720.08434376208
 30
0.0
 10
690.5080996069942
 20
1720.267825611309
 30
0.0
 10
690.9916664833395
 20
1720.41370171783
 30
0.0
 10
691.4705945829215
 20
1720.563494045699
 30
0.0
 10
692.0943199356623
 20
1720.756265406556
 30
0.0
 10
692.8536175157754
 20
1720.990762973971
 30
0.0
 10
693.7379612222072
 20
1721.262948116819
 30
0.0
 10
695.4706697714924
 20
1721.806001740619
 30
0.0
 10
696.8355176366372
 20
1722.239030262685
 30
0.0
 10
697.8843562393176
 20
1722.548216892618
 30
0.0
  0
SPLINE
  5
1E2
330
187
100
AcDbEntity
  8
P-SANR-FIXT
100
AcDbSpline
210
0.0
220
0.0
230
1.0
 70
     8
 71
     3
 72
    21
 73
    17
 74
     0
 42
0.000000001
 43
0.0000000001
 40
0.0
 40
0.0
 40
0.0
 40
0.0
 40
0.1666666666666666
 40
0.25
 40
0.2916666666666666
 40
0.3333333333333333
 40
0.375
 40
0.4166666666666666
 40
0.5
 40
0.5833333333333333
 40
0.625
 40
0.6666666666666666
 40
0.7083333333333333
 40
0.75
 40
0.8333333333333332
 40
1.0
 40
1.0
 40
1.0
 40
1.0
 10
702.376177698204
 20
1710.377697410438
 30
0.0
 10
702.2142533288732
 20
1710.229798529705
 30
0.0
 10
701.9783365088021
 20
1709.989660236605
 30
0.0
 10
701.7197867557439
 20
1709.677788230847
 30
0.0
 10
701.5773480990169
 20
1709.491021607302
 30
0.0
 10
701.4737868617262
 20
1709.345730307296
 30
0.0
 10
701.3718888991138
 20
1709.199293095724
 30
0.0
 10
701.2372671709925
 20
1709.004726698144
 30
0.0
 10
701.0752658193259
 20
1708.754506910495
 30
0.0
 10
700.9305827907395
 20
1708.480014840214
 30
0.0
 10
700.8318874202927
 20
1708.237237383739
 30
0.0
 10
700.7689603369053
 20
1708.040494575862
 30
0.0
 10
700.717063824526
 20
1707.83097611745
 30
0.0
 10
700.6603926226514
 20
1707.540188935425
 30
0.0
 10
700.5982882025221
 20
1706.999051088901
 30
0.0
 10
700.6160766874995
 20
1706.485146718032
 30
0.0
 10
700.6672153700649
 20
1706.125797276341
 30
0.0
  0
SPLINE
  5
1E3
330
187
100
AcDbEntity
  8
P-SANR-FIXT
100
AcDbSpline
210
0.0
220
0.0
230
1.0
 70
     8
 71
     3
 72
     9
 73
     5
 74
     0
 42
0.000000001
 43
0.0000000001
 40
0.0
 40
0.0
 40
0.0
 40
0.0
 40
0.5
 40
1.0
 40
1.0
 40
1.0
 40
1.0
 10
710.4877133399888
 20
1714.804672403881
 30
0.0
 10
709.0714452079557
 20
1714.360293155176
 30
0.0
 10
706.2029901728707
 20
1713.197067569771
 30
0.0
 10
703.5462608505808
 20
1711.41079223186
 30
0.0
 10
702.376177698204
 20
1710.377697410438
 30
0.0
  0
ELLIPSE
  5
1E4
330
187
100
AcDbEntity
  8
P-SANR-FIXT
100
AcDbEllipse
 10
690.068718534752
 20
1692.655266574655
 30
0.0
 11
0.0
 21
31.02845079977452
 31
0.0
210
0.0
220
0.0
230
1.0
 40
0.9396926207859115
 41
4.964617637992253
 42
5.507357873970806
  0
SPLINE
  5
1E5
330
187
100
AcDbEntity
  8
P-SANR-FIXT
100
AcDbSpline
210
0.0
220
0.0
230
1.0
 70
     8
 71
     3
 72
    23
 73
    19
 74
     0
 42
0.000000001
 43
0.0000000001
 40
0.0
 40
0.0
 40
0.0
 40
0.0
 40
0.125
 40
0.1875
 40
0.21875
 40
0.25
 40
0.28125
 40
0.3125
 40
0.375
 40
0.4375
 40
0.46875
 40
0.5
 40
0.53125
 40
0.5625
 40
0.625
 40
0.6875
 40
0.75
 40
1.0
 40
1.0
 40
1.0
 40
1.0
 10
701.4596271722816
 20
1704.665215941975
 30
0.0
 10
702.2283801008448
 20
1704.001713764884
 30
0.0
 10
703.4516471121087
 20
1703.18488580279
 30
0.0
 10
704.8830135067817
 20
1702.492164177676
 30
0.0
 10
705.6899351205836
 20
1702.161230686084
 30
0.0
 10
706.2888042058247
 20
1701.941495868771
 30
0.0
 10
706.8719050113197
 20
1701.754354012487
 30
0.0
 10
707.6209629180656
 20
1701.54696017177
 30
0.0
 10
708.514507969221
 20
1701.345990695889
 30
0.0
 10
709.3737414873681
 20
1701.189127647671
 30
0.0
 10
710.0572988944978
 20
1701.075986574803
 30
0.0
 10
710.5752440530273
 20
1700.993476860736
 30
0.0
 10
711.0935296810778
 20
1700.916228721714
 30
0.0
 10
711.7726298304718
 20
1700.825524738111
 30
0.0
 10
712.6070481227392
 20
1700.729490416267
 30
0.0
 10
713.5886611477067
 20
1700.636593051094
 30
0.0
 10
715.5331628183676
 20
1700.48391862015
 30
0.0
 10
717.0998677604797
 20
1700.42295507485
 30
0.0
 10
718.3033510444825
 20
1700.398811063332
 30
0.0
  0
SPLINE
  5
1E6
330
187
100
AcDbEntity
  8
P-SANR-FIXT
100
AcDbSpline
210
0.0
220
0.0
230
1.0
 70
     8
 71
     3
 72
    23
 73
    19
 74
     0
 42
0.000000001
 43
0.0000000001
 40
0.0
 40
0.0
 40
0.0
 40
0.0
 40
0.25
 40
0.3125
 40
0.375
 40
0.4375
 40
0.46875
 40
0.5
 40
0.53125
 40
0.5625
 40
0.625
 40
0.6875
 40
0.71875
 40
0.75
 40
0.78125
 40
0.8125
 40
0.875
 40
1.0
 40
1.0
 40
1.0
 40
1.0
 10
718.3033510444825
 20
1684.911722085978
 30
0.0
 10
717.0998677604797
 20
1684.887578074461
 30
0.0
 10
715.5331628183678
 20
1684.82661452916
 30
0.0
 10
713.5886611477069
 20
1684.673940098216
 30
0.0
 10
712.6070481227393
 20
1684.581042733044
 30
0.0
 10
711.7726298304718
 20
1684.485008411199
 30
0.0
 10
711.093529681078
 20
1684.394304427597
 30
0.0
 10
710.5752440530274
 20
1684.317056288574
 30
0.0
 10
710.0572988944978
 20
1684.234546574507
 30
0.0
 10
709.3737414873682
 20
1684.121405501639
 30
0.0
 10
708.5145079692213
 20
1683.964542453421
 30
0.0
 10
707.6209629180656
 20
1683.76357297754
 30
0.0
 10
706.87190501132
 20
1683.556179136823
 30
0.0
 10
706.2888042058248
 20
1683.369037280539
 30
0.0
 10
705.6899351205837
 20
1683.149302463226
 30
0.0
 10
704.8830135067819
 20
1682.818368971634
 30
0.0
 10
703.451647112109
 20
1682.12564734652
 30
0.0
 10
702.228380100845
 20
1681.308819384426
 30
0.0
 10
701.4596271722819
 20
1680.645317207335
 30
0.0
  0
ELLIPSE
  5
1E7
330
187
100
AcDbEntity
  8
P-SANR-FIXT
100
AcDbEllipse
 10
690.068718534752
 20
1692.655266574655
 30
0.0
 11
0.0
 21
31.02845079977454
 31
0.0
210
0.0
220
0.0
230
1.0
 40
0.9396926207859113
 41
3.917420086798566
 42
4.460160322777123
  0
SPLINE
  5
1E8
330
187
100
AcDbEntity
  8
P-SANR-FIXT
100
AcDbSpline
210
0.0
220
0.0
230
1.0
 70
     8
 71
     3
 72
     9
 73
     5
 74
     0
 42
0.000000001
 43
0.0000000001
 40
0.0
 40
0.0
 40
0.0
 40
0.0
 40
0.5
 40
1.0
 40
1.0
 40
1.0
 40
1.0
 10
702.3761776982041
 20
1674.932835738873
 30
0.0
 10
703.5462608505809
 20
1673.89974091745
 30
0.0
 10
706.2029901728711
 20
1672.113465579539
 30
0.0
 10
709.0714452079558
 20
1670.950239994134
 30
0.0
 10
710.4877133399892
 20
1670.505860745429
 30
0.0
  0
SPLINE
  5
1E9
330
187
100
AcDbEntity
  8
P-SANR-FIXT
100
AcDbSpline
210
0.0
220
0.0
230
1.0
 70
     8
 71
     3
 72
    21
 73
    17
 74
     0
 42
0.000000001
 43
0.0000000001
 40
0.0
 40
0.0
 40
0.0
 40
0.0
 40
0.1666666666666666
 40
0.25
 40
0.2916666666666666
 40
0.3333333333333333
 40
0.375
 40
0.4166666666666666
 40
0.5
 40
0.5833333333333333
 40
0.625
 40
0.6666666666666666
 40
0.7083333333333333
 40
0.75
 40
0.8333333333333332
 40
1.0
 40
1.0
 40
1.0
 40
1.0
 10
700.6672153700651
 20
1679.184735872969
 30
0.0
 10
700.6160766874995
 20
1678.825386431278
 30
0.0
 10
700.5982882025221
 20
1678.311482060409
 30
0.0
 10
700.6603926226516
 20
1677.770344213886
 30
0.0
 10
700.7170638245262
 20
1677.47955703186
 30
0.0
 10
700.7689603369056
 20
1677.270038573448
 30
0.0
 10
700.831887420293
 20
1677.073295765572
 30
0.0
 10
700.9305827907398
 20
1676.830518309096
 30
0.0
 10
701.0752658193263
 20
1676.556026238815
 30
0.0
 10
701.2372671709926
 20
1676.305806451166
 30
0.0
 10
701.3718888991141
 20
1676.111240053586
 30
0.0
 10
701.4737868617264
 20
1675.964802842014
 30
0.0
 10
701.5773480990171
 20
1675.819511542008
 30
0.0
 10
701.7197867557443
 20
1675.632744918463
 30
0.0
 10
701.9783365088024
 20
1675.320872912705
 30
0.0
 10
702.2142533288735
 20
1675.080734619605
 30
0.0
 10
702.3761776982041
 20
1674.932835738873
 30
0.0
  0
SPLINE
  5
1EA
330
187
100
AcDbEntity
  8
P-SANR-FIXT
100
AcDbSpline
210
0.0
220
0.0
230
1.0
 70
     8
 71
     3
 72
    23
 73
    19
 74
     0
 42
0.000000001
 43
0.0000000001
 40
0.0
 40
0.0
 40
0.0
 40
0.0
 40
0.25
 40
0.3125
 40
0.375
 40
0.4375
 40
0.46875
 40
0.5
 40
0.53125
 40
0.5625
 40
0.625
 40
0.6875
 40
0.71875
 40
0.75
 40
0.78125
 40
0.8125
 40
0.875
 40
1.0
 40
1.0
 40
1.0
 40
1.0
 10
697.884356239318
 20
1662.762316256692
 30
0.0
 10
696.8355176366375
 20
1663.071502886625
 30
0.0
 10
695.4706697714929
 20
1663.504531408691
 30
0.0
 10
693.7379612222076
 20
1664.047585032491
 30
0.0
 10
692.8536175157759
 20
1664.319770175339
 30
0.0
 10
692.0943199356628
 20
1664.554267742754
 30
0.0
 10
691.470594582922
 20
1664.747039103611
 30
0.0
 10
690.99166648334
 20
1664.89683143148
 30
0.0
 10
690.5080996069948
 20
1665.042707538001
 30
0.0
 10
689.8627043070185
 20
1665.22618938723
 30
0.0
 10
689.0408176273138
 20
1665.451890500389
 30
0.0
 10
688.1706609943498
 20
1665.695969741817
 30
0.0
 10
687.4253906243339
 20
1665.910344807933
 30
0.0
 10
686.8341194105133
 20
1666.082426886067
 30
0.0
 10
686.2119571782971
 20
1666.259227542562
 30
0.0
 10
685.3502444590374
 20
1666.489169522183
 30
0.0
 10
683.749019608563
 20
1666.868806347819
 30
0.0
 10
682.2116179882268
 20
1667.10661826627
 30
0.0
 10
681.1198774742818
 20
1667.174786505612
 30
0.0
  0
ELLIPSE
  5
1EB
330
187
100
AcDbEntity
  8
P-SANR-FIXT
100
AcDbEllipse
 10
690.068718534752
 20
1692.655266574655
 30
0.0
 11
0.0
 21
31.02845079977482
 31
0.0
210
0.0
220
0.0
230
1.0
 40
0.9396926207859014
 41
2.870222535598681
 42
3.41296277158093
  0
SPLINE
  5
1EC
330
187
100
AcDbEntity
  8
P-SANR-FIXT
100
AcDbSpline
210
0.0
220
0.0
230
1.0
 70
     8
 71
     3
 72
    23
 73
    19
 74
     0
 42
0.000000001
 43
0.0000000001
 40
0.0
 40
0.0
 40
0.0
 40
0.0
 40
0.125
 40
0.1875
 40
0.21875
 40
0.25
 40
0.28125
 40
0.3125
 40
0.375
 40
0.4375
 40
0.46875
 40
0.5
 40
0.53125
 40
0.5625
 40
0.625
 40
0.6875
 40
0.75
 40
1.0
 40
1.0
 40
1.0
 40
1.0
 10
679.5350538682742
 20
1667.174786505612
 30
0.0
 10
679.1129434202804
 20
1667.10661826627
 30
0.0
 10
678.6196834529107
 20
1666.868806347819
 30
0.0
 10
678.3056842061561
 20
1666.489169522183
 30
0.0
 10
678.1997275040228
 20
1666.259227542562
 30
0.0
 10
678.153197290983
 20
1666.082426886067
 30
0.0
 10
678.151626886675
 20
1665.910344807933
 30
0.0
 10
678.2142156765462
 20
1665.695969741817
 30
0.0
 10
678.383401499242
 20
1665.451890500388
 30
0.0
 10
678.6199753623989
 20
1665.22618938723
 30
0.0
 10
678.8207506770536
 20
1665.042707538001
 30
0.0
 10
678.9669761330904
 20
1664.89683143148
 30
0.0
 10
679.1157317500833
 20
1664.747039103611
 30
0.0
 10
679.3334487433943
 20
1664.554267742754
 30
0.0
 10
679.6298948654743
 20
1664.319770175339
 30
0.0
 10
680.0173012933793
 20
1664.047585032491
 30
0.0
 10
680.8294392084247
 20
1663.504531408691
 30
0.0
 10
681.5921249524664
 20
1663.071502886625
 30
0.0
 10
682.253080830188
 20
1662.762316256692
 30
0.0
  0
ELLIPSE
  5
1ED
330
187
100
AcDbEntity
  8
P-SANR-FIXT
100
AcDbEllipse
 10
691.3083406286302
 20
1692.655266574655
 30
0.0
 11
0.0000000000018294
 21
31.53381379959228
 31
0.0
210
0.0
220
0.0
230
1.0
 40
0.9396926207859131
 41
4.712388980384744
 42
6.675884388878372
  0
ELLIPSE
  5
1EE
330
187
100
AcDbEntity
  8
P-SANR-FIXT
100
AcDbEllipse
 10
691.3083406286302
 20
1692.655266574655
 30
0.0
 11
0.0
 21
31.53381379959242
 31
0.0
210
0.0
220
0.0
230
1.0
 40
0.9396926207859104
 41
2.748893571891068
 42
4.712388980384692
  0
LINE
  5
1EF
330
187
100
AcDbEntity
  8
P-SANR-FIXT
100
AcDbLine
 10
721.1324971266434
 20
1731.505266574656
 30
0.0
 11
713.6080539734787
 21
1731.505266574656
 31
0.0
  0
LINE
  5
1F0
330
187
100
AcDbEntity
  8
P-SANR-FIXT
100
AcDbLine
 10
713.6080539734795
 20
1653.805266574655
 30
0.0
 11
721.1324971266441
 21
1653.805266574655
 31
0.0
  0
ELLIPSE
  5
1F1
330
187
100
AcDbEntity
  8
P-SANR-FIXT
100
AcDbEllipse
 10
713.6080539734775
 20
1692.655266574655
 30
0.0
 11
0.0
 21
38.85000000000094
 31
0.0
210
0.0
220
0.0
230
1.0
 40
0.9396926207858944
 41
4.712388980384702
 42
6.754909228677075
  0
ELLIPSE
  5
1F2
330
187
100
AcDbEntity
  8
P-SANR-FIXT
100
AcDbEllipse
 10
713.6080539734775
 20
1692.655266574655
 30
0.0
 11
0.0000000000015896
 21
38.85000000000037
 31
0.0
210
0.0
220
0.0
230
1.0
 40
0.9396926207859097
 41
2.669718147248391
 42
4.712388980384739
  0
ELLIPSE
  5
1F3
330
187
100
AcDbEntity
  8
P-SANR-FIXT
100
AcDbEllipse
 10
721.1324971266422
 20
1692.655266574655
 30
0.0
 11
0.0
 21
38.85000000000037
 31
0.0
210
0.0
220
0.0
230
1.0
 40
0.9396926207859097
 41
4.712388980384685
 42
6.28318530717959
  0
ELLIPSE
  5
1F4
330
187
100
AcDbEntity
  8
P-SANR-FIXT
100
AcDbEllipse
 10
721.1324971266422
 20
1692.655266574655
 30
0.0
 11
0.0
 21
38.85000000000059
 31
0.0
210
0.0
220
0.0
230
1.0
 40
0.9396926207859042
 41
3.141592653589791
 42
4.712388980384685
  0
ELLIPSE
  5
1F5
330
187
100
AcDbEntity
  8
P-SANR-FIXT
100
AcDbEllipse
 10
713.6080539734775
 20
1692.655266574655
 30
0.0
 11
0.0000000000045044
 21
37.00000000000023
 31
0.0
210
0.0
220
0.0
230
1.0
 40
0.939692620785911
 41
4.712388980384815
 42
6.611449065129364
  0
ELLIPSE
  5
1F6
330
187
100
AcDbEntity
  8
P-SANR-FIXT
100
AcDbEllipse
 10
713.6080539734775
 20
1692.655266574655
 30
0.0
 11
0.0
 21
37.00000000000001
 31
0.0
210
0.0
220
0.0
230
1.0
 40
0.9396926207859189
 41
2.813328895646672
 42
4.712388980384703
  0
LINE
  5
1F7
330
187
100
AcDbEntity
  8
P-SANR-FIXT
100
AcDbLine
 10
647.3686398731516
 20
1692.655266574655
 30
0.0
 11
647.3686398731516
 21
1713.405266574649
 31
0.0
  0
LINE
  5
1F8
330
187
100
AcDbEntity
  8
P-SANR-FIXT
100
AcDbLine
 10
647.3686398731516
 20
1713.405266574649
 30
0.0
 11
647.3686398731514
 21
1734.155266574642
 31
0.0
  0
LINE
  5
1F9
330
187
100
AcDbEntity
  8
P-SANR-FIXT
100
AcDbLine
 10
647.368639873152
 20
1651.155266574667
 30
0.0
 11
647.3686398731518
 21
1671.905266574661
 31
0.0
  0
LINE
  5
1FA
330
187
100
AcDbEntity
  8
P-SANR-FIXT
100
AcDbLine
 10
647.3686398731518
 20
1671.905266574661
 30
0.0
 11
647.3686398731516
 21
1692.655266574654
 31
0.0
  0
LINE
  5
1FB
330
187
100
AcDbEntity
  8
P-SANR-FIXT
100
AcDbLine
 10
676.368639873151
 20
1734.155266574626
 30
0.0
 11
676.3686398731512
 21
1720.067224287403
 31
0.0
  0
LINE
  5
1FC
330
187
100
AcDbEntity
  8
P-SANR-FIXT
100
AcDbLine
 10
676.3686398731514
 20
1665.243308861174
 30
0.0
 11
676.3686398731515
 21
1651.155266574684
 31
0.0
  0
SPLINE
  5
1FD
330
187
100
AcDbEntity
  8
P-SANR-FIXT
100
AcDbSpline
210
0.0
220
0.0
230
1.0
 70
    24
 71
     3
 72
     9
 73
     5
 74
     0
 42
0.000000001
 43
0.0000000001
 40
0.0
 40
0.0
 40
0.0
 40
0.0
 40
0.5
 40
1.0
 40
1.0
 40
1.0
 40
1.0
 10
647.3686398731514
 20
1734.155266574705
 30
0.0
 10
647.3762543236333
 20
1734.155266574705
 30
0.0
 10
647.6244313862711
 20
1734.155266574705
 30
0.0
 10
648.3385047722577
 20
1734.155266574705
 30
0.0
 10
648.812015546088
 20
1734.155266574705
 30
0.0
  0
LINE
  5
1FE
330
187
100
AcDbEntity
  8
P-SANR-FIXT
100
AcDbLine
 10
648.812015546088
 20
1734.155266574705
 30
0.0
 11
674.9252642002045
 21
1734.155266574705
 31
0.0
  0
SPLINE
  5
1FF
330
187
100
AcDbEntity
  8
P-SANR-FIXT
100
AcDbSpline
210
0.0
220
0.0
230
1.0
 70
    24
 71
     3
 72
     9
 73
     5
 74
     0
 42
0.000000001
 43
0.0000000001
 40
0.0
 40
0.0
 40
0.0
 40
0.0
 40
0.5
 40
1.0
 40
1.0
 40
1.0
 40
1.0
 10
674.9252642002045
 20
1734.155266574705
 30
0.0
 10
675.3987749740335
 20
1734.155266574705
 30
0.0
 10
676.1128483600199
 20
1734.155266574705
 30
0.0
 10
676.3610254226644
 20
1734.155266574705
 30
0.0
 10
676.368639873151
 20
1734.155266574705
 30
0.0
  0
LINE
  5
200
330
187
100
AcDbEntity
  8
P-SANR-FIXT
100
AcDbLine
 10
648.812015546121
 20
1734.155266574705
 30
0.0
 11
648.8120155461212
 21
1726.066723836484
 31
0.0
  0
LINE
  5
201
330
187
100
AcDbEntity
  8
P-SANR-FIXT
100
AcDbLine
 10
648.8120155460944
 20
1726.066723836484
 30
0.0
 11
674.9252642001984
 21
1726.066723836484
 31
0.0
  0
LINE
  5
202
330
187
100
AcDbEntity
  8
P-SANR-FIXT
100
AcDbLine
 10
674.9252642001717
 20
1726.066723836484
 30
0.0
 11
674.9252642001716
 21
1734.155266574705
 31
0.0
  0
SPLINE
  5
203
330
187
100
AcDbEntity
  8
P-SANR-FIXT
100
AcDbSpline
210
0.0
220
0.0
230
1.0
 70
     8
 71
     3
 72
     9
 73
     5
 74
     0
 42
0.000000001
 43
0.0000000001
 40
0.0
 40
0.0
 40
0.0
 40
0.0
 40
0.5
 40
1.0
 40
1.0
 40
1.0
 40
1.0
 10
648.8120155460944
 20
1726.066723836484
 30
0.0
 10
648.338504772262
 20
1723.975992359344
 30
0.0
 10
647.6244313862726
 20
1719.775018005238
 30
0.0
 10
647.3762543236334
 20
1715.535020851475
 30
0.0
 10
647.3686398731516
 20
1713.40526657468
 30
0.0
  0
SPLINE
  5
204
330
187
100
AcDbEntity
  8
P-SANR-FIXT
100
AcDbSpline
210
0.0
220
0.0
230
1.0
 70
     8
 71
     3
 72
     9
 73
     5
 74
     0
 42
0.000000001
 43
0.0000000001
 40
0.0
 40
0.0
 40
0.0
 40
0.0
 40
0.5
 40
1.0
 40
1.0
 40
1.0
 40
1.0
 10
647.3686398731516
 20
1713.40526657468
 30
0.0
 10
647.3762543236335
 20
1711.275512297869
 30
0.0
 10
647.6244313862762
 20
1707.035515144076
 30
0.0
 10
648.3385047722756
 20
1702.83454078994
 30
0.0
 10
648.8120155461146
 20
1700.743809312786
 30
0.0
  0
LINE
  5
205
330
187
100
AcDbEntity
  8
P-SANR-FIXT
100
AcDbLine
 10
648.8120155461146
 20
1700.743809312786
 30
0.0
 11
657.6122764496327
 21
1700.743809312786
 31
0.0
  0
SPLINE
  5
206
330
187
100
AcDbEntity
  8
P-SANR-FIXT
100
AcDbSpline
210
0.0
220
0.0
230
1.0
 70
     8
 71
     3
 72
     8
 73
     4
 74
     0
 42
0.000000001
 43
0.0000000001
 40
0.5063678091524655
 40
0.5063678091524655
 40
0.5063678091524655
 40
0.5063678091524655
 40
1.0
 40
1.0
 40
1.0
 40
1.0
 10
675.9871264634813
 20
1719.845883301753
 30
0.0
 10
675.7466986093115
 20
1721.929005605838
 30
0.0
 10
675.3927445215505
 20
1724.002619117415
 30
0.0
 10
674.9252642001984
 20
1726.066723836484
 30
0.0
  0
LINE
  5
207
330
187
100
AcDbEntity
  8
P-SANR-FIXT
100
AcDbLine
 10
648.8120155461214
 20
1700.743809312785
 30
0.0
 11
648.8120155461214
 21
1692.655266574654
 31
0.0
  0
LINE
  5
208
330
187
100
AcDbEntity
  8
P-SANR-FIXT
100
AcDbLine
 10
648.8120155461214
 20
1692.655266574654
 30
0.0
 11
648.8120155461214
 21
1684.566723836583
 31
0.0
  0
LINE
  5
209
330
187
100
AcDbEntity
  8
P-SANR-FIXT
100
AcDbLine
 10
648.8120155461273
 20
1684.566723836583
 30
0.0
 11
657.612276449616
 21
1684.566723836583
 31
0.0
  0
SPLINE
  5
20A
330
187
100
AcDbEntity
  8
P-SANR-FIXT
100
AcDbSpline
210
0.0
220
0.0
230
1.0
 70
     8
 71
     3
 72
     9
 73
     5
 74
     0
 42
0.000000001
 43
0.0000000001
 40
0.0
 40
0.0
 40
0.0
 40
0.0
 40
0.5
 40
1.0
 40
1.0
 40
1.0
 40
1.0
 10
648.8120155461273
 20
1684.566723836583
 30
0.0
 10
648.338504772284
 20
1682.47599235942
 30
0.0
 10
647.6244313862784
 20
1678.275018005264
 30
0.0
 10
647.3762543236339
 20
1674.035020851451
 30
0.0
 10
647.3686398731518
 20
1671.90526657463
 30
0.0
  0
SPLINE
  5
20B
330
187
100
AcDbEntity
  8
P-SANR-FIXT
100
AcDbSpline
210
0.0
220
0.0
230
1.0
 70
     8
 71
     3
 72
     9
 73
     5
 74
     0
 42
0.000000001
 43
0.0000000001
 40
0.0
 40
0.0
 40
0.0
 40
0.0
 40
0.5
 40
1.0
 40
1.0
 40
1.0
 40
1.0
 10
647.3686398731518
 20
1671.90526657463
 30
0.0
 10
647.376254323634
 20
1669.775512297794
 30
0.0
 10
647.6244313862822
 20
1665.53551514395
 30
0.0
 10
648.338504772298
 20
1661.334540789763
 30
0.0
 10
648.8120155461476
 20
1659.243809312585
 30
0.0
  0
LINE
  5
20C
330
187
100
AcDbEntity
  8
P-SANR-FIXT
100
AcDbLine
 10
648.8120155461476
 20
1659.243809312585
 30
0.0
 11
674.925264200146
 21
1659.243809312586
 31
0.0
  0
SPLINE
  5
20D
330
187
100
AcDbEntity
  8
P-SANR-FIXT
100
AcDbSpline
210
0.0
220
0.0
230
1.0
 70
     8
 71
     3
 72
     8
 73
     4
 74
     0
 42
0.000000001
 43
0.0000000001
 40
0.0
 40
0.0
 40
0.0
 40
0.0
 40
0.493632190799094
 40
0.493632190799094
 40
0.493632190799094
 40
0.493632190799094
 10
674.925264200146
 20
1659.243809312586
 30
0.0
 10
675.3927445214691
 20
1661.30791403149
 30
0.0
 10
675.7466986092193
 20
1663.381527542902
 30
0.0
 10
675.9871264633967
 20
1665.46464984682
 30
0.0
  0
LINE
  5
20E
330
187
100
AcDbEntity
  8
P-SANR-FIXT
100
AcDbLine
 10
648.8120155461215
 20
1659.243809312585
 30
0.0
 11
648.8120155461216
 21
1651.155266574606
 31
0.0
  0
LINE
  5
20F
330
187
100
AcDbEntity
  8
P-SANR-FIXT
100
AcDbLine
 10
648.8120155461544
 20
1651.155266574606
 30
0.0
 11
674.9252642001394
 21
1651.155266574606
 31
0.0
  0
LINE
  5
210
330
187
100
AcDbEntity
  8
P-SANR-FIXT
100
AcDbLine
 10
674.9252642001722
 20
1651.155266574606
 30
0.0
 11
674.925264200172
 21
1659.243809312585
 31
0.0
  0
SPLINE
  5
211
330
187
100
AcDbEntity
  8
P-SANR-FIXT
100
AcDbSpline
210
0.0
220
0.0
230
1.0
 70
    24
 71
     3
 72
     9
 73
     5
 74
     0
 42
0.000000001
 43
0.0000000001
 40
0.0
 40
0.0
 40
0.0
 40
0.0
 40
0.5
 40
1.0
 40
1.0
 40
1.0
 40
1.0
 10
648.8120155461544
 20
1651.155266574606
 30
0.0
 10
648.3385047723023
 20
1651.155266574606
 30
0.0
 10
647.6244313862832
 20
1651.155266574606
 30
0.0
 10
647.376254323634
 20
1651.155266574606
 30
0.0
 10
647.368639873152
 20
1651.155266574606
 30
0.0
  0
SPLINE
  5
212
330
187
100
AcDbEntity
  8
P-SANR-FIXT
100
AcDbSpline
210
0.0
220
0.0
230
1.0
 70
    24
 71
     3
 72
     9
 73
     5
 74
     0
 42
0.000000001
 43
0.0000000001
 40
0.0
 40
0.0
 40
0.0
 40
0.0
 40
0.5
 40
1.0
 40
1.0
 40
1.0
 40
1.0
 10
676.3686398731515
 20
1651.155266574606
 30
0.0
 10
676.3610254226647
 20
1651.155266574606
 30
0.0
 10
676.1128483600091
 20
1651.155266574606
 30
0.0
 10
675.39877497399
 20
1651.155266574606
 30
0.0
 10
674.9252642001394
 20
1651.155266574606
 30
0.0
  0
LINE
  5
213
330
187
100
AcDbEntity
  8
P-SANR-FIXT
100
AcDbLine
 10
817.3686398731463
 20
1734.155266574643
 30
0.0
 11
817.3686398731467
 21
1713.40526657465
 31
0.0
  0
LINE
  5
214
330
187
100
AcDbEntity
  8
P-SANR-FIXT
100
AcDbLine
 10
817.3686398731467
 20
1713.40526657465
 30
0.0
 11
817.3686398731467
 21
1702.661148180711
 31
0.0
  0
LINE
  5
215
330
187
100
AcDbEntity
  8
P-SANR-FIXT
100
AcDbLine
 10
817.3686398731469
 20
1674.646471056048
 30
0.0
 11
817.3686398731469
 21
1671.905266574662
 31
0.0
  0
LINE
  5
216
330
187
100
AcDbEntity
  8
P-SANR-FIXT
100
AcDbLine
 10
817.3686398731469
 20
1671.905266574662
 30
0.0
 11
817.368639873147
 21
1651.155266574668
 31
0.0
  0
LINE
  5
217
330
187
100
AcDbEntity
  8
P-SANR-FIXT
100
AcDbLine
 10
788.3686398731472
 20
1702.661148180711
 30
0.0
 11
788.368639873147
 21
1713.405266574641
 31
0.0
  0
LINE
  5
218
330
187
100
AcDbEntity
  8
P-SANR-FIXT
100
AcDbLine
 10
788.368639873147
 20
1713.405266574641
 30
0.0
 11
788.368639873147
 21
1734.155266574626
 31
0.0
  0
LINE
  5
219
330
187
100
AcDbEntity
  8
P-SANR-FIXT
100
AcDbLine
 10
788.3686398731476
 20
1651.155266574685
 30
0.0
 11
788.3686398731473
 21
1671.90526657467
 31
0.0
  0
LINE
  5
21A
330
187
100
AcDbEntity
  8
P-SANR-FIXT
100
AcDbLine
 10
788.3686398731473
 20
1671.90526657467
 30
0.0
 11
788.3686398731473
 21
1672.642013727456
 31
0.0
  0
SPLINE
  5
21B
330
187
100
AcDbEntity
  8
P-SANR-FIXT
100
AcDbSpline
210
0.0
220
0.0
230
1.0
 70
    24
 71
     3
 72
     9
 73
     5
 74
     0
 42
0.000000001
 43
0.0000000001
 40
0.0
 40
0.0
 40
0.0
 40
0.0
 40
0.5
 40
1.0
 40
1.0
 40
1.0
 40
1.0
 10
788.368639873147
 20
1734.155266574705
 30
0.0
 10
788.3762543236335
 20
1734.155266574705
 30
0.0
 10
788.624431386278
 20
1734.155266574705
 30
0.0
 10
789.3385047722645
 20
1734.155266574705
 30
0.0
 10
789.8120155460933
 20
1734.155266574706
 30
0.0
  0
SPLINE
  5
21C
330
187
100
AcDbEntity
  8
P-SANR-FIXT
100
AcDbSpline
210
0.0
220
0.0
230
1.0
 70
    24
 71
     3
 72
     9
 73
     5
 74
     0
 42
0.000000001
 43
0.0000000001
 40
0.0
 40
0.0
 40
0.0
 40
0.0
 40
0.5
 40
1.0
 40
1.0
 40
1.0
 40
1.0
 10
815.9252642002098
 20
1734.155266574706
 30
0.0
 10
816.3987749740403
 20
1734.155266574706
 30
0.0
 10
817.1128483600268
 20
1734.155266574706
 30
0.0
 10
817.3610254226646
 20
1734.155266574706
 30
0.0
 10
817.3686398731463
 20
1734.155266574706
 30
0.0
  0
LINE
  5
21D
330
187
100
AcDbEntity
  8
P-SANR-FIXT
100
AcDbLine
 10
789.8120155460933
 20
1734.155266574706
 30
0.0
 11
815.9252642002098
 21
1734.155266574706
 31
0.0
  0
LINE
  5
21E
330
187
100
AcDbEntity
  8
P-SANR-FIXT
100
AcDbLine
 10
789.8120155461264
 20
1734.155266574706
 30
0.0
 11
789.8120155461265
 21
1726.066723836485
 31
0.0
  0
LINE
  5
21F
330
187
100
AcDbEntity
  8
P-SANR-FIXT
100
AcDbLine
 10
815.9252642001769
 20
1726.066723836485
 30
0.0
 11
815.9252642001767
 21
1734.155266574706
 31
0.0
  0
LINE
  5
220
330
187
100
AcDbEntity
  8
P-SANR-FIXT
100
AcDbLine
 10
789.8120155460997
 20
1726.066723836485
 30
0.0
 11
815.9252642002037
 21
1726.066723836485
 31
0.0
  0
SPLINE
  5
221
330
187
100
AcDbEntity
  8
P-SANR-FIXT
100
AcDbSpline
210
0.0
220
0.0
230
1.0
 70
     8
 71
     3
 72
     9
 73
     5
 74
     0
 42
0.000000001
 43
0.0000000001
 40
0.0
 40
0.0
 40
0.0
 40
0.0
 40
0.5
 40
1.0
 40
1.0
 40
1.0
 40
1.0
 10
789.8120155460997
 20
1726.066723836485
 30
0.0
 10
789.3385047722689
 20
1723.975992359346
 30
0.0
 10
788.6244313862793
 20
1719.775018005238
 30
0.0
 10
788.3762543236338
 20
1715.535020851476
 30
0.0
 10
788.368639873147
 20
1713.405266574681
 30
0.0
  0
SPLINE
  5
222
330
187
100
AcDbEntity
  8
P-SANR-FIXT
100
AcDbSpline
210
0.0
220
0.0
230
1.0
 70
     8
 71
     3
 72
     9
 73
     5
 74
     0
 42
0.000000001
 43
0.0000000001
 40
0.0
 40
0.0
 40
0.0
 40
0.0
 40
0.5
 40
0.8483322279743664
 40
0.8483322279743664
 40
0.8483322279743664
 40
0.8483322279743664
 10
788.368639873147
 20
1713.405266574681
 30
0.0
 10
788.376254323634
 20
1711.27551229787
 30
0.0
 10
788.5867909241233
 20
1707.678586065788
 30
0.0
 10
789.1326179990534
 20
1704.109743277071
 30
0.0
 10
789.413268798948
 20
1702.649081760668
 30
0.0
  0
SPLINE
  5
223
330
187
100
AcDbEntity
  8
P-SANR-FIXT
100
AcDbSpline
210
0.0
220
0.0
230
1.0
 70
     8
 71
     3
 72
     9
 73
     5
 74
     0
 42
0.000000001
 43
0.0000000001
 40
0.1516677720256376
 40
0.1516677720256376
 40
0.1516677720256376
 40
0.1516677720256376
 40
0.5
 40
1.0
 40
1.0
 40
1.0
 40
1.0
 10
816.3240109473566
 20
1702.649081760669
 30
0.0
 10
816.6046617472519
 20
1704.109743277071
 30
0.0
 10
817.1504888221807
 20
1707.678586065788
 30
0.0
 10
817.3610254226646
 20
1711.27551229787
 30
0.0
 10
817.3686398731467
 20
1713.405266574681
 30
0.0
  0
SPLINE
  5
224
330
187
100
AcDbEntity
  8
P-SANR-FIXT
100
AcDbSpline
210
0.0
220
0.0
230
1.0
 70
     8
 71
     3
 72
     9
 73
     5
 74
     0
 42
0.000000001
 43
0.0000000001
 40
0.0
 40
0.0
 40
0.0
 40
0.0
 40
0.5
 40
1.0
 40
1.0
 40
1.0
 40
1.0
 10
817.3686398731467
 20
1713.405266574681
 30
0.0
 10
817.3610254226646
 20
1715.535020851476
 30
0.0
 10
817.1128483600256
 20
1719.775018005239
 30
0.0
 10
816.3987749740362
 20
1723.975992359346
 30
0.0
 10
815.9252642002037
 20
1726.066723836485
 30
0.0
  0
SPLINE
  5
225
330
187
100
AcDbEntity
  8
P-SANR-FIXT
100
AcDbSpline
210
0.0
220
0.0
230
1.0
 70
     8
 71
     3
 72
     8
 73
     4
 74
     0
 42
0.000000001
 43
0.0000000001
 40
0.9410376962660789
 40
0.9410376962660789
 40
0.9410376962660789
 40
0.9410376962660789
 40
1.0
 40
1.0
 40
1.0
 40
1.0
 10
788.3761928065491
 20
1672.658310891398
 30
0.0
 10
788.3720554486995
 20
1672.407431783983
 30
0.0
 10
788.3695378042322
 20
1672.156417011728
 30
0.0
 10
788.3686398731473
 20
1671.905266574631
 30
0.0
  0
SPLINE
  5
226
330
187
100
AcDbEntity
  8
P-SANR-FIXT
100
AcDbSpline
210
0.0
220
0.0
230
1.0
 70
     8
 71
     3
 72
     9
 73
     5
 74
     0
 42
0.000000001
 43
0.0000000001
 40
0.0
 40
0.0
 40
0.0
 40
0.0
 40
0.5
 40
1.0
 40
1.0
 40
1.0
 40
1.0
 10
788.3686398731473
 20
1671.905266574631
 30
0.0
 10
788.3762543236344
 20
1669.775512297794
 30
0.0
 10
788.624431386289
 20
1665.53551514395
 30
0.0
 10
789.3385047723048
 20
1661.334540789765
 30
0.0
 10
789.8120155461529
 20
1659.243809312586
 30
0.0
  0
SPLINE
  5
227
330
187
100
AcDbEntity
  8
P-SANR-FIXT
100
AcDbSpline
210
0.0
220
0.0
230
1.0
 70
     8
 71
     3
 72
     9
 73
     5
 74
     0
 42
0.000000001
 43
0.0000000001
 40
0.0
 40
0.0
 40
0.0
 40
0.0
 40
0.5
 40
1.0
 40
1.0
 40
1.0
 40
1.0
 10
815.9252642001511
 20
1659.243809312586
 30
0.0
 10
816.3987749740009
 20
1661.334540789765
 30
0.0
 10
817.1128483600163
 20
1665.53551514395
 30
0.0
 10
817.3610254226646
 20
1669.775512297795
 30
0.0
 10
817.3686398731469
 20
1671.905266574631
 30
0.0
  0
SPLINE
  5
228
330
187
100
AcDbEntity
  8
P-SANR-FIXT
100
AcDbSpline
210
0.0
220
0.0
230
1.0
 70
     8
 71
     3
 72
     8
 73
     4
 74
     0
 42
0.000000001
 43
0.0000000001
 40
0.0
 40
0.0
 40
0.0
 40
0.0
 40
0.2161951136821557
 40
0.2161951136821557
 40
0.2161951136821557
 40
0.2161951136821557
 10
817.3686398731469
 20
1671.905266574631
 30
0.0
 10
817.3653474591716
 20
1672.826151510616
 30
0.0
 10
817.3402788986106
 20
1673.745212508177
 30
0.0
 10
817.2934341914636
 20
1674.662449567315
 30
0.0
  0
LINE
  5
229
330
187
100
AcDbEntity
  8
P-SANR-FIXT
100
AcDbLine
 10
789.8120155461529
 20
1659.243809312586
 30
0.0
 11
815.9252642001511
 21
1659.243809312586
 31
0.0
  0
LINE
  5
22A
330
187
100
AcDbEntity
  8
P-SANR-FIXT
100
AcDbLine
 10
789.8120155461267
 20
1659.243809312586
 30
0.0
 11
789.812015546127
 21
1651.155266574607
 31
0.0
  0
LINE
  5
22B
330
187
100
AcDbEntity
  8
P-SANR-FIXT
100
AcDbLine
 10
815.9252642001773
 20
1651.155266574607
 30
0.0
 11
815.9252642001773
 21
1659.243809312586
 31
0.0
  0
LINE
  5
22C
330
187
100
AcDbEntity
  8
P-SANR-FIXT
100
AcDbLine
 10
789.8120155461596
 20
1651.155266574607
 30
0.0
 11
815.9252642001447
 21
1651.155266574607
 31
0.0
  0
SPLINE
  5
22D
330
187
100
AcDbEntity
  8
P-SANR-FIXT
100
AcDbSpline
210
0.0
220
0.0
230
1.0
 70
    24
 71
     3
 72
     9
 73
     5
 74
     0
 42
0.000000001
 43
0.0000000001
 40
0.0
 40
0.0
 40
0.0
 40
0.0
 40
0.5
 40
1.0
 40
1.0
 40
1.0
 40
1.0
 10
789.8120155461596
 20
1651.155266574607
 30
0.0
 10
789.3385047723092
 20
1651.155266574607
 30
0.0
 10
788.6244313862898
 20
1651.155266574607
 30
0.0
 10
788.3762543236344
 20
1651.155266574607
 30
0.0
 10
788.3686398731476
 20
1651.155266574607
 30
0.0
  0
SPLINE
  5
22E
330
187
100
AcDbEntity
  8
P-SANR-FIXT
100
AcDbSpline
210
0.0
220
0.0
230
1.0
 70
    24
 71
     3
 72
     9
 73
     5
 74
     0
 42
0.000000001
 43
0.0000000001
 40
0.0
 40
0.0
 40
0.0
 40
0.0
 40
0.5
 40
1.0
 40
1.0
 40
1.0
 40
1.0
 10
817.368639873147
 20
1651.155266574607
 30
0.0
 10
817.361025422665
 20
1651.155266574607
 30
0.0
 10
817.1128483600158
 20
1651.155266574607
 30
0.0
 10
816.3987749739968
 20
1651.155266574607
 30
0.0
 10
815.9252642001447
 20
1651.155266574607
 30
0.0
  0
LINE
  5
22F
330
187
100
AcDbEntity
  8
P-SANR-FIXT
100
AcDbLine
 10
829.96863987319
 20
1678.233601992592
 30
0.0
 11
829.96863987319
 21
1664.650524285409
 31
0.0
  0
LINE
  5
230
330
187
100
AcDbEntity
  8
P-SANR-FIXT
100
AcDbLine
 10
829.96863987319
 20
1664.650524285409
 30
0.0
 11
829.96863987319
 21
1662.655266574597
 31
0.0
  0
LINE
  5
231
330
187
100
AcDbEntity
  8
P-SANR-FIXT
100
AcDbLine
 10
829.9686398731898
 20
1722.655266574596
 30
0.0
 11
829.9686398731898
 21
1720.660008863784
 31
0.0
  0
LINE
  5
232
330
187
100
AcDbEntity
  8
P-SANR-FIXT
100
AcDbLine
 10
829.9686398731898
 20
1720.660008863784
 30
0.0
 11
829.9686398731898
 21
1707.076931156602
 31
0.0
  0
LINE
  5
233
330
187
100
AcDbEntity
  8
P-SANR-FIXT
100
AcDbLine
 10
829.9686398731898
 20
1707.076931156601
 30
0.0
 11
829.9686398731898
 21
1702.259952930729
 31
0.0
  0
LINE
  5
234
330
187
100
AcDbEntity
  8
P-SANR-FIXT
100
AcDbLine
 10
829.9686398731898
 20
1702.259952930729
 30
0.0
 11
829.9686398731898
 21
1683.050580218464
 31
0.0
  0
LINE
  5
235
330
187
100
AcDbEntity
  8
P-SANR-FIXT
100
AcDbLine
 10
829.9686398731898
 20
1683.050580218464
 30
0.0
 11
829.96863987319
 21
1678.233601992592
 31
0.0
  0
LINE
  5
236
330
187
100
AcDbEntity
  8
P-SANR-FIXT
100
AcDbLine
 10
817.3686398731463
 20
1664.650524285409
 30
0.0
 11
829.96863987319
 21
1664.650524285409
 31
0.0
  0
LINE
  5
237
330
187
100
AcDbEntity
  8
P-SANR-FIXT
100
AcDbLine
 10
817.3686398731463
 20
1662.655266574597
 30
0.0
 11
829.96863987319
 21
1662.655266574597
 31
0.0
  0
LINE
  5
238
330
187
100
AcDbEntity
  8
P-SANR-FIXT
100
AcDbLine
 10
817.368639873146
 20
1722.655266574596
 30
0.0
 11
829.9686398731898
 21
1722.655266574596
 31
0.0
  0
LINE
  5
239
330
187
100
AcDbEntity
  8
P-SANR-FIXT
100
AcDbLine
 10
817.368639873146
 20
1720.660008863783
 30
0.0
 11
829.9686398731898
 21
1720.660008863783
 31
0.0
  0
LINE
  5
23A
330
187
100
AcDbEntity
  8
P-SANR-FIXT
100
AcDbLine
 10
817.368639873146
 20
1707.076931156602
 30
0.0
 11
829.9686398731898
 21
1707.076931156602
 31
0.0
  0
LINE
  5
23B
330
187
100
AcDbEntity
  8
P-SANR-FIXT
100
AcDbLine
 10
823.2473361572624
 20
1702.259952930729
 30
0.0
 11
829.9686398731898
 21
1702.259952930729
 31
0.0
  0
LINE
  5
23C
330
187
100
AcDbEntity
  8
P-SANR-FIXT
100
AcDbLine
 10
823.2483356371036
 20
1683.050580218464
 30
0.0
 11
829.9686398731898
 21
1683.050580218464
 31
0.0
  0
LINE
  5
23D
330
187
100
AcDbEntity
  8
P-SANR-FIXT
100
AcDbLine
 10
829.96863987319
 20
1678.233601992592
 30
0.0
 11
823.2483356371037
 21
1678.233601992592
 31
0.0
  0
LINE
  5
23E
330
187
100
AcDbEntity
  8
P-SANR-FIXT
100
AcDbLine
 10
856.3686398731647
 20
1722.655266574657
 30
0.0
 11
830.0273070141457
 21
1722.655266574657
 31
0.0
  0
LINE
  5
23F
330
187
100
AcDbEntity
  8
P-SANR-FIXT
100
AcDbLine
 10
830.0273070141463
 20
1662.655266574656
 30
0.0
 11
856.3686398731649
 21
1662.655266574656
 31
0.0
  0
LINE
  5
240
330
187
100
AcDbEntity
  8
P-SANR-FIXT
100
AcDbLine
 10
857.3686398731647
 20
1721.655266574657
 30
0.0
 11
856.3686398731647
 21
1722.655266574657
 31
0.0
  0
LINE
  5
241
330
187
100
AcDbEntity
  8
P-SANR-FIXT
100
AcDbLine
 10
856.3686398731649
 20
1662.655266574656
 30
0.0
 11
857.3686398731648
 21
1663.655266574656
 31
0.0
  0
LINE
  5
242
330
187
100
AcDbEntity
  8
P-SANR-FIXT
100
AcDbLine
 10
830.0273070141443
 20
1692.655266574656
 30
0.0
 11
830.0273070141441
 21
1722.655266574656
 31
0.0
  0
LINE
  5
243
330
187
100
AcDbEntity
  8
P-SANR-FIXT
100
AcDbLine
 10
830.0273070141443
 20
1662.655266574655
 30
0.0
 11
830.0273070141443
 21
1692.655266574655
 31
0.0
  0
LINE
  5
244
330
187
100
AcDbEntity
  8
P-SANR-FIXT
100
AcDbLine
 10
856.3686398731631
 20
1692.655266574656
 30
0.0
 11
856.3686398731631
 21
1722.655266574656
 31
0.0
  0
LINE
  5
245
330
187
100
AcDbEntity
  8
P-SANR-FIXT
100
AcDbLine
 10
856.3686398731633
 20
1662.655266574655
 30
0.0
 11
856.3686398731631
 21
1692.655266574656
 31
0.0
  0
LINE
  5
246
330
187
100
AcDbEntity
  8
P-SANR-FIXT
100
AcDbLine
 10
857.3686398731629
 20
1721.655266574656
 30
0.0
 11
857.3686398731631
 21
1692.655266574656
 31
0.0
  0
LINE
  5
247
330
187
100
AcDbEntity
  8
P-SANR-FIXT
100
AcDbLine
 10
857.3686398731631
 20
1692.655266574656
 30
0.0
 11
857.3686398731632
 21
1663.655266574656
 31
0.0
  0
LINE
  5
248
330
187
100
AcDbEntity
  8
P-SANR-FIXT
100
AcDbLine
 10
634.7686398731074
 20
1678.23360199259
 30
0.0
 11
634.7686398731073
 21
1683.050580218463
 31
0.0
  0
LINE
  5
249
330
187
100
AcDbEntity
  8
P-SANR-FIXT
100
AcDbLine
 10
634.7686398731073
 20
1683.050580218463
 30
0.0
 11
634.7686398731073
 21
1702.259952930728
 31
0.0
  0
LINE
  5
24A
330
187
100
AcDbEntity
  8
P-SANR-FIXT
100
AcDbLine
 10
634.7686398731073
 20
1702.259952930728
 30
0.0
 11
634.7686398731071
 21
1707.0769311566
 31
0.0
  0
LINE
  5
24B
330
187
100
AcDbEntity
  8
P-SANR-FIXT
100
AcDbLine
 10
634.7686398731071
 20
1707.0769311566
 30
0.0
 11
634.7686398731071
 21
1720.660008863783
 31
0.0
  0
LINE
  5
24C
330
187
100
AcDbEntity
  8
P-SANR-FIXT
100
AcDbLine
 10
634.7686398731071
 20
1720.660008863783
 30
0.0
 11
634.7686398731071
 21
1722.655266574595
 31
0.0
  0
LINE
  5
24D
330
187
100
AcDbEntity
  8
P-SANR-FIXT
100
AcDbLine
 10
634.7686398731074
 20
1662.655266574596
 30
0.0
 11
634.7686398731074
 21
1664.650524285408
 31
0.0
  0
LINE
  5
24E
330
187
100
AcDbEntity
  8
P-SANR-FIXT
100
AcDbLine
 10
634.7686398731074
 20
1664.650524285408
 30
0.0
 11
634.7686398731074
 21
1678.23360199259
 31
0.0
  0
LINE
  5
24F
330
187
100
AcDbEntity
  8
P-SANR-FIXT
100
AcDbLine
 10
647.3686398731512
 20
1678.23360199259
 30
0.0
 11
634.7686398731074
 21
1678.23360199259
 31
0.0
  0
LINE
  5
250
330
187
100
AcDbEntity
  8
P-SANR-FIXT
100
AcDbLine
 10
634.7686398731074
 20
1664.650524285408
 30
0.0
 11
647.3686398731512
 21
1664.650524285408
 31
0.0
  0
LINE
  5
251
330
187
100
AcDbEntity
  8
P-SANR-FIXT
100
AcDbLine
 10
634.7686398731074
 20
1662.655266574596
 30
0.0
 11
647.3686398731512
 21
1662.655266574596
 31
0.0
  0
LINE
  5
252
330
187
100
AcDbEntity
  8
P-SANR-FIXT
100
AcDbLine
 10
634.7686398731071
 20
1722.655266574595
 30
0.0
 11
647.3686398731508
 21
1722.655266574595
 31
0.0
  0
LINE
  5
253
330
187
100
AcDbEntity
  8
P-SANR-FIXT
100
AcDbLine
 10
634.7686398731071
 20
1720.660008863783
 30
0.0
 11
647.3686398731508
 21
1720.660008863783
 31
0.0
  0
LINE
  5
254
330
187
100
AcDbEntity
  8
P-SANR-FIXT
100
AcDbLine
 10
634.7686398731071
 20
1707.0769311566
 30
0.0
 11
647.3686398731508
 21
1707.0769311566
 31
0.0
  0
LINE
  5
255
330
187
100
AcDbEntity
  8
P-SANR-FIXT
100
AcDbLine
 10
634.7686398731073
 20
1702.259952930728
 30
0.0
 11
647.3686398731509
 21
1702.259952930728
 31
0.0
  0
LINE
  5
256
330
187
100
AcDbEntity
  8
P-SANR-FIXT
100
AcDbLine
 10
634.7686398731073
 20
1683.050580218463
 30
0.0
 11
647.3686398731509
 21
1683.050580218463
 31
0.0
  0
LINE
  5
257
330
187
100
AcDbEntity
  8
P-SANR-FIXT
100
AcDbLine
 10
634.7099727321541
 20
1722.655266574656
 30
0.0
 11
608.3686398731352
 21
1722.655266574655
 31
0.0
  0
LINE
  5
258
330
187
100
AcDbEntity
  8
P-SANR-FIXT
100
AcDbLine
 10
608.3686398731356
 20
1662.655266574654
 30
0.0
 11
634.7099727321543
 21
1662.655266574654
 31
0.0
  0
LINE
  5
259
330
187
100
AcDbEntity
  8
P-SANR-FIXT
100
AcDbLine
 10
608.3686398731352
 20
1722.655266574655
 30
0.0
 11
607.3686398731352
 21
1721.655266574655
 31
0.0
  0
LINE
  5
25A
330
187
100
AcDbEntity
  8
P-SANR-FIXT
100
AcDbLine
 10
607.3686398731354
 20
1663.655266574654
 30
0.0
 11
608.3686398731356
 21
1662.655266574654
 31
0.0
  0
LINE
  5
25B
330
187
100
AcDbEntity
  8
P-SANR-FIXT
100
AcDbLine
 10
607.368639873134
 20
1692.655266574654
 30
0.0
 11
607.3686398731338
 21
1721.655266574655
 31
0.0
  0
LINE
  5
25C
330
187
100
AcDbEntity
  8
P-SANR-FIXT
100
AcDbLine
 10
607.3686398731342
 20
1663.655266574654
 30
0.0
 11
607.368639873134
 21
1692.655266574654
 31
0.0
  0
LINE
  5
25D
330
187
100
AcDbEntity
  8
P-SANR-FIXT
100
AcDbLine
 10
634.7099727321527
 20
1722.655266574655
 30
0.0
 11
634.7099727321529
 21
1692.655266574655
 31
0.0
  0
LINE
  5
25E
330
187
100
AcDbEntity
  8
P-SANR-FIXT
100
AcDbLine
 10
634.7099727321529
 20
1692.655266574655
 30
0.0
 11
634.709972732153
 21
1662.655266574654
 31
0.0
  0
LINE
  5
25F
330
187
100
AcDbEntity
  8
P-SANR-FIXT
100
AcDbLine
 10
608.3686398731337
 20
1722.655266574655
 30
0.0
 11
608.368639873134
 21
1692.655266574655
 31
0.0
  0
LINE
  5
260
330
187
100
AcDbEntity
  8
P-SANR-FIXT
100
AcDbLine
 10
608.368639873134
 20
1692.655266574654
 30
0.0
 11
608.3686398731343
 21
1662.655266574654
 31
0.0
  0
LWPOLYLINE
  5
261
330
187
100
AcDbEntity
  8
P-SANR-FIXT
100
AcDbPolyline
 90
        4
 70
   128
 43
0.0
 10
745.5796603512506
 20
1724.300241529041
 10
743.9684066979663
 20
1724.799018525212
 10
741.3971344712734
 20
1725.477595294358
 10
740.2186669771654
 20
1725.735859749656
  0
LWPOLYLINE
  5
262
330
187
100
AcDbEntity
  8
P-SANR-FIXT
100
AcDbPolyline
 90
        4
 70
   128
 43
0.0
 10
740.188433941081
 20
1659.554176731109
 10
742.7619339181521
 20
1660.178643923813
 10
745.2946106411677
 20
1660.907697272537
 10
745.5886737273385
 20
1661.005930246451
  0
LINE
  5
263
330
187
100
AcDbEntity
  8
P-SANR-FIXT
100
AcDbLine
 10
714.9094637020336
 20
1729.655266574656
 30
0.0
 11
713.6080539734786
 21
1729.655266574656
 31
0.0
  0
LINE
  5
264
330
187
100
AcDbEntity
  8
P-SANR-FIXT
100
AcDbLine
 10
713.6080539734787
 20
1655.655266574655
 30
0.0
 11
714.9094637020338
 21
1655.655266574655
 31
0.0
  0
ELLIPSE
  5
265
330
187
100
AcDbEntity
  8
P-SANR-FIXT
100
AcDbEllipse
 10
713.6080539734772
 20
1692.655266574655
 30
0.0
 11
0.0
 21
37.00000000000029
 31
0.0
210
0.0
220
0.0
230
1.0
 40
0.9396926207858985
 41
4.712388980384709
 42
6.611449065129234
  0
ELLIPSE
  5
266
330
187
100
AcDbEntity
  8
P-SANR-FIXT
100
AcDbEllipse
 10
713.6080539734772
 20
1692.655266574655
 30
0.0
 11
0.000000000003535
 21
37.0
 31
0.0
210
0.0
220
0.0
230
1.0
 40
0.9396926207859076
 41
2.813328895646804
 42
4.712388980384791
  0
LINE
  5
267
330
187
100
AcDbEntity
  8
P-SANR-FIXT
100
AcDbLine
 10
761.2577785374072
 20
1689.909078358932
 30
0.0
 11
757.5268852024131
 21
1689.909078358932
 31
0.0
  0
LINE
  5
268
330
187
100
AcDbEntity
  8
P-SANR-FIXT
100
AcDbLine
 10
757.5245040296615
 20
1695.459492728767
 30
0.0
 11
761.2577785374072
 21
1695.459492728767
 31
0.0
  0
LINE
  5
269
330
187
100
AcDbEntity
  8
P-SANR-FIXT
100
AcDbLine
 10
788.3686398731486
 20
1730.705266574656
 30
0.0
 11
787.3686398731503
 21
1730.705266574656
 31
0.0
  0
LINE
  5
26A
330
187
100
AcDbEntity
  8
P-SANR-FIXT
100
AcDbLine
 10
787.368639873151
 20
1654.605266574655
 30
0.0
 11
788.3686398731492
 21
1654.605266574655
 31
0.0
  0
LINE
  5
26B
330
187
100
AcDbEntity
  8
P-SANR-FIXT
100
AcDbLine
 10
787.3686398731503
 20
1730.705266574656
 30
0.0
 11
786.5026144693659
 21
1729.205266574656
 31
0.0
  0
LINE
  5
26C
330
187
100
AcDbEntity
  8
P-SANR-FIXT
100
AcDbLine
 10
786.5026144693663
 20
1656.105266574656
 30
0.0
 11
787.368639873151
 21
1654.605266574656
 31
0.0
  0
LINE
  5
26D
330
187
100
AcDbEntity
  8
P-SANR-FIXT
100
AcDbLine
 10
785.376781444446
 20
1728.555266574656
 30
0.0
 11
734.9958302774735
 21
1728.555266574655
 31
0.0
  0
LINE
  5
26E
330
187
100
AcDbEntity
  8
P-SANR-FIXT
100
AcDbLine
 10
699.7447208226487
 20
1728.555266574655
 30
0.0
 11
679.3653415390315
 21
1728.555266574655
 31
0.0
  0
LINE
  5
26F
330
187
100
AcDbEntity
  8
P-SANR-FIXT
100
AcDbLine
 10
679.3653415390321
 20
1656.755266574655
 30
0.0
 11
699.7447208226496
 21
1656.755266574655
 31
0.0
  0
LINE
  5
270
330
187
100
AcDbEntity
  8
P-SANR-FIXT
100
AcDbLine
 10
734.9958302774737
 20
1656.755266574655
 30
0.0
 11
785.3767814444466
 21
1656.755266574656
 31
0.0
  0
LINE
  5
271
330
187
100
AcDbEntity
  8
P-SANR-FIXT
100
AcDbLine
 10
678.2322436583458
 20
1729.209460941087
 30
0.0
 11
677.3686398731501
 21
1730.705266574656
 31
0.0
  0
LINE
  5
272
330
187
100
AcDbEntity
  8
P-SANR-FIXT
100
AcDbLine
 10
677.3686398731508
 20
1654.605266574655
 30
0.0
 11
678.2322436583465
 21
1656.101072208224
 31
0.0
  0
LINE
  5
273
330
187
100
AcDbEntity
  8
P-SANR-FIXT
100
AcDbLine
 10
677.3686398731501
 20
1730.705266574656
 30
0.0
 11
676.3686398731524
 21
1730.705266574656
 31
0.0
  0
LINE
  5
274
330
187
100
AcDbEntity
  8
P-SANR-FIXT
100
AcDbLine
 10
676.3686398731531
 20
1654.605266574655
 30
0.0
 11
677.3686398731508
 21
1654.605266574655
 31
0.0
  0
LWPOLYLINE
  5
275
330
187
100
AcDbEntity
  8
P-SANR-FIXT
100
AcDbPolyline
 90
       28
 70
   128
 43
0.0
 10
785.376781444446
 20
1728.555266574655
 10
785.4287675788888
 20
1728.556306435996
 10
785.480670546606
 20
1728.559424356462
 10
785.5324073139216
 20
1728.564615348046
 10
785.5838951130445
 20
1728.571871106267
 10
785.6350515744794
 20
1728.581180023462
 10
785.6857948588013
 20
1728.592527207348
 10
785.7360437875793
 20
1728.605894504851
 10
785.7857179732469
 20
1728.621260531148
 10
785.8347379477036
 20
1728.638600703875
 10
785.8830252894472
 20
1728.657887282452
 10
785.9305027490319
 20
1728.67908941247
 10
785.9770943726498
 20
1728.702173175042
 10
786.0227256236428
 20
1728.727101641075
 10
786.067323501743
 20
1728.753834930338
 10
786.1108166598596
 20
1728.782330275273
 10
786.1531355182171
 20
1728.812542089406
 10
786.19421237567
 20
1728.844422040279
 10
786.233981518009
 20
1728.877919126772
 10
786.2723793230896
 20
1728.912979760692
 10
786.3093443626154
 20
1728.949547852504
 10
786.3448175004081
 20
1728.987564901062
 10
786.3787419870146
 20
1729.026970087197
 10
786.4110635504931
 20
1729.067700371019
 10
786.4417304832374
 20
1729.109690592762
 10
786.4706937246962
 20
1729.152873577027
 10
786.4979069398623
 20
1729.197180240253
 10
786.5026144693659
 20
1729.205266574656
  0
LWPOLYLINE
  5
276
330
187
100
AcDbEntity
  8
P-SANR-FIXT
100
AcDbPolyline
 90
       28
 70
   128
 43
0.0
 10
786.5026144693663
 20
1656.105266574656
 10
786.4757208558075
 20
1656.149767957057
 10
786.4470691736186
 20
1656.1931582854
 10
786.4167052593788
 20
1656.235368144413
 10
786.3846776888735
 20
1656.276330007327
 10
786.3510376993835
 20
1656.315978343901
 10
786.3158391077162
 20
1656.354249725251
 10
786.2791382241089
 20
1656.391082925334
 10
786.2409937621468
 20
1656.426419018887
 10
786.2014667448319
 20
1656.460201475696
 10
786.1606204069597
 20
1656.492376251038
 10
786.1185200939578
 20
1656.522891872137
 10
786.0752331573458
 20
1656.551699520507
 10
786.030828846988
 20
1656.578753110058
 10
785.9853782003091
 20
1656.604009360816
 10
785.9389539286476
 20
1656.627427868168
 10
785.8916303009352
 20
1656.648971167498
 10
785.8434830248811
 20
1656.668604794123
 10
785.7945891258558
 20
1656.686297338429
 10
785.7450268236681
 20
1656.702020496119
 10
785.6948754074281
 20
1656.715749113494
 10
785.644215108704
 20
1656.727461227695
 10
785.5931269731663
 20
1656.737138101839
 10
785.5416927309342
 20
1656.744764254991
 10
785.4899946658227
 20
1656.750327486932
 10
785.438115483708
 20
1656.753818897679
 10
785.3861381802145
 20
1656.755232901718
 10
785.3767814444466
 20
1656.755266574656
  0
LWPOLYLINE
  5
277
330
187
100
AcDbEntity
  8
P-SANR-FIXT
100
AcDbPolyline
 90
       28
 70
   128
 43
0.0
 10
678.2322436583458
 20
1729.209460941087
 10
678.2593108129356
 20
1729.164672396987
 10
678.288147380746
 20
1729.121002076434
 10
678.3187072294207
 20
1729.078519842628
 10
678.3509414697207
 20
1729.037293658078
 10
678.3847985337378
 20
1728.997389475886
 10
678.4202242573919
 20
1728.958871134232
 10
678.4571619670826
 20
1728.921800254244
 10
678.4955525703536
 20
1728.886236141423
 10
678.5353346504295
 20
1728.852235690763
 10
678.5764445644684
 20
1728.819853295733
 10
678.6188165453775
 20
1728.789140761254
 10
678.6623828070263
 20
1728.760147220833
 10
678.7070736526898
 20
1728.732919057947
 10
678.7528175865486
 20
1728.70749983185
 10
678.7995414280662
 20
1728.683930207881
 10
678.8471704290641
 20
1728.66224789241
 10
678.8956283933006
 20
1728.642487572516
 10
678.9448377983701
 20
1728.624680860496
 10
678.9947199197221
 20
1728.608856243292
 10
679.045194956603
 20
1728.595039036914
 10
679.0961821597217
 20
1728.583251345945
 10
679.1475999604297
 20
1728.573512028177
 10
679.1993661012142
 20
1728.565836664439
 10
679.2513977672932
 20
1728.560237533677
 10
679.3036117191
 20
1728.556723593306
 10
679.3559244254506
 20
1728.55530046488
 10
679.3653415390315
 20
1728.555266574655
  0
LWPOLYLINE
  5
278
330
187
100
AcDbEntity
  8
P-SANR-FIXT
100
AcDbPolyline
 90
       28
 70
   128
 43
0.0
 10
679.3653415390321
 20
1656.755266574655
 10
679.3130199447475
 20
1656.754220003223
 10
679.2607820538525
 20
1656.751081963217
 10
679.2087114358292
 20
1656.745857474832
 10
679.1568913925579
 20
1656.738554896136
 10
679.1054048250543
 20
1656.729185909695
 10
679.0543341008428
 20
1656.717765503891
 10
679.0037609221874
 20
1656.704311948935
 10
678.9537661953861
 20
1656.688846767646
 10
678.9044299013367
 20
1656.671394701015
 10
678.8558309675849
 20
1656.651983668625
 10
678.8080471420576
 20
1656.630644723988
 10
678.7611548686824
 20
1656.607412004863
 10
678.7152291650935
 20
1656.582322678644
 10
678.6703435026195
 20
1656.555416882903
 10
678.6265696887457
 20
1656.52673766117
 10
678.5839777522357
 20
1656.496330894085
 10
678.5426358311029
 20
1656.464245225987
 10
678.5026100636014
 20
1656.430531987101
 10
678.463964482421
 20
1656.395245111419
 10
678.4267609122479
 20
1656.358441050412
 10
678.3910588708575
 20
1656.320178682727
 10
678.3569154739005
 20
1656.280519219992
 10
678.3243853435281
 20
1656.239526108885
 10
678.2935205210097
 20
1656.197264929641
 10
678.2643703834773
 20
1656.15380329113
 10
678.2369815649326
 20
1656.109210722702
 10
678.2322436583465
 20
1656.101072208223
  0
LINE
  5
279
330
187
100
AcDbEntity
  8
P-SANR-FIXT
100
AcDbLine
 10
787.3686398731487
 20
1730.705266574655
 30
0.0
 11
787.3686398731489
 21
1702.657173571959
 31
0.0
  0
LINE
  5
27A
330
187
100
AcDbEntity
  8
P-SANR-FIXT
100
AcDbLine
 10
787.3686398731491
 20
1674.639958601868
 30
0.0
 11
787.3686398731493
 21
1654.605266574655
 31
0.0
  0
LINE
  5
27B
330
187
100
AcDbEntity
  8
P-SANR-FIXT
100
AcDbLine
 10
677.3686398731487
 20
1730.705266574655
 30
0.0
 11
677.3686398731488
 21
1720.573516932861
 31
0.0
  0
LINE
  5
27C
330
187
100
AcDbEntity
  8
P-SANR-FIXT
100
AcDbLine
 10
677.3686398731491
 20
1664.73649012732
 30
0.0
 11
677.3686398731491
 21
1654.605266574655
 31
0.0
  0
ENDBLK
  5
27E
330
187
100
AcDbEntity
  8
0
100
AcDbBlockEnd
  0
BLOCK
  5
31E
330
280
100
AcDbEntity
  8
0
100
AcDbBlockBegin
  2
Automatic flow rate regulator valve_Caleffi_121 DN15 - 2___Pressure gauge H-V2-Est - Idraulica
 70
     0
 10
0.0
 20
0.0
 30
0.0
  3
Automatic flow rate regulator valve_Caleffi_121 DN15 - 2___Pressure gauge H-V2-Est - Idraulica
  1

  0
LINE
  5
281
330
280
100
AcDbEntity
  8
M-PIPE
100
AcDbLine
 10
1143.924869398236
 20
2120.373573815516
 30
0.0
 11
1144.150620947882
 21
2123.232127951434
 31
0.0
1001
REVIT
1002
{
1070
     3
1000
923097
1002
}
  0
LINE
  5
282
330
280
100
AcDbEntity
  8
M-PIPE
100
AcDbLine
 10
1210.303838488004
 20
2120.373573815514
 30
0.0
 11
1210.078086938358
 21
2123.232127951432
 31
0.0
1001
REVIT
1002
{
1070
     3
1000
923097
1002
}
  0
ELLIPSE
  5
283
330
280
100
AcDbEntity
  8
M-PIPE
100
AcDbEllipse
 10
1177.114353943117
 20
2120.087804647768
 30
0.0
 11
33.19999999999992
 21
0.0
 31
0.0
210
0.0
220
0.0
230
1.0
 40
0.3420201433256376
 41
3.116423335088674
 42
4.712388980384676
1001
REVIT
1002
{
1070
     3
1000
923097
1002
}
  0
ELLIPSE
  5
284
330
280
100
AcDbEntity
  8
M-PIPE
100
AcDbEllipse
 10
1434.133123588462
 20
2124.196001755317
 30
0.0
 11
236.1572155968442
 21
185.012890149702
 31
0.0
210
0.0
220
0.0
230
0.9999999999999998
 40
0.9076733711902395
 41
2.399156183309999
 42
2.444393675997414
1001
REVIT
1002
{
1070
     3
1000
923097
1002
}
  0
ELLIPSE
  5
285
330
280
100
AcDbEntity
  8
M-PIPE
100
AcDbEllipse
 10
1177.114353943118
 20
2122.906882510104
 30
0.0
 11
32.97744693864721
 21
0.0
 31
0.0
210
0.0
220
0.0
230
1.0
 40
0.3420201433256491
 41
2.879793265790053
 42
3.403392041389371
1001
REVIT
1002
{
1070
     3
1000
923097
1002
}
  0
ELLIPSE
  5
286
330
280
100
AcDbEntity
  8
M-PIPE
100
AcDbEllipse
 10
1434.133123588463
 20
2077.087534607231
 30
0.0
 11
-236.1572155968456
 21
185.0128901497006
 31
0.0
210
0.0
220
0.0
230
1.0
 40
0.907673371190248
 41
0.5105023395578858
 42
0.5390740273873658
1001
REVIT
1002
{
1070
     3
1000
923097
1002
}
  0
ELLIPSE
  5
287
330
280
100
AcDbEntity
  8
M-PIPE
100
AcDbEllipse
 10
920.095584297772
 20
2077.087534607244
 30
0.0
 11
236.1572155968464
 21
185.0128901496987
 31
0.0
210
0.0
220
0.0
230
1.0
 40
0.9076733711902452
 41
5.744111279792184
 42
5.772682967622081
1001
REVIT
1002
{
1070
     3
1000
923097
1002
}
  0
ELLIPSE
  5
288
330
280
100
AcDbEntity
  8
M-PIPE
100
AcDbEllipse
 10
1177.114353943118
 20
2122.906882510104
 30
0.0
 11
32.97744693864698
 21
0.0
 31
0.0
210
0.0
220
0.0
230
1.0
 40
0.3420201433256418
 41
6.021385919379831
 42
6.544984694979214
1001
REVIT
1002
{
1070
     3
1000
923097
1002
}
  0
ELLIPSE
  5
289
330
280
100
AcDbEntity
  8
M-PIPE
100
AcDbEllipse
 10
920.0955842977721
 20
2124.196001755329
 30
0.0
 11
-236.1572155968425
 21
185.0128901497036
 31
0.0
210
0.0
220
0.0
230
1.0
 40
0.9076733711902484
 41
3.838791631182118
 42
3.884029123869532
1001
REVIT
1002
{
1070
     3
1000
923097
1002
}
  0
ELLIPSE
  5
28A
330
280
100
AcDbEntity
  8
M-PIPE
100
AcDbEllipse
 10
1177.114353943117
 20
2120.087804647768
 30
0.0
 11
-33.20000000000005
 21
0.0000000000009383
 31
0.0
210
0.0
220
0.0
230
1.0
 40
0.342020143325649
 41
1.570796326794894
 42
3.166761972090868
1001
REVIT
1002
{
1070
     3
1000
923097
1002
}
  0
LINE
  5
28B
330
280
100
AcDbEntity
  8
M-PIPE
100
AcDbLine
 10
1146.675904092649
 20
2132.803230947363
 30
0.0
 11
1146.591097832388
 21
2132.795458960649
 31
0.0
1001
REVIT
1002
{
1070
     3
1000
923097
1002
}
  0
ELLIPSE
  5
28C
330
280
100
AcDbEntity
  8
M-PIPE
100
AcDbEllipse
 10
1177.114353943118
 20
2135.592732890736
 30
0.0
 11
-31.59999999999991
 21
0.0000000000005141
 31
0.0
210
0.0
220
0.0
230
1.0
 40
0.342020143325658
 41
0.2617993877996889
 42
1.570796326794897
1001
REVIT
1002
{
1070
     3
1000
923097
1002
}
  0
ELLIPSE
  5
28D
330
280
100
AcDbEntity
  8
M-PIPE
100
AcDbEllipse
 10
1177.114353943118
 20
2135.592732890737
 30
0.0
 11
31.59999999999975
 21
0.0
 31
0.0
210
0.0
220
0.0
230
1.0
 40
0.3420201433256448
 41
4.712388980384683
 42
6.021385919379803
1001
REVIT
1002
{
1070
     3
1000
923097
1002
}
  0
LINE
  5
28E
330
280
100
AcDbEntity
  8
M-PIPE
100
AcDbLine
 10
1207.637610053848
 20
2132.795458960647
 30
0.0
 11
1207.552803793512
 21
2132.803230947368
 31
0.0
1001
REVIT
1002
{
1070
     3
1000
923097
1002
}
  0
LINE
  5
28F
330
280
100
AcDbEntity
  8
M-PIPE
100
AcDbLine
 10
1145.79529650485
 20
2125.777086873926
 30
0.0
 11
1145.260586260006
 21
2125.82608987094
 31
0.0
1001
REVIT
1002
{
1070
     3
1000
923097
1002
}
  0
LINE
  5
290
330
280
100
AcDbEntity
  8
M-PIPE
100
AcDbLine
 10
1208.96812162623
 20
2125.82608987094
 30
0.0
 11
1208.433411381385
 21
2125.777086873926
 31
0.0
1001
REVIT
1002
{
1070
     3
1000
923097
1002
}
  0
LINE
  5
291
330
280
100
AcDbEntity
  8
M-PIPE
100
AcDbLine
 10
1140.614353943104
 20
2078.741329333153
 30
0.0
 11
1140.614353943104
 21
2074.982558850027
 31
0.0
1001
REVIT
1002
{
1070
     3
1000
923097
1002
}
  0
LINE
  5
292
330
280
100
AcDbEntity
  8
M-PIPE
100
AcDbLine
 10
1213.614353943095
 20
2074.982558850027
 30
0.0
 11
1213.614353943095
 21
2078.741329333153
 31
0.0
1001
REVIT
1002
{
1070
     3
1000
923097
1002
}
  0
LINE
  5
293
330
280
100
AcDbEntity
  8
M-PIPE
100
AcDbLine
 10
1143.117565019626
 20
2089.85782443008
 30
0.0
 11
1143.624950217318
 21
2120.375963081569
 31
0.0
1001
REVIT
1002
{
1070
     3
1000
923097
1002
}
  0
LINE
  5
294
330
280
100
AcDbEntity
  8
M-PIPE
100
AcDbLine
 10
1211.111142866572
 20
2089.857824430068
 30
0.0
 11
1210.603757668883
 21
2120.375963081559
 31
0.0
1001
REVIT
1002
{
1070
     3
1000
923097
1002
}
  0
ELLIPSE
  5
295
330
280
100
AcDbEntity
  8
M-PIPE
100
AcDbEllipse
 10
1177.114353943097
 20
2074.982558850026
 30
0.0
 11
-36.49999999999568
 21
0.0000000000008532
 31
0.0
210
0.0
220
0.0
230
1.0
 40
0.3420201433256514
 41
0.0
 42
1.570796326794893
1001
REVIT
1002
{
1070
     3
1000
923097
1002
}
  0
ELLIPSE
  5
296
330
280
100
AcDbEntity
  8
M-PIPE
100
AcDbEllipse
 10
1177.114353943097
 20
2078.741329333151
 30
0.0
 11
-36.49999999999568
 21
0.0000000000010315
 31
0.0
210
0.0
220
0.0
230
1.0
 40
0.3420201433256514
 41
1.283114227377761
 42
1.570796326794901
1001
REVIT
1002
{
1070
     3
1000
923097
1002
}
  0
LINE
  5
297
330
280
100
AcDbEntity
  8
M-PIPE
100
AcDbLine
 10
1166.758196354469
 20
2066.770624316757
 30
0.0
 11
1166.758196354469
 21
2078.046935766207
 31
0.0
1001
REVIT
1002
{
1070
     3
1000
923097
1002
}
  0
LINE
  5
298
330
280
100
AcDbEntity
  8
M-PIPE
100
AcDbLine
 10
1159.688525859556
 20
2079.048491615954
 30
0.0
 11
1159.688525859556
 21
2067.772180166504
 31
0.0
1001
REVIT
1002
{
1070
     3
1000
923097
1002
}
  0
ELLIPSE
  5
299
330
280
100
AcDbEntity
  8
M-PIPE
100
AcDbEllipse
 10
1177.114353943097
 20
2078.741329333151
 30
0.0
 11
36.4999999999956
 21
0.0
 31
0.0
210
0.0
220
0.0
230
1.0
 40
0.3420201433256585
 41
3.639308717569254
 42
4.214672916405162
1001
REVIT
1002
{
1070
     3
1000
923097
1002
}
  0
LINE
  5
29A
330
280
100
AcDbEntity
  8
M-PIPE
100
AcDbLine
 10
1145.042707343608
 20
2072.781345114451
 30
0.0
 11
1145.042707343608
 21
2084.057656563901
 31
0.0
1001
REVIT
1002
{
1070
     3
1000
923097
1002
}
  0
LINE
  5
29B
330
280
100
AcDbEntity
  8
M-PIPE
100
AcDbLine
 10
1142.114353943113
 20
2086.475626279831
 30
0.0
 11
1142.114353943113
 21
2075.199314830381
 31
0.0
1001
REVIT
1002
{
1070
     3
1000
923097
1002
}
  0
ELLIPSE
  5
29C
330
280
100
AcDbEntity
  8
M-PIPE
100
AcDbEllipse
 10
1177.114353943097
 20
2078.741329333151
 30
0.0
 11
36.49999999999563
 21
0.0
 31
0.0
210
0.0
220
0.0
230
1.0
 40
0.3420201433256584
 41
2.853910554172181
 42
3.429274753007326
1001
REVIT
1002
{
1070
     3
1000
923097
1002
}
  0
ELLIPSE
  5
29D
330
280
100
AcDbEntity
  8
M-PIPE
100
AcDbEllipse
 10
1177.114353943097
 20
2074.982558850026
 30
0.0
 11
-36.49999999999546
 21
0.0000000000003426
 31
0.0
210
0.0
220
0.0
230
1.0
 40
0.3420201433256536
 41
1.570796326794888
 42
3.141592653589779
1001
REVIT
1002
{
1070
     3
1000
923097
1002
}
  0
ELLIPSE
  5
29E
330
280
100
AcDbEntity
  8
M-PIPE
100
AcDbEllipse
 10
1177.114353943097
 20
2078.741329333152
 30
0.0
 11
36.49999999999551
 21
0.0
 31
0.0
210
0.0
220
0.0
230
0.9999999999999998
 40
0.3420201433256577
 41
5.99550320776523
 42
6.570867406593896
1001
REVIT
1002
{
1070
     3
1000
923097
1002
}
  0
LINE
  5
29F
330
280
100
AcDbEntity
  8
M-PIPE
100
AcDbLine
 10
1212.114353943113
 20
2075.199314830418
 30
0.0
 11
1212.114353943113
 21
2086.475626279867
 31
0.0
1001
REVIT
1002
{
1070
     3
1000
923097
1002
}
  0
LINE
  5
2A0
330
280
100
AcDbEntity
  8
M-PIPE
100
AcDbLine
 10
1209.186000542549
 20
2084.057656563875
 30
0.0
 11
1209.186000542548
 21
2072.781345114426
 31
0.0
1001
REVIT
1002
{
1070
     3
1000
923097
1002
}
  0
ELLIPSE
  5
2A1
330
280
100
AcDbEntity
  8
M-PIPE
100
AcDbEllipse
 10
1177.114353943097
 20
2078.741329333152
 30
0.0
 11
36.49999999999563
 21
0.0
 31
0.0
210
0.0
220
0.0
230
1.0
 40
0.3420201433256629
 41
5.210105044366454
 42
5.785469243197732
1001
REVIT
1002
{
1070
     3
1000
923097
1002
}
  0
LINE
  5
2A2
330
280
100
AcDbEntity
  8
M-PIPE
100
AcDbLine
 10
1194.540182026708
 20
2067.772180166517
 30
0.0
 11
1194.540182026708
 21
2079.048491615966
 31
0.0
1001
REVIT
1002
{
1070
     3
1000
923097
1002
}
  0
LINE
  5
2A3
330
280
100
AcDbEntity
  8
M-PIPE
100
AcDbLine
 10
1187.470511531725
 20
2078.046935766207
 30
0.0
 11
1187.470511531725
 21
2066.770624316757
 31
0.0
1001
REVIT
1002
{
1070
     3
1000
923097
1002
}
  0
ELLIPSE
  5
2A4
330
280
100
AcDbEntity
  8
M-PIPE
100
AcDbEllipse
 10
1177.114353943097
 20
2078.741329333151
 30
0.0
 11
36.49999999999554
 21
0.0
 31
0.0
210
0.0
220
0.0
230
1.0
 40
0.3420201433256645
 41
4.712388980384683
 42
5.000071079801795
1001
REVIT
1002
{
1070
     3
1000
923097
1002
}
  0
ELLIPSE
  5
2A5
330
280
100
AcDbEntity
  8
M-PIPE
100
AcDbEllipse
 10
1177.114353943097
 20
2090.017640782601
 30
0.0
 11
36.49999999999554
 21
0.0
 31
0.0
210
0.0
220
0.0
230
1.0
 40
0.3420201433256508
 41
2.779352090989104
 42
2.85391055417221
1001
REVIT
1002
{
1070
     3
1000
923097
1002
}
  0
LINE
  5
2A6
330
280
100
AcDbEntity
  8
M-PIPE
100
AcDbLine
 10
1142.114353943114
 20
2093.559655285373
 30
0.0
 11
1142.114353943114
 21
2086.47562627983
 31
0.0
1001
REVIT
1002
{
1070
     3
1000
923097
1002
}
  0
ELLIPSE
  5
2A7
330
280
100
AcDbEntity
  8
M-PIPE
100
AcDbEllipse
 10
1177.114353943097
 20
2090.017640782601
 30
0.0
 11
36.4999999999954
 21
0.0
 31
0.0
210
0.0
220
0.0
230
1.0
 40
0.3420201433256544
 41
3.429274753007329
 42
3.639308717569297
1001
REVIT
1002
{
1070
     3
1000
923097
1002
}
  0
LINE
  5
2A8
330
280
100
AcDbEntity
  8
M-PIPE
100
AcDbLine
 10
1145.042707343606
 20
2084.057656563901
 30
0.0
 11
1159.688525859558
 21
2079.048491615953
 31
0.0
1001
REVIT
1002
{
1070
     3
1000
923097
1002
}
  0
ELLIPSE
  5
2A9
330
280
100
AcDbEntity
  8
M-PIPE
100
AcDbEllipse
 10
1177.114353943097
 20
2090.017640782601
 30
0.0
 11
36.49999999999536
 21
0.0
 31
0.0
210
0.0
220
0.0
230
1.0
 40
0.3420201433256734
 41
4.214672916405133
 42
4.424706880967539
1001
REVIT
1002
{
1070
     3
1000
923097
1002
}
  0
LINE
  5
2AA
330
280
100
AcDbEntity
  8
M-PIPE
100
AcDbLine
 10
1166.758196354467
 20
2078.046935766208
 30
0.0
 11
1177.114353943097
 21
2078.046935766207
 31
0.0
1001
REVIT
1002
{
1070
     3
1000
923097
1002
}
  0
LINE
  5
2AB
330
280
100
AcDbEntity
  8
M-PIPE
100
AcDbLine
 10
1177.114353943097
 20
2078.046935766207
 30
0.0
 11
1187.470511531727
 21
2078.046935766207
 31
0.0
1001
REVIT
1002
{
1070
     3
1000
923097
1002
}
  0
ELLIPSE
  5
2AC
330
280
100
AcDbEntity
  8
M-PIPE
100
AcDbEllipse
 10
1177.114353943097
 20
2090.017640782601
 30
0.0
 11
36.49999999999548
 21
0.0
 31
0.0
210
0.0
220
0.0
230
1.0
 40
0.3420201433256743
 41
5.000071079801815
 42
5.210105044366467
1001
REVIT
1002
{
1070
     3
1000
923097
1002
}
  0
LINE
  5
2AD
330
280
100
AcDbEntity
  8
M-PIPE
100
AcDbLine
 10
1194.540182026708
 20
2079.048491615966
 30
0.0
 11
1209.186000542548
 21
2084.057656563875
 31
0.0
1001
REVIT
1002
{
1070
     3
1000
923097
1002
}
  0
ELLIPSE
  5
2AE
330
280
100
AcDbEntity
  8
M-PIPE
100
AcDbEllipse
 10
1177.114353943097
 20
2090.017640782601
 30
0.0
 11
36.49999999999575
 21
0.0
 31
0.0
210
0.0
220
0.0
230
1.0
 40
0.342020143325666
 41
5.785469243197741
 42
5.99550320776517
1001
REVIT
1002
{
1070
     3
1000
923097
1002
}
  0
LINE
  5
2AF
330
280
100
AcDbEntity
  8
M-PIPE
100
AcDbLine
 10
1212.114353943114
 20
2086.475626279868
 30
0.0
 11
1212.114353943114
 21
2093.559655285333
 31
0.0
1001
REVIT
1002
{
1070
     3
1000
923097
1002
}
  0
ELLIPSE
  5
2B0
330
280
100
AcDbEntity
  8
M-PIPE
100
AcDbEllipse
 10
1177.114353943097
 20
2090.017640782601
 30
0.0
 11
36.49999999999578
 21
0.0
 31
0.0
210
0.0
220
0.0
230
1.0
 40
0.342020143325658
 41
0.287682099414311
 42
0.3639017062948908
1001
REVIT
1002
{
1070
     3
1000
923097
1002
}
  0
ELLIPSE
  5
2B1
330
280
100
AcDbEntity
  8
M-PIPE
100
AcDbEllipse
 10
1177.114353943097
 20
2090.017640782601
 30
0.0
 11
-33.99999999999887
 21
0.0000000000005154
 31
0.0
210
0.0
220
0.0
230
1.0
 40
0.3420201433256573
 41
0.0000000000000069
 42
1.570796326794896
1001
REVIT
1002
{
1070
     3
1000
923097
1002
}
  0
ELLIPSE
  5
2B2
330
280
100
AcDbEntity
  8
M-PIPE
100
AcDbEllipse
 10
1177.114353943097
 20
2090.017640782601
 30
0.0
 11
-33.99999999999887
 21
0.0000000000005154
 31
0.0
210
0.0
220
0.0
230
1.0
 40
0.3420201433256573
 41
1.570796326794896
 42
3.141592653589793
1001
REVIT
1002
{
1070
     3
1000
923097
1002
}
  0
ELLIPSE
  5
2B3
330
280
100
AcDbEntity
  8
M-PIPE
100
AcDbEllipse
 10
1177.114353943098
 20
2120.08780464775
 30
0.0
 11
33.49999999999682
 21
0.0
 31
0.0
210
0.0
220
0.0
230
1.0
 40
0.3420201433256671
 41
2.981987575206843
 42
4.712388980384676
1001
REVIT
1002
{
1070
     3
1000
923097
1002
}
  0
ELLIPSE
  5
2B4
330
280
100
AcDbEntity
  8
M-PIPE
100
AcDbEllipse
 10
1177.114353943098
 20
2120.08780464775
 30
0.0
 11
33.49999999999678
 21
0.0
 31
0.0
210
0.0
220
0.0
230
1.0
 40
0.3420201433256695
 41
4.712388980384676
 42
6.442790385551077
1001
REVIT
1002
{
1070
     3
1000
923097
1002
}
  0
LINE
  5
2B5
330
280
100
AcDbEntity
  8
M-PIPE
100
AcDbLine
 10
1159.688525859559
 20
2067.772180166503
 30
0.0
 11
1145.042707343606
 21
2072.781345114452
 31
0.0
1001
REVIT
1002
{
1070
     3
1000
923097
1002
}
  0
LINE
  5
2B6
330
280
100
AcDbEntity
  8
M-PIPE
100
AcDbLine
 10
1209.186000542548
 20
2072.781345114426
 30
0.0
 11
1194.540182026708
 21
2067.772180166517
 31
0.0
1001
REVIT
1002
{
1070
     3
1000
923097
1002
}
  0
LINE
  5
2B7
330
280
100
AcDbEntity
  8
M-PIPE
100
AcDbLine
 10
1187.470511531727
 20
2066.770624316758
 30
0.0
 11
1166.758196354467
 21
2066.770624316758
 31
0.0
1001
REVIT
1002
{
1070
     3
1000
923097
1002
}
  0
LWPOLYLINE
  5
2B8
330
280
100
AcDbEntity
  8
P-SANR-FIXT
100
AcDbPolyline
 90
       39
 70
   128
 43
0.0
 10
1151.720644873512
 20
2166.53675794729
 10
1152.014803561725
 20
2167.458624655609
 10
1152.388484264828
 20
2168.312030193412
 10
1152.823487643678
 20
2169.091411280807
 10
1153.303877558328
 20
2169.797540824585
 10
1153.817158963739
 20
2170.435292003465
 10
1154.354377463516
 20
2171.011611260361
 10
1154.909618604688
 20
2171.53404689857
 10
1155.479300261386
 20
2172.009850455199
 10
1156.061489272701
 20
2172.445521071592
 10
1156.655340367324
 20
2172.846639302019
 10
1157.260676550805
 20
2173.217866334747
 10
1157.877694221862
 20
2173.563024859578
 10
1158.506765452248
 20
2173.88521132181
 10
1159.148310757976
 20
2174.18691233274
 10
1159.802720703286
 20
2174.470112158092
 10
1160.470310230535
 20
2174.736386203285
 10
1161.151294344133
 20
2174.986979584787
 10
1161.845777386284
 20
2175.222871835974
 10
1162.553750731555
 20
2175.444829554646
 10
1163.275095517019
 20
2175.653448948169
 10
1164.00958823217
 20
2175.849190099708
 10
1164.756907793802
 20
2176.032404538217
 10
1165.516643255429
 20
2176.203357432629
 10
1166.288301640415
 20
2176.362245486144
 10
1167.071315605364
 20
2176.509211394725
 10
1167.865050777824
 20
2176.64435555772
 10
1168.668812697826
 20
2176.767745585341
 10
1169.481853344801
 20
2176.879424033117
 10
1170.303377262015
 20
2176.979414702369
 10
1171.13254730771
 20
2177.067727773726
 10
1171.968490070786
 20
2177.144363983843
 10
1172.810300992412
 20
2177.20931801042
 10
1173.657049235504
 20
2177.262581194877
 10
1174.507782342976
 20
2177.304143703448
 10
1175.361530723872
 20
2177.333996204327
 10
1176.217312004473
 20
2177.352131119573
 10
1177.074135279616
 20
2177.358543494644
 10
1177.114353943079
 20
2177.358556405335
  0
LWPOLYLINE
  5
2B9
330
280
100
AcDbEntity
  8
P-SANR-FIXT
100
AcDbPolyline
 90
       39
 70
   128
 43
0.0
 10
1202.508063012646
 20
2166.53675794729
 10
1202.213904324434
 20
2167.45862465561
 10
1201.840223621331
 20
2168.312030193412
 10
1201.405220242481
 20
2169.091411280807
 10
1200.924830327831
 20
2169.797540824585
 10
1200.41154892242
 20
2170.435292003465
 10
1199.874330422643
 20
2171.011611260361
 10
1199.319089281471
 20
2171.53404689857
 10
1198.749407624772
 20
2172.009850455199
 10
1198.167218613457
 20
2172.445521071592
 10
1197.573367518835
 20
2172.846639302019
 10
1196.968031335354
 20
2173.217866334748
 10
1196.351013664297
 20
2173.563024859578
 10
1195.721942433912
 20
2173.88521132181
 10
1195.080397128183
 20
2174.18691233274
 10
1194.425987182873
 20
2174.470112158092
 10
1193.758397655624
 20
2174.736386203286
 10
1193.077413542025
 20
2174.986979584787
 10
1192.382930499875
 20
2175.222871835974
 10
1191.674957154604
 20
2175.444829554646
 10
1190.95361236914
 20
2175.653448948169
 10
1190.219119653989
 20
2175.849190099708
 10
1189.471800092358
 20
2176.032404538217
 10
1188.71206463073
 20
2176.20335743263
 10
1187.940406245744
 20
2176.362245486144
 10
1187.157392280795
 20
2176.509211394725
 10
1186.363657108334
 20
2176.64435555772
 10
1185.559895188333
 20
2176.767745585341
 10
1184.746854541358
 20
2176.879424033117
 10
1183.925330624144
 20
2176.979414702369
 10
1183.09616057845
 20
2177.067727773726
 10
1182.260217815373
 20
2177.144363983843
 10
1181.418406893746
 20
2177.20931801042
 10
1180.571658650655
 20
2177.262581194877
 10
1179.720925543183
 20
2177.304143703448
 10
1178.867177162287
 20
2177.333996204327
 10
1178.011395881686
 20
2177.352131119573
 10
1177.154572606543
 20
2177.358543494644
 10
1177.114353943079
 20
2177.358556405335
  0
LINE
  5
2BA
330
280
100
AcDbEntity
  8
P-SANR-FIXT
100
AcDbLine
 10
1145.617701869679
 20
2136.116182503382
 30
0.0
 11
1146.045945603072
 21
2138.998566602324
 31
0.0
  0
LINE
  5
2BB
330
280
100
AcDbEntity
  8
P-SANR-FIXT
100
AcDbLine
 10
1146.064242123606
 20
2139.121715164098
 30
0.0
 11
1146.129461566472
 21
2139.560688277768
 31
0.0
  0
LINE
  5
2BC
330
280
100
AcDbEntity
  8
P-SANR-FIXT
100
AcDbLine
 10
1151.255189272538
 20
2164.725617452186
 30
0.0
 11
1151.594578960015
 21
2166.046221190382
 31
0.0
  0
LINE
  5
2BD
330
280
100
AcDbEntity
  8
P-SANR-FIXT
100
AcDbLine
 10
1151.595769365104
 20
2166.050853191494
 30
0.0
 11
1151.720644873512
 21
2166.53675794729
 31
0.0
  0
LINE
  5
2BE
330
280
100
AcDbEntity
  8
P-SANR-FIXT
100
AcDbLine
 10
1202.973518613621
 20
2164.725617452186
 30
0.0
 11
1202.634128959229
 21
2166.046221061641
 31
0.0
  0
LINE
  5
2BF
330
280
100
AcDbEntity
  8
P-SANR-FIXT
100
AcDbLine
 10
1202.632938521055
 20
2166.050853191494
 30
0.0
 11
1202.508063012645
 21
2166.536757947294
 31
0.0
  0
LINE
  5
2C0
330
280
100
AcDbEntity
  8
P-SANR-FIXT
100
AcDbLine
 10
1208.611006016479
 20
2136.116182503387
 30
0.0
 11
1208.182762283088
 21
2138.998566602324
 31
0.0
  0
LINE
  5
2C1
330
280
100
AcDbEntity
  8
P-SANR-FIXT
100
AcDbLine
 10
1208.164465762553
 20
2139.121715164098
 30
0.0
 11
1208.099246319687
 21
2139.560688277773
 31
0.0
  0
ELLIPSE
  5
2C2
330
280
100
AcDbEntity
  8
P-SANR-FIXT
100
AcDbEllipse
 10
1141.669492271522
 20
2138.998566602322
 30
0.0
 11
10.0
 21
0.0
 31
0.0
210
0.0
220
0.0
230
1.0
 40
0.3420201433257071
 41
0.8879524938331186
 42
0.9822035717131189
  0
ELLIPSE
  5
2C3
330
280
100
AcDbEntity
  8
P-SANR-FIXT
100
AcDbEllipse
 10
1212.559215614634
 20
2138.998566602322
 30
0.0
 11
9.999999999999957
 21
0.0
 31
0.0
210
0.0
220
0.0
230
1.0
 40
0.3420201433256871
 41
2.159389081876609
 42
2.253668270527095
  0
ELLIPSE
  5
2C4
330
280
100
AcDbEntity
  8
P-SANR-FIXT
100
AcDbEllipse
 10
1159.391923107295
 20
2128.499864760438
 30
0.0
 11
10.00000000000008
 21
0.0
 31
0.0
210
0.0
220
0.0
230
1.0
 40
0.3420201433256613
 41
0.0649939794947811
 42
1.570796326794851
  0
ELLIPSE
  5
2C5
330
280
100
AcDbEntity
  8
P-SANR-FIXT
100
AcDbEllipse
 10
1159.391923107295
 20
2128.499864760438
 30
0.0
 11
10.0
 21
0.0
 31
0.0
210
0.0
220
0.0
230
1.0
 40
0.3420201433256807
 41
1.570796326794873
 42
2.02940112290129
  0
ELLIPSE
  5
2C6
330
280
100
AcDbEntity
  8
P-SANR-FIXT
100
AcDbEllipse
 10
1194.83678477886
 20
2128.499864760438
 30
0.0
 11
10.00000000000013
 21
0.0
 31
0.0
210
0.0
220
0.0
230
1.0
 40
0.3420201433256604
 41
1.112191530688505
 42
1.570796326794873
  0
ELLIPSE
  5
2C7
330
280
100
AcDbEntity
  8
P-SANR-FIXT
100
AcDbEllipse
 10
1194.83678477886
 20
2128.499864760438
 30
0.0
 11
10.0
 21
0.0
 31
0.0
210
0.0
220
0.0
230
1.0
 40
0.3420201433256807
 41
1.570796326794896
 42
3.076598674095015
  0
SPLINE
  5
2C8
330
280
100
AcDbEntity
  8
P-SANR-FIXT
100
AcDbSpline
210
0.0
220
0.0
230
1.0
 70
     8
 71
     3
 72
     9
 73
     5
 74
     0
 42
0.000000001
 43
0.0000000001
 40
0.0
 40
0.0
 40
0.0
 40
0.0
 40
0.5
 40
1.0
 40
1.0
 40
1.0
 40
1.0
 10
1151.633873874034
 20
2165.474024572345
 30
0.0
 10
1151.657605365971
 20
2165.689286287399
 30
0.0
 10
1151.681379177072
 20
2166.001143165533
 30
0.0
 10
1151.657605365971
 20
2166.074295760054
 30
0.0
 10
1151.633873874034
 20
2166.050853191494
 30
0.0
  0
SPLINE
  5
2C9
330
280
100
AcDbEntity
  8
P-SANR-FIXT
100
AcDbSpline
210
0.0
220
0.0
230
1.0
 70
     8
 71
     3
 72
     9
 73
     5
 74
     0
 42
0.000000001
 43
0.0000000001
 40
0.0
 40
0.0
 40
0.0
 40
0.0
 40
0.5
 40
1.0
 40
1.0
 40
1.0
 40
1.0
 10
1165.104404575765
 20
2158.070961109846
 30
0.0
 10
1164.873418757444
 20
2158.245297261593
 30
0.0
 10
1164.397866560046
 20
2158.46794352969
 30
0.0
 10
1163.898540551593
 20
2158.437801997731
 30
0.0
 10
1163.643823241382
 20
2158.359375419137
 30
0.0
  0
SPLINE
  5
2CA
330
280
100
AcDbEntity
  8
P-SANR-FIXT
100
AcDbSpline
210
0.0
220
0.0
230
1.0
 70
     8
 71
     3
 72
     9
 73
     5
 74
     0
 42
0.000000001
 43
0.0000000001
 40
0.0
 40
0.0
 40
0.0
 40
0.0
 40
0.5
 40
1.0
 40
1.0
 40
1.0
 40
1.0
 10
1190.584884644773
 20
2158.359375419137
 30
0.0
 10
1190.330167334562
 20
2158.437801997731
 30
0.0
 10
1189.830841326109
 20
2158.46794352969
 30
0.0
 10
1189.35528912871
 20
2158.245297261593
 30
0.0
 10
1189.124303310389
 20
2158.070961109845
 30
0.0
  0
SPLINE
  5
2CB
330
280
100
AcDbEntity
  8
P-SANR-FIXT
100
AcDbSpline
210
0.0
220
0.0
230
1.0
 70
     8
 71
     3
 72
     9
 73
     5
 74
     0
 42
0.000000001
 43
0.0000000001
 40
0.0
 40
0.0
 40
0.0
 40
0.0
 40
0.5
 40
1.0
 40
1.0
 40
1.0
 40
1.0
 10
1202.594834012121
 20
2166.050853191494
 30
0.0
 10
1202.571102520184
 20
2166.074295760054
 30
0.0
 10
1202.547328709083
 20
2166.001143165534
 30
0.0
 10
1202.571102520184
 20
2165.689286287399
 30
0.0
 10
1202.594834012121
 20
2165.474024572344
 30
0.0
  0
SPLINE
  5
2CC
330
280
100
AcDbEntity
  8
P-SANR-FIXT
100
AcDbSpline
210
0.0
220
0.0
230
1.0
 70
     8
 71
     3
 72
    23
 73
    19
 74
     0
 42
0.000000001
 43
0.0000000001
 40
0.0
 40
0.0
 40
0.0
 40
0.0
 40
0.25
 40
0.3125
 40
0.375
 40
0.4375
 40
0.46875
 40
0.5
 40
0.53125
 40
0.5625
 40
0.625
 40
0.6875
 40
0.71875
 40
0.75
 40
0.78125
 40
0.8125
 40
0.875
 40
1.0
 40
1.0
 40
1.0
 40
1.0
 10
1169.3708094544
 20
2128.722000793336
 30
0.0
 10
1169.346665442883
 20
2131.197686600797
 30
0.0
 10
1169.285701897583
 20
2134.303416387755
 30
0.0
 10
1169.133027466638
 20
2138.043987032875
 30
0.0
 10
1169.040130101466
 20
2139.916877747037
 30
0.0
 10
1168.944095779621
 20
2141.478767518318
 30
0.0
 10
1168.853391796019
 20
2142.728731697668
 30
0.0
 10
1168.776143656997
 20
2143.665416563379
 30
0.0
 10
1168.69363394293
 20
2144.604490458783
 30
0.0
 10
1168.580492870062
 20
2145.861711878346
 30
0.0
 10
1168.423629821844
 20
2147.435871457838
 30
0.0
 10
1168.222660345963
 20
2148.999735364922
 30
0.0
 10
1168.015266505246
 20
2150.235139202826
 30
0.0
 10
1167.828124648963
 20
2151.150148597888
 30
0.0
 10
1167.60838983165
 20
2152.054130645987
 30
0.0
 10
1167.277456340058
 20
2153.248501043306
 30
0.0
 10
1166.584734714946
 20
2155.303531542941
 30
0.0
 10
1165.767906752855
 20
2156.993123889611
 30
0.0
 10
1165.104404575765
 20
2158.070961109846
 30
0.0
  0
ELLIPSE
  5
2CD
330
280
100
AcDbEntity
  8
P-SANR-FIXT
100
AcDbEllipse
 10
1177.114353943077
 20
2138.998566602325
 30
0.0
 11
31.02845079977472
 21
0.0
 31
0.0
210
0.0
220
0.0
230
1.0
 40
0.342020143325672
 41
3.917420086798535
 42
4.460160322777101
  0
SPLINE
  5
2CE
330
280
100
AcDbEntity
  8
P-SANR-FIXT
100
AcDbSpline
210
0.0
220
0.0
230
1.0
 70
     8
 71
     3
 72
     9
 73
     5
 74
     0
 42
0.000000001
 43
0.0000000001
 40
0.0
 40
0.0
 40
0.0
 40
0.0
 40
0.5
 40
1.0
 40
1.0
 40
1.0
 40
1.0
 10
1159.391923107295
 20
2151.538595954105
 30
0.0
 10
1158.358828285872
 20
2148.323818914066
 30
0.0
 10
1156.572552947961
 20
2141.731350561505
 30
0.0
 10
1155.409327362556
 20
2134.966430837998
 30
0.0
 10
1154.964948113851
 20
2131.56666027958
 30
0.0
  0
SPLINE
  5
2CF
330
280
100
AcDbEntity
  8
P-SANR-FIXT
100
AcDbSpline
210
0.0
220
0.0
230
1.0
 70
     8
 71
     3
 72
    21
 73
    17
 74
     0
 42
0.000000001
 43
0.0000000001
 40
0.0
 40
0.0
 40
0.0
 40
0.0
 40
0.1666666666666666
 40
0.25
 40
0.2916666666666666
 40
0.3333333333333333
 40
0.375
 40
0.4166666666666666
 40
0.5
 40
0.5833333333333333
 40
0.625
 40
0.6666666666666666
 40
0.7083333333333333
 40
0.75
 40
0.8333333333333332
 40
1.0
 40
1.0
 40
1.0
 40
1.0
 10
1163.643823241382
 20
2158.359375419137
 30
0.0
 10
1163.284473799692
 20
2158.121780322232
 30
0.0
 10
1162.770569428825
 20
2157.717192123818
 30
0.0
 10
1162.229431582303
 20
2157.16845856285
 30
0.0
 10
1161.938644400279
 20
2156.833590751282
 30
0.0
 10
1161.729125941868
 20
2156.573031718547
 30
0.0
 10
1161.532383133992
 20
2156.299160847813
 30
0.0
 10
1161.289605677517
 20
2155.914435264025
 30
0.0
 10
1161.015113607236
 20
2155.406090737661
 30
0.0
 10
1160.764893819587
 20
2154.877928290253
 30
0.0
 10
1160.570327422007
 20
2154.453097447775
 30
0.0
 10
1160.423890210436
 20
2154.136661746437
 30
0.0
 10
1160.27859891043
 20
2153.820808960947
 30
0.0
 10
1160.091832286885
 20
2153.395260254229
 30
0.0
 10
1159.779960281128
 20
2152.64258368345
 30
0.0
 10
1159.539821988027
 20
2151.983479502501
 30
0.0
 10
1159.391923107295
 20
2151.538595954105
 30
0.0
  0
SPLINE
  5
2D0
330
280
100
AcDbEntity
  8
P-SANR-FIXT
100
AcDbSpline
210
0.0
220
0.0
230
1.0
 70
     8
 71
     3
 72
    23
 73
    19
 74
     0
 42
0.000000001
 43
0.0000000001
 40
0.0
 40
0.0
 40
0.0
 40
0.0
 40
0.25
 40
0.3125
 40
0.375
 40
0.4375
 40
0.46875
 40
0.5
 40
0.53125
 40
0.5625
 40
0.625
 40
0.6875
 40
0.71875
 40
0.75
 40
0.78125
 40
0.8125
 40
0.875
 40
1.0
 40
1.0
 40
1.0
 40
1.0
 10
1147.221403625114
 20
2136.153907116052
 30
0.0
 10
1147.530590255048
 20
2138.573306862594
 30
0.0
 10
1147.963618777113
 20
2141.605566681922
 30
0.0
 10
1148.506672400913
 20
2145.269050934987
 30
0.0
 10
1148.778857543761
 20
2147.106538512467
 30
0.0
 10
1149.013355111176
 20
2148.641086580525
 30
0.0
 10
1149.206126472033
 20
2149.870895982148
 30
0.0
 10
1149.355918799902
 20
2150.793255878991
 30
0.0
 10
1149.501794906423
 20
2151.719817102963
 30
0.0
 10
1149.685276755652
 20
2152.963148651423
 30
0.0
 10
1149.910977868811
 20
2154.523715093351
 30
0.0
 10
1150.155057110239
 20
2156.079066312367
 30
0.0
 10
1150.369432176356
 20
2157.313091599638
 30
0.0
 10
1150.541514254489
 20
2158.23107478014
 30
0.0
 10
1150.718314910984
 20
2159.143534840417
 30
0.0
 10
1150.948256890605
 20
2160.357847569251
 30
0.0
 10
1151.327893716241
 20
2162.474701490904
 30
0.0
 10
1151.565705634693
 20
2164.27862948492
 30
0.0
 10
1151.633873874034
 20
2165.474024572345
 30
0.0
  0
ELLIPSE
  5
2D1
330
280
100
AcDbEntity
  8
P-SANR-FIXT
100
AcDbEllipse
 10
1177.114353943077
 20
2138.998566602325
 30
0.0
 11
31.02845079977447
 21
0.0
 31
0.0
210
0.0
220
0.0
230
1.0
 40
0.3420201433256639
 41
2.870222535598659
 42
3.412962771580916
  0
SPLINE
  5
2D2
330
280
100
AcDbEntity
  8
P-SANR-FIXT
100
AcDbSpline
210
0.0
220
0.0
230
1.0
 70
     8
 71
     3
 72
    23
 73
    19
 74
     0
 42
0.000000001
 43
0.0000000001
 40
0.0006791229064318
 40
0.0006791229064318
 40
0.0006791229064318
 40
0.0006791229064318
 40
0.125
 40
0.1875
 40
0.21875
 40
0.25
 40
0.28125
 40
0.3125
 40
0.375
 40
0.4375
 40
0.46875
 40
0.5
 40
0.53125
 40
0.5625
 40
0.625
 40
0.6875
 40
0.75
 40
1.0
 40
1.0
 40
1.0
 40
1.0
 10
1151.63275480887
 20
2166.040344375069
 30
0.0
 10
1151.563981781376
 20
2165.398739210227
 30
0.0
 10
1151.326715110233
 20
2164.33721941131
 30
0.0
 10
1150.948256890605
 20
2162.921857814795
 30
0.0
 10
1150.718314910984
 20
2162.059747951957
 30
0.0
 10
1150.541514254489
 20
2161.390672037632
 30
0.0
 10
1150.369432176356
 20
2160.688465559763
 30
0.0
 10
1150.155057110239
 20
2159.702916047146
 30
0.0
 10
1149.910977868811
 20
2158.402697338157
 30
0.0
 10
1149.685276755653
 20
2157.055167339188
 30
0.0
 10
1149.501794906423
 20
2155.973664230943
 30
0.0
 10
1149.355918799903
 20
2155.16988524275
 30
0.0
 10
1149.206126472033
 20
2154.367698301743
 30
0.0
 10
1149.013355111176
 20
2153.285663857816
 30
0.0
 10
1148.778857543761
 20
2151.919579943368
 30
0.0
 10
1148.506672400914
 20
2150.262962743569
 30
0.0
 10
1147.963618777114
 20
2146.934538799907
 30
0.0
 10
1147.530590255048
 20
2144.121448068863
 30
0.0
 10
1147.221403625115
 20
2141.843226088593
 30
0.0
  0
SPLINE
  5
2D3
330
280
100
AcDbEntity
  8
P-SANR-FIXT
100
AcDbSpline
210
0.0
220
0.0
230
1.0
 70
     8
 71
     3
 72
    23
 73
    19
 74
     0
 42
0.000000001
 43
0.0000000001
 40
0.0
 40
0.0
 40
0.0
 40
0.0
 40
0.25
 40
0.3125
 40
0.375
 40
0.4375
 40
0.46875
 40
0.5
 40
0.53125
 40
0.5625
 40
0.625
 40
0.6875
 40
0.71875
 40
0.75
 40
0.78125
 40
0.8125
 40
0.875
 40
0.9993208770935524
 40
0.9993208770935524
 40
0.9993208770935524
 40
0.9993208770935524
 10
1207.007304261041
 20
2141.843226088593
 30
0.0
 10
1206.698117631107
 20
2144.121448068863
 30
0.0
 10
1206.265089109042
 20
2146.934538799907
 30
0.0
 10
1205.722035485242
 20
2150.262962743569
 30
0.0
 10
1205.449850342394
 20
2151.919579943367
 30
0.0
 10
1205.215352774979
 20
2153.285663857816
 30
0.0
 10
1205.022581414122
 20
2154.367698301743
 30
0.0
 10
1204.872789086253
 20
2155.169885242749
 30
0.0
 10
1204.726912979732
 20
2155.973664230943
 30
0.0
 10
1204.543431130503
 20
2157.055167339188
 30
0.0
 10
1204.317730017344
 20
2158.402697338156
 30
0.0
 10
1204.073650775915
 20
2159.702916047146
 30
0.0
 10
1203.859275709799
 20
2160.688465559763
 30
0.0
 10
1203.687193631666
 20
2161.390672037632
 30
0.0
 10
1203.510392975171
 20
2162.059747951957
 30
0.0
 10
1203.28045099555
 20
2162.921857814795
 30
0.0
 10
1202.901992775923
 20
2164.33721941131
 30
0.0
 10
1202.664726104779
 20
2165.398739210227
 30
0.0
 10
1202.595953077285
 20
2166.040344375068
 30
0.0
  0
ELLIPSE
  5
2D4
330
280
100
AcDbEntity
  8
P-SANR-FIXT
100
AcDbEllipse
 10
1177.114353943077
 20
2138.998566602325
 30
0.0
 11
31.0284507997745
 21
0.0
 31
0.0
210
0.0
220
0.0
230
0.9999999999999998
 40
0.3420201433256635
 41
6.011815189188447
 42
6.554555425170718
  0
SPLINE
  5
2D5
330
280
100
AcDbEntity
  8
P-SANR-FIXT
100
AcDbSpline
210
0.0
220
0.0
230
1.0
 70
     8
 71
     3
 72
    23
 73
    19
 74
     0
 42
0.000000001
 43
0.0000000001
 40
0.0
 40
0.0
 40
0.0
 40
0.0
 40
0.125
 40
0.1875
 40
0.21875
 40
0.25
 40
0.28125
 40
0.3125
 40
0.375
 40
0.4375
 40
0.46875
 40
0.5
 40
0.53125
 40
0.5625
 40
0.625
 40
0.6875
 40
0.75
 40
1.0
 40
1.0
 40
1.0
 40
1.0
 10
1202.594834012121
 20
2165.474024572344
 30
0.0
 10
1202.663002251462
 20
2164.27862948492
 30
0.0
 10
1202.900814169914
 20
2162.474701490904
 30
0.0
 10
1203.280450995549
 20
2160.357847569251
 30
0.0
 10
1203.510392975171
 20
2159.143534840417
 30
0.0
 10
1203.687193631666
 20
2158.23107478014
 30
0.0
 10
1203.859275709799
 20
2157.313091599638
 30
0.0
 10
1204.073650775915
 20
2156.079066312367
 30
0.0
 10
1204.317730017344
 20
2154.52371509335
 30
0.0
 10
1204.543431130503
 20
2152.963148651423
 30
0.0
 10
1204.726912979732
 20
2151.719817102963
 30
0.0
 10
1204.872789086253
 20
2150.793255878991
 30
0.0
 10
1205.022581414122
 20
2149.870895982148
 30
0.0
 10
1205.215352774979
 20
2148.641086580525
 30
0.0
 10
1205.449850342394
 20
2147.106538512467
 30
0.0
 10
1205.722035485242
 20
2145.269050934987
 30
0.0
 10
1206.265089109042
 20
2141.605566681922
 30
0.0
 10
1206.698117631107
 20
2138.573306862594
 30
0.0
 10
1207.007304261041
 20
2136.153907116052
 30
0.0
  0
SPLINE
  5
2D6
330
280
100
AcDbEntity
  8
P-SANR-FIXT
100
AcDbSpline
210
0.0
220
0.0
230
1.0
 70
     8
 71
     3
 72
    21
 73
    17
 74
     0
 42
0.000000001
 43
0.0000000001
 40
0.0
 40
0.0
 40
0.0
 40
0.0
 40
0.1666666666666666
 40
0.25
 40
0.2916666666666666
 40
0.3333333333333333
 40
0.375
 40
0.4166666666666666
 40
0.5
 40
0.5833333333333333
 40
0.625
 40
0.6666666666666666
 40
0.7083333333333333
 40
0.75
 40
0.8333333333333332
 40
1.0
 40
1.0
 40
1.0
 40
1.0
 10
1194.83678477886
 20
2151.538595954106
 30
0.0
 10
1194.688885898127
 20
2151.983479502501
 30
0.0
 10
1194.448747605027
 20
2152.64258368345
 30
0.0
 10
1194.13687559927
 20
2153.395260254229
 30
0.0
 10
1193.950108975725
 20
2153.820808960947
 30
0.0
 10
1193.804817675719
 20
2154.136661746437
 30
0.0
 10
1193.658380464148
 20
2154.453097447775
 30
0.0
 10
1193.463814066568
 20
2154.877928290253
 30
0.0
 10
1193.213594278919
 20
2155.406090737661
 30
0.0
 10
1192.939102208638
 20
2155.914435264025
 30
0.0
 10
1192.696324752163
 20
2156.299160847813
 30
0.0
 10
1192.499581944287
 20
2156.573031718547
 30
0.0
 10
1192.290063485876
 20
2156.833590751282
 30
0.0
 10
1191.999276303852
 20
2157.16845856285
 30
0.0
 10
1191.45813845733
 20
2157.717192123818
 30
0.0
 10
1190.944234086463
 20
2158.121780322231
 30
0.0
 10
1190.584884644773
 20
2158.359375419137
 30
0.0
  0
SPLINE
  5
2D7
330
280
100
AcDbEntity
  8
P-SANR-FIXT
100
AcDbSpline
210
0.0
220
0.0
230
1.0
 70
     8
 71
     3
 72
     9
 73
     5
 74
     0
 42
0.000000001
 43
0.0000000001
 40
0.0
 40
0.0
 40
0.0
 40
0.0
 40
0.5
 40
1.0
 40
1.0
 40
1.0
 40
1.0
 10
1199.263759772304
 20
2131.56666027958
 30
0.0
 10
1198.819380523599
 20
2134.966430837998
 30
0.0
 10
1197.656154938194
 20
2141.731350561505
 30
0.0
 10
1195.869879600283
 20
2148.323818914067
 30
0.0
 10
1194.83678477886
 20
2151.538595954106
 30
0.0
  0
ELLIPSE
  5
2D8
330
280
100
AcDbEntity
  8
P-SANR-FIXT
100
AcDbEllipse
 10
1177.114353943077
 20
2138.998566602325
 30
0.0
 11
31.02845079977452
 21
0.0
 31
0.0
210
0.0
220
0.0
230
1.0
 40
0.3420201433256694
 41
4.964617637992249
 42
5.507357873970816
  0
SPLINE
  5
2D9
330
280
100
AcDbEntity
  8
P-SANR-FIXT
100
AcDbSpline
210
0.0
220
0.0
230
1.0
 70
     8
 71
     3
 72
    23
 73
    19
 74
     0
 42
0.000000001
 43
0.0000000001
 40
0.0
 40
0.0
 40
0.0
 40
0.0
 40
0.125
 40
0.1875
 40
0.21875
 40
0.25
 40
0.28125
 40
0.3125
 40
0.375
 40
0.4375
 40
0.46875
 40
0.5
 40
0.53125
 40
0.5625
 40
0.625
 40
0.6875
 40
0.75
 40
1.0
 40
1.0
 40
1.0
 40
1.0
 10
1189.124303310389
 20
2158.070961109845
 30
0.0
 10
1188.4608011333
 20
2156.993123889611
 30
0.0
 10
1187.643973171208
 20
2155.303531542941
 30
0.0
 10
1186.951251546096
 20
2153.248501043306
 30
0.0
 10
1186.620318054505
 20
2152.054130645987
 30
0.0
 10
1186.400583237191
 20
2151.150148597888
 30
0.0
 10
1186.213441380909
 20
2150.235139202826
 30
0.0
 10
1186.006047540192
 20
2148.999735364922
 30
0.0
 10
1185.805078064311
 20
2147.435871457838
 30
0.0
 10
1185.648215016092
 20
2145.861711878346
 30
0.0
 10
1185.535073943224
 20
2144.604490458783
 30
0.0
 10
1185.452564229158
 20
2143.665416563378
 30
0.0
 10
1185.375316090136
 20
2142.728731697668
 30
0.0
 10
1185.284612106533
 20
2141.478767518318
 30
0.0
 10
1185.188577784688
 20
2139.916877747037
 30
0.0
 10
1185.095680419516
 20
2138.043987032875
 30
0.0
 10
1184.943005988572
 20
2134.303416387755
 30
0.0
 10
1184.882042443272
 20
2131.197686600797
 30
0.0
 10
1184.857898431754
 20
2128.722000793336
 30
0.0
  0
ELLIPSE
  5
2DA
330
280
100
AcDbEntity
  8
P-SANR-FIXT
100
AcDbEllipse
 10
1177.114353943077
 20
2135.592732890737
 30
0.0
 11
31.53381379959239
 21
0.0
 31
0.0
210
0.0
220
0.0
230
1.0
 40
0.3420201433256503
 41
3.063052837250041
 42
3.612831551628255
  0
ELLIPSE
  5
2DB
330
280
100
AcDbEntity
  8
P-SANR-FIXT
100
AcDbEllipse
 10
1177.114353943077
 20
2135.592732890737
 30
0.0
 11
31.53381379959235
 21
0.0
 31
0.0
210
0.0
220
0.0
230
0.9999999999999998
 40
0.3420201433256587
 41
5.811946409141118
 42
6.361725123519335
  0
LINE
  5
2DC
330
280
100
AcDbEntity
  8
P-SANR-FIXT
100
AcDbLine
 10
1138.264353943079
 20
2074.324774015461
 30
0.0
 11
1138.264353943079
 21
2053.651536358171
 31
0.0
  0
LINE
  5
2DD
330
280
100
AcDbEntity
  8
P-SANR-FIXT
100
AcDbLine
 10
1215.96435394308
 20
2053.651536358171
 30
0.0
 11
1215.96435394308
 21
2074.324774015461
 31
0.0
  0
ELLIPSE
  5
2DE
330
280
100
AcDbEntity
  8
P-SANR-FIXT
100
AcDbEllipse
 10
1177.114353943078
 20
2074.32477401546
 30
0.0
 11
38.85000000000037
 21
0.0
 31
0.0
210
0.0
220
0.0
230
1.0
 40
0.3420201433256595
 41
2.790622772595899
 42
4.712388980384677
  0
ELLIPSE
  5
2DF
330
280
100
AcDbEntity
  8
P-SANR-FIXT
100
AcDbEllipse
 10
1177.114353943078
 20
2074.32477401546
 30
0.0
 11
38.85000000000035
 21
0.0
 31
0.0
210
0.0
220
0.0
230
1.0
 40
0.3420201433256569
 41
4.712388980384683
 42
6.634155188170493
  0
ELLIPSE
  5
2E0
330
280
100
AcDbEntity
  8
P-SANR-FIXT
100
AcDbEllipse
 10
1177.114353943078
 20
2053.65153635817
 30
0.0
 11
38.85000000000037
 21
0.0
 31
0.0
210
0.0
220
0.0
230
1.0
 40
0.3420201433256595
 41
3.141592653589793
 42
4.400135820687448
  0
ELLIPSE
  5
2E1
330
280
100
AcDbEntity
  8
P-SANR-FIXT
100
AcDbEllipse
 10
1177.114353943078
 20
2053.65153635817
 30
0.0
 11
38.8500000000003
 21
0.0
 31
0.0
210
0.0
220
0.0
230
1.0
 40
0.3420201433256671
 41
5.024642140081791
 42
6.283185307179586
  0
ELLIPSE
  5
2E2
330
280
100
AcDbEntity
  8
P-SANR-FIXT
100
AcDbEllipse
 10
1177.114353943078
 20
2074.32477401546
 30
0.0
 11
37.00000000000034
 21
0.0
 31
0.0
210
0.0
220
0.0
230
1.0
 40
0.34202014332566
 41
2.979925086997728
 42
4.712388980384664
  0
ELLIPSE
  5
2E3
330
280
100
AcDbEntity
  8
P-SANR-FIXT
100
AcDbEllipse
 10
1177.114353943078
 20
2074.32477401546
 30
0.0
 11
37.00000000000023
 21
0.0
 31
0.0
210
0.0
220
0.0
230
1.0
 40
0.3420201433256564
 41
4.712388980384677
 42
6.444852873763569
  0
ARC
  5
2E4
330
280
100
AcDbEntity
  8
P-SANR-FIXT
100
AcDbCircle
 10
1177.114353943077
 20
1999.982558850011
 30
0.0
 40
41.49999999998783
100
AcDbArc
 50
90.00000000000047
 51
120.0000000000009
  0
ARC
  5
2E5
330
280
100
AcDbEntity
  8
P-SANR-FIXT
100
AcDbCircle
 10
1177.114353943077
 20
1999.982558850011
 30
0.0
 40
41.49999999998754
100
AcDbArc
 50
120.0000000000002
 51
180.0000000000002
  0
ARC
  5
2E6
330
280
100
AcDbEntity
  8
P-SANR-FIXT
100
AcDbCircle
 10
1177.114353943077
 20
1999.982558850011
 30
0.0
 40
41.49999999998772
100
AcDbArc
 50
180.0000000000002
 51
240.0000000000003
  0
ARC
  5
2E7
330
280
100
AcDbEntity
  8
P-SANR-FIXT
100
AcDbCircle
 10
1177.114353943077
 20
1999.982558850011
 30
0.0
 40
41.49999999998771
100
AcDbArc
 50
240.0000000000003
 51
269.9999999999997
  0
ARC
  5
2E8
330
280
100
AcDbEntity
  8
P-SANR-FIXT
100
AcDbCircle
 10
1177.114353943077
 20
1999.982558850011
 30
0.0
 40
41.49999999998749
100
AcDbArc
 50
269.9999999999993
 51
299.9999999999998
  0
ARC
  5
2E9
330
280
100
AcDbEntity
  8
P-SANR-FIXT
100
AcDbCircle
 10
1177.114353943077
 20
1999.982558850011
 30
0.0
 40
41.49999999998793
100
AcDbArc
 50
299.9999999999994
 51
0.0
  0
ARC
  5
2EA
330
280
100
AcDbEntity
  8
P-SANR-FIXT
100
AcDbCircle
 10
1177.114353943077
 20
1999.982558850011
 30
0.0
 40
41.49999999998795
100
AcDbArc
 50
359.9999999999993
 51
59.99999999999975
  0
ARC
  5
2EB
330
280
100
AcDbEntity
  8
P-SANR-FIXT
100
AcDbCircle
 10
1177.114353943077
 20
1999.982558850011
 30
0.0
 40
41.49999999998764
100
AcDbArc
 50
59.99999999999959
 51
89.99999999999905
  0
ARC
  5
2EC
330
280
100
AcDbEntity
  8
P-SANR-FIXT
100
AcDbCircle
 10
1177.114353943138
 20
1999.98255885001
 30
0.0
 40
43.99999999997993
100
AcDbArc
 50
269.9999999999218
 51
280.592956617716
  0
ARC
  5
2ED
330
280
100
AcDbEntity
  8
P-SANR-FIXT
100
AcDbCircle
 10
1177.114353943138
 20
1999.98255885001
 30
0.0
 40
43.99999999997999
100
AcDbArc
 50
259.4070433820456
 51
269.9999999999215
  0
SPLINE
  5
2EE
330
280
100
AcDbEntity
  8
P-SANR-FIXT
100
AcDbSpline
210
0.0
220
0.0
230
1.0
 70
    24
 71
     3
 72
     9
 73
     5
 74
     0
 42
0.000000001
 43
0.0000000001
 40
0.0
 40
0.0
 40
0.0
 40
0.0
 40
0.5
 40
1.0
 40
1.0
 40
1.0
 40
1.0
 10
1169.025811204954
 20
1956.732408834422
 30
0.0
 10
1166.935079727799
 20
1957.939493215561
 30
0.0
 10
1162.73410537366
 20
1960.364926889782
 30
0.0
 10
1158.494108219865
 20
1962.812890387889
 30
0.0
 10
1156.364353943053
 20
1964.042504592914
 30
0.0
  0
SPLINE
  5
2EF
330
280
100
AcDbEntity
  8
P-SANR-FIXT
100
AcDbSpline
210
0.0
220
0.0
230
1.0
 70
    24
 71
     3
 72
     9
 73
     5
 74
     0
 42
0.000000001
 43
0.0000000001
 40
0.0
 40
0.0
 40
0.0
 40
0.0
 40
0.5
 40
1.0
 40
1.0
 40
1.0
 40
1.0
 10
1156.364353943053
 20
1964.042504592914
 30
0.0
 10
1154.234599666257
 20
1965.272118797929
 30
0.0
 10
1149.994602512492
 20
1967.720082296018
 30
0.0
 10
1145.793628158384
 20
1970.145515970222
 30
0.0
 10
1143.702896681244
 20
1971.352600351352
 30
0.0
  0
ARC
  5
2F0
330
280
100
AcDbEntity
  8
P-SANR-FIXT
100
AcDbCircle
 10
1177.114353943138
 20
1999.98255885001
 30
0.0
 40
43.99999999998015
100
AcDbArc
 50
199.4070433819218
 51
220.5929566179557
  0
SPLINE
  5
2F1
330
280
100
AcDbEntity
  8
P-SANR-FIXT
100
AcDbSpline
210
0.0
220
0.0
230
1.0
 70
    24
 71
     3
 72
     9
 73
     5
 74
     0
 42
0.000000001
 43
0.0000000001
 40
0.0
 40
0.0
 40
0.0
 40
0.0
 40
0.5
 40
1.0
 40
1.0
 40
1.0
 40
1.0
 10
1135.614353943027
 20
1985.36236733317
 30
0.0
 10
1135.614353943027
 20
1987.776536095424
 30
0.0
 10
1135.614353943027
 20
1992.627403443819
 30
0.0
 10
1135.614353943027
 20
1997.523330439984
 30
0.0
 10
1135.614353943027
 20
1999.98255885001
 30
0.0
  0
SPLINE
  5
2F2
330
280
100
AcDbEntity
  8
P-SANR-FIXT
100
AcDbSpline
210
0.0
220
0.0
230
1.0
 70
    24
 71
     3
 72
     9
 73
     5
 74
     0
 42
0.000000001
 43
0.0000000001
 40
0.0
 40
0.0
 40
0.0
 40
0.0
 40
0.5
 40
1.0
 40
1.0
 40
1.0
 40
1.0
 10
1135.614353943027
 20
1999.98255885001
 30
0.0
 10
1135.614353943027
 20
2002.441787260036
 30
0.0
 10
1135.614353943027
 20
2007.337714256201
 30
0.0
 10
1135.614353943027
 20
2012.188581604595
 30
0.0
 10
1135.614353943027
 20
2014.60275036685
 30
0.0
  0
ARC
  5
2F3
330
280
100
AcDbEntity
  8
P-SANR-FIXT
100
AcDbCircle
 10
1177.114353943138
 20
1999.98255885001
 30
0.0
 40
43.99999999997981
100
AcDbArc
 50
139.4070433820356
 51
160.5929566180787
  0
SPLINE
  5
2F4
330
280
100
AcDbEntity
  8
P-SANR-FIXT
100
AcDbSpline
210
0.0
220
0.0
230
1.0
 70
    24
 71
     3
 72
     9
 73
     5
 74
     0
 42
0.000000001
 43
0.0000000001
 40
0.0
 40
0.0
 40
0.0
 40
0.0
 40
0.5
 40
1.0
 40
1.0
 40
1.0
 40
1.0
 10
1143.702896681248
 20
2028.612517348673
 30
0.0
 10
1145.793628158388
 20
2029.819601729803
 30
0.0
 10
1149.994602512494
 20
2032.245035404005
 30
0.0
 10
1154.234599666257
 20
2034.692998902093
 30
0.0
 10
1156.364353943052
 20
2035.922613107109
 30
0.0
  0
SPLINE
  5
2F5
330
280
100
AcDbEntity
  8
P-SANR-FIXT
100
AcDbSpline
210
0.0
220
0.0
230
1.0
 70
    24
 71
     3
 72
     9
 73
     5
 74
     0
 42
0.000000001
 43
0.0000000001
 40
0.0
 40
0.0
 40
0.0
 40
0.0
 40
0.5
 40
1.0
 40
1.0
 40
1.0
 40
1.0
 10
1156.364353943052
 20
2035.922613107109
 30
0.0
 10
1158.494108219862
 20
2037.152227312133
 30
0.0
 10
1162.734105373655
 20
2039.600190810238
 30
0.0
 10
1166.935079727792
 20
2042.025624484458
 30
0.0
 10
1169.025811204946
 20
2043.232708865596
 30
0.0
  0
ARC
  5
2F6
330
280
100
AcDbEntity
  8
P-SANR-FIXT
100
AcDbCircle
 10
1177.114353943138
 20
1999.98255885001
 30
0.0
 40
43.99999999997987
100
AcDbArc
 50
90.00000000007814
 51
100.5929566179639
  0
ARC
  5
2F7
330
280
100
AcDbEntity
  8
P-SANR-FIXT
100
AcDbCircle
 10
1177.114353943138
 20
1999.98255885001
 30
0.0
 40
43.99999999997999
100
AcDbArc
 50
79.40704338227461
 51
90.00000000007787
  0
SPLINE
  5
2F8
330
280
100
AcDbEntity
  8
P-SANR-FIXT
100
AcDbSpline
210
0.0
220
0.0
230
1.0
 70
    24
 71
     3
 72
     9
 73
     5
 74
     0
 42
0.000000001
 43
0.0000000001
 40
0.0
 40
0.0
 40
0.0
 40
0.0
 40
0.5
 40
1.0
 40
1.0
 40
1.0
 40
1.0
 10
1185.202896681148
 20
2043.23270886563
 30
0.0
 10
1187.293628158312
 20
2042.025624484486
 30
0.0
 10
1191.494602512468
 20
2039.600190810256
 30
0.0
 10
1195.734599666281
 20
2037.152227312138
 30
0.0
 10
1197.864353943102
 20
2035.922613107108
 30
0.0
  0
SPLINE
  5
2F9
330
280
100
AcDbEntity
  8
P-SANR-FIXT
100
AcDbSpline
210
0.0
220
0.0
230
1.0
 70
    24
 71
     3
 72
     9
 73
     5
 74
     0
 42
0.000000001
 43
0.0000000001
 40
0.0
 40
0.0
 40
0.0
 40
0.0
 40
0.5
 40
1.0
 40
1.0
 40
1.0
 40
1.0
 10
1197.864353943102
 20
2035.922613107108
 30
0.0
 10
1199.994108219938
 20
2034.692998902069
 30
0.0
 10
1204.234105373782
 20
2032.245035403934
 30
0.0
 10
1208.435079727968
 20
2029.819601729686
 30
0.0
 10
1210.525811205147
 20
2028.612517348534
 30
0.0
  0
ARC
  5
2FA
330
280
100
AcDbEntity
  8
P-SANR-FIXT
100
AcDbCircle
 10
1177.114353943138
 20
1999.98255885001
 30
0.0
 40
43.99999999998029
100
AcDbArc
 50
19.40704338239991
 51
40.59295661772479
  0
SPLINE
  5
2FB
330
280
100
AcDbEntity
  8
P-SANR-FIXT
100
AcDbSpline
210
0.0
220
0.0
230
1.0
 70
    24
 71
     3
 72
     9
 73
     5
 74
     0
 42
0.000000001
 43
0.0000000001
 40
0.0
 40
0.0
 40
0.0
 40
0.0
 40
0.5
 40
1.0
 40
1.0
 40
1.0
 40
1.0
 10
1218.614353943126
 20
2014.602750367197
 30
0.0
 10
1218.614353943126
 20
2012.188581604887
 30
0.0
 10
1218.614353943126
 20
2007.337714256378
 30
0.0
 10
1218.614353943126
 20
2002.441787260096
 30
0.0
 10
1218.614353943126
 20
1999.982558850011
 30
0.0
  0
SPLINE
  5
2FC
330
280
100
AcDbEntity
  8
P-SANR-FIXT
100
AcDbSpline
210
0.0
220
0.0
230
1.0
 70
    24
 71
     3
 72
     9
 73
     5
 74
     0
 42
0.000000001
 43
0.0000000001
 40
0.0
 40
0.0
 40
0.0
 40
0.0
 40
0.5
 40
1.0
 40
1.0
 40
1.0
 40
1.0
 10
1218.614353943126
 20
1999.982558850011
 30
0.0
 10
1218.614353943126
 20
1997.523330439926
 30
0.0
 10
1218.614353943126
 20
1992.627403443643
 30
0.0
 10
1218.614353943126
 20
1987.776536095134
 30
0.0
 10
1218.614353943126
 20
1985.362367332824
 30
0.0
  0
ARC
  5
2FD
330
280
100
AcDbEntity
  8
P-SANR-FIXT
100
AcDbCircle
 10
1177.114353943138
 20
1999.98255885001
 30
0.0
 40
43.99999999998013
100
AcDbArc
 50
319.4070433822854
 51
340.5929566176017
  0
SPLINE
  5
2FE
330
280
100
AcDbEntity
  8
P-SANR-FIXT
100
AcDbSpline
210
0.0
220
0.0
230
1.0
 70
    24
 71
     3
 72
     9
 73
     5
 74
     0
 42
0.000000001
 43
0.0000000001
 40
0.0
 40
0.0
 40
0.0
 40
0.0
 40
0.5
 40
1.0
 40
1.0
 40
1.0
 40
1.0
 10
1210.525811205152
 20
1971.352600351492
 30
0.0
 10
1208.435079727972
 20
1970.145515970339
 30
0.0
 10
1204.234105373785
 20
1967.72008229609
 30
0.0
 10
1199.994108219939
 20
1965.272118797955
 30
0.0
 10
1197.864353943102
 20
1964.042504592915
 30
0.0
  0
SPLINE
  5
2FF
330
280
100
AcDbEntity
  8
P-SANR-FIXT
100
AcDbSpline
210
0.0
220
0.0
230
1.0
 70
    24
 71
     3
 72
     9
 73
     5
 74
     0
 42
0.000000001
 43
0.0000000001
 40
0.0
 40
0.0
 40
0.0
 40
0.0
 40
0.5
 40
1.0
 40
1.0
 40
1.0
 40
1.0
 10
1197.864353943102
 20
1964.042504592915
 30
0.0
 10
1195.73459966628
 20
1962.812890387884
 30
0.0
 10
1191.494602512464
 20
1960.364926889765
 30
0.0
 10
1187.293628158306
 20
1957.939493215533
 30
0.0
 10
1185.202896681142
 20
1956.732408834389
 30
0.0
  0
ARC
  5
300
330
280
100
AcDbEntity
  8
P-SANR-FIXT
100
AcDbCircle
 10
1177.114353943136
 20
1999.982558850011
 30
0.0
 40
31.49999999999419
100
AcDbArc
 50
62.75279016191801
 51
72.24720983808215
  0
LINE
  5
301
330
280
100
AcDbEntity
  8
P-SANR-FIXT
100
AcDbLine
 10
1186.719040299269
 20
2029.98255885001
 30
0.0
 11
1167.509667587004
 21
2029.98255885001
 31
0.0
  0
ARC
  5
302
330
280
100
AcDbEntity
  8
P-SANR-FIXT
100
AcDbCircle
 10
1177.114353943136
 20
1999.982558850011
 30
0.0
 40
31.49999999999426
100
AcDbArc
 50
107.7527901619181
 51
117.2472098380819
  0
LINE
  5
303
330
280
100
AcDbEntity
  8
P-SANR-FIXT
100
AcDbLine
 10
1162.692689361132
 20
2027.987301139198
 30
0.0
 11
1149.109611653949
 21
2014.404223432015
 31
0.0
  0
ARC
  5
304
330
280
100
AcDbEntity
  8
P-SANR-FIXT
100
AcDbCircle
 10
1177.114353943136
 20
1999.982558850011
 30
0.0
 40
31.49999999999419
100
AcDbArc
 50
152.7527901619184
 51
162.2472098380823
  0
LINE
  5
305
330
280
100
AcDbEntity
  8
P-SANR-FIXT
100
AcDbLine
 10
1147.114353943137
 20
2009.587245206143
 30
0.0
 11
1147.114353943137
 21
1990.377872493878
 31
0.0
  0
ARC
  5
306
330
280
100
AcDbEntity
  8
P-SANR-FIXT
100
AcDbCircle
 10
1177.114353943136
 20
1999.982558850011
 30
0.0
 40
31.49999999999411
100
AcDbArc
 50
197.7527901619186
 51
207.2472098380823
  0
LINE
  5
307
330
280
100
AcDbEntity
  8
P-SANR-FIXT
100
AcDbLine
 10
1149.109611653949
 20
1985.560894268006
 30
0.0
 11
1162.692689361132
 21
1971.977816560823
 31
0.0
  0
ARC
  5
308
330
280
100
AcDbEntity
  8
P-SANR-FIXT
100
AcDbCircle
 10
1177.114353943136
 20
1999.982558850011
 30
0.0
 40
31.49999999999419
100
AcDbArc
 50
242.7527901619185
 51
252.2472098380823
  0
LINE
  5
309
330
280
100
AcDbEntity
  8
P-SANR-FIXT
100
AcDbLine
 10
1167.509667587004
 20
1969.982558850011
 30
0.0
 11
1186.719040299269
 21
1969.982558850012
 31
0.0
  0
ARC
  5
30A
330
280
100
AcDbEntity
  8
P-SANR-FIXT
100
AcDbCircle
 10
1177.114353943136
 20
1999.982558850011
 30
0.0
 40
31.49999999999411
100
AcDbArc
 50
287.7527901619182
 51
297.247209838082
  0
LINE
  5
30B
330
280
100
AcDbEntity
  8
P-SANR-FIXT
100
AcDbLine
 10
1191.536018525141
 20
1971.977816560824
 30
0.0
 11
1205.119096232324
 21
1985.560894268006
 31
0.0
  0
ARC
  5
30C
330
280
100
AcDbEntity
  8
P-SANR-FIXT
100
AcDbCircle
 10
1177.114353943136
 20
1999.982558850011
 30
0.0
 40
31.49999999999429
100
AcDbArc
 50
332.7527901619181
 51
342.2472098380818
  0
LINE
  5
30D
330
280
100
AcDbEntity
  8
P-SANR-FIXT
100
AcDbLine
 10
1207.114353943136
 20
1990.377872493878
 30
0.0
 11
1207.114353943136
 21
2009.587245206144
 31
0.0
  0
ARC
  5
30E
330
280
100
AcDbEntity
  8
P-SANR-FIXT
100
AcDbCircle
 10
1177.114353943136
 20
1999.982558850011
 30
0.0
 40
31.49999999999426
100
AcDbArc
 50
17.75279016191787
 51
27.24720983808185
  0
LINE
  5
30F
330
280
100
AcDbEntity
  8
P-SANR-FIXT
100
AcDbLine
 10
1205.119096232324
 20
2014.404223432015
 30
0.0
 11
1191.536018525141
 21
2027.987301139198
 31
0.0
  0
ARC
  5
310
330
280
100
AcDbEntity
  8
P-SANR-FIXT
100
AcDbCircle
 10
1177.114353943077
 20
1999.982558850011
 30
0.0
 40
29.00000000000046
100
AcDbArc
 50
90.0
 51
269.9999999999992
  0
ARC
  5
311
330
280
100
AcDbEntity
  8
P-SANR-FIXT
100
AcDbCircle
 10
1177.114353943077
 20
1999.982558850011
 30
0.0
 40
29.0000000000005
100
AcDbArc
 50
269.9999999999994
 51
89.99999999999976
  0
ARC
  5
312
330
280
100
AcDbEntity
  8
P-SANR-FIXT
100
AcDbCircle
 10
1177.114353943077
 20
1999.982558850011
 30
0.0
 40
30.00000000000059
100
AcDbArc
 50
90.0000000000009
 51
270.0000000000001
  0
ARC
  5
313
330
280
100
AcDbEntity
  8
P-SANR-FIXT
100
AcDbCircle
 10
1177.114353943077
 20
1999.982558850011
 30
0.0
 40
30.00000000000023
100
AcDbArc
 50
269.9999999999997
 51
90.0
  0
LINE
  5
314
330
280
100
AcDbEntity
  8
P-SANR-FIXT
100
AcDbLine
 10
1142.633088692842
 20
2046.739060725525
 30
0.0
 11
1143.179408968168
 21
2027.941149419306
 31
0.0
  0
LINE
  5
315
330
280
100
AcDbEntity
  8
P-SANR-FIXT
100
AcDbLine
 10
1211.595619193317
 20
2046.739060725526
 30
0.0
 11
1211.049298917995
 21
2027.941149419442
 31
0.0
  0
LINE
  5
316
330
280
100
AcDbEntity
  8
P-SANR-FIXT
100
AcDbLine
 10
1142.734467662414
 20
2046.538349887714
 30
0.0
 11
1143.185202839815
 21
2045.821115791275
 31
0.0
  0
LINE
  5
317
330
280
100
AcDbEntity
  8
P-SANR-FIXT
100
AcDbLine
 10
1211.043505046345
 20
2045.821115791275
 30
0.0
 11
1211.494240223745
 21
2046.538349887714
 31
0.0
  0
LINE
  5
318
330
280
100
AcDbEntity
  8
P-SANR-FIXT
100
AcDbLine
 10
1140.11435394308
 20
2074.324774015461
 30
0.0
 11
1140.11435394308
 21
2073.851099612221
 31
0.0
  0
LINE
  5
319
330
280
100
AcDbEntity
  8
P-SANR-FIXT
100
AcDbLine
 10
1214.11435394308
 20
2073.851099612221
 30
0.0
 11
1214.11435394308
 21
2074.324774015461
 31
0.0
  0
LWPOLYLINE
  5
31A
330
280
100
AcDbEntity
  8
P-SANR-FIXT
100
AcDbPolyline
 90
        4
 70
   128
 43
0.0
 10
1142.039508430537
 20
2047.947167307485
 10
1142.274900130735
 20
2047.375348850766
 10
1142.621514728776
 20
2046.723366405879
 10
1142.734467662414
 20
2046.538349887714
  0
LWPOLYLINE
  5
31B
330
280
100
AcDbEntity
  8
P-SANR-FIXT
100
AcDbPolyline
 90
        4
 70
   128
 43
0.0
 10
1212.189199455622
 20
2047.947167307485
 10
1211.953807755424
 20
2047.375348850765
 10
1211.607193157383
 20
2046.723366405879
 10
1211.494240223745
 20
2046.538349887714
  0
ELLIPSE
  5
31C
330
280
100
AcDbEntity
  8
P-SANR-FIXT
100
AcDbEllipse
 10
1177.114353943078
 20
2074.32477401546
 30
0.0
 11
37.0
 21
0.0
 31
0.0
210
0.0
220
0.0
230
1.0
 40
0.3420201433256586
 41
2.9799250869978
 42
4.712388980384677
  0
ELLIPSE
  5
31D
330
280
100
AcDbEntity
  8
P-SANR-FIXT
100
AcDbEllipse
 10
1177.114353943078
 20
2074.32477401546
 30
0.0
 11
36.99999999999987
 21
0.0
 31
0.0
210
0.0
220
0.0
230
1.0
 40
0.3420201433256599
 41
4.712388980384677
 42
6.444852873763532
  0
ENDBLK
  5
31F
330
280
100
AcDbEntity
  8
0
100
AcDbBlockEnd
  0
ENDSEC
  0
SECTION
  2
ENTITIES
  0
INSERT
  5
186
330
71
100
AcDbEntity
  8
P-SANR-FIXT
100
AcDbBlockReference
  2
Automatic flow rate regulator valve_Caleffi_121 DN15 - 2___Pressure gauge H-980146-Est - Idraulica
 10
0.0
 20
0.0
 30
0.0
1001
REVIT
1002
{
1070
     1
1000
863131
1002
}
1002
{
1070
     5
1000
980146
1002
}
1002
{
1070
     2
1000
-2001160
1002
}
  0
INSERT
  5
27F
330
71
100
AcDbEntity
  8
P-SANR-FIXT
100
AcDbBlockReference
  2
Automatic flow rate regulator valve_Caleffi_121 DN15 - 2___Pressure gauge H-V1-Est - Idraulica
 10
0.0
 20
0.0
 30
0.0
1001
REVIT
1002
{
1070
     1
1000
863152
1002
}
1002
{
1070
     5
1000
980146
1002
}
1002
{
1070
     2
1000
-2001160
1002
}
  0
INSERT
  5
320
330
71
100
AcDbEntity
  8
P-SANR-FIXT
100
AcDbBlockReference
  2
Automatic flow rate regulator valve_Caleffi_121 DN15 - 2___Pressure gauge H-V2-Est - Idraulica
 10
0.0
 20
0.0
 30
0.0
1001
REVIT
1002
{
1070
     1
1000
863172
1002
}
1002
{
1070
     5
1000
980146
1002
}
1002
{
1070
     2
1000
-2001160
1002
}
  0
ENDSEC
  0
SECTION
  2
OBJECTS
  0
DICTIONARY
  5
C
330
0
100
AcDbDictionary
281
     1
  3
ACAD_CIP_PREVIOUS_PRODUCT_INFO
350
7A
  3
ACAD_COLOR
350
63
  3
ACAD_DETAILVIEWSTYLE
350
6B
  3
ACAD_GROUP
350
D
  3
ACAD_IMAGE_VARS
350
7B
  3
ACAD_LAYOUT
350
62
  3
ACAD_MATERIAL
350
10
  3
ACAD_MLEADERSTYLE
350
66
  3
ACAD_MLINESTYLE
350
5F
  3
ACAD_PLOTSETTINGS
350
61
  3
ACAD_PLOTSTYLENAME
350
E
  3
ACAD_SCALELIST
350
42
  3
ACAD_SECTIONVIEWSTYLE
350
68
  3
ACAD_TABLESTYLE
350
64
  3
ACAD_VISUALSTYLE
350
29
  3
ACDB_RECOMPOSE_DATA
350
32B
  3
AcDbVariableDictionary
350
7C
  3
REVIT_DICTIONARY
350
322
  0
DICTIONARY
  5
327
330
71
100
AcDbDictionary
280
     1
281
     1
  3
ACAD_SORTENTS
360
328
  0
XRECORD
  5
7A
102
{ACAD_REACTORS
330
C
102
}
330
C
100
AcDbXrecord
280
     1
300
RVT
300
2013
300
RVT2013
  0
DICTIONARY
  5
63
102
{ACAD_REACTORS
330
C
102
}
330
C
100
AcDbDictionary
281
     1
  0
DICTIONARY
  5
6B
102
{ACAD_REACTORS
330
C
102
}
330
C
100
AcDbDictionary
281
     1
  3
Imperial24
350
6C
  0
DICTIONARY
  5
D
102
{ACAD_REACTORS
330
C
102
}
330
C
100
AcDbDictionary
281
     1
  0
RASTERVARIABLES
  5
7B
102
{ACAD_REACTORS
330
C
102
}
330
C
100
AcDbRasterVariables
 90
        0
 70
     0
 71
     1
 72
     1
  0
DICTIONARY
  5
62
102
{ACAD_REACTORS
330
C
102
}
330
C
100
AcDbDictionary
281
     1
  3
Layout1
350
70
  3
Layout2
350
78
  3
Model
350
74
  0
DICTIONARY
  5
10
102
{ACAD_REACTORS
330
C
102
}
330
C
100
AcDbDictionary
281
     1
  3
ByBlock
350
19
  3
ByLayer
350
11
  3
Global
350
21
  0
DICTIONARY
  5
66
102
{ACAD_REACTORS
330
C
102
}
330
C
100
AcDbDictionary
281
     1
  3
Standard
350
67
  0
DICTIONARY
  5
5F
102
{ACAD_REACTORS
330
C
102
}
330
C
100
AcDbDictionary
281
     1
  3
Standard
350
60
  0
DICTIONARY
  5
61
102
{ACAD_REACTORS
330
C
102
}
330
C
100
AcDbDictionary
281
     1
  0
ACDBDICTIONARYWDFLT
  5
E
102
{ACAD_REACTORS
330
C
102
}
330
C
100
AcDbDictionary
281
     1
  3
Normal
350
F
100
AcDbDictionaryWithDefault
340
F
  0
DICTIONARY
  5
42
102
{ACAD_REACTORS
330
C
102
}
330
C
100
AcDbDictionary
281
     1
  3
A0
350
43
  3
A1
350
44
  3
A2
350
45
  3
A3
350
46
  3
A4
350
47
  3
A5
350
48
  3
A6
350
49
  3
A7
350
4A
  3
A8
350
4B
  3
A9
350
4C
  3
B0
350
4D
  3
B1
350
4E
  3
B2
350
4F
  3
B3
350
50
  3
B4
350
51
  3
B5
350
52
  3
B6
350
53
  0
DICTIONARY
  5
68
102
{ACAD_REACTORS
330
C
102
}
330
C
100
AcDbDictionary
281
     1
  3
Imperial24
350
6A
  0
DICTIONARY
  5
64
102
{ACAD_REACTORS
330
C
102
}
330
C
100
AcDbDictionary
281
     1
  3
Standard
350
65
  0
DICTIONARY
  5
29
102
{ACAD_REACTORS
330
C
102
}
330
C
100
AcDbDictionary
281
     1
  3
2dWireframe
350
2F
  3
Basic
350
2E
  3
Brighten
350
35
  3
ColorChange
350
39
  3
Conceptual
350
32
  3
Dim
350
34
  3
EdgeColorOff
350
41
  3
Facepattern
350
38
  3
Flat
350
2A
  3
FlatWithEdges
350
2B
  3
Gouraud
350
2C
  3
GouraudWithEdges
350
2D
  3
Hidden
350
31
  3
JitterOff
350
3F
  3
Linepattern
350
37
  3
OverhangOff
350
40
  3
Realistic
350
33
  3
Shaded
350
3E
  3
Shaded with edges
350
3D
  3
Shades of Gray
350
3A
  3
Sketchy
350
3B
  3
Thicken
350
36
  3
Wireframe
350
30
  3
X-Ray
350
3C
  0
XRECORD
  5
32B
102
{ACAD_REACTORS
330
C
102
}
330
C
100
AcDbXrecord
280
     1
 90
        1
330
65
  0
DICTIONARY
  5
7C
102
{ACAD_REACTORS
330
C
102
}
330
C
100
AcDbDictionary
281
     1
  3
CANNOSCALE
350
81
  3
CMLEADERSTYLE
350
7E
  3
CTABLESTYLE
350
7D
  3
CVIEWDETAILSTYLE
350
7F
  3
CVIEWSECTIONSTYLE
350
80
  0
DICTIONARY
  5
322
102
{ACAD_REACTORS
330
C
102
}
330
C
100
AcDbDictionary
281
     1
  3
DRAWING_TOOL
350
326
  3
REVIT_CATEGORY_MAPPING
350
324
  3
REVIT_SUB_CATEGORY_MAPPING
350
325
  3
REVIT_TYPE_MAPPING
350
323
  0
SORTENTSTABLE
  5
328
102
{ACAD_REACTORS
330
327
102
}
330
327
100
AcDbSortentsTable
330
71
  0
ACDBDETAILVIEWSTYLE
  5
6C
102
{ACAD_REACTORS
330
6B
102
}
330
6B
100
AcDbModelDocViewStyle
 70
     0
  3
Imperial24
290
     1
100
AcDbDetailViewStyle
 70
     0
 71
     0
 90
        3
 71
     1
340
55
 62
   256
 40
0.24
340
0
 62
   256
 40
0.24
300

 40
0.36
280
     3
 71
     2
340
5D
 90
       25
 62
   256
 71
     3
340
55
 62
   256
 40
0.24
 90
        1
 40
0.75
 90
        1
300
%<\AcVar ViewType \f "%tc1">% %<\AcVar ViewDetailId>%\PSCALA %<\AcVar ViewScale \f "%sn">%
 71
     4
340
5D
 90
       25
 62
   256
340
5D
 90
       25
 62
   256
280
     0
  0
LAYOUT
  5
70
102
{ACAD_REACTORS
330
62
102
}
330
62
100
AcDbPlotSettings
  1

  2

  4

  6

 40
0.0
 41
0.0
 42
0.0
 43
0.0
 44
0.0
 45
0.0
 46
0.0
 47
0.0
 48
0.0
 49
0.0
140
0.0
141
0.0
142
1.0
143
1.0
 70
   688
 72
     0
 73
     0
 74
     5
  7

 75
    16
147
1.0
 76
     0
 77
     2
 78
   300
148
0.0
149
0.0
100
AcDbLayout
  1
Layout1
 70
     1
 71
     1
 10
0.0
 20
0.0
 11
12.0
 21
9.0
 12
0.0
 22
0.0
 32
0.0
 14
0.0
 24
0.0
 34
0.0
 15
0.0
 25
0.0
 35
0.0
146
0.0
 13
0.0
 23
0.0
 33
0.0
 16
1.0
 26
0.0
 36
0.0
 17
0.0
 27
1.0
 37
0.0
 76
     0
330
6D
  0
LAYOUT
  5
78
102
{ACAD_REACTORS
330
62
102
}
330
62
100
AcDbPlotSettings
  1

  2

  4

  6

 40
0.0
 41
0.0
 42
0.0
 43
0.0
 44
0.0
 45
0.0
 46
0.0
 47
0.0
 48
0.0
 49
0.0
140
0.0
141
0.0
142
1.0
143
1.0
 70
   688
 72
     0
 73
     0
 74
     5
  7

 75
    16
147
1.0
 76
     0
 77
     2
 78
   300
148
0.0
149
0.0
100
AcDbLayout
  1
Layout2
 70
     1
 71
     2
 10
0.0
 20
0.0
 11
12.0
 21
9.0
 12
0.0
 22
0.0
 32
0.0
 14
0.0
 24
0.0
 34
0.0
 15
0.0
 25
0.0
 35
0.0
146
0.0
 13
0.0
 23
0.0
 33
0.0
 16
1.0
 26
0.0
 36
0.0
 17
0.0
 27
1.0
 37
0.0
 76
     0
330
75
  0
LAYOUT
  5
74
102
{ACAD_REACTORS
330
62
102
}
330
62
100
AcDbPlotSettings
  1

  2

  4

  6

 40
0.0
 41
0.0
 42
0.0
 43
0.0
 44
0.0
 45
0.0
 46
0.0
 47
0.0
 48
0.0
 49
0.0
140
0.0
141
0.0
142
1.0
143
1.0
 70
  1712
 72
     0
 73
     0
 74
     0
  7

 75
     0
147
1.0
 76
     0
 77
     2
 78
   300
148
0.0
149
0.0
100
AcDbLayout
  1
Model
 70
     1
 71
     0
 10
0.0
 20
0.0
 11
12.0
 21
9.0
 12
0.0
 22
0.0
 32
0.0
 14
0.0
 24
0.0
 34
0.0
 15
0.0
 25
0.0
 35
0.0
146
0.0
 13
0.0
 23
0.0
 33
0.0
 16
1.0
 26
0.0
 36
0.0
 17
0.0
 27
1.0
 37
0.0
 76
     0
330
71
  0
MATERIAL
  5
19
102
{ACAD_XDICTIONARY
360
1A
102
}
102
{ACAD_REACTORS
330
10
102
}
330
10
100
AcDbMaterial
  1
ByBlock
 72
     0
 43
0.0208333333333333
 43
0.0
 43
0.0
 43
0.0
 43
0.0
 43
0.0208333333333333
 43
0.0
 43
0.0
 43
0.0
 43
0.0
 43
1.0
 43
0.0
 43
0.0
 43
0.0
 43
0.0
 43
1.0
 77
     0
 47
0.0208333333333333
 47
0.0
 47
0.0
 47
0.0
 47
0.0
 47
0.0208333333333333
 47
0.0
 47
0.0
 47
0.0
 47
0.0
 47
1.0
 47
0.0
 47
0.0
 47
0.0
 47
0.0
 47
1.0
171
     0
 49
0.0208333333333333
 49
0.0
 49
0.0
 49
0.0
 49
0.0
 49
0.0208333333333333
 49
0.0
 49
0.0
 49
0.0
 49
0.0
 49
1.0
 49
0.0
 49
0.0
 49
0.0
 49
0.0
 49
1.0
175
     0
142
0.0208333333333333
142
0.0
142
0.0
142
0.0
142
0.0
142
0.0208333333333333
142
0.0
142
0.0
142
0.0
142
0.0
142
1.0
142
0.0
142
0.0
142
0.0
142
0.0
142
1.0
179
     0
144
0.0208333333333333
144
0.0
144
0.0
144
0.0
144
0.0
144
0.0208333333333333
144
0.0
144
0.0
144
0.0
144
0.0
144
1.0
144
0.0
144
0.0
144
0.0
144
0.0
144
1.0
147
0.0208333333333333
147
0.0
147
0.0
147
0.0
147
0.0
147
0.0208333333333333
147
0.0
147
0.0
147
0.0
147
0.0
147
1.0
147
0.0
147
0.0
147
0.0
147
0.0
147
1.0
  0
MATERIAL
  5
11
102
{ACAD_XDICTIONARY
360
12
102
}
102
{ACAD_REACTORS
330
10
102
}
330
10
100
AcDbMaterial
  1
ByLayer
 72
     0
 43
0.0208333333333333
 43
0.0
 43
0.0
 43
0.0
 43
0.0
 43
0.0208333333333333
 43
0.0
 43
0.0
 43
0.0
 43
0.0
 43
1.0
 43
0.0
 43
0.0
 43
0.0
 43
0.0
 43
1.0
 77
     0
 47
0.0208333333333333
 47
0.0
 47
0.0
 47
0.0
 47
0.0
 47
0.0208333333333333
 47
0.0
 47
0.0
 47
0.0
 47
0.0
 47
1.0
 47
0.0
 47
0.0
 47
0.0
 47
0.0
 47
1.0
171
     0
 49
0.0208333333333333
 49
0.0
 49
0.0
 49
0.0
 49
0.0
 49
0.0208333333333333
 49
0.0
 49
0.0
 49
0.0
 49
0.0
 49
1.0
 49
0.0
 49
0.0
 49
0.0
 49
0.0
 49
1.0
175
     0
142
0.0208333333333333
142
0.0
142
0.0
142
0.0
142
0.0
142
0.0208333333333333
142
0.0
142
0.0
142
0.0
142
0.0
142
1.0
142
0.0
142
0.0
142
0.0
142
0.0
142
1.0
179
     0
144
0.0208333333333333
144
0.0
144
0.0
144
0.0
144
0.0
144
0.0208333333333333
144
0.0
144
0.0
144
0.0
144
0.0
144
1.0
144
0.0
144
0.0
144
0.0
144
0.0
144
1.0
147
0.0208333333333333
147
0.0
147
0.0
147
0.0
147
0.0
147
0.0208333333333333
147
0.0
147
0.0
147
0.0
147
0.0
147
1.0
147
0.0
147
0.0
147
0.0
147
0.0
147
1.0
  0
MATERIAL
  5
21
102
{ACAD_XDICTIONARY
360
22
102
}
102
{ACAD_REACTORS
330
10
102
}
330
10
100
AcDbMaterial
  1
Global
 72
     0
 43
0.0208333333333333
 43
0.0
 43
0.0
 43
0.0
 43
0.0
 43
0.0208333333333333
 43
0.0
 43
0.0
 43
0.0
 43
0.0
 43
1.0
 43
0.0
 43
0.0
 43
0.0
 43
0.0
 43
1.0
 77
     0
 47
0.0208333333333333
 47
0.0
 47
0.0
 47
0.0
 47
0.0
 47
0.0208333333333333
 47
0.0
 47
0.0
 47
0.0
 47
0.0
 47
1.0
 47
0.0
 47
0.0
 47
0.0
 47
0.0
 47
1.0
171
     0
 49
0.0208333333333333
 49
0.0
 49
0.0
 49
0.0
 49
0.0
 49
0.0208333333333333
 49
0.0
 49
0.0
 49
0.0
 49
0.0
 49
1.0
 49
0.0
 49
0.0
 49
0.0
 49
0.0
 49
1.0
175
     0
142
0.0208333333333333
142
0.0
142
0.0
142
0.0
142
0.0
142
0.0208333333333333
142
0.0
142
0.0
142
0.0
142
0.0
142
1.0
142
0.0
142
0.0
142
0.0
142
0.0
142
1.0
179
     0
144
0.0208333333333333
144
0.0
144
0.0
144
0.0
144
0.0
144
0.0208333333333333
144
0.0
144
0.0
144
0.0
144
0.0
144
1.0
144
0.0
144
0.0
144
0.0
144
0.0
144
1.0
147
0.0208333333333333
147
0.0
147
0.0
147
0.0
147
0.0
147
0.0208333333333333
147
0.0
147
0.0
147
0.0
147
0.0
147
1.0
147
0.0
147
0.0
147
0.0
147
0.0
147
1.0
  0
MLEADERSTYLE
  5
67
102
{ACAD_REACTORS
330
66
102
}
330
66
100
AcDbMLeaderStyle
179
     2
170
     2
171
     1
172
     0
 90
        2
 40
0.0
 41
0.0
173
     1
 91
-1056964608
340
5B
 92
       -2
290
     1
 42
0.09
291
     1
 43
0.36
  3
Standard
 44
0.18
300

342
55
174
     1
178
     6
175
     1
176
     0
 93
-1056964608
 45
0.18
292
     0
297
     0
 46
0.18
 94
-1056964608
 47
1.0
 49
1.0
140
1.0
293
     1
141
0.0
294
     1
177
     0
142
1.0
295
     1
296
     0
143
0.125
271
     0
272
     9
273
     9
298
     1
  0
MLINESTYLE
  5
60
102
{ACAD_REACTORS
330
5F
102
}
330
5F
100
AcDbMlineStyle
  2
STANDARD
 70
     0
  3

 62
   256
 51
90.0
 52
90.0
 71
     2
 49
0.5
 62
   256
  6
BYLAYER
 49
-0.5
 62
   256
  6
BYLAYER
  0
ACDBPLACEHOLDER
  5
F
102
{ACAD_REACTORS
330
E
102
}
330
E
  0
SCALE
  5
43
102
{ACAD_REACTORS
330
42
102
}
330
42
100
AcDbScale
 70
     0
300
1:1
140
1.0
141
1.0
290
     1
  0
SCALE
  5
44
102
{ACAD_REACTORS
330
42
102
}
330
42
100
AcDbScale
 70
     0
300
1/128" = 1'-0"
140
0.0078125
141
12.0
290
     0
  0
SCALE
  5
45
102
{ACAD_REACTORS
330
42
102
}
330
42
100
AcDbScale
 70
     0
300
1/64" = 1'-0"
140
0.015625
141
12.0
290
     0
  0
SCALE
  5
46
102
{ACAD_REACTORS
330
42
102
}
330
42
100
AcDbScale
 70
     0
300
1/32" = 1'-0"
140
0.03125
141
12.0
290
     0
  0
SCALE
  5
47
102
{ACAD_REACTORS
330
42
102
}
330
42
100
AcDbScale
 70
     0
300
1/16" = 1'-0"
140
0.0625
141
12.0
290
     0
  0
SCALE
  5
48
102
{ACAD_REACTORS
330
42
102
}
330
42
100
AcDbScale
 70
     0
300
3/32" = 1'-0"
140
0.09375
141
12.0
290
     0
  0
SCALE
  5
49
102
{ACAD_REACTORS
330
42
102
}
330
42
100
AcDbScale
 70
     0
300
1/8" = 1'-0"
140
0.125
141
12.0
290
     0
  0
SCALE
  5
4A
102
{ACAD_REACTORS
330
42
102
}
330
42
100
AcDbScale
 70
     0
300
3/16" = 1'-0"
140
0.1875
141
12.0
290
     0
  0
SCALE
  5
4B
102
{ACAD_REACTORS
330
42
102
}
330
42
100
AcDbScale
 70
     0
300
1/4" = 1'-0"
140
0.25
141
12.0
290
     0
  0
SCALE
  5
4C
102
{ACAD_REACTORS
330
42
102
}
330
42
100
AcDbScale
 70
     0
300
3/8" = 1'-0"
140
0.375
141
12.0
290
     0
  0
SCALE
  5
4D
102
{ACAD_REACTORS
330
42
102
}
330
42
100
AcDbScale
 70
     0
300
1/2" = 1'-0"
140
0.5
141
12.0
290
     0
  0
SCALE
  5
4E
102
{ACAD_REACTORS
330
42
102
}
330
42
100
AcDbScale
 70
     0
300
3/4" = 1'-0"
140
0.75
141
12.0
290
     0
  0
SCALE
  5
4F
102
{ACAD_REACTORS
330
42
102
}
330
42
100
AcDbScale
 70
     0
300
1" = 1'-0"
140
1.0
141
12.0
290
     0
  0
SCALE
  5
50
102
{ACAD_REACTORS
330
42
102
}
330
42
100
AcDbScale
 70
     0
300
1-1/2" = 1'-0"
140
1.5
141
12.0
290
     0
  0
SCALE
  5
51
102
{ACAD_REACTORS
330
42
102
}
330
42
100
AcDbScale
 70
     0
300
3" = 1'-0"
140
3.0
141
12.0
290
     0
  0
SCALE
  5
52
102
{ACAD_REACTORS
330
42
102
}
330
42
100
AcDbScale
 70
     0
300
6" = 1'-0"
140
6.0
141
12.0
290
     0
  0
SCALE
  5
53
102
{ACAD_REACTORS
330
42
102
}
330
42
100
AcDbScale
 70
     0
300
1'-0" = 1'-0"
140
12.0
141
12.0
290
     0
  0
ACDBSECTIONVIEWSTYLE
  5
6A
102
{ACAD_REACTORS
330
68
102
}
330
68
100
AcDbModelDocViewStyle
 70
     0
  3
Imperial24
290
     1
100
AcDbSectionViewStyle
 70
     0
 71
     0
 90
       78
 71
     1
340
55
 62
   256
 40
0.24
340
0
340
0
 62
   256
 40
0.24
300
I, O, Q, S, X, Z
 40
0.48
 90
        3
 40
0.18
 90
        1
 71
     2
340
69
 90
       25
 62
   256
340
5D
 90
       50
 62
   256
 40
0.24
 40
0.0
 40
0.24
 71
     3
340
55
 62
   256
 40
0.24
 90
        1
 40
0.75
 90
        1
300
%<\AcVar ViewType \f "%tc1">% %<\AcVar ViewSectionStartId>%-%<\AcVar ViewSectionEndId>%\PSCALA %<\AcVar ViewScale \f "%sn">%
 71
     4
 62
   256
 62
   257
300
ANSI31
 40
1.0
 90
        0
290
     0
290
     0
 90
        6
 40
0.0
 40
1.570796326794896
 40
0.2617993877991494
 40
1.308996938995747
 40
-0.2617993877991494
 40
1.832595714594046
  0
TABLESTYLE
  5
65
102
{ACAD_XDICTIONARY
360
329
102
}
102
{ACAD_REACTORS
330
64
102
}
330
64
100
AcDbTableStyle
280
     0
  3
Standard
 70
     0
 71
     0
 40
0.06
 41
0.06
280
     0
281
     0
  7
Standard
140
0.18
170
     2
 62
     0
 63
     7
283
     0
 90
      512
 91
        0
  1

274
    -2
284
     1
 64
     0
275
    -2
285
     1
 65
     0
276
    -2
286
     1
 66
     0
277
    -2
287
     1
 67
     0
278
    -2
288
     1
 68
     0
279
    -2
289
     1
 69
     0
  7
Standard
140
0.25
170
     5
 62
     0
 63
     7
283
     0
 90
      512
 91
        0
  1

274
    -2
284
     1
 64
     0
275
    -2
285
     1
 65
     0
276
    -2
286
     1
 66
     0
277
    -2
287
     1
 67
     0
278
    -2
288
     1
 68
     0
279
    -2
289
     1
 69
     0
  7
Standard
140
0.18
170
     5
 62
     0
 63
     7
283
     0
 90
      512
 91
        0
  1

274
    -2
284
     1
 64
     0
275
    -2
285
     1
 65
     0
276
    -2
286
     1
 66
     0
277
    -2
287
     1
 67
     0
278
    -2
288
     1
 68
     0
279
    -2
289
     1
 69
     0
  0
VISUALSTYLE
  5
2F
102
{ACAD_REACTORS
330
29
102
}
330
29
100
AcDbVisualStyle
  2
2dWireframe
 70
     4
177
     3
291
     0
 70
    58
 90
        0
176
     1
 90
        2
176
     1
 90
        0
176
     1
 90
        0
176
     1
 40
0.6
176
     1
 40
30.0
176
     1
 62
     7
420
 16777215
176
     1
 90
        1
176
     1
 90
        4
176
     1
 62
     7
176
     1
 62
   257
176
     1
 90
        1
176
     1
 90
        1
176
     1
 40
1.0
176
     1
 90
        0
176
     1
 62
   257
176
     1
 40
1.0
176
     1
 90
        1
176
     1
 90
        6
176
     1
 90
        2
176
     1
 62
     7
176
     1
 90
        5
176
     1
 90
        0
176
     1
 90
        0
176
     1
290
     0
176
     1
 90
        1
176
     1
 40
0.0
176
     1
 90
        0
176
     1
290
     1
176
     1
290
     1
176
     1
290
     0
176
     1
290
     0
176
     1
290
     0
176
     1
290
     0
176
     1
290
     0
176
     1
290
     0
176
     1
290
     0
176
     1
 90
       50
176
     1
 40
0.0
176
     1
 40
1.0
176
     1
 90
        0
176
     1
 62
    18
420
        0
176
     1
 90
       50
176
     1
 90
        3
176
     1
 62
     5
420
      255
176
     1
290
     0
176
     1
 90
       50
176
     1
 90
       50
176
     1
 90
       50
176
     1
290
     0
176
     1
 90
       50
176
     1
 62
   256
176
     0
 40
1.0
176
     0
 90
        2
176
     1
  1
strokes_ogs.tif
176
     1
290
     0
176
     1
 40
1.0
176
     1
 40
1.0
176
     1
  0
VISUALSTYLE
  5
2E
102
{ACAD_REACTORS
330
29
102
}
330
29
100
AcDbVisualStyle
  2
Basic
 70
     7
177
     3
291
     1
 70
    58
 90
        1
176
     1
 90
        0
176
     1
 90
        1
176
     1
 90
        0
176
     1
 40
0.6
176
     1
 40
30.0
176
     1
 62
     7
420
 16777215
176
     1
 90
        0
176
     1
 90
        4
176
     1
 62
     7
176
     1
 62
   257
176
     1
 90
        1
176
     1
 90
        1
176
     1
 40
1.0
176
     1
 90
        8
176
     1
 62
     7
176
     1
 40
1.0
176
     1
 90
        1
176
     1
 90
        6
176
     1
 90
        2
176
     1
 62
     7
176
     1
 90
        5
176
     1
 90
        0
176
     1
 90
        0
176
     1
290
     0
176
     1
 90
        1
176
     1
 40
0.0
176
     1
 90
        0
176
     1
290
     0
176
     1
290
     1
176
     1
290
     1
176
     1
290
     0
176
     1
290
     0
176
     1
290
     0
176
     1
290
     0
176
     1
290
     0
176
     1
290
     0
176
     1
 90
       50
176
     1
 40
0.0
176
     1
 40
1.0
176
     1
 90
        0
176
     1
 62
    18
420
        0
176
     1
 90
       50
176
     1
 90
        3
176
     1
 62
     5
420
      255
176
     1
290
     0
176
     1
 90
       50
176
     1
 90
       50
176
     1
 90
       50
176
     1
290
     0
176
     1
 90
       50
176
     1
 62
   256
176
     0
 40
1.0
176
     0
 90
        2
176
     1
  1
strokes_ogs.tif
176
     1
290
     0
176
     1
 40
1.0
176
     1
 40
1.0
176
     1
  0
VISUALSTYLE
  5
35
102
{ACAD_REACTORS
330
29
102
}
330
29
100
AcDbVisualStyle
  2
Brighten
 70
    12
177
     3
291
     1
 70
    58
 90
        2
176
     1
 90
        2
176
     1
 90
        0
176
     1
 90
        0
176
     1
 40
0.6
176
     1
 40
30.0
176
     1
 62
     7
420
 16777215
176
     1
 90
        1
176
     1
 90
        4
176
     1
 62
     7
176
     1
 62
   257
176
     1
 90
        1
176
     1
 90
        1
176
     1
 40
1.0
176
     1
 90
        8
176
     1
 62
     7
176
     1
 40
1.0
176
     1
 90
        1
176
     1
 90
        6
176
     1
 90
        2
176
     1
 62
     7
176
     1
 90
        5
176
     1
 90
        0
176
     1
 90
        0
176
     1
290
     0
176
     1
 90
        1
176
     1
 40
50.0
176
     1
 90
        0
176
     1
290
     0
176
     1
290
     1
176
     1
290
     1
176
     1
290
     0
176
     1
290
     0
176
     1
290
     0
176
     1
290
     0
176
     1
290
     0
176
     1
290
     0
176
     1
 90
       50
176
     1
 40
0.0
176
     1
 40
1.0
176
     1
 90
        0
176
     1
 62
    18
420
        0
176
     1
 90
       50
176
     1
 90
        3
176
     1
 62
     5
420
      255
176
     1
290
     0
176
     1
 90
       50
176
     1
 90
       50
176
     1
 90
       50
176
     1
290
     0
176
     1
 90
       50
176
     1
 62
   256
176
     0
 40
1.0
176
     0
 90
        2
176
     1
  1
strokes_ogs.tif
176
     1
290
     0
176
     1
 40
1.0
176
     1
 40
1.0
176
     1
  0
VISUALSTYLE
  5
39
102
{ACAD_REACTORS
330
29
102
}
330
29
100
AcDbVisualStyle
  2
ColorChange
 70
    16
177
     3
291
     1
 70
    58
 90
        2
176
     1
 90
        2
176
     1
 90
        3
176
     1
 90
        0
176
     1
 40
0.6
176
     1
 40
30.0
176
     1
 62
     8
420
  8421504
176
     1
 90
        1
176
     1
 90
        4
176
     1
 62
     7
176
     1
 62
   257
176
     1
 90
        1
176
     1
 90
        1
176
     1
 40
1.0
176
     1
 90
        8
176
     1
 62
     8
420
  8421504
176
     1
 40
1.0
176
     1
 90
        1
176
     1
 90
        6
176
     1
 90
        2
176
     1
 62
     7
176
     1
 90
        5
176
     1
 90
        0
176
     1
 90
        0
176
     1
290
     0
176
     1
 90
        1
176
     1
 40
0.0
176
     1
 90
        0
176
     1
290
     0
176
     1
290
     1
176
     1
290
     1
176
     1
290
     0
176
     1
290
     0
176
     1
290
     0
176
     1
290
     0
176
     1
290
     0
176
     1
290
     0
176
     1
 90
       50
176
     1
 40
0.0
176
     1
 40
1.0
176
     1
 90
        0
176
     1
 62
    18
420
        0
176
     1
 90
       50
176
     1
 90
        3
176
     1
 62
     5
420
      255
176
     1
290
     0
176
     1
 90
       50
176
     1
 90
       50
176
     1
 90
       50
176
     1
290
     0
176
     1
 90
       50
176
     1
 62
   256
176
     0
 40
1.0
176
     0
 90
        2
176
     1
  1
strokes_ogs.tif
176
     1
290
     0
176
     1
 40
1.0
176
     1
 40
1.0
176
     1
  0
VISUALSTYLE
  5
32
102
{ACAD_REACTORS
330
29
102
}
330
29
100
AcDbVisualStyle
  2
Conceptual
 70
     9
177
     3
291
     0
 70
    58
 90
        3
176
     1
 90
        2
176
     1
 90
        0
176
     1
 90
        0
176
     1
 40
0.6
176
     1
 40
30.0
176
     1
 62
     7
420
 16777215
176
     1
 90
        2
176
     1
 90
        2
176
     1
 62
     7
176
     1
 62
   257
176
     1
 90
        1
176
     1
 90
        1
176
     1
 40
179.0
176
     1
 90
        8
176
     1
 62
     7
176
     1
 40
1.0
176
     1
 90
        1
176
     1
 90
        6
176
     1
 90
        2
176
     1
 62
     7
176
     1
 90
        3
176
     1
 90
        0
176
     1
 90
        0
176
     1
290
     0
176
     1
 90
        1
176
     1
 40
0.0
176
     1
 90
        0
176
     1
290
     0
176
     1
290
     1
176
     1
290
     1
176
     1
290
     0
176
     1
290
     0
176
     1
290
     0
176
     1
290
     0
176
     1
290
     0
176
     1
290
     0
176
     1
 90
       50
176
     1
 40
0.0
176
     1
 40
1.0
176
     1
 90
        0
176
     1
 62
    18
420
        0
176
     1
 90
       50
176
     1
 90
        3
176
     1
 62
     5
420
      255
176
     1
290
     0
176
     1
 90
       50
176
     1
 90
       50
176
     1
 90
       50
176
     1
290
     0
176
     1
 90
       50
176
     1
 62
   256
176
     0
 40
1.0
176
     0
 90
        2
176
     1
  1
strokes_ogs.tif
176
     1
290
     0
176
     1
 40
1.0
176
     1
 40
1.0
176
     1
  0
VISUALSTYLE
  5
34
102
{ACAD_REACTORS
330
29
102
}
330
29
100
AcDbVisualStyle
  2
Dim
 70
    11
177
     3
291
     1
 70
    58
 90
        2
176
     1
 90
        2
176
     1
 90
        0
176
     1
 90
        0
176
     1
 40
0.6
176
     1
 40
30.0
176
     1
 62
     7
420
 16777215
176
     1
 90
        1
176
     1
 90
        4
176
     1
 62
     7
176
     1
 62
   257
176
     1
 90
        1
176
     1
 90
        1
176
     1
 40
1.0
176
     1
 90
        8
176
     1
 62
     7
176
     1
 40
1.0
176
     1
 90
        1
176
     1
 90
        6
176
     1
 90
        2
176
     1
 62
     7
176
     1
 90
        5
176
     1
 90
        0
176
     1
 90
        0
176
     1
290
     0
176
     1
 90
        1
176
     1
 40
-50.0
176
     1
 90
        0
176
     1
290
     0
176
     1
290
     1
176
     1
290
     1
176
     1
290
     0
176
     1
290
     0
176
     1
290
     0
176
     1
290
     0
176
     1
290
     0
176
     1
290
     0
176
     1
 90
       50
176
     1
 40
0.0
176
     1
 40
1.0
176
     1
 90
        0
176
     1
 62
    18
420
        0
176
     1
 90
       50
176
     1
 90
        3
176
     1
 62
     5
420
      255
176
     1
290
     0
176
     1
 90
       50
176
     1
 90
       50
176
     1
 90
       50
176
     1
290
     0
176
     1
 90
       50
176
     1
 62
   256
176
     0
 40
1.0
176
     0
 90
        2
176
     1
  1
strokes_ogs.tif
176
     1
290
     0
176
     1
 40
1.0
176
     1
 40
1.0
176
     1
  0
VISUALSTYLE
  5
41
102
{ACAD_REACTORS
330
29
102
}
330
29
100
AcDbVisualStyle
  2
EdgeColorOff
 70
    22
177
     3
291
     1
 70
    58
 90
        2
176
     0
 90
        2
176
     0
 90
        0
176
     0
 90
        0
176
     0
 40
0.6
176
     0
 40
30.0
176
     0
 62
     7
420
 16777215
176
     0
 90
        1
176
     0
 90
        4
176
     0
 62
     7
176
     0
 62
   257
176
     0
 90
        1
176
     0
 90
        1
176
     0
 40
1.0
176
     0
 90
        8
176
     2
 62
     7
176
     0
 40
1.0
176
     0
 90
        1
176
     0
 90
        6
176
     0
 90
        2
176
     0
 62
     7
176
     0
 90
        5
176
     0
 90
        0
176
     0
 90
        0
176
     0
290
     0
176
     0
 90
        1
176
     0
 40
0.0
176
     0
 90
        0
176
     0
290
     0
176
     0
290
     1
176
     0
290
     1
176
     0
290
     0
176
     0
290
     0
176
     0
290
     0
176
     0
290
     0
176
     0
290
     0
176
     0
290
     0
176
     0
 90
       50
176
     0
 40
0.0
176
     0
 40
1.0
176
     0
 90
        0
176
     0
 62
    18
420
        0
176
     0
 90
       50
176
     0
 90
        3
176
     0
 62
     5
420
      255
176
     0
290
     0
176
     0
 90
       50
176
     0
 90
       50
176
     0
 90
       50
176
     0
290
     0
176
     0
 90
       50
176
     0
 62
   256
176
     0
 40
1.0
176
     0
 90
        2
176
     0
  1
strokes_ogs.tif
176
     0
290
     0
176
     0
 40
1.0
176
     0
 40
1.0
176
     0
  0
VISUALSTYLE
  5
38
102
{ACAD_REACTORS
330
29
102
}
330
29
100
AcDbVisualStyle
  2
Facepattern
 70
    15
177
     3
291
     1
 70
    58
 90
        2
176
     1
 90
        2
176
     1
 90
        0
176
     1
 90
        0
176
     1
 40
0.6
176
     1
 40
30.0
176
     1
 62
     7
420
 16777215
176
     1
 90
        1
176
     1
 90
        4
176
     1
 62
     7
176
     1
 62
   257
176
     1
 90
        1
176
     1
 90
        1
176
     1
 40
1.0
176
     1
 90
        8
176
     1
 62
     7
176
     1
 40
1.0
176
     1
 90
        1
176
     1
 90
        6
176
     1
 90
        2
176
     1
 62
     7
176
     1
 90
        5
176
     1
 90
        0
176
     1
 90
        0
176
     1
290
     0
176
     1
 90
        1
176
     1
 40
0.0
176
     1
 90
        0
176
     1
290
     0
176
     1
290
     1
176
     1
290
     1
176
     1
290
     0
176
     1
290
     0
176
     1
290
     0
176
     1
290
     0
176
     1
290
     0
176
     1
290
     0
176
     1
 90
       50
176
     1
 40
0.0
176
     1
 40
1.0
176
     1
 90
        0
176
     1
 62
    18
420
        0
176
     1
 90
       50
176
     1
 90
        3
176
     1
 62
     5
420
      255
176
     1
290
     0
176
     1
 90
       50
176
     1
 90
       50
176
     1
 90
       50
176
     1
290
     0
176
     1
 90
       50
176
     1
 62
   256
176
     0
 40
1.0
176
     0
 90
        2
176
     1
  1
strokes_ogs.tif
176
     1
290
     0
176
     1
 40
1.0
176
     1
 40
1.0
176
     1
  0
VISUALSTYLE
  5
2A
102
{ACAD_REACTORS
330
29
102
}
330
29
100
AcDbVisualStyle
  2
Flat
 70
     0
177
     3
291
     1
 70
    58
 90
        2
176
     1
 90
        1
176
     1
 90
        1
176
     1
 90
        2
176
     1
 40
0.6
176
     1
 40
30.0
176
     1
 62
     7
420
 16777215
176
     1
 90
        0
176
     1
 90
        0
176
     1
 62
     7
176
     1
 62
   257
176
     1
 90
        1
176
     1
 90
        1
176
     1
 40
1.0
176
     1
 90
        8
176
     1
 62
     7
176
     1
 40
1.0
176
     1
 90
        1
176
     1
 90
        6
176
     1
 90
        2
176
     1
 62
     7
176
     1
 90
        5
176
     1
 90
        0
176
     1
 90
        0
176
     1
290
     0
176
     1
 90
       13
176
     1
 40
0.0
176
     1
 90
        0
176
     1
290
     0
176
     1
290
     1
176
     1
290
     1
176
     1
290
     0
176
     1
290
     0
176
     1
290
     0
176
     1
290
     0
176
     1
290
     0
176
     1
290
     0
176
     1
 90
       50
176
     1
 40
0.0
176
     1
 40
1.0
176
     1
 90
        0
176
     1
 62
    18
420
        0
176
     1
 90
       50
176
     1
 90
        3
176
     1
 62
     5
420
      255
176
     1
290
     0
176
     1
 90
       50
176
     1
 90
       50
176
     1
 90
       50
176
     1
290
     0
176
     1
 90
       50
176
     1
 62
   256
176
     0
 40
1.0
176
     0
 90
        2
176
     1
  1
strokes_ogs.tif
176
     1
290
     0
176
     1
 40
1.0
176
     1
 40
1.0
176
     1
  0
VISUALSTYLE
  5
2B
102
{ACAD_REACTORS
330
29
102
}
330
29
100
AcDbVisualStyle
  2
FlatWithEdges
 70
     1
177
     3
291
     1
 70
    58
 90
        2
176
     1
 90
        1
176
     1
 90
        1
176
     1
 90
        2
176
     1
 40
0.6
176
     1
 40
30.0
176
     1
 62
     7
420
 16777215
176
     1
 90
        1
176
     1
 90
        0
176
     1
 62
     7
176
     1
 62
   257
176
     1
 90
        1
176
     1
 90
        1
176
     1
 40
1.0
176
     1
 90
        0
176
     1
 62
   257
176
     1
 40
1.0
176
     1
 90
        1
176
     1
 90
        6
176
     1
 90
        2
176
     1
 62
     7
176
     1
 90
        5
176
     1
 90
        0
176
     1
 90
        0
176
     1
290
     0
176
     1
 90
       13
176
     1
 40
0.0
176
     1
 90
        0
176
     1
290
     0
176
     1
290
     1
176
     1
290
     1
176
     1
290
     0
176
     1
290
     0
176
     1
290
     0
176
     1
290
     0
176
     1
290
     0
176
     1
290
     0
176
     1
 90
       50
176
     1
 40
0.0
176
     1
 40
1.0
176
     1
 90
        0
176
     1
 62
    18
420
        0
176
     1
 90
       50
176
     1
 90
        3
176
     1
 62
     5
420
      255
176
     1
290
     0
176
     1
 90
       50
176
     1
 90
       50
176
     1
 90
       50
176
     1
290
     0
176
     1
 90
       50
176
     1
 62
   256
176
     0
 40
1.0
176
     0
 90
        2
176
     1
  1
strokes_ogs.tif
176
     1
290
     0
176
     1
 40
1.0
176
     1
 40
1.0
176
     1
  0
VISUALSTYLE
  5
2C
102
{ACAD_REACTORS
330
29
102
}
330
29
100
AcDbVisualStyle
  2
Gouraud
 70
     2
177
     3
291
     1
 70
    58
 90
        2
176
     1
 90
        2
176
     1
 90
        1
176
     1
 90
        2
176
     1
 40
0.6
176
     1
 40
30.0
176
     1
 62
     7
420
 16777215
176
     1
 90
        0
176
     1
 90
        0
176
     1
 62
     7
176
     1
 62
   257
176
     1
 90
        1
176
     1
 90
        1
176
     1
 40
1.0
176
     1
 90
        0
176
     1
 62
     7
176
     1
 40
1.0
176
     1
 90
        1
176
     1
 90
        6
176
     1
 90
        2
176
     1
 62
     7
176
     1
 90
        5
176
     1
 90
        0
176
     1
 90
        0
176
     1
290
     0
176
     1
 90
       13
176
     1
 40
0.0
176
     1
 90
        0
176
     1
290
     0
176
     1
290
     1
176
     1
290
     1
176
     1
290
     0
176
     1
290
     0
176
     1
290
     0
176
     1
290
     0
176
     1
290
     0
176
     1
290
     0
176
     1
 90
       50
176
     1
 40
0.0
176
     1
 40
1.0
176
     1
 90
        0
176
     1
 62
    18
420
        0
176
     1
 90
       50
176
     1
 90
        3
176
     1
 62
     5
420
      255
176
     1
290
     0
176
     1
 90
       50
176
     1
 90
       50
176
     1
 90
       50
176
     1
290
     0
176
     1
 90
       50
176
     1
 62
   256
176
     0
 40
1.0
176
     0
 90
        2
176
     1
  1
strokes_ogs.tif
176
     1
290
     0
176
     1
 40
1.0
176
     1
 40
1.0
176
     1
  0
VISUALSTYLE
  5
2D
102
{ACAD_REACTORS
330
29
102
}
330
29
100
AcDbVisualStyle
  2
GouraudWithEdges
 70
     3
177
     3
291
     1
 70
    58
 90
        2
176
     1
 90
        2
176
     1
 90
        1
176
     1
 90
        2
176
     1
 40
0.6
176
     1
 40
30.0
176
     1
 62
     7
420
 16777215
176
     1
 90
        1
176
     1
 90
        0
176
     1
 62
     7
176
     1
 62
   257
176
     1
 90
        1
176
     1
 90
        1
176
     1
 40
1.0
176
     1
 90
        0
176
     1
 62
   257
176
     1
 40
1.0
176
     1
 90
        1
176
     1
 90
        6
176
     1
 90
        2
176
     1
 62
     7
176
     1
 90
        5
176
     1
 90
        0
176
     1
 90
        0
176
     1
290
     0
176
     1
 90
       13
176
     1
 40
0.0
176
     1
 90
        0
176
     1
290
     0
176
     1
290
     1
176
     1
290
     1
176
     1
290
     0
176
     1
290
     0
176
     1
290
     0
176
     1
290
     0
176
     1
290
     0
176
     1
290
     0
176
     1
 90
       50
176
     1
 40
0.0
176
     1
 40
1.0
176
     1
 90
        0
176
     1
 62
    18
420
        0
176
     1
 90
       50
176
     1
 90
        3
176
     1
 62
     5
420
      255
176
     1
290
     0
176
     1
 90
       50
176
     1
 90
       50
176
     1
 90
       50
176
     1
290
     0
176
     1
 90
       50
176
     1
 62
   256
176
     0
 40
1.0
176
     0
 90
        2
176
     1
  1
strokes_ogs.tif
176
     1
290
     0
176
     1
 40
1.0
176
     1
 40
1.0
176
     1
  0
VISUALSTYLE
  5
31
102
{ACAD_REACTORS
330
29
102
}
330
29
100
AcDbVisualStyle
  2
Hidden
 70
     6
177
     3
291
     0
 70
    58
 90
        1
176
     1
 90
        2
176
     1
 90
        2
176
     1
 90
        0
176
     1
 40
0.6
176
     1
 40
30.0
176
     1
 62
     7
420
 16777215
176
     1
 90
        2
176
     1
 90
        2
176
     1
 62
     7
176
     1
 62
   257
176
     1
 90
        2
176
     1
 90
        1
176
     1
 40
40.0
176
     1
 90
        0
176
     1
 62
   257
176
     1
 40
1.0
176
     1
 90
        1
176
     1
 90
        6
176
     1
 90
        2
176
     1
 62
     7
176
     1
 90
        3
176
     1
 90
        0
176
     1
 90
        0
176
     1
290
     0
176
     1
 90
        1
176
     1
 40
0.0
176
     1
 90
        0
176
     1
290
     0
176
     1
290
     1
176
     1
290
     1
176
     1
290
     0
176
     1
290
     0
176
     1
290
     0
176
     1
290
     0
176
     1
290
     0
176
     1
290
     0
176
     1
 90
       50
176
     1
 40
0.0
176
     1
 40
1.0
176
     1
 90
        0
176
     1
 62
    18
420
        0
176
     1
 90
       50
176
     1
 90
        3
176
     1
 62
     5
420
      255
176
     1
290
     0
176
     1
 90
       50
176
     1
 90
       50
176
     1
 90
       50
176
     1
290
     0
176
     1
 90
       50
176
     1
 62
   256
176
     0
 40
1.0
176
     0
 90
        2
176
     1
  1
strokes_ogs.tif
176
     1
290
     0
176
     1
 40
1.0
176
     1
 40
1.0
176
     1
  0
VISUALSTYLE
  5
3F
102
{ACAD_REACTORS
330
29
102
}
330
29
100
AcDbVisualStyle
  2
JitterOff
 70
    20
177
     3
291
     1
 70
    58
 90
        2
176
     0
 90
        2
176
     0
 90
        0
176
     0
 90
        0
176
     0
 40
0.6
176
     0
 40
30.0
176
     0
 62
     7
420
 16777215
176
     0
 90
        1
176
     0
 90
        4
176
     0
 62
     7
176
     0
 62
   257
176
     0
 90
        1
176
     0
 90
        1
176
     0
 40
1.0
176
     0
 90
       10
176
     2
 62
     7
176
     0
 40
1.0
176
     0
 90
        1
176
     0
 90
        6
176
     0
 90
        2
176
     0
 62
     7
176
     0
 90
        5
176
     0
 90
        0
176
     0
 90
        0
176
     0
290
     0
176
     0
 90
        1
176
     0
 40
0.0
176
     0
 90
        0
176
     0
290
     0
176
     0
290
     1
176
     0
290
     1
176
     0
290
     0
176
     0
290
     0
176
     0
290
     0
176
     0
290
     0
176
     0
290
     0
176
     0
290
     0
176
     0
 90
       50
176
     0
 40
0.0
176
     0
 40
1.0
176
     0
 90
        0
176
     0
 62
    18
420
        0
176
     0
 90
       50
176
     0
 90
        3
176
     0
 62
     5
420
      255
176
     0
290
     0
176
     0
 90
       50
176
     0
 90
       50
176
     0
 90
       50
176
     0
290
     0
176
     0
 90
       50
176
     0
 62
   256
176
     0
 40
1.0
176
     0
 90
        2
176
     0
  1
strokes_ogs.tif
176
     0
290
     0
176
     0
 40
1.0
176
     0
 40
1.0
176
     0
  0
VISUALSTYLE
  5
37
102
{ACAD_REACTORS
330
29
102
}
330
29
100
AcDbVisualStyle
  2
Linepattern
 70
    14
177
     3
291
     1
 70
    58
 90
        2
176
     1
 90
        2
176
     1
 90
        0
176
     1
 90
        0
176
     1
 40
0.6
176
     1
 40
30.0
176
     1
 62
     7
420
 16777215
176
     1
 90
        1
176
     1
 90
        4
176
     1
 62
     7
176
     1
 62
   257
176
     1
 90
        7
176
     1
 90
        7
176
     1
 40
1.0
176
     1
 90
        8
176
     1
 62
     7
176
     1
 40
1.0
176
     1
 90
        1
176
     1
 90
        6
176
     1
 90
        2
176
     1
 62
     7
176
     1
 90
        5
176
     1
 90
        0
176
     1
 90
        0
176
     1
290
     0
176
     1
 90
        1
176
     1
 40
0.0
176
     1
 90
        0
176
     1
290
     0
176
     1
290
     1
176
     1
290
     1
176
     1
290
     0
176
     1
290
     0
176
     1
290
     0
176
     1
290
     0
176
     1
290
     0
176
     1
290
     0
176
     1
 90
       50
176
     1
 40
0.0
176
     1
 40
1.0
176
     1
 90
        0
176
     1
 62
    18
420
        0
176
     1
 90
       50
176
     1
 90
        3
176
     1
 62
     5
420
      255
176
     1
290
     0
176
     1
 90
       50
176
     1
 90
       50
176
     1
 90
       50
176
     1
290
     0
176
     1
 90
       50
176
     1
 62
   256
176
     0
 40
1.0
176
     0
 90
        2
176
     1
  1
strokes_ogs.tif
176
     1
290
     0
176
     1
 40
1.0
176
     1
 40
1.0
176
     1
  0
VISUALSTYLE
  5
40
102
{ACAD_REACTORS
330
29
102
}
330
29
100
AcDbVisualStyle
  2
OverhangOff
 70
    21
177
     3
291
     1
 70
    58
 90
        2
176
     0
 90
        2
176
     0
 90
        0
176
     0
 90
        0
176
     0
 40
0.6
176
     0
 40
30.0
176
     0
 62
     7
420
 16777215
176
     0
 90
        1
176
     0
 90
        4
176
     0
 62
     7
176
     0
 62
   257
176
     0
 90
        1
176
     0
 90
        1
176
     0
 40
1.0
176
     0
 90
        9
176
     2
 62
     7
176
     0
 40
1.0
176
     0
 90
        1
176
     0
 90
        6
176
     0
 90
        2
176
     0
 62
     7
176
     0
 90
        5
176
     0
 90
        0
176
     0
 90
        0
176
     0
290
     0
176
     0
 90
        1
176
     0
 40
0.0
176
     0
 90
        0
176
     0
290
     0
176
     0
290
     1
176
     0
290
     1
176
     0
290
     0
176
     0
290
     0
176
     0
290
     0
176
     0
290
     0
176
     0
290
     0
176
     0
290
     0
176
     0
 90
       50
176
     0
 40
0.0
176
     0
 40
1.0
176
     0
 90
        0
176
     0
 62
    18
420
        0
176
     0
 90
       50
176
     0
 90
        3
176
     0
 62
     5
420
      255
176
     0
290
     0
176
     0
 90
       50
176
     0
 90
       50
176
     0
 90
       50
176
     0
290
     0
176
     0
 90
       50
176
     0
 62
   256
176
     0
 40
1.0
176
     0
 90
        2
176
     0
  1
strokes_ogs.tif
176
     0
290
     0
176
     0
 40
1.0
176
     0
 40
1.0
176
     0
  0
VISUALSTYLE
  5
33
102
{ACAD_REACTORS
330
29
102
}
330
29
100
AcDbVisualStyle
  2
Realistic
 70
     8
177
     3
291
     0
 70
    58
 90
        2
176
     1
 90
        3
176
     1
 90
        0
176
     1
 90
        2
176
     1
 40
0.6
176
     1
 40
30.0
176
     1
 62
     7
420
 16777215
176
     1
 90
        0
176
     1
 90
        0
176
     1
 62
     7
176
     1
 62
   257
176
     1
 90
        1
176
     1
 90
        1
176
     1
 40
1.0
176
     1
 90
        8
176
     1
 62
   257
176
     1
 40
1.0
176
     1
 90
        1
176
     1
 90
        6
176
     1
 90
        2
176
     1
 62
     7
176
     1
 90
        3
176
     1
 90
        0
176
     1
 90
        0
176
     1
290
     0
176
     1
 90
       13
176
     1
 40
0.0
176
     1
 90
        0
176
     1
290
     0
176
     1
290
     1
176
     1
290
     1
176
     1
290
     0
176
     1
290
     0
176
     1
290
     0
176
     1
290
     0
176
     1
290
     0
176
     1
290
     0
176
     1
 90
       50
176
     1
 40
0.0
176
     1
 40
1.0
176
     1
 90
        0
176
     1
 62
    18
420
        0
176
     1
 90
       50
176
     1
 90
        3
176
     1
 62
     5
420
      255
176
     1
290
     0
176
     1
 90
       50
176
     1
 90
       50
176
     1
 90
       50
176
     1
290
     0
176
     1
 90
       50
176
     1
 62
   256
176
     0
 40
1.0
176
     0
 90
        2
176
     1
  1
strokes_ogs.tif
176
     1
290
     0
176
     1
 40
1.0
176
     1
 40
1.0
176
     1
  0
VISUALSTYLE
  5
3E
102
{ACAD_REACTORS
330
29
102
}
330
29
100
AcDbVisualStyle
  2
Shaded
 70
    27
177
     3
291
     0
 70
    58
 90
        2
176
     1
 90
        2
176
     1
 90
        1
176
     1
 90
        2
176
     1
 40
0.6
176
     1
 40
30.0
176
     1
 62
     7
420
 16777215
176
     1
 90
        0
176
     1
 90
        4
176
     1
 62
     7
176
     1
 62
   257
176
     1
 90
        1
176
     1
 90
        1
176
     1
 40
1.0
176
     1
 90
        8
176
     1
 62
   257
176
     1
 40
1.0
176
     1
 90
        1
176
     1
 90
        6
176
     1
 90
        2
176
     1
 62
     8
420
  7895160
176
     1
 90
        3
176
     1
 90
        0
176
     1
 90
        0
176
     1
290
     0
176
     1
 90
        5
176
     1
 40
0.0
176
     1
 90
        0
176
     1
290
     0
176
     1
290
     1
176
     1
290
     1
176
     1
290
     0
176
     1
290
     0
176
     1
290
     0
176
     1
290
     0
176
     1
290
     0
176
     1
290
     0
176
     1
 90
       50
176
     1
 40
0.0
176
     1
 40
1.0
176
     1
 90
        0
176
     1
 62
    18
420
        0
176
     1
 90
       50
176
     1
 90
        3
176
     1
 62
     5
420
      255
176
     1
290
     0
176
     1
 90
       50
176
     1
 90
       50
176
     1
 90
       50
176
     1
290
     0
176
     1
 90
       50
176
     1
 62
   256
176
     0
 40
1.0
176
     0
 90
        2
176
     1
  1
strokes_ogs.tif
176
     1
290
     0
176
     1
 40
1.0
176
     1
 40
1.0
176
     1
  0
VISUALSTYLE
  5
3D
102
{ACAD_REACTORS
330
29
102
}
330
29
100
AcDbVisualStyle
  2
Shaded with edges
 70
    26
177
     3
291
     0
 70
    58
 90
        2
176
     1
 90
        2
176
     1
 90
        1
176
     1
 90
        2
176
     1
 40
0.6
176
     1
 40
30.0
176
     1
 62
     7
420
 16777215
176
     1
 90
        1
176
     1
 90
       10
176
     1
 62
     7
176
     1
 62
   257
176
     1
 90
        2
176
     1
 90
        1
176
     1
 40
1.0
176
     1
 90
        8
176
     1
 62
   257
176
     1
 40
1.0
176
     1
 90
        1
176
     1
 90
        6
176
     1
 90
        2
176
     1
 62
     7
176
     1
 90
        3
176
     1
 90
        0
176
     1
 90
        0
176
     1
290
     0
176
     1
 90
        5
176
     1
 40
0.0
176
     1
 90
        0
176
     1
290
     0
176
     1
290
     1
176
     1
290
     1
176
     1
290
     0
176
     1
290
     0
176
     1
290
     0
176
     1
290
     0
176
     1
290
     0
176
     1
290
     0
176
     1
 90
       50
176
     1
 40
0.0
176
     1
 40
1.0
176
     1
 90
        0
176
     1
 62
    18
420
        0
176
     1
 90
       50
176
     1
 90
        3
176
     1
 62
     5
420
      255
176
     1
290
     0
176
     1
 90
       50
176
     1
 90
       50
176
     1
 90
       50
176
     1
290
     0
176
     1
 90
       50
176
     1
 62
   256
176
     0
 40
1.0
176
     0
 90
        2
176
     1
  1
strokes_ogs.tif
176
     1
290
     0
176
     1
 40
1.0
176
     1
 40
1.0
176
     1
  0
VISUALSTYLE
  5
3A
102
{ACAD_REACTORS
330
29
102
}
330
29
100
AcDbVisualStyle
  2
Shades of Gray
 70
    23
177
     3
291
     0
 70
    58
 90
        2
176
     1
 90
        2
176
     1
 90
        3
176
     1
 90
        0
176
     1
 40
0.6
176
     1
 40
30.0
176
     1
 62
     7
420
 16777215
176
     1
 90
        2
176
     1
 90
        2
176
     1
 62
     7
176
     1
 62
     7
176
     1
 90
        1
176
     1
 90
        1
176
     1
 40
40.0
176
     1
 90
        8
176
     1
 62
     7
176
     1
 40
1.0
176
     1
 90
        1
176
     1
 90
        6
176
     1
 90
        2
176
     1
 62
     7
176
     1
 90
        3
176
     1
 90
        0
176
     1
 90
        0
176
     1
290
     0
176
     1
 90
        1
176
     1
 40
0.0
176
     1
 90
        0
176
     1
290
     0
176
     1
290
     1
176
     1
290
     1
176
     1
290
     0
176
     1
290
     0
176
     1
290
     0
176
     1
290
     0
176
     1
290
     0
176
     1
290
     0
176
     1
 90
       50
176
     1
 40
0.0
176
     1
 40
1.0
176
     1
 90
        0
176
     1
 62
    18
420
        0
176
     1
 90
       50
176
     1
 90
        3
176
     1
 62
     5
420
      255
176
     1
290
     0
176
     1
 90
       50
176
     1
 90
       50
176
     1
 90
       50
176
     1
290
     0
176
     1
 90
       50
176
     1
 62
   256
176
     0
 40
1.0
176
     0
 90
        2
176
     1
  1
strokes_ogs.tif
176
     1
290
     0
176
     1
 40
1.0
176
     1
 40
1.0
176
     1
  0
VISUALSTYLE
  5
3B
102
{ACAD_REACTORS
330
29
102
}
330
29
100
AcDbVisualStyle
  2
Sketchy
 70
    24
177
     3
291
     0
 70
    58
 90
        1
176
     1
 90
        2
176
     1
 90
        2
176
     1
 90
        0
176
     1
 40
0.6
176
     1
 40
30.0
176
     1
 62
     7
420
 16777215
176
     1
 90
        2
176
     1
 90
        2
176
     1
 62
     7
176
     1
 62
     7
176
     1
 90
        1
176
     1
 90
        1
176
     1
 40
40.0
176
     1
 90
       11
176
     1
 62
     7
176
     1
 40
1.0
176
     1
 90
        1
176
     1
 90
        6
176
     1
 90
        2
176
     1
 62
     7
176
     1
 90
        6
176
     1
 90
        0
176
     1
 90
        0
176
     1
290
     0
176
     1
 90
        1
176
     1
 40
0.0
176
     1
 90
        0
176
     1
290
     0
176
     1
290
     1
176
     1
290
     1
176
     1
290
     0
176
     1
290
     0
176
     1
290
     0
176
     1
290
     0
176
     1
290
     0
176
     1
290
     0
176
     1
 90
       50
176
     1
 40
0.0
176
     1
 40
1.0
176
     1
 90
        0
176
     1
 62
    18
420
        0
176
     1
 90
       50
176
     1
 90
        3
176
     1
 62
     5
420
      255
176
     1
290
     0
176
     1
 90
       50
176
     1
 90
       50
176
     1
 90
       50
176
     1
290
     0
176
     1
 90
       50
176
     1
 62
   256
176
     0
 40
1.0
176
     0
 90
        2
176
     1
  1
strokes_ogs.tif
176
     1
290
     0
176
     1
 40
1.0
176
     1
 40
1.0
176
     1
  0
VISUALSTYLE
  5
36
102
{ACAD_REACTORS
330
29
102
}
330
29
100
AcDbVisualStyle
  2
Thicken
 70
    13
177
     3
291
     1
 70
    58
 90
        2
176
     1
 90
        2
176
     1
 90
        0
176
     1
 90
        0
176
     1
 40
0.6
176
     1
 40
30.0
176
     1
 62
     7
420
 16777215
176
     1
 90
        1
176
     1
 90
        4
176
     1
 62
     7
176
     1
 62
   257
176
     1
 90
        1
176
     1
 90
        1
176
     1
 40
1.0
176
     1
 90
       12
176
     1
 62
     7
176
     1
 40
1.0
176
     1
 90
        1
176
     1
 90
        6
176
     1
 90
        2
176
     1
 62
     7
176
     1
 90
        5
176
     1
 90
        0
176
     1
 90
        0
176
     1
290
     0
176
     1
 90
        1
176
     1
 40
0.0
176
     1
 90
        0
176
     1
290
     0
176
     1
290
     1
176
     1
290
     1
176
     1
290
     0
176
     1
290
     0
176
     1
290
     0
176
     1
290
     0
176
     1
290
     0
176
     1
290
     0
176
     1
 90
       50
176
     1
 40
0.0
176
     1
 40
1.0
176
     1
 90
        0
176
     1
 62
    18
420
        0
176
     1
 90
       50
176
     1
 90
        3
176
     1
 62
     5
420
      255
176
     1
290
     0
176
     1
 90
       50
176
     1
 90
       50
176
     1
 90
       50
176
     1
290
     0
176
     1
 90
       50
176
     1
 62
   256
176
     0
 40
1.0
176
     0
 90
        2
176
     1
  1
strokes_ogs.tif
176
     1
290
     0
176
     1
 40
1.0
176
     1
 40
1.0
176
     1
  0
VISUALSTYLE
  5
30
102
{ACAD_REACTORS
330
29
102
}
330
29
100
AcDbVisualStyle
  2
Wireframe
 70
     5
177
     3
291
     0
 70
    58
 90
        0
176
     1
 90
        2
176
     1
 90
        0
176
     1
 90
        0
176
     1
 40
0.6
176
     1
 40
30.0
176
     1
 62
     7
420
 16777215
176
     1
 90
        1
176
     1
 90
        4
176
     1
 62
     7
176
     1
 62
   257
176
     1
 90
        1
176
     1
 90
        1
176
     1
 40
1.0
176
     1
 90
        0
176
     1
 62
   257
176
     1
 40
1.0
176
     1
 90
        1
176
     1
 90
        6
176
     1
 90
        2
176
     1
 62
     7
176
     1
 90
        3
176
     1
 90
        0
176
     1
 90
        0
176
     1
290
     0
176
     1
 90
        1
176
     1
 40
0.0
176
     1
 90
        0
176
     1
290
     0
176
     1
290
     1
176
     1
290
     1
176
     1
290
     0
176
     1
290
     0
176
     1
290
     0
176
     1
290
     0
176
     1
290
     0
176
     1
290
     0
176
     1
 90
       50
176
     1
 40
0.0
176
     1
 40
1.0
176
     1
 90
        0
176
     1
 62
    18
420
        0
176
     1
 90
       50
176
     1
 90
        3
176
     1
 62
     5
420
      255
176
     1
290
     0
176
     1
 90
       50
176
     1
 90
       50
176
     1
 90
       50
176
     1
290
     0
176
     1
 90
       50
176
     1
 62
   256
176
     0
 40
1.0
176
     0
 90
        2
176
     1
  1
strokes_ogs.tif
176
     1
290
     0
176
     1
 40
1.0
176
     1
 40
1.0
176
     1
  0
VISUALSTYLE
  5
3C
102
{ACAD_REACTORS
330
29
102
}
330
29
100
AcDbVisualStyle
  2
X-Ray
 70
    25
177
     3
291
     0
 70
    58
 90
        2
176
     1
 90
        2
176
     1
 90
        1
176
     1
 90
        1
176
     1
 40
0.5
176
     1
 40
30.0
176
     1
 62
     7
420
 16777215
176
     1
 90
        1
176
     1
 90
        0
176
     1
 62
     7
176
     1
 62
   257
176
     1
 90
        1
176
     1
 90
        1
176
     1
 40
1.0
176
     1
 90
        8
176
     1
 62
     7
176
     1
 40
1.0
176
     1
 90
        1
176
     1
 90
        6
176
     1
 90
        2
176
     1
 62
     7
176
     1
 90
        3
176
     1
 90
        0
176
     1
 90
        0
176
     1
290
     0
176
     1
 90
       13
176
     1
 40
0.0
176
     1
 90
        0
176
     1
290
     0
176
     1
290
     1
176
     1
290
     1
176
     1
290
     0
176
     1
290
     0
176
     1
290
     0
176
     1
290
     0
176
     1
290
     0
176
     1
290
     0
176
     1
 90
       50
176
     1
 40
0.0
176
     1
 40
1.0
176
     1
 90
        0
176
     1
 62
    18
420
        0
176
     1
 90
       50
176
     1
 90
        3
176
     1
 62
     5
420
      255
176
     1
290
     0
176
     1
 90
       50
176
     1
 90
       50
176
     1
 90
       50
176
     1
290
     0
176
     1
 90
       50
176
     1
 62
   256
176
     0
 40
1.0
176
     0
 90
        2
176
     1
  1
strokes_ogs.tif
176
     1
290
     0
176
     1
 40
1.0
176
     1
 40
1.0
176
     1
  0
DICTIONARYVAR
  5
81
102
{ACAD_REACTORS
330
7C
102
}
330
7C
100
DictionaryVariables
280
     0
  1
1:1
  0
DICTIONARYVAR
  5
7E
102
{ACAD_REACTORS
330
7C
102
}
330
7C
100
DictionaryVariables
280
     0
  1
STANDARD
  0
DICTIONARYVAR
  5
7D
102
{ACAD_REACTORS
330
7C
102
}
330
7C
100
DictionaryVariables
280
     0
  1
STANDARD
  0
DICTIONARYVAR
  5
7F
102
{ACAD_REACTORS
330
7C
102
}
330
7C
100
DictionaryVariables
280
     0
  1
Imperial24
  0
DICTIONARYVAR
  5
80
102
{ACAD_REACTORS
330
7C
102
}
330
7C
100
DictionaryVariables
280
     0
  1
Imperial24
  0
XRECORD
  5
326
102
{ACAD_REACTORS
330
322
102
}
330
322
100
AcDbXrecord
280
     1
  1
BUILDING_ID
  1
Progetto per messa in tavola DXF, DWG
  1
FLOOR_ID
  1
694395
  0
XRECORD
  5
324
102
{ACAD_REACTORS
330
322
102
}
330
322
100
AcDbXrecord
280
     1
  1
-2001160
  1
Apparecchi idraulici
  0
XRECORD
  5
325
102
{ACAD_REACTORS
330
322
102
}
330
322
100
AcDbXrecord
280
     1
  1
923097
  1
Handle
  1
923236
  1
Pressure gauge
  0
XRECORD
  5
323
102
{ACAD_REACTORS
330
322
102
}
330
322
100
AcDbXrecord
280
     1
  1
980146
  1
Automatic flow rate regulator valve_Caleffi_121 DN15 : 2''_Pressure gauge H
  0
DICTIONARY
  5
1A
330
19
100
AcDbDictionary
280
     1
281
     1
  3
BUMPTILE
360
1C
  3
DIFFUSETILE
360
1B
  3
OPACITYTILE
360
1F
  3
REFLECTIONTILE
360
1E
  3
REFRACTIONTILE
360
20
  3
SPECULARTILE
360
1D
  0
DICTIONARY
  5
12
330
11
100
AcDbDictionary
280
     1
281
     1
  3
BUMPTILE
360
14
  3
DIFFUSETILE
360
13
  3
OPACITYTILE
360
17
  3
REFLECTIONTILE
360
16
  3
REFRACTIONTILE
360
18
  3
SPECULARTILE
360
15
  0
DICTIONARY
  5
22
330
21
100
AcDbDictionary
280
     1
281
     1
  3
BUMPTILE
360
24
  3
DIFFUSETILE
360
23
  3
OPACITYTILE
360
27
  3
REFLECTIONTILE
360
26
  3
REFRACTIONTILE
360
28
  3
SPECULARTILE
360
25
  0
DICTIONARY
  5
329
330
65
100
AcDbDictionary
280
     1
281
     1
  3
ACAD_ROUNDTRIP_2008_TABLESTYLE_CELLSTYLEMAP
360
32A
  0
XRECORD
  5
1C
102
{ACAD_REACTORS
330
1A
102
}
330
1A
100
AcDbXrecord
280
     1
270
     1
271
     1
  0
XRECORD
  5
1B
102
{ACAD_REACTORS
330
1A
102
}
330
1A
100
AcDbXrecord
280
     1
270
     1
271
     1
  0
XRECORD
  5
1F
102
{ACAD_REACTORS
330
1A
102
}
330
1A
100
AcDbXrecord
280
     1
270
     1
271
     1
  0
XRECORD
  5
1E
102
{ACAD_REACTORS
330
1A
102
}
330
1A
100
AcDbXrecord
280
     1
270
     1
271
     1
  0
XRECORD
  5
20
102
{ACAD_REACTORS
330
1A
102
}
330
1A
100
AcDbXrecord
280
     1
270
     1
271
     1
  0
XRECORD
  5
1D
102
{ACAD_REACTORS
330
1A
102
}
330
1A
100
AcDbXrecord
280
     1
270
     1
271
     1
  0
XRECORD
  5
14
102
{ACAD_REACTORS
330
12
102
}
330
12
100
AcDbXrecord
280
     1
270
     1
271
     1
  0
XRECORD
  5
13
102
{ACAD_REACTORS
330
12
102
}
330
12
100
AcDbXrecord
280
     1
270
     1
271
     1
  0
XRECORD
  5
17
102
{ACAD_REACTORS
330
12
102
}
330
12
100
AcDbXrecord
280
     1
270
     1
271
     1
  0
XRECORD
  5
16
102
{ACAD_REACTORS
330
12
102
}
330
12
100
AcDbXrecord
280
     1
270
     1
271
     1
  0
XRECORD
  5
18
102
{ACAD_REACTORS
330
12
102
}
330
12
100
AcDbXrecord
280
     1
270
     1
271
     1
  0
XRECORD
  5
15
102
{ACAD_REACTORS
330
12
102
}
330
12
100
AcDbXrecord
280
     1
270
     1
271
     1
  0
XRECORD
  5
24
102
{ACAD_REACTORS
330
22
102
}
330
22
100
AcDbXrecord
280
     1
270
     1
271
     1
  0
XRECORD
  5
23
102
{ACAD_REACTORS
330
22
102
}
330
22
100
AcDbXrecord
280
     1
270
     1
271
     1
  0
XRECORD
  5
27
102
{ACAD_REACTORS
330
22
102
}
330
22
100
AcDbXrecord
280
     1
270
     1
271
     1
  0
XRECORD
  5
26
102
{ACAD_REACTORS
330
22
102
}
330
22
100
AcDbXrecord
280
     1
270
     1
271
     1
  0
XRECORD
  5
28
102
{ACAD_REACTORS
330
22
102
}
330
22
100
AcDbXrecord
280
     1
270
     1
271
     1
  0
XRECORD
  5
25
102
{ACAD_REACTORS
330
22
102
}
330
22
100
AcDbXrecord
280
     1
270
     1
271
     1
  0
CELLSTYLEMAP
  5
32A
102
{ACAD_REACTORS
330
329
102
}
330
329
100
AcDbCellStyleMap
 90
        3
300
CELLSTYLE
  1
TABLEFORMAT_BEGIN
 90
        5
170
     1
 91
        0
 92
    32768
 62
   257
 93
        1
300
CONTENTFORMAT
  1
CONTENTFORMAT_BEGIN
 90
        0
 91
        0
 92
      512
 93
        0
300

 40
0.0
140
1.0
 94
        5
 62
     0
340
55
144
0.25
309
CONTENTFORMAT_END
171
     0
 94
        0
309
TABLEFORMAT_END
  1
CELLSTYLE_BEGIN
 90
        1
 91
        1
300
_TITLE
309
CELLSTYLE_END
300
CELLSTYLE
  1
TABLEFORMAT_BEGIN
 90
        5
170
     1
 91
        0
 92
        0
 62
   257
 93
        1
300
CONTENTFORMAT
  1
CONTENTFORMAT_BEGIN
 90
        0
 91
        0
 92
      512
 93
        0
300

 40
0.0
140
1.0
 94
        5
 62
     0
340
55
144
0.18
309
CONTENTFORMAT_END
171
     0
 94
        0
309
TABLEFORMAT_END
  1
CELLSTYLE_BEGIN
 90
        2
 91
        1
300
_HEADER
309
CELLSTYLE_END
300
CELLSTYLE
  1
TABLEFORMAT_BEGIN
 90
        5
170
     1
 91
        0
 92
        0
 62
   257
 93
        1
300
CONTENTFORMAT
  1
CONTENTFORMAT_BEGIN
 90
        0
 91
        0
 92
      512
 93
        0
300

 40
0.0
140
1.0
 94
        2
 62
     0
340
55
144
0.18
309
CONTENTFORMAT_END
171
     0
 94
        0
309
TABLEFORMAT_END
  1
CELLSTYLE_BEGIN
 90
        3
 91
        2
300
_DATA
309
CELLSTYLE_END
  0
ENDSEC
  0
EOF
