  0
SECTION
  2
HEADER
  9
$ACADVER
  1
AC1027
  9
$ACADMAINTVER
 70
    20
  9
$DWGCODEPAGE
  3
ANSI_1252
  9
$REQUIREDVERSIONS
160
                 0
  9
$INSBASE
 10
0.0
 20
0.0
 30
0.0
  9
$EXTMIN
 10
620.2787092592771
 20
1655.655266564655
 30
-0.00000001
  9
$EXTMAX
 10
1214.114353953078
 20
2177.374720262091
 30
0.00000001
  9
$LIMMIN
 10
0.0
 20
0.0
  9
$LIMMAX
 10
12.0
 20
9.0
  9
$ORTHOMODE
 70
     0
  9
$REGENMODE
 70
     1
  9
$FILLMODE
 70
     1
  9
$QTEXTMODE
 70
     0
  9
$MIRRTEXT
 70
     0
  9
$LTSCALE
 40
1.0
  9
$ATTMODE
 70
     1
  9
$TEXTSIZE
 40
0.2
  9
$TRACEWID
 40
0.05
  9
$TEXTSTYLE
  7
Standard
  9
$CLAYER
  8
0
  9
$CELTYPE
  6
ByLayer
  9
$CECOLOR
 62
   256
  9
$CELTSCALE
 40
1.0
  9
$DISPSILH
 70
     0
  9
$DIMSCALE
 40
1.0
  9
$DIMASZ
 40
0.18
  9
$DIMEXO
 40
0.0625
  9
$DIMDLI
 40
0.38
  9
$DIMRND
 40
0.0
  9
$DIMDLE
 40
0.0
  9
$DIMEXE
 40
0.18
  9
$DIMTP
 40
0.0
  9
$DIMTM
 40
0.0
  9
$DIMTXT
 40
0.18
  9
$DIMCEN
 40
0.09
  9
$DIMTSZ
 40
0.0
  9
$DIMTOL
 70
     0
  9
$DIMLIM
 70
     0
  9
$DIMTIH
 70
     1
  9
$DIMTOH
 70
     1
  9
$DIMSE1
 70
     0
  9
$DIMSE2
 70
     0
  9
$DIMTAD
 70
     0
  9
$DIMZIN
 70
     0
  9
$DIMBLK
  1

  9
$DIMASO
 70
     1
  9
$DIMSHO
 70
     1
  9
$DIMPOST
  1

  9
$DIMAPOST
  1

  9
$DIMALT
 70
     0
  9
$DIMALTD
 70
     2
  9
$DIMALTF
 40
25.4
  9
$DIMLFAC
 40
1.0
  9
$DIMTOFL
 70
     0
  9
$DIMTVP
 40
0.0
  9
$DIMTIX
 70
     0
  9
$DIMSOXD
 70
     0
  9
$DIMSAH
 70
     0
  9
$DIMBLK1
  1

  9
$DIMBLK2
  1

  9
$DIMSTYLE
  2
Standard
  9
$DIMCLRD
 70
     0
  9
$DIMCLRE
 70
     0
  9
$DIMCLRT
 70
     0
  9
$DIMTFAC
 40
1.0
  9
$DIMGAP
 40
0.09
  9
$DIMJUST
 70
     0
  9
$DIMSD1
 70
     0
  9
$DIMSD2
 70
     0
  9
$DIMTOLJ
 70
     1
  9
$DIMTZIN
 70
     0
  9
$DIMALTZ
 70
     0
  9
$DIMALTTZ
 70
     0
  9
$DIMUPT
 70
     0
  9
$DIMDEC
 70
     4
  9
$DIMTDEC
 70
     4
  9
$DIMALTU
 70
     2
  9
$DIMALTTD
 70
     2
  9
$DIMTXSTY
  7
Standard
  9
$DIMAUNIT
 70
     0
  9
$DIMADEC
 70
     0
  9
$DIMALTRND
 40
0.0
  9
$DIMAZIN
 70
     0
  9
$DIMDSEP
 70
    46
  9
$DIMATFIT
 70
     3
  9
$DIMFRAC
 70
     0
  9
$DIMLDRBLK
  1

  9
$DIMLUNIT
 70
     2
  9
$DIMLWD
 70
    -2
  9
$DIMLWE
 70
    -2
  9
$DIMTMOVE
 70
     0
  9
$DIMFXL
 40
1.0
  9
$DIMFXLON
 70
     0
  9
$DIMJOGANG
 40
0.7853981633974483
  9
$DIMTFILL
 70
     0
  9
$DIMTFILLCLR
 70
     0
  9
$DIMARCSYM
 70
     0
  9
$DIMLTYPE
  6

  9
$DIMLTEX1
  6

  9
$DIMLTEX2
  6

  9
$DIMTXTDIRECTION
 70
     0
  9
$LUNITS
 70
     2
  9
$LUPREC
 70
     4
  9
$SKETCHINC
 40
0.1
  9
$FILLETRAD
 40
0.0
  9
$AUNITS
 70
     0
  9
$AUPREC
 70
     0
  9
$MENU
  1
.
  9
$ELEVATION
 40
0.0
  9
$PELEVATION
 40
0.0
  9
$THICKNESS
 40
0.0
  9
$LIMCHECK
 70
     0
  9
$CHAMFERA
 40
0.0
  9
$CHAMFERB
 40
0.0
  9
$CHAMFERC
 40
0.0
  9
$CHAMFERD
 40
0.0
  9
$SKPOLY
 70
     0
  9
$TDCREATE
 40
2457571.489567176
  9
$TDUCREATE
 40
2457571.406233843
  9
$TDUPDATE
 40
2457571.489567176
  9
$TDUUPDATE
 40
2457571.406233843
  9
$TDINDWG
 40
0.0000344676
  9
$TDUSRTIMER
 40
0.0000344676
  9
$USRTIMER
 70
     1
  9
$ANGBASE
 50
0.0
  9
$ANGDIR
 70
     0
  9
$PDMODE
 70
     0
  9
$PDSIZE
 40
0.0
  9
$PLINEWID
 40
0.0
  9
$SPLFRAME
 70
     0
  9
$SPLINETYPE
 70
     6
  9
$SPLINESEGS
 70
     8
  9
$HANDSEED
  5
31E
  9
$SURFTAB1
 70
     6
  9
$SURFTAB2
 70
     6
  9
$SURFTYPE
 70
     6
  9
$SURFU
 70
     6
  9
$SURFV
 70
     6
  9
$UCSBASE
  2

  9
$UCSNAME
  2

  9
$UCSORG
 10
0.0
 20
0.0
 30
0.0
  9
$UCSXDIR
 10
1.0
 20
0.0
 30
0.0
  9
$UCSYDIR
 10
0.0
 20
1.0
 30
0.0
  9
$UCSORTHOREF
  2

  9
$UCSORTHOVIEW
 70
     0
  9
$UCSORGTOP
 10
0.0
 20
0.0
 30
0.0
  9
$UCSORGBOTTOM
 10
0.0
 20
0.0
 30
0.0
  9
$UCSORGLEFT
 10
0.0
 20
0.0
 30
0.0
  9
$UCSORGRIGHT
 10
0.0
 20
0.0
 30
0.0
  9
$UCSORGFRONT
 10
0.0
 20
0.0
 30
0.0
  9
$UCSORGBACK
 10
0.0
 20
0.0
 30
0.0
  9
$PUCSBASE
  2

  9
$PUCSNAME
  2

  9
$PUCSORG
 10
0.0
 20
0.0
 30
0.0
  9
$PUCSXDIR
 10
1.0
 20
0.0
 30
0.0
  9
$PUCSYDIR
 10
0.0
 20
1.0
 30
0.0
  9
$PUCSORTHOREF
  2

  9
$PUCSORTHOVIEW
 70
     0
  9
$PUCSORGTOP
 10
0.0
 20
0.0
 30
0.0
  9
$PUCSORGBOTTOM
 10
0.0
 20
0.0
 30
0.0
  9
$PUCSORGLEFT
 10
0.0
 20
0.0
 30
0.0
  9
$PUCSORGRIGHT
 10
0.0
 20
0.0
 30
0.0
  9
$PUCSORGFRONT
 10
0.0
 20
0.0
 30
0.0
  9
$PUCSORGBACK
 10
0.0
 20
0.0
 30
0.0
  9
$USERI1
 70
     0
  9
$USERI2
 70
     0
  9
$USERI3
 70
     0
  9
$USERI4
 70
     0
  9
$USERI5
 70
     0
  9
$USERR1
 40
0.0
  9
$USERR2
 40
0.0
  9
$USERR3
 40
0.0
  9
$USERR4
 40
0.0
  9
$USERR5
 40
0.0
  9
$WORLDVIEW
 70
     1
  9
$SHADEDGE
 70
     3
  9
$SHADEDIF
 70
    70
  9
$TILEMODE
 70
     1
  9
$MAXACTVP
 70
    64
  9
$PINSBASE
 10
0.0
 20
0.0
 30
0.0
  9
$PLIMCHECK
 70
     0
  9
$PEXTMIN
 10
1.000000000000000E+20
 20
1.000000000000000E+20
 30
1.000000000000000E+20
  9
$PEXTMAX
 10
-1.000000000000000E+20
 20
-1.000000000000000E+20
 30
-1.000000000000000E+20
  9
$PLIMMIN
 10
0.0
 20
0.0
  9
$PLIMMAX
 10
12.0
 20
9.0
  9
$UNITMODE
 70
     0
  9
$VISRETAIN
 70
     1
  9
$PLINEGEN
 70
     0
  9
$PSLTSCALE
 70
     1
  9
$TREEDEPTH
 70
  3020
  9
$CMLSTYLE
  2
Standard
  9
$CMLJUST
 70
     0
  9
$CMLSCALE
 40
1.0
  9
$PROXYGRAPHICS
 70
     1
  9
$MEASUREMENT
 70
     1
  9
$CELWEIGHT
370
    -1
  9
$ENDCAPS
280
     0
  9
$JOINSTYLE
280
     0
  9
$LWDISPLAY
290
     0
  9
$INSUNITS
 70
     4
  9
$HYPERLINKBASE
  1

  9
$STYLESHEET
  1

  9
$XEDIT
290
     1
  9
$CEPSNTYPE
380
     0
  9
$PSTYLEMODE
290
     1
  9
$FINGERPRINTGUID
  2
{A452D6EA-322E-4E4E-B0D1-1512F0135365}
  9
$VERSIONGUID
  2
{2D65C26C-40D6-460D-BF97-56CE357DFFD8}
  9
$EXTNAMES
290
     1
  9
$PSVPSCALE
 40
0.0
  9
$OLESTARTUP
290
     0
  9
$SORTENTS
280
   127
  9
$INDEXCTL
280
     0
  9
$HIDETEXT
280
     1
  9
$XCLIPFRAME
280
     2
  9
$HALOGAP
280
     0
  9
$OBSCOLOR
 70
   257
  9
$OBSLTYPE
280
     0
  9
$INTERSECTIONDISPLAY
280
     0
  9
$INTERSECTIONCOLOR
 70
   257
  9
$DIMASSOC
280
     2
  9
$PROJECTNAME
  1

  9
$CAMERADISPLAY
290
     0
  9
$LENSLENGTH
 40
50.0
  9
$CAMERAHEIGHT
 40
0.0
  9
$STEPSPERSEC
 40
2.0
  9
$STEPSIZE
 40
6.0
  9
$3DDWFPREC
 40
2.0
  9
$PSOLWIDTH
 40
0.25
  9
$PSOLHEIGHT
 40
4.0
  9
$LOFTANG1
 40
1.570796326794896
  9
$LOFTANG2
 40
1.570796326794896
  9
$LOFTMAG1
 40
0.0
  9
$LOFTMAG2
 40
0.0
  9
$LOFTPARAM
 70
     7
  9
$LOFTNORMALS
280
     1
  9
$LATITUDE
 40
37.795
  9
$LONGITUDE
 40
-122.394
  9
$NORTHDIRECTION
 40
0.0
  9
$TIMEZONE
 70
 -8000
  9
$LIGHTGLYPHDISPLAY
280
     1
  9
$TILEMODELIGHTSYNCH
280
     1
  9
$CMATERIAL
347
11
  9
$SOLIDHIST
280
     0
  9
$SHOWHIST
280
     1
  9
$DWFFRAME
280
     2
  9
$DGNFRAME
280
     0
  9
$REALWORLDSCALE
290
     1
  9
$INTERFERECOLOR
 62
     1
  9
$INTERFEREOBJVS
345
33
  9
$INTERFEREVPVS
346
30
  9
$CSHADOW
280
     0
  9
$SHADOWPLANELOCATION
 40
0.0
  0
ENDSEC
  0
SECTION
  2
CLASSES
  0
CLASS
  1
ACDBDICTIONARYWDFLT
  2
AcDbDictionaryWithDefault
  3
ObjectDBX Classes
 90
        0
 91
        1
280
     0
281
     0
  0
CLASS
  1
MATERIAL
  2
AcDbMaterial
  3
ObjectDBX Classes
 90
     1153
 91
        3
280
     0
281
     0
  0
CLASS
  1
VISUALSTYLE
  2
AcDbVisualStyle
  3
ObjectDBX Classes
 90
     4095
 91
       24
280
     0
281
     0
  0
CLASS
  1
SCALE
  2
AcDbScale
  3
ObjectDBX Classes
 90
     1153
 91
       17
280
     0
281
     0
  0
CLASS
  1
TABLESTYLE
  2
AcDbTableStyle
  3
ObjectDBX Classes
 90
     4095
 91
        1
280
     0
281
     0
  0
CLASS
  1
MLEADERSTYLE
  2
AcDbMLeaderStyle
  3
ACDB_MLEADERSTYLE_CLASS
 90
     4095
 91
        1
280
     0
281
     0
  0
CLASS
  1
ACDBSECTIONVIEWSTYLE
  2
AcDbSectionViewStyle
  3
ObjectDBX Classes
 90
     1025
 91
        1
280
     0
281
     0
  0
CLASS
  1
ACDBDETAILVIEWSTYLE
  2
AcDbDetailViewStyle
  3
ObjectDBX Classes
 90
     1025
 91
        1
280
     0
281
     0
  0
CLASS
  1
RASTERVARIABLES
  2
AcDbRasterVariables
  3
ISM
 90
        0
 91
        1
280
     0
281
     0
  0
CLASS
  1
DICTIONARYVAR
  2
AcDbDictionaryVar
  3
ObjectDBX Classes
 90
        0
 91
        5
280
     0
281
     0
  0
CLASS
  1
CELLSTYLEMAP
  2
AcDbCellStyleMap
  3
ObjectDBX Classes
 90
     1152
 91
        2
280
     0
281
     0
  0
CLASS
  1
SORTENTSTABLE
  2
AcDbSortentsTable
  3
ObjectDBX Classes
 90
        0
 91
        1
280
     0
281
     0
  0
ENDSEC
  0
SECTION
  2
TABLES
  0
TABLE
  2
VPORT
  5
8
330
0
100
AcDbSymbolTable
 70
     1
  0
VPORT
  5
57
330
8
100
AcDbSymbolTableRecord
100
AcDbViewportTableRecord
  2
*Active
 70
     0
 10
0.0
 20
0.0
 11
1.0
 21
1.0
 12
917.1965316061774
 22
1916.514993413373
 13
0.0
 23
0.0
 14
1.0
 24
1.0
 15
0.0
 25
0.0
 16
0.0
 26
0.0
 36
1.0
 17
0.0
 27
0.0
 37
0.0
 40
521.7194536974359
 41
1.138227912502161
 42
50.0
 43
0.0
 44
0.0
 50
0.0
 51
0.0
 71
     0
 72
  1000
 73
     1
 74
     1
 75
     0
 76
     0
 77
     0
 78
     0
281
     0
 65
     1
110
0.0
120
0.0
130
0.0
111
1.0
121
0.0
131
0.0
112
0.0
122
1.0
132
0.0
 79
     0
146
0.0
 60
     3
 61
     5
292
     1
282
     1
141
0.0
142
0.0
 63
   250
421
  3355443
  0
ENDTAB
  0
TABLE
  2
LTYPE
  5
5
330
0
100
AcDbSymbolTable
 70
     3
  0
LTYPE
  5
5B
330
5
100
AcDbSymbolTableRecord
100
AcDbLinetypeTableRecord
  2
ByBlock
 70
     0
  3

 72
    65
 73
     0
 40
0.0
  0
LTYPE
  5
5C
330
5
100
AcDbSymbolTableRecord
100
AcDbLinetypeTableRecord
  2
ByLayer
 70
     0
  3

 72
    65
 73
     0
 40
0.0
  0
LTYPE
  5
5D
330
5
100
AcDbSymbolTableRecord
100
AcDbLinetypeTableRecord
  2
Continuous
 70
     0
  3
Solid line
 72
    65
 73
     0
 40
0.0
  0
LTYPE
  5
69
330
5
100
AcDbSymbolTableRecord
100
AcDbLinetypeTableRecord
  2
PHANTOM2
 70
     0
  3
___ _ _ ___ _ _ ___ _ _ ___ _ _
 72
    65
 73
     6
 40
1.25
 49
0.625
 74
     0
 49
-0.125
 74
     0
 49
0.125
 74
     0
 49
-0.125
 74
     0
 49
0.125
 74
     0
 49
-0.125
 74
     0
  0
LTYPE
  5
86
330
5
100
AcDbSymbolTableRecord
100
AcDbLinetypeTableRecord
  2
Nascosto 1_5 mm
 70
     0
  3

 72
    65
 73
     2
 40
2.2
 49
1.5
 74
     0
 49
-0.7000000000000001
 74
     0
  0
ENDTAB
  0
TABLE
  2
LAYER
  5
2
330
0
100
AcDbSymbolTable
 70
     4
  0
LAYER
  5
54
330
2
100
AcDbSymbolTableRecord
100
AcDbLayerTableRecord
  2
0
 70
     0
 62
     7
  6
Continuous
370
    -3
390
F
347
21
348
0
  0
LAYER
  5
85
330
2
100
AcDbSymbolTableRecord
100
AcDbLayerTableRecord
  2
P-SANR-FIXT
 70
     0
 62
     6
  6
Continuous
370
    18
390
F
347
21
348
0
  0
LAYER
  5
88
330
2
100
AcDbSymbolTableRecord
100
AcDbLayerTableRecord
  2
M-PIPE
 70
     0
 62
     3
  6
Continuous
370
    18
390
F
347
21
348
0
  0
ENDTAB
  0
TABLE
  2
STYLE
  5
3
330
0
100
AcDbSymbolTable
 70
     2
  0
STYLE
  5
55
330
3
100
AcDbSymbolTableRecord
100
AcDbTextStyleTableRecord
  2
Standard
 70
     0
 40
0.0
 41
1.0
 50
0.0
 71
     0
 42
0.2
  3
txt
  4

  0
STYLE
  5
5A
330
3
100
AcDbSymbolTableRecord
100
AcDbTextStyleTableRecord
  2
Annotative
 70
     0
 40
0.0
 41
1.0
 50
0.0
 71
     0
 42
0.2
  3
txt
  4

1001
AcadAnnotative
1000
AnnotativeData
1002
{
1070
     1
1070
     1
1002
}
  0
ENDTAB
  0
TABLE
  2
VIEW
  5
6
330
0
100
AcDbSymbolTable
 70
     0
  0
ENDTAB
  0
TABLE
  2
UCS
  5
7
330
0
100
AcDbSymbolTable
 70
     0
  0
ENDTAB
  0
TABLE
  2
APPID
  5
9
330
0
100
AcDbSymbolTable
 70
     3
  0
APPID
  5
56
330
9
100
AcDbSymbolTableRecord
100
AcDbRegAppTableRecord
  2
ACAD
 70
     0
  0
APPID
  5
5E
330
9
100
AcDbSymbolTableRecord
100
AcDbRegAppTableRecord
  2
AcadAnnotative
 70
     0
  0
APPID
  5
79
330
9
100
AcDbSymbolTableRecord
100
AcDbRegAppTableRecord
  2
REVIT
 70
     0
  0
ENDTAB
  0
TABLE
  2
DIMSTYLE
  5
A
330
0
100
AcDbSymbolTable
 70
     2
100
AcDbDimStyleTable
 71
     0
  0
DIMSTYLE
105
58
330
A
100
AcDbSymbolTableRecord
100
AcDbDimStyleTableRecord
  2
Standard
 70
     0
340
55
  0
DIMSTYLE
105
59
330
A
100
AcDbSymbolTableRecord
100
AcDbDimStyleTableRecord
  2
Annotative
 70
     0
340
55
1001
AcadAnnotative
1000
AnnotativeData
1002
{
1070
     1
1070
     1
1002
}
  0
ENDTAB
  0
TABLE
  2
BLOCK_RECORD
  5
1
330
0
100
AcDbSymbolTable
 70
     4
  0
BLOCK_RECORD
  5
71
102
{ACAD_XDICTIONARY
360
319
102
}
330
1
100
AcDbSymbolTableRecord
100
AcDbBlockTableRecord
  2
*Model_Space
340
74
 70
     0
280
     1
281
     0
  0
BLOCK_RECORD
  5
6D
330
1
100
AcDbSymbolTableRecord
100
AcDbBlockTableRecord
  2
*Paper_Space
340
70
 70
     0
280
     1
281
     0
  0
BLOCK_RECORD
  5
75
330
1
100
AcDbSymbolTableRecord
100
AcDbBlockTableRecord
  2
*Paper_Space0
340
78
 70
     0
280
     1
281
     0
  0
BLOCK_RECORD
  5
87
330
1
100
AcDbSymbolTableRecord
100
AcDbBlockTableRecord
  2
Automatic flow rate regulator valve_Caleffi_121 DN15 - 1 1_2___Pressure gauge-946936-Est - Idraulica
340
0
102
{BLKREFS
331
1A2
102
}
 70
     0
280
     1
281
     0
  0
BLOCK_RECORD
  5
1A3
330
1
100
AcDbSymbolTableRecord
100
AcDbBlockTableRecord
  2
Automatic flow rate regulator valve_Caleffi_121 DN15 - 1 1_2___Pressure gauge-V1-Est - Idraulica
340
0
102
{BLKREFS
331
27D
102
}
 70
     0
280
     1
281
     0
  0
BLOCK_RECORD
  5
27E
330
1
100
AcDbSymbolTableRecord
100
AcDbBlockTableRecord
  2
Automatic flow rate regulator valve_Caleffi_121 DN15 - 1 1_2___Pressure gauge-V2-Est - Idraulica
340
0
102
{BLKREFS
331
312
102
}
 70
     0
280
     1
281
     0
  0
ENDTAB
  0
ENDSEC
  0
SECTION
  2
BLOCKS
  0
BLOCK
  5
72
330
71
100
AcDbEntity
  8
0
100
AcDbBlockBegin
  2
*Model_Space
 70
     0
 10
0.0
 20
0.0
 30
0.0
  3
*Model_Space
  1

  0
ENDBLK
  5
73
330
71
100
AcDbEntity
  8
0
100
AcDbBlockEnd
  0
BLOCK
  5
6E
330
6D
100
AcDbEntity
 67
     1
  8
0
100
AcDbBlockBegin
  2
*Paper_Space
 70
     0
 10
0.0
 20
0.0
 30
0.0
  3
*Paper_Space
  1

  0
ENDBLK
  5
6F
330
6D
100
AcDbEntity
 67
     1
  8
0
100
AcDbBlockEnd
  0
BLOCK
  5
76
330
75
100
AcDbEntity
 67
     1
  8
0
100
AcDbBlockBegin
  2
*Paper_Space0
 70
     0
 10
0.0
 20
0.0
 30
0.0
  3
*Paper_Space0
  1

  0
ENDBLK
  5
77
330
75
100
AcDbEntity
 67
     1
  8
0
100
AcDbBlockEnd
  0
BLOCK
  5
1A0
330
87
100
AcDbEntity
  8
0
100
AcDbBlockBegin
  2
Automatic flow rate regulator valve_Caleffi_121 DN15 - 1 1_2___Pressure gauge-946936-Est - Idraulica
 70
     0
 10
0.0
 20
0.0
 30
0.0
  3
Automatic flow rate regulator valve_Caleffi_121 DN15 - 1 1_2___Pressure gauge-946936-Est - Idraulica
  1

  0
ARC
  5
89
330
87
100
AcDbEntity
  8
M-PIPE
100
AcDbCircle
 10
788.00930233857
 20
2110.140561405103
 30
0.0
 40
3.999999999999833
100
AcDbArc
 50
163.9999999999988
 51
344.0000000000056
1001
REVIT
1002
{
1070
     3
1000
923236
1002
}
  0
ARC
  5
8A
330
87
100
AcDbEntity
  8
M-PIPE
100
AcDbCircle
 10
788.00930233857
 20
2110.140561405103
 30
0.0
 40
4.000000000000083
100
AcDbArc
 50
344.0000000000042
 51
163.9999999999974
1001
REVIT
1002
{
1070
     3
1000
923236
1002
}
  0
ARC
  5
8B
330
87
100
AcDbEntity
  8
M-PIPE
100
AcDbCircle
 10
788.0093023385701
 20
2110.140561405103
 30
0.0
 40
30.99999999999984
100
AcDbArc
 50
163.9999999999987
 51
343.9999999999985
1001
REVIT
1002
{
1070
     3
1000
923236
1002
}
  0
ARC
  5
8C
330
87
100
AcDbEntity
  8
M-PIPE
100
AcDbCircle
 10
788.0093023385701
 20
2110.140561405103
 30
0.0
 40
31.00000000000008
100
AcDbArc
 50
343.9999999999995
 51
163.999999999999
1001
REVIT
1002
{
1070
     3
1000
923236
1002
}
  0
LINE
  5
8D
330
87
100
AcDbEntity
  8
M-PIPE
100
AcDbLine
 10
781.026910282962
 20
2062.208357187189
 30
0.0
 11
782.6807344178689
 21
2067.975927362836
 31
0.0
1001
REVIT
1002
{
1070
     3
1000
923236
1002
}
  0
LINE
  5
8E
330
87
100
AcDbEntity
  8
M-PIPE
100
AcDbLine
 10
770.1843323706913
 20
2071.559212988451
 30
0.0
 11
768.5305082357841
 21
2065.791642812804
 31
0.0
1001
REVIT
1002
{
1070
     3
1000
923236
1002
}
  0
LINE
  5
8F
330
87
100
AcDbEntity
  8
M-PIPE
100
AcDbLine
 10
783.1613652658585
 20
2067.83810868492
 30
0.0
 11
769.7037015227221
 21
2071.697031666358
 31
0.0
1001
REVIT
1002
{
1070
     3
1000
923236
1002
}
  0
LINE
  5
90
330
87
100
AcDbEntity
  8
M-PIPE
100
AcDbLine
 10
786.4219950938997
 20
2079.209276243249
 30
0.0
 11
783.1613652658585
 21
2067.83810868492
 31
0.0
1001
REVIT
1002
{
1070
     3
1000
923236
1002
}
  0
LINE
  5
91
330
87
100
AcDbEntity
  8
M-PIPE
100
AcDbLine
 10
769.7037015227221
 20
2071.697031666358
 30
0.0
 11
772.9643313507573
 21
2083.068199224666
 31
0.0
1001
REVIT
1002
{
1070
     3
1000
923236
1002
}
  0
LWPOLYLINE
  5
92
330
87
100
AcDbEntity
  8
M-PIPE
100
AcDbPolyline
 90
        3
 70
   128
 43
0.0
 10
663.163947369637
 20
2108.750177039343
 10
660.0788281399156
 20
2120.34598836768
 10
659.0241231980215
 20
2124.802337511631
1001
REVIT
1002
{
1070
     3
1000
923097
1002
}
  0
LWPOLYLINE
  5
93
330
87
100
AcDbEntity
  8
M-PIPE
100
AcDbPolyline
 90
        3
 70
   128
 43
0.0
 10
718.4126968316912
 20
2146.418010569812
 10
723.6682721135214
 20
2135.630993860778
 10
725.5595373898217
 20
2131.460314556166
1001
REVIT
1002
{
1070
     3
1000
923097
1002
}
  0
ELLIPSE
  5
94
330
87
100
AcDbEntity
  8
M-PIPE
100
AcDbEllipse
 10
636.7247959507353
 20
2077.104975757228
 30
0.0
 11
-102.6060429976968
 21
281.907786235774
 31
0.0
210
0.0
220
0.0
230
0.9999999999999998
 40
0.2588190451030421
 41
4.791451455487143
 42
4.836688948174556
1001
REVIT
1002
{
1070
     3
1000
923097
1002
}
  0
LINE
  5
95
330
87
100
AcDbEntity
  8
M-PIPE
100
AcDbLine
 10
701.3561382563572
 20
2125.843531020922
 30
0.0
 11
685.3152256431603
 21
2120.005116299254
 31
0.0
1001
REVIT
1002
{
1070
     3
1000
923097
1002
}
  0
ELLIPSE
  5
96
330
87
100
AcDbEntity
  8
M-PIPE
100
AcDbEllipse
 10
766.1542457052287
 20
2124.213442905313
 30
0.0
 11
-102.6060429976929
 21
281.9077862357755
 31
0.0
210
0.0
220
0.0
230
0.9999999999999996
 40
0.2588190451030393
 41
1.446496359005032
 42
1.491733851692444
1001
REVIT
1002
{
1070
     3
1000
923097
1002
}
  0
LINE
  5
97
330
87
100
AcDbEntity
  8
M-PIPE
100
AcDbLine
 10
681.0329630559051
 20
2132.812900110633
 30
0.0
 11
659.0241231980196
 21
2124.802337511632
 31
0.0
1001
REVIT
1002
{
1070
     3
1000
923097
1002
}
  0
LINE
  5
98
330
87
100
AcDbEntity
  8
M-PIPE
100
AcDbLine
 10
681.0329630559049
 20
2132.812900110633
 30
0.0
 11
681.0543164139228
 21
2132.820672097353
 31
0.0
1001
REVIT
1002
{
1070
     3
1000
923097
1002
}
  0
LINE
  5
99
330
87
100
AcDbEntity
  8
M-PIPE
100
AcDbLine
 10
696.3825036157857
 20
2138.399675984091
 30
0.0
 11
696.4038569738036
 21
2138.407447970811
 31
0.0
1001
REVIT
1002
{
1070
     3
1000
923097
1002
}
  0
LINE
  5
9A
330
87
100
AcDbEntity
  8
M-PIPE
100
AcDbLine
 10
718.4126968316897
 20
2146.418010569812
 30
0.0
 11
696.4038569738045
 21
2138.407447970809
 31
0.0
1001
REVIT
1002
{
1070
     3
1000
923097
1002
}
  0
LINE
  5
9B
330
87
100
AcDbEntity
  8
M-PIPE
100
AcDbLine
 10
686.1609767190976
 20
2120.312944516495
 30
0.0
 11
681.5437047841933
 21
2132.998794897128
 31
0.0
1001
REVIT
1002
{
1070
     3
1000
923097
1002
}
  0
LINE
  5
9C
330
87
100
AcDbEntity
  8
M-PIPE
100
AcDbLine
 10
695.8931152455168
 20
2138.221553184317
 30
0.0
 11
700.5103871804212
 21
2125.535702803686
 31
0.0
1001
REVIT
1002
{
1070
     3
1000
923097
1002
}
  0
LINE
  5
9D
330
87
100
AcDbEntity
  8
M-PIPE
100
AcDbLine
 10
745.0774899180498
 20
2087.483735231397
 30
0.0
 11
743.7094093447537
 21
2091.242505714523
 31
0.0
1001
REVIT
1002
{
1070
     3
1000
923097
1002
}
  0
LINE
  5
9E
330
87
100
AcDbEntity
  8
M-PIPE
100
AcDbLine
 10
675.1118480273905
 20
2066.275035251752
 30
0.0
 11
676.4799286006865
 21
2062.516264768627
 31
0.0
1001
REVIT
1002
{
1070
     3
1000
923097
1002
}
  0
LWPOLYLINE
  5
9F
330
87
100
AcDbEntity
  8
M-PIPE
100
AcDbPolyline
 90
        4
 70
   128
 43
0.0
 10
673.3568378594378
 20
2078.406397059515
 10
669.0534814368525
 20
2089.607375790151
 10
665.201486922082
 20
2100.971483290617
 10
662.8820395834114
 20
2108.647570996327
1001
REVIT
1002
{
1070
     3
1000
923097
1002
}
  0
LWPOLYLINE
  5
A0
330
87
100
AcDbEntity
  8
M-PIPE
100
AcDbPolyline
 90
        4
 70
   128
 43
0.0
 10
725.8414451760618
 20
2131.562920599145
 10
730.4926460127749
 20
2120.501856825686
 10
734.697801809224
 20
2109.263642298833
 10
737.2559360728778
 20
2101.663766805659
1001
REVIT
1002
{
1070
     3
1000
923097
1002
}
  0
LINE
  5
A1
330
87
100
AcDbEntity
  8
M-PIPE
100
AcDbLine
 10
676.4799286006854
 20
2062.516264768627
 30
0.0
 11
745.0774899180485
 21
2087.483735231396
 31
0.0
1001
REVIT
1002
{
1070
     3
1000
923097
1002
}
  0
LINE
  5
A2
330
87
100
AcDbEntity
  8
M-PIPE
100
AcDbLine
 10
743.7094093447524
 20
2091.242505714522
 30
0.0
 11
742.2998704135892
 21
2090.729475499539
 31
0.0
1001
REVIT
1002
{
1070
     3
1000
923097
1002
}
  0
LINE
  5
A3
330
87
100
AcDbEntity
  8
M-PIPE
100
AcDbLine
 10
742.2998704135885
 20
2090.729475499539
 30
0.0
 11
738.1956286936741
 21
2102.005786948988
 31
0.0
1001
REVIT
1002
{
1070
     3
1000
923097
1002
}
  0
LINE
  5
A4
330
87
100
AcDbEntity
  8
M-PIPE
100
AcDbLine
 10
735.4438766120879
 20
2101.00423109921
 30
0.0
 11
739.5481183320023
 21
2089.727919649762
 31
0.0
1001
REVIT
1002
{
1070
     3
1000
923097
1002
}
  0
LINE
  5
A5
330
87
100
AcDbEntity
  8
M-PIPE
100
AcDbLine
 10
739.5481183320007
 20
2089.727919649761
 30
0.0
 11
725.7855507473744
 21
2084.71875470188
 31
0.0
1001
REVIT
1002
{
1070
     3
1000
923097
1002
}
  0
LINE
  5
A6
330
87
100
AcDbEntity
  8
M-PIPE
100
AcDbLine
 10
725.785550747372
 20
2084.71875470188
 30
0.0
 11
721.6813090274576
 21
2095.995066151328
 31
0.0
1001
REVIT
1002
{
1070
     3
1000
923097
1002
}
  0
LINE
  5
A7
330
87
100
AcDbEntity
  8
M-PIPE
100
AcDbLine
 10
715.0379918317975
 20
2093.577096435319
 30
0.0
 11
719.1422335517119
 21
2082.30078498587
 31
0.0
1001
REVIT
1002
{
1070
     3
1000
923097
1002
}
  0
LINE
  5
A8
330
87
100
AcDbEntity
  8
M-PIPE
100
AcDbLine
 10
719.1422335517091
 20
2082.300784985869
 30
0.0
 11
699.679023820431
 21
2075.216755980404
 31
0.0
1001
REVIT
1002
{
1070
     3
1000
923097
1002
}
  0
LINE
  5
A9
330
87
100
AcDbEntity
  8
M-PIPE
100
AcDbLine
 10
699.6790238204284
 20
2075.216755980403
 30
0.0
 11
695.574782100514
 21
2086.493067429852
 31
0.0
1001
REVIT
1002
{
1070
     3
1000
923097
1002
}
  0
LINE
  5
AA
330
87
100
AcDbEntity
  8
M-PIPE
100
AcDbLine
 10
688.9314649049027
 20
2084.07509771386
 30
0.0
 11
693.0357066248172
 21
2072.798786264411
 31
0.0
1001
REVIT
1002
{
1070
     3
1000
923097
1002
}
  0
LINE
  5
AB
330
87
100
AcDbEntity
  8
M-PIPE
100
AcDbLine
 10
693.0357066248164
 20
2072.798786264411
 30
0.0
 11
679.2731390401127
 21
2067.789621316503
 31
0.0
1001
REVIT
1002
{
1070
     3
1000
923097
1002
}
  0
LINE
  5
AC
330
87
100
AcDbEntity
  8
M-PIPE
100
AcDbLine
 10
679.2731390401126
 20
2067.789621316503
 30
0.0
 11
675.168897320198
 21
2079.065932765951
 31
0.0
1001
REVIT
1002
{
1070
     3
1000
923097
1002
}
  0
LINE
  5
AD
330
87
100
AcDbEntity
  8
M-PIPE
100
AcDbLine
 10
672.4171452386603
 20
2078.064376916191
 30
0.0
 11
676.521386958575
 21
2066.788065466742
 31
0.0
1001
REVIT
1002
{
1070
     3
1000
923097
1002
}
  0
LINE
  5
AE
330
87
100
AcDbEntity
  8
M-PIPE
100
AcDbLine
 10
676.5213869585754
 20
2066.788065466742
 30
0.0
 11
675.1118480273894
 21
2066.275035251752
 31
0.0
1001
REVIT
1002
{
1070
     3
1000
923097
1002
}
  0
LINE
  5
AF
330
87
100
AcDbEntity
  8
M-PIPE
100
AcDbLine
 10
675.1688973201984
 20
2079.065932765951
 30
0.0
 11
672.417145238661
 21
2078.064376916192
 31
0.0
1001
REVIT
1002
{
1070
     3
1000
923097
1002
}
  0
LINE
  5
B0
330
87
100
AcDbEntity
  8
M-PIPE
100
AcDbLine
 10
675.1688973201984
 20
2079.065932765951
 30
0.0
 11
688.9314649049024
 21
2084.07509771386
 31
0.0
1001
REVIT
1002
{
1070
     3
1000
923097
1002
}
  0
LINE
  5
B1
330
87
100
AcDbEntity
  8
M-PIPE
100
AcDbLine
 10
695.5747821005167
 20
2086.493067429853
 30
0.0
 11
688.9314649049026
 21
2084.07509771386
 31
0.0
1001
REVIT
1002
{
1070
     3
1000
923097
1002
}
  0
LINE
  5
B2
330
87
100
AcDbEntity
  8
M-PIPE
100
AcDbLine
 10
695.5747821005163
 20
2086.493067429853
 30
0.0
 11
715.0379918317956
 21
2093.577096435318
 31
0.0
1001
REVIT
1002
{
1070
     3
1000
923097
1002
}
  0
LINE
  5
B3
330
87
100
AcDbEntity
  8
M-PIPE
100
AcDbLine
 10
721.6813090274601
 20
2095.995066151329
 30
0.0
 11
715.0379918317958
 21
2093.577096435318
 31
0.0
1001
REVIT
1002
{
1070
     3
1000
923097
1002
}
  0
LINE
  5
B4
330
87
100
AcDbEntity
  8
M-PIPE
100
AcDbLine
 10
721.6813090274599
 20
2095.995066151329
 30
0.0
 11
735.4438766120868
 21
2101.00423109921
 31
0.0
1001
REVIT
1002
{
1070
     3
1000
923097
1002
}
  0
LINE
  5
B5
330
87
100
AcDbEntity
  8
M-PIPE
100
AcDbLine
 10
738.1956286936747
 20
2102.005786948988
 30
0.0
 11
735.443876612087
 21
2101.00423109921
 31
0.0
1001
REVIT
1002
{
1070
     3
1000
923097
1002
}
  0
LINE
  5
B6
330
87
100
AcDbEntity
  8
M-PIPE
100
AcDbLine
 10
725.8414451760605
 20
2131.562920599143
 30
0.0
 11
662.8820395834103
 21
2108.647570996327
 31
0.0
1001
REVIT
1002
{
1070
     3
1000
923097
1002
}
  0
LWPOLYLINE
  5
B7
330
87
100
AcDbEntity
  8
P-SANR-FIXT
100
AcDbPolyline
 90
        7
 70
   128
 43
0.0
 10
675.9068074063316
 20
2172.45043129429
 10
679.5129720989192
 20
2173.681869656829
 10
683.2137765063163
 20
2174.782473099911
 10
686.955633063811
 20
2175.734203473425
 10
690.732555599132
 20
2176.535538211795
 10
694.538501841923
 20
2177.185195350384
 10
695.4160071092367
 20
2177.312860456083
  0
LWPOLYLINE
  5
B8
330
87
100
AcDbEntity
  8
P-SANR-FIXT
100
AcDbPolyline
 90
        7
 70
   128
 43
0.0
 10
656.7817828600192
 20
2163.251152805403
 10
660.0968566027849
 20
2165.230437342997
 10
663.4884289109695
 20
2167.075571072321
 10
666.9510739923773
 20
2168.783602173016
 10
670.4792523535358
 20
2170.351798159679
 10
674.067319661705
 20
2171.777650253264
 10
674.8991841156964
 20
2172.084758383345
  0
LWPOLYLINE
  5
B9
330
87
100
AcDbEntity
  8
P-SANR-FIXT
100
AcDbPolyline
 90
       80
 70
   128
 43
0.0
 10
674.8991841156959
 20
2172.084758383345
 10
674.8995680469902
 20
2172.084898122908
 10
674.9007192266656
 20
2172.085317118044
 10
674.9026358130797
 20
2172.08601469845
 10
674.9053147401033
 20
2172.086989748147
 10
674.9087517220246
 20
2172.088240707262
 10
674.9129412604055
 20
2172.089765574527
 10
674.9178766528789
 20
2172.091561910482
 10
674.9235500038687
 20
2172.093626841371
 10
674.9299522372244
 20
2172.095957063746
 10
674.9370731107383
 20
2172.098548849746
 10
674.9449012325316
 20
2172.10139805307
 10
674.9534240792792
 20
2172.104500115597
 10
674.9626280162447
 20
2172.10785007469
 10
674.9724983190922
 20
2172.11144257113
 10
674.9830191974426
 20
2172.115271857688
 10
674.9941738201353
 20
2172.119331808322
 10
675.0059443421531
 20
2172.123615927979
 10
675.0183119331717
 20
2172.128117362979
 10
675.0312568076838
 20
2172.132828911988
 10
675.0447582566518
 20
2172.137743037532
 10
675.0587946806375
 20
2172.142851878058
 10
675.0733436243565
 20
2172.148147260512
 10
675.0883818126028
 20
2172.153620713411
 10
675.1038851874828
 20
2172.159263480398
 10
675.1198289469043
 20
2172.165066534249
 10
675.136187584253
 20
2172.171020591317
 10
675.1529349291991
 20
2172.177116126381
 10
675.1700441895632
 20
2172.183343387884
 10
675.1874879941783
 20
2172.189692413536
 10
675.2052384366786
 20
2172.196153046251
 10
675.2232671201422
 20
2172.202714950395
 10
675.2415452025216
 20
2172.209367628321
 10
675.2600434427842
 20
2172.216100437163
 10
675.2787322476915
 20
2172.222902605863
 10
675.2975817191428
 20
2172.229763252403
 10
675.3165617020043
 20
2172.236671401211
 10
675.3356418323525
 20
2172.243616000724
 10
675.3547915860488
 20
2172.250585941063
 10
675.3739803275728
 20
2172.25757007181
 10
675.3931773590311
 20
2172.264557219848
 10
675.4123519692686
 20
2172.271536207228
 10
675.4314734829994
 20
2172.278495869059
 10
675.4505113098803
 20
2172.28542507137
 10
675.4694349934498
 20
2172.292312728911
 10
675.4882142598508
 20
2172.299147822903
 10
675.506819066263
 20
2172.305919418651
 10
675.5252196489652
 20
2172.312616683048
 10
675.5433865709504
 20
2172.319228901899
 10
675.5612907690187
 20
2172.325745497064
 10
675.5789036002722
 20
2172.332156043381
 10
675.5961968879386
 20
2172.338450285344
 10
675.6131429664466
 20
2172.344618153509
 10
675.6297147256852
 20
2172.350649780602
 10
675.645885654375
 20
2172.356535517305
 10
675.6616298824799
 20
2172.362265947697
 10
675.676922222593
 20
2172.36783190431
 10
675.6917382102329
 20
2172.373224482802
 10
675.7060541429796
 20
2172.378435056197
 10
675.7198471183945
 20
2172.383455288691
 10
675.7330950706597
 20
2172.38827714898
 10
675.7457768058773
 20
2172.392892923118
 10
675.7578720359764
 20
2172.397295226851
 10
675.769361411169
 20
2172.401477017432
 10
675.7802265509056
 20
2172.405431604886
 10
675.7904500732804
 20
2172.40915266272
 10
675.8000156228388
 20
2172.412634238034
 10
675.8089078967418
 20
2172.415870761049
 10
675.8171126692482
 20
2172.418857054021
 10
675.8246168144721
 20
2172.421588339516
 10
675.8314083273821
 20
2172.424060248061
 10
675.8374763430062
 20
2172.426268825129
 10
675.8428111538138
 20
2172.428210537469
 10
675.8474042252458
 20
2172.429882278754
 10
675.8512482093675
 20
2172.431281374555
 10
675.8543369566246
 20
2172.432405586618
 10
675.8566655256802
 20
2172.433253116443
 10
675.8582301913204
 20
2172.433822608162
 10
675.8590284504142
 20
2172.434113150711
 10
675.8591403392095
 20
2172.434153874903
  0
LWPOLYLINE
  5
BA
330
87
100
AcDbEntity
  8
P-SANR-FIXT
100
AcDbPolyline
 90
       80
 70
   128
 43
0.0
 10
675.8591403392095
 20
2172.434153874903
 10
675.8587564079152
 20
2172.434014135339
 10
675.8576052282399
 20
2172.433595140203
 10
675.8556886418258
 20
2172.432897559797
 10
675.8530097148024
 20
2172.431922510101
 10
675.8495727328811
 20
2172.430671550986
 10
675.8453831944999
 20
2172.42914668372
 10
675.840447802027
 20
2172.427350347765
 10
675.8347744510367
 20
2172.425285416876
 10
675.8283722176809
 20
2172.422955194502
 10
675.8212513441671
 20
2172.420363408501
 10
675.8134232223739
 20
2172.417514205178
 10
675.8049003756264
 20
2172.41441214265
 10
675.7956964386607
 20
2172.411062183557
 10
675.7858261358133
 20
2172.407469687117
 10
675.7753052574629
 20
2172.403640400559
 10
675.7641506347702
 20
2172.399580449925
 10
675.7523801127525
 20
2172.395296330269
 10
675.740012521734
 20
2172.390794895268
 10
675.7270676472217
 20
2172.38608334626
 10
675.7135661982536
 20
2172.381169220716
 10
675.6995297742681
 20
2172.376060380189
 10
675.6849808305489
 20
2172.370764997736
 10
675.6699426423027
 20
2172.365291544837
 10
675.6544392674227
 20
2172.35964877785
 10
675.6384955080013
 20
2172.353845723998
 10
675.6221368706524
 20
2172.34789166693
 10
675.6053895257062
 20
2172.341796131866
 10
675.5882802653423
 20
2172.335568870364
 10
675.570836460727
 20
2172.329219844711
 10
675.5530860182269
 20
2172.322759211996
 10
675.5350573347632
 20
2172.316197307852
 10
675.5167792523837
 20
2172.309544629927
 10
675.4982810121212
 20
2172.302811821085
 10
675.479592207214
 20
2172.296009652384
 10
675.4607427357627
 20
2172.289149005845
 10
675.4417627529011
 20
2172.282240857037
 10
675.4226826225531
 20
2172.275296257524
 10
675.4035328688566
 20
2172.268326317185
 10
675.3843441273327
 20
2172.261342186437
 10
675.3651470958743
 20
2172.2543550384
 10
675.3459724856369
 20
2172.24737605102
 10
675.3268509719061
 20
2172.240416389188
 10
675.3078131450251
 20
2172.233487186878
 10
675.2888894614557
 20
2172.226599529336
 10
675.2701101950547
 20
2172.219764435345
 10
675.2515053886424
 20
2172.212992839596
 10
675.2331048059401
 20
2172.206295575199
 10
675.214937883955
 20
2172.199683356348
 10
675.1970336858869
 20
2172.193166761184
 10
675.1794208546333
 20
2172.186756214866
 10
675.1621275669669
 20
2172.180461972903
 10
675.1451814884591
 20
2172.174294104738
 10
675.1286097292204
 20
2172.168262477646
 10
675.1124388005304
 20
2172.162376740942
 10
675.0966945724257
 20
2172.156646310551
 10
675.0814022323124
 20
2172.151080353938
 10
675.0665862446727
 20
2172.145687775445
 10
675.0522703119259
 20
2172.14047720205
 10
675.0384773365111
 20
2172.135456969557
 10
675.0252293842459
 20
2172.130635109267
 10
675.0125476490282
 20
2172.126019335129
 10
675.0004524189291
 20
2172.121617031397
 10
674.9889630437366
 20
2172.117435240816
 10
674.978097904
 20
2172.113480653361
 10
674.967874381625
 20
2172.109759595527
 10
674.9583088320665
 20
2172.106278020213
 10
674.9494165581636
 20
2172.103041497198
 10
674.9412117856572
 20
2172.100055204226
 10
674.9337076404333
 20
2172.097323918732
 10
674.9269161275235
 20
2172.094852010187
 10
674.9208481118994
 20
2172.092643433118
 10
674.9155133010918
 20
2172.090701720779
 10
674.9109202296597
 20
2172.089029979494
 10
674.9070762455381
 20
2172.087630883693
 10
674.903987498281
 20
2172.08650667163
 10
674.9016589292255
 20
2172.085659141805
 10
674.9000942635851
 20
2172.085089650085
 10
674.8992960044914
 20
2172.084799107536
 10
674.8991841156959
 20
2172.084758383345
  0
LWPOLYLINE
  5
BB
330
87
100
AcDbEntity
  8
P-SANR-FIXT
100
AcDbPolyline
 90
       30
 70
   128
 43
0.0
 10
695.4160071092367
 20
2177.312860456083
 10
695.6727013147858
 20
2177.34378115675
 10
695.930426690582
 20
2177.364412093786
 10
696.1887709310026
 20
2177.374720262091
 10
696.4473207403734
 20
2177.374689170795
 10
696.7056624941533
 20
2177.364318869638
 10
696.9633829006469
 20
2177.34362594889
 10
697.2200696621809
 20
2177.31264351281
 10
697.4753121346936
 20
2177.271421126685
 10
697.7287019846782
 20
2177.220024737541
 10
697.979833842428
 20
2177.158536568635
 10
698.2283059505427
 20
2177.087054987921
 10
698.4737208066539
 20
2177.005694350681
 10
698.7156857993442
 20
2176.914584816576
 10
698.9538138362416
 20
2176.813872141428
 10
699.1877239632849
 20
2176.70371744403
 10
699.4170419741696
 20
2176.584296948401
 10
699.6414010089961
 20
2176.455801701859
 10
699.8604421411698
 20
2176.318437269387
 10
700.0738149516056
 20
2176.172423404775
 10
700.2811780893235
 20
2176.017993699057
 10
700.4821998175388
 20
2175.85539520682
 10
700.6765585443681
 20
2175.684888050966
 10
700.86394333731
 20
2175.506745006571
 10
701.0440544206686
 20
2175.321251064504
 10
701.2166036551325
 20
2175.128702975502
 10
701.3813149987352
 20
2174.929408775433
 10
701.5379249484631
 20
2174.723687292505
 10
701.6861829618051
 20
2174.511867637203
 10
701.6944628513124
 20
2174.499488653318
  0
LWPOLYLINE
  5
BC
330
87
100
AcDbEntity
  8
P-SANR-FIXT
100
AcDbPolyline
 90
       30
 70
   128
 43
0.0
 10
653.7806072636926
 20
2157.060271410495
 10
653.757431105202
 20
2157.31778038232
 10
653.7445710974966
 20
2157.576010173579
 10
653.7420478138454
 20
2157.834547671695
 10
653.7498652909639
 20
2158.092979271821
 10
653.7680110225562
 20
2158.350891538526
 10
653.796455979323
 20
2158.607871867204
 10
653.8351546554011
 20
2158.863509144145
 10
653.8840451411641
 20
2159.117394404241
 10
653.9430492222643
 20
2159.369121485235
 10
654.0120725047587
 20
2159.618287677496
 10
654.0910045661195
 20
2159.86449436827
 10
654.1797191318866
 20
2160.107347679371
 10
654.2780742776795
 20
2160.34645909731
 10
654.3859126562459
 20
2160.581446094823
 10
654.5030617491852
 20
2160.811932742844
 10
654.6293341429382
 20
2161.037550311903
 10
654.7645278286124
 20
2161.257937862019
 10
654.9084265251495
 20
2161.472742820125
 10
655.0608000253329
 20
2161.681621544112
 10
655.2214045640662
 20
2161.884239872578
 10
655.3899832083484
 20
2162.080273659421
 10
655.5662662683097
 20
2162.269409292402
 10
655.7499717286593
 20
2162.451344194853
 10
655.9408056998494
 20
2162.625787309742
 10
656.1384628882349
 20
2162.792459565298
 10
656.3426270844789
 20
2162.951094321465
 10
656.5529716694205
 20
2163.101437796475
 10
656.7691601365943
 20
2163.243249472839
 10
656.7817828600192
 20
2163.251152805403
  0
LWPOLYLINE
  5
BD
330
87
100
AcDbEntity
  8
P-SANR-FIXT
100
AcDbPolyline
 90
        4
 70
   128
 43
0.0
 10
701.6944628513125
 20
2174.499488653318
 10
708.2866639380295
 20
2164.177794692675
 10
714.4608342978433
 20
2153.600739253997
 10
718.3505021475694
 20
2146.395373556066
  0
LWPOLYLINE
  5
BE
330
87
100
AcDbEntity
  8
P-SANR-FIXT
100
AcDbPolyline
 90
        3
 70
   128
 43
0.0
 10
659.0848459549508
 20
2124.832368526128
 10
656.6951763935157
 20
2136.836507473606
 10
655.8760366437262
 20
2142.027770936769
  0
LWPOLYLINE
  5
BF
330
87
100
AcDbEntity
  8
P-SANR-FIXT
100
AcDbPolyline
 90
        3
 70
   128
 43
0.0
 10
655.8665355320122
 20
2142.087983829762
 10
654.7862807681996
 20
2148.934052632709
 10
653.7806072636925
 20
2157.060271410495
  0
SPLINE
  5
C0
330
87
100
AcDbEntity
  8
P-SANR-FIXT
100
AcDbSpline
210
0.0
220
0.0
230
1.0
 70
     8
 71
     3
 72
     9
 73
     5
 74
     0
 42
0.000000001
 43
0.0000000001
 40
-1.0
 40
-1.0
 40
-1.0
 40
-1.0
 40
-0.5
 40
0.0
 40
0.0
 40
0.0
 40
0.0
 10
656.6053735564922
 20
2158.088402259832
 30
0.0
 10
656.713000255908
 20
2158.26273841158
 30
0.0
 10
656.9533579091267
 20
2158.485384679677
 30
0.0
 10
657.2419026715862
 20
2158.455243147717
 30
0.0
 10
657.3977853587177
 20
2158.376816569123
 30
0.0
  0
SPLINE
  5
C1
330
87
100
AcDbEntity
  8
P-SANR-FIXT
100
AcDbSpline
210
0.0
220
0.0
230
1.0
 70
     8
 71
     3
 72
     9
 73
     5
 74
     0
 42
0.000000001
 43
0.0000000001
 40
-1.0
 40
-1.0
 40
-1.0
 40
-1.0
 40
-0.5
 40
0.0
 40
0.0
 40
0.0
 40
0.0
 10
676.9451232544983
 20
2165.491465722331
 30
0.0
 10
677.1651920142893
 20
2165.706727437386
 30
0.0
 10
677.6506538034742
 20
2166.01858431552
 30
0.0
 10
678.2229968466864
 20
2166.09173691004
 30
0.0
 10
678.5299468605047
 20
2166.06829434148
 30
0.0
  0
SPLINE
  5
C2
330
87
100
AcDbEntity
  8
P-SANR-FIXT
100
AcDbSpline
210
0.0
220
0.0
230
1.0
 70
     8
 71
     3
 72
     9
 73
     5
 74
     0
 42
0.000000001
 43
0.0000000001
 40
-1.0
 40
-1.0
 40
-1.0
 40
-1.0
 40
-0.5
 40
0.0
 40
0.0
 40
0.0
 40
0.0
 10
698.0772847562884
 20
2173.182943494689
 30
0.0
 10
698.1462861895528
 20
2173.343221199266
 30
0.0
 10
698.3479496981435
 20
2173.551783950478
 30
0.0
 10
698.6751886052253
 20
2173.535725935403
 30
0.0
 10
698.8696965585056
 20
2173.471357803977
 30
0.0
  0
SPLINE
  5
C3
330
87
100
AcDbEntity
  8
P-SANR-FIXT
100
AcDbSpline
210
0.0
220
0.0
230
1.0
 70
     8
 71
     3
 72
    23
 73
    19
 74
     0
 42
0.000000001
 43
0.0000000001
 40
-1.0
 40
-1.0
 40
-1.0
 40
-1.0
 40
-0.875
 40
-0.8125
 40
-0.78125
 40
-0.75
 40
-0.71875
 40
-0.6875
 40
-0.625
 40
-0.5625
 40
-0.53125
 40
-0.5
 40
-0.46875
 40
-0.4375
 40
-0.375
 40
-0.3125
 40
-0.25
 40
0.0
 40
0.0
 40
0.0
 40
0.0
 10
698.8696965585056
 20
2173.471357803977
 30
0.0
 10
699.6384494870688
 20
2172.709401538795
 30
0.0
 10
700.8617164983329
 20
2171.530238271436
 30
0.0
 10
702.2930828930059
 20
2170.048645491263
 30
0.0
 10
703.1000045068078
 20
2169.166593296971
 30
0.0
 10
703.6988735920488
 20
2168.489039370505
 30
0.0
 10
704.281974397544
 20
2167.783859107215
 30
0.0
 10
705.0310323042898
 20
2166.799688145225
 30
0.0
 10
705.9245773554454
 20
2165.50798212426
 30
0.0
 10
706.7838108735924
 20
2164.17404526279
 30
0.0
 10
707.4673682807222
 20
2163.106432025598
 30
0.0
 10
707.9853134392517
 20
2162.315165708807
 30
0.0
 10
708.5035990673024
 20
2161.527303736642
 30
0.0
 10
709.1826992166962
 20
2160.465424070404
 30
0.0
 10
710.0171175089635
 20
2159.126681859127
 30
0.0
 10
710.9987305339314
 20
2157.505467795946
 30
0.0
 10
712.9432322045922
 20
2154.254130244219
 30
0.0
 10
714.5099371467044
 20
2151.514509480717
 30
0.0
 10
715.7134204307072
 20
2149.292573561294
 30
0.0
  0
LINE
  5
C4
330
87
100
AcDbEntity
  8
P-SANR-FIXT
100
AcDbLine
 10
715.7134204307066
 20
2149.292573561296
 30
0.0
 11
707.8977827262129
 21
2146.447914075051
 31
0.0
  0
SPLINE
  5
C5
330
87
100
AcDbEntity
  8
P-SANR-FIXT
100
AcDbSpline
210
0.0
220
0.0
230
1.0
 70
     8
 71
     3
 72
     9
 73
     5
 74
     0
 42
0.000000001
 43
0.0000000001
 40
-1.0
 40
-1.0
 40
-1.0
 40
-1.0
 40
-0.5
 40
0.0
 40
0.0
 40
0.0
 40
0.0
 10
707.8977827262134
 20
2146.44791407505
 30
0.0
 10
706.48151459418
 20
2149.697609276828
 30
0.0
 10
703.6130595590948
 20
2156.121665233653
 30
0.0
 10
700.9563302368044
 20
2162.498260881308
 30
0.0
 10
699.7862470844279
 20
2165.713037921348
 30
0.0
  0
SPLINE
  5
C6
330
87
100
AcDbEntity
  8
P-SANR-FIXT
100
AcDbSpline
210
0.0
220
0.0
230
1.0
 70
     8
 71
     3
 72
    21
 73
    17
 74
     0
 42
0.000000001
 43
0.0000000001
 40
-1.0
 40
-1.0
 40
-1.0
 40
-1.0
 40
-0.8333333333333332
 40
-0.75
 40
-0.7083333333333333
 40
-0.6666666666666666
 40
-0.625
 40
-0.5833333333333333
 40
-0.5
 40
-0.4166666666666666
 40
-0.375
 40
-0.3333333333333333
 40
-0.2916666666666666
 40
-0.25
 40
-0.1666666666666666
 40
0.0
 40
0.0
 40
0.0
 40
0.0
 10
699.7862470844279
 20
2165.713037921348
 30
0.0
 10
699.624322715097
 20
2166.157921469743
 30
0.0
 10
699.3884058950259
 20
2166.820363155274
 30
0.0
 10
699.1298561419678
 20
2167.585963634848
 30
0.0
 10
698.9874174852408
 20
2168.021957794239
 30
0.0
 10
698.88385624795
 20
2168.347376126758
 30
0.0
 10
698.7819582853376
 20
2168.674951055045
 30
0.0
 10
698.6473365572163
 20
2169.116567291134
 30
0.0
 10
698.4853352055497
 20
2169.6700991255
 30
0.0
 10
698.3406521769634
 20
2170.212292299784
 30
0.0
 10
698.2419568065165
 20
2170.631700632313
 30
0.0
 10
698.1790297231291
 20
2170.936411570842
 30
0.0
 10
698.1271332107499
 20
2171.233000887079
 30
0.0
 10
698.0704620088752
 20
2171.622586984671
 30
0.0
 10
698.0083575887457
 20
2172.286795979033
 30
0.0
 10
698.026146073723
 20
2172.829874673601
 30
0.0
 10
698.0772847562887
 20
2173.182943494689
 30
0.0
  0
SPLINE
  5
C7
330
87
100
AcDbEntity
  8
P-SANR-FIXT
100
AcDbSpline
210
0.0
220
0.0
230
1.0
 70
     8
 71
     3
 72
    23
 73
    19
 74
     0
 42
0.000000001
 43
0.0000000001
 40
-1.0
 40
-1.0
 40
-1.0
 40
-1.0
 40
-0.875
 40
-0.8125
 40
-0.78125
 40
-0.75
 40
-0.71875
 40
-0.6875
 40
-0.625
 40
-0.5625
 40
-0.53125
 40
-0.5
 40
-0.46875
 40
-0.4375
 40
-0.375
 40
-0.3125
 40
-0.25
 40
0.0
 40
0.0
 40
0.0
 40
0.0
 10
678.5299468605047
 20
2166.06829434148
 30
0.0
 10
679.6216873744498
 20
2165.423895943316
 30
0.0
 10
681.159088994786
 20
2164.359068323093
 30
0.0
 10
682.7603138452606
 20
2162.939298964782
 30
0.0
 10
683.6220265645208
 20
2162.077189101943
 30
0.0
 10
684.2441887967368
 20
2161.408113187618
 30
0.0
 10
684.8354600105574
 20
2160.70590670975
 30
0.0
 10
685.5807303805735
 20
2159.720357197132
 30
0.0
 10
686.4508870135373
 20
2158.420138488143
 30
0.0
 10
687.2727736932423
 20
2157.072608489174
 30
0.0
 10
687.9181689932185
 20
2155.991105380929
 30
0.0
 10
688.4017358695638
 20
2155.187326392736
 30
0.0
 10
688.8806639691458
 20
2154.385139451729
 30
0.0
 10
689.5043893218866
 20
2153.303105007802
 30
0.0
 10
690.2636869019999
 20
2151.937021093353
 30
0.0
 10
691.1480306084317
 20
2150.280403893555
 30
0.0
 10
692.880739157717
 20
2146.951979949892
 30
0.0
 10
694.2455870228617
 20
2144.138889218849
 30
0.0
 10
695.294425625542
 20
2141.860667238578
 30
0.0
  0
LINE
  5
C8
330
87
100
AcDbEntity
  8
P-SANR-FIXT
100
AcDbLine
 10
695.2944256255419
 20
2141.86066723858
 30
0.0
 11
679.6631502164117
 21
2136.17134826604
 31
0.0
  0
SPLINE
  5
C9
330
87
100
AcDbEntity
  8
P-SANR-FIXT
100
AcDbSpline
210
0.0
220
0.0
230
1.0
 70
     8
 71
     3
 72
    23
 73
    19
 74
     0
 42
0.000000001
 43
0.0000000001
 40
-1.0
 40
-1.0
 40
-1.0
 40
-1.0
 40
-0.75
 40
-0.6875
 40
-0.625
 40
-0.5625
 40
-0.53125
 40
-0.5
 40
-0.46875
 40
-0.4375
 40
-0.375
 40
-0.3125
 40
-0.28125
 40
-0.25
 40
-0.21875
 40
-0.1875
 40
-0.125
 40
0.0
 40
0.0
 40
0.0
 40
0.0
 10
679.663150216412
 20
2136.171348266037
 30
0.0
 10
679.0021943386904
 20
2138.59074801258
 30
0.0
 10
678.2395085946486
 20
2141.623007831907
 30
0.0
 10
677.427370679603
 20
2145.286492084972
 30
0.0
 10
677.0399642516982
 20
2147.123979662452
 30
0.0
 10
676.7435181296179
 20
2148.658527730511
 30
0.0
 10
676.5258011363071
 20
2149.888337132134
 30
0.0
 10
676.3770455193141
 20
2150.810697028977
 30
0.0
 10
676.2308200632773
 20
2151.737258252948
 30
0.0
 10
676.0300447486224
 20
2152.980589801409
 30
0.0
 10
675.7934708854655
 20
2154.541156243336
 30
0.0
 10
675.6242850627698
 20
2156.096507462353
 30
0.0
 10
675.5616962728986
 20
2157.330532749625
 30
0.0
 10
675.5632666772068
 20
2158.248515930127
 30
0.0
 10
675.6097968902464
 20
2159.160975990404
 30
0.0
 10
675.7157535923796
 20
2160.375288719238
 30
0.0
 10
676.0297528391344
 20
2162.492142640891
 30
0.0
 10
676.5230128065041
 20
2164.296070634907
 30
0.0
 10
676.9451232544983
 20
2165.491465722331
 30
0.0
  0
SPLINE
  5
CA
330
87
100
AcDbEntity
  8
P-SANR-FIXT
100
AcDbSpline
210
0.0
220
0.0
230
1.0
 70
     8
 71
     3
 72
    21
 73
    17
 74
     0
 42
0.000000001
 43
0.0000000001
 40
-1.0
 40
-1.0
 40
-1.0
 40
-1.0
 40
-0.8333333333333332
 40
-0.75
 40
-0.7083333333333333
 40
-0.6666666666666666
 40
-0.625
 40
-0.5833333333333333
 40
-0.5
 40
-0.4166666666666666
 40
-0.375
 40
-0.3333333333333333
 40
-0.2916666666666666
 40
-0.25
 40
-0.1666666666666666
 40
0.0
 40
0.0
 40
0.0
 40
0.0
 10
657.3977853587177
 20
2158.376816569123
 30
0.0
 10
657.6639081258865
 20
2158.139221472218
 30
0.0
 10
658.0266191519077
 20
2157.734633273804
 30
0.0
 10
658.4059897177922
 20
2157.185899712837
 30
0.0
 10
658.6129981749492
 20
2156.851031901268
 30
0.0
 10
658.7638870776658
 20
2156.590472868533
 30
0.0
 10
658.9115465509384
 20
2156.316601997799
 30
0.0
 10
659.1055319903947
 20
2155.931876414011
 30
0.0
 10
659.3432134148184
 20
2155.423531887647
 30
0.0
 10
659.5749165842934
 20
2154.895369440239
 30
0.0
 10
659.755655802337
 20
2154.470538597762
 30
0.0
 10
659.8881585394596
 20
2154.154102896423
 30
0.0
 10
660.0180009012188
 20
2153.838250110933
 30
0.0
 10
660.1891382032996
 20
2153.412701404215
 30
0.0
 10
660.4831961039395
 20
2152.660024833436
 30
0.0
 10
660.7282826424847
 20
2152.000920652487
 30
0.0
 10
660.8902070118154
 20
2151.556037104092
 30
0.0
  0
SPLINE
  5
CB
330
87
100
AcDbEntity
  8
P-SANR-FIXT
100
AcDbSpline
210
0.0
220
0.0
230
1.0
 70
     8
 71
     3
 72
     9
 73
     5
 74
     0
 42
0.000000001
 43
0.0000000001
 40
-1.0
 40
-1.0
 40
-1.0
 40
-1.0
 40
-0.5
 40
0.0
 40
0.0
 40
0.0
 40
0.0
 10
660.8902070118154
 20
2151.556037104092
 30
0.0
 10
662.0602901641919
 20
2148.341260064052
 30
0.0
 10
664.1239141042736
 20
2141.74879171149
 30
0.0
 10
666.0558536372905
 20
2134.983871987983
 30
0.0
 10
667.0597931157406
 20
2131.584101429565
 30
0.0
  0
LINE
  5
CC
330
87
100
AcDbEntity
  8
P-SANR-FIXT
100
AcDbLine
 10
667.0597931157403
 20
2131.584101429567
 30
0.0
 11
659.2441554112465
 21
2128.739441943323
 31
0.0
  0
SPLINE
  5
CD
330
87
100
AcDbEntity
  8
P-SANR-FIXT
100
AcDbSpline
210
0.0
220
0.0
230
1.0
 70
     8
 71
     3
 72
    23
 73
    19
 74
     0
 42
0.000000001
 43
0.0000000001
 40
-1.0
 40
-1.0
 40
-1.0
 40
-1.0
 40
-0.75
 40
-0.6875
 40
-0.625
 40
-0.5625
 40
-0.53125
 40
-0.5
 40
-0.46875
 40
-0.4375
 40
-0.375
 40
-0.3125
 40
-0.28125
 40
-0.25
 40
-0.21875
 40
-0.1875
 40
-0.125
 40
0.0
 40
0.0
 40
0.0
 40
0.0
 10
659.2441554112468
 20
2128.739441943321
 30
0.0
 10
658.7378442148217
 20
2131.215127750782
 30
0.0
 10
658.1770155477146
 20
2134.320857537741
 30
0.0
 10
657.5766707540008
 20
2138.061428182861
 30
0.0
 10
657.2865336446085
 20
2139.934318897022
 30
0.0
 10
657.0652082346638
 20
2141.496208668304
 30
0.0
 10
656.9028660379919
 20
2142.746172847654
 30
0.0
 10
656.7934679494583
 20
2143.682857713364
 30
0.0
 10
656.6816207755948
 20
2144.621931608769
 30
0.0
 10
656.5190075680753
 20
2145.879153028332
 30
0.0
 10
656.3197805433364
 20
2147.453312607825
 30
0.0
 10
656.1739831388164
 20
2149.017176514909
 30
0.0
 10
656.1151818856731
 20
2150.252580352813
 30
0.0
 10
656.108581881662
 20
2151.167589747875
 30
0.0
 10
656.1318189477394
 20
2152.071571795974
 30
0.0
 10
656.1829845444367
 20
2153.265942193293
 30
0.0
 10
656.3271253354455
 20
2155.320972692928
 30
0.0
 10
656.5062506938176
 20
2157.010565039598
 30
0.0
 10
656.6053735564922
 20
2158.088402259832
 30
0.0
  0
LINE
  5
CE
330
87
100
AcDbEntity
  8
P-SANR-FIXT
100
AcDbLine
 10
681.0488890006084
 20
2132.818696680459
 30
0.0
 11
696.3879310290987
 21
2138.401651400988
 31
0.0
  0
LINE
  5
CF
330
87
100
AcDbEntity
  8
P-SANR-FIXT
100
AcDbLine
 10
655.0107600669275
 20
1964.000000000007
 30
0.0
 11
677.5466584518174
 21
1964.000000000007
 31
0.0
  0
LINE
  5
D0
330
87
100
AcDbEntity
  8
P-SANR-FIXT
100
AcDbLine
 10
677.5466584518174
 20
2035.999999999984
 30
0.0
 11
655.0107600669275
 21
2035.999999999984
 31
0.0
  0
LINE
  5
D1
330
87
100
AcDbEntity
  8
P-SANR-FIXT
100
AcDbLine
 10
677.5466584518174
 20
1964.000000000007
 30
0.0
 11
677.578002447569
 21
1964.054289393161
 31
0.0
  0
LINE
  5
D2
330
87
100
AcDbEntity
  8
P-SANR-FIXT
100
AcDbLine
 10
677.5795088519434
 20
1964.056898562074
 30
0.0
 11
679.2787092593755
 21
1966.999999999988
 31
0.0
  0
LINE
  5
D3
330
87
100
AcDbEntity
  8
P-SANR-FIXT
100
AcDbLine
 10
679.2787092593755
 20
2033.000000000003
 30
0.0
 11
677.5795088519446
 21
2035.943101437915
 31
0.0
  0
LINE
  5
D4
330
87
100
AcDbEntity
  8
P-SANR-FIXT
100
AcDbLine
 10
677.5780024475692
 20
2035.94571060683
 30
0.0
 11
677.5466584518138
 21
2035.99999999999
 31
0.0
  0
LINE
  5
D5
330
87
100
AcDbEntity
  8
P-SANR-FIXT
100
AcDbLine
 10
653.2787092593757
 20
1966.999999999977
 30
0.0
 11
654.9779096668014
 21
1964.056898562074
 31
0.0
  0
LINE
  5
D6
330
87
100
AcDbEntity
  8
P-SANR-FIXT
100
AcDbLine
 10
654.9794160711759
 20
1964.054289393161
 30
0.0
 11
655.0107600669308
 21
1964.000000000001
 31
0.0
  0
LINE
  5
D7
330
87
100
AcDbEntity
  8
P-SANR-FIXT
100
AcDbLine
 10
655.0107600669276
 20
2035.999999999984
 30
0.0
 11
654.9794160711756
 21
2035.94571060683
 31
0.0
  0
LINE
  5
D8
330
87
100
AcDbEntity
  8
P-SANR-FIXT
100
AcDbLine
 10
654.9779096668003
 20
2035.943101437915
 30
0.0
 11
653.2787092593757
 21
2033.000000000014
 31
0.0
  0
LINE
  5
D9
330
87
100
AcDbEntity
  8
P-SANR-FIXT
100
AcDbLine
 10
653.2787092593744
 20
2029.314052580724
 30
0.0
 11
653.2787092593744
 21
2028.578838324897
 31
0.0
  0
LINE
  5
DA
330
87
100
AcDbEntity
  8
P-SANR-FIXT
100
AcDbLine
 10
653.2787092593744
 20
2028.578838324897
 30
0.0
 11
653.2787092593744
 21
2027.839034394677
 31
0.0
  0
LINE
  5
DB
330
87
100
AcDbEntity
  8
P-SANR-FIXT
100
AcDbLine
 10
653.2787092593744
 20
1972.160965605153
 30
0.0
 11
653.2787092593744
 21
1971.421161675092
 31
0.0
  0
LINE
  5
DC
330
87
100
AcDbEntity
  8
P-SANR-FIXT
100
AcDbLine
 10
653.2787092593744
 20
1971.421161675092
 30
0.0
 11
653.2787092593744
 21
1970.685947419282
 31
0.0
  0
LINE
  5
DD
330
87
100
AcDbEntity
  8
P-SANR-FIXT
100
AcDbLine
 10
653.2787092593744
 20
1966.999999999977
 30
0.0
 11
653.2787092593744
 21
1971.421161675093
 31
0.0
  0
LINE
  5
DE
330
87
100
AcDbEntity
  8
P-SANR-FIXT
100
AcDbLine
 10
653.2787092593744
 20
1971.421161675093
 30
0.0
 11
653.2787092593743
 21
1999.999999999995
 31
0.0
  0
LINE
  5
DF
330
87
100
AcDbEntity
  8
P-SANR-FIXT
100
AcDbLine
 10
653.2787092593743
 20
1999.999999999995
 30
0.0
 11
653.2787092593744
 21
2028.578838324897
 31
0.0
  0
LINE
  5
E0
330
87
100
AcDbEntity
  8
P-SANR-FIXT
100
AcDbLine
 10
653.2787092593744
 20
2028.578838324897
 30
0.0
 11
653.2787092593744
 21
2033.000000000013
 31
0.0
  0
LINE
  5
E1
330
87
100
AcDbEntity
  8
P-SANR-FIXT
100
AcDbLine
 10
679.2787092593743
 20
2033.000000000002
 30
0.0
 11
679.2787092593743
 21
2028.578838324888
 31
0.0
  0
LINE
  5
E2
330
87
100
AcDbEntity
  8
P-SANR-FIXT
100
AcDbLine
 10
679.2787092593743
 20
2028.578838324888
 30
0.0
 11
679.2787092593742
 21
1999.999999999995
 31
0.0
  0
LINE
  5
E3
330
87
100
AcDbEntity
  8
P-SANR-FIXT
100
AcDbLine
 10
679.2787092593742
 20
1999.999999999995
 30
0.0
 11
679.2787092593743
 21
1971.421161675102
 31
0.0
  0
LINE
  5
E4
330
87
100
AcDbEntity
  8
P-SANR-FIXT
100
AcDbLine
 10
679.2787092593743
 20
1971.421161675102
 30
0.0
 11
679.2787092593743
 21
1966.999999999987
 31
0.0
  0
LINE
  5
E5
330
87
100
AcDbEntity
  8
P-SANR-FIXT
100
AcDbLine
 10
655.0107600669589
 20
1978.614908960086
 30
0.0
 11
677.546658451783
 21
1978.614908960086
 31
0.0
  0
LINE
  5
E6
330
87
100
AcDbEntity
  8
P-SANR-FIXT
100
AcDbLine
 10
677.5466584518158
 20
1978.614908960086
 30
0.0
 11
677.5466584518158
 21
1985.612505430093
 31
0.0
  0
LINE
  5
E7
330
87
100
AcDbEntity
  8
P-SANR-FIXT
100
AcDbLine
 10
655.010760066926
 20
1985.612505430094
 30
0.0
 11
655.010760066926
 21
1978.614908960086
 31
0.0
  0
SPLINE
  5
E8
330
87
100
AcDbEntity
  8
P-SANR-FIXT
100
AcDbSpline
210
0.0
220
0.0
230
1.0
 70
     8
 71
     3
 72
     9
 73
     5
 74
     0
 42
0.000000001
 43
0.0000000001
 40
0.0
 40
0.0
 40
0.0
 40
0.0
 40
0.5
 40
1.0
 40
1.0
 40
1.0
 40
1.0
 10
655.0107600669589
 20
1978.614908960086
 30
0.0
 10
654.4469949843138
 20
1977.432026523659
 30
0.0
 10
653.5945547670714
 20
1975.050186206399
 30
0.0
 10
653.2922944459242
 20
1972.636195000327
 30
0.0
 10
653.2787092593744
 20
1971.421161675088
 30
0.0
  0
SPLINE
  5
E9
330
87
100
AcDbEntity
  8
P-SANR-FIXT
100
AcDbSpline
210
0.0
220
0.0
230
1.0
 70
     8
 71
     3
 72
     9
 73
     5
 74
     0
 42
0.000000001
 43
0.0000000001
 40
0.0
 40
0.0
 40
0.0
 40
0.0
 40
0.5
 40
1.0
 40
1.0
 40
1.0
 40
1.0
 10
653.2787092593744
 20
1971.421161675088
 30
0.0
 10
653.2922944459238
 20
1970.206128349859
 30
0.0
 10
653.594554767066
 20
1967.792137143808
 30
0.0
 10
654.4469949842945
 20
1965.410296826568
 30
0.0
 10
655.0107600669306
 20
1964.227414390151
 30
0.0
  0
LINE
  5
EA
330
87
100
AcDbEntity
  8
P-SANR-FIXT
100
AcDbLine
 10
655.0107600669306
 20
1964.227414390151
 30
0.0
 11
677.5466584518117
 21
1964.227414390151
 31
0.0
  0
SPLINE
  5
EB
330
87
100
AcDbEntity
  8
P-SANR-FIXT
100
AcDbSpline
210
0.0
220
0.0
230
1.0
 70
     8
 71
     3
 72
     9
 73
     5
 74
     0
 42
0.000000001
 43
0.0000000001
 40
0.0
 40
0.0
 40
0.0
 40
0.0
 40
0.5
 40
1.0
 40
1.0
 40
1.0
 40
1.0
 10
677.5466584518117
 20
1964.227414390151
 30
0.0
 10
678.1104235344465
 20
1965.410296826568
 30
0.0
 10
678.9628637516752
 20
1967.792137143808
 30
0.0
 10
679.2651240728218
 20
1970.206128349859
 30
0.0
 10
679.2787092593743
 20
1971.421161675088
 30
0.0
  0
SPLINE
  5
EC
330
87
100
AcDbEntity
  8
P-SANR-FIXT
100
AcDbSpline
210
0.0
220
0.0
230
1.0
 70
     8
 71
     3
 72
     9
 73
     5
 74
     0
 42
0.000000001
 43
0.0000000001
 40
0.0
 40
0.0
 40
0.0
 40
0.0
 40
0.5
 40
1.0
 40
1.0
 40
1.0
 40
1.0
 10
679.2787092593743
 20
1971.421161675088
 30
0.0
 10
679.2651240728211
 20
1972.636195000327
 30
0.0
 10
678.9628637516695
 20
1975.050186206399
 30
0.0
 10
678.1104235344271
 20
1977.432026523659
 30
0.0
 10
677.546658451783
 20
1978.614908960086
 30
0.0
  0
LINE
  5
ED
330
87
100
AcDbEntity
  8
P-SANR-FIXT
100
AcDbLine
 10
655.0107600669262
 20
1964.227414390151
 30
0.0
 11
655.0107600669262
 21
1964.000000000006
 31
0.0
  0
LINE
  5
EE
330
87
100
AcDbEntity
  8
P-SANR-FIXT
100
AcDbLine
 10
677.546658451816
 20
1964.000000000006
 30
0.0
 11
677.546658451816
 21
1964.22741439015
 31
0.0
  0
LINE
  5
EF
330
87
100
AcDbEntity
  8
P-SANR-FIXT
100
AcDbLine
 10
655.0107600669262
 20
2035.999999999984
 30
0.0
 11
655.0107600669262
 21
2035.772585609829
 31
0.0
  0
LINE
  5
F0
330
87
100
AcDbEntity
  8
P-SANR-FIXT
100
AcDbLine
 10
655.0107600669308
 20
2035.772585609829
 30
0.0
 11
677.5466584518113
 21
2035.772585609829
 31
0.0
  0
LINE
  5
F1
330
87
100
AcDbEntity
  8
P-SANR-FIXT
100
AcDbLine
 10
677.546658451816
 20
2035.772585609829
 30
0.0
 11
677.546658451816
 21
2035.999999999984
 31
0.0
  0
SPLINE
  5
F2
330
87
100
AcDbEntity
  8
P-SANR-FIXT
100
AcDbSpline
210
0.0
220
0.0
230
1.0
 70
     8
 71
     3
 72
     9
 73
     5
 74
     0
 42
0.000000001
 43
0.0000000001
 40
0.0
 40
0.0
 40
0.0
 40
0.0
 40
0.5
 40
1.0
 40
1.0
 40
1.0
 40
1.0
 10
655.0107600669308
 20
2035.772585609829
 30
0.0
 10
654.4469949843053
 20
2034.589703173419
 30
0.0
 10
653.5945547670868
 20
2032.207862856193
 30
0.0
 10
653.2922944459343
 20
2029.793871650156
 30
0.0
 10
653.2787092593744
 20
2028.578838324936
 30
0.0
  0
SPLINE
  5
F3
330
87
100
AcDbEntity
  8
P-SANR-FIXT
100
AcDbSpline
210
0.0
220
0.0
230
1.0
 70
     8
 71
     3
 72
     9
 73
     5
 74
     0
 42
0.000000001
 43
0.0000000001
 40
0.0
 40
0.0
 40
0.0
 40
0.0
 40
0.5
 40
1.0
 40
1.0
 40
1.0
 40
1.0
 10
653.2787092593744
 20
2028.578838324936
 30
0.0
 10
653.2922944459345
 20
2027.363804999704
 30
0.0
 10
653.5945547670924
 20
2024.949813793647
 30
0.0
 10
654.4469949843244
 20
2022.567973476401
 30
0.0
 10
655.0107600669591
 20
2021.38509103998
 30
0.0
  0
LINE
  5
F4
330
87
100
AcDbEntity
  8
P-SANR-FIXT
100
AcDbLine
 10
655.0107600669591
 20
2021.38509103998
 30
0.0
 11
677.5466584517828
 21
2021.38509103998
 31
0.0
  0
SPLINE
  5
F5
330
87
100
AcDbEntity
  8
P-SANR-FIXT
100
AcDbSpline
210
0.0
220
0.0
230
1.0
 70
     8
 71
     3
 72
     9
 73
     5
 74
     0
 42
0.000000001
 43
0.0000000001
 40
0.0
 40
0.0
 40
0.0
 40
0.0
 40
0.5
 40
1.0
 40
1.0
 40
1.0
 40
1.0
 10
677.5466584517828
 20
2021.38509103998
 30
0.0
 10
678.1104235344165
 20
2022.567973476401
 30
0.0
 10
678.9628637516486
 20
2024.949813793647
 30
0.0
 10
679.2651240728106
 20
2027.363804999704
 30
0.0
 10
679.2787092593743
 20
2028.578838324936
 30
0.0
  0
SPLINE
  5
F6
330
87
100
AcDbEntity
  8
P-SANR-FIXT
100
AcDbSpline
210
0.0
220
0.0
230
1.0
 70
     8
 71
     3
 72
     9
 73
     5
 74
     0
 42
0.000000001
 43
0.0000000001
 40
0.0
 40
0.0
 40
0.0
 40
0.0
 40
0.5
 40
1.0
 40
1.0
 40
1.0
 40
1.0
 10
679.2787092593743
 20
2028.578838324936
 30
0.0
 10
679.2651240728113
 20
2029.793871650156
 30
0.0
 10
678.9628637516543
 20
2032.207862856193
 30
0.0
 10
678.1104235344359
 20
2034.589703173419
 30
0.0
 10
677.5466584518113
 20
2035.772585609829
 30
0.0
  0
LINE
  5
F7
330
87
100
AcDbEntity
  8
P-SANR-FIXT
100
AcDbLine
 10
655.010760066926
 20
2021.38509103998
 30
0.0
 11
655.010760066926
 21
2014.387494569898
 31
0.0
  0
LINE
  5
F8
330
87
100
AcDbEntity
  8
P-SANR-FIXT
100
AcDbLine
 10
655.0107600669637
 20
2014.387494569898
 30
0.0
 11
677.5466584517783
 21
2014.387494569898
 31
0.0
  0
LINE
  5
F9
330
87
100
AcDbEntity
  8
P-SANR-FIXT
100
AcDbLine
 10
677.5466584518158
 20
2014.387494569898
 30
0.0
 11
677.5466584518158
 21
2021.38509103998
 31
0.0
  0
SPLINE
  5
FA
330
87
100
AcDbEntity
  8
P-SANR-FIXT
100
AcDbSpline
210
0.0
220
0.0
230
1.0
 70
     8
 71
     3
 72
     9
 73
     5
 74
     0
 42
0.000000001
 43
0.0000000001
 40
0.0
 40
0.0
 40
0.0
 40
0.0
 40
0.5
 40
1.0
 40
1.0
 40
1.0
 40
1.0
 10
655.0107600669637
 20
2014.387494569898
 30
0.0
 10
654.4469949843309
 20
2012.021729697059
 30
0.0
 10
653.5945547670999
 20
2007.258049062569
 30
0.0
 10
653.2922944459381
 20
2002.430066650457
 30
0.0
 10
653.2787092593743
 20
1999.999999999995
 30
0.0
  0
SPLINE
  5
FB
330
87
100
AcDbEntity
  8
P-SANR-FIXT
100
AcDbSpline
210
0.0
220
0.0
230
1.0
 70
     8
 71
     3
 72
     9
 73
     5
 74
     0
 42
0.000000001
 43
0.0000000001
 40
0.0
 40
0.0
 40
0.0
 40
0.0
 40
0.5
 40
1.0
 40
1.0
 40
1.0
 40
1.0
 10
653.2787092593743
 20
1999.999999999995
 30
0.0
 10
653.2922944459381
 20
1997.569933349534
 30
0.0
 10
653.5945547670999
 20
1992.741950937422
 30
0.0
 10
654.4469949843308
 20
1987.978270302933
 30
0.0
 10
655.0107600669634
 20
1985.612505430093
 30
0.0
  0
LINE
  5
FC
330
87
100
AcDbEntity
  8
P-SANR-FIXT
100
AcDbLine
 10
677.5466584517784
 20
1985.612505430093
 30
0.0
 11
655.0107600669634
 21
1985.612505430093
 31
0.0
  0
SPLINE
  5
FD
330
87
100
AcDbEntity
  8
P-SANR-FIXT
100
AcDbSpline
210
0.0
220
0.0
230
1.0
 70
     8
 71
     3
 72
     9
 73
     5
 74
     0
 42
0.000000001
 43
0.0000000001
 40
0.0
 40
0.0
 40
0.0
 40
0.0
 40
0.5
 40
1.0
 40
1.0
 40
1.0
 40
1.0
 10
677.5466584517784
 20
1985.612505430093
 30
0.0
 10
678.11042353441
 20
1987.978270302933
 30
0.0
 10
678.962863751641
 20
1992.741950937422
 30
0.0
 10
679.2651240728072
 20
1997.569933349534
 30
0.0
 10
679.2787092593742
 20
1999.999999999995
 30
0.0
  0
SPLINE
  5
FE
330
87
100
AcDbEntity
  8
P-SANR-FIXT
100
AcDbSpline
210
0.0
220
0.0
230
1.0
 70
     8
 71
     3
 72
     9
 73
     5
 74
     0
 42
0.000000001
 43
0.0000000001
 40
0.0
 40
0.0
 40
0.0
 40
0.0
 40
0.5
 40
1.0
 40
1.0
 40
1.0
 40
1.0
 10
679.2787092593742
 20
1999.999999999995
 30
0.0
 10
679.2651240728072
 20
2002.430066650457
 30
0.0
 10
678.962863751641
 20
2007.258049062568
 30
0.0
 10
678.11042353441
 20
2012.021729697059
 30
0.0
 10
677.5466584517783
 20
2014.387494569898
 30
0.0
  0
LINE
  5
FF
330
87
100
AcDbEntity
  8
P-SANR-FIXT
100
AcDbLine
 10
783.0107600669302
 20
1964.000000000007
 30
0.0
 11
805.54665845182
 21
1964.000000000007
 31
0.0
  0
LINE
  5
100
330
87
100
AcDbEntity
  8
P-SANR-FIXT
100
AcDbLine
 10
805.54665845182
 20
2035.999999999985
 30
0.0
 11
783.0107600669302
 21
2035.999999999985
 31
0.0
  0
LINE
  5
101
330
87
100
AcDbEntity
  8
P-SANR-FIXT
100
AcDbLine
 10
781.2787092593721
 20
1966.999999999989
 30
0.0
 11
782.977909666804
 21
1964.056898562074
 31
0.0
  0
LINE
  5
102
330
87
100
AcDbEntity
  8
P-SANR-FIXT
100
AcDbLine
 10
782.9794160711785
 20
1964.054289393161
 30
0.0
 11
783.0107600669334
 21
1964.000000000001
 31
0.0
  0
LINE
  5
103
330
87
100
AcDbEntity
  8
P-SANR-FIXT
100
AcDbLine
 10
783.0107600669304
 20
2035.999999999985
 30
0.0
 11
782.9794160711784
 21
2035.94571060683
 31
0.0
  0
LINE
  5
104
330
87
100
AcDbEntity
  8
P-SANR-FIXT
100
AcDbLine
 10
782.9779096668029
 20
2035.943101437915
 30
0.0
 11
781.2787092593721
 21
2033.000000000003
 31
0.0
  0
LINE
  5
105
330
87
100
AcDbEntity
  8
P-SANR-FIXT
100
AcDbLine
 10
805.5466584518201
 20
1964.000000000007
 30
0.0
 11
805.5780024475716
 21
1964.054289393161
 31
0.0
  0
LINE
  5
106
330
87
100
AcDbEntity
  8
P-SANR-FIXT
100
AcDbLine
 10
805.579508851946
 20
1964.056898562074
 30
0.0
 11
807.2787092593719
 21
1966.999999999978
 31
0.0
  0
LINE
  5
107
330
87
100
AcDbEntity
  8
P-SANR-FIXT
100
AcDbLine
 10
807.2787092593719
 20
2033.000000000014
 30
0.0
 11
805.5795088519472
 21
2035.943101437915
 31
0.0
  0
LINE
  5
108
330
87
100
AcDbEntity
  8
P-SANR-FIXT
100
AcDbLine
 10
805.5780024475719
 20
2035.94571060683
 30
0.0
 11
805.5466584518164
 21
2035.999999999991
 31
0.0
  0
LINE
  5
109
330
87
100
AcDbEntity
  8
P-SANR-FIXT
100
AcDbLine
 10
807.2787092593705
 20
1970.68594741928
 30
0.0
 11
807.2787092593705
 21
1971.421161675092
 31
0.0
  0
LINE
  5
10A
330
87
100
AcDbEntity
  8
P-SANR-FIXT
100
AcDbLine
 10
807.2787092593705
 20
1971.421161675092
 30
0.0
 11
807.2787092593705
 21
1972.160965605156
 31
0.0
  0
LINE
  5
10B
330
87
100
AcDbEntity
  8
P-SANR-FIXT
100
AcDbLine
 10
807.2787092593705
 20
2027.839034394693
 30
0.0
 11
807.2787092593705
 21
2028.578838324897
 31
0.0
  0
LINE
  5
10C
330
87
100
AcDbEntity
  8
P-SANR-FIXT
100
AcDbLine
 10
807.2787092593705
 20
2028.578838324897
 30
0.0
 11
807.2787092593705
 21
2029.314052580712
 31
0.0
  0
LINE
  5
10D
330
87
100
AcDbEntity
  8
P-SANR-FIXT
100
AcDbLine
 10
807.2787092593705
 20
2033.000000000013
 30
0.0
 11
807.2787092593705
 21
2028.578838324897
 31
0.0
  0
LINE
  5
10E
330
87
100
AcDbEntity
  8
P-SANR-FIXT
100
AcDbLine
 10
807.2787092593705
 20
2028.578838324898
 30
0.0
 11
807.2787092593701
 21
1999.999999999996
 31
0.0
  0
LINE
  5
10F
330
87
100
AcDbEntity
  8
P-SANR-FIXT
100
AcDbLine
 10
807.2787092593701
 20
1999.999999999995
 30
0.0
 11
807.2787092593705
 21
1971.421161675093
 31
0.0
  0
LINE
  5
110
330
87
100
AcDbEntity
  8
P-SANR-FIXT
100
AcDbLine
 10
807.2787092593705
 20
1971.421161675093
 30
0.0
 11
807.2787092593705
 21
1966.999999999977
 31
0.0
  0
LINE
  5
111
330
87
100
AcDbEntity
  8
P-SANR-FIXT
100
AcDbLine
 10
781.2787092593704
 20
1966.999999999988
 30
0.0
 11
781.2787092593704
 21
1971.421161675103
 31
0.0
  0
LINE
  5
112
330
87
100
AcDbEntity
  8
P-SANR-FIXT
100
AcDbLine
 10
781.2787092593704
 20
1971.421161675103
 30
0.0
 11
781.2787092593703
 21
1999.999999999995
 31
0.0
  0
LINE
  5
113
330
87
100
AcDbEntity
  8
P-SANR-FIXT
100
AcDbLine
 10
781.2787092593703
 20
1999.999999999995
 30
0.0
 11
781.2787092593704
 21
2028.578838324888
 31
0.0
  0
LINE
  5
114
330
87
100
AcDbEntity
  8
P-SANR-FIXT
100
AcDbLine
 10
781.2787092593704
 20
2028.578838324888
 30
0.0
 11
781.2787092593704
 21
2033.000000000002
 31
0.0
  0
LINE
  5
115
330
87
100
AcDbEntity
  8
P-SANR-FIXT
100
AcDbLine
 10
805.5466584517811
 20
1985.612505430094
 30
0.0
 11
783.0107600669661
 21
1985.612505430094
 31
0.0
  0
LINE
  5
116
330
87
100
AcDbEntity
  8
P-SANR-FIXT
100
AcDbLine
 10
783.0107600669285
 20
1985.612505430094
 30
0.0
 11
783.0107600669285
 21
1978.614908960087
 31
0.0
  0
LINE
  5
117
330
87
100
AcDbEntity
  8
P-SANR-FIXT
100
AcDbLine
 10
805.5466584518185
 20
1978.614908960087
 30
0.0
 11
805.5466584518185
 21
1985.612505430094
 31
0.0
  0
LINE
  5
118
330
87
100
AcDbEntity
  8
P-SANR-FIXT
100
AcDbLine
 10
783.0107600669615
 20
1978.614908960086
 30
0.0
 11
805.5466584517855
 21
1978.614908960086
 31
0.0
  0
SPLINE
  5
119
330
87
100
AcDbEntity
  8
P-SANR-FIXT
100
AcDbSpline
210
0.0
220
0.0
230
1.0
 70
     8
 71
     3
 72
     9
 73
     5
 74
     0
 42
0.000000001
 43
0.0000000001
 40
0.0
 40
0.0
 40
0.0
 40
0.0
 40
0.5
 40
1.0
 40
1.0
 40
1.0
 40
1.0
 10
783.0107600669615
 20
1978.614908960086
 30
0.0
 10
782.4469949843173
 20
1977.432026523659
 30
0.0
 10
781.5945547670748
 20
1975.050186206399
 30
0.0
 10
781.2922944459232
 20
1972.636195000327
 30
0.0
 10
781.2787092593704
 20
1971.421161675088
 30
0.0
  0
SPLINE
  5
11A
330
87
100
AcDbEntity
  8
P-SANR-FIXT
100
AcDbSpline
210
0.0
220
0.0
230
1.0
 70
     8
 71
     3
 72
     9
 73
     5
 74
     0
 42
0.000000001
 43
0.0000000001
 40
0.0
 40
0.0
 40
0.0
 40
0.0
 40
0.5
 40
1.0
 40
1.0
 40
1.0
 40
1.0
 10
781.2787092593704
 20
1971.421161675088
 30
0.0
 10
781.2922944459231
 20
1970.206128349859
 30
0.0
 10
781.5945547670694
 20
1967.792137143808
 30
0.0
 10
782.4469949842981
 20
1965.410296826568
 30
0.0
 10
783.0107600669332
 20
1964.227414390151
 30
0.0
  0
SPLINE
  5
11B
330
87
100
AcDbEntity
  8
P-SANR-FIXT
100
AcDbSpline
210
0.0
220
0.0
230
1.0
 70
     8
 71
     3
 72
     9
 73
     5
 74
     0
 42
0.000000001
 43
0.0000000001
 40
0.0
 40
0.0
 40
0.0
 40
0.0
 40
0.5
 40
1.0
 40
1.0
 40
1.0
 40
1.0
 10
805.5466584518141
 20
1964.227414390151
 30
0.0
 10
806.1104235344501
 20
1965.410296826568
 30
0.0
 10
806.9628637516789
 20
1967.792137143808
 30
0.0
 10
807.2651240728209
 20
1970.206128349859
 30
0.0
 10
807.2787092593705
 20
1971.421161675088
 30
0.0
  0
SPLINE
  5
11C
330
87
100
AcDbEntity
  8
P-SANR-FIXT
100
AcDbSpline
210
0.0
220
0.0
230
1.0
 70
     8
 71
     3
 72
     9
 73
     5
 74
     0
 42
0.000000001
 43
0.0000000001
 40
0.0
 40
0.0
 40
0.0
 40
0.0
 40
0.5
 40
1.0
 40
1.0
 40
1.0
 40
1.0
 10
807.2787092593705
 20
1971.421161675088
 30
0.0
 10
807.2651240728204
 20
1972.636195000327
 30
0.0
 10
806.962863751673
 20
1975.050186206399
 30
0.0
 10
806.1104235344306
 20
1977.43202652366
 30
0.0
 10
805.5466584517855
 20
1978.614908960086
 30
0.0
  0
LINE
  5
11D
330
87
100
AcDbEntity
  8
P-SANR-FIXT
100
AcDbLine
 10
783.0107600669332
 20
1964.227414390151
 30
0.0
 11
805.5466584518141
 21
1964.227414390151
 31
0.0
  0
LINE
  5
11E
330
87
100
AcDbEntity
  8
P-SANR-FIXT
100
AcDbLine
 10
783.0107600669287
 20
1964.227414390151
 30
0.0
 11
783.0107600669287
 21
1964.000000000007
 31
0.0
  0
LINE
  5
11F
330
87
100
AcDbEntity
  8
P-SANR-FIXT
100
AcDbLine
 10
805.5466584518185
 20
1964.000000000007
 30
0.0
 11
805.5466584518185
 21
1964.227414390151
 31
0.0
  0
LINE
  5
120
330
87
100
AcDbEntity
  8
P-SANR-FIXT
100
AcDbLine
 10
783.0107600669287
 20
2035.999999999984
 30
0.0
 11
783.0107600669287
 21
2035.77258560983
 31
0.0
  0
LINE
  5
121
330
87
100
AcDbEntity
  8
P-SANR-FIXT
100
AcDbLine
 10
805.5466584518185
 20
2035.77258560983
 30
0.0
 11
805.5466584518185
 21
2035.999999999984
 31
0.0
  0
LINE
  5
122
330
87
100
AcDbEntity
  8
P-SANR-FIXT
100
AcDbLine
 10
783.0107600669334
 20
2035.77258560983
 30
0.0
 11
805.5466584518139
 21
2035.77258560983
 31
0.0
  0
SPLINE
  5
123
330
87
100
AcDbEntity
  8
P-SANR-FIXT
100
AcDbSpline
210
0.0
220
0.0
230
1.0
 70
     8
 71
     3
 72
     9
 73
     5
 74
     0
 42
0.000000001
 43
0.0000000001
 40
0.0
 40
0.0
 40
0.0
 40
0.0
 40
0.5
 40
1.0
 40
1.0
 40
1.0
 40
1.0
 10
783.0107600669334
 20
2035.77258560983
 30
0.0
 10
782.4469949843088
 20
2034.589703173419
 30
0.0
 10
781.5945547670903
 20
2032.207862856193
 30
0.0
 10
781.2922944459336
 20
2029.793871650157
 30
0.0
 10
781.2787092593704
 20
2028.578838324936
 30
0.0
  0
SPLINE
  5
124
330
87
100
AcDbEntity
  8
P-SANR-FIXT
100
AcDbSpline
210
0.0
220
0.0
230
1.0
 70
     8
 71
     3
 72
     9
 73
     5
 74
     0
 42
0.000000001
 43
0.0000000001
 40
0.0
 40
0.0
 40
0.0
 40
0.0
 40
0.5
 40
1.0
 40
1.0
 40
1.0
 40
1.0
 10
781.2787092593704
 20
2028.578838324936
 30
0.0
 10
781.2922944459338
 20
2027.363804999704
 30
0.0
 10
781.5945547670959
 20
2024.949813793647
 30
0.0
 10
782.4469949843279
 20
2022.567973476401
 30
0.0
 10
783.0107600669617
 20
2021.385091039981
 30
0.0
  0
SPLINE
  5
125
330
87
100
AcDbEntity
  8
P-SANR-FIXT
100
AcDbSpline
210
0.0
220
0.0
230
1.0
 70
     8
 71
     3
 72
     9
 73
     5
 74
     0
 42
0.000000001
 43
0.0000000001
 40
0.0
 40
0.0
 40
0.0
 40
0.0
 40
0.5
 40
1.0
 40
1.0
 40
1.0
 40
1.0
 10
805.5466584517855
 20
2021.385091039981
 30
0.0
 10
806.1104235344201
 20
2022.567973476401
 30
0.0
 10
806.9628637516521
 20
2024.949813793647
 30
0.0
 10
807.2651240728099
 20
2027.363804999704
 30
0.0
 10
807.2787092593705
 20
2028.578838324936
 30
0.0
  0
SPLINE
  5
126
330
87
100
AcDbEntity
  8
P-SANR-FIXT
100
AcDbSpline
210
0.0
220
0.0
230
1.0
 70
     8
 71
     3
 72
     9
 73
     5
 74
     0
 42
0.000000001
 43
0.0000000001
 40
0.0
 40
0.0
 40
0.0
 40
0.0
 40
0.5
 40
1.0
 40
1.0
 40
1.0
 40
1.0
 10
807.2787092593705
 20
2028.578838324936
 30
0.0
 10
807.2651240728104
 20
2029.793871650157
 30
0.0
 10
806.9628637516577
 20
2032.207862856193
 30
0.0
 10
806.1104235344394
 20
2034.589703173419
 30
0.0
 10
805.5466584518139
 20
2035.77258560983
 30
0.0
  0
LINE
  5
127
330
87
100
AcDbEntity
  8
P-SANR-FIXT
100
AcDbLine
 10
783.0107600669617
 20
2021.385091039981
 30
0.0
 11
805.5466584517855
 21
2021.385091039981
 31
0.0
  0
LINE
  5
128
330
87
100
AcDbEntity
  8
P-SANR-FIXT
100
AcDbLine
 10
783.0107600669285
 20
2021.385091039981
 30
0.0
 11
783.0107600669285
 21
2014.387494569898
 31
0.0
  0
LINE
  5
129
330
87
100
AcDbEntity
  8
P-SANR-FIXT
100
AcDbLine
 10
805.5466584518185
 20
2014.387494569898
 30
0.0
 11
805.5466584518185
 21
2021.38509103998
 31
0.0
  0
SPLINE
  5
12A
330
87
100
AcDbEntity
  8
P-SANR-FIXT
100
AcDbSpline
210
0.0
220
0.0
230
1.0
 70
     8
 71
     3
 72
     9
 73
     5
 74
     0
 42
0.000000001
 43
0.0000000001
 40
0.0
 40
0.0
 40
0.0
 40
0.0
 40
0.5
 40
1.0
 40
1.0
 40
1.0
 40
1.0
 10
805.5466584517811
 20
1985.612505430094
 30
0.0
 10
806.1104235344135
 20
1987.978270302933
 30
0.0
 10
806.9628637516446
 20
1992.741950937423
 30
0.0
 10
807.2651240728063
 20
1997.569933349534
 30
0.0
 10
807.2787092593701
 20
1999.999999999996
 30
0.0
  0
SPLINE
  5
12B
330
87
100
AcDbEntity
  8
P-SANR-FIXT
100
AcDbSpline
210
0.0
220
0.0
230
1.0
 70
     8
 71
     3
 72
     9
 73
     5
 74
     0
 42
0.000000001
 43
0.0000000001
 40
0.0
 40
0.0
 40
0.0
 40
0.0
 40
0.5
 40
1.0
 40
1.0
 40
1.0
 40
1.0
 10
807.2787092593701
 20
1999.999999999996
 30
0.0
 10
807.2651240728063
 20
2002.430066650457
 30
0.0
 10
806.9628637516446
 20
2007.258049062569
 30
0.0
 10
806.1104235344135
 20
2012.021729697059
 30
0.0
 10
805.5466584517809
 20
2014.387494569898
 30
0.0
  0
LINE
  5
12C
330
87
100
AcDbEntity
  8
P-SANR-FIXT
100
AcDbLine
 10
783.0107600669662
 20
2014.387494569898
 30
0.0
 11
805.5466584517809
 21
2014.387494569898
 31
0.0
  0
SPLINE
  5
12D
330
87
100
AcDbEntity
  8
P-SANR-FIXT
100
AcDbSpline
210
0.0
220
0.0
230
1.0
 70
     8
 71
     3
 72
     9
 73
     5
 74
     0
 42
0.000000001
 43
0.0000000001
 40
0.0
 40
0.0
 40
0.0
 40
0.0
 40
0.5
 40
1.0
 40
1.0
 40
1.0
 40
1.0
 10
783.0107600669662
 20
2014.387494569898
 30
0.0
 10
782.4469949843344
 20
2012.021729697059
 30
0.0
 10
781.5945547671035
 20
2007.258049062569
 30
0.0
 10
781.2922944459373
 20
2002.430066650457
 30
0.0
 10
781.2787092593703
 20
1999.999999999996
 30
0.0
  0
SPLINE
  5
12E
330
87
100
AcDbEntity
  8
P-SANR-FIXT
100
AcDbSpline
210
0.0
220
0.0
230
1.0
 70
     8
 71
     3
 72
     9
 73
     5
 74
     0
 42
0.000000001
 43
0.0000000001
 40
0.0
 40
0.0
 40
0.0
 40
0.0
 40
0.5
 40
1.0
 40
1.0
 40
1.0
 40
1.0
 10
781.2787092593703
 20
1999.999999999996
 30
0.0
 10
781.2922944459373
 20
1997.569933349534
 30
0.0
 10
781.5945547671033
 20
1992.741950937423
 30
0.0
 10
782.4469949843344
 20
1987.978270302934
 30
0.0
 10
783.0107600669661
 20
1985.612505430094
 30
0.0
  0
LINE
  5
12F
330
87
100
AcDbEntity
  8
P-SANR-FIXT
100
AcDbLine
 10
838.2787092593966
 20
2023.899999999998
 30
0.0
 11
818.4911448246923
 21
2023.899999999998
 31
0.0
  0
LINE
  5
130
330
87
100
AcDbEntity
  8
P-SANR-FIXT
100
AcDbLine
 10
818.4911448246921
 20
1976.099999999994
 30
0.0
 11
838.2787092593964
 21
1976.099999999993
 31
0.0
  0
LINE
  5
131
330
87
100
AcDbEntity
  8
P-SANR-FIXT
100
AcDbLine
 10
840.2787092593973
 20
2021.899999999997
 30
0.0
 11
838.2787092593966
 21
2023.899999999998
 31
0.0
  0
LINE
  5
132
330
87
100
AcDbEntity
  8
P-SANR-FIXT
100
AcDbLine
 10
838.2787092593964
 20
1976.099999999993
 30
0.0
 11
840.2787092593973
 21
1978.099999999994
 31
0.0
  0
LINE
  5
133
330
87
100
AcDbEntity
  8
P-SANR-FIXT
100
AcDbLine
 10
807.2787092593719
 20
1976.100000000019
 30
0.0
 11
818.4911448246921
 21
1976.100000000019
 31
0.0
  0
LINE
  5
134
330
87
100
AcDbEntity
  8
P-SANR-FIXT
100
AcDbLine
 10
818.4911448246923
 20
2023.899999999974
 30
0.0
 11
807.2787092593719
 21
2023.899999999974
 31
0.0
  0
LINE
  5
135
330
87
100
AcDbEntity
  8
P-SANR-FIXT
100
AcDbLine
 10
818.4911448246905
 20
1990.66137055043
 30
0.0
 11
818.4911448246905
 21
2009.33862944956
 31
0.0
  0
LINE
  5
136
330
87
100
AcDbEntity
  8
P-SANR-FIXT
100
AcDbLine
 10
818.4911448246905
 20
1976.278126391868
 30
0.0
 11
818.4911448246905
 21
1985.616755841518
 31
0.0
  0
LINE
  5
137
330
87
100
AcDbEntity
  8
P-SANR-FIXT
100
AcDbLine
 10
818.4911448246905
 20
2014.383244158473
 30
0.0
 11
818.4911448246909
 21
2023.721873608121
 31
0.0
  0
LINE
  5
138
330
87
100
AcDbEntity
  8
P-SANR-FIXT
100
AcDbLine
 10
838.278709259395
 20
1976.099999999993
 30
0.0
 11
838.278709259395
 21
2023.899999999997
 31
0.0
  0
LINE
  5
139
330
87
100
AcDbEntity
  8
P-SANR-FIXT
100
AcDbLine
 10
840.2787092593959
 20
2021.899999999996
 30
0.0
 11
840.2787092593957
 21
1978.099999999994
 31
0.0
  0
LINE
  5
13A
330
87
100
AcDbEntity
  8
P-SANR-FIXT
100
AcDbLine
 10
807.2787092593701
 20
1998.472524931079
 30
0.0
 11
807.2787092593701
 21
2001.530666354488
 31
0.0
  0
LINE
  5
13B
330
87
100
AcDbEntity
  8
P-SANR-FIXT
100
AcDbLine
 10
807.2787092593701
 20
1990.661370550326
 30
0.0
 11
818.4911448246905
 21
1990.661370550326
 31
0.0
  0
LINE
  5
13C
330
87
100
AcDbEntity
  8
P-SANR-FIXT
100
AcDbLine
 10
807.2787092593701
 20
1985.616755841559
 30
0.0
 11
818.4911448246905
 21
1985.616755841559
 31
0.0
  0
LINE
  5
13D
330
87
100
AcDbEntity
  8
P-SANR-FIXT
100
AcDbLine
 10
807.2787092593701
 20
1976.278126391889
 30
0.0
 11
818.4911448246905
 21
1976.278126391889
 31
0.0
  0
LINE
  5
13E
330
87
100
AcDbEntity
  8
P-SANR-FIXT
100
AcDbLine
 10
807.2787092593705
 20
2023.721873608101
 30
0.0
 11
818.4911448246909
 21
2023.721873608101
 31
0.0
  0
LINE
  5
13F
330
87
100
AcDbEntity
  8
P-SANR-FIXT
100
AcDbLine
 10
807.2787092593701
 20
2014.383244158432
 30
0.0
 11
818.4911448246905
 21
2014.383244158432
 31
0.0
  0
LINE
  5
140
330
87
100
AcDbEntity
  8
P-SANR-FIXT
100
AcDbLine
 10
818.4911448246905
 20
2009.338629449665
 30
0.0
 11
807.2787092593701
 21
2009.338629449665
 31
0.0
  0
LINE
  5
141
330
87
100
AcDbEntity
  8
P-SANR-FIXT
100
AcDbLine
 10
642.0662736940553
 20
2023.899999999998
 30
0.0
 11
622.278709259351
 21
2023.899999999998
 31
0.0
  0
LINE
  5
142
330
87
100
AcDbEntity
  8
P-SANR-FIXT
100
AcDbLine
 10
622.278709259351
 20
1976.099999999994
 30
0.0
 11
642.0662736940553
 21
1976.099999999994
 31
0.0
  0
LINE
  5
143
330
87
100
AcDbEntity
  8
P-SANR-FIXT
100
AcDbLine
 10
622.278709259351
 20
2023.899999999998
 30
0.0
 11
620.2787092593504
 21
2021.899999999997
 31
0.0
  0
LINE
  5
144
330
87
100
AcDbEntity
  8
P-SANR-FIXT
100
AcDbLine
 10
620.2787092593504
 20
1978.099999999994
 30
0.0
 11
622.278709259351
 21
1976.099999999994
 31
0.0
  0
LINE
  5
145
330
87
100
AcDbEntity
  8
P-SANR-FIXT
100
AcDbLine
 10
642.0662736940553
 20
1976.100000000019
 30
0.0
 11
653.2787092593757
 21
1976.100000000019
 31
0.0
  0
LINE
  5
146
330
87
100
AcDbEntity
  8
P-SANR-FIXT
100
AcDbLine
 10
653.2787092593757
 20
2023.899999999974
 30
0.0
 11
642.0662736940553
 21
2023.899999999974
 31
0.0
  0
LINE
  5
147
330
87
100
AcDbEntity
  8
P-SANR-FIXT
100
AcDbLine
 10
620.2787092593488
 20
1978.099999999994
 30
0.0
 11
620.2787092593488
 21
2021.899999999996
 31
0.0
  0
LINE
  5
148
330
87
100
AcDbEntity
  8
P-SANR-FIXT
100
AcDbLine
 10
642.0662736940538
 20
1985.616755841518
 30
0.0
 11
642.0662736940539
 21
1976.278126391868
 31
0.0
  0
LINE
  5
149
330
87
100
AcDbEntity
  8
P-SANR-FIXT
100
AcDbLine
 10
642.0662736940538
 20
2009.33862944956
 30
0.0
 11
642.0662736940538
 21
1990.66137055043
 31
0.0
  0
LINE
  5
14A
330
87
100
AcDbEntity
  8
P-SANR-FIXT
100
AcDbLine
 10
642.0662736940539
 20
2023.721873608121
 30
0.0
 11
642.0662736940538
 21
2014.383244158473
 31
0.0
  0
LINE
  5
14B
330
87
100
AcDbEntity
  8
P-SANR-FIXT
100
AcDbLine
 10
622.2787092593496
 20
2023.899999999997
 30
0.0
 11
622.2787092593496
 21
1976.099999999993
 31
0.0
  0
LINE
  5
14C
330
87
100
AcDbEntity
  8
P-SANR-FIXT
100
AcDbLine
 10
653.2787092593743
 20
2001.530666354487
 30
0.0
 11
653.2787092593743
 21
1998.472524931079
 31
0.0
  0
LINE
  5
14D
330
87
100
AcDbEntity
  8
P-SANR-FIXT
100
AcDbLine
 10
653.2787092593743
 20
2009.338629449665
 30
0.0
 11
642.0662736940531
 21
2009.338629449665
 31
0.0
  0
LINE
  5
14E
330
87
100
AcDbEntity
  8
P-SANR-FIXT
100
AcDbLine
 10
642.0662736940531
 20
1990.661370550326
 30
0.0
 11
653.2787092593743
 21
1990.661370550326
 31
0.0
  0
LINE
  5
14F
330
87
100
AcDbEntity
  8
P-SANR-FIXT
100
AcDbLine
 10
642.0662736940531
 20
1985.616755841559
 30
0.0
 11
653.2787092593743
 21
1985.616755841559
 31
0.0
  0
LINE
  5
150
330
87
100
AcDbEntity
  8
P-SANR-FIXT
100
AcDbLine
 10
642.0662736940532
 20
1976.278126391889
 30
0.0
 11
653.2787092593744
 21
1976.278126391889
 31
0.0
  0
LINE
  5
151
330
87
100
AcDbEntity
  8
P-SANR-FIXT
100
AcDbLine
 10
642.0662736940532
 20
2023.721873608101
 30
0.0
 11
653.2787092593744
 21
2023.721873608101
 31
0.0
  0
LINE
  5
152
330
87
100
AcDbEntity
  8
P-SANR-FIXT
100
AcDbLine
 10
642.0662736940531
 20
2014.383244158432
 30
0.0
 11
653.2787092593743
 21
2014.383244158432
 31
0.0
  0
LINE
  5
153
330
87
100
AcDbEntity
  8
P-SANR-FIXT
100
AcDbLine
 10
770.6919530984954
 20
2027.980055864833
 30
0.0
 11
776.9629938093828
 21
2049.849773817896
 31
0.0
  0
LINE
  5
154
330
87
100
AcDbEntity
  8
P-SANR-FIXT
100
AcDbLine
 10
779.4367919128935
 20
2051.221022498138
 30
0.0
 11
780.6135506397725
 21
2051.873310511824
 31
0.0
  0
LINE
  5
155
330
87
100
AcDbEntity
  8
P-SANR-FIXT
100
AcDbLine
 10
780.6165524798839
 20
2051.874974458968
 30
0.0
 11
780.6736909646488
 21
2051.90664683826
 31
0.0
  0
LINE
  5
156
330
87
100
AcDbEntity
  8
P-SANR-FIXT
100
AcDbLine
 10
780.6736909646488
 20
2051.90664683826
 30
0.0
 11
783.237118373747
 21
2060.846380610486
 31
0.0
  0
LINE
  5
157
330
87
100
AcDbEntity
  8
P-SANR-FIXT
100
AcDbLine
 10
765.9344078468572
 20
2065.807853015192
 30
0.0
 11
763.4235758150749
 21
2057.051541121497
 31
0.0
  0
LINE
  5
158
330
87
100
AcDbEntity
  8
P-SANR-FIXT
100
AcDbLine
 10
783.237118373747
 20
2060.846380610486
 30
0.0
 11
782.7571813356618
 21
2061.712209946715
 31
0.0
  0
LINE
  5
159
330
87
100
AcDbEntity
  8
P-SANR-FIXT
100
AcDbLine
 10
766.8002371830858
 20
2066.287790053277
 30
0.0
 11
765.9344078468572
 21
2065.807853015192
 31
0.0
  0
LWPOLYLINE
  5
15A
330
87
100
AcDbEntity
  8
P-SANR-FIXT
100
AcDbPolyline
 90
       41
 70
   128
 43
0.0
 10
779.4367919128933
 20
2051.221022498139
 10
779.3594705215241
 20
2051.241529793156
 10
779.2813909059471
 20
2051.258928653564
 10
779.2026779768914
 20
2051.2731912449
 10
779.1234576582517
 20
2051.28429475006
 10
779.0438566856388
 20
2051.292221405803
 10
778.9640024036284
 20
2051.296958531171
 10
778.8840225620366
 20
2051.298498547775
 10
778.8040451115489
 20
2051.296838991917
 10
778.7241979990249
 20
2051.29198251853
 10
778.6446089628115
 20
2051.283936896938
 10
778.5654053283885
 20
2051.27271499842
 10
778.4867138046753
 20
2051.258334775616
 10
778.4086602813231
 20
2051.240819233818
 10
778.3313696273189
 20
2051.220196394155
 10
778.2549654912209
 20
2051.196499248772
 10
778.1795701033486
 20
2051.169765708046
 10
778.1053040802389
 20
2051.140038539939
 10
778.0322862316861
 20
2051.107365301579
 10
777.960633370672
 20
2051.071798263178
 10
777.8904601264887
 20
2051.033394324409
 10
777.8218787613576
 20
2050.992214923382
 10
777.7549989908327
 20
2050.948325938355
 10
777.6899278082802
 20
2050.901797582341
 10
777.6267693137111
 20
2050.852704290783
 10
777.5656245472434
 20
2050.801124602477
 10
777.5065913274602
 20
2050.747141033919
 10
777.4497640949198
 20
2050.690839947304
 10
777.3952337610718
 20
2050.632311412362
 10
777.3430875628179
 20
2050.57164906226
 10
777.2934089229516
 20
2050.50894994382
 10
777.2462773166986
 20
2050.444314362255
 10
777.2017681445754
 20
2050.377845720708
 10
777.1599526117621
 20
2050.309650354826
 10
777.1208976141913
 20
2050.239837362648
 10
777.0846656315276
 20
2050.168518430067
 10
777.0513146272144
 20
2050.095807652163
 10
777.0208979557438
 20
2050.021821350668
 10
776.9934642773021
 20
2049.946677887883
 10
776.9690574799219
 20
2049.870497477319
 10
776.9629938093827
 20
2049.849773817896
  0
LWPOLYLINE
  5
15B
330
87
100
AcDbEntity
  8
P-SANR-FIXT
100
AcDbPolyline
 90
       38
 70
   128
 43
0.0
 10
731.1874609302625
 20
1960.579823178237
 10
730.9603533589839
 20
1960.502270154586
 10
730.7303261557589
 20
1960.433861045646
 10
730.4977473150426
 20
1960.374705291398
 10
730.262988913366
 20
1960.32489752843
 10
730.0264265140929
 20
1960.284517438537
 10
729.7884385665979
 20
1960.25362962125
 10
729.549405800829
 20
1960.232283490488
 10
729.3097106182208
 20
1960.220513195504
 10
729.069736479933
 20
1960.218337566262
 10
728.829867293395
 20
1960.225760083303
 10
728.5904867981362
 20
1960.242768872184
 10
728.3519779518837
 20
1960.26933672247
 10
728.1147223179122
 20
1960.305421131269
 10
727.8790994546243
 20
1960.350964371225
 10
727.6454863083381
 20
1960.405893582868
 10
727.4142566102523
 20
1960.470120891178
 10
727.1857802785578
 20
1960.543543546163
 10
726.960422826646
 20
1960.626044087237
 10
726.7385447783667
 20
1960.717490531133
 10
726.5205010912652
 20
1960.817736583049
 10
726.3066405887277
 20
1960.926621870688
 10
726.0973054019371
 20
1961.043972200814
 10
725.8928304225364
 20
1961.169599837936
 10
725.6935427668735
 20
1961.303303804631
 10
725.4997612526852
 20
1961.444870203075
 10
725.3117958890563
 20
1961.59407255723
 10
725.1299473804716
 20
1961.750672175158
 10
724.9545066457524
 20
1961.914418530876
 10
724.7857543526491
 20
1962.085049665144
 10
724.6239604688317
 20
1962.262292604549
 10
724.4693838300001
 20
1962.445863798197
 10
724.3222717258025
 20
1962.635469571337
 10
724.1828595042228
 20
1962.83080659518
 10
724.051370195076
 20
1963.031562372157
 10
723.9280141532073
 20
1963.237415735851
 10
723.8129887219687
 20
1963.448037364792
 10
723.7466893681142
 20
1963.579334628
  0
LINE
  5
15C
330
87
100
AcDbEntity
  8
P-SANR-FIXT
100
AcDbLine
 10
768.6775703664376
 20
1974.225107092388
 30
0.0
 11
768.6645944978002
 21
1974.22038426244
 31
0.0
  0
LWPOLYLINE
  5
15D
330
87
100
AcDbEntity
  8
P-SANR-FIXT
100
AcDbPolyline
 90
        5
 70
   128
 43
0.0
 10
731.3289470618335
 20
1960.631319918691
 10
731.2841509147586
 20
1960.615015454546
 10
731.2230200478477
 20
1960.592765638595
 10
731.1918323811864
 20
1960.581414256254
 10
731.1874609302625
 20
1960.579823178237
  0
LWPOLYLINE
  5
15E
330
87
100
AcDbEntity
  8
P-SANR-FIXT
100
AcDbPolyline
 90
       70
 70
   128
 43
0.0
 10
731.1874609302625
 20
1960.579823178237
 10
731.2024609738887
 20
1960.58528274763
 10
731.247437107897
 20
1960.601652721662
 10
731.3223173800675
 20
1960.628906911865
 10
731.4269819979383
 20
1960.667001717351
 10
731.5612635204482
 20
1960.715876194557
 10
731.7249471258064
 20
1960.775452154744
 10
731.9177709551613
 20
1960.845634289087
 10
732.1394265315196
 20
1960.926310321141
 10
732.3895592532435
 20
1961.017351186464
 10
732.6677689613368
 20
1961.118611239094
 10
732.9736105796147
 20
1961.229928484547
 10
733.3065948267306
 20
1961.351124838977
 10
733.6661889989223
 20
1961.48200641407
 10
734.0518178222234
 20
1961.622363827227
 10
734.4628643727798
 20
1961.771972536527
 10
734.8986710637959
 20
1961.930593199951
 10
735.358540697533
 20
1962.097972058274
 10
735.8417375806775
 20
1962.273841341029
 10
736.347488701293
 20
1962.45791969488
 10
736.8749849654744
 20
1962.649912633728
 10
737.4233824917252
 20
1962.849513009828
 10
737.9918039609889
 20
1963.056401505158
 10
738.5793400201713
 20
1963.270247142259
 10
739.1850507369123
 20
1963.490707813729
 10
739.8079671032762
 20
1963.717430829522
 10
740.4470925859588
 20
1963.95005348118
 10
741.1014047205273
 20
1964.188203622082
 10
741.7698567471452
 20
1964.431500262806
 10
742.4513792851658
 20
1964.679554180627
 10
743.1448820439117
 20
1964.931968542192
 10
743.8492555669085
 20
1965.188339538368
 10
744.5633730067777
 20
1965.448257030251
 10
745.2860919279523
 20
1965.711305205299
 10
746.0162561343304
 20
1965.977063242547
 10
746.7526975189417
 20
1966.245105985828
 10
747.4942379326701
 20
1966.51500462393
 10
748.2396910690403
 20
1966.78632737661
 10
748.9878643620557
 20
1967.05864018534
 10
749.7375608940496
 20
1967.331507407719
 10
750.4875813104968
 20
1967.604492514397
 10
751.2367257387275
 20
1967.877158787439
 10
751.9837957074651
 20
1968.149070018974
 10
752.7275960641262
 20
1968.419791209035
 10
753.466936886809
 20
1968.68888926147
 10
754.2006353879151
 20
1968.955933676798
 10
754.9275178063565
 20
1969.220497240922
 10
755.6464212853236
 20
1969.482156708577
 10
756.356195732608
 20
1969.740493480431
 10
757.0557056605046
 20
1969.995094272759
 10
757.7438320023496
 20
1970.245551778605
 10
758.4194739027886
 20
1970.491465319388
 10
759.08155047891
 20
1970.732441485901
 10
759.7290025494275
 20
1970.968094767683
 10
760.3607943291437
 20
1971.198048169754
 10
760.9759150859865
 20
1971.421933815724
 10
761.5733807579637
 20
1971.63939353632
 10
762.1522355274527
 20
1971.850079442377
 10
762.7115533503046
 20
1972.053654481389
 10
763.2504394373175
 20
1972.249792976722
 10
763.7680316857089
 20
1972.438181148624
 10
764.2635020582946
 20
1972.618517616206
 10
764.7360579081736
 20
1972.79051387959
 10
765.1849432467924
 20
1972.953894781446
 10
765.6094399533663
 20
1973.108398947183
 10
766.0088689237194
 20
1973.253779203095
 10
766.3825911567059
 20
1973.389802971786
 10
766.7300087764764
 20
1973.516252644241
 10
767.050565988951
 20
1973.632925927962
 10
767.1050107959723
 20
1973.652742217128
  0
LWPOLYLINE
  5
15F
330
87
100
AcDbEntity
  8
P-SANR-FIXT
100
AcDbPolyline
 90
        3
 70
   128
 43
0.0
 10
768.6570112924787
 20
1974.217624201422
 10
768.6881989591397
 20
1974.228975583763
 10
768.6925704100636
 20
1974.23056666178
  0
LINE
  5
160
330
87
100
AcDbEntity
  8
P-SANR-FIXT
100
AcDbLine
 10
723.7466893681153
 20
1963.579334627998
 30
0.0
 11
718.3122769076601
 21
1972.047960974437
 31
0.0
  0
LINE
  5
161
330
87
100
AcDbEntity
  8
P-SANR-FIXT
100
AcDbLine
 10
690.1328418486013
 20
2030.608987427775
 30
0.0
 11
688.314638511622
 21
2035.814691387205
 31
0.0
  0
LINE
  5
162
330
87
100
AcDbEntity
  8
P-SANR-FIXT
100
AcDbLine
 10
753.1750166835665
 20
2059.421938425042
 30
0.0
 11
753.8415004495641
 21
2057.721585103609
 31
0.0
  0
LINE
  5
163
330
87
100
AcDbEntity
  8
P-SANR-FIXT
100
AcDbLine
 10
753.0959051870935
 20
2060.202267979326
 30
0.0
 11
753.2560189446344
 21
2061.110318221539
 31
0.0
  0
LINE
  5
164
330
87
100
AcDbEntity
  8
P-SANR-FIXT
100
AcDbLine
 10
687.1673175660175
 20
2037.055998098415
 30
0.0
 11
687.8736552649159
 21
2036.463310395782
 31
0.0
  0
LINE
  5
165
330
87
100
AcDbEntity
  8
P-SANR-FIXT
100
AcDbLine
 10
753.1432311140689
 20
2062.39948902402
 30
0.0
 11
750.8988341133239
 21
2068.565919103859
 31
0.0
  0
LINE
  5
166
330
87
100
AcDbEntity
  8
P-SANR-FIXT
100
AcDbLine
 10
684.180658037524
 20
2044.282488927736
 30
0.0
 11
686.4250550382689
 21
2038.116058847898
 31
0.0
  0
LINE
  5
167
330
87
100
AcDbEntity
  8
P-SANR-FIXT
100
AcDbLine
 10
750.7860462827579
 20
2069.85508990634
 30
0.0
 11
751.0743463708937
 21
2071.490120954779
 31
0.0
  0
LINE
  5
168
330
87
100
AcDbEntity
  8
P-SANR-FIXT
100
AcDbLine
 10
682.1665671299192
 20
2046.409740401678
 30
0.0
 11
683.4383955097758
 21
2045.342549677219
 31
0.0
  0
LINE
  5
169
330
87
100
AcDbEntity
  8
P-SANR-FIXT
100
AcDbLine
 10
750.9615585403281
 20
2072.779291757261
 30
0.0
 11
745.7867503287808
 21
2086.996960468495
 31
0.0
  0
LINE
  5
16A
330
87
100
AcDbEntity
  8
P-SANR-FIXT
100
AcDbLine
 10
676.2494963906233
 20
2061.687469862396
 30
0.0
 11
681.4243046021706
 21
2047.469801151161
 31
0.0
  0
LINE
  5
16B
330
87
100
AcDbEntity
  8
P-SANR-FIXT
100
AcDbLine
 10
745.7867503287807
 20
2086.996960468495
 30
0.0
 11
744.9469727025586
 21
2087.38855520675
 31
0.0
  0
LINE
  5
16C
330
87
100
AcDbEntity
  8
P-SANR-FIXT
100
AcDbLine
 10
676.6581214593274
 20
2062.563769150125
 30
0.0
 11
676.2494963906235
 21
2061.687469862396
 31
0.0
  0
LWPOLYLINE
  5
16D
330
87
100
AcDbEntity
  8
P-SANR-FIXT
100
AcDbPolyline
 90
       15
 70
   128
 43
0.0
 10
688.3146385116214
 20
2035.814691387207
 10
688.2953310504063
 20
2035.86900921134
 10
688.2738668994796
 20
2035.922511494489
 10
688.2502803969033
 20
2035.975112644414
 10
688.2246092760506
 20
2036.026728510495
 10
688.1968946052381
 20
2036.077276518359
 10
688.1671807220275
 20
2036.126675801974
 10
688.1355151622929
 20
2036.174847333025
 10
688.1019485841752
 20
2036.22171404734
 10
688.066534687039
 20
2036.267200968172
 10
688.0293301255647
 20
2036.311235326152
 10
687.9903944191145
 20
2036.3537466757
 10
687.9497898565126
 20
2036.394667007725
 10
687.9075813963976
 20
2036.433930858427
 10
687.8736552649159
 20
2036.463310395782
  0
LWPOLYLINE
  5
16E
330
87
100
AcDbEntity
  8
P-SANR-FIXT
100
AcDbPolyline
 90
       15
 70
   128
 43
0.0
 10
753.0959051870935
 20
2060.202267979326
 10
753.0870322044751
 20
2060.145307692664
 10
753.0804441232353
 20
2060.088038143489
 10
753.0761514828984
 20
2060.030550950862
 10
753.0741611507732
 20
2059.972938082028
 10
753.0744763109668
 20
2059.915291705288
 10
753.0770964592899
 20
2059.857704042548
 10
753.0820174040642
 20
2059.800267221782
 10
753.0892312728278
 20
2059.743073129651
 10
753.0987265249296
 20
2059.686213264503
 10
753.1104879699916
 20
2059.629778589991
 10
753.1244967922106
 20
2059.573859389557
 10
753.14073058046
 20
2059.518545121992
 10
753.1591633641412
 20
2059.463924278325
 10
753.1750166835657
 20
2059.421938425043
  0
LWPOLYLINE
  5
16F
330
87
100
AcDbEntity
  8
P-SANR-FIXT
100
AcDbPolyline
 90
       15
 70
   128
 43
0.0
 10
687.1673175660175
 20
2037.055998098415
 10
687.0920189517419
 20
2037.12179160437
 10
687.0194116068232
 20
2037.190543623989
 10
686.9496116875244
 20
2037.262144168705
 10
686.8827308588268
 20
2037.336478692921
 10
686.818876115789
 20
2037.413428277256
 10
686.7581496123785
 20
2037.492869818791
 10
686.7006484980462
 20
2037.574676228004
 10
686.6464647623089
 20
2037.658716632092
 10
686.595685087585
 20
2037.744856584337
 10
686.5483907105221
 20
2037.83295827919
 10
686.5046572920342
 20
2037.922880772733
 10
686.4645547962614
 20
2038.014480208161
 10
686.4281473786427
 20
2038.107610045915
 10
686.4250550382693
 20
2038.116058847898
  0
LWPOLYLINE
  5
170
330
87
100
AcDbEntity
  8
P-SANR-FIXT
100
AcDbPolyline
 90
       15
 70
   128
 43
0.0
 10
753.1432311140686
 20
2062.39948902402
 10
753.1755448739235
 20
2062.304860869321
 10
753.2040486693152
 20
2062.20901620131
 10
753.2286969002519
 20
2062.112108351012
 10
753.2494501348216
 20
2062.014292350313
 10
753.266275172277
 20
2061.915724683949
 10
753.2791450961464
 20
2061.81656303916
 10
753.2880393172977
 20
2061.716966053423
 10
753.292943606874
 20
2061.61709306067
 10
753.2938501190584
 20
2061.517103836383
 10
753.2907574036245
 20
2061.417158341992
 10
753.2836704082575
 20
2061.317416468967
 10
753.2726004706383
 20
2061.218037783029
 10
753.2575653003052
 20
2061.119181268874
 10
753.2560189446344
 20
2061.110318221539
  0
LWPOLYLINE
  5
171
330
87
100
AcDbEntity
  8
P-SANR-FIXT
100
AcDbPolyline
 90
       15
 70
   128
 43
0.0
 10
684.1806580375243
 20
2044.282488927736
 10
684.1445860083289
 20
2044.375749184263
 10
684.1048134173449
 20
2044.467492346102
 10
684.0614038922334
 20
2044.557571643765
 10
684.0144268789743
 20
2044.645842969591
 10
683.9639575307678
 20
2044.732165108289
 10
683.9100765878047
 20
2044.816399962851
 10
683.8528702480994
 20
2044.89841277548
 10
683.7924300295927
 20
2044.97807234317
 10
683.7288526237406
 20
2045.055251227607
 10
683.66223974083
 20
2045.129825959039
 10
683.5926979472636
 20
2045.201677233804
 10
683.5203384950763
 20
2045.27069010519
 10
683.4452771439559
 20
2045.336754167324
 10
683.4383955097758
 20
2045.342549677219
  0
LWPOLYLINE
  5
172
330
87
100
AcDbEntity
  8
P-SANR-FIXT
100
AcDbPolyline
 90
       15
 70
   128
 43
0.0
 10
750.7860462827579
 20
2069.85508990634
 10
750.7706554481435
 20
2069.756288140427
 10
750.7592279413905
 20
2069.656949936159
 10
750.7517820440718
 20
2069.557234213472
 10
750.7483296680353
 20
2069.457300496252
 10
750.7488763363458
 20
2069.357308657127
 10
750.7534211744506
 20
2069.25741866171
 10
750.7619569115782
 20
2069.157790312685
 10
750.7744698923702
 20
2069.058582994157
 10
750.7909400987265
 20
2068.959955416673
 10
750.8113411818306
 20
2068.862065363318
 10
750.8356405043013
 20
2068.765069437294
 10
750.8637991924064
 20
2068.669122811392
 10
750.8957721982516
 20
2068.574378979746
 10
750.8988341133236
 20
2068.565919103859
  0
LWPOLYLINE
  5
173
330
87
100
AcDbEntity
  8
P-SANR-FIXT
100
AcDbPolyline
 90
       15
 70
   128
 43
0.0
 10
682.1665671299192
 20
2046.409740401678
 10
682.0912685156435
 20
2046.475533907633
 10
682.0186611707248
 20
2046.544285927252
 10
681.9488612514259
 20
2046.615886471968
 10
681.8819804227285
 20
2046.690220996185
 10
681.8181256796906
 20
2046.76717058052
 10
681.7573991762801
 20
2046.846612122054
 10
681.6998980619477
 20
2046.928418531267
 10
681.6457143262104
 20
2047.012458935355
 10
681.5949346514867
 20
2047.0985988876
 10
681.5476402744238
 20
2047.186700582454
 10
681.5039068559356
 20
2047.276623075997
 10
681.4638043601629
 20
2047.368222511424
 10
681.4273969425443
 20
2047.461352349178
 10
681.4243046021707
 20
2047.469801151161
  0
LWPOLYLINE
  5
174
330
87
100
AcDbEntity
  8
P-SANR-FIXT
100
AcDbPolyline
 90
       15
 70
   128
 43
0.0
 10
750.961558540328
 20
2072.779291757261
 10
750.9938723001829
 20
2072.684663602561
 10
751.0223760955746
 20
2072.588818934551
 10
751.0470243265111
 20
2072.491911084252
 10
751.0677775610811
 20
2072.394095083554
 10
751.0846025985363
 20
2072.29552741719
 10
751.0974725224059
 20
2072.1963657724
 10
751.1063667435571
 20
2072.096768786663
 10
751.1112710331334
 20
2071.99689579391
 10
751.1121775453177
 20
2071.896906569623
 10
751.1090848298838
 20
2071.796961075233
 10
751.1019978345171
 20
2071.697219202208
 10
751.0909278968977
 20
2071.597840516269
 10
751.0758927265645
 20
2071.498984002114
 10
751.0743463708937
 20
2071.490120954779
  0
LINE
  5
175
330
87
100
AcDbEntity
  8
P-SANR-FIXT
100
AcDbLine
 10
766.8002371830844
 20
2066.287790053277
 30
0.0
 11
782.7571813356605
 21
2061.712209946714
 31
0.0
  0
LINE
  5
176
330
87
100
AcDbEntity
  8
P-SANR-FIXT
100
AcDbLine
 10
766.0674325618701
 20
2052.974025730871
 30
0.0
 11
761.2099002042643
 21
2036.033797225532
 31
0.0
  0
SPLINE
  5
177
330
87
100
AcDbEntity
  8
P-SANR-FIXT
100
AcDbSpline
210
0.0
220
0.0
230
1.0
 70
     8
 71
     3
 72
    20
 73
    16
 74
     0
 42
0.000000001
 43
0.0000000001
 40
0.0
 40
0.0
 40
0.0
 40
0.0
 40
0.0625
 40
0.09375
 40
0.125
 40
0.15625
 40
0.1875
 40
0.21875
 40
0.25
 40
0.28125
 40
0.3125
 40
0.34375
 40
0.375
 40
0.40625
 40
0.4323741083312055
 40
0.4323741083312055
 40
0.4323741083312055
 40
0.4323741083312055
 10
761.2099002042644
 20
2036.033797225532
 30
0.0
 10
761.2718203446607
 20
2035.683085017403
 30
0.0
 10
761.3896669531697
 20
2035.1345226943
 30
0.0
 10
761.5741446958252
 20
2034.363815380316
 30
0.0
 10
761.7228461864187
 20
2033.768652043606
 30
0.0
 10
761.871058019737
 20
2033.153232680372
 30
0.0
 10
762.0152370899914
 20
2032.519869903576
 30
0.0
 10
762.1606121306699
 20
2031.875461854018
 30
0.0
 10
762.3153981681634
 20
2031.226893973893
 30
0.0
 10
762.4757773288266
 20
2030.574026843256
 30
0.0
 10
762.6331855476684
 20
2029.913596954721
 30
0.0
 10
762.7927752757962
 20
2029.249097282658
 30
0.0
 10
762.9587618468391
 20
2028.582695547815
 30
0.0
 10
763.11889822617
 20
2027.950855114777
 30
0.0
 10
763.2214644399066
 20
2027.540154160248
 30
0.0
 10
763.268522369618
 20
2027.353040346498
 30
0.0
  0
ARC
  5
178
330
87
100
AcDbEntity
  8
P-SANR-FIXT
100
AcDbCircle
 10
946.3503460911542
 20
2163.808854685731
 30
0.0
 40
211.6418405118691
100
AcDbArc
 50
210.3877987305232
 51
210.78170028624
  0
LINE
  5
179
330
87
100
AcDbEntity
  8
P-SANR-FIXT
100
AcDbLine
 10
764.523889627201
 20
2055.497228416832
 30
0.0
 11
779.436791912892
 21
2051.221022498138
 31
0.0
  0
LINE
  5
17A
330
87
100
AcDbEntity
  8
P-SANR-FIXT
100
AcDbLine
 10
763.8613051909417
 20
2057.020932101747
 30
0.0
 11
763.783563062222
 21
2056.749813079155
 31
0.0
  0
LINE
  5
17B
330
87
100
AcDbEntity
  8
P-SANR-FIXT
100
AcDbLine
 10
780.6736909646473
 20
2051.906646838259
 30
0.0
 11
763.783563062222
 21
2056.749813079155
 31
0.0
  0
LINE
  5
17C
330
87
100
AcDbEntity
  8
P-SANR-FIXT
100
AcDbLine
 10
783.2371183737453
 20
2060.846380610485
 30
0.0
 11
765.9344078468556
 21
2065.807853015191
 31
0.0
  0
SPLINE
  5
17D
330
87
100
AcDbEntity
  8
P-SANR-FIXT
100
AcDbSpline
210
0.0
220
0.0
230
1.0
 70
     8
 71
     3
 72
    12
 73
     8
 74
     0
 42
0.000000001
 43
0.0000000001
 40
-1.0
 40
-1.0
 40
-1.0
 40
-1.0
 40
-0.5714285714285714
 40
-0.4285714285714286
 40
-0.2857142857142857
 40
-0.1428571428571428
 40
0.0
 40
0.0
 40
0.0
 40
0.0
 10
764.523889627201
 20
2055.497228416832
 30
0.0
 10
764.9798802846504
 20
2055.365063539247
 30
0.0
 10
765.5181352008595
 20
2055.007662185692
 30
0.0
 10
765.9434108895328
 20
2054.346913091673
 30
0.0
 10
766.1046448677937
 20
2053.904985258987
 30
0.0
 10
766.1566554844849
 20
2053.433837273452
 30
0.0
 10
766.1102298840811
 20
2053.127514487296
 30
0.0
 10
766.0674325618701
 20
2052.974025730871
 30
0.0
  0
LINE
  5
17E
330
87
100
AcDbEntity
  8
P-SANR-FIXT
100
AcDbLine
 10
765.4557709198244
 20
1978.760198811402
 30
0.0
 11
723.7466893681139
 21
1963.579334627998
 31
0.0
  0
SPLINE
  5
17F
330
87
100
AcDbEntity
  8
P-SANR-FIXT
100
AcDbSpline
210
0.0
220
0.0
230
1.0
 70
     8
 71
     3
 72
     9
 73
     5
 74
     0
 42
0.000000001
 43
0.0000000001
 40
-1.0
 40
-1.0
 40
-1.0
 40
-1.0
 40
-0.5
 40
0.0
 40
0.0
 40
0.0
 40
0.0
 10
761.2099002042644
 20
2036.033797225532
 30
0.0
 10
760.1005706134765
 20
2039.697749921154
 30
0.0
 10
757.743090444142
 20
2046.977738336578
 30
0.0
 10
755.1079682992899
 20
2054.161892800357
 30
0.0
 10
753.7209967329845
 20
2057.730011544336
 30
0.0
  0
LINE
  5
180
330
87
100
AcDbEntity
  8
P-SANR-FIXT
100
AcDbLine
 10
745.7867503287793
 20
2086.996960468495
 30
0.0
 11
676.249496390622
 21
2061.687469862395
 31
0.0
  0
LINE
  5
181
330
87
100
AcDbEntity
  8
P-SANR-FIXT
100
AcDbLine
 10
763.8613051909417
 20
2057.020932101747
 30
0.0
 11
753.7209967329845
 21
2057.730011544336
 31
0.0
  0
LINE
  5
182
330
87
100
AcDbEntity
  8
P-SANR-FIXT
100
AcDbLine
 10
781.278709259372
 20
2030.149999999996
 30
0.0
 11
780.278709259374
 21
2030.149999999996
 31
0.0
  0
LINE
  5
183
330
87
100
AcDbEntity
  8
P-SANR-FIXT
100
AcDbLine
 10
780.278709259374
 20
1969.849999999995
 30
0.0
 11
781.278709259372
 21
1969.849999999995
 31
0.0
  0
LINE
  5
184
330
87
100
AcDbEntity
  8
P-SANR-FIXT
100
AcDbLine
 10
780.278709259374
 20
2030.149999999996
 30
0.0
 11
780.2386500627504
 21
2030.080615436133
 31
0.0
  0
LINE
  5
185
330
87
100
AcDbEntity
  8
P-SANR-FIXT
100
AcDbLine
 10
780.2250489466741
 20
2030.05705761205
 30
0.0
 11
779.4126838555895
 21
2028.649999999996
 31
0.0
  0
LINE
  5
186
330
87
100
AcDbEntity
  8
P-SANR-FIXT
100
AcDbLine
 10
779.4126838555895
 20
1971.349999999996
 30
0.0
 11
780.2250489466744
 21
1969.942942387942
 31
0.0
  0
LINE
  5
187
330
87
100
AcDbEntity
  8
P-SANR-FIXT
100
AcDbLine
 10
780.2386500627505
 20
1969.919384563858
 30
0.0
 11
780.278709259374
 21
1969.849999999996
 31
0.0
  0
LINE
  5
188
330
87
100
AcDbEntity
  8
P-SANR-FIXT
100
AcDbLine
 10
778.2868508306696
 20
2027.999999999996
 30
0.0
 11
770.5641864464042
 21
2027.999999999996
 31
0.0
  0
LINE
  5
189
330
87
100
AcDbEntity
  8
P-SANR-FIXT
100
AcDbLine
 10
688.7882759961199
 20
2027.999999999996
 30
0.0
 11
682.2754109252551
 21
2027.999999999996
 31
0.0
  0
LINE
  5
18A
330
87
100
AcDbEntity
  8
P-SANR-FIXT
100
AcDbLine
 10
682.2754109252551
 20
1971.999999999995
 30
0.0
 11
718.5226905339341
 21
1971.999999999995
 31
0.0
  0
LINE
  5
18B
330
87
100
AcDbEntity
  8
P-SANR-FIXT
100
AcDbLine
 10
762.5641388742222
 20
1971.999999999995
 30
0.0
 11
778.2868508306696
 21
1971.999999999995
 31
0.0
  0
LINE
  5
18C
330
87
100
AcDbEntity
  8
P-SANR-FIXT
100
AcDbLine
 10
681.1423130445695
 20
2028.654194366428
 30
0.0
 11
680.3323695720735
 21
2030.05705761205
 31
0.0
  0
LINE
  5
18D
330
87
100
AcDbEntity
  8
P-SANR-FIXT
100
AcDbLine
 10
680.3187684577102
 20
2030.080615433167
 30
0.0
 11
680.2787092593737
 21
2030.149999999996
 31
0.0
  0
LINE
  5
18E
330
87
100
AcDbEntity
  8
P-SANR-FIXT
100
AcDbLine
 10
680.2787092593737
 20
1969.849999999996
 30
0.0
 11
680.3187684577102
 21
1969.919384566825
 31
0.0
  0
LINE
  5
18F
330
87
100
AcDbEntity
  8
P-SANR-FIXT
100
AcDbLine
 10
680.3323695720735
 20
1969.942942387942
 30
0.0
 11
681.1423130445695
 21
1971.345805633564
 31
0.0
  0
LINE
  5
190
330
87
100
AcDbEntity
  8
P-SANR-FIXT
100
AcDbLine
 10
680.2787092593737
 20
2030.149999999996
 30
0.0
 11
679.2787092593759
 21
2030.149999999996
 31
0.0
  0
LINE
  5
191
330
87
100
AcDbEntity
  8
P-SANR-FIXT
100
AcDbLine
 10
679.2787092593759
 20
1969.849999999996
 30
0.0
 11
680.2787092593737
 21
1969.849999999996
 31
0.0
  0
LWPOLYLINE
  5
192
330
87
100
AcDbEntity
  8
P-SANR-FIXT
100
AcDbPolyline
 90
       28
 70
   128
 43
0.0
 10
779.4126838555895
 20
1971.349999999996
 10
779.3857902420307
 20
1971.394501382398
 10
779.3571385598417
 20
1971.437891710739
 10
779.3267746456016
 20
1971.480101569753
 10
779.2947470750964
 20
1971.521063432668
 10
779.2611070856065
 20
1971.560711769241
 10
779.2259084939392
 20
1971.598983150592
 10
779.1892076103319
 20
1971.635816350675
 10
779.1510631483698
 20
1971.671152444227
 10
779.1115361310549
 20
1971.704934901036
 10
779.0706897931828
 20
1971.737109676379
 10
779.0285894801808
 20
1971.767625297477
 10
778.9853025435689
 20
1971.796432945847
 10
778.9408982332112
 20
1971.823486535398
 10
778.895447586532
 20
1971.848742786155
 10
778.8490233148706
 20
1971.872161293507
 10
778.8016996871582
 20
1971.893704592838
 10
778.7535524111042
 20
1971.913338219463
 10
778.7046585120789
 20
1971.931030763769
 10
778.6550962098909
 20
1971.946753921459
 10
778.6049447936512
 20
1971.960482538834
 10
778.554284494927
 20
1971.972194653035
 10
778.5031963593895
 20
1971.981871527179
 10
778.4517621171573
 20
1971.989497680331
 10
778.400064052046
 20
1971.995060912272
 10
778.3481848699311
 20
1971.998552323019
 10
778.2962075664374
 20
1971.999966327058
 10
778.2868508306696
 20
1971.999999999996
  0
LWPOLYLINE
  5
193
330
87
100
AcDbEntity
  8
P-SANR-FIXT
100
AcDbPolyline
 90
       28
 70
   128
 43
0.0
 10
778.2868508306696
 20
2027.999999999996
 10
778.3388369651122
 20
2028.001039861337
 10
778.3907399328295
 20
2028.004157781802
 10
778.4424767001453
 20
2028.009348773386
 10
778.4939644992682
 20
2028.016604531607
 10
778.5451209607031
 20
2028.025913448802
 10
778.5958642450249
 20
2028.037260632688
 10
778.646113173803
 20
2028.050627930192
 10
778.6957873594706
 20
2028.065993956488
 10
778.7448073339273
 20
2028.083334129215
 10
778.7930946756708
 20
2028.102620707792
 10
778.8405721352555
 20
2028.12382283781
 10
778.8871637588735
 20
2028.146906600383
 10
778.9327950098664
 20
2028.171835066415
 10
778.9773928879667
 20
2028.198568355678
 10
779.0208860460832
 20
2028.227063700613
 10
779.0632049044408
 20
2028.257275514746
 10
779.1042817618937
 20
2028.289155465619
 10
779.1440509042327
 20
2028.322652552112
 10
779.1824487093133
 20
2028.357713186033
 10
779.2194137488389
 20
2028.394281277845
 10
779.2548868866317
 20
2028.432298326402
 10
779.2888113732383
 20
2028.471703512538
 10
779.3211329367168
 20
2028.512433796359
 10
779.3517998694609
 20
2028.554424018102
 10
779.3807631109199
 20
2028.597607002367
 10
779.4079763260859
 20
2028.641913665593
 10
779.4126838555895
 20
2028.649999999996
  0
LWPOLYLINE
  5
194
330
87
100
AcDbEntity
  8
P-SANR-FIXT
100
AcDbPolyline
 90
       28
 70
   128
 43
0.0
 10
682.2754109252551
 20
1971.999999999996
 10
682.2230893309709
 20
1971.998953428563
 10
682.1708514400758
 20
1971.995815388558
 10
682.1187808220521
 20
1971.990590900173
 10
682.066960778781
 20
1971.983288321476
 10
682.0154742112773
 20
1971.973919335036
 10
681.9644034870658
 20
1971.962498929231
 10
681.9138303084107
 20
1971.949045374275
 10
681.8638355816092
 20
1971.933580192986
 10
681.8144992875597
 20
1971.916128126355
 10
681.765900353808
 20
1971.896717093965
 10
681.7181165282806
 20
1971.875378149329
 10
681.6712242549055
 20
1971.852145430204
 10
681.6252985513165
 20
1971.827056103985
 10
681.5804128888426
 20
1971.800150308243
 10
681.5366390749685
 20
1971.771471086511
 10
681.4940471384589
 20
1971.741064319425
 10
681.4527052173259
 20
1971.708978651328
 10
681.4126794498243
 20
1971.675265412443
 10
681.3740338686441
 20
1971.639978536759
 10
681.3368302984708
 20
1971.603174475752
 10
681.3011282570805
 20
1971.564912108068
 10
681.2669848601236
 20
1971.525252645333
 10
681.2344547297513
 20
1971.484259534226
 10
681.203589907233
 20
1971.441998354981
 10
681.1744397697006
 20
1971.39853671647
 10
681.1470509511558
 20
1971.353944148043
 10
681.1423130445695
 20
1971.345805633564
  0
LWPOLYLINE
  5
195
330
87
100
AcDbEntity
  8
P-SANR-FIXT
100
AcDbPolyline
 90
       28
 70
   128
 43
0.0
 10
681.1423130445695
 20
2028.654194366428
 10
681.169380199159
 20
2028.609405822328
 10
681.1982167669697
 20
2028.565735501775
 10
681.2287766156442
 20
2028.523253267968
 10
681.2610108559442
 20
2028.482027083418
 10
681.2948679199614
 20
2028.442122901227
 10
681.3302936436156
 20
2028.403604559573
 10
681.3672313533062
 20
2028.366533679585
 10
681.405621956577
 20
2028.330969566764
 10
681.4454040366531
 20
2028.296969116104
 10
681.486513950692
 20
2028.264586721073
 10
681.5288859316011
 20
2028.233874186595
 10
681.57245219325
 20
2028.204880646173
 10
681.6171430389134
 20
2028.177652483288
 10
681.662886972772
 20
2028.152233257191
 10
681.70961081429
 20
2028.128663633221
 10
681.7572398152877
 20
2028.10698131775
 10
681.8056977795241
 20
2028.087220997857
 10
681.8549071845937
 20
2028.069414285837
 10
681.9047893059456
 20
2028.053589668632
 10
681.9552643428267
 20
2028.039772462255
 10
682.0062515459453
 20
2028.027984771286
 10
682.0576693466533
 20
2028.018245453517
 10
682.109435487438
 20
2028.01057008978
 10
682.1614671535169
 20
2028.004970959018
 10
682.213681105324
 20
2028.001457018647
 10
682.2659938116744
 20
2028.000033890221
 10
682.2754109252551
 20
2027.999999999996
  0
LINE
  5
196
330
87
100
AcDbEntity
  8
P-SANR-FIXT
100
AcDbLine
 10
690.1911166408608
 20
2030.876249563032
 30
0.0
 11
688.7882759961199
 21
2027.999999999996
 31
0.0
  0
LINE
  5
197
330
87
100
AcDbEntity
  8
P-SANR-FIXT
100
AcDbLine
 10
679.2787092593746
 20
1970.70962637388
 30
0.0
 11
679.2787092593746
 21
1972.183977209254
 31
0.0
  0
LINE
  5
198
330
87
100
AcDbEntity
  8
P-SANR-FIXT
100
AcDbLine
 10
679.2787092593743
 20
1998.47160878857
 30
0.0
 11
679.2787092593743
 21
2001.531581664377
 31
0.0
  0
LINE
  5
199
330
87
100
AcDbEntity
  8
P-SANR-FIXT
100
AcDbLine
 10
679.2787092593746
 20
2027.816022790716
 30
0.0
 11
679.2787092593746
 21
2029.290373626106
 31
0.0
  0
LINE
  5
19A
330
87
100
AcDbEntity
  8
P-SANR-FIXT
100
AcDbLine
 10
781.2787092593707
 20
2029.290373626121
 30
0.0
 11
781.2787092593707
 21
2027.816022790699
 31
0.0
  0
LINE
  5
19B
330
87
100
AcDbEntity
  8
P-SANR-FIXT
100
AcDbLine
 10
781.2787092593704
 20
2001.531581664377
 30
0.0
 11
781.2787092593704
 21
1998.47160878857
 31
0.0
  0
LINE
  5
19C
330
87
100
AcDbEntity
  8
P-SANR-FIXT
100
AcDbLine
 10
781.2787092593707
 20
1972.183977209249
 30
0.0
 11
781.2787092593707
 21
1970.709626373885
 31
0.0
  0
LINE
  5
19D
330
87
100
AcDbEntity
  8
P-SANR-FIXT
100
AcDbLine
 10
780.2787092593725
 20
2030.149999999995
 30
0.0
 11
780.2787092593725
 21
1969.849999999995
 31
0.0
  0
SPLINE
  5
19E
330
87
100
AcDbEntity
  8
P-SANR-FIXT
100
AcDbSpline
210
0.0
220
0.0
230
1.0
 70
     8
 71
     3
 72
    14
 73
    10
 74
     0
 42
0.000000001
 43
0.0000000001
 40
0.4011840480113969
 40
0.4011840480113969
 40
0.4011840480113969
 40
0.4011840480113969
 40
0.4375
 40
0.46875
 40
0.5
 40
0.5625
 40
0.625
 40
0.75
 40
1.0
 40
1.0
 40
1.0
 40
1.0
 10
697.0772841145623
 20
2023.042526446666
 30
0.0
 10
696.7510916225066
 20
2023.168872840594
 30
0.0
 10
696.1600383936171
 20
2023.413961458835
 30
0.0
 10
695.3335802365558
 20
2023.793172289069
 30
0.0
 10
694.3504704090583
 20
2024.275657898592
 30
0.0
 10
693.2289389354894
 20
2024.898366630181
 30
0.0
 10
691.6618128387889
 20
2025.8664421274
 30
0.0
 10
689.5365020523623
 20
2027.371035475014
 30
0.0
 10
688.7911499952707
 20
2027.999999999995
 30
0.0
 10
688.7882759961184
 20
2027.999999999995
 30
0.0
  0
LINE
  5
19F
330
87
100
AcDbEntity
  8
P-SANR-FIXT
100
AcDbLine
 10
680.2787092593725
 20
2030.149999999995
 30
0.0
 11
680.2787092593725
 21
1969.849999999995
 31
0.0
  0
ENDBLK
  5
1A1
330
87
100
AcDbEntity
  8
0
100
AcDbBlockEnd
  0
BLOCK
  5
27B
330
1A3
100
AcDbEntity
  8
0
100
AcDbBlockBegin
  2
Automatic flow rate regulator valve_Caleffi_121 DN15 - 1 1_2___Pressure gauge-V1-Est - Idraulica
 70
     0
 10
0.0
 20
0.0
 30
0.0
  3
Automatic flow rate regulator valve_Caleffi_121 DN15 - 1 1_2___Pressure gauge-V1-Est - Idraulica
  1

  0
LINE
  5
1A4
330
1A3
100
AcDbEntity
  8
M-PIPE
100
AcDbLine
 10
784.0093023385002
 20
1674.655266574674
 30
0.0
 11
784.0093023385002
 21
1672.655266574674
 31
0.0
1001
REVIT
1002
{
1070
     3
1000
923236
1002
}
  0
LINE
  5
1A5
330
1A3
100
AcDbEntity
  8
M-PIPE
100
AcDbLine
 10
792.0093023385001
 20
1672.655266574674
 30
0.0
 11
792.0093023385001
 21
1674.655266574674
 31
0.0
1001
REVIT
1002
{
1070
     3
1000
923236
1002
}
  0
LINE
  5
1A6
330
1A3
100
AcDbEntity
  8
M-PIPE
100
AcDbLine
 10
784.1642555547455
 20
1672.655266574673
 30
0.0
 11
784.0093023384986
 21
1672.655266574673
 31
0.0
1001
REVIT
1002
{
1070
     3
1000
923236
1002
}
  0
LINE
  5
1A7
330
1A3
100
AcDbEntity
  8
M-PIPE
100
AcDbLine
 10
792.0086931191242
 20
1672.655266574673
 30
0.0
 11
784.1642555547455
 21
1672.655266574673
 31
0.0
1001
REVIT
1002
{
1070
     3
1000
923236
1002
}
  0
LINE
  5
1A8
330
1A3
100
AcDbEntity
  8
M-PIPE
100
AcDbLine
 10
757.0093023385002
 20
1702.655266574674
 30
0.0
 11
757.0093023385001
 21
1674.655266574674
 31
0.0
1001
REVIT
1002
{
1070
     3
1000
923236
1002
}
  0
LINE
  5
1A9
330
1A3
100
AcDbEntity
  8
M-PIPE
100
AcDbLine
 10
819.0093023385003
 20
1674.655266574674
 30
0.0
 11
819.0093023385001
 21
1702.655266574674
 31
0.0
1001
REVIT
1002
{
1070
     3
1000
923236
1002
}
  0
LINE
  5
1AA
330
1A3
100
AcDbEntity
  8
M-PIPE
100
AcDbLine
 10
758.210189764411
 20
1674.655266574673
 30
0.0
 11
757.0093023384987
 21
1674.655266574674
 31
0.0
1001
REVIT
1002
{
1070
     3
1000
923236
1002
}
  0
LINE
  5
1AB
330
1A3
100
AcDbEntity
  8
M-PIPE
100
AcDbLine
 10
819.004580888347
 20
1674.655266574674
 30
0.0
 11
758.210189764411
 21
1674.655266574673
 31
0.0
1001
REVIT
1002
{
1070
     3
1000
923236
1002
}
  0
LINE
  5
1AC
330
1A3
100
AcDbEntity
  8
M-PIPE
100
AcDbLine
 10
758.2101897644109
 20
1702.655266574673
 30
0.0
 11
819.0045808883468
 21
1702.655266574673
 31
0.0
1001
REVIT
1002
{
1070
     3
1000
923236
1002
}
  0
LINE
  5
1AD
330
1A3
100
AcDbEntity
  8
M-PIPE
100
AcDbLine
 10
757.0093023384987
 20
1702.655266574673
 30
0.0
 11
758.2101897644109
 21
1702.655266574673
 31
0.0
1001
REVIT
1002
{
1070
     3
1000
923236
1002
}
  0
LINE
  5
1AE
330
1A3
100
AcDbEntity
  8
M-PIPE
100
AcDbLine
 10
688.4349765898017
 20
1725.250666260522
 30
0.0
 11
686.5901902293227
 21
1724.841949321465
 31
0.0
1001
REVIT
1002
{
1070
     3
1000
923097
1002
}
  0
LWPOLYLINE
  5
1AF
330
1A3
100
AcDbEntity
  8
M-PIPE
100
AcDbPolyline
 90
        4
 70
   128
 43
0.0
 10
683.8896092260715
 20
1724.136981478192
 10
681.4166950361041
 20
1723.375313320264
 10
679.0274207181765
 20
1722.527858139546
 10
678.5249216385862
 20
1722.335019895261
1001
REVIT
1002
{
1070
     3
1000
923097
1002
}
  0
LWPOLYLINE
  5
1B0
330
1A3
100
AcDbEntity
  8
M-PIPE
100
AcDbPolyline
 90
        4
 70
   128
 43
0.0
 10
678.5249216385896
 20
1662.975513253966
 10
680.8951335061237
 20
1662.110628949856
 10
683.3507608226637
 20
1661.329848594137
 10
683.8896092260689
 20
1661.173551671038
1001
REVIT
1002
{
1070
     3
1000
923097
1002
}
  0
LINE
  5
1B1
330
1A3
100
AcDbEntity
  8
M-PIPE
100
AcDbLine
 10
686.5901902293273
 20
1660.468583827764
 30
0.0
 11
688.4349765898066
 21
1660.059866888706
 31
0.0
1001
REVIT
1002
{
1070
     3
1000
923097
1002
}
  0
ELLIPSE
  5
1B2
330
1A3
100
AcDbEntity
  8
M-PIPE
100
AcDbEllipse
 10
694.3617423796565
 20
1692.655266574614
 30
0.0
 11
0.0
 21
33.20000000000005
 31
0.0
210
0.0
220
0.0
230
1.0
 40
0.9396926207859133
 41
4.712388980384698
 42
6.457718232379033
1001
REVIT
1002
{
1070
     3
1000
923097
1002
}
  0
ELLIPSE
  5
1B3
330
1A3
100
AcDbEntity
  8
M-PIPE
100
AcDbEllipse
 10
766.154245705167
 20
1435.63649692927
 30
0.0
 11
-82.26463647909723
 21
288.5004845489206
 31
0.0
210
0.0
220
0.0
230
1.0
 40
0.3303660895492906
 41
6.268322533308618
 42
6.31356002599604
1001
REVIT
1002
{
1070
     3
1000
923097
1002
}
  0
ELLIPSE
  5
1B4
330
1A3
100
AcDbEntity
  8
M-PIPE
100
AcDbEllipse
 10
693.3356819496875
 20
1692.655266574614
 30
0.0
 11
0.0
 21
32.97744693864733
 31
0.0
210
0.0
220
0.0
230
1.0
 40
0.9396926207859067
 41
6.021385919379932
 42
6.544984694979281
1001
REVIT
1002
{
1070
     3
1000
923097
1002
}
  0
ELLIPSE
  5
1B5
330
1A3
100
AcDbEntity
  8
M-PIPE
100
AcDbEllipse
 10
636.7247959506746
 20
1435.636496929267
 30
0.0
 11
82.26463647908351
 21
288.5004845489251
 31
0.0
210
0.0
220
0.0
230
0.9999999999999998
 40
0.3303660895492809
 41
0.1729877240759604
 42
0.2182252167633762
1001
REVIT
1002
{
1070
     3
1000
923097
1002
}
  0
ELLIPSE
  5
1B6
330
1A3
100
AcDbEntity
  8
M-PIPE
100
AcDbEllipse
 10
636.7247959506613
 20
1949.674036219959
 30
0.0
 11
-82.26463647909469
 21
288.5004845489214
 31
0.0
210
0.0
220
0.0
230
1.0
 40
0.3303660895492912
 41
2.923367436826443
 42
2.968604929513855
1001
REVIT
1002
{
1070
     3
1000
923097
1002
}
  0
ELLIPSE
  5
1B7
330
1A3
100
AcDbEntity
  8
M-PIPE
100
AcDbEllipse
 10
693.3356819496875
 20
1692.655266574614
 30
0.0
 11
0.0
 21
32.9774469386466
 31
0.0
210
0.0
220
0.0
230
1.0
 40
0.9396926207859296
 41
2.879793265790114
 42
3.403392041389461
1001
REVIT
1002
{
1070
     3
1000
923097
1002
}
  0
ELLIPSE
  5
1B8
330
1A3
100
AcDbEntity
  8
M-PIPE
100
AcDbEllipse
 10
766.1542457051547
 20
1949.67403621996
 30
0.0
 11
82.26463647908804
 21
288.5004845489234
 31
0.0
210
0.0
220
0.0
230
0.9999999999999998
 40
0.3303660895492794
 41
3.111217934773394
 42
3.1564554274608
1001
REVIT
1002
{
1070
     3
1000
923097
1002
}
  0
ELLIPSE
  5
1B9
330
1A3
100
AcDbEntity
  8
M-PIPE
100
AcDbEllipse
 10
694.3617423796565
 20
1692.655266574614
 30
0.0
 11
0.0
 21
33.19999999999984
 31
0.0
210
0.0
220
0.0
230
1.0
 40
0.9396926207859149
 41
2.967059728390362
 42
4.712388980384685
1001
REVIT
1002
{
1070
     3
1000
923097
1002
}
  0
ELLIPSE
  5
1BA
330
1A3
100
AcDbEntity
  8
M-PIPE
100
AcDbEllipse
 10
688.7184100147827
 20
1692.655266574614
 30
0.0
 11
0.0
 21
31.59999999999952
 31
0.0
210
0.0
220
0.0
230
1.0
 40
0.9396926207859197
 41
4.712388980384692
 42
6.021385919379911
1001
REVIT
1002
{
1070
     3
1000
923097
1002
}
  0
LINE
  5
1BB
330
1A3
100
AcDbEntity
  8
M-PIPE
100
AcDbLine
 10
696.4038569737312
 20
1723.178522685343
 30
0.0
 11
696.3825036157327
 21
1723.093716425083
 31
0.0
1001
REVIT
1002
{
1070
     3
1000
923097
1002
}
  0
LINE
  5
1BC
330
1A3
100
AcDbEntity
  8
M-PIPE
100
AcDbLine
 10
681.0543164138314
 20
1723.093716425083
 30
0.0
 11
681.0329630558329
 21
1723.178522685343
 31
0.0
1001
REVIT
1002
{
1070
     3
1000
923097
1002
}
  0
ELLIPSE
  5
1BD
330
1A3
100
AcDbEntity
  8
M-PIPE
100
AcDbEllipse
 10
688.7184100147833
 20
1692.655266574614
 30
0.0
 11
0.0
 21
31.59999999999995
 31
0.0
210
0.0
220
0.0
230
1.0
 40
0.9396926207859127
 41
0.2617993877997256
 42
0.488734061239655
1001
REVIT
1002
{
1070
     3
1000
923097
1002
}
  0
ELLIPSE
  5
1BE
330
1A3
100
AcDbEntity
  8
M-PIPE
100
AcDbEllipse
 10
688.7184100147827
 20
1692.655266574614
 30
0.0
 11
0.0
 21
31.59999999999969
 31
0.0
210
0.0
220
0.0
230
1.0
 40
0.9396926207859147
 41
2.653551520544946
 42
2.879793265790102
1001
REVIT
1002
{
1070
     3
1000
923097
1002
}
  0
LINE
  5
1BF
330
1A3
100
AcDbEntity
  8
M-PIPE
100
AcDbLine
 10
681.0329630558336
 20
1662.132010463883
 30
0.0
 11
681.0543164138515
 21
1662.21681672422
 31
0.0
1001
REVIT
1002
{
1070
     3
1000
923097
1002
}
  0
LINE
  5
1C0
330
1A3
100
AcDbEntity
  8
M-PIPE
100
AcDbLine
 10
696.3825036157144
 20
1662.21681672422
 30
0.0
 11
696.4038569737322
 21
1662.132010463883
 31
0.0
1001
REVIT
1002
{
1070
     3
1000
923097
1002
}
  0
ELLIPSE
  5
1C1
330
1A3
100
AcDbEntity
  8
M-PIPE
100
AcDbEllipse
 10
688.7184100147833
 20
1692.655266574614
 30
0.0
 11
0.0
 21
31.60000000000014
 31
0.0
210
0.0
220
0.0
230
1.0
 40
0.9396926207859124
 41
3.403392041389503
 42
4.712388980384685
1001
REVIT
1002
{
1070
     3
1000
923097
1002
}
  0
LINE
  5
1C2
330
1A3
100
AcDbEntity
  8
M-PIPE
100
AcDbLine
 10
685.315225643088
 20
1724.509034257726
 30
0.0
 11
685.4501792872638
 21
1723.973057018372
 31
0.0
1001
REVIT
1002
{
1070
     3
1000
923097
1002
}
  0
LINE
  5
1C3
330
1A3
100
AcDbEntity
  8
M-PIPE
100
AcDbLine
 10
685.4501792872842
 20
1661.337476130935
 30
0.0
 11
685.3152256430887
 21
1660.801498891501
 31
0.0
1001
REVIT
1002
{
1070
     3
1000
923097
1002
}
  0
LINE
  5
1C4
330
1A3
100
AcDbEntity
  8
M-PIPE
100
AcDbLine
 10
710.7787092592952
 20
1729.155266574631
 30
0.0
 11
709.4106286859994
 21
1729.155266574631
 31
0.0
1001
REVIT
1002
{
1070
     3
1000
923097
1002
}
  0
LINE
  5
1C5
330
1A3
100
AcDbEntity
  8
M-PIPE
100
AcDbLine
 10
709.4106286860019
 20
1656.15526657464
 30
0.0
 11
710.778709259298
 21
1656.15526657464
 31
0.0
1001
REVIT
1002
{
1070
     3
1000
923097
1002
}
  0
LWPOLYLINE
  5
1C6
330
1A3
100
AcDbEntity
  8
M-PIPE
100
AcDbPolyline
 90
        9
 70
   128
 43
0.0
 10
708.6209296030117
 20
1726.471807180522
 10
705.8691395509038
 20
1726.718105850518
 10
703.0973947239606
 20
1726.847734932967
 10
700.3181450188402
 20
1726.859355640063
 10
697.543937284038
 20
1726.752847766267
 10
694.7872532146448
 20
1726.529311875597
 10
692.0603486562526
 20
1726.191049299097
 10
689.3750977761376
 20
1725.741520479935
 10
688.3854239369143
 20
1725.546026888543
1001
REVIT
1002
{
1070
     3
1000
923097
1002
}
  0
LWPOLYLINE
  5
1C7
330
1A3
100
AcDbEntity
  8
M-PIPE
100
AcDbPolyline
 90
        9
 70
   128
 43
0.0
 10
688.3854239369165
 20
1659.764506260728
 10
691.0521794883096
 20
1659.274542722813
 10
693.7648943959506
 20
1658.894268077298
 10
696.5118754119909
 20
1658.627560686269
 10
699.2809913478423
 20
1658.477160697606
 10
702.0598262281423
 20
1658.444620560512
 10
704.8358385677336
 20
1658.53027684361
 10
707.5965233608201
 20
1658.73324411128
 10
708.6209296030139
 20
1658.83872596875
1001
REVIT
1002
{
1070
     3
1000
923097
1002
}
  0
ELLIPSE
  5
1C8
330
1A3
100
AcDbEntity
  8
M-PIPE
100
AcDbEllipse
 10
710.7787092592952
 20
1692.655266574635
 30
0.0
 11
0.0000000000017123
 21
36.49999999999591
 31
0.0
210
0.0
220
0.0
230
1.0
 40
0.9396926207859028
 41
4.712388980384739
 42
6.283185307179649
1001
REVIT
1002
{
1070
     3
1000
923097
1002
}
  0
ELLIPSE
  5
1C9
330
1A3
100
AcDbEntity
  8
M-PIPE
100
AcDbEllipse
 10
709.4106286859995
 20
1692.655266574635
 30
0.0
 11
0.0
 21
36.4999999999956
 31
0.0
210
0.0
220
0.0
230
0.9999999999999998
 40
0.9396926207859122
 41
5.995503207762013
 42
6.570867406597169
1001
REVIT
1002
{
1070
     3
1000
923097
1002
}
  0
LINE
  5
1CA
330
1A3
100
AcDbEntity
  8
M-PIPE
100
AcDbLine
 10
719.1422335517427
 20
1727.655266574619
 30
0.0
 11
715.0379918318281
 21
1727.655266574619
 31
0.0
1001
REVIT
1002
{
1070
     3
1000
923097
1002
}
  0
LINE
  5
1CB
330
1A3
100
AcDbEntity
  8
M-PIPE
100
AcDbLine
 10
721.6813090273208
 20
1724.726913174096
 30
0.0
 11
725.7855507472354
 21
1724.726913174096
 31
0.0
1001
REVIT
1002
{
1070
     3
1000
923097
1002
}
  0
ELLIPSE
  5
1CC
330
1A3
100
AcDbEntity
  8
M-PIPE
100
AcDbEllipse
 10
709.4106286859994
 20
1692.655266574635
 30
0.0
 11
0.0
 21
36.49999999999585
 31
0.0
210
0.0
220
0.0
230
1.0
 40
0.9396926207859062
 41
5.210105044365872
 42
5.785469243198397
1001
REVIT
1002
{
1070
     3
1000
923097
1002
}
  0
LINE
  5
1CD
330
1A3
100
AcDbEntity
  8
M-PIPE
100
AcDbLine
 10
739.5481183319668
 20
1710.081094658228
 30
0.0
 11
735.4438766120523
 21
1710.081094658227
 31
0.0
1001
REVIT
1002
{
1070
     3
1000
923097
1002
}
  0
LINE
  5
1CE
330
1A3
100
AcDbEntity
  8
M-PIPE
100
AcDbLine
 10
738.1956286936029
 20
1703.011424163183
 30
0.0
 11
742.2998704135173
 21
1703.011424163183
 31
0.0
1001
REVIT
1002
{
1070
     3
1000
923097
1002
}
  0
ELLIPSE
  5
1CF
330
1A3
100
AcDbEntity
  8
M-PIPE
100
AcDbEllipse
 10
709.4106286859993
 20
1692.655266574635
 30
0.0
 11
0.0
 21
36.49999999999558
 31
0.0
210
0.0
220
0.0
230
1.0
 40
0.9396926207859134
 41
4.712388980384703
 42
5.000071079799455
1001
REVIT
1002
{
1070
     3
1000
923097
1002
}
  0
ELLIPSE
  5
1D0
330
1A3
100
AcDbEntity
  8
M-PIPE
100
AcDbEllipse
 10
710.7787092592952
 20
1692.655266574635
 30
0.0
 11
0.0
 21
36.49999999999546
 31
0.0
210
0.0
220
0.0
230
1.0
 40
0.9396926207859145
 41
3.141592653589828
 42
4.712388980384685
1001
REVIT
1002
{
1070
     3
1000
923097
1002
}
  0
ELLIPSE
  5
1D1
330
1A3
100
AcDbEntity
  8
M-PIPE
100
AcDbEllipse
 10
709.4106286859991
 20
1692.655266574635
 30
0.0
 11
0.0
 21
36.49999999999546
 31
0.0
210
0.0
220
0.0
230
1.0
 40
0.9396926207859145
 41
4.424706880969919
 42
4.712388980384697
1001
REVIT
1002
{
1070
     3
1000
923097
1002
}
  0
LINE
  5
1D2
330
1A3
100
AcDbEntity
  8
M-PIPE
100
AcDbLine
 10
742.2998704135169
 20
1682.299108986086
 30
0.0
 11
738.1956286936026
 21
1682.299108986086
 31
0.0
1001
REVIT
1002
{
1070
     3
1000
923097
1002
}
  0
LINE
  5
1D3
330
1A3
100
AcDbEntity
  8
M-PIPE
100
AcDbLine
 10
735.4438766120165
 20
1675.229438490972
 30
0.0
 11
739.5481183319308
 21
1675.229438490972
 31
0.0
1001
REVIT
1002
{
1070
     3
1000
923097
1002
}
  0
ELLIPSE
  5
1D4
330
1A3
100
AcDbEntity
  8
M-PIPE
100
AcDbEllipse
 10
709.4106286859991
 20
1692.655266574635
 30
0.0
 11
0.0
 21
36.49999999999567
 31
0.0
210
0.0
220
0.0
230
1.0
 40
0.9396926207859083
 41
3.63930871757326
 42
4.214672916401186
1001
REVIT
1002
{
1070
     3
1000
923097
1002
}
  0
LINE
  5
1D5
330
1A3
100
AcDbEntity
  8
M-PIPE
100
AcDbLine
 10
725.7855507473006
 20
1660.583619975211
 30
0.0
 11
721.6813090273862
 21
1660.583619975211
 31
0.0
1001
REVIT
1002
{
1070
     3
1000
923097
1002
}
  0
LINE
  5
1D6
330
1A3
100
AcDbEntity
  8
M-PIPE
100
AcDbLine
 10
715.0379918317262
 20
1657.655266574619
 30
0.0
 11
719.1422335516406
 21
1657.655266574619
 31
0.0
1001
REVIT
1002
{
1070
     3
1000
923097
1002
}
  0
ELLIPSE
  5
1D7
330
1A3
100
AcDbEntity
  8
M-PIPE
100
AcDbEllipse
 10
709.4106286859991
 20
1692.655266574635
 30
0.0
 11
0.0
 21
36.49999999999542
 31
0.0
210
0.0
220
0.0
230
1.0
 40
0.9396926207859198
 41
2.853910554175449
 42
3.429274753004108
1001
REVIT
1002
{
1070
     3
1000
923097
1002
}
  0
LINE
  5
1D8
330
1A3
100
AcDbEntity
  8
M-PIPE
100
AcDbLine
 10
738.1956286936031
 20
1692.655266574635
 30
0.0
 11
738.1956286936032
 21
1703.011424163182
 31
0.0
1001
REVIT
1002
{
1070
     3
1000
923097
1002
}
  0
ELLIPSE
  5
1D9
330
1A3
100
AcDbEntity
  8
M-PIPE
100
AcDbEllipse
 10
705.3063869660848
 20
1692.655266574635
 30
0.0
 11
0.0
 21
36.49999999999545
 31
0.0
210
0.0
220
0.0
230
1.0
 40
0.9396926207859145
 41
5.000071079799462
 42
5.210105044365877
1001
REVIT
1002
{
1070
     3
1000
923097
1002
}
  0
LINE
  5
1DA
330
1A3
100
AcDbEntity
  8
M-PIPE
100
AcDbLine
 10
735.4438766120524
 20
1710.081094658226
 30
0.0
 11
721.6813090273205
 21
1724.726913174097
 31
0.0
1001
REVIT
1002
{
1070
     3
1000
923097
1002
}
  0
ELLIPSE
  5
1DB
330
1A3
100
AcDbEntity
  8
M-PIPE
100
AcDbEllipse
 10
705.3063869660848
 20
1692.655266574635
 30
0.0
 11
0.0
 21
36.49999999999563
 31
0.0
210
0.0
220
0.0
230
1.0
 40
0.9396926207859076
 41
5.785469243198392
 42
5.995503207762026
1001
REVIT
1002
{
1070
     3
1000
923097
1002
}
  0
LINE
  5
1DC
330
1A3
100
AcDbEntity
  8
M-PIPE
100
AcDbLine
 10
715.0379918318301
 20
1727.655266574618
 30
0.0
 11
695.5747821003394
 21
1727.655266574618
 31
0.0
1001
REVIT
1002
{
1070
     3
1000
923097
1002
}
  0
ELLIPSE
  5
1DD
330
1A3
100
AcDbEntity
  8
M-PIPE
100
AcDbEllipse
 10
705.3063869660848
 20
1692.655266574635
 30
0.0
 11
0.0
 21
36.4999999999954
 31
0.0
210
0.0
220
0.0
230
1.0
 40
0.9396926207859149
 41
0.2876820994175644
 42
0.4177165670497134
1001
REVIT
1002
{
1070
     3
1000
923097
1002
}
  0
ELLIPSE
  5
1DE
330
1A3
100
AcDbEntity
  8
M-PIPE
100
AcDbEllipse
 10
705.3063869660848
 20
1692.655266574635
 30
0.0
 11
0.0
 21
36.49999999999547
 31
0.0
210
0.0
220
0.0
230
1.0
 40
0.9396926207859104
 41
2.728887336092972
 42
2.853910554175451
1001
REVIT
1002
{
1070
     3
1000
923097
1002
}
  0
LINE
  5
1DF
330
1A3
100
AcDbEntity
  8
M-PIPE
100
AcDbLine
 10
695.5747821004451
 20
1657.655266574618
 30
0.0
 11
715.0379918317245
 21
1657.655266574618
 31
0.0
1001
REVIT
1002
{
1070
     3
1000
923097
1002
}
  0
ELLIPSE
  5
1E0
330
1A3
100
AcDbEntity
  8
M-PIPE
100
AcDbEllipse
 10
705.3063869660848
 20
1692.655266574635
 30
0.0
 11
0.0
 21
36.49999999999564
 31
0.0
210
0.0
220
0.0
230
1.0
 40
0.9396926207859097
 41
3.429274753004142
 42
3.639308717573259
1001
REVIT
1002
{
1070
     3
1000
923097
1002
}
  0
LINE
  5
1E1
330
1A3
100
AcDbEntity
  8
M-PIPE
100
AcDbLine
 10
721.6813090273887
 20
1660.583619975213
 30
0.0
 11
735.4438766120154
 21
1675.22943849097
 31
0.0
1001
REVIT
1002
{
1070
     3
1000
923097
1002
}
  0
ELLIPSE
  5
1E2
330
1A3
100
AcDbEntity
  8
M-PIPE
100
AcDbEllipse
 10
705.3063869660848
 20
1692.655266574635
 30
0.0
 11
0.0
 21
36.49999999999558
 31
0.0
210
0.0
220
0.0
230
1.0
 40
0.9396926207859065
 41
4.214672916401224
 42
4.424706880969915
1001
REVIT
1002
{
1070
     3
1000
923097
1002
}
  0
LINE
  5
1E3
330
1A3
100
AcDbEntity
  8
M-PIPE
100
AcDbLine
 10
738.1956286936031
 20
1682.299108986088
 30
0.0
 11
738.1956286936031
 21
1692.655266574635
 31
0.0
1001
REVIT
1002
{
1070
     3
1000
923097
1002
}
  0
ELLIPSE
  5
1E4
330
1A3
100
AcDbEntity
  8
M-PIPE
100
AcDbEllipse
 10
705.3063869660848
 20
1692.655266574635
 30
0.0
 11
0.0
 21
33.99999999999906
 31
0.0
210
0.0
220
0.0
230
1.0
 40
0.9396926207859046
 41
4.712388980384698
 42
6.195918844579879
1001
REVIT
1002
{
1070
     3
1000
923097
1002
}
  0
ELLIPSE
  5
1E5
330
1A3
100
AcDbEntity
  8
M-PIPE
100
AcDbEllipse
 10
705.3063869660848
 20
1692.655266574635
 30
0.0
 11
0.0
 21
33.99999999999864
 31
0.0
210
0.0
220
0.0
230
1.0
 40
0.9396926207859179
 41
3.228859116189515
 42
4.712388980384685
1001
REVIT
1002
{
1070
     3
1000
923097
1002
}
  0
ELLIPSE
  5
1E6
330
1A3
100
AcDbEntity
  8
M-PIPE
100
AcDbEllipse
 10
694.3617423796638
 20
1692.655266574634
 30
0.0
 11
0.0
 21
33.49999999999694
 31
0.0
210
0.0
220
0.0
230
1.0
 40
0.9396926207859046
 41
4.712388980384698
 42
6.647460048874375
1001
REVIT
1002
{
1070
     3
1000
923097
1002
}
  0
ELLIPSE
  5
1E7
330
1A3
100
AcDbEntity
  8
M-PIPE
100
AcDbEllipse
 10
694.3617423796638
 20
1692.655266574634
 30
0.0
 11
0.0
 21
33.49999999999705
 31
0.0
210
0.0
220
0.0
230
1.0
 40
0.9396926207859037
 41
2.777317911895034
 42
4.712388980384691
1001
REVIT
1002
{
1070
     3
1000
923097
1002
}
  0
LINE
  5
1E8
330
1A3
100
AcDbEntity
  8
M-PIPE
100
AcDbLine
 10
725.7855507472349
 20
1724.726913174097
 30
0.0
 11
739.5481183319672
 21
1710.081094658227
 31
0.0
1001
REVIT
1002
{
1070
     3
1000
923097
1002
}
  0
LINE
  5
1E9
330
1A3
100
AcDbEntity
  8
M-PIPE
100
AcDbLine
 10
742.2998704135178
 20
1703.011424163181
 30
0.0
 11
742.2998704135176
 21
1682.299108986088
 31
0.0
1001
REVIT
1002
{
1070
     3
1000
923097
1002
}
  0
LINE
  5
1EA
330
1A3
100
AcDbEntity
  8
M-PIPE
100
AcDbLine
 10
739.5481183319293
 20
1675.229438490969
 30
0.0
 11
725.7855507473035
 21
1660.583619975213
 31
0.0
1001
REVIT
1002
{
1070
     3
1000
923097
1002
}
  0
LWPOLYLINE
  5
1EB
330
1A3
100
AcDbEntity
  8
P-SANR-FIXT
100
AcDbPolyline
 90
       22
 70
   128
 43
0.0
 10
661.6783926970596
 20
1711.573651897701
 10
660.9691707332928
 20
1710.863953192719
 10
660.2884933974916
 20
1710.126059091466
 10
659.6373257842743
 20
1709.361241121536
 10
659.0165768802071
 20
1708.570798030906
 10
658.42710017745
 20
1707.756053044713
 10
657.8696943877774
 20
1706.918351336957
 10
657.3451042260326
 20
1706.059057710076
 10
656.8540212354546
 20
1705.179554472302
 10
656.3970846307924
 20
1704.281239500426
 10
655.9748821385504
 20
1703.365524474034
 10
655.5879508170063
 20
1702.433833266298
 10
655.2367778417119
 20
1701.487600475947
 10
654.9218012449756
 20
1700.528270085046
 10
654.6434106002908
 20
1699.557294227537
 10
654.4019476448053
 20
1698.576132054028
 10
654.1977068347232
 20
1697.586248679116
 10
654.0309358299841
 20
1696.589114198325
 10
653.9018359057243
 20
1695.586202762609
 10
653.8105622889046
 20
1694.578991699233
 10
653.7572244191105
 20
1693.568960668583
 10
653.7417088763837
 20
1692.655266574655
  0
LWPOLYLINE
  5
1EC
330
1A3
100
AcDbEntity
  8
P-SANR-FIXT
100
AcDbPolyline
 90
       22
 70
   128
 43
0.0
 10
653.7417088763837
 20
1692.655266574655
 10
653.7607179449046
 20
1691.643961395253
 10
653.8177224185501
 20
1690.634138073661
 10
653.9126540631652
 20
1689.627277675038
 10
654.0453990271786
 20
1688.624859670465
 10
654.2157976497862
 20
1687.628361117775
 10
654.4236441927989
 20
1686.639255815335
 10
654.6686864967374
 20
1685.659013418903
 10
654.9506255622179
 20
1684.689098511089
 10
655.2691150583198
 20
1683.730969612099
 10
655.623760760527
 20
1682.786078119667
 10
656.0141199220263
 20
1681.855867165169
 10
656.4397005836314
 20
1680.941770372105
 10
656.8999608294248
 20
1680.045210502394
 10
657.3943079973814
 20
1679.167597975389
 10
657.9220978567266
 20
1678.310329244218
 10
658.4826337666054
 20
1677.474785014094
 10
659.0751658337315
 20
1676.66232828778
 10
659.698890089997
 20
1675.874302224341
 10
660.3529477144649
 20
1675.112027799052
 10
661.0364243276409
 20
1674.376801254599
 10
661.67839269706
 20
1673.73688125161
  0
LWPOLYLINE
  5
1ED
330
1A3
100
AcDbEntity
  8
P-SANR-FIXT
100
AcDbPolyline
 90
       10
 70
   128
 43
0.0
 10
677.8622239490299
 20
1721.996562375315
 10
675.613724605834
 20
1720.998962252251
 10
673.4701962351737
 20
1719.938981838668
 10
671.4364488066983
 20
1718.825998239316
 10
669.5161258240617
 20
1717.669523689531
 10
667.711712526342
 20
1716.479065334803
 10
666.0245621738341
 20
1715.263990516875
 10
664.4549389399303
 20
1714.033399770565
 10
663.0020756812528
 20
1712.796009398007
 10
661.6783926970811
 20
1711.573651897722
  0
LWPOLYLINE
  5
1EE
330
1A3
100
AcDbEntity
  8
P-SANR-FIXT
100
AcDbPolyline
 90
       10
 70
   128
 43
0.0
 10
661.6783926970815
 20
1673.736881251589
 10
663.0174807514407
 20
1672.500858383801
 10
664.471625092063
 20
1671.263497176136
 10
666.0425432596436
 20
1670.033029313884
 10
667.7309913777917
 20
1668.818175942391
 10
669.5366935412318
 20
1667.628041201596
 10
671.4582841997642
 20
1666.471994685643
 10
673.4932654406439
 20
1665.35954434376
 10
675.6379808948682
 20
1664.300201692946
 10
677.8622239490306
 20
1663.313970773996
  0
SPLINE
  5
1EF
330
1A3
100
AcDbEntity
  8
P-SANR-FIXT
100
AcDbSpline
210
0.0
220
0.0
230
1.0
 70
     8
 71
     3
 72
     9
 73
     5
 74
     0
 42
0.000000001
 43
0.0000000001
 40
-1.0
 40
-1.0
 40
-1.0
 40
-1.0
 40
-0.5
 40
0.0
 40
0.0
 40
0.0
 40
0.0
 10
698.8696965584339
 20
1704.665215941975
 30
0.0
 10
698.6751886051535
 20
1704.896201760292
 30
0.0
 10
698.3479496980717
 20
1705.371753957686
 30
0.0
 10
698.1462861894811
 20
1705.871079966133
 30
0.0
 10
698.0772847562169
 20
1706.125797276341
 30
0.0
  0
SPLINE
  5
1F0
330
1A3
100
AcDbEntity
  8
P-SANR-FIXT
100
AcDbSpline
210
0.0
220
0.0
230
1.0
 70
     8
 71
     3
 72
     9
 73
     5
 74
     0
 42
0.000000001
 43
0.0000000001
 40
-1.0
 40
-1.0
 40
-1.0
 40
-1.0
 40
-0.5
 40
0.0
 40
0.0
 40
0.0
 40
0.0
 10
678.5299468604327
 20
1718.135746643698
 30
0.0
 10
678.2229968466141
 20
1718.112015151761
 30
0.0
 10
677.6506538034022
 20
1718.08824134066
 30
0.0
 10
677.1651920142176
 20
1718.112015151761
 30
0.0
 10
676.9451232544266
 20
1718.135746643698
 30
0.0
  0
SPLINE
  5
1F1
330
1A3
100
AcDbEntity
  8
P-SANR-FIXT
100
AcDbSpline
210
0.0
220
0.0
230
1.0
 70
     8
 71
     3
 72
     8
 73
     4
 74
     0
 42
0.000000001
 43
0.0000000001
 40
-0.5
 40
-0.5
 40
-0.5
 40
-0.5
 40
-0.25
 40
-0.25
 40
-0.25
 40
-0.25
 10
656.9654046863651
 20
1705.377697410449
 30
0.0
 10
656.8992918844053
 20
1705.255837634718
 30
0.0
 10
656.8392972242038
 20
1705.137108365547
 30
0.0
 10
656.78082420335
 20
1705.019148491333
 30
0.0
  0
SPLINE
  5
1F2
330
1A3
100
AcDbEntity
  8
P-SANR-FIXT
100
AcDbSpline
210
0.0
220
0.0
230
1.0
 70
     8
 71
     3
 72
     9
 73
     5
 74
     0
 42
0.000000001
 43
0.0000000001
 40
-1.0
 40
-1.0
 40
-1.0
 40
-1.0
 40
-0.5
 40
-0.25
 40
-0.25
 40
-0.25
 40
-0.25
 10
656.6053735564207
 20
1680.645317207342
 30
0.0
 10
656.7130002558364
 20
1680.414331389021
 30
0.0
 10
656.8932684957505
 20
1680.057667240972
 30
0.0
 10
657.1006419846124
 20
1679.687630324206
 30
0.0
 10
657.1727236163013
 20
1679.56290996544
 30
0.0
  0
SPLINE
  5
1F3
330
1A3
100
AcDbEntity
  8
P-SANR-FIXT
100
AcDbSpline
210
0.0
220
0.0
230
1.0
 70
     8
 71
     3
 72
     9
 73
     5
 74
     0
 42
0.000000001
 43
0.0000000001
 40
-1.0
 40
-1.0
 40
-1.0
 40
-1.0
 40
-0.5
 40
0.0
 40
0.0
 40
0.0
 40
0.0
 10
676.9451232544269
 20
1667.174786505611
 30
0.0
 10
677.1651920142179
 20
1667.198517997548
 30
0.0
 10
677.6506538034028
 20
1667.222291808649
 30
0.0
 10
678.222996846615
 20
1667.198517997548
 30
0.0
 10
678.5299468604335
 20
1667.174786505611
 30
0.0
  0
SPLINE
  5
1F4
330
1A3
100
AcDbEntity
  8
P-SANR-FIXT
100
AcDbSpline
210
0.0
220
0.0
230
1.0
 70
     8
 71
     3
 72
     9
 73
     5
 74
     0
 42
0.000000001
 43
0.0000000001
 40
-1.0
 40
-1.0
 40
-1.0
 40
-1.0
 40
-0.5
 40
0.0
 40
0.0
 40
0.0
 40
0.0
 10
698.0772847562171
 20
1679.184735872969
 30
0.0
 10
698.1462861894814
 20
1679.439453183176
 30
0.0
 10
698.3479496980721
 20
1679.938779191623
 30
0.0
 10
698.6751886051538
 20
1680.414331389017
 30
0.0
 10
698.8696965584341
 20
1680.645317207335
 30
0.0
  0
SPLINE
  5
1F5
330
1A3
100
AcDbEntity
  8
P-SANR-FIXT
100
AcDbSpline
210
0.0
220
0.0
230
1.0
 70
     8
 71
     3
 72
    23
 73
    19
 74
     0
 42
0.000000001
 43
0.0000000001
 40
-1.0
 40
-1.0
 40
-1.0
 40
-1.0
 40
-0.875
 40
-0.8125
 40
-0.78125
 40
-0.75
 40
-0.71875
 40
-0.6875
 40
-0.625
 40
-0.5625
 40
-0.53125
 40
-0.5
 40
-0.46875
 40
-0.4375
 40
-0.375
 40
-0.3125
 40
-0.25
 40
0.0
 40
0.0
 40
0.0
 40
0.0
 10
676.9451232544266
 20
1718.135746643698
 30
0.0
 10
676.5230128064326
 20
1718.203914883039
 30
0.0
 10
676.0297528390629
 20
1718.441726801491
 30
0.0
 10
675.715753592308
 20
1718.821363627126
 30
0.0
 10
675.6097968901749
 20
1719.051305606748
 30
0.0
 10
675.563266677135
 20
1719.228106263243
 30
0.0
 10
675.5616962728271
 20
1719.400188341376
 30
0.0
 10
675.6242850626981
 20
1719.614563407493
 30
0.0
 10
675.7934708853938
 20
1719.858642648921
 30
0.0
 10
676.0300447485509
 20
1720.08434376208
 30
0.0
 10
676.2308200632056
 20
1720.267825611309
 30
0.0
 10
676.3770455192425
 20
1720.41370171783
 30
0.0
 10
676.5258011362355
 20
1720.563494045699
 30
0.0
 10
676.7435181295464
 20
1720.756265406556
 30
0.0
 10
677.0399642516265
 20
1720.990762973971
 30
0.0
 10
677.4273706795315
 20
1721.262948116819
 30
0.0
 10
678.2395085945769
 20
1721.806001740619
 30
0.0
 10
679.0021943386189
 20
1722.239030262685
 30
0.0
 10
679.6631502163404
 20
1722.548216892618
 30
0.0
  0
ELLIPSE
  5
1F6
330
1A3
100
AcDbEntity
  8
P-SANR-FIXT
100
AcDbEllipse
 10
687.4787879209048
 20
1692.655266574655
 30
0.0
 11
0.0
 21
31.0284507997749
 31
0.0
210
0.0
220
0.0
230
0.9999999999999998
 40
0.9396926207859106
 41
6.011815189188453
 42
6.554555425170712
  0
SPLINE
  5
1F7
330
1A3
100
AcDbEntity
  8
P-SANR-FIXT
100
AcDbSpline
210
0.0
220
0.0
230
1.0
 70
     8
 71
     3
 72
    23
 73
    19
 74
     0
 42
0.000000001
 43
0.0000000001
 40
-1.0
 40
-1.0
 40
-1.0
 40
-1.0
 40
-0.75
 40
-0.6875
 40
-0.625
 40
-0.5625
 40
-0.53125
 40
-0.5
 40
-0.46875
 40
-0.4375
 40
-0.375
 40
-0.3125
 40
-0.28125
 40
-0.25
 40
-0.21875
 40
-0.1875
 40
-0.125
 40
0.0
 40
0.0
 40
0.0
 40
0.0
 10
695.2944256254705
 20
1722.548216892618
 30
0.0
 10
694.24558702279
 20
1722.239030262684
 30
0.0
 10
692.8807391576452
 20
1721.806001740619
 30
0.0
 10
691.1480306083599
 20
1721.262948116819
 30
0.0
 10
690.2636869019279
 20
1720.990762973971
 30
0.0
 10
689.5043893218148
 20
1720.756265406556
 30
0.0
 10
688.880663969074
 20
1720.563494045699
 30
0.0
 10
688.401735869492
 20
1720.41370171783
 30
0.0
 10
687.9181689931466
 20
1720.267825611309
 30
0.0
 10
687.2727736931705
 20
1720.08434376208
 30
0.0
 10
686.4508870134653
 20
1719.858642648921
 30
0.0
 10
685.5807303805017
 20
1719.614563407493
 30
0.0
 10
684.8354600104856
 20
1719.400188341376
 30
0.0
 10
684.2441887966649
 20
1719.228106263243
 30
0.0
 10
683.6220265644489
 20
1719.051305606748
 30
0.0
 10
682.7603138451888
 20
1718.821363627127
 30
0.0
 10
681.1590889947141
 20
1718.441726801491
 30
0.0
 10
679.6216873743776
 20
1718.203914883039
 30
0.0
 10
678.5299468604327
 20
1718.135746643698
 30
0.0
  0
SPLINE
  5
1F8
330
1A3
100
AcDbEntity
  8
P-SANR-FIXT
100
AcDbSpline
210
0.0
220
0.0
230
1.0
 70
     8
 71
     3
 72
    21
 73
    17
 74
     0
 42
0.000000001
 43
0.0000000001
 40
-1.0
 40
-1.0
 40
-1.0
 40
-1.0
 40
-0.8333333333333332
 40
-0.75
 40
-0.7083333333333333
 40
-0.6666666666666666
 40
-0.625
 40
-0.5833333333333333
 40
-0.5
 40
-0.4166666666666666
 40
-0.375
 40
-0.3333333333333333
 40
-0.2916666666666666
 40
-0.25
 40
-0.1666666666666666
 40
0.0
 40
0.0
 40
0.0
 40
0.0
 10
698.0772847562169
 20
1706.125797276341
 30
0.0
 10
698.0261460736514
 20
1706.485146718032
 30
0.0
 10
698.008357588674
 20
1706.999051088901
 30
0.0
 10
698.0704620088034
 20
1707.540188935424
 30
0.0
 10
698.127133210678
 20
1707.830976117449
 30
0.0
 10
698.1790297230576
 20
1708.040494575861
 30
0.0
 10
698.2419568064448
 20
1708.237237383738
 30
0.0
 10
698.3406521768917
 20
1708.480014840214
 30
0.0
 10
698.485335205478
 20
1708.754506910494
 30
0.0
 10
698.6473365571445
 20
1709.004726698144
 30
0.0
 10
698.7819582852658
 20
1709.199293095724
 30
0.0
 10
698.8838562478782
 20
1709.345730307295
 30
0.0
 10
698.9874174851689
 20
1709.491021607302
 30
0.0
 10
699.129856141896
 20
1709.677788230847
 30
0.0
 10
699.3884058949544
 20
1709.989660236604
 30
0.0
 10
699.6243227150253
 20
1710.229798529704
 30
0.0
 10
699.7862470843561
 20
1710.377697410437
 30
0.0
  0
SPLINE
  5
1F9
330
1A3
100
AcDbEntity
  8
P-SANR-FIXT
100
AcDbSpline
210
0.0
220
0.0
230
1.0
 70
     8
 71
     3
 72
     9
 73
     5
 74
     0
 42
0.000000001
 43
0.0000000001
 40
-1.0
 40
-1.0
 40
-1.0
 40
-1.0
 40
-0.5
 40
0.0
 40
0.0
 40
0.0
 40
0.0
 10
699.7862470843561
 20
1710.377697410437
 30
0.0
 10
700.9563302367328
 20
1711.41079223186
 30
0.0
 10
703.6130595590232
 20
1713.197067569771
 30
0.0
 10
706.4815145941083
 20
1714.360293155176
 30
0.0
 10
707.8977827261418
 20
1714.804672403881
 30
0.0
  0
ELLIPSE
  5
1FA
330
1A3
100
AcDbEntity
  8
P-SANR-FIXT
100
AcDbEllipse
 10
687.4787879209048
 20
1692.655266574655
 30
0.0
 11
0.0
 21
31.02845079977488
 31
0.0
210
0.0
220
0.0
230
1.0
 40
0.9396926207859094
 41
4.964617637992256
 42
5.507357873970826
  0
SPLINE
  5
1FB
330
1A3
100
AcDbEntity
  8
P-SANR-FIXT
100
AcDbSpline
210
0.0
220
0.0
230
1.0
 70
     8
 71
     3
 72
    23
 73
    19
 74
     0
 42
0.000000001
 43
0.0000000001
 40
-1.0
 40
-1.0
 40
-1.0
 40
-1.0
 40
-0.75
 40
-0.6875
 40
-0.625
 40
-0.5625
 40
-0.53125
 40
-0.5
 40
-0.46875
 40
-0.4375
 40
-0.375
 40
-0.3125
 40
-0.28125
 40
-0.25
 40
-0.21875
 40
-0.1875
 40
-0.125
 40
0.0
 40
0.0
 40
0.0
 40
0.0
 10
715.7134204306356
 20
1700.398811063332
 30
0.0
 10
714.5099371466328
 20
1700.422955074849
 30
0.0
 10
712.9432322045205
 20
1700.48391862015
 30
0.0
 10
710.9987305338596
 20
1700.636593051094
 30
0.0
 10
710.0171175088919
 20
1700.729490416266
 30
0.0
 10
709.1826992166245
 20
1700.825524738111
 30
0.0
 10
708.5035990672305
 20
1700.916228721714
 30
0.0
 10
707.9853134391798
 20
1700.993476860736
 30
0.0
 10
707.4673682806503
 20
1701.075986574803
 30
0.0
 10
706.7838108735205
 20
1701.18912764767
 30
0.0
 10
705.9245773553734
 20
1701.345990695889
 30
0.0
 10
705.0310323042177
 20
1701.54696017177
 30
0.0
 10
704.2819743974721
 20
1701.754354012487
 30
0.0
 10
703.6988735919768
 20
1701.94149586877
 30
0.0
 10
703.100004506736
 20
1702.161230686084
 30
0.0
 10
702.293082892934
 20
1702.492164177676
 30
0.0
 10
700.8617164982609
 20
1703.184885802789
 30
0.0
 10
699.638449486997
 20
1704.001713764883
 30
0.0
 10
698.8696965584339
 20
1704.665215941975
 30
0.0
  0
SPLINE
  5
1FC
330
1A3
100
AcDbEntity
  8
P-SANR-FIXT
100
AcDbSpline
210
0.0
220
0.0
230
1.0
 70
     8
 71
     3
 72
    23
 73
    19
 74
     0
 42
0.000000001
 43
0.0000000001
 40
-1.0
 40
-1.0
 40
-1.0
 40
-1.0
 40
-0.875
 40
-0.8125
 40
-0.78125
 40
-0.75
 40
-0.71875
 40
-0.6875
 40
-0.625
 40
-0.5625
 40
-0.53125
 40
-0.5
 40
-0.46875
 40
-0.4375
 40
-0.375
 40
-0.3125
 40
-0.25
 40
0.0
 40
0.0
 40
0.0
 40
0.0
 10
698.8696965584341
 20
1680.645317207335
 30
0.0
 10
699.6384494869972
 20
1681.308819384426
 30
0.0
 10
700.8617164982612
 20
1682.12564734652
 30
0.0
 10
702.2930828929343
 20
1682.818368971634
 30
0.0
 10
703.1000045067362
 20
1683.149302463226
 30
0.0
 10
703.6988735919772
 20
1683.369037280539
 30
0.0
 10
704.2819743974724
 20
1683.556179136823
 30
0.0
 10
705.0310323042182
 20
1683.76357297754
 30
0.0
 10
705.9245773553738
 20
1683.964542453421
 30
0.0
 10
706.7838108735208
 20
1684.121405501639
 30
0.0
 10
707.4673682806506
 20
1684.234546574507
 30
0.0
 10
707.9853134391801
 20
1684.317056288574
 30
0.0
 10
708.5035990672308
 20
1684.394304427596
 30
0.0
 10
709.1826992166247
 20
1684.485008411199
 30
0.0
 10
710.017117508892
 20
1684.581042733043
 30
0.0
 10
710.9987305338598
 20
1684.673940098216
 30
0.0
 10
712.9432322045206
 20
1684.82661452916
 30
0.0
 10
714.5099371466328
 20
1684.88757807446
 30
0.0
 10
715.7134204306356
 20
1684.911722085978
 30
0.0
  0
ELLIPSE
  5
1FD
330
1A3
100
AcDbEntity
  8
P-SANR-FIXT
100
AcDbEllipse
 10
687.4787879209048
 20
1692.655266574655
 30
0.0
 11
0.0
 21
31.02845079977478
 31
0.0
210
0.0
220
0.0
230
0.9999999999999998
 40
0.9396926207859138
 41
3.917420086798578
 42
4.460160322777141
  0
SPLINE
  5
1FE
330
1A3
100
AcDbEntity
  8
P-SANR-FIXT
100
AcDbSpline
210
0.0
220
0.0
230
1.0
 70
     8
 71
     3
 72
     9
 73
     5
 74
     0
 42
0.000000001
 43
0.0000000001
 40
-1.0
 40
-1.0
 40
-1.0
 40
-1.0
 40
-0.5
 40
0.0
 40
0.0
 40
0.0
 40
0.0
 10
707.897782726142
 20
1670.505860745429
 30
0.0
 10
706.4815145941087
 20
1670.950239994134
 30
0.0
 10
703.6130595590235
 20
1672.113465579538
 30
0.0
 10
700.9563302367332
 20
1673.899740917449
 30
0.0
 10
699.7862470843564
 20
1674.932835738872
 30
0.0
  0
SPLINE
  5
1FF
330
1A3
100
AcDbEntity
  8
P-SANR-FIXT
100
AcDbSpline
210
0.0
220
0.0
230
1.0
 70
     8
 71
     3
 72
    21
 73
    17
 74
     0
 42
0.000000001
 43
0.0000000001
 40
-1.0
 40
-1.0
 40
-1.0
 40
-1.0
 40
-0.8333333333333332
 40
-0.75
 40
-0.7083333333333333
 40
-0.6666666666666666
 40
-0.625
 40
-0.5833333333333333
 40
-0.5
 40
-0.4166666666666666
 40
-0.375
 40
-0.3333333333333333
 40
-0.2916666666666666
 40
-0.25
 40
-0.1666666666666666
 40
0.0
 40
0.0
 40
0.0
 40
0.0
 10
699.7862470843564
 20
1674.932835738872
 30
0.0
 10
699.6243227150256
 20
1675.080734619605
 30
0.0
 10
699.3884058949545
 20
1675.320872912705
 30
0.0
 10
699.1298561418963
 20
1675.632744918462
 30
0.0
 10
698.9874174851693
 20
1675.819511542008
 30
0.0
 10
698.8838562478786
 20
1675.964802842014
 30
0.0
 10
698.7819582852662
 20
1676.111240053586
 30
0.0
 10
698.6473365571449
 20
1676.305806451165
 30
0.0
 10
698.4853352054782
 20
1676.556026238814
 30
0.0
 10
698.340652176892
 20
1676.830518309096
 30
0.0
 10
698.2419568064451
 20
1677.073295765571
 30
0.0
 10
698.1790297230577
 20
1677.270038573448
 30
0.0
 10
698.1271332106784
 20
1677.47955703186
 30
0.0
 10
698.0704620088037
 20
1677.770344213884
 30
0.0
 10
698.0083575886744
 20
1678.311482060408
 30
0.0
 10
698.0261460736515
 20
1678.825386431277
 30
0.0
 10
698.0772847562171
 20
1679.184735872969
 30
0.0
  0
SPLINE
  5
200
330
1A3
100
AcDbEntity
  8
P-SANR-FIXT
100
AcDbSpline
210
0.0
220
0.0
230
1.0
 70
     8
 71
     3
 72
    23
 73
    19
 74
     0
 42
0.000000001
 43
0.0000000001
 40
-1.0
 40
-1.0
 40
-1.0
 40
-1.0
 40
-0.875
 40
-0.8125
 40
-0.78125
 40
-0.75
 40
-0.71875
 40
-0.6875
 40
-0.625
 40
-0.5625
 40
-0.53125
 40
-0.5
 40
-0.46875
 40
-0.4375
 40
-0.375
 40
-0.3125
 40
-0.25
 40
0.0
 40
0.0
 40
0.0
 40
0.0
 10
678.5299468604335
 20
1667.174786505611
 30
0.0
 10
679.6216873743786
 20
1667.10661826627
 30
0.0
 10
681.1590889947147
 20
1666.868806347818
 30
0.0
 10
682.7603138451893
 20
1666.489169522182
 30
0.0
 10
683.6220265644494
 20
1666.259227542561
 30
0.0
 10
684.2441887966653
 20
1666.082426886066
 30
0.0
 10
684.835460010486
 20
1665.910344807933
 30
0.0
 10
685.5807303805021
 20
1665.695969741816
 30
0.0
 10
686.4508870134659
 20
1665.451890500388
 30
0.0
 10
687.272773693171
 20
1665.226189387229
 30
0.0
 10
687.9181689931471
 20
1665.042707538
 30
0.0
 10
688.4017358694925
 20
1664.896831431479
 30
0.0
 10
688.8806639690746
 20
1664.74703910361
 30
0.0
 10
689.5043893218153
 20
1664.554267742753
 30
0.0
 10
690.2636869019285
 20
1664.319770175338
 30
0.0
 10
691.1480306083602
 20
1664.047585032491
 30
0.0
 10
692.8807391576456
 20
1663.50453140869
 30
0.0
 10
694.2455870227903
 20
1663.071502886625
 30
0.0
 10
695.2944256254709
 20
1662.762316256691
 30
0.0
  0
ELLIPSE
  5
201
330
1A3
100
AcDbEntity
  8
P-SANR-FIXT
100
AcDbEllipse
 10
687.4787879209048
 20
1692.655266574655
 30
0.0
 11
0.0
 21
31.02845079977468
 31
0.0
210
0.0
220
0.0
230
1.0
 40
0.9396926207859172
 41
2.870222535598689
 42
3.412962771580939
  0
SPLINE
  5
202
330
1A3
100
AcDbEntity
  8
P-SANR-FIXT
100
AcDbSpline
210
0.0
220
0.0
230
1.0
 70
     8
 71
     3
 72
    23
 73
    19
 74
     0
 42
0.000000001
 43
0.0000000001
 40
-1.0
 40
-1.0
 40
-1.0
 40
-1.0
 40
-0.75
 40
-0.6875
 40
-0.625
 40
-0.5625
 40
-0.53125
 40
-0.5
 40
-0.46875
 40
-0.4375
 40
-0.375
 40
-0.3125
 40
-0.28125
 40
-0.25
 40
-0.21875
 40
-0.1875
 40
-0.125
 40
0.0
 40
0.0
 40
0.0
 40
0.0
 10
679.6631502163407
 20
1662.762316256691
 30
0.0
 10
679.0021943386189
 20
1663.071502886624
 30
0.0
 10
678.2395085945772
 20
1663.50453140869
 30
0.0
 10
677.4273706795317
 20
1664.047585032491
 30
0.0
 10
677.0399642516268
 20
1664.319770175338
 30
0.0
 10
676.7435181295467
 20
1664.554267742753
 30
0.0
 10
676.5258011362357
 20
1664.74703910361
 30
0.0
 10
676.3770455192428
 20
1664.896831431479
 30
0.0
 10
676.230820063206
 20
1665.042707538
 30
0.0
 10
676.030044748551
 20
1665.226189387229
 30
0.0
 10
675.7934708853943
 20
1665.451890500388
 30
0.0
 10
675.6242850626985
 20
1665.695969741816
 30
0.0
 10
675.5616962728273
 20
1665.910344807933
 30
0.0
 10
675.5632666771353
 20
1666.082426886066
 30
0.0
 10
675.609796890175
 20
1666.259227542561
 30
0.0
 10
675.7157535923083
 20
1666.489169522182
 30
0.0
 10
676.0297528390632
 20
1666.868806347818
 30
0.0
 10
676.5230128064329
 20
1667.10661826627
 30
0.0
 10
676.9451232544269
 20
1667.174786505611
 30
0.0
  0
ELLIPSE
  5
203
330
1A3
100
AcDbEntity
  8
P-SANR-FIXT
100
AcDbEllipse
 10
688.7184100147824
 20
1692.655266574655
 30
0.0
 11
0.0000000000018294
 21
31.53381379959251
 31
0.0
210
0.0
220
0.0
230
1.0
 40
0.9396926207859063
 41
4.712388980384744
 42
6.675884388878374
  0
ELLIPSE
  5
204
330
1A3
100
AcDbEntity
  8
P-SANR-FIXT
100
AcDbEllipse
 10
688.7184100147824
 20
1692.655266574655
 30
0.0
 11
0.0
 21
31.53381379959233
 31
0.0
210
0.0
220
0.0
230
1.0
 40
0.9396926207859179
 41
2.748893571891068
 42
4.712388980384692
  0
ELLIPSE
  5
205
330
1A3
100
AcDbEntity
  8
P-SANR-FIXT
100
AcDbEllipse
 10
687.4787879209053
 20
1728.10012824621
 30
0.0
 11
0.0
 21
10.00000000000002
 31
0.0
210
0.0
220
0.0
230
1.0
 40
0.9396926207858985
 41
2.159389081876638
 42
2.706576649650608
  0
ELLIPSE
  5
206
330
1A3
100
AcDbEntity
  8
P-SANR-FIXT
100
AcDbEllipse
 10
687.4787879209058
 20
1657.210404903098
 30
0.0
 11
0.0
 21
10.00000000000002
 31
0.0
210
0.0
220
0.0
230
1.0
 40
0.9396926207859081
 41
0.4350519522223453
 42
0.9822035717131479
  0
ELLIPSE
  5
207
330
1A3
100
AcDbEntity
  8
P-SANR-FIXT
100
AcDbEllipse
 10
716.3237341650707
 20
1710.377697410438
 30
0.0
 11
0.0
 21
10.00000000000013
 31
0.0
210
0.0
220
0.0
230
1.0
 40
0.9396926207858921
 41
1.112191530688559
 42
1.570796326794898
  0
ELLIPSE
  5
208
330
1A3
100
AcDbEntity
  8
P-SANR-FIXT
100
AcDbEllipse
 10
716.3237341650707
 20
1710.377697410438
 30
0.0
 11
0.0
 21
10.00000000000023
 31
0.0
210
0.0
220
0.0
230
1.0
 40
0.9396926207858896
 41
1.570796326794898
 42
3.076598674094977
  0
ELLIPSE
  5
209
330
1A3
100
AcDbEntity
  8
P-SANR-FIXT
100
AcDbEllipse
 10
716.323734165071
 20
1674.932835738872
 30
0.0
 11
0.0
 21
10.00000000000032
 31
0.0
210
0.0
220
0.0
230
1.0
 40
0.939692620785895
 41
0.0649939794948478
 42
1.570796326794875
  0
ELLIPSE
  5
20A
330
1A3
100
AcDbEntity
  8
P-SANR-FIXT
100
AcDbEllipse
 10
716.323734165071
 20
1674.932835738872
 30
0.0
 11
0.0000000000009709
 21
9.99999999999977
 31
0.0
210
0.0
220
0.0
230
0.9999999999999998
 40
0.9396926207859323
 41
1.570796326794987
 42
2.029401122901341
  0
LINE
  5
20B
330
1A3
100
AcDbEntity
  8
P-SANR-FIXT
100
AcDbLine
 10
653.2787092593028
 20
1692.655266574654
 30
0.0
 11
653.2787092593026
 21
1709.155266574664
 31
0.0
  0
LINE
  5
20C
330
1A3
100
AcDbEntity
  8
P-SANR-FIXT
100
AcDbLine
 10
653.2787092593026
 20
1709.155266574664
 30
0.0
 11
653.2787092593026
 21
1725.655266574672
 31
0.0
  0
LINE
  5
20D
330
1A3
100
AcDbEntity
  8
P-SANR-FIXT
100
AcDbLine
 10
653.2787092593029
 20
1659.655266574636
 30
0.0
 11
653.2787092593029
 21
1676.155266574645
 31
0.0
  0
LINE
  5
20E
330
1A3
100
AcDbEntity
  8
P-SANR-FIXT
100
AcDbLine
 10
653.2787092593029
 20
1676.155266574645
 30
0.0
 11
653.2787092593028
 21
1692.655266574653
 31
0.0
  0
LINE
  5
20F
330
1A3
100
AcDbEntity
  8
P-SANR-FIXT
100
AcDbLine
 10
679.2787092593025
 20
1725.655266574661
 30
0.0
 11
679.2787092593025
 21
1722.612592535237
 31
0.0
  0
LINE
  5
210
330
1A3
100
AcDbEntity
  8
P-SANR-FIXT
100
AcDbLine
 10
679.2787092593028
 20
1662.698296497326
 30
0.0
 11
679.2787092593028
 21
1659.655266574647
 31
0.0
  0
SPLINE
  5
211
330
1A3
100
AcDbEntity
  8
P-SANR-FIXT
100
AcDbSpline
210
0.0
220
0.0
230
1.0
 70
    24
 71
     3
 72
     9
 73
     5
 74
     0
 42
0.000000001
 43
0.0000000001
 40
0.0
 40
0.0
 40
0.0
 40
0.0
 40
0.5
 40
1.0
 40
1.0
 40
1.0
 40
1.0
 10
653.2787092593026
 20
1725.655266574604
 30
0.0
 10
653.2922944458309
 20
1725.655266574604
 30
0.0
 10
653.5945547669448
 20
1725.655266574604
 30
0.0
 10
654.4469949841738
 20
1725.655266574605
 30
0.0
 10
655.0107600668169
 20
1725.655266574605
 30
0.0
  0
LINE
  5
212
330
1A3
100
AcDbEntity
  8
P-SANR-FIXT
100
AcDbLine
 10
655.0107600668169
 20
1725.655266574605
 30
0.0
 11
677.5466584517817
 21
1725.655266574605
 31
0.0
  0
SPLINE
  5
213
330
1A3
100
AcDbEntity
  8
P-SANR-FIXT
100
AcDbSpline
210
0.0
220
0.0
230
1.0
 70
    24
 71
     3
 72
     9
 73
     5
 74
     0
 42
0.000000001
 43
0.0000000001
 40
0.0
 40
0.0
 40
0.0
 40
0.0
 40
0.5
 40
1.0
 40
1.0
 40
1.0
 40
1.0
 10
677.5466584517817
 20
1725.655266574605
 30
0.0
 10
678.1104235344241
 20
1725.655266574605
 30
0.0
 10
678.9628637516531
 20
1725.655266574605
 30
0.0
 10
679.2651240727711
 20
1725.655266574605
 30
0.0
 10
679.2787092593025
 20
1725.655266574604
 30
0.0
  0
LINE
  5
214
330
1A3
100
AcDbEntity
  8
P-SANR-FIXT
100
AcDbLine
 10
655.0107600668544
 20
1725.655266574605
 30
0.0
 11
655.0107600668544
 21
1721.615202368883
 31
0.0
  0
LINE
  5
215
330
1A3
100
AcDbEntity
  8
P-SANR-FIXT
100
AcDbLine
 10
655.0107600668217
 20
1721.615202368883
 30
0.0
 11
676.846753401131
 21
1721.615202368883
 31
0.0
  0
LINE
  5
216
330
1A3
100
AcDbEntity
  8
P-SANR-FIXT
100
AcDbLine
 10
677.5466584517443
 20
1721.923771831488
 30
0.0
 11
677.5466584517443
 21
1725.655266574605
 31
0.0
  0
SPLINE
  5
217
330
1A3
100
AcDbEntity
  8
P-SANR-FIXT
100
AcDbSpline
210
0.0
220
0.0
230
1.0
 70
     8
 71
     3
 72
     9
 73
     5
 74
     0
 42
0.000000001
 43
0.0000000001
 40
0.0
 40
0.0
 40
0.0
 40
0.0
 40
0.5
 40
1.0
 40
1.0
 40
1.0
 40
1.0
 10
655.0107600668217
 20
1721.615202368883
 30
0.0
 10
654.4469949841907
 20
1719.566389889643
 30
0.0
 10
653.5945547669733
 20
1715.440921444698
 30
0.0
 10
653.2922944458448
 20
1711.259766026824
 30
0.0
 10
653.2787092593026
 20
1709.155266574654
 30
0.0
  0
SPLINE
  5
218
330
1A3
100
AcDbEntity
  8
P-SANR-FIXT
100
AcDbSpline
210
0.0
220
0.0
230
1.0
 70
     8
 71
     3
 72
     9
 73
     5
 74
     0
 42
0.000000001
 43
0.0000000001
 40
0.0
 40
0.0
 40
0.0
 40
0.0
 40
0.5
 40
0.8272796544260568
 40
0.8272796544260568
 40
0.8272796544260568
 40
0.8272796544260568
 10
653.2787092593026
 20
1709.155266574654
 30
0.0
 10
653.2922944458452
 20
1707.050767122467
 30
0.0
 10
653.5423482598596
 20
1703.591782313236
 30
0.0
 10
654.1689405879016
 20
1700.170909201992
 30
0.0
 10
654.4757572919553
 20
1698.823544191338
 30
0.0
  0
SPLINE
  5
219
330
1A3
100
AcDbEntity
  8
P-SANR-FIXT
100
AcDbSpline
210
0.0
220
0.0
230
1.0
 70
     8
 71
     3
 72
     9
 73
     5
 74
     0
 42
0.000000001
 43
0.0000000001
 40
0.1727203455656848
 40
0.1727203455656848
 40
0.1727203455656848
 40
0.1727203455656848
 40
0.5
 40
1.0
 40
1.0
 40
1.0
 40
1.0
 10
654.4757572919997
 20
1686.486988957969
 30
0.0
 10
654.1689405879409
 20
1685.13962394729
 30
0.0
 10
653.5423482598949
 20
1681.718750836036
 30
0.0
 10
653.2922944458627
 20
1678.259766026796
 30
0.0
 10
653.2787092593031
 20
1676.155266574624
 30
0.0
  0
SPLINE
  5
21A
330
1A3
100
AcDbEntity
  8
P-SANR-FIXT
100
AcDbSpline
210
0.0
220
0.0
230
1.0
 70
     8
 71
     3
 72
     9
 73
     5
 74
     0
 42
0.000000001
 43
0.0000000001
 40
0.0
 40
0.0
 40
0.0
 40
0.0
 40
0.5
 40
1.0
 40
1.0
 40
1.0
 40
1.0
 10
653.2787092593029
 20
1676.155266574624
 30
0.0
 10
653.2922944458633
 20
1674.050767122433
 30
0.0
 10
653.5945547670211
 20
1669.869611704517
 30
0.0
 10
654.4469949842531
 20
1665.744143259531
 30
0.0
 10
655.0107600668877
 20
1663.695330780271
 30
0.0
  0
LINE
  5
21B
330
1A3
100
AcDbEntity
  8
P-SANR-FIXT
100
AcDbLine
 10
655.0107600668877
 20
1663.695330780271
 30
0.0
 11
676.935488210527
 21
1663.695330780271
 31
0.0
  0
LINE
  5
21C
330
1A3
100
AcDbEntity
  8
P-SANR-FIXT
100
AcDbLine
 10
655.0107600668546
 20
1663.69533078027
 30
0.0
 11
655.0107600668546
 21
1659.65526657458
 31
0.0
  0
LINE
  5
21D
330
1A3
100
AcDbEntity
  8
P-SANR-FIXT
100
AcDbLine
 10
655.0107600668923
 20
1659.65526657458
 30
0.0
 11
677.546658451707
 21
1659.65526657458
 31
0.0
  0
LINE
  5
21E
330
1A3
100
AcDbEntity
  8
P-SANR-FIXT
100
AcDbLine
 10
677.5466584517446
 20
1659.65526657458
 30
0.0
 11
677.5466584517446
 21
1663.387236068627
 31
0.0
  0
SPLINE
  5
21F
330
1A3
100
AcDbEntity
  8
P-SANR-FIXT
100
AcDbSpline
210
0.0
220
0.0
230
1.0
 70
    24
 71
     3
 72
     9
 73
     5
 74
     0
 42
0.000000001
 43
0.0000000001
 40
0.0
 40
0.0
 40
0.0
 40
0.0
 40
0.5
 40
1.0
 40
1.0
 40
1.0
 40
1.0
 10
655.0107600668923
 20
1659.655266574581
 30
0.0
 10
654.4469949842596
 20
1659.65526657458
 30
0.0
 10
653.5945547670286
 20
1659.65526657458
 30
0.0
 10
653.2922944458667
 20
1659.65526657458
 30
0.0
 10
653.2787092593029
 20
1659.65526657458
 30
0.0
  0
SPLINE
  5
220
330
1A3
100
AcDbEntity
  8
P-SANR-FIXT
100
AcDbSpline
210
0.0
220
0.0
230
1.0
 70
    24
 71
     3
 72
     9
 73
     5
 74
     0
 42
0.000000001
 43
0.0000000001
 40
0.0
 40
0.0
 40
0.0
 40
0.0
 40
0.5
 40
1.0
 40
1.0
 40
1.0
 40
1.0
 10
679.2787092593028
 20
1659.65526657458
 30
0.0
 10
679.2651240727359
 20
1659.65526657458
 30
0.0
 10
678.9628637515696
 20
1659.65526657458
 30
0.0
 10
678.1104235343388
 20
1659.655266574581
 30
0.0
 10
677.546658451707
 20
1659.655266574581
 30
0.0
  0
LINE
  5
221
330
1A3
100
AcDbEntity
  8
P-SANR-FIXT
100
AcDbLine
 10
807.2787092592987
 20
1725.655266574673
 30
0.0
 11
807.2787092592987
 21
1709.155266574666
 31
0.0
  0
LINE
  5
222
330
1A3
100
AcDbEntity
  8
P-SANR-FIXT
100
AcDbLine
 10
807.2787092592987
 20
1709.155266574666
 30
0.0
 11
807.2787092592987
 21
1702.664701381853
 31
0.0
  0
LINE
  5
223
330
1A3
100
AcDbEntity
  8
P-SANR-FIXT
100
AcDbLine
 10
807.2787092592989
 20
1674.639241633876
 30
0.0
 11
807.2787092592989
 21
1659.655266574637
 31
0.0
  0
LINE
  5
224
330
1A3
100
AcDbEntity
  8
P-SANR-FIXT
100
AcDbLine
 10
781.2787092592989
 20
1702.664701381852
 30
0.0
 11
781.2787092592986
 21
1709.15526657466
 31
0.0
  0
LINE
  5
225
330
1A3
100
AcDbEntity
  8
P-SANR-FIXT
100
AcDbLine
 10
781.2787092592986
 20
1709.155266574659
 30
0.0
 11
781.2787092592986
 21
1725.655266574662
 31
0.0
  0
LINE
  5
226
330
1A3
100
AcDbEntity
  8
P-SANR-FIXT
100
AcDbLine
 10
781.278709259299
 20
1659.655266574648
 30
0.0
 11
781.278709259299
 21
1674.639241633875
 31
0.0
  0
SPLINE
  5
227
330
1A3
100
AcDbEntity
  8
P-SANR-FIXT
100
AcDbSpline
210
0.0
220
0.0
230
1.0
 70
    24
 71
     3
 72
     9
 73
     5
 74
     0
 42
0.000000001
 43
0.0000000001
 40
0.0
 40
0.0
 40
0.0
 40
0.0
 40
0.5
 40
1.0
 40
1.0
 40
1.0
 40
1.0
 10
781.2787092592986
 20
1725.655266574605
 30
0.0
 10
781.2922944458302
 20
1725.655266574605
 30
0.0
 10
781.5945547669484
 20
1725.655266574605
 30
0.0
 10
782.4469949841772
 20
1725.655266574605
 30
0.0
 10
783.0107600668195
 20
1725.655266574605
 30
0.0
  0
SPLINE
  5
228
330
1A3
100
AcDbEntity
  8
P-SANR-FIXT
100
AcDbSpline
210
0.0
220
0.0
230
1.0
 70
    24
 71
     3
 72
     9
 73
     5
 74
     0
 42
0.000000001
 43
0.0000000001
 40
0.0
 40
0.0
 40
0.0
 40
0.0
 40
0.5
 40
1.0
 40
1.0
 40
1.0
 40
1.0
 10
805.5466584517841
 20
1725.655266574606
 30
0.0
 10
806.1104235344275
 20
1725.655266574606
 30
0.0
 10
806.9628637516563
 20
1725.655266574605
 30
0.0
 10
807.2651240727704
 20
1725.655266574605
 30
0.0
 10
807.2787092592987
 20
1725.655266574605
 30
0.0
  0
LINE
  5
229
330
1A3
100
AcDbEntity
  8
P-SANR-FIXT
100
AcDbLine
 10
783.0107600668195
 20
1725.655266574605
 30
0.0
 11
805.5466584517841
 21
1725.655266574606
 31
0.0
  0
LINE
  5
22A
330
1A3
100
AcDbEntity
  8
P-SANR-FIXT
100
AcDbLine
 10
783.0107600668569
 20
1725.655266574605
 30
0.0
 11
783.0107600668569
 21
1721.615202368884
 31
0.0
  0
LINE
  5
22B
330
1A3
100
AcDbEntity
  8
P-SANR-FIXT
100
AcDbLine
 10
805.5466584517469
 20
1721.615202368884
 30
0.0
 11
805.5466584517469
 21
1725.655266574606
 31
0.0
  0
LINE
  5
22C
330
1A3
100
AcDbEntity
  8
P-SANR-FIXT
100
AcDbLine
 10
783.0107600668241
 20
1721.615202368884
 30
0.0
 11
805.5466584517796
 21
1721.615202368884
 31
0.0
  0
SPLINE
  5
22D
330
1A3
100
AcDbEntity
  8
P-SANR-FIXT
100
AcDbSpline
210
0.0
220
0.0
230
1.0
 70
     8
 71
     3
 72
     9
 73
     5
 74
     0
 42
0.000000001
 43
0.0000000001
 40
0.0
 40
0.0
 40
0.0
 40
0.0
 40
0.5
 40
1.0
 40
1.0
 40
1.0
 40
1.0
 10
783.0107600668241
 20
1721.615202368884
 30
0.0
 10
782.4469949841943
 20
1719.566389889644
 30
0.0
 10
781.5945547669769
 20
1715.440921444699
 30
0.0
 10
781.292294445844
 20
1711.259766026825
 30
0.0
 10
781.2787092592986
 20
1709.155266574656
 30
0.0
  0
SPLINE
  5
22E
330
1A3
100
AcDbEntity
  8
P-SANR-FIXT
100
AcDbSpline
210
0.0
220
0.0
230
1.0
 70
     8
 71
     3
 72
     9
 73
     5
 74
     0
 42
0.000000001
 43
0.0000000001
 40
0.0
 40
0.0
 40
0.0
 40
0.0
 40
0.5
 40
0.5185521778843068
 40
0.5185521778843068
 40
0.5185521778843068
 40
0.5185521778843068
 10
781.2787092592986
 20
1709.155266574656
 30
0.0
 10
781.2922944458445
 20
1707.050767122468
 30
0.0
 10
781.4490321936585
 20
1704.882619874438
 30
0.0
 10
781.7537113135314
 20
1702.729446650794
 30
0.0
 10
781.7648011438961
 20
1702.652432002086
 30
0.0
  0
SPLINE
  5
22F
330
1A3
100
AcDbEntity
  8
P-SANR-FIXT
100
AcDbSpline
210
0.0
220
0.0
230
1.0
 70
     8
 71
     3
 72
     9
 73
     5
 74
     0
 42
0.000000001
 43
0.0000000001
 40
0.4814478221157055
 40
0.4814478221157055
 40
0.4814478221157055
 40
0.4814478221157055
 40
0.5
 40
1.0
 40
1.0
 40
1.0
 40
1.0
 10
806.792617374708
 20
1702.652432002086
 30
0.0
 10
806.8037072050724
 20
1702.729446650794
 30
0.0
 10
807.1083863249441
 20
1704.882619874438
 30
0.0
 10
807.2651240727559
 20
1707.050767122467
 30
0.0
 10
807.2787092592987
 20
1709.155266574656
 30
0.0
  0
SPLINE
  5
230
330
1A3
100
AcDbEntity
  8
P-SANR-FIXT
100
AcDbSpline
210
0.0
220
0.0
230
1.0
 70
     8
 71
     3
 72
     9
 73
     5
 74
     0
 42
0.000000001
 43
0.0000000001
 40
0.0
 40
0.0
 40
0.0
 40
0.0
 40
0.5
 40
1.0
 40
1.0
 40
1.0
 40
1.0
 10
807.2787092592987
 20
1709.155266574656
 30
0.0
 10
807.2651240727564
 20
1711.259766026826
 30
0.0
 10
806.9628637516279
 20
1715.4409214447
 30
0.0
 10
806.1104235344105
 20
1719.566389889644
 30
0.0
 10
805.5466584517796
 20
1721.615202368884
 30
0.0
  0
SPLINE
  5
231
330
1A3
100
AcDbEntity
  8
P-SANR-FIXT
100
AcDbSpline
210
0.0
220
0.0
230
1.0
 70
     8
 71
     3
 72
     9
 73
     5
 74
     0
 42
0.000000001
 43
0.0000000001
 40
0.1180722885080158
 40
0.1180722885080158
 40
0.1180722885080158
 40
0.1180722885080158
 40
0.5
 40
1.0
 40
1.0
 40
1.0
 40
1.0
 10
781.311343745299
 20
1674.666697182901
 30
0.0
 10
781.3713416754173
 20
1673.064186280559
 30
0.0
 10
781.6952043342893
 20
1669.382508204051
 30
0.0
 10
782.4469949842566
 20
1665.744143259532
 30
0.0
 10
783.0107600668902
 20
1663.695330780272
 30
0.0
  0
SPLINE
  5
232
330
1A3
100
AcDbEntity
  8
P-SANR-FIXT
100
AcDbSpline
210
0.0
220
0.0
230
1.0
 70
     8
 71
     3
 72
     9
 73
     5
 74
     0
 42
0.000000001
 43
0.0000000001
 40
0.0
 40
0.0
 40
0.0
 40
0.0
 40
0.5
 40
0.8819277114920433
 40
0.8819277114920433
 40
0.8819277114920433
 40
0.8819277114920433
 10
805.5466584517141
 20
1663.695330780272
 30
0.0
 10
806.1104235343488
 20
1665.744143259533
 30
0.0
 10
806.862214184316
 20
1669.382508204052
 30
0.0
 10
807.1860768431847
 20
1673.06418628056
 30
0.0
 10
807.2460747733009
 20
1674.666697182902
 30
0.0
  0
LINE
  5
233
330
1A3
100
AcDbEntity
  8
P-SANR-FIXT
100
AcDbLine
 10
783.0107600668902
 20
1663.695330780272
 30
0.0
 11
805.5466584517141
 21
1663.695330780272
 31
0.0
  0
LINE
  5
234
330
1A3
100
AcDbEntity
  8
P-SANR-FIXT
100
AcDbLine
 10
783.0107600668573
 20
1663.695330780272
 30
0.0
 11
783.0107600668573
 21
1659.655266574581
 31
0.0
  0
LINE
  5
235
330
1A3
100
AcDbEntity
  8
P-SANR-FIXT
100
AcDbLine
 10
805.5466584517471
 20
1659.655266574581
 30
0.0
 11
805.5466584517471
 21
1663.695330780272
 31
0.0
  0
SPLINE
  5
236
330
1A3
100
AcDbEntity
  8
P-SANR-FIXT
100
AcDbSpline
210
0.0
220
0.0
230
1.0
 70
    24
 71
     3
 72
     9
 73
     5
 74
     0
 42
0.000000001
 43
0.0000000001
 40
0.0
 40
0.0
 40
0.0
 40
0.0
 40
0.5
 40
1.0
 40
1.0
 40
1.0
 40
1.0
 10
807.2787092592989
 20
1659.655266574581
 30
0.0
 10
807.2651240727351
 20
1659.655266574581
 30
0.0
 10
806.9628637515732
 20
1659.655266574581
 30
0.0
 10
806.1104235343423
 20
1659.655266574581
 30
0.0
 10
805.5466584517095
 20
1659.655266574581
 30
0.0
  0
LINE
  5
237
330
1A3
100
AcDbEntity
  8
P-SANR-FIXT
100
AcDbLine
 10
783.0107600668949
 20
1659.655266574581
 30
0.0
 11
805.5466584517095
 21
1659.655266574581
 31
0.0
  0
SPLINE
  5
238
330
1A3
100
AcDbEntity
  8
P-SANR-FIXT
100
AcDbSpline
210
0.0
220
0.0
230
1.0
 70
    24
 71
     3
 72
     9
 73
     5
 74
     0
 42
0.000000001
 43
0.0000000001
 40
0.0
 40
0.0
 40
0.0
 40
0.0
 40
0.5
 40
1.0
 40
1.0
 40
1.0
 40
1.0
 10
783.0107600668949
 20
1659.655266574581
 30
0.0
 10
782.4469949842631
 20
1659.655266574581
 30
0.0
 10
781.5945547670321
 20
1659.655266574581
 30
0.0
 10
781.292294445866
 20
1659.655266574581
 30
0.0
 10
781.278709259299
 20
1659.655266574581
 30
0.0
  0
LINE
  5
239
330
1A3
100
AcDbEntity
  8
P-SANR-FIXT
100
AcDbLine
 10
838.2787092593247
 20
1716.555266574658
 30
0.0
 11
818.4911448246202
 21
1716.555266574658
 31
0.0
  0
LINE
  5
23A
330
1A3
100
AcDbEntity
  8
P-SANR-FIXT
100
AcDbLine
 10
818.4911448246207
 20
1668.755266574654
 30
0.0
 11
838.2787092593252
 21
1668.755266574654
 31
0.0
  0
LINE
  5
23B
330
1A3
100
AcDbEntity
  8
P-SANR-FIXT
100
AcDbLine
 10
840.2787092593255
 20
1714.555266574657
 30
0.0
 11
838.2787092593247
 21
1716.555266574658
 31
0.0
  0
LINE
  5
23C
330
1A3
100
AcDbEntity
  8
P-SANR-FIXT
100
AcDbLine
 10
838.2787092593252
 20
1668.755266574654
 30
0.0
 11
840.2787092593257
 21
1670.755266574655
 31
0.0
  0
LINE
  5
23D
330
1A3
100
AcDbEntity
  8
P-SANR-FIXT
100
AcDbLine
 10
818.4911448246189
 20
1714.6552665746
 30
0.0
 11
818.4911448246189
 21
1716.555266574657
 31
0.0
  0
LINE
  5
23E
330
1A3
100
AcDbEntity
  8
P-SANR-FIXT
100
AcDbLine
 10
818.4911448246191
 20
1702.608748005777
 30
0.0
 11
818.4911448246189
 21
1711.742756914715
 31
0.0
  0
LINE
  5
23F
330
1A3
100
AcDbEntity
  8
P-SANR-FIXT
100
AcDbLine
 10
818.4911448246193
 20
1668.755266574653
 30
0.0
 11
818.4911448246193
 21
1670.655266574568
 31
0.0
  0
LINE
  5
240
330
1A3
100
AcDbEntity
  8
P-SANR-FIXT
100
AcDbLine
 10
818.4911448246193
 20
1673.567776234704
 30
0.0
 11
818.4911448246193
 21
1674.656033223861
 31
0.0
  0
LINE
  5
241
330
1A3
100
AcDbEntity
  8
P-SANR-FIXT
100
AcDbLine
 10
838.2787092593236
 20
1692.655266574655
 30
0.0
 11
838.2787092593233
 21
1716.555266574657
 31
0.0
  0
LINE
  5
242
330
1A3
100
AcDbEntity
  8
P-SANR-FIXT
100
AcDbLine
 10
838.2787092593236
 20
1668.755266574653
 30
0.0
 11
838.2787092593236
 21
1692.655266574655
 31
0.0
  0
LINE
  5
243
330
1A3
100
AcDbEntity
  8
P-SANR-FIXT
100
AcDbLine
 10
840.2787092593239
 20
1714.555266574657
 30
0.0
 11
840.2787092593243
 21
1692.655266574656
 31
0.0
  0
LINE
  5
244
330
1A3
100
AcDbEntity
  8
P-SANR-FIXT
100
AcDbLine
 10
840.2787092593243
 20
1692.655266574655
 30
0.0
 11
840.2787092593243
 21
1670.755266574654
 31
0.0
  0
LINE
  5
245
330
1A3
100
AcDbEntity
  8
P-SANR-FIXT
100
AcDbLine
 10
807.2787092592987
 20
1707.828006840915
 30
0.0
 11
807.2787092592987
 21
1710.447447354304
 31
0.0
  0
LINE
  5
246
330
1A3
100
AcDbEntity
  8
P-SANR-FIXT
100
AcDbLine
 10
807.2787092592987
 20
1714.6552665746
 30
0.0
 11
818.4911448246189
 21
1714.6552665746
 31
0.0
  0
LINE
  5
247
330
1A3
100
AcDbEntity
  8
P-SANR-FIXT
100
AcDbLine
 10
807.2787092592987
 20
1711.742756914535
 30
0.0
 11
818.4911448246189
 21
1711.742756914535
 31
0.0
  0
LINE
  5
248
330
1A3
100
AcDbEntity
  8
P-SANR-FIXT
100
AcDbLine
 10
807.2787092592989
 20
1673.567776234633
 30
0.0
 11
818.4911448246193
 21
1673.567776234633
 31
0.0
  0
LINE
  5
249
330
1A3
100
AcDbEntity
  8
P-SANR-FIXT
100
AcDbLine
 10
818.4911448246193
 20
1670.655266574568
 30
0.0
 11
807.2787092592989
 21
1670.655266574568
 31
0.0
  0
LINE
  5
24A
330
1A3
100
AcDbEntity
  8
P-SANR-FIXT
100
AcDbLine
 10
642.0662736939834
 20
1716.555266574657
 30
0.0
 11
622.2787092592792
 21
1716.555266574657
 31
0.0
  0
LINE
  5
24B
330
1A3
100
AcDbEntity
  8
P-SANR-FIXT
100
AcDbLine
 10
622.2787092592794
 20
1668.755266574653
 30
0.0
 11
642.0662736939838
 21
1668.755266574653
 31
0.0
  0
LINE
  5
24C
330
1A3
100
AcDbEntity
  8
P-SANR-FIXT
100
AcDbLine
 10
622.2787092592792
 20
1716.555266574657
 30
0.0
 11
620.2787092592784
 21
1714.555266574656
 31
0.0
  0
LINE
  5
24D
330
1A3
100
AcDbEntity
  8
P-SANR-FIXT
100
AcDbLine
 10
620.2787092592786
 20
1670.755266574653
 30
0.0
 11
622.2787092592794
 21
1668.755266574653
 31
0.0
  0
LINE
  5
24E
330
1A3
100
AcDbEntity
  8
P-SANR-FIXT
100
AcDbLine
 10
620.2787092592773
 20
1692.655266574654
 30
0.0
 11
620.2787092592771
 21
1714.555266574655
 31
0.0
  0
LINE
  5
24F
330
1A3
100
AcDbEntity
  8
P-SANR-FIXT
100
AcDbLine
 10
620.2787092592774
 20
1670.755266574653
 30
0.0
 11
620.2787092592773
 21
1692.655266574654
 31
0.0
  0
LINE
  5
250
330
1A3
100
AcDbEntity
  8
P-SANR-FIXT
100
AcDbLine
 10
642.0662736939822
 20
1711.742756914714
 30
0.0
 11
642.0662736939823
 21
1695.567776234575
 31
0.0
  0
LINE
  5
251
330
1A3
100
AcDbEntity
  8
P-SANR-FIXT
100
AcDbLine
 10
642.0662736939822
 20
1716.555266574656
 30
0.0
 11
642.0662736939822
 21
1714.655266574599
 31
0.0
  0
LINE
  5
252
330
1A3
100
AcDbEntity
  8
P-SANR-FIXT
100
AcDbLine
 10
642.0662736939824
 20
1670.655266574567
 30
0.0
 11
642.0662736939824
 21
1668.755266574652
 31
0.0
  0
LINE
  5
253
330
1A3
100
AcDbEntity
  8
P-SANR-FIXT
100
AcDbLine
 10
642.0662736939823
 20
1689.742756914554
 30
0.0
 11
642.0662736939824
 21
1673.567776234704
 31
0.0
  0
LINE
  5
254
330
1A3
100
AcDbEntity
  8
P-SANR-FIXT
100
AcDbLine
 10
622.2787092592779
 20
1716.555266574656
 30
0.0
 11
622.2787092592779
 21
1692.655266574654
 31
0.0
  0
LINE
  5
255
330
1A3
100
AcDbEntity
  8
P-SANR-FIXT
100
AcDbLine
 10
622.2787092592779
 20
1692.655266574654
 30
0.0
 11
622.2787092592782
 21
1668.755266574652
 31
0.0
  0
LINE
  5
256
330
1A3
100
AcDbEntity
  8
P-SANR-FIXT
100
AcDbLine
 10
653.2787092593026
 20
1710.4474473543
 30
0.0
 11
653.2787092593026
 21
1707.828006840917
 31
0.0
  0
LINE
  5
257
330
1A3
100
AcDbEntity
  8
P-SANR-FIXT
100
AcDbLine
 10
653.2787092593029
 20
1677.482526307279
 30
0.0
 11
653.2787092593029
 21
1674.863085795092
 31
0.0
  0
LINE
  5
258
330
1A3
100
AcDbEntity
  8
P-SANR-FIXT
100
AcDbLine
 10
653.2787092593029
 20
1670.655266574567
 30
0.0
 11
642.0662736939816
 21
1670.655266574567
 31
0.0
  0
LINE
  5
259
330
1A3
100
AcDbEntity
  8
P-SANR-FIXT
100
AcDbLine
 10
642.0662736939814
 20
1714.655266574599
 30
0.0
 11
653.2787092593026
 21
1714.655266574599
 31
0.0
  0
LINE
  5
25A
330
1A3
100
AcDbEntity
  8
P-SANR-FIXT
100
AcDbLine
 10
642.0662736939814
 20
1711.742756914534
 30
0.0
 11
653.2787092593026
 21
1711.742756914534
 31
0.0
  0
LINE
  5
25B
330
1A3
100
AcDbEntity
  8
P-SANR-FIXT
100
AcDbLine
 10
642.0662736939815
 20
1695.567776234648
 30
0.0
 11
653.2787092593028
 21
1695.567776234648
 31
0.0
  0
LINE
  5
25C
330
1A3
100
AcDbEntity
  8
P-SANR-FIXT
100
AcDbLine
 10
642.0662736939815
 20
1689.742756914519
 30
0.0
 11
653.2787092593028
 21
1689.742756914519
 31
0.0
  0
LINE
  5
25D
330
1A3
100
AcDbEntity
  8
P-SANR-FIXT
100
AcDbLine
 10
642.0662736939816
 20
1673.567776234632
 30
0.0
 11
653.2787092593029
 21
1673.567776234632
 31
0.0
  0
LWPOLYLINE
  5
25E
330
1A3
100
AcDbEntity
  8
P-SANR-FIXT
100
AcDbPolyline
 90
       11
 70
   128
 43
0.0
 10
752.34488300771
 20
1720.454918561075
 10
750.8262236555554
 20
1721.221769728333
 10
748.6055554919178
 20
1722.229415136126
 10
746.2860043700145
 20
1723.16716435078
 10
743.8743600236957
 20
1724.026396851625
 10
741.3784760841179
 20
1724.799018525212
 10
738.8072038574251
 20
1725.477595294358
 10
736.1703068911089
 20
1726.055478657357
 10
733.478357454219
 20
1726.526920173637
 10
730.7426165818674
 20
1726.887172095246
 10
729.0552241331693
 20
1727.03678469047
  0
LWPOLYLINE
  5
25F
330
1A3
100
AcDbEntity
  8
P-SANR-FIXT
100
AcDbPolyline
 90
       12
 70
   128
 43
0.0
 10
729.0260848304107
 20
1658.264707443635
 10
729.4377226475249
 20
1658.292880199437
 10
732.1900777033841
 20
1658.599235457739
 10
734.9041654311354
 20
1659.018651194574
 10
737.5684451941124
 20
1659.546883038405
 10
740.1720033043041
 20
1660.178643923812
 10
742.7046800273195
 20
1660.907697272537
 10
745.1571811074178
 20
1661.72696526623
 10
747.5211719221599
 20
1662.628649523087
 10
749.7893528912268
 20
1663.60436127886
 10
751.9555152947631
 20
1664.64525806393
 10
752.3493695822
 20
1664.855076394499
  0
LINE
  5
260
330
1A3
100
AcDbEntity
  8
P-SANR-FIXT
100
AcDbLine
 10
716.1929315711778
 20
1729.655266574656
 30
0.0
 11
711.0181233596303
 21
1729.655266574656
 31
0.0
  0
LINE
  5
261
330
1A3
100
AcDbEntity
  8
P-SANR-FIXT
100
AcDbLine
 10
711.0181233596303
 20
1655.655266574655
 30
0.0
 11
716.1929315711776
 21
1655.655266574655
 31
0.0
  0
LWPOLYLINE
  5
262
330
1A3
100
AcDbEntity
  8
P-SANR-FIXT
100
AcDbPolyline
 90
       32
 70
   128
 43
0.0
 10
753.2939995620322
 20
1692.655266574656
 10
753.26742892759
 20
1694.068867596481
 10
753.1877565619598
 20
1695.480259761501
 10
753.0551010438967
 20
1696.887237136322
 10
752.8696598902755
 20
1698.287599633582
 10
752.6317093847315
 20
1699.679155933058
 10
752.3416043381569
 20
1701.059726400721
 10
751.9997777813768
 20
1702.427146005368
 10
751.6067405903034
 20
1703.779267232809
 10
751.1630810437757
 20
1705.113962997862
 10
750.6694643140932
 20
1706.42912955481
 10
750.1266318899409
 20
1707.722689407341
 10
749.5354009309842
 20
1708.992594219374
 10
748.8966635528472
 20
1710.236827728491
 10
748.2113860404963
 20
1711.45340866402
 10
747.4806079872331
 20
1712.640393671945
 10
746.705441355542
 20
1713.795880248913
 10
745.8870694549842
 20
1714.918009687492
 10
745.0267458311806
 20
1716.004970034514
 10
744.1257930587227
 20
1717.054999063812
 10
743.1856014296382
 20
1718.066387263837
 10
742.2076275278556
 20
1719.037480839568
 10
741.1933926790451
 20
1719.966684726696
 10
740.1444812642956
 20
1720.852465614386
 10
739.0625388854265
 20
1721.693354970895
 10
737.9492703693925
 20
1722.487952064045
 10
736.8064375992861
 20
1723.234926966081
 10
735.6358571599738
 20
1723.933023529736
 10
734.4393977874422
 20
1724.581062319654
 10
733.2189776125576
 20
1725.177943480594
 10
731.9765611921558
 20
1725.722649521315
 10
730.8867882639607
 20
1726.147022649737
  0
LWPOLYLINE
  5
263
330
1A3
100
AcDbEntity
  8
P-SANR-FIXT
100
AcDbPolyline
 90
       33
 70
   128
 43
0.0
 10
730.8867882639607
 20
1659.167251738338
 10
731.6377125317132
 20
1659.449927718075
 10
732.8857235483203
 20
1659.980387856568
 10
734.1122761178478
 20
1660.563283279031
 10
735.3153936896044
 20
1661.197619188665
 10
736.493145300454
 20
1661.882317690704
 10
737.6436486019965
 20
1662.616220549629
 10
738.7650726736169
 20
1663.398092036798
 10
739.8556406277926
 20
1664.226621846736
 10
740.9136320164208
 20
1665.100428062833
 10
741.9373850487009
 20
1666.01806015584
 10
742.925298632316
 20
1666.978002001267
 10
743.8758342503074
 20
1667.978674904504
 10
744.7875176862217
 20
1669.018440625003
 10
745.6589406098514
 20
1670.095604393228
 10
746.488762035319
 20
1671.208417916133
 10
747.2757096623919
 20
1672.355082368755
 10
748.0185811108875
 20
1673.533751370953
 10
748.7162450568645
 20
1674.742533949543
 10
749.3676422780902
 20
1675.979497486921
 10
749.971786615062
 20
1677.242670657901
 10
750.5277658526953
 20
1678.530046356866
 10
751.0347425267046
 20
1679.839584617464
 10
751.4919546577224
 20
1681.169215527094
 10
751.8987164153425
 20
1682.516842138245
 10
752.2544187135444
 20
1683.880343378527
 10
752.5585297383626
 20
1685.257576960869
 10
752.8105954082039
 20
1686.64638229502
 10
753.0102397668754
 20
1688.044583401106
 10
753.1571653091613
 20
1689.449991825587
 10
753.2511532386629
 20
1690.860409559689
 10
753.2920636575816
 20
1692.273631959996
 10
753.2939995620322
 20
1692.655266574655
  0
LWPOLYLINE
  5
264
330
1A3
100
AcDbEntity
  8
P-SANR-FIXT
100
AcDbPolyline
 90
       41
 70
   128
 43
0.0
 10
751.1123269882916
 20
1692.655266574656
 10
751.0846288730472
 20
1694.128851597761
 10
751.0015758687395
 20
1695.600131802455
 10
750.8632919624239
 20
1697.066805447256
 10
750.6699836751959
 20
1698.526576943503
 10
750.4219398764266
 20
1699.977159929251
 10
750.1195315241239
 20
1701.416280340362
 10
749.7632113317775
 20
1702.841679478214
 10
749.3535133620249
 20
1704.251117073734
 10
748.8910525473969
 20
1705.642374347775
 10
748.3765241382112
 20
1707.013257068273
 10
747.8107030773787
 20
1708.36159860494
 10
747.1944433014802
 20
1709.685262982686
 10
746.5286769669071
 20
1710.982147935256
 10
745.8144135991903
 20
1712.250187960902
 10
745.0527391628172
 20
1713.487357382038
 10
744.2448150478939
 20
1714.691673410957
 10
743.3918769689669
 20
1715.86119922352
 10
742.4952337701685
 20
1716.994047042472
 10
741.5562661296632
 20
1718.088381231478
 10
740.5764251551572
 20
1719.142421400186
 10
739.557230861074
 20
1720.154445519524
 10
738.5002705169187
 20
1721.122793045044
 10
737.4071968554578
 20
1722.045868044441
 10
736.2797261286853
 20
1722.922142323346
 10
735.1196359991997
 20
1723.750158541258
 10
733.9287632546876
 20
1724.528533306946
 10
732.7090013337261
 20
1725.255960240063
 10
731.4622976521808
 20
1725.931212982919
 10
730.1906507210949
 20
1726.553148143752
 10
728.8961070491856
 20
1727.120708150266
 10
727.5807578258642
 20
1727.632923989976
 10
726.2467353840394
 20
1728.088917812082
 10
724.8962094457882
 20
1728.48790536433
 10
723.5313831581627
 20
1728.82919823772
 10
722.154488930829
 20
1729.112205892071
 10
720.7677840917185
 20
1729.336437436487
 10
719.3735463812632
 20
1729.501503140579
 10
717.9740693098601
 20
1729.607115655043
 10
716.5716574068202
 20
1729.653090923641
 10
716.192931571178
 20
1729.655266574656
  0
LWPOLYLINE
  5
265
330
1A3
100
AcDbEntity
  8
P-SANR-FIXT
100
AcDbPolyline
 90
       41
 70
   128
 43
0.0
 10
716.192931571178
 20
1655.655266574655
 10
717.5957397427957
 20
1655.685127181736
 10
718.9962363576954
 20
1655.774656926421
 10
720.3921147375066
 20
1655.923699746867
 10
721.7810779258126
 20
1656.131996096787
 10
723.1608434632532
 20
1656.399183771601
 10
724.5291480622673
 20
1656.724799047321
 10
725.883752152364
 20
1657.108278115311
 10
727.2224442702403
 20
1657.548958792352
 10
728.5430452730455
 20
1658.046082482558
 10
729.8434123573993
 20
1658.598796365563
 10
731.1214428712636
 20
1659.206155784201
 10
732.3750779102174
 20
1659.867126804496
 10
733.6023056939541
 20
1660.580588921187
 10
734.8011647227508
 20
1661.345337883109
 10
735.9697467171441
 20
1662.160088614433
 10
737.1061993469953
 20
1663.023478209909
 10
738.2087287585085
 20
1663.934068984706
 10
739.2756019095474
 20
1664.890351562128
 10
740.3051487248033
 20
1665.890747985155
 10
741.2957640830285
 20
1666.933614840482
 10
742.245909648735
 20
1668.017246386241
 10
743.1541155605128
 20
1669.13987767693
 10
744.0189819875493
 20
1670.299687681168
 10
744.8391805650858
 20
1671.494802389646
 10
745.6134557185118
 20
1672.72329791215
 10
746.3406258846573
 20
1673.983203563693
 10
747.0195846376318
 20
1675.272504940659
 10
747.6493017253614
 20
1676.589146988485
 10
748.2288240218151
 20
1677.931037062756
 10
748.757276398836
 20
1679.296047985749
 10
749.2338625205129
 20
1680.682021100435
 10
749.6578655621874
 20
1682.086769323797
 10
750.0286488554622
 20
1683.508080201048
 10
750.3456564599972
 20
1684.943718962031
 10
750.6084136624227
 20
1686.391431580669
 10
750.8165274023744
 20
1687.848947837997
 10
750.9696866254328
 20
1689.31398438889
 10
751.0676625626402
 20
1690.784247832288
 10
751.1103089362364
 20
1692.257437784409
 10
751.1123269882916
 20
1692.655266574655
  0
SPLINE
  5
266
330
1A3
100
AcDbEntity
  8
P-SANR-FIXT
100
AcDbSpline
210
0.0
220
0.0
230
1.0
 70
     8
 71
     3
 72
     9
 73
     5
 74
     0
 42
0.000000001
 43
0.0000000001
 40
-1.0
 40
-1.0
 40
-1.0
 40
-1.0
 40
-0.5
 40
0.0
 40
0.0
 40
0.0
 40
0.0
 10
753.841500449491
 20
1692.655266574655
 30
0.0
 10
753.8414851816449
 20
1693.123579992132
 30
0.0
 10
753.8205266021531
 20
1694.059264435295
 30
0.0
 10
753.7577119350619
 20
1694.993064094873
 30
0.0
 10
753.7158405796165
 20
1695.459492728767
 30
0.0
  0
SPLINE
  5
267
330
1A3
100
AcDbEntity
  8
P-SANR-FIXT
100
AcDbSpline
210
0.0
220
0.0
230
1.0
 70
     8
 71
     3
 72
     9
 73
     5
 74
     0
 42
0.000000001
 43
0.0000000001
 40
-1.0
 40
-1.0
 40
-1.0
 40
-1.0
 40
-0.5
 40
0.0
 40
0.0
 40
0.0
 40
0.0
 10
753.7209967329129
 20
1689.909078358932
 30
0.0
 10
753.7611505980044
 20
1690.365891412002
 30
0.0
 10
753.8213884158588
 20
1691.280402501027
 30
0.0
 10
753.8414864090565
 20
1692.196683555818
 30
0.0
 10
753.841500449491
 20
1692.655266574655
 30
0.0
  0
ELLIPSE
  5
268
330
1A3
100
AcDbEntity
  8
P-SANR-FIXT
100
AcDbEllipse
 10
711.0181233596291
 20
1692.655266574655
 30
0.0
 11
0.0
 21
36.99999999999993
 31
0.0
210
0.0
220
0.0
230
1.0
 40
0.9396926207859104
 41
4.712388980384703
 42
6.611449065129212
  0
ELLIPSE
  5
269
330
1A3
100
AcDbEntity
  8
P-SANR-FIXT
100
AcDbEllipse
 10
711.0181233596291
 20
1692.655266574655
 30
0.0
 11
0.0
 21
37.0
 31
0.0
210
0.0
220
0.0
230
1.0
 40
0.9396926207859046
 41
2.813328895646699
 42
4.712388980384691
  0
LINE
  5
26A
330
1A3
100
AcDbEntity
  8
P-SANR-FIXT
100
AcDbLine
 10
757.0140237886506
 20
1689.909078358932
 30
0.0
 11
753.7209967329129
 21
1689.909078358932
 31
0.0
  0
LINE
  5
26B
330
1A3
100
AcDbEntity
  8
P-SANR-FIXT
100
AcDbLine
 10
753.7158405796165
 20
1695.459492728767
 30
0.0
 11
757.0140237886506
 21
1695.459492728767
 31
0.0
  0
LINE
  5
26C
330
1A3
100
AcDbEntity
  8
P-SANR-FIXT
100
AcDbLine
 10
781.2787092593004
 20
1722.805266574656
 30
0.0
 11
780.2787092593022
 21
1722.805266574656
 31
0.0
  0
LINE
  5
26D
330
1A3
100
AcDbEntity
  8
P-SANR-FIXT
100
AcDbLine
 10
780.2787092593023
 20
1662.505266574655
 30
0.0
 11
781.2787092593006
 21
1662.505266574655
 31
0.0
  0
LINE
  5
26E
330
1A3
100
AcDbEntity
  8
P-SANR-FIXT
100
AcDbLine
 10
780.2787092593022
 20
1722.805266574656
 30
0.0
 11
780.2386500626787
 21
1722.735882010793
 31
0.0
  0
LINE
  5
26F
330
1A3
100
AcDbEntity
  8
P-SANR-FIXT
100
AcDbLine
 10
780.2250489466024
 20
1722.71232418671
 30
0.0
 11
779.4126838555175
 21
1721.305266574655
 31
0.0
  0
LINE
  5
270
330
1A3
100
AcDbEntity
  8
P-SANR-FIXT
100
AcDbLine
 10
779.4126838555179
 20
1664.005266574656
 30
0.0
 11
780.2250489466029
 21
1662.598208962602
 31
0.0
  0
LINE
  5
271
330
1A3
100
AcDbEntity
  8
P-SANR-FIXT
100
AcDbLine
 10
780.238650062679
 20
1662.574651138517
 30
0.0
 11
780.2787092593023
 21
1662.505266574655
 31
0.0
  0
LINE
  5
272
330
1A3
100
AcDbEntity
  8
P-SANR-FIXT
100
AcDbLine
 10
778.2868508305977
 20
1720.655266574655
 30
0.0
 11
751.9134338636473
 21
1720.655266574655
 31
0.0
  0
LINE
  5
273
330
1A3
100
AcDbEntity
  8
P-SANR-FIXT
100
AcDbLine
 10
751.8604487296435
 20
1664.655266574655
 30
0.0
 11
778.2868508305981
 21
1664.655266574655
 31
0.0
  0
LINE
  5
274
330
1A3
100
AcDbEntity
  8
P-SANR-FIXT
100
AcDbLine
 10
679.8620577883317
 20
1722.805266574655
 30
0.0
 11
679.2787092593041
 21
1722.805266574655
 31
0.0
  0
LINE
  5
275
330
1A3
100
AcDbEntity
  8
P-SANR-FIXT
100
AcDbLine
 10
679.2787092593044
 20
1662.505266574655
 30
0.0
 11
679.8628733879452
 21
1662.505266574655
 31
0.0
  0
LWPOLYLINE
  5
276
330
1A3
100
AcDbEntity
  8
P-SANR-FIXT
100
AcDbPolyline
 90
       28
 70
   128
 43
0.0
 10
778.2868508305977
 20
1720.655266574655
 10
778.3388369650404
 20
1720.656306435996
 10
778.3907399327578
 20
1720.659424356462
 10
778.4424767000735
 20
1720.664615348045
 10
778.4939644991964
 20
1720.671871106267
 10
778.5451209606315
 20
1720.681180023462
 10
778.595864244953
 20
1720.692527207348
 10
778.6461131737312
 20
1720.705894504851
 10
778.6957873593987
 20
1720.721260531148
 10
778.7448073338555
 20
1720.738600703874
 10
778.7930946755992
 20
1720.757887282452
 10
778.8405721351836
 20
1720.779089412469
 10
778.8871637588017
 20
1720.802173175042
 10
778.9327950097946
 20
1720.827101641074
 10
778.977392887895
 20
1720.853834930338
 10
779.0208860460113
 20
1720.882330275273
 10
779.0632049043689
 20
1720.912542089406
 10
779.1042817618219
 20
1720.944422040279
 10
779.1440509041607
 20
1720.977919126772
 10
779.1824487092415
 20
1721.012979760692
 10
779.2194137487671
 20
1721.049547852504
 10
779.2548868865599
 20
1721.087564901061
 10
779.2888113731664
 20
1721.126970087197
 10
779.321132936645
 20
1721.167700371019
 10
779.3517998693892
 20
1721.209690592761
 10
779.3807631108481
 20
1721.252873577027
 10
779.4079763260141
 20
1721.297180240252
 10
779.4126838555175
 20
1721.305266574655
  0
LWPOLYLINE
  5
277
330
1A3
100
AcDbEntity
  8
P-SANR-FIXT
100
AcDbPolyline
 90
       28
 70
   128
 43
0.0
 10
779.4126838555179
 20
1664.005266574656
 10
779.3857902419591
 20
1664.049767957057
 10
779.3571385597699
 20
1664.093158285399
 10
779.3267746455302
 20
1664.135368144412
 10
779.2947470750249
 20
1664.176330007327
 10
779.261107085535
 20
1664.2159783439
 10
779.2259084938676
 20
1664.254249725251
 10
779.1892076102604
 20
1664.291082925334
 10
779.1510631482983
 20
1664.326419018886
 10
779.1115361309834
 20
1664.360201475696
 10
779.0706897931114
 20
1664.392376251038
 10
779.0285894801093
 20
1664.422891872137
 10
778.9853025434974
 20
1664.451699520507
 10
778.9408982331397
 20
1664.478753110057
 10
778.8954475864605
 20
1664.504009360815
 10
778.8490233147991
 20
1664.527427868167
 10
778.8016996870868
 20
1664.548971167498
 10
778.7535524110327
 20
1664.568604794123
 10
778.7046585120074
 20
1664.586297338429
 10
778.6550962098194
 20
1664.602020496118
 10
778.6049447935795
 20
1664.615749113493
 10
778.5542844948555
 20
1664.627461227695
 10
778.503196359318
 20
1664.637138101839
 10
778.4517621170858
 20
1664.64476425499
 10
778.4000640519744
 20
1664.650327486932
 10
778.3481848698597
 20
1664.653818897679
 10
778.2962075663659
 20
1664.655232901718
 10
778.2868508305981
 20
1664.655266574656
  0
LINE
  5
278
330
1A3
100
AcDbEntity
  8
P-SANR-FIXT
100
AcDbLine
 10
781.2787092592989
 20
1710.449513679298
 30
0.0
 11
781.2787092592989
 21
1707.837281173386
 31
0.0
  0
LINE
  5
279
330
1A3
100
AcDbEntity
  8
P-SANR-FIXT
100
AcDbLine
 10
780.2787092593007
 20
1722.805266574655
 30
0.0
 11
780.2787092593008
 21
1702.662026599369
 31
0.0
  0
LINE
  5
27A
330
1A3
100
AcDbEntity
  8
P-SANR-FIXT
100
AcDbLine
 10
780.278709259301
 20
1674.648025991723
 30
0.0
 11
780.278709259301
 21
1662.505266574655
 31
0.0
  0
ENDBLK
  5
27C
330
1A3
100
AcDbEntity
  8
0
100
AcDbBlockEnd
  0
BLOCK
  5
310
330
27E
100
AcDbEntity
  8
0
100
AcDbBlockBegin
  2
Automatic flow rate regulator valve_Caleffi_121 DN15 - 1 1_2___Pressure gauge-V2-Est - Idraulica
 70
     0
 10
0.0
 20
0.0
 30
0.0
  3
Automatic flow rate regulator valve_Caleffi_121 DN15 - 1 1_2___Pressure gauge-V2-Est - Idraulica
  1

  0
LINE
  5
27F
330
27E
100
AcDbEntity
  8
M-PIPE
100
AcDbLine
 10
1143.924869398236
 20
2120.373573815517
 30
0.0
 11
1144.150620947882
 21
2123.232127951435
 31
0.0
1001
REVIT
1002
{
1070
     3
1000
923097
1002
}
  0
LINE
  5
280
330
27E
100
AcDbEntity
  8
M-PIPE
100
AcDbLine
 10
1210.303838488004
 20
2120.373573815515
 30
0.0
 11
1210.078086938358
 21
2123.232127951433
 31
0.0
1001
REVIT
1002
{
1070
     3
1000
923097
1002
}
  0
ELLIPSE
  5
281
330
27E
100
AcDbEntity
  8
M-PIPE
100
AcDbEllipse
 10
1177.114353943118
 20
2120.08780464777
 30
0.0
 11
33.20000000000014
 21
0.0
 31
0.0
210
0.0
220
0.0
230
1.0
 40
0.342020143325649
 41
3.116423335088675
 42
4.71238898038467
1001
REVIT
1002
{
1070
     3
1000
923097
1002
}
  0
ELLIPSE
  5
282
330
27E
100
AcDbEntity
  8
M-PIPE
100
AcDbEllipse
 10
1434.133123588462
 20
2124.196001755318
 30
0.0
 11
236.1572155968452
 21
185.0128901497013
 31
0.0
210
0.0
220
0.0
230
0.9999999999999996
 40
0.9076733711902383
 41
2.399156183310001
 42
2.444393675997417
1001
REVIT
1002
{
1070
     3
1000
923097
1002
}
  0
ELLIPSE
  5
283
330
27E
100
AcDbEntity
  8
M-PIPE
100
AcDbEllipse
 10
1177.114353943118
 20
2122.906882510105
 30
0.0
 11
32.97744693864699
 21
0.0
 31
0.0
210
0.0
220
0.0
230
1.0
 40
0.3420201433256417
 41
2.879793265790047
 42
3.403392041389417
1001
REVIT
1002
{
1070
     3
1000
923097
1002
}
  0
ELLIPSE
  5
284
330
27E
100
AcDbEntity
  8
M-PIPE
100
AcDbEllipse
 10
1434.133123588464
 20
2077.087534607233
 30
0.0
 11
-236.1572155968481
 21
185.0128901496973
 31
0.0
210
0.0
220
0.0
230
1.0
 40
0.9076733711902479
 41
0.5105023395578716
 42
0.539074027387353
1001
REVIT
1002
{
1070
     3
1000
923097
1002
}
  0
ELLIPSE
  5
285
330
27E
100
AcDbEntity
  8
M-PIPE
100
AcDbEllipse
 10
920.0955842977721
 20
2077.087534607244
 30
0.0
 11
236.1572155968476
 21
185.0128901496971
 31
0.0
210
0.0
220
0.0
230
1.0
 40
0.9076733711902454
 41
5.744111279792191
 42
5.772682967622099
1001
REVIT
1002
{
1070
     3
1000
923097
1002
}
  0
ELLIPSE
  5
286
330
27E
100
AcDbEntity
  8
M-PIPE
100
AcDbEllipse
 10
1177.114353943118
 20
2122.906882510105
 30
0.0
 11
32.97744693864698
 21
0.0
 31
0.0
210
0.0
220
0.0
230
1.0
 40
0.3420201433256516
 41
6.021385919379801
 42
6.544984694979168
1001
REVIT
1002
{
1070
     3
1000
923097
1002
}
  0
ELLIPSE
  5
287
330
27E
100
AcDbEntity
  8
M-PIPE
100
AcDbEllipse
 10
920.0955842977723
 20
2124.196001755329
 30
0.0
 11
-236.1572155968426
 21
185.0128901497032
 31
0.0
210
0.0
220
0.0
230
1.0
 40
0.9076733711902491
 41
3.838791631182118
 42
3.88402912386953
1001
REVIT
1002
{
1070
     3
1000
923097
1002
}
  0
ELLIPSE
  5
288
330
27E
100
AcDbEntity
  8
M-PIPE
100
AcDbEllipse
 10
1177.114353943118
 20
2120.08780464777
 30
0.0
 11
-33.19999999999982
 21
0.0000000000013658
 31
0.0
210
0.0
220
0.0
230
1.0
 40
0.3420201433256651
 41
1.570796326794892
 42
3.166761972090865
1001
REVIT
1002
{
1070
     3
1000
923097
1002
}
  0
LINE
  5
289
330
27E
100
AcDbEntity
  8
M-PIPE
100
AcDbLine
 10
1146.675904092649
 20
2132.803230947363
 30
0.0
 11
1146.591097832388
 21
2132.79545896065
 31
0.0
1001
REVIT
1002
{
1070
     3
1000
923097
1002
}
  0
ELLIPSE
  5
28A
330
27E
100
AcDbEntity
  8
M-PIPE
100
AcDbEllipse
 10
1177.114353943118
 20
2135.592732890737
 30
0.0
 11
-31.59999999999991
 21
0.0000000000010334
 31
0.0
210
0.0
220
0.0
230
1.0
 40
0.342020143325658
 41
0.261799387799734
 42
1.570796326794902
1001
REVIT
1002
{
1070
     3
1000
923097
1002
}
  0
ELLIPSE
  5
28B
330
27E
100
AcDbEntity
  8
M-PIPE
100
AcDbEllipse
 10
1177.114353943118
 20
2135.592732890738
 30
0.0
 11
31.59999999999953
 21
0.0
 31
0.0
210
0.0
220
0.0
230
1.0
 40
0.3420201433256434
 41
4.712388980384683
 42
6.021385919379842
1001
REVIT
1002
{
1070
     3
1000
923097
1002
}
  0
LINE
  5
28C
330
27E
100
AcDbEntity
  8
M-PIPE
100
AcDbLine
 10
1207.637610053848
 20
2132.795458960648
 30
0.0
 11
1207.552803793511
 21
2132.803230947368
 31
0.0
1001
REVIT
1002
{
1070
     3
1000
923097
1002
}
  0
LINE
  5
28D
330
27E
100
AcDbEntity
  8
M-PIPE
100
AcDbLine
 10
1145.795296504851
 20
2125.777086873927
 30
0.0
 11
1145.260586260006
 21
2125.826089870941
 31
0.0
1001
REVIT
1002
{
1070
     3
1000
923097
1002
}
  0
LINE
  5
28E
330
27E
100
AcDbEntity
  8
M-PIPE
100
AcDbLine
 10
1208.96812162623
 20
2125.82608987094
 30
0.0
 11
1208.433411381385
 21
2125.777086873926
 31
0.0
1001
REVIT
1002
{
1070
     3
1000
923097
1002
}
  0
LINE
  5
28F
330
27E
100
AcDbEntity
  8
M-PIPE
100
AcDbLine
 10
1140.614353943103
 20
2078.741329333153
 30
0.0
 11
1140.614353943103
 21
2074.982558850029
 31
0.0
1001
REVIT
1002
{
1070
     3
1000
923097
1002
}
  0
LINE
  5
290
330
27E
100
AcDbEntity
  8
M-PIPE
100
AcDbLine
 10
1213.614353943094
 20
2074.982558850027
 30
0.0
 11
1213.614353943094
 21
2078.741329333153
 31
0.0
1001
REVIT
1002
{
1070
     3
1000
923097
1002
}
  0
LINE
  5
291
330
27E
100
AcDbEntity
  8
M-PIPE
100
AcDbLine
 10
1143.117565019625
 20
2089.85782443008
 30
0.0
 11
1143.624950217317
 21
2120.37596308157
 31
0.0
1001
REVIT
1002
{
1070
     3
1000
923097
1002
}
  0
LINE
  5
292
330
27E
100
AcDbEntity
  8
M-PIPE
100
AcDbLine
 10
1211.111142866571
 20
2089.857824430069
 30
0.0
 11
1210.603757668881
 21
2120.375963081559
 31
0.0
1001
REVIT
1002
{
1070
     3
1000
923097
1002
}
  0
ELLIPSE
  5
293
330
27E
100
AcDbEntity
  8
M-PIPE
100
AcDbEllipse
 10
1177.114353943097
 20
2074.982558850027
 30
0.0
 11
-36.49999999999568
 21
0.0000000000003426
 31
0.0
210
0.0
220
0.0
230
1.0
 40
0.3420201433256639
 41
0.0
 42
1.570796326794888
1001
REVIT
1002
{
1070
     3
1000
923097
1002
}
  0
ELLIPSE
  5
294
330
27E
100
AcDbEntity
  8
M-PIPE
100
AcDbEllipse
 10
1177.114353943097
 20
2078.741329333152
 30
0.0
 11
-36.49999999999568
 21
0.0000000000005128
 31
0.0
210
0.0
220
0.0
230
1.0
 40
0.3420201433256639
 41
1.283114227377753
 42
1.570796326794896
1001
REVIT
1002
{
1070
     3
1000
923097
1002
}
  0
LINE
  5
295
330
27E
100
AcDbEntity
  8
M-PIPE
100
AcDbLine
 10
1166.758196354468
 20
2066.770624316758
 30
0.0
 11
1166.758196354468
 21
2078.046935766208
 31
0.0
1001
REVIT
1002
{
1070
     3
1000
923097
1002
}
  0
LINE
  5
296
330
27E
100
AcDbEntity
  8
M-PIPE
100
AcDbLine
 10
1159.688525859555
 20
2079.048491615955
 30
0.0
 11
1159.688525859555
 21
2067.772180166505
 31
0.0
1001
REVIT
1002
{
1070
     3
1000
923097
1002
}
  0
ELLIPSE
  5
297
330
27E
100
AcDbEntity
  8
M-PIPE
100
AcDbEllipse
 10
1177.114353943097
 20
2078.741329333152
 30
0.0
 11
36.4999999999956
 21
0.0
 31
0.0
210
0.0
220
0.0
230
1.0
 40
0.3420201433256585
 41
3.639308717569286
 42
4.214672916405162
1001
REVIT
1002
{
1070
     3
1000
923097
1002
}
  0
LINE
  5
298
330
27E
100
AcDbEntity
  8
M-PIPE
100
AcDbLine
 10
1145.042707343607
 20
2072.781345114451
 30
0.0
 11
1145.042707343607
 21
2084.057656563901
 31
0.0
1001
REVIT
1002
{
1070
     3
1000
923097
1002
}
  0
LINE
  5
299
330
27E
100
AcDbEntity
  8
M-PIPE
100
AcDbLine
 10
1142.114353943113
 20
2086.475626279832
 30
0.0
 11
1142.114353943112
 21
2075.199314830382
 31
0.0
1001
REVIT
1002
{
1070
     3
1000
923097
1002
}
  0
ELLIPSE
  5
29A
330
27E
100
AcDbEntity
  8
M-PIPE
100
AcDbEllipse
 10
1177.114353943097
 20
2078.741329333152
 30
0.0
 11
36.49999999999563
 21
0.0
 31
0.0
210
0.0
220
0.0
230
1.0
 40
0.3420201433256464
 41
2.853910554172207
 42
3.429274753007335
1001
REVIT
1002
{
1070
     3
1000
923097
1002
}
  0
ELLIPSE
  5
29B
330
27E
100
AcDbEntity
  8
M-PIPE
100
AcDbEllipse
 10
1177.114353943097
 20
2074.982558850027
 30
0.0
 11
-36.49999999999546
 21
0.0000000000008532
 31
0.0
210
0.0
220
0.0
230
1.0
 40
0.342020143325666
 41
1.570796326794893
 42
3.141592653589784
1001
REVIT
1002
{
1070
     3
1000
923097
1002
}
  0
ELLIPSE
  5
29C
330
27E
100
AcDbEntity
  8
M-PIPE
100
AcDbEllipse
 10
1177.114353943097
 20
2078.741329333153
 30
0.0
 11
36.49999999999551
 21
0.0
 31
0.0
210
0.0
220
0.0
230
0.9999999999999998
 40
0.3420201433256541
 41
5.995503207765192
 42
6.570867406593863
1001
REVIT
1002
{
1070
     3
1000
923097
1002
}
  0
LINE
  5
29D
330
27E
100
AcDbEntity
  8
M-PIPE
100
AcDbLine
 10
1212.114353943112
 20
2075.199314830419
 30
0.0
 11
1212.114353943112
 21
2086.475626279868
 31
0.0
1001
REVIT
1002
{
1070
     3
1000
923097
1002
}
  0
LINE
  5
29E
330
27E
100
AcDbEntity
  8
M-PIPE
100
AcDbLine
 10
1209.186000542548
 20
2084.057656563876
 30
0.0
 11
1209.186000542548
 21
2072.781345114427
 31
0.0
1001
REVIT
1002
{
1070
     3
1000
923097
1002
}
  0
ELLIPSE
  5
29F
330
27E
100
AcDbEntity
  8
M-PIPE
100
AcDbEllipse
 10
1177.114353943097
 20
2078.741329333153
 30
0.0
 11
36.49999999999563
 21
0.0
 31
0.0
210
0.0
220
0.0
230
1.0
 40
0.342020143325652
 41
5.210105044366441
 42
5.785469243197718
1001
REVIT
1002
{
1070
     3
1000
923097
1002
}
  0
LINE
  5
2A0
330
27E
100
AcDbEntity
  8
M-PIPE
100
AcDbLine
 10
1194.540182026707
 20
2067.772180166517
 30
0.0
 11
1194.540182026707
 21
2079.048491615967
 31
0.0
1001
REVIT
1002
{
1070
     3
1000
923097
1002
}
  0
LINE
  5
2A1
330
27E
100
AcDbEntity
  8
M-PIPE
100
AcDbLine
 10
1187.470511531724
 20
2078.046935766208
 30
0.0
 11
1187.470511531724
 21
2066.770624316758
 31
0.0
1001
REVIT
1002
{
1070
     3
1000
923097
1002
}
  0
ELLIPSE
  5
2A2
330
27E
100
AcDbEntity
  8
M-PIPE
100
AcDbEllipse
 10
1177.114353943097
 20
2078.741329333152
 30
0.0
 11
36.49999999999554
 21
0.0
 31
0.0
210
0.0
220
0.0
230
1.0
 40
0.3420201433256526
 41
4.712388980384683
 42
5.000071079801797
1001
REVIT
1002
{
1070
     3
1000
923097
1002
}
  0
ELLIPSE
  5
2A3
330
27E
100
AcDbEntity
  8
M-PIPE
100
AcDbEllipse
 10
1177.114353943097
 20
2090.017640782602
 30
0.0
 11
36.4999999999957
 21
0.0
 31
0.0
210
0.0
220
0.0
230
1.0
 40
0.3420201433256529
 41
2.779352090989106
 42
2.853910554172179
1001
REVIT
1002
{
1070
     3
1000
923097
1002
}
  0
LINE
  5
2A4
330
27E
100
AcDbEntity
  8
M-PIPE
100
AcDbLine
 10
1142.114353943114
 20
2093.559655285373
 30
0.0
 11
1142.114353943113
 21
2086.475626279831
 31
0.0
1001
REVIT
1002
{
1070
     3
1000
923097
1002
}
  0
ELLIPSE
  5
2A5
330
27E
100
AcDbEntity
  8
M-PIPE
100
AcDbEllipse
 10
1177.114353943097
 20
2090.017640782602
 30
0.0
 11
36.49999999999571
 21
0.0
 31
0.0
210
0.0
220
0.0
230
1.0
 40
0.3420201433256516
 41
3.42927475300733
 42
3.639308717569297
1001
REVIT
1002
{
1070
     3
1000
923097
1002
}
  0
LINE
  5
2A6
330
27E
100
AcDbEntity
  8
M-PIPE
100
AcDbLine
 10
1145.042707343606
 20
2084.057656563902
 30
0.0
 11
1159.688525859557
 21
2079.048491615954
 31
0.0
1001
REVIT
1002
{
1070
     3
1000
923097
1002
}
  0
ELLIPSE
  5
2A7
330
27E
100
AcDbEntity
  8
M-PIPE
100
AcDbEllipse
 10
1177.114353943097
 20
2090.017640782602
 30
0.0
 11
36.49999999999558
 21
0.0
 31
0.0
210
0.0
220
0.0
230
1.0
 40
0.3420201433256593
 41
4.214672916405145
 42
4.424706880967541
1001
REVIT
1002
{
1070
     3
1000
923097
1002
}
  0
LINE
  5
2A8
330
27E
100
AcDbEntity
  8
M-PIPE
100
AcDbLine
 10
1166.758196354467
 20
2078.046935766208
 30
0.0
 11
1177.114353943096
 21
2078.046935766208
 31
0.0
1001
REVIT
1002
{
1070
     3
1000
923097
1002
}
  0
LINE
  5
2A9
330
27E
100
AcDbEntity
  8
M-PIPE
100
AcDbLine
 10
1177.114353943096
 20
2078.046935766208
 30
0.0
 11
1187.470511531726
 21
2078.046935766208
 31
0.0
1001
REVIT
1002
{
1070
     3
1000
923097
1002
}
  0
ELLIPSE
  5
2AA
330
27E
100
AcDbEntity
  8
M-PIPE
100
AcDbEllipse
 10
1177.114353943097
 20
2090.017640782602
 30
0.0
 11
36.49999999999558
 21
0.0
 31
0.0
210
0.0
220
0.0
230
1.0
 40
0.3420201433256624
 41
5.000071079801804
 42
5.210105044366464
1001
REVIT
1002
{
1070
     3
1000
923097
1002
}
  0
LINE
  5
2AB
330
27E
100
AcDbEntity
  8
M-PIPE
100
AcDbLine
 10
1194.540182026708
 20
2079.048491615967
 30
0.0
 11
1209.186000542548
 21
2084.057656563876
 31
0.0
1001
REVIT
1002
{
1070
     3
1000
923097
1002
}
  0
ELLIPSE
  5
2AC
330
27E
100
AcDbEntity
  8
M-PIPE
100
AcDbEllipse
 10
1177.114353943097
 20
2090.017640782602
 30
0.0
 11
36.4999999999956
 21
0.0
 31
0.0
210
0.0
220
0.0
230
1.0
 40
0.342020143325664
 41
5.785469243197735
 42
5.995503207765201
1001
REVIT
1002
{
1070
     3
1000
923097
1002
}
  0
LINE
  5
2AD
330
27E
100
AcDbEntity
  8
M-PIPE
100
AcDbLine
 10
1212.114353943113
 20
2086.475626279868
 30
0.0
 11
1212.114353943114
 21
2093.559655285334
 31
0.0
1001
REVIT
1002
{
1070
     3
1000
923097
1002
}
  0
ELLIPSE
  5
2AE
330
27E
100
AcDbEntity
  8
M-PIPE
100
AcDbEllipse
 10
1177.114353943097
 20
2090.017640782602
 30
0.0
 11
36.49999999999549
 21
0.0
 31
0.0
210
0.0
220
0.0
230
1.0
 40
0.3420201433256651
 41
0.2876820994143071
 42
0.3639017062949201
1001
REVIT
1002
{
1070
     3
1000
923097
1002
}
  0
ELLIPSE
  5
2AF
330
27E
100
AcDbEntity
  8
M-PIPE
100
AcDbEllipse
 10
1177.114353943097
 20
2090.017640782601
 30
0.0
 11
-33.99999999999887
 21
0.0000000000004249
 31
0.0
210
0.0
220
0.0
230
1.0
 40
0.342020143325644
 41
0.0
 42
1.570796326794895
1001
REVIT
1002
{
1070
     3
1000
923097
1002
}
  0
ELLIPSE
  5
2B0
330
27E
100
AcDbEntity
  8
M-PIPE
100
AcDbEllipse
 10
1177.114353943097
 20
2090.017640782601
 30
0.0
 11
33.99999999999887
 21
0.0
 31
0.0
210
0.0
220
0.0
230
1.0
 40
0.342020143325644
 41
4.712388980384677
 42
6.283185307179586
1001
REVIT
1002
{
1070
     3
1000
923097
1002
}
  0
ELLIPSE
  5
2B1
330
27E
100
AcDbEntity
  8
M-PIPE
100
AcDbEllipse
 10
1177.114353943097
 20
2120.08780464775
 30
0.0
 11
-33.49999999999682
 21
0.0000000000005153
 31
0.0
210
0.0
220
0.0
230
1.0
 40
0.3420201433256534
 41
6.123580228796389
 42
7.853981633974483
1001
REVIT
1002
{
1070
     3
1000
923097
1002
}
  0
ELLIPSE
  5
2B2
330
27E
100
AcDbEntity
  8
M-PIPE
100
AcDbEllipse
 10
1177.114353943097
 20
2120.08780464775
 30
0.0
 11
33.49999999999686
 21
0.0
 31
0.0
210
0.0
220
0.0
230
1.0
 40
0.3420201433256557
 41
4.712388980384683
 42
6.442790385550842
1001
REVIT
1002
{
1070
     3
1000
923097
1002
}
  0
LINE
  5
2B3
330
27E
100
AcDbEntity
  8
M-PIPE
100
AcDbLine
 10
1159.688525859558
 20
2067.772180166504
 30
0.0
 11
1145.042707343606
 21
2072.781345114452
 31
0.0
1001
REVIT
1002
{
1070
     3
1000
923097
1002
}
  0
LINE
  5
2B4
330
27E
100
AcDbEntity
  8
M-PIPE
100
AcDbLine
 10
1209.186000542547
 20
2072.781345114427
 30
0.0
 11
1194.540182026708
 21
2067.772180166517
 31
0.0
1001
REVIT
1002
{
1070
     3
1000
923097
1002
}
  0
LINE
  5
2B5
330
27E
100
AcDbEntity
  8
M-PIPE
100
AcDbLine
 10
1187.470511531726
 20
2066.770624316758
 30
0.0
 11
1166.758196354466
 21
2066.770624316758
 31
0.0
1001
REVIT
1002
{
1070
     3
1000
923097
1002
}
  0
LWPOLYLINE
  5
2B6
330
27E
100
AcDbEntity
  8
P-SANR-FIXT
100
AcDbPolyline
 90
       39
 70
   128
 43
0.0
 10
1151.720644873512
 20
2166.536757947293
 10
1152.014803561724
 20
2167.458624655612
 10
1152.388484264827
 20
2168.312030193415
 10
1152.823487643677
 20
2169.091411280809
 10
1153.303877558327
 20
2169.797540824587
 10
1153.817158963738
 20
2170.435292003467
 10
1154.354377463515
 20
2171.011611260363
 10
1154.909618604687
 20
2171.534046898572
 10
1155.479300261385
 20
2172.009850455201
 10
1156.0614892727
 20
2172.445521071594
 10
1156.655340367323
 20
2172.84663930202
 10
1157.260676550804
 20
2173.21786633475
 10
1157.877694221862
 20
2173.56302485958
 10
1158.506765452246
 20
2173.885211321812
 10
1159.148310757975
 20
2174.186912332743
 10
1159.802720703285
 20
2174.470112158094
 10
1160.470310230534
 20
2174.736386203288
 10
1161.151294344132
 20
2174.986979584788
 10
1161.845777386283
 20
2175.222871835976
 10
1162.553750731554
 20
2175.444829554648
 10
1163.275095517018
 20
2175.653448948172
 10
1164.009588232169
 20
2175.84919009971
 10
1164.7569077938
 20
2176.032404538219
 10
1165.516643255428
 20
2176.203357432632
 10
1166.288301640414
 20
2176.362245486147
 10
1167.071315605363
 20
2176.509211394728
 10
1167.865050777823
 20
2176.644355557722
 10
1168.668812697825
 20
2176.767745585343
 10
1169.4818533448
 20
2176.87942403312
 10
1170.303377262014
 20
2176.979414702371
 10
1171.132547307708
 20
2177.067727773728
 10
1171.968490070785
 20
2177.144363983845
 10
1172.810300992411
 20
2177.209318010422
 10
1173.657049235504
 20
2177.262581194879
 10
1174.507782342975
 20
2177.30414370345
 10
1175.361530723871
 20
2177.333996204329
 10
1176.217312004472
 20
2177.352131119575
 10
1177.074135279615
 20
2177.358543494646
 10
1177.114353943079
 20
2177.358556405337
  0
LWPOLYLINE
  5
2B7
330
27E
100
AcDbEntity
  8
P-SANR-FIXT
100
AcDbPolyline
 90
       39
 70
   128
 43
0.0
 10
1202.508063012645
 20
2166.536757947293
 10
1202.213904324433
 20
2167.458624655612
 10
1201.84022362133
 20
2168.312030193415
 10
1201.40522024248
 20
2169.091411280809
 10
1200.92483032783
 20
2169.797540824588
 10
1200.411548922419
 20
2170.435292003467
 10
1199.874330422642
 20
2171.011611260363
 10
1199.319089281471
 20
2171.534046898572
 10
1198.749407624772
 20
2172.009850455202
 10
1198.167218613457
 20
2172.445521071594
 10
1197.573367518834
 20
2172.846639302021
 10
1196.968031335353
 20
2173.21786633475
 10
1196.351013664296
 20
2173.56302485958
 10
1195.72194243391
 20
2173.885211321812
 10
1195.080397128182
 20
2174.186912332743
 10
1194.425987182873
 20
2174.470112158094
 10
1193.758397655623
 20
2174.736386203288
 10
1193.077413542024
 20
2174.986979584788
 10
1192.382930499874
 20
2175.222871835977
 10
1191.674957154603
 20
2175.444829554648
 10
1190.953612369139
 20
2175.653448948172
 10
1190.219119653988
 20
2175.84919009971
 10
1189.471800092356
 20
2176.032404538219
 10
1188.712064630729
 20
2176.203357432632
 10
1187.940406245743
 20
2176.362245486147
 10
1187.157392280794
 20
2176.509211394728
 10
1186.363657108334
 20
2176.644355557722
 10
1185.559895188331
 20
2176.767745585343
 10
1184.746854541357
 20
2176.879424033121
 10
1183.925330624143
 20
2176.979414702371
 10
1183.096160578448
 20
2177.067727773728
 10
1182.260217815372
 20
2177.144363983845
 10
1181.418406893746
 20
2177.209318010422
 10
1180.571658650654
 20
2177.262581194879
 10
1179.720925543182
 20
2177.30414370345
 10
1178.867177162286
 20
2177.333996204329
 10
1178.011395881685
 20
2177.352131119575
 10
1177.154572606542
 20
2177.358543494646
 10
1177.114353943079
 20
2177.358556405337
  0
LINE
  5
2B8
330
27E
100
AcDbEntity
  8
P-SANR-FIXT
100
AcDbLine
 10
1145.617701869679
 20
2136.116182503384
 30
0.0
 11
1146.04594560307
 21
2138.998566602324
 31
0.0
  0
LINE
  5
2B9
330
27E
100
AcDbEntity
  8
P-SANR-FIXT
100
AcDbLine
 10
1146.064242123605
 20
2139.121715164099
 30
0.0
 11
1146.129461566471
 21
2139.560688277768
 31
0.0
  0
LINE
  5
2BA
330
27E
100
AcDbEntity
  8
P-SANR-FIXT
100
AcDbLine
 10
1151.255189272537
 20
2164.725617452187
 30
0.0
 11
1151.594578960015
 21
2166.046221190386
 31
0.0
  0
LINE
  5
2BB
330
27E
100
AcDbEntity
  8
P-SANR-FIXT
100
AcDbLine
 10
1151.595769365103
 20
2166.050853191497
 30
0.0
 11
1151.720644873511
 21
2166.536757947293
 31
0.0
  0
LINE
  5
2BC
330
27E
100
AcDbEntity
  8
P-SANR-FIXT
100
AcDbLine
 10
1202.97351861362
 20
2164.725617452188
 30
0.0
 11
1202.634128959229
 21
2166.046221061644
 31
0.0
  0
LINE
  5
2BD
330
27E
100
AcDbEntity
  8
P-SANR-FIXT
100
AcDbLine
 10
1202.632938521054
 20
2166.050853191497
 30
0.0
 11
1202.508063012645
 21
2166.536757947297
 31
0.0
  0
LINE
  5
2BE
330
27E
100
AcDbEntity
  8
P-SANR-FIXT
100
AcDbLine
 10
1208.611006016478
 20
2136.11618250339
 30
0.0
 11
1208.182762283087
 21
2138.998566602325
 31
0.0
  0
LINE
  5
2BF
330
27E
100
AcDbEntity
  8
P-SANR-FIXT
100
AcDbLine
 10
1208.164465762552
 20
2139.121715164099
 30
0.0
 11
1208.099246319686
 21
2139.560688277773
 31
0.0
  0
SPLINE
  5
2C0
330
27E
100
AcDbEntity
  8
P-SANR-FIXT
100
AcDbSpline
210
0.0
220
0.0
230
1.0
 70
     8
 71
     3
 72
     9
 73
     5
 74
     0
 42
0.000000001
 43
0.0000000001
 40
-1.0
 40
-1.0
 40
-1.0
 40
-1.0
 40
-0.5
 40
0.0
 40
0.0
 40
0.0
 40
0.0
 10
1151.633873874033
 20
2166.050853191496
 30
0.0
 10
1151.65760536597
 20
2166.074295760056
 30
0.0
 10
1151.681379177071
 20
2166.001143165536
 30
0.0
 10
1151.65760536597
 20
2165.689286287401
 30
0.0
 10
1151.633873874033
 20
2165.474024572347
 30
0.0
  0
SPLINE
  5
2C1
330
27E
100
AcDbEntity
  8
P-SANR-FIXT
100
AcDbSpline
210
0.0
220
0.0
230
1.0
 70
     8
 71
     3
 72
     9
 73
     5
 74
     0
 42
0.000000001
 43
0.0000000001
 40
-1.0
 40
-1.0
 40
-1.0
 40
-1.0
 40
-0.5
 40
0.0
 40
0.0
 40
0.0
 40
0.0
 10
1163.643823241382
 20
2158.359375419139
 30
0.0
 10
1163.898540551593
 20
2158.437801997733
 30
0.0
 10
1164.397866560045
 20
2158.467943529692
 30
0.0
 10
1164.873418757444
 20
2158.245297261595
 30
0.0
 10
1165.104404575764
 20
2158.070961109848
 30
0.0
  0
SPLINE
  5
2C2
330
27E
100
AcDbEntity
  8
P-SANR-FIXT
100
AcDbSpline
210
0.0
220
0.0
230
1.0
 70
     8
 71
     3
 72
     9
 73
     5
 74
     0
 42
0.000000001
 43
0.0000000001
 40
-1.0
 40
-1.0
 40
-1.0
 40
-1.0
 40
-0.5
 40
0.0
 40
0.0
 40
0.0
 40
0.0
 10
1189.124303310389
 20
2158.070961109848
 30
0.0
 10
1189.35528912871
 20
2158.245297261595
 30
0.0
 10
1189.830841326109
 20
2158.467943529692
 30
0.0
 10
1190.330167334561
 20
2158.437801997734
 30
0.0
 10
1190.584884644771
 20
2158.359375419139
 30
0.0
  0
SPLINE
  5
2C3
330
27E
100
AcDbEntity
  8
P-SANR-FIXT
100
AcDbSpline
210
0.0
220
0.0
230
1.0
 70
     8
 71
     3
 72
     9
 73
     5
 74
     0
 42
0.000000001
 43
0.0000000001
 40
-1.0
 40
-1.0
 40
-1.0
 40
-1.0
 40
-0.5
 40
0.0
 40
0.0
 40
0.0
 40
0.0
 10
1202.59483401212
 20
2165.474024572347
 30
0.0
 10
1202.571102520183
 20
2165.689286287401
 30
0.0
 10
1202.547328709083
 20
2166.001143165536
 30
0.0
 10
1202.571102520183
 20
2166.074295760056
 30
0.0
 10
1202.59483401212
 20
2166.050853191496
 30
0.0
  0
SPLINE
  5
2C4
330
27E
100
AcDbEntity
  8
P-SANR-FIXT
100
AcDbSpline
210
0.0
220
0.0
230
1.0
 70
     8
 71
     3
 72
    23
 73
    19
 74
     0
 42
0.000000001
 43
0.0000000001
 40
-1.0
 40
-1.0
 40
-1.0
 40
-1.0
 40
-0.875
 40
-0.8125
 40
-0.78125
 40
-0.75
 40
-0.71875
 40
-0.6875
 40
-0.625
 40
-0.5625
 40
-0.53125
 40
-0.5
 40
-0.46875
 40
-0.4375
 40
-0.375
 40
-0.3125
 40
-0.25
 40
0.0
 40
0.0
 40
0.0
 40
0.0
 10
1165.104404575764
 20
2158.070961109848
 30
0.0
 10
1165.767906752853
 20
2156.993123889614
 30
0.0
 10
1166.584734714946
 20
2155.303531542943
 30
0.0
 10
1167.277456340058
 20
2153.248501043309
 30
0.0
 10
1167.608389831649
 20
2152.05413064599
 30
0.0
 10
1167.828124648962
 20
2151.15014859789
 30
0.0
 10
1168.015266505245
 20
2150.235139202829
 30
0.0
 10
1168.222660345962
 20
2148.999735364924
 30
0.0
 10
1168.423629821843
 20
2147.435871457841
 30
0.0
 10
1168.580492870062
 20
2145.861711878348
 30
0.0
 10
1168.69363394293
 20
2144.604490458785
 30
0.0
 10
1168.776143656996
 20
2143.66541656338
 30
0.0
 10
1168.853391796018
 20
2142.72873169767
 30
0.0
 10
1168.944095779621
 20
2141.47876751832
 30
0.0
 10
1169.040130101466
 20
2139.916877747038
 30
0.0
 10
1169.133027466638
 20
2138.043987032876
 30
0.0
 10
1169.285701897582
 20
2134.303416387757
 30
0.0
 10
1169.346665442883
 20
2131.197686600798
 30
0.0
 10
1169.3708094544
 20
2128.722000793337
 30
0.0
  0
ELLIPSE
  5
2C5
330
27E
100
AcDbEntity
  8
P-SANR-FIXT
100
AcDbEllipse
 10
1177.114353943077
 20
2138.998566602325
 30
0.0
 11
31.02845079977479
 21
0.0
 31
0.0
210
0.0
220
0.0
230
0.9999999999999998
 40
0.34202014332567
 41
3.917420086798538
 42
4.46016032277711
  0
SPLINE
  5
2C6
330
27E
100
AcDbEntity
  8
P-SANR-FIXT
100
AcDbSpline
210
0.0
220
0.0
230
1.0
 70
     8
 71
     3
 72
     9
 73
     5
 74
     0
 42
0.000000001
 43
0.0000000001
 40
-1.0
 40
-1.0
 40
-1.0
 40
-1.0
 40
-0.5
 40
0.0
 40
0.0
 40
0.0
 40
0.0
 10
1154.96494811385
 20
2131.566660279581
 30
0.0
 10
1155.409327362556
 20
2134.966430837998
 30
0.0
 10
1156.57255294796
 20
2141.731350561506
 30
0.0
 10
1158.358828285871
 20
2148.323818914068
 30
0.0
 10
1159.391923107294
 20
2151.538595954107
 30
0.0
  0
SPLINE
  5
2C7
330
27E
100
AcDbEntity
  8
P-SANR-FIXT
100
AcDbSpline
210
0.0
220
0.0
230
1.0
 70
     8
 71
     3
 72
    21
 73
    17
 74
     0
 42
0.000000001
 43
0.0000000001
 40
-1.0
 40
-1.0
 40
-1.0
 40
-1.0
 40
-0.8333333333333332
 40
-0.75
 40
-0.7083333333333333
 40
-0.6666666666666666
 40
-0.625
 40
-0.5833333333333333
 40
-0.5
 40
-0.4166666666666666
 40
-0.375
 40
-0.3333333333333333
 40
-0.2916666666666666
 40
-0.25
 40
-0.1666666666666666
 40
0.0
 40
0.0
 40
0.0
 40
0.0
 10
1159.391923107294
 20
2151.538595954107
 30
0.0
 10
1159.539821988027
 20
2151.983479502503
 30
0.0
 10
1159.779960281127
 20
2152.642583683451
 30
0.0
 10
1160.091832286884
 20
2153.395260254232
 30
0.0
 10
1160.278598910429
 20
2153.820808960949
 30
0.0
 10
1160.423890210435
 20
2154.136661746439
 30
0.0
 10
1160.570327422007
 20
2154.453097447778
 30
0.0
 10
1160.764893819586
 20
2154.877928290255
 30
0.0
 10
1161.015113607235
 20
2155.406090737663
 30
0.0
 10
1161.289605677517
 20
2155.914435264028
 30
0.0
 10
1161.532383133991
 20
2156.299160847815
 30
0.0
 10
1161.729125941867
 20
2156.573031718549
 30
0.0
 10
1161.938644400279
 20
2156.833590751285
 30
0.0
 10
1162.229431582303
 20
2157.168458562853
 30
0.0
 10
1162.770569428825
 20
2157.71719212382
 30
0.0
 10
1163.284473799692
 20
2158.121780322234
 30
0.0
 10
1163.643823241382
 20
2158.359375419139
 30
0.0
  0
SPLINE
  5
2C8
330
27E
100
AcDbEntity
  8
P-SANR-FIXT
100
AcDbSpline
210
0.0
220
0.0
230
1.0
 70
     8
 71
     3
 72
    23
 73
    19
 74
     0
 42
0.000000001
 43
0.0000000001
 40
-1.0
 40
-1.0
 40
-1.0
 40
-1.0
 40
-0.875
 40
-0.8125
 40
-0.78125
 40
-0.75
 40
-0.71875
 40
-0.6875
 40
-0.625
 40
-0.5625
 40
-0.53125
 40
-0.5
 40
-0.46875
 40
-0.4375
 40
-0.375
 40
-0.3125
 40
-0.25
 40
0.0
 40
0.0
 40
0.0
 40
0.0
 10
1151.633873874033
 20
2165.474024572347
 30
0.0
 10
1151.565705634692
 20
2164.278629484922
 30
0.0
 10
1151.327893716241
 20
2162.474701490907
 30
0.0
 10
1150.948256890605
 20
2160.357847569255
 30
0.0
 10
1150.718314910983
 20
2159.143534840419
 30
0.0
 10
1150.541514254489
 20
2158.231074780142
 30
0.0
 10
1150.369432176355
 20
2157.313091599641
 30
0.0
 10
1150.155057110239
 20
2156.079066312369
 30
0.0
 10
1149.91097786881
 20
2154.523715093352
 30
0.0
 10
1149.685276755652
 20
2152.963148651425
 30
0.0
 10
1149.501794906422
 20
2151.719817102964
 30
0.0
 10
1149.355918799901
 20
2150.793255878992
 30
0.0
 10
1149.206126472032
 20
2149.87089598215
 30
0.0
 10
1149.013355111176
 20
2148.641086580527
 30
0.0
 10
1148.77885754376
 20
2147.106538512468
 30
0.0
 10
1148.506672400912
 20
2145.269050934988
 30
0.0
 10
1147.963618777113
 20
2141.605566681922
 30
0.0
 10
1147.530590255047
 20
2138.573306862595
 30
0.0
 10
1147.221403625114
 20
2136.153907116053
 30
0.0
  0
ELLIPSE
  5
2C9
330
27E
100
AcDbEntity
  8
P-SANR-FIXT
100
AcDbEllipse
 10
1177.114353943077
 20
2138.998566602325
 30
0.0
 11
31.02845079977494
 21
0.0
 31
0.0
210
0.0
220
0.0
230
1.0
 40
0.3420201433256586
 41
2.870222535598659
 42
3.412962771580918
  0
SPLINE
  5
2CA
330
27E
100
AcDbEntity
  8
P-SANR-FIXT
100
AcDbSpline
210
0.0
220
0.0
230
1.0
 70
     8
 71
     3
 72
    23
 73
    19
 74
     0
 42
0.000000001
 43
0.0000000001
 40
-1.0
 40
-1.0
 40
-1.0
 40
-1.0
 40
-0.75
 40
-0.6875
 40
-0.625
 40
-0.5625
 40
-0.53125
 40
-0.5
 40
-0.46875
 40
-0.4375
 40
-0.375
 40
-0.3125
 40
-0.28125
 40
-0.25
 40
-0.21875
 40
-0.1875
 40
-0.125
 40
-0.0006791229064282
 40
-0.0006791229064282
 40
-0.0006791229064282
 40
-0.0006791229064282
 10
1147.221403625114
 20
2141.843226088593
 30
0.0
 10
1147.530590255047
 20
2144.121448068865
 30
0.0
 10
1147.963618777113
 20
2146.934538799908
 30
0.0
 10
1148.506672400913
 20
2150.262962743571
 30
0.0
 10
1148.778857543761
 20
2151.919579943369
 30
0.0
 10
1149.013355111176
 20
2153.285663857817
 30
0.0
 10
1149.206126472033
 20
2154.367698301745
 30
0.0
 10
1149.355918799902
 20
2155.169885242751
 30
0.0
 10
1149.501794906423
 20
2155.973664230945
 30
0.0
 10
1149.685276755652
 20
2157.055167339189
 30
0.0
 10
1149.910977868811
 20
2158.402697338159
 30
0.0
 10
1150.155057110239
 20
2159.702916047148
 30
0.0
 10
1150.369432176355
 20
2160.688465559766
 30
0.0
 10
1150.541514254489
 20
2161.390672037634
 30
0.0
 10
1150.718314910983
 20
2162.059747951959
 30
0.0
 10
1150.948256890605
 20
2162.921857814797
 30
0.0
 10
1151.326715110232
 20
2164.337219411312
 30
0.0
 10
1151.563981781376
 20
2165.39873921023
 30
0.0
 10
1151.632754808869
 20
2166.04034437507
 30
0.0
  0
SPLINE
  5
2CB
330
27E
100
AcDbEntity
  8
P-SANR-FIXT
100
AcDbSpline
210
0.0
220
0.0
230
1.0
 70
     8
 71
     3
 72
    23
 73
    19
 74
     0
 42
0.000000001
 43
0.0000000001
 40
-0.9993208770935503
 40
-0.9993208770935503
 40
-0.9993208770935503
 40
-0.9993208770935503
 40
-0.875
 40
-0.8125
 40
-0.78125
 40
-0.75
 40
-0.71875
 40
-0.6875
 40
-0.625
 40
-0.5625
 40
-0.53125
 40
-0.5
 40
-0.46875
 40
-0.4375
 40
-0.375
 40
-0.3125
 40
-0.25
 40
0.0
 40
0.0
 40
0.0
 40
0.0
 10
1202.595953077285
 20
2166.04034437507
 30
0.0
 10
1202.664726104779
 20
2165.39873921023
 30
0.0
 10
1202.901992775922
 20
2164.337219411311
 30
0.0
 10
1203.280450995549
 20
2162.921857814797
 30
0.0
 10
1203.510392975171
 20
2162.059747951959
 30
0.0
 10
1203.687193631665
 20
2161.390672037634
 30
0.0
 10
1203.859275709799
 20
2160.688465559765
 30
0.0
 10
1204.073650775915
 20
2159.702916047148
 30
0.0
 10
1204.317730017344
 20
2158.402697338158
 30
0.0
 10
1204.543431130502
 20
2157.055167339189
 30
0.0
 10
1204.726912979732
 20
2155.973664230945
 30
0.0
 10
1204.872789086252
 20
2155.16988524275
 30
0.0
 10
1205.022581414121
 20
2154.367698301745
 30
0.0
 10
1205.215352774978
 20
2153.285663857817
 30
0.0
 10
1205.449850342393
 20
2151.919579943369
 30
0.0
 10
1205.722035485242
 20
2150.262962743571
 30
0.0
 10
1206.265089109041
 20
2146.934538799908
 30
0.0
 10
1206.698117631107
 20
2144.121448068864
 30
0.0
 10
1207.00730426104
 20
2141.843226088593
 30
0.0
  0
ELLIPSE
  5
2CC
330
27E
100
AcDbEntity
  8
P-SANR-FIXT
100
AcDbEllipse
 10
1177.114353943077
 20
2138.998566602325
 30
0.0
 11
31.02845079977484
 21
0.0
 31
0.0
210
0.0
220
0.0
230
1.0
 40
0.3420201433256597
 41
6.011815189188446
 42
6.554555425170719
  0
SPLINE
  5
2CD
330
27E
100
AcDbEntity
  8
P-SANR-FIXT
100
AcDbSpline
210
0.0
220
0.0
230
1.0
 70
     8
 71
     3
 72
    23
 73
    19
 74
     0
 42
0.000000001
 43
0.0000000001
 40
-1.0
 40
-1.0
 40
-1.0
 40
-1.0
 40
-0.75
 40
-0.6875
 40
-0.625
 40
-0.5625
 40
-0.53125
 40
-0.5
 40
-0.46875
 40
-0.4375
 40
-0.375
 40
-0.3125
 40
-0.28125
 40
-0.25
 40
-0.21875
 40
-0.1875
 40
-0.125
 40
0.0
 40
0.0
 40
0.0
 40
0.0
 10
1207.00730426104
 20
2136.153907116053
 30
0.0
 10
1206.698117631107
 20
2138.573306862595
 30
0.0
 10
1206.265089109041
 20
2141.605566681922
 30
0.0
 10
1205.722035485241
 20
2145.269050934988
 30
0.0
 10
1205.449850342393
 20
2147.106538512468
 30
0.0
 10
1205.215352774978
 20
2148.641086580527
 30
0.0
 10
1205.022581414121
 20
2149.87089598215
 30
0.0
 10
1204.872789086252
 20
2150.793255878992
 30
0.0
 10
1204.726912979732
 20
2151.719817102964
 30
0.0
 10
1204.543431130502
 20
2152.963148651425
 30
0.0
 10
1204.317730017344
 20
2154.523715093352
 30
0.0
 10
1204.073650775915
 20
2156.079066312369
 30
0.0
 10
1203.859275709799
 20
2157.313091599641
 30
0.0
 10
1203.687193631665
 20
2158.231074780142
 30
0.0
 10
1203.51039297517
 20
2159.143534840419
 30
0.0
 10
1203.280450995549
 20
2160.357847569254
 30
0.0
 10
1202.900814169913
 20
2162.474701490907
 30
0.0
 10
1202.663002251462
 20
2164.278629484922
 30
0.0
 10
1202.59483401212
 20
2165.474024572347
 30
0.0
  0
SPLINE
  5
2CE
330
27E
100
AcDbEntity
  8
P-SANR-FIXT
100
AcDbSpline
210
0.0
220
0.0
230
1.0
 70
     8
 71
     3
 72
    21
 73
    17
 74
     0
 42
0.000000001
 43
0.0000000001
 40
-1.0
 40
-1.0
 40
-1.0
 40
-1.0
 40
-0.8333333333333332
 40
-0.75
 40
-0.7083333333333333
 40
-0.6666666666666666
 40
-0.625
 40
-0.5833333333333333
 40
-0.5
 40
-0.4166666666666666
 40
-0.375
 40
-0.3333333333333333
 40
-0.2916666666666666
 40
-0.25
 40
-0.1666666666666666
 40
0.0
 40
0.0
 40
0.0
 40
0.0
 10
1190.584884644771
 20
2158.359375419139
 30
0.0
 10
1190.944234086462
 20
2158.121780322234
 30
0.0
 10
1191.458138457329
 20
2157.71719212382
 30
0.0
 10
1191.99927630385
 20
2157.168458562852
 30
0.0
 10
1192.290063485875
 20
2156.833590751285
 30
0.0
 10
1192.499581944286
 20
2156.573031718549
 30
0.0
 10
1192.696324752163
 20
2156.299160847815
 30
0.0
 10
1192.939102208637
 20
2155.914435264027
 30
0.0
 10
1193.213594278918
 20
2155.406090737663
 30
0.0
 10
1193.463814066567
 20
2154.877928290255
 30
0.0
 10
1193.658380464147
 20
2154.453097447778
 30
0.0
 10
1193.804817675719
 20
2154.136661746439
 30
0.0
 10
1193.950108975725
 20
2153.820808960949
 30
0.0
 10
1194.136875599269
 20
2153.395260254232
 30
0.0
 10
1194.448747605027
 20
2152.642583683452
 30
0.0
 10
1194.688885898127
 20
2151.983479502503
 30
0.0
 10
1194.836784778859
 20
2151.538595954107
 30
0.0
  0
SPLINE
  5
2CF
330
27E
100
AcDbEntity
  8
P-SANR-FIXT
100
AcDbSpline
210
0.0
220
0.0
230
1.0
 70
     8
 71
     3
 72
     9
 73
     5
 74
     0
 42
0.000000001
 43
0.0000000001
 40
-1.0
 40
-1.0
 40
-1.0
 40
-1.0
 40
-0.5
 40
0.0
 40
0.0
 40
0.0
 40
0.0
 10
1194.836784778859
 20
2151.538595954107
 30
0.0
 10
1195.869879600283
 20
2148.323818914068
 30
0.0
 10
1197.656154938193
 20
2141.731350561506
 30
0.0
 10
1198.819380523598
 20
2134.966430837999
 30
0.0
 10
1199.263759772303
 20
2131.566660279581
 30
0.0
  0
ELLIPSE
  5
2D0
330
27E
100
AcDbEntity
  8
P-SANR-FIXT
100
AcDbEllipse
 10
1177.114353943077
 20
2138.998566602325
 30
0.0
 11
31.02845079977488
 21
0.0
 31
0.0
210
0.0
220
0.0
230
1.0
 40
0.3420201433256703
 41
4.964617637992249
 42
5.507357873970828
  0
SPLINE
  5
2D1
330
27E
100
AcDbEntity
  8
P-SANR-FIXT
100
AcDbSpline
210
0.0
220
0.0
230
1.0
 70
     8
 71
     3
 72
    23
 73
    19
 74
     0
 42
0.000000001
 43
0.0000000001
 40
-1.0
 40
-1.0
 40
-1.0
 40
-1.0
 40
-0.75
 40
-0.6875
 40
-0.625
 40
-0.5625
 40
-0.53125
 40
-0.5
 40
-0.46875
 40
-0.4375
 40
-0.375
 40
-0.3125
 40
-0.28125
 40
-0.25
 40
-0.21875
 40
-0.1875
 40
-0.125
 40
0.0
 40
0.0
 40
0.0
 40
0.0
 10
1184.857898431754
 20
2128.722000793337
 30
0.0
 10
1184.882042443271
 20
2131.197686600798
 30
0.0
 10
1184.943005988571
 20
2134.303416387756
 30
0.0
 10
1185.095680419515
 20
2138.043987032876
 30
0.0
 10
1185.188577784688
 20
2139.916877747038
 30
0.0
 10
1185.284612106533
 20
2141.47876751832
 30
0.0
 10
1185.375316090135
 20
2142.728731697669
 30
0.0
 10
1185.452564229158
 20
2143.66541656338
 30
0.0
 10
1185.535073943224
 20
2144.604490458785
 30
0.0
 10
1185.648215016092
 20
2145.861711878348
 30
0.0
 10
1185.805078064311
 20
2147.435871457841
 30
0.0
 10
1186.006047540191
 20
2148.999735364924
 30
0.0
 10
1186.213441380908
 20
2150.235139202829
 30
0.0
 10
1186.400583237191
 20
2151.15014859789
 30
0.0
 10
1186.620318054504
 20
2152.05413064599
 30
0.0
 10
1186.951251546096
 20
2153.248501043309
 30
0.0
 10
1187.643973171208
 20
2155.303531542943
 30
0.0
 10
1188.4608011333
 20
2156.993123889614
 30
0.0
 10
1189.124303310389
 20
2158.070961109848
 30
0.0
  0
ELLIPSE
  5
2D2
330
27E
100
AcDbEntity
  8
P-SANR-FIXT
100
AcDbEllipse
 10
1177.114353943077
 20
2135.592732890739
 30
0.0
 11
31.53381379959239
 21
0.0
 31
0.0
210
0.0
220
0.0
230
1.0
 40
0.3420201433256647
 41
3.063052837250044
 42
3.612831551628238
  0
ELLIPSE
  5
2D3
330
27E
100
AcDbEntity
  8
P-SANR-FIXT
100
AcDbEllipse
 10
1177.114353943077
 20
2135.592732890739
 30
0.0
 11
31.53381379959235
 21
0.0
 31
0.0
210
0.0
220
0.0
230
0.9999999999999998
 40
0.3420201433256653
 41
5.811946409141087
 42
6.361725123519334
  0
ELLIPSE
  5
2D4
330
27E
100
AcDbEntity
  8
P-SANR-FIXT
100
AcDbEllipse
 10
1141.669492271521
 20
2138.998566602323
 30
0.0
 11
10.00000000000003
 21
0.0
 31
0.0
210
0.0
220
0.0
230
1.0
 40
0.3420201433256773
 41
0.8879524938331789
 42
0.9822035717131234
  0
ELLIPSE
  5
2D5
330
27E
100
AcDbEntity
  8
P-SANR-FIXT
100
AcDbEllipse
 10
1212.559215614633
 20
2138.998566602323
 30
0.0
 11
10.00000000000014
 21
0.0
 31
0.0
210
0.0
220
0.0
230
1.0
 40
0.342020143325668
 41
2.159389081876657
 42
2.253668270527134
  0
ELLIPSE
  5
2D6
330
27E
100
AcDbEntity
  8
P-SANR-FIXT
100
AcDbEllipse
 10
1159.391923107294
 20
2128.499864760438
 30
0.0
 11
9.999999999999838
 21
0.0
 31
0.0
210
0.0
220
0.0
230
1.0
 40
0.3420201433256695
 41
0.064993979494781
 42
1.570796326794873
  0
ELLIPSE
  5
2D7
330
27E
100
AcDbEntity
  8
P-SANR-FIXT
100
AcDbEllipse
 10
1159.391923107294
 20
2128.499864760438
 30
0.0
 11
10.0
 21
0.0
 31
0.0
210
0.0
220
0.0
230
1.0
 40
0.3420201433256352
 41
1.570796326794873
 42
2.029401122901317
  0
ELLIPSE
  5
2D8
330
27E
100
AcDbEntity
  8
P-SANR-FIXT
100
AcDbEllipse
 10
1194.836784778859
 20
2128.499864760438
 30
0.0
 11
9.999999999999824
 21
0.0
 31
0.0
210
0.0
220
0.0
230
1.0
 40
0.3420201433256302
 41
1.112191530688461
 42
1.570796326794873
  0
ELLIPSE
  5
2D9
330
27E
100
AcDbEntity
  8
P-SANR-FIXT
100
AcDbEllipse
 10
1194.836784778859
 20
2128.499864760438
 30
0.0
 11
10.0
 21
0.0
 31
0.0
210
0.0
220
0.0
230
1.0
 40
0.3420201433256352
 41
1.570796326794873
 42
3.076598674095005
  0
ARC
  5
2DA
330
27E
100
AcDbEntity
  8
P-SANR-FIXT
100
AcDbCircle
 10
1177.114353943077
 20
1999.98255885001
 30
0.0
 40
33.00000000001791
100
AcDbArc
 50
90.0000000000006
 51
120.0000000000019
  0
ARC
  5
2DB
330
27E
100
AcDbEntity
  8
P-SANR-FIXT
100
AcDbCircle
 10
1177.114353943077
 20
1999.98255885001
 30
0.0
 40
33.00000000001815
100
AcDbArc
 50
120.0000000000017
 51
180.0000000000012
  0
ARC
  5
2DC
330
27E
100
AcDbEntity
  8
P-SANR-FIXT
100
AcDbCircle
 10
1177.114353943077
 20
1999.98255885001
 30
0.0
 40
33.00000000001819
100
AcDbArc
 50
180.0000000000012
 51
240.0000000000013
  0
ARC
  5
2DD
330
27E
100
AcDbEntity
  8
P-SANR-FIXT
100
AcDbCircle
 10
1177.114353943077
 20
1999.98255885001
 30
0.0
 40
33.00000000001803
100
AcDbArc
 50
240.0000000000014
 51
269.9999999999993
  0
ARC
  5
2DE
330
27E
100
AcDbEntity
  8
P-SANR-FIXT
100
AcDbCircle
 10
1177.114353943077
 20
1999.98255885001
 30
0.0
 40
33.00000000001797
100
AcDbArc
 50
269.9999999999993
 51
300.0000000000008
  0
ARC
  5
2DF
330
27E
100
AcDbEntity
  8
P-SANR-FIXT
100
AcDbCircle
 10
1177.114353943077
 20
1999.98255885001
 30
0.0
 40
33.00000000001792
100
AcDbArc
 50
300.0000000000008
 51
0.0000000000011843
  0
ARC
  5
2E0
330
27E
100
AcDbEntity
  8
P-SANR-FIXT
100
AcDbCircle
 10
1177.114353943077
 20
1999.98255885001
 30
0.0
 40
33.00000000001797
100
AcDbArc
 50
0.0000000000007895
 51
60.00000000000132
  0
ARC
  5
2E1
330
27E
100
AcDbEntity
  8
P-SANR-FIXT
100
AcDbCircle
 10
1177.114353943077
 20
1999.98255885001
 30
0.0
 40
33.00000000001814
100
AcDbArc
 50
60.00000000000123
 51
89.9999999999996
  0
ARC
  5
2E2
330
27E
100
AcDbEntity
  8
P-SANR-FIXT
100
AcDbCircle
 10
1177.114353943148
 20
1999.982558850011
 30
0.0
 40
35.99999999998838
100
AcDbArc
 50
323.5564643091044
 51
336.4435356909542
  0
SPLINE
  5
2E3
330
27E
100
AcDbEntity
  8
P-SANR-FIXT
100
AcDbSpline
210
0.0
220
0.0
230
1.0
 70
    24
 71
     3
 72
     9
 73
     5
 74
     0
 42
0.000000001
 43
0.0000000001
 40
0.0
 40
0.0
 40
0.0
 40
0.0
 40
0.5
 40
1.0
 40
1.0
 40
1.0
 40
1.0
 10
1206.074289737517
 20
1978.597467810102
 30
0.0
 10
1204.025477258245
 20
1977.414585373675
 30
0.0
 10
1199.900008813234
 20
1975.032745056414
 30
0.0
 10
1195.718853395293
 20
1972.618753850342
 30
0.0
 10
1193.61435394309
 20
1971.403720525103
 30
0.0
  0
SPLINE
  5
2E4
330
27E
100
AcDbEntity
  8
P-SANR-FIXT
100
AcDbSpline
210
0.0
220
0.0
230
1.0
 70
    24
 71
     3
 72
     9
 73
     5
 74
     0
 42
0.000000001
 43
0.0000000001
 40
0.0
 40
0.0
 40
0.0
 40
0.0
 40
0.5
 40
1.0
 40
1.0
 40
1.0
 40
1.0
 10
1193.61435394309
 20
1971.403720525103
 30
0.0
 10
1191.509854490905
 20
1970.188687199874
 30
0.0
 10
1187.328699072999
 20
1967.774695993823
 30
0.0
 10
1183.203230628024
 20
1965.392855676583
 30
0.0
 10
1181.15441814877
 20
1964.209973240167
 30
0.0
  0
ARC
  5
2E5
330
27E
100
AcDbEntity
  8
P-SANR-FIXT
100
AcDbCircle
 10
1177.114353943148
 20
1999.982558850011
 30
0.0
 40
35.99999999998855
100
AcDbArc
 50
269.9999999998871
 51
276.4435356908994
  0
ARC
  5
2E6
330
27E
100
AcDbEntity
  8
P-SANR-FIXT
100
AcDbCircle
 10
1177.114353943148
 20
1999.982558850011
 30
0.0
 40
35.99999999998886
100
AcDbArc
 50
263.5564643090681
 51
269.999999999887
  0
SPLINE
  5
2E7
330
27E
100
AcDbEntity
  8
P-SANR-FIXT
100
AcDbSpline
210
0.0
220
0.0
230
1.0
 70
    24
 71
     3
 72
     9
 73
     5
 74
     0
 42
0.000000001
 43
0.0000000001
 40
0.0
 40
0.0
 40
0.0
 40
0.0
 40
0.5
 40
1.0
 40
1.0
 40
1.0
 40
1.0
 10
1173.074289737505
 20
1964.209973240169
 30
0.0
 10
1171.025477258237
 20
1965.392855676593
 30
0.0
 10
1166.900008813233
 20
1967.774695993849
 30
0.0
 10
1162.718853395298
 20
1970.188687199918
 30
0.0
 10
1160.614353943096
 20
1971.403720525156
 30
0.0
  0
SPLINE
  5
2E8
330
27E
100
AcDbEntity
  8
P-SANR-FIXT
100
AcDbSpline
210
0.0
220
0.0
230
1.0
 70
    24
 71
     3
 72
     9
 73
     5
 74
     0
 42
0.000000001
 43
0.0000000001
 40
0.0
 40
0.0
 40
0.0
 40
0.0
 40
0.5
 40
1.0
 40
1.0
 40
1.0
 40
1.0
 10
1160.614353943096
 20
1971.403720525156
 30
0.0
 10
1158.509854490914
 20
1972.618753850383
 30
0.0
 10
1154.328699073013
 20
1975.032745056431
 30
0.0
 10
1150.203230628045
 20
1977.414585373667
 30
0.0
 10
1148.154418148794
 20
1978.597467810081
 30
0.0
  0
ARC
  5
2E9
330
27E
100
AcDbEntity
  8
P-SANR-FIXT
100
AcDbCircle
 10
1177.114353943148
 20
1999.982558850011
 30
0.0
 40
35.9999999999886
100
AcDbArc
 50
203.5564643089764
 51
216.4435356909359
  0
SPLINE
  5
2EA
330
27E
100
AcDbEntity
  8
P-SANR-FIXT
100
AcDbSpline
210
0.0
220
0.0
230
1.0
 70
    24
 71
     3
 72
     9
 73
     5
 74
     0
 42
0.000000001
 43
0.0000000001
 40
0.0
 40
0.0
 40
0.0
 40
0.0
 40
0.5
 40
1.0
 40
1.0
 40
1.0
 40
1.0
 10
1144.114353943127
 20
1985.595064280149
 30
0.0
 10
1144.114353943127
 20
1987.96082915298
 30
0.0
 10
1144.114353943127
 20
1992.724509787454
 30
0.0
 10
1144.114353943126
 20
1997.552492199553
 30
0.0
 10
1144.114353943126
 20
1999.982558850009
 30
0.0
  0
SPLINE
  5
2EB
330
27E
100
AcDbEntity
  8
P-SANR-FIXT
100
AcDbSpline
210
0.0
220
0.0
230
1.0
 70
    24
 71
     3
 72
     9
 73
     5
 74
     0
 42
0.000000001
 43
0.0000000001
 40
0.0
 40
0.0
 40
0.0
 40
0.0
 40
0.5
 40
1.0
 40
1.0
 40
1.0
 40
1.0
 10
1144.114353943126
 20
1999.982558850009
 30
0.0
 10
1144.114353943126
 20
2002.412625500465
 30
0.0
 10
1144.114353943126
 20
2007.240607912565
 30
0.0
 10
1144.114353943126
 20
2012.004288547039
 30
0.0
 10
1144.114353943126
 20
2014.37005341987
 30
0.0
  0
ARC
  5
2EC
330
27E
100
AcDbEntity
  8
P-SANR-FIXT
100
AcDbCircle
 10
1177.114353943148
 20
1999.982558850011
 30
0.0
 40
35.99999999998833
100
AcDbArc
 50
143.5564643089195
 51
156.4435356910274
  0
SPLINE
  5
2ED
330
27E
100
AcDbEntity
  8
P-SANR-FIXT
100
AcDbSpline
210
0.0
220
0.0
230
1.0
 70
    24
 71
     3
 72
     9
 73
     5
 74
     0
 42
0.000000001
 43
0.0000000001
 40
0.0
 40
0.0
 40
0.0
 40
0.0
 40
0.5
 40
1.0
 40
1.0
 40
1.0
 40
1.0
 10
1148.154418148848
 20
2021.367649890013
 30
0.0
 10
1150.203230628088
 20
2022.550532326421
 30
0.0
 10
1154.328699073032
 20
2024.932372643644
 30
0.0
 10
1158.509854490906
 20
2027.346363849677
 30
0.0
 10
1160.614353943076
 20
2028.561397174897
 30
0.0
  0
SPLINE
  5
2EE
330
27E
100
AcDbEntity
  8
P-SANR-FIXT
100
AcDbSpline
210
0.0
220
0.0
230
1.0
 70
    24
 71
     3
 72
     9
 73
     5
 74
     0
 42
0.000000001
 43
0.0000000001
 40
0.0
 40
0.0
 40
0.0
 40
0.0
 40
0.5
 40
1.0
 40
1.0
 40
1.0
 40
1.0
 10
1160.614353943076
 20
2028.561397174897
 30
0.0
 10
1162.718853395264
 20
2029.776430500127
 30
0.0
 10
1166.900008813174
 20
2032.190421706181
 30
0.0
 10
1171.025477258154
 20
2034.572262023424
 30
0.0
 10
1173.074289737411
 20
2035.755144459842
 30
0.0
  0
ARC
  5
2EF
330
27E
100
AcDbEntity
  8
P-SANR-FIXT
100
AcDbCircle
 10
1177.114353943148
 20
1999.982558850011
 30
0.0
 40
35.9999999999885
100
AcDbArc
 50
90.00000000011254
 51
96.44353569108297
  0
ARC
  5
2F0
330
27E
100
AcDbEntity
  8
P-SANR-FIXT
100
AcDbCircle
 10
1177.114353943148
 20
1999.982558850011
 30
0.0
 40
35.99999999998818
100
AcDbArc
 50
83.55646430895523
 51
90.00000000011217
  0
SPLINE
  5
2F1
330
27E
100
AcDbEntity
  8
P-SANR-FIXT
100
AcDbSpline
210
0.0
220
0.0
230
1.0
 70
    24
 71
     3
 72
     9
 73
     5
 74
     0
 42
0.000000001
 43
0.0000000001
 40
0.0
 40
0.0
 40
0.0
 40
0.0
 40
0.5
 40
1.0
 40
1.0
 40
1.0
 40
1.0
 10
1181.15441814886
 20
2035.755144459844
 30
0.0
 10
1183.203230628103
 20
2034.572262023434
 30
0.0
 10
1187.328699073055
 20
2032.190421706208
 30
0.0
 10
1191.509854490935
 20
2029.776430500172
 30
0.0
 10
1193.614353943107
 20
2028.561397174951
 30
0.0
  0
SPLINE
  5
2F2
330
27E
100
AcDbEntity
  8
P-SANR-FIXT
100
AcDbSpline
210
0.0
220
0.0
230
1.0
 70
    24
 71
     3
 72
     9
 73
     5
 74
     0
 42
0.000000001
 43
0.0000000001
 40
0.0
 40
0.0
 40
0.0
 40
0.0
 40
0.5
 40
1.0
 40
1.0
 40
1.0
 40
1.0
 10
1193.614353943107
 20
2028.561397174951
 30
0.0
 10
1195.718853395297
 20
2027.346363849719
 30
0.0
 10
1199.900008813213
 20
2024.932372643662
 30
0.0
 10
1204.025477258199
 20
2022.550532326416
 30
0.0
 10
1206.074289737461
 20
2021.367649889996
 30
0.0
  0
ARC
  5
2F3
330
27E
100
AcDbEntity
  8
P-SANR-FIXT
100
AcDbCircle
 10
1177.114353943148
 20
1999.982558850011
 30
0.0
 40
35.99999999998859
100
AcDbArc
 50
23.55646430904775
 51
36.44353569104645
  0
SPLINE
  5
2F4
330
27E
100
AcDbEntity
  8
P-SANR-FIXT
100
AcDbSpline
210
0.0
220
0.0
230
1.0
 70
    24
 71
     3
 72
     9
 73
     5
 74
     0
 42
0.000000001
 43
0.0000000001
 40
0.0
 40
0.0
 40
0.0
 40
0.0
 40
0.5
 40
1.0
 40
1.0
 40
1.0
 40
1.0
 10
1210.114353943151
 20
2014.370053419913
 30
0.0
 10
1210.114353943151
 20
2012.004288547074
 30
0.0
 10
1210.114353943151
 20
2007.240607912584
 30
0.0
 10
1210.114353943151
 20
2002.412625500473
 30
0.0
 10
1210.114353943151
 20
1999.982558850011
 30
0.0
  0
SPLINE
  5
2F5
330
27E
100
AcDbEntity
  8
P-SANR-FIXT
100
AcDbSpline
210
0.0
220
0.0
230
1.0
 70
    24
 71
     3
 72
     9
 73
     5
 74
     0
 42
0.000000001
 43
0.0000000001
 40
0.0
 40
0.0
 40
0.0
 40
0.0
 40
0.5
 40
1.0
 40
1.0
 40
1.0
 40
1.0
 10
1210.114353943151
 20
1999.982558850011
 30
0.0
 10
1210.114353943151
 20
1997.55249219955
 30
0.0
 10
1210.114353943151
 20
1992.724509787438
 30
0.0
 10
1210.114353943151
 20
1987.960829152948
 30
0.0
 10
1210.114353943151
 20
1985.595064280109
 30
0.0
  0
ARC
  5
2F6
330
27E
100
AcDbEntity
  8
P-SANR-FIXT
100
AcDbCircle
 10
1177.114353943077
 20
1999.982558850011
 30
0.0
 40
21.90000000000123
100
AcDbArc
 50
90.0
 51
269.999999999999
  0
ARC
  5
2F7
330
27E
100
AcDbEntity
  8
P-SANR-FIXT
100
AcDbCircle
 10
1177.114353943077
 20
1999.982558850011
 30
0.0
 40
21.90000000000134
100
AcDbArc
 50
269.9999999999993
 51
89.99999999999969
  0
ARC
  5
2F8
330
27E
100
AcDbEntity
  8
P-SANR-FIXT
100
AcDbCircle
 10
1177.114353943077
 20
1999.982558850011
 30
0.0
 40
23.90000000000191
100
AcDbArc
 50
90.00000000000055
 51
269.9999999999997
  0
ARC
  5
2F9
330
27E
100
AcDbEntity
  8
P-SANR-FIXT
100
AcDbCircle
 10
1177.114353943077
 20
1999.982558850011
 30
0.0
 40
23.90000000000214
100
AcDbArc
 50
270.0000000000002
 51
90.0
  0
LWPOLYLINE
  5
2FA
330
27E
100
AcDbEntity
  8
P-SANR-FIXT
100
AcDbPolyline
 90
       40
 70
   128
 43
0.0
 10
1151.256736552978
 20
1971.821552405708
 10
1151.374224594683
 20
1971.137980324798
 10
1151.634329429304
 20
1970.239095683818
 10
1151.975951274006
 20
1969.401457346642
 10
1152.381972956892
 20
1968.632041517747
 10
1152.836897855955
 20
1967.931468486508
 10
1153.328253256711
 20
1967.296025797999
 10
1153.846894122124
 20
1966.719644636591
 10
1154.386638884558
 20
1966.195405887304
 10
1154.943634993053
 20
1965.71649961245
 10
1155.515706454056
 20
1965.276737668351
 10
1156.101800783891
 20
1964.870763288616
 10
1156.701567200454
 20
1964.49408167619
 10
1157.315056114429
 20
1964.142998520779
 10
1157.942515453933
 20
1963.814520019571
 10
1158.584258297455
 20
1963.506244191139
 10
1159.24058040758
 20
1963.216258295397
 10
1159.911711461554
 20
1962.943048538106
 10
1160.597788412602
 20
1962.68542363935
 10
1161.298843028923
 20
1962.442451617301
 10
1162.014798281433
 20
1962.213408217709
 10
1162.745470079396
 20
1961.997735174939
 10
1163.490572092944
 20
1961.79500656714
 10
1164.249722227025
 20
1961.604901736171
 10
1165.022449853523
 20
1961.427183486058
 10
1165.808203260272
 20
1961.261680506774
 10
1166.606357001726
 20
1961.10827317494
 10
1167.416218979497
 20
1960.966882054831
 10
1168.237037170509
 20
1960.837458563299
 10
1169.068005975421
 20
1960.719977374878
 10
1169.908272192538
 20
1960.614430232961
 10
1170.756940640876
 20
1960.520820903814
 10
1171.613079465715
 20
1960.439161066317
 10
1172.475725164209
 20
1960.369466974526
 10
1173.343887369713
 20
1960.31175676539
 10
1174.216553432788
 20
1960.266048311977
 10
1175.092692835294
 20
1960.232357545162
 10
1175.971261472144
 20
1960.210697185198
 10
1176.851205833486
 20
1960.201075839914
 10
1177.114353943079
 20
1960.200537752968
  0
LWPOLYLINE
  5
2FB
330
27E
100
AcDbEntity
  8
P-SANR-FIXT
100
AcDbPolyline
 90
       40
 70
   128
 43
0.0
 10
1202.972281112322
 20
1971.823354771041
 10
1202.854483291474
 20
1971.137980324797
 10
1202.594378456854
 20
1970.239095683818
 10
1202.252756612152
 20
1969.401457346642
 10
1201.846734929266
 20
1968.632041517747
 10
1201.391810030203
 20
1967.931468486508
 10
1200.900454629446
 20
1967.296025797999
 10
1200.381813764033
 20
1966.719644636591
 10
1199.8420690016
 20
1966.195405887304
 10
1199.285072893104
 20
1965.716499612449
 10
1198.713001432102
 20
1965.276737668351
 10
1198.126907102267
 20
1964.870763288616
 10
1197.527140685704
 20
1964.49408167619
 10
1196.913651771729
 20
1964.142998520779
 10
1196.286192432225
 20
1963.814520019571
 10
1195.644449588702
 20
1963.506244191139
 10
1194.988127478578
 20
1963.216258295397
 10
1194.316996424604
 20
1962.943048538106
 10
1193.630919473556
 20
1962.68542363935
 10
1192.929864857235
 20
1962.442451617302
 10
1192.213909604725
 20
1962.213408217709
 10
1191.483237806761
 20
1961.997735174939
 10
1190.738135793214
 20
1961.79500656714
 10
1189.978985659133
 20
1961.604901736171
 10
1189.206258032634
 20
1961.427183486058
 10
1188.420504625886
 20
1961.261680506774
 10
1187.622350884432
 20
1961.10827317494
 10
1186.81248890666
 20
1960.966882054831
 10
1185.991670715649
 20
1960.837458563299
 10
1185.160701910737
 20
1960.719977374878
 10
1184.32043569362
 20
1960.614430232961
 10
1183.471767245282
 20
1960.520820903814
 10
1182.615628420442
 20
1960.439161066318
 10
1181.752982721948
 20
1960.369466974526
 10
1180.884820516444
 20
1960.31175676539
 10
1180.01215445337
 20
1960.266048311977
 10
1179.136015050865
 20
1960.232357545162
 10
1178.257446414014
 20
1960.210697185198
 10
1177.377502052672
 20
1960.201075839914
 10
1177.114353943079
 20
1960.200537752968
  0
LWPOLYLINE
  5
2FC
330
27E
100
AcDbEntity
  8
P-SANR-FIXT
100
AcDbPolyline
 90
        3
 70
   128
 43
0.0
 10
1142.633088692841
 20
2046.739060725526
 10
1143.51599664231
 20
2016.359764779023
 10
1144.114353943128
 20
2012.25439840013
  0
LINE
  5
2FD
330
27E
100
AcDbEntity
  8
P-SANR-FIXT
100
AcDbLine
 10
1149.904344595596
 20
1977.58714730496
 30
0.0
 11
1151.296498012371
 21
1971.633127091969
 31
0.0
  0
LWPOLYLINE
  5
2FE
330
27E
100
AcDbEntity
  8
P-SANR-FIXT
100
AcDbPolyline
 90
        3
 70
   128
 43
0.0
 10
1211.595619193317
 20
2046.739060725526
 10
1210.712711243846
 20
2016.359764779013
 10
1210.114353943146
 20
2012.254398400924
  0
LINE
  5
2FF
330
27E
100
AcDbEntity
  8
P-SANR-FIXT
100
AcDbLine
 10
1204.324363290544
 20
1977.587147304886
 30
0.0
 11
1202.932209873784
 21
1971.63312709196
 31
0.0
  0
LINE
  5
300
330
27E
100
AcDbEntity
  8
P-SANR-FIXT
100
AcDbLine
 10
1142.734467662413
 20
2046.538349887715
 30
0.0
 11
1143.185202839814
 21
2045.821115791275
 31
0.0
  0
LINE
  5
301
330
27E
100
AcDbEntity
  8
P-SANR-FIXT
100
AcDbLine
 10
1211.043505046343
 20
2045.821115791275
 30
0.0
 11
1211.494240223745
 21
2046.538349887715
 31
0.0
  0
LINE
  5
302
330
27E
100
AcDbEntity
  8
P-SANR-FIXT
100
AcDbLine
 10
1141.614353943078
 20
2055.786669610739
 30
0.0
 11
1141.614353943078
 21
2050.240332785974
 31
0.0
  0
LINE
  5
303
330
27E
100
AcDbEntity
  8
P-SANR-FIXT
100
AcDbLine
 10
1212.614353943079
 20
2050.240332785974
 30
0.0
 11
1212.614353943079
 21
2055.786669610738
 31
0.0
  0
LINE
  5
304
330
27E
100
AcDbEntity
  8
P-SANR-FIXT
100
AcDbLine
 10
1141.267960161093
 20
2056.297315102209
 30
0.0
 11
1142.079551827958
 21
2055.005866719551
 31
0.0
  0
LINE
  5
305
330
27E
100
AcDbEntity
  8
P-SANR-FIXT
100
AcDbLine
 10
1212.149156058199
 20
2055.005866719551
 30
0.0
 11
1212.960747725064
 21
2056.297315102209
 31
0.0
  0
LINE
  5
306
330
27E
100
AcDbEntity
  8
P-SANR-FIXT
100
AcDbLine
 10
1140.114353943078
 20
2074.324774015461
 30
0.0
 11
1140.114353943078
 21
2060.107105304227
 31
0.0
  0
LINE
  5
307
330
27E
100
AcDbEntity
  8
P-SANR-FIXT
100
AcDbLine
 10
1214.114353943079
 20
2060.107105304227
 30
0.0
 11
1214.114353943079
 21
2074.324774015461
 31
0.0
  0
LWPOLYLINE
  5
308
330
27E
100
AcDbEntity
  8
P-SANR-FIXT
100
AcDbPolyline
 90
        7
 70
   128
 43
0.0
 10
1141.614353943079
 20
2050.240332785974
 10
1141.657692158464
 20
2049.498432532335
 10
1141.785872881928
 20
2048.767815759624
 10
1141.993904100889
 20
2048.057950301859
 10
1142.274900130734
 20
2047.375348850766
 10
1142.621514728775
 20
2046.723366405879
 10
1142.734467662413
 20
2046.538349887715
  0
LWPOLYLINE
  5
309
330
27E
100
AcDbEntity
  8
P-SANR-FIXT
100
AcDbPolyline
 90
        7
 70
   128
 43
0.0
 10
1212.614353943079
 20
2050.240332785974
 10
1212.571015727694
 20
2049.498432532335
 10
1212.44283500423
 20
2048.767815759624
 10
1212.234803785269
 20
2048.057950301859
 10
1211.953807755423
 20
2047.375348850766
 10
1211.607193157383
 20
2046.723366405879
 10
1211.494240223745
 20
2046.538349887714
  0
LWPOLYLINE
  5
30A
330
27E
100
AcDbEntity
  8
P-SANR-FIXT
100
AcDbPolyline
 90
        7
 70
   128
 43
0.0
 10
1140.114353943078
 20
2060.107105304227
 10
1140.158891998472
 20
2059.344689313872
 10
1140.290670322474
 20
2058.593589625249
 10
1140.504691147108
 20
2057.863306840669
 10
1140.794059205671
 20
2057.160386315227
 10
1141.151414862013
 20
2056.488215554642
 10
1141.267960161093
 20
2056.297315102209
  0
LWPOLYLINE
  5
30B
330
27E
100
AcDbEntity
  8
P-SANR-FIXT
100
AcDbPolyline
 90
        7
 70
   128
 43
0.0
 10
1214.114353943079
 20
2060.107105304227
 10
1214.069815887685
 20
2059.344689313872
 10
1213.938037563684
 20
2058.593589625249
 10
1213.724016739049
 20
2057.863306840669
 10
1213.434648680487
 20
2057.160386315227
 10
1213.077293024144
 20
2056.488215554642
 10
1212.960747725064
 20
2056.297315102209
  0
ELLIPSE
  5
30C
330
27E
100
AcDbEntity
  8
P-SANR-FIXT
100
AcDbEllipse
 10
1177.114353943077
 20
1972.427806917313
 30
0.0
 11
25.92219672528927
 21
0.0
 31
0.0
210
0.0
220
0.0
230
1.0
 40
0.342020143325671
 41
3.220132469929546
 42
4.712388980384683
  0
ELLIPSE
  5
30D
330
27E
100
AcDbEntity
  8
P-SANR-FIXT
100
AcDbEllipse
 10
1177.114353943077
 20
1972.427806917313
 30
0.0
 11
25.922196725289
 21
0.0
 31
0.0
210
0.0
220
0.0
230
1.0
 40
0.3420201433256771
 41
4.712388980384683
 42
6.204645490839846
  0
ELLIPSE
  5
30E
330
27E
100
AcDbEntity
  8
P-SANR-FIXT
100
AcDbEllipse
 10
1177.114353943077
 20
2074.32477401546
 30
0.0
 11
36.99999999999977
 21
0.0
 31
0.0
210
0.0
220
0.0
230
0.9999999999999998
 40
0.342020143325673
 41
2.979925086997841
 42
4.712388980384683
  0
ELLIPSE
  5
30F
330
27E
100
AcDbEntity
  8
P-SANR-FIXT
100
AcDbEllipse
 10
1177.114353943077
 20
2074.32477401546
 30
0.0
 11
37.00000000000016
 21
0.0
 31
0.0
210
0.0
220
0.0
230
1.0
 40
0.3420201433256673
 41
4.712388980384683
 42
6.444852873763492
  0
ENDBLK
  5
311
330
27E
100
AcDbEntity
  8
0
100
AcDbBlockEnd
  0
ENDSEC
  0
SECTION
  2
ENTITIES
  0
INSERT
  5
1A2
330
71
100
AcDbEntity
  8
P-SANR-FIXT
100
AcDbBlockReference
  2
Automatic flow rate regulator valve_Caleffi_121 DN15 - 1 1_2___Pressure gauge-946936-Est - Idraulica
 10
0.0
 20
0.0
 30
0.0
1001
REVIT
1002
{
1070
     1
1000
863131
1002
}
1002
{
1070
     5
1000
946936
1002
}
1002
{
1070
     2
1000
-2001160
1002
}
  0
INSERT
  5
27D
330
71
100
AcDbEntity
  8
P-SANR-FIXT
100
AcDbBlockReference
  2
Automatic flow rate regulator valve_Caleffi_121 DN15 - 1 1_2___Pressure gauge-V1-Est - Idraulica
 10
0.0
 20
0.0
 30
0.0
1001
REVIT
1002
{
1070
     1
1000
863152
1002
}
1002
{
1070
     5
1000
946936
1002
}
1002
{
1070
     2
1000
-2001160
1002
}
  0
INSERT
  5
312
330
71
100
AcDbEntity
  8
P-SANR-FIXT
100
AcDbBlockReference
  2
Automatic flow rate regulator valve_Caleffi_121 DN15 - 1 1_2___Pressure gauge-V2-Est - Idraulica
 10
0.0
 20
0.0
 30
0.0
1001
REVIT
1002
{
1070
     1
1000
863172
1002
}
1002
{
1070
     5
1000
946936
1002
}
1002
{
1070
     2
1000
-2001160
1002
}
  0
ENDSEC
  0
SECTION
  2
OBJECTS
  0
DICTIONARY
  5
C
330
0
100
AcDbDictionary
281
     1
  3
ACAD_CIP_PREVIOUS_PRODUCT_INFO
350
7A
  3
ACAD_COLOR
350
63
  3
ACAD_DETAILVIEWSTYLE
350
6B
  3
ACAD_GROUP
350
D
  3
ACAD_IMAGE_VARS
350
7B
  3
ACAD_LAYOUT
350
62
  3
ACAD_MATERIAL
350
10
  3
ACAD_MLEADERSTYLE
350
66
  3
ACAD_MLINESTYLE
350
5F
  3
ACAD_PLOTSETTINGS
350
61
  3
ACAD_PLOTSTYLENAME
350
E
  3
ACAD_SCALELIST
350
42
  3
ACAD_SECTIONVIEWSTYLE
350
68
  3
ACAD_TABLESTYLE
350
64
  3
ACAD_VISUALSTYLE
350
29
  3
ACDB_RECOMPOSE_DATA
350
31D
  3
AcDbVariableDictionary
350
7C
  3
REVIT_DICTIONARY
350
314
  0
DICTIONARY
  5
319
330
71
100
AcDbDictionary
280
     1
281
     1
  3
ACAD_SORTENTS
360
31A
  0
XRECORD
  5
7A
102
{ACAD_REACTORS
330
C
102
}
330
C
100
AcDbXrecord
280
     1
300
RVT
300
2013
300
RVT2013
  0
DICTIONARY
  5
63
102
{ACAD_REACTORS
330
C
102
}
330
C
100
AcDbDictionary
281
     1
  0
DICTIONARY
  5
6B
102
{ACAD_REACTORS
330
C
102
}
330
C
100
AcDbDictionary
281
     1
  3
Imperial24
350
6C
  0
DICTIONARY
  5
D
102
{ACAD_REACTORS
330
C
102
}
330
C
100
AcDbDictionary
281
     1
  0
RASTERVARIABLES
  5
7B
102
{ACAD_REACTORS
330
C
102
}
330
C
100
AcDbRasterVariables
 90
        0
 70
     0
 71
     1
 72
     1
  0
DICTIONARY
  5
62
102
{ACAD_REACTORS
330
C
102
}
330
C
100
AcDbDictionary
281
     1
  3
Layout1
350
70
  3
Layout2
350
78
  3
Model
350
74
  0
DICTIONARY
  5
10
102
{ACAD_REACTORS
330
C
102
}
330
C
100
AcDbDictionary
281
     1
  3
ByBlock
350
19
  3
ByLayer
350
11
  3
Global
350
21
  0
DICTIONARY
  5
66
102
{ACAD_REACTORS
330
C
102
}
330
C
100
AcDbDictionary
281
     1
  3
Standard
350
67
  0
DICTIONARY
  5
5F
102
{ACAD_REACTORS
330
C
102
}
330
C
100
AcDbDictionary
281
     1
  3
Standard
350
60
  0
DICTIONARY
  5
61
102
{ACAD_REACTORS
330
C
102
}
330
C
100
AcDbDictionary
281
     1
  0
ACDBDICTIONARYWDFLT
  5
E
102
{ACAD_REACTORS
330
C
102
}
330
C
100
AcDbDictionary
281
     1
  3
Normal
350
F
100
AcDbDictionaryWithDefault
340
F
  0
DICTIONARY
  5
42
102
{ACAD_REACTORS
330
C
102
}
330
C
100
AcDbDictionary
281
     1
  3
A0
350
43
  3
A1
350
44
  3
A2
350
45
  3
A3
350
46
  3
A4
350
47
  3
A5
350
48
  3
A6
350
49
  3
A7
350
4A
  3
A8
350
4B
  3
A9
350
4C
  3
B0
350
4D
  3
B1
350
4E
  3
B2
350
4F
  3
B3
350
50
  3
B4
350
51
  3
B5
350
52
  3
B6
350
53
  0
DICTIONARY
  5
68
102
{ACAD_REACTORS
330
C
102
}
330
C
100
AcDbDictionary
281
     1
  3
Imperial24
350
6A
  0
DICTIONARY
  5
64
102
{ACAD_REACTORS
330
C
102
}
330
C
100
AcDbDictionary
281
     1
  3
Standard
350
65
  0
DICTIONARY
  5
29
102
{ACAD_REACTORS
330
C
102
}
330
C
100
AcDbDictionary
281
     1
  3
2dWireframe
350
2F
  3
Basic
350
2E
  3
Brighten
350
35
  3
ColorChange
350
39
  3
Conceptual
350
32
  3
Dim
350
34
  3
EdgeColorOff
350
41
  3
Facepattern
350
38
  3
Flat
350
2A
  3
FlatWithEdges
350
2B
  3
Gouraud
350
2C
  3
GouraudWithEdges
350
2D
  3
Hidden
350
31
  3
JitterOff
350
3F
  3
Linepattern
350
37
  3
OverhangOff
350
40
  3
Realistic
350
33
  3
Shaded
350
3E
  3
Shaded with edges
350
3D
  3
Shades of Gray
350
3A
  3
Sketchy
350
3B
  3
Thicken
350
36
  3
Wireframe
350
30
  3
X-Ray
350
3C
  0
XRECORD
  5
31D
102
{ACAD_REACTORS
330
C
102
}
330
C
100
AcDbXrecord
280
     1
 90
        1
330
65
  0
DICTIONARY
  5
7C
102
{ACAD_REACTORS
330
C
102
}
330
C
100
AcDbDictionary
281
     1
  3
CANNOSCALE
350
81
  3
CMLEADERSTYLE
350
7E
  3
CTABLESTYLE
350
7D
  3
CVIEWDETAILSTYLE
350
7F
  3
CVIEWSECTIONSTYLE
350
80
  0
DICTIONARY
  5
314
102
{ACAD_REACTORS
330
C
102
}
330
C
100
AcDbDictionary
281
     1
  3
DRAWING_TOOL
350
318
  3
REVIT_CATEGORY_MAPPING
350
316
  3
REVIT_SUB_CATEGORY_MAPPING
350
317
  3
REVIT_TYPE_MAPPING
350
315
  0
SORTENTSTABLE
  5
31A
102
{ACAD_REACTORS
330
319
102
}
330
319
100
AcDbSortentsTable
330
71
  0
ACDBDETAILVIEWSTYLE
  5
6C
102
{ACAD_REACTORS
330
6B
102
}
330
6B
100
AcDbModelDocViewStyle
 70
     0
  3
Imperial24
290
     1
100
AcDbDetailViewStyle
 70
     0
 71
     0
 90
        3
 71
     1
340
55
 62
   256
 40
0.24
340
0
 62
   256
 40
0.24
300

 40
0.36
280
     3
 71
     2
340
5D
 90
       25
 62
   256
 71
     3
340
55
 62
   256
 40
0.24
 90
        1
 40
0.75
 90
        1
300
%<\AcVar ViewType \f "%tc1">% %<\AcVar ViewDetailId>%\PSCALA %<\AcVar ViewScale \f "%sn">%
 71
     4
340
5D
 90
       25
 62
   256
340
5D
 90
       25
 62
   256
280
     0
  0
LAYOUT
  5
70
102
{ACAD_REACTORS
330
62
102
}
330
62
100
AcDbPlotSettings
  1

  2

  4

  6

 40
0.0
 41
0.0
 42
0.0
 43
0.0
 44
0.0
 45
0.0
 46
0.0
 47
0.0
 48
0.0
 49
0.0
140
0.0
141
0.0
142
1.0
143
1.0
 70
   688
 72
     0
 73
     0
 74
     5
  7

 75
    16
147
1.0
 76
     0
 77
     2
 78
   300
148
0.0
149
0.0
100
AcDbLayout
  1
Layout1
 70
     1
 71
     1
 10
0.0
 20
0.0
 11
12.0
 21
9.0
 12
0.0
 22
0.0
 32
0.0
 14
0.0
 24
0.0
 34
0.0
 15
0.0
 25
0.0
 35
0.0
146
0.0
 13
0.0
 23
0.0
 33
0.0
 16
1.0
 26
0.0
 36
0.0
 17
0.0
 27
1.0
 37
0.0
 76
     0
330
6D
  0
LAYOUT
  5
78
102
{ACAD_REACTORS
330
62
102
}
330
62
100
AcDbPlotSettings
  1

  2

  4

  6

 40
0.0
 41
0.0
 42
0.0
 43
0.0
 44
0.0
 45
0.0
 46
0.0
 47
0.0
 48
0.0
 49
0.0
140
0.0
141
0.0
142
1.0
143
1.0
 70
   688
 72
     0
 73
     0
 74
     5
  7

 75
    16
147
1.0
 76
     0
 77
     2
 78
   300
148
0.0
149
0.0
100
AcDbLayout
  1
Layout2
 70
     1
 71
     2
 10
0.0
 20
0.0
 11
12.0
 21
9.0
 12
0.0
 22
0.0
 32
0.0
 14
0.0
 24
0.0
 34
0.0
 15
0.0
 25
0.0
 35
0.0
146
0.0
 13
0.0
 23
0.0
 33
0.0
 16
1.0
 26
0.0
 36
0.0
 17
0.0
 27
1.0
 37
0.0
 76
     0
330
75
  0
LAYOUT
  5
74
102
{ACAD_REACTORS
330
62
102
}
330
62
100
AcDbPlotSettings
  1

  2

  4

  6

 40
0.0
 41
0.0
 42
0.0
 43
0.0
 44
0.0
 45
0.0
 46
0.0
 47
0.0
 48
0.0
 49
0.0
140
0.0
141
0.0
142
1.0
143
1.0
 70
  1712
 72
     0
 73
     0
 74
     0
  7

 75
     0
147
1.0
 76
     0
 77
     2
 78
   300
148
0.0
149
0.0
100
AcDbLayout
  1
Model
 70
     1
 71
     0
 10
0.0
 20
0.0
 11
12.0
 21
9.0
 12
0.0
 22
0.0
 32
0.0
 14
0.0
 24
0.0
 34
0.0
 15
0.0
 25
0.0
 35
0.0
146
0.0
 13
0.0
 23
0.0
 33
0.0
 16
1.0
 26
0.0
 36
0.0
 17
0.0
 27
1.0
 37
0.0
 76
     0
330
71
  0
MATERIAL
  5
19
102
{ACAD_XDICTIONARY
360
1A
102
}
102
{ACAD_REACTORS
330
10
102
}
330
10
100
AcDbMaterial
  1
ByBlock
 72
     0
 43
0.0208333333333333
 43
0.0
 43
0.0
 43
0.0
 43
0.0
 43
0.0208333333333333
 43
0.0
 43
0.0
 43
0.0
 43
0.0
 43
1.0
 43
0.0
 43
0.0
 43
0.0
 43
0.0
 43
1.0
 77
     0
 47
0.0208333333333333
 47
0.0
 47
0.0
 47
0.0
 47
0.0
 47
0.0208333333333333
 47
0.0
 47
0.0
 47
0.0
 47
0.0
 47
1.0
 47
0.0
 47
0.0
 47
0.0
 47
0.0
 47
1.0
171
     0
 49
0.0208333333333333
 49
0.0
 49
0.0
 49
0.0
 49
0.0
 49
0.0208333333333333
 49
0.0
 49
0.0
 49
0.0
 49
0.0
 49
1.0
 49
0.0
 49
0.0
 49
0.0
 49
0.0
 49
1.0
175
     0
142
0.0208333333333333
142
0.0
142
0.0
142
0.0
142
0.0
142
0.0208333333333333
142
0.0
142
0.0
142
0.0
142
0.0
142
1.0
142
0.0
142
0.0
142
0.0
142
0.0
142
1.0
179
     0
144
0.0208333333333333
144
0.0
144
0.0
144
0.0
144
0.0
144
0.0208333333333333
144
0.0
144
0.0
144
0.0
144
0.0
144
1.0
144
0.0
144
0.0
144
0.0
144
0.0
144
1.0
147
0.0208333333333333
147
0.0
147
0.0
147
0.0
147
0.0
147
0.0208333333333333
147
0.0
147
0.0
147
0.0
147
0.0
147
1.0
147
0.0
147
0.0
147
0.0
147
0.0
147
1.0
  0
MATERIAL
  5
11
102
{ACAD_XDICTIONARY
360
12
102
}
102
{ACAD_REACTORS
330
10
102
}
330
10
100
AcDbMaterial
  1
ByLayer
 72
     0
 43
0.0208333333333333
 43
0.0
 43
0.0
 43
0.0
 43
0.0
 43
0.0208333333333333
 43
0.0
 43
0.0
 43
0.0
 43
0.0
 43
1.0
 43
0.0
 43
0.0
 43
0.0
 43
0.0
 43
1.0
 77
     0
 47
0.0208333333333333
 47
0.0
 47
0.0
 47
0.0
 47
0.0
 47
0.0208333333333333
 47
0.0
 47
0.0
 47
0.0
 47
0.0
 47
1.0
 47
0.0
 47
0.0
 47
0.0
 47
0.0
 47
1.0
171
     0
 49
0.0208333333333333
 49
0.0
 49
0.0
 49
0.0
 49
0.0
 49
0.0208333333333333
 49
0.0
 49
0.0
 49
0.0
 49
0.0
 49
1.0
 49
0.0
 49
0.0
 49
0.0
 49
0.0
 49
1.0
175
     0
142
0.0208333333333333
142
0.0
142
0.0
142
0.0
142
0.0
142
0.0208333333333333
142
0.0
142
0.0
142
0.0
142
0.0
142
1.0
142
0.0
142
0.0
142
0.0
142
0.0
142
1.0
179
     0
144
0.0208333333333333
144
0.0
144
0.0
144
0.0
144
0.0
144
0.0208333333333333
144
0.0
144
0.0
144
0.0
144
0.0
144
1.0
144
0.0
144
0.0
144
0.0
144
0.0
144
1.0
147
0.0208333333333333
147
0.0
147
0.0
147
0.0
147
0.0
147
0.0208333333333333
147
0.0
147
0.0
147
0.0
147
0.0
147
1.0
147
0.0
147
0.0
147
0.0
147
0.0
147
1.0
  0
MATERIAL
  5
21
102
{ACAD_XDICTIONARY
360
22
102
}
102
{ACAD_REACTORS
330
10
102
}
330
10
100
AcDbMaterial
  1
Global
 72
     0
 43
0.0208333333333333
 43
0.0
 43
0.0
 43
0.0
 43
0.0
 43
0.0208333333333333
 43
0.0
 43
0.0
 43
0.0
 43
0.0
 43
1.0
 43
0.0
 43
0.0
 43
0.0
 43
0.0
 43
1.0
 77
     0
 47
0.0208333333333333
 47
0.0
 47
0.0
 47
0.0
 47
0.0
 47
0.0208333333333333
 47
0.0
 47
0.0
 47
0.0
 47
0.0
 47
1.0
 47
0.0
 47
0.0
 47
0.0
 47
0.0
 47
1.0
171
     0
 49
0.0208333333333333
 49
0.0
 49
0.0
 49
0.0
 49
0.0
 49
0.0208333333333333
 49
0.0
 49
0.0
 49
0.0
 49
0.0
 49
1.0
 49
0.0
 49
0.0
 49
0.0
 49
0.0
 49
1.0
175
     0
142
0.0208333333333333
142
0.0
142
0.0
142
0.0
142
0.0
142
0.0208333333333333
142
0.0
142
0.0
142
0.0
142
0.0
142
1.0
142
0.0
142
0.0
142
0.0
142
0.0
142
1.0
179
     0
144
0.0208333333333333
144
0.0
144
0.0
144
0.0
144
0.0
144
0.0208333333333333
144
0.0
144
0.0
144
0.0
144
0.0
144
1.0
144
0.0
144
0.0
144
0.0
144
0.0
144
1.0
147
0.0208333333333333
147
0.0
147
0.0
147
0.0
147
0.0
147
0.0208333333333333
147
0.0
147
0.0
147
0.0
147
0.0
147
1.0
147
0.0
147
0.0
147
0.0
147
0.0
147
1.0
  0
MLEADERSTYLE
  5
67
102
{ACAD_REACTORS
330
66
102
}
330
66
100
AcDbMLeaderStyle
179
     2
170
     2
171
     1
172
     0
 90
        2
 40
0.0
 41
0.0
173
     1
 91
-1056964608
340
5B
 92
       -2
290
     1
 42
0.09
291
     1
 43
0.36
  3
Standard
 44
0.18
300

342
55
174
     1
178
     6
175
     1
176
     0
 93
-1056964608
 45
0.18
292
     0
297
     0
 46
0.18
 94
-1056964608
 47
1.0
 49
1.0
140
1.0
293
     1
141
0.0
294
     1
177
     0
142
1.0
295
     1
296
     0
143
0.125
271
     0
272
     9
273
     9
298
     1
  0
MLINESTYLE
  5
60
102
{ACAD_REACTORS
330
5F
102
}
330
5F
100
AcDbMlineStyle
  2
STANDARD
 70
     0
  3

 62
   256
 51
90.0
 52
90.0
 71
     2
 49
0.5
 62
   256
  6
BYLAYER
 49
-0.5
 62
   256
  6
BYLAYER
  0
ACDBPLACEHOLDER
  5
F
102
{ACAD_REACTORS
330
E
102
}
330
E
  0
SCALE
  5
43
102
{ACAD_REACTORS
330
42
102
}
330
42
100
AcDbScale
 70
     0
300
1:1
140
1.0
141
1.0
290
     1
  0
SCALE
  5
44
102
{ACAD_REACTORS
330
42
102
}
330
42
100
AcDbScale
 70
     0
300
1/128" = 1'-0"
140
0.0078125
141
12.0
290
     0
  0
SCALE
  5
45
102
{ACAD_REACTORS
330
42
102
}
330
42
100
AcDbScale
 70
     0
300
1/64" = 1'-0"
140
0.015625
141
12.0
290
     0
  0
SCALE
  5
46
102
{ACAD_REACTORS
330
42
102
}
330
42
100
AcDbScale
 70
     0
300
1/32" = 1'-0"
140
0.03125
141
12.0
290
     0
  0
SCALE
  5
47
102
{ACAD_REACTORS
330
42
102
}
330
42
100
AcDbScale
 70
     0
300
1/16" = 1'-0"
140
0.0625
141
12.0
290
     0
  0
SCALE
  5
48
102
{ACAD_REACTORS
330
42
102
}
330
42
100
AcDbScale
 70
     0
300
3/32" = 1'-0"
140
0.09375
141
12.0
290
     0
  0
SCALE
  5
49
102
{ACAD_REACTORS
330
42
102
}
330
42
100
AcDbScale
 70
     0
300
1/8" = 1'-0"
140
0.125
141
12.0
290
     0
  0
SCALE
  5
4A
102
{ACAD_REACTORS
330
42
102
}
330
42
100
AcDbScale
 70
     0
300
3/16" = 1'-0"
140
0.1875
141
12.0
290
     0
  0
SCALE
  5
4B
102
{ACAD_REACTORS
330
42
102
}
330
42
100
AcDbScale
 70
     0
300
1/4" = 1'-0"
140
0.25
141
12.0
290
     0
  0
SCALE
  5
4C
102
{ACAD_REACTORS
330
42
102
}
330
42
100
AcDbScale
 70
     0
300
3/8" = 1'-0"
140
0.375
141
12.0
290
     0
  0
SCALE
  5
4D
102
{ACAD_REACTORS
330
42
102
}
330
42
100
AcDbScale
 70
     0
300
1/2" = 1'-0"
140
0.5
141
12.0
290
     0
  0
SCALE
  5
4E
102
{ACAD_REACTORS
330
42
102
}
330
42
100
AcDbScale
 70
     0
300
3/4" = 1'-0"
140
0.75
141
12.0
290
     0
  0
SCALE
  5
4F
102
{ACAD_REACTORS
330
42
102
}
330
42
100
AcDbScale
 70
     0
300
1" = 1'-0"
140
1.0
141
12.0
290
     0
  0
SCALE
  5
50
102
{ACAD_REACTORS
330
42
102
}
330
42
100
AcDbScale
 70
     0
300
1-1/2" = 1'-0"
140
1.5
141
12.0
290
     0
  0
SCALE
  5
51
102
{ACAD_REACTORS
330
42
102
}
330
42
100
AcDbScale
 70
     0
300
3" = 1'-0"
140
3.0
141
12.0
290
     0
  0
SCALE
  5
52
102
{ACAD_REACTORS
330
42
102
}
330
42
100
AcDbScale
 70
     0
300
6" = 1'-0"
140
6.0
141
12.0
290
     0
  0
SCALE
  5
53
102
{ACAD_REACTORS
330
42
102
}
330
42
100
AcDbScale
 70
     0
300
1'-0" = 1'-0"
140
12.0
141
12.0
290
     0
  0
ACDBSECTIONVIEWSTYLE
  5
6A
102
{ACAD_REACTORS
330
68
102
}
330
68
100
AcDbModelDocViewStyle
 70
     0
  3
Imperial24
290
     1
100
AcDbSectionViewStyle
 70
     0
 71
     0
 90
       78
 71
     1
340
55
 62
   256
 40
0.24
340
0
340
0
 62
   256
 40
0.24
300
I, O, Q, S, X, Z
 40
0.48
 90
        3
 40
0.18
 90
        1
 71
     2
340
69
 90
       25
 62
   256
340
5D
 90
       50
 62
   256
 40
0.24
 40
0.0
 40
0.24
 71
     3
340
55
 62
   256
 40
0.24
 90
        1
 40
0.75
 90
        1
300
%<\AcVar ViewType \f "%tc1">% %<\AcVar ViewSectionStartId>%-%<\AcVar ViewSectionEndId>%\PSCALA %<\AcVar ViewScale \f "%sn">%
 71
     4
 62
   256
 62
   257
300
ANSI31
 40
1.0
 90
        0
290
     0
290
     0
 90
        6
 40
0.0
 40
1.570796326794896
 40
0.2617993877991494
 40
1.308996938995747
 40
-0.2617993877991494
 40
1.832595714594046
  0
TABLESTYLE
  5
65
102
{ACAD_XDICTIONARY
360
31B
102
}
102
{ACAD_REACTORS
330
64
102
}
330
64
100
AcDbTableStyle
280
     0
  3
Standard
 70
     0
 71
     0
 40
0.06
 41
0.06
280
     0
281
     0
  7
Standard
140
0.18
170
     2
 62
     0
 63
     7
283
     0
 90
      512
 91
        0
  1

274
    -2
284
     1
 64
     0
275
    -2
285
     1
 65
     0
276
    -2
286
     1
 66
     0
277
    -2
287
     1
 67
     0
278
    -2
288
     1
 68
     0
279
    -2
289
     1
 69
     0
  7
Standard
140
0.25
170
     5
 62
     0
 63
     7
283
     0
 90
      512
 91
        0
  1

274
    -2
284
     1
 64
     0
275
    -2
285
     1
 65
     0
276
    -2
286
     1
 66
     0
277
    -2
287
     1
 67
     0
278
    -2
288
     1
 68
     0
279
    -2
289
     1
 69
     0
  7
Standard
140
0.18
170
     5
 62
     0
 63
     7
283
     0
 90
      512
 91
        0
  1

274
    -2
284
     1
 64
     0
275
    -2
285
     1
 65
     0
276
    -2
286
     1
 66
     0
277
    -2
287
     1
 67
     0
278
    -2
288
     1
 68
     0
279
    -2
289
     1
 69
     0
  0
VISUALSTYLE
  5
2F
102
{ACAD_REACTORS
330
29
102
}
330
29
100
AcDbVisualStyle
  2
2dWireframe
 70
     4
177
     3
291
     0
 70
    58
 90
        0
176
     1
 90
        2
176
     1
 90
        0
176
     1
 90
        0
176
     1
 40
0.6
176
     1
 40
30.0
176
     1
 62
     7
420
 16777215
176
     1
 90
        1
176
     1
 90
        4
176
     1
 62
     7
176
     1
 62
   257
176
     1
 90
        1
176
     1
 90
        1
176
     1
 40
1.0
176
     1
 90
        0
176
     1
 62
   257
176
     1
 40
1.0
176
     1
 90
        1
176
     1
 90
        6
176
     1
 90
        2
176
     1
 62
     7
176
     1
 90
        5
176
     1
 90
        0
176
     1
 90
        0
176
     1
290
     0
176
     1
 90
        1
176
     1
 40
0.0
176
     1
 90
        0
176
     1
290
     1
176
     1
290
     1
176
     1
290
     0
176
     1
290
     0
176
     1
290
     0
176
     1
290
     0
176
     1
290
     0
176
     1
290
     0
176
     1
290
     0
176
     1
 90
       50
176
     1
 40
0.0
176
     1
 40
1.0
176
     1
 90
        0
176
     1
 62
    18
420
        0
176
     1
 90
       50
176
     1
 90
        3
176
     1
 62
     5
420
      255
176
     1
290
     0
176
     1
 90
       50
176
     1
 90
       50
176
     1
 90
       50
176
     1
290
     0
176
     1
 90
       50
176
     1
 62
   256
176
     0
 40
1.0
176
     0
 90
        2
176
     1
  1
strokes_ogs.tif
176
     1
290
     0
176
     1
 40
1.0
176
     1
 40
1.0
176
     1
  0
VISUALSTYLE
  5
2E
102
{ACAD_REACTORS
330
29
102
}
330
29
100
AcDbVisualStyle
  2
Basic
 70
     7
177
     3
291
     1
 70
    58
 90
        1
176
     1
 90
        0
176
     1
 90
        1
176
     1
 90
        0
176
     1
 40
0.6
176
     1
 40
30.0
176
     1
 62
     7
420
 16777215
176
     1
 90
        0
176
     1
 90
        4
176
     1
 62
     7
176
     1
 62
   257
176
     1
 90
        1
176
     1
 90
        1
176
     1
 40
1.0
176
     1
 90
        8
176
     1
 62
     7
176
     1
 40
1.0
176
     1
 90
        1
176
     1
 90
        6
176
     1
 90
        2
176
     1
 62
     7
176
     1
 90
        5
176
     1
 90
        0
176
     1
 90
        0
176
     1
290
     0
176
     1
 90
        1
176
     1
 40
0.0
176
     1
 90
        0
176
     1
290
     0
176
     1
290
     1
176
     1
290
     1
176
     1
290
     0
176
     1
290
     0
176
     1
290
     0
176
     1
290
     0
176
     1
290
     0
176
     1
290
     0
176
     1
 90
       50
176
     1
 40
0.0
176
     1
 40
1.0
176
     1
 90
        0
176
     1
 62
    18
420
        0
176
     1
 90
       50
176
     1
 90
        3
176
     1
 62
     5
420
      255
176
     1
290
     0
176
     1
 90
       50
176
     1
 90
       50
176
     1
 90
       50
176
     1
290
     0
176
     1
 90
       50
176
     1
 62
   256
176
     0
 40
1.0
176
     0
 90
        2
176
     1
  1
strokes_ogs.tif
176
     1
290
     0
176
     1
 40
1.0
176
     1
 40
1.0
176
     1
  0
VISUALSTYLE
  5
35
102
{ACAD_REACTORS
330
29
102
}
330
29
100
AcDbVisualStyle
  2
Brighten
 70
    12
177
     3
291
     1
 70
    58
 90
        2
176
     1
 90
        2
176
     1
 90
        0
176
     1
 90
        0
176
     1
 40
0.6
176
     1
 40
30.0
176
     1
 62
     7
420
 16777215
176
     1
 90
        1
176
     1
 90
        4
176
     1
 62
     7
176
     1
 62
   257
176
     1
 90
        1
176
     1
 90
        1
176
     1
 40
1.0
176
     1
 90
        8
176
     1
 62
     7
176
     1
 40
1.0
176
     1
 90
        1
176
     1
 90
        6
176
     1
 90
        2
176
     1
 62
     7
176
     1
 90
        5
176
     1
 90
        0
176
     1
 90
        0
176
     1
290
     0
176
     1
 90
        1
176
     1
 40
50.0
176
     1
 90
        0
176
     1
290
     0
176
     1
290
     1
176
     1
290
     1
176
     1
290
     0
176
     1
290
     0
176
     1
290
     0
176
     1
290
     0
176
     1
290
     0
176
     1
290
     0
176
     1
 90
       50
176
     1
 40
0.0
176
     1
 40
1.0
176
     1
 90
        0
176
     1
 62
    18
420
        0
176
     1
 90
       50
176
     1
 90
        3
176
     1
 62
     5
420
      255
176
     1
290
     0
176
     1
 90
       50
176
     1
 90
       50
176
     1
 90
       50
176
     1
290
     0
176
     1
 90
       50
176
     1
 62
   256
176
     0
 40
1.0
176
     0
 90
        2
176
     1
  1
strokes_ogs.tif
176
     1
290
     0
176
     1
 40
1.0
176
     1
 40
1.0
176
     1
  0
VISUALSTYLE
  5
39
102
{ACAD_REACTORS
330
29
102
}
330
29
100
AcDbVisualStyle
  2
ColorChange
 70
    16
177
     3
291
     1
 70
    58
 90
        2
176
     1
 90
        2
176
     1
 90
        3
176
     1
 90
        0
176
     1
 40
0.6
176
     1
 40
30.0
176
     1
 62
     8
420
  8421504
176
     1
 90
        1
176
     1
 90
        4
176
     1
 62
     7
176
     1
 62
   257
176
     1
 90
        1
176
     1
 90
        1
176
     1
 40
1.0
176
     1
 90
        8
176
     1
 62
     8
420
  8421504
176
     1
 40
1.0
176
     1
 90
        1
176
     1
 90
        6
176
     1
 90
        2
176
     1
 62
     7
176
     1
 90
        5
176
     1
 90
        0
176
     1
 90
        0
176
     1
290
     0
176
     1
 90
        1
176
     1
 40
0.0
176
     1
 90
        0
176
     1
290
     0
176
     1
290
     1
176
     1
290
     1
176
     1
290
     0
176
     1
290
     0
176
     1
290
     0
176
     1
290
     0
176
     1
290
     0
176
     1
290
     0
176
     1
 90
       50
176
     1
 40
0.0
176
     1
 40
1.0
176
     1
 90
        0
176
     1
 62
    18
420
        0
176
     1
 90
       50
176
     1
 90
        3
176
     1
 62
     5
420
      255
176
     1
290
     0
176
     1
 90
       50
176
     1
 90
       50
176
     1
 90
       50
176
     1
290
     0
176
     1
 90
       50
176
     1
 62
   256
176
     0
 40
1.0
176
     0
 90
        2
176
     1
  1
strokes_ogs.tif
176
     1
290
     0
176
     1
 40
1.0
176
     1
 40
1.0
176
     1
  0
VISUALSTYLE
  5
32
102
{ACAD_REACTORS
330
29
102
}
330
29
100
AcDbVisualStyle
  2
Conceptual
 70
     9
177
     3
291
     0
 70
    58
 90
        3
176
     1
 90
        2
176
     1
 90
        0
176
     1
 90
        0
176
     1
 40
0.6
176
     1
 40
30.0
176
     1
 62
     7
420
 16777215
176
     1
 90
        2
176
     1
 90
        2
176
     1
 62
     7
176
     1
 62
   257
176
     1
 90
        1
176
     1
 90
        1
176
     1
 40
179.0
176
     1
 90
        8
176
     1
 62
     7
176
     1
 40
1.0
176
     1
 90
        1
176
     1
 90
        6
176
     1
 90
        2
176
     1
 62
     7
176
     1
 90
        3
176
     1
 90
        0
176
     1
 90
        0
176
     1
290
     0
176
     1
 90
        1
176
     1
 40
0.0
176
     1
 90
        0
176
     1
290
     0
176
     1
290
     1
176
     1
290
     1
176
     1
290
     0
176
     1
290
     0
176
     1
290
     0
176
     1
290
     0
176
     1
290
     0
176
     1
290
     0
176
     1
 90
       50
176
     1
 40
0.0
176
     1
 40
1.0
176
     1
 90
        0
176
     1
 62
    18
420
        0
176
     1
 90
       50
176
     1
 90
        3
176
     1
 62
     5
420
      255
176
     1
290
     0
176
     1
 90
       50
176
     1
 90
       50
176
     1
 90
       50
176
     1
290
     0
176
     1
 90
       50
176
     1
 62
   256
176
     0
 40
1.0
176
     0
 90
        2
176
     1
  1
strokes_ogs.tif
176
     1
290
     0
176
     1
 40
1.0
176
     1
 40
1.0
176
     1
  0
VISUALSTYLE
  5
34
102
{ACAD_REACTORS
330
29
102
}
330
29
100
AcDbVisualStyle
  2
Dim
 70
    11
177
     3
291
     1
 70
    58
 90
        2
176
     1
 90
        2
176
     1
 90
        0
176
     1
 90
        0
176
     1
 40
0.6
176
     1
 40
30.0
176
     1
 62
     7
420
 16777215
176
     1
 90
        1
176
     1
 90
        4
176
     1
 62
     7
176
     1
 62
   257
176
     1
 90
        1
176
     1
 90
        1
176
     1
 40
1.0
176
     1
 90
        8
176
     1
 62
     7
176
     1
 40
1.0
176
     1
 90
        1
176
     1
 90
        6
176
     1
 90
        2
176
     1
 62
     7
176
     1
 90
        5
176
     1
 90
        0
176
     1
 90
        0
176
     1
290
     0
176
     1
 90
        1
176
     1
 40
-50.0
176
     1
 90
        0
176
     1
290
     0
176
     1
290
     1
176
     1
290
     1
176
     1
290
     0
176
     1
290
     0
176
     1
290
     0
176
     1
290
     0
176
     1
290
     0
176
     1
290
     0
176
     1
 90
       50
176
     1
 40
0.0
176
     1
 40
1.0
176
     1
 90
        0
176
     1
 62
    18
420
        0
176
     1
 90
       50
176
     1
 90
        3
176
     1
 62
     5
420
      255
176
     1
290
     0
176
     1
 90
       50
176
     1
 90
       50
176
     1
 90
       50
176
     1
290
     0
176
     1
 90
       50
176
     1
 62
   256
176
     0
 40
1.0
176
     0
 90
        2
176
     1
  1
strokes_ogs.tif
176
     1
290
     0
176
     1
 40
1.0
176
     1
 40
1.0
176
     1
  0
VISUALSTYLE
  5
41
102
{ACAD_REACTORS
330
29
102
}
330
29
100
AcDbVisualStyle
  2
EdgeColorOff
 70
    22
177
     3
291
     1
 70
    58
 90
        2
176
     0
 90
        2
176
     0
 90
        0
176
     0
 90
        0
176
     0
 40
0.6
176
     0
 40
30.0
176
     0
 62
     7
420
 16777215
176
     0
 90
        1
176
     0
 90
        4
176
     0
 62
     7
176
     0
 62
   257
176
     0
 90
        1
176
     0
 90
        1
176
     0
 40
1.0
176
     0
 90
        8
176
     2
 62
     7
176
     0
 40
1.0
176
     0
 90
        1
176
     0
 90
        6
176
     0
 90
        2
176
     0
 62
     7
176
     0
 90
        5
176
     0
 90
        0
176
     0
 90
        0
176
     0
290
     0
176
     0
 90
        1
176
     0
 40
0.0
176
     0
 90
        0
176
     0
290
     0
176
     0
290
     1
176
     0
290
     1
176
     0
290
     0
176
     0
290
     0
176
     0
290
     0
176
     0
290
     0
176
     0
290
     0
176
     0
290
     0
176
     0
 90
       50
176
     0
 40
0.0
176
     0
 40
1.0
176
     0
 90
        0
176
     0
 62
    18
420
        0
176
     0
 90
       50
176
     0
 90
        3
176
     0
 62
     5
420
      255
176
     0
290
     0
176
     0
 90
       50
176
     0
 90
       50
176
     0
 90
       50
176
     0
290
     0
176
     0
 90
       50
176
     0
 62
   256
176
     0
 40
1.0
176
     0
 90
        2
176
     0
  1
strokes_ogs.tif
176
     0
290
     0
176
     0
 40
1.0
176
     0
 40
1.0
176
     0
  0
VISUALSTYLE
  5
38
102
{ACAD_REACTORS
330
29
102
}
330
29
100
AcDbVisualStyle
  2
Facepattern
 70
    15
177
     3
291
     1
 70
    58
 90
        2
176
     1
 90
        2
176
     1
 90
        0
176
     1
 90
        0
176
     1
 40
0.6
176
     1
 40
30.0
176
     1
 62
     7
420
 16777215
176
     1
 90
        1
176
     1
 90
        4
176
     1
 62
     7
176
     1
 62
   257
176
     1
 90
        1
176
     1
 90
        1
176
     1
 40
1.0
176
     1
 90
        8
176
     1
 62
     7
176
     1
 40
1.0
176
     1
 90
        1
176
     1
 90
        6
176
     1
 90
        2
176
     1
 62
     7
176
     1
 90
        5
176
     1
 90
        0
176
     1
 90
        0
176
     1
290
     0
176
     1
 90
        1
176
     1
 40
0.0
176
     1
 90
        0
176
     1
290
     0
176
     1
290
     1
176
     1
290
     1
176
     1
290
     0
176
     1
290
     0
176
     1
290
     0
176
     1
290
     0
176
     1
290
     0
176
     1
290
     0
176
     1
 90
       50
176
     1
 40
0.0
176
     1
 40
1.0
176
     1
 90
        0
176
     1
 62
    18
420
        0
176
     1
 90
       50
176
     1
 90
        3
176
     1
 62
     5
420
      255
176
     1
290
     0
176
     1
 90
       50
176
     1
 90
       50
176
     1
 90
       50
176
     1
290
     0
176
     1
 90
       50
176
     1
 62
   256
176
     0
 40
1.0
176
     0
 90
        2
176
     1
  1
strokes_ogs.tif
176
     1
290
     0
176
     1
 40
1.0
176
     1
 40
1.0
176
     1
  0
VISUALSTYLE
  5
2A
102
{ACAD_REACTORS
330
29
102
}
330
29
100
AcDbVisualStyle
  2
Flat
 70
     0
177
     3
291
     1
 70
    58
 90
        2
176
     1
 90
        1
176
     1
 90
        1
176
     1
 90
        2
176
     1
 40
0.6
176
     1
 40
30.0
176
     1
 62
     7
420
 16777215
176
     1
 90
        0
176
     1
 90
        0
176
     1
 62
     7
176
     1
 62
   257
176
     1
 90
        1
176
     1
 90
        1
176
     1
 40
1.0
176
     1
 90
        8
176
     1
 62
     7
176
     1
 40
1.0
176
     1
 90
        1
176
     1
 90
        6
176
     1
 90
        2
176
     1
 62
     7
176
     1
 90
        5
176
     1
 90
        0
176
     1
 90
        0
176
     1
290
     0
176
     1
 90
       13
176
     1
 40
0.0
176
     1
 90
        0
176
     1
290
     0
176
     1
290
     1
176
     1
290
     1
176
     1
290
     0
176
     1
290
     0
176
     1
290
     0
176
     1
290
     0
176
     1
290
     0
176
     1
290
     0
176
     1
 90
       50
176
     1
 40
0.0
176
     1
 40
1.0
176
     1
 90
        0
176
     1
 62
    18
420
        0
176
     1
 90
       50
176
     1
 90
        3
176
     1
 62
     5
420
      255
176
     1
290
     0
176
     1
 90
       50
176
     1
 90
       50
176
     1
 90
       50
176
     1
290
     0
176
     1
 90
       50
176
     1
 62
   256
176
     0
 40
1.0
176
     0
 90
        2
176
     1
  1
strokes_ogs.tif
176
     1
290
     0
176
     1
 40
1.0
176
     1
 40
1.0
176
     1
  0
VISUALSTYLE
  5
2B
102
{ACAD_REACTORS
330
29
102
}
330
29
100
AcDbVisualStyle
  2
FlatWithEdges
 70
     1
177
     3
291
     1
 70
    58
 90
        2
176
     1
 90
        1
176
     1
 90
        1
176
     1
 90
        2
176
     1
 40
0.6
176
     1
 40
30.0
176
     1
 62
     7
420
 16777215
176
     1
 90
        1
176
     1
 90
        0
176
     1
 62
     7
176
     1
 62
   257
176
     1
 90
        1
176
     1
 90
        1
176
     1
 40
1.0
176
     1
 90
        0
176
     1
 62
   257
176
     1
 40
1.0
176
     1
 90
        1
176
     1
 90
        6
176
     1
 90
        2
176
     1
 62
     7
176
     1
 90
        5
176
     1
 90
        0
176
     1
 90
        0
176
     1
290
     0
176
     1
 90
       13
176
     1
 40
0.0
176
     1
 90
        0
176
     1
290
     0
176
     1
290
     1
176
     1
290
     1
176
     1
290
     0
176
     1
290
     0
176
     1
290
     0
176
     1
290
     0
176
     1
290
     0
176
     1
290
     0
176
     1
 90
       50
176
     1
 40
0.0
176
     1
 40
1.0
176
     1
 90
        0
176
     1
 62
    18
420
        0
176
     1
 90
       50
176
     1
 90
        3
176
     1
 62
     5
420
      255
176
     1
290
     0
176
     1
 90
       50
176
     1
 90
       50
176
     1
 90
       50
176
     1
290
     0
176
     1
 90
       50
176
     1
 62
   256
176
     0
 40
1.0
176
     0
 90
        2
176
     1
  1
strokes_ogs.tif
176
     1
290
     0
176
     1
 40
1.0
176
     1
 40
1.0
176
     1
  0
VISUALSTYLE
  5
2C
102
{ACAD_REACTORS
330
29
102
}
330
29
100
AcDbVisualStyle
  2
Gouraud
 70
     2
177
     3
291
     1
 70
    58
 90
        2
176
     1
 90
        2
176
     1
 90
        1
176
     1
 90
        2
176
     1
 40
0.6
176
     1
 40
30.0
176
     1
 62
     7
420
 16777215
176
     1
 90
        0
176
     1
 90
        0
176
     1
 62
     7
176
     1
 62
   257
176
     1
 90
        1
176
     1
 90
        1
176
     1
 40
1.0
176
     1
 90
        0
176
     1
 62
     7
176
     1
 40
1.0
176
     1
 90
        1
176
     1
 90
        6
176
     1
 90
        2
176
     1
 62
     7
176
     1
 90
        5
176
     1
 90
        0
176
     1
 90
        0
176
     1
290
     0
176
     1
 90
       13
176
     1
 40
0.0
176
     1
 90
        0
176
     1
290
     0
176
     1
290
     1
176
     1
290
     1
176
     1
290
     0
176
     1
290
     0
176
     1
290
     0
176
     1
290
     0
176
     1
290
     0
176
     1
290
     0
176
     1
 90
       50
176
     1
 40
0.0
176
     1
 40
1.0
176
     1
 90
        0
176
     1
 62
    18
420
        0
176
     1
 90
       50
176
     1
 90
        3
176
     1
 62
     5
420
      255
176
     1
290
     0
176
     1
 90
       50
176
     1
 90
       50
176
     1
 90
       50
176
     1
290
     0
176
     1
 90
       50
176
     1
 62
   256
176
     0
 40
1.0
176
     0
 90
        2
176
     1
  1
strokes_ogs.tif
176
     1
290
     0
176
     1
 40
1.0
176
     1
 40
1.0
176
     1
  0
VISUALSTYLE
  5
2D
102
{ACAD_REACTORS
330
29
102
}
330
29
100
AcDbVisualStyle
  2
GouraudWithEdges
 70
     3
177
     3
291
     1
 70
    58
 90
        2
176
     1
 90
        2
176
     1
 90
        1
176
     1
 90
        2
176
     1
 40
0.6
176
     1
 40
30.0
176
     1
 62
     7
420
 16777215
176
     1
 90
        1
176
     1
 90
        0
176
     1
 62
     7
176
     1
 62
   257
176
     1
 90
        1
176
     1
 90
        1
176
     1
 40
1.0
176
     1
 90
        0
176
     1
 62
   257
176
     1
 40
1.0
176
     1
 90
        1
176
     1
 90
        6
176
     1
 90
        2
176
     1
 62
     7
176
     1
 90
        5
176
     1
 90
        0
176
     1
 90
        0
176
     1
290
     0
176
     1
 90
       13
176
     1
 40
0.0
176
     1
 90
        0
176
     1
290
     0
176
     1
290
     1
176
     1
290
     1
176
     1
290
     0
176
     1
290
     0
176
     1
290
     0
176
     1
290
     0
176
     1
290
     0
176
     1
290
     0
176
     1
 90
       50
176
     1
 40
0.0
176
     1
 40
1.0
176
     1
 90
        0
176
     1
 62
    18
420
        0
176
     1
 90
       50
176
     1
 90
        3
176
     1
 62
     5
420
      255
176
     1
290
     0
176
     1
 90
       50
176
     1
 90
       50
176
     1
 90
       50
176
     1
290
     0
176
     1
 90
       50
176
     1
 62
   256
176
     0
 40
1.0
176
     0
 90
        2
176
     1
  1
strokes_ogs.tif
176
     1
290
     0
176
     1
 40
1.0
176
     1
 40
1.0
176
     1
  0
VISUALSTYLE
  5
31
102
{ACAD_REACTORS
330
29
102
}
330
29
100
AcDbVisualStyle
  2
Hidden
 70
     6
177
     3
291
     0
 70
    58
 90
        1
176
     1
 90
        2
176
     1
 90
        2
176
     1
 90
        0
176
     1
 40
0.6
176
     1
 40
30.0
176
     1
 62
     7
420
 16777215
176
     1
 90
        2
176
     1
 90
        2
176
     1
 62
     7
176
     1
 62
   257
176
     1
 90
        2
176
     1
 90
        1
176
     1
 40
40.0
176
     1
 90
        0
176
     1
 62
   257
176
     1
 40
1.0
176
     1
 90
        1
176
     1
 90
        6
176
     1
 90
        2
176
     1
 62
     7
176
     1
 90
        3
176
     1
 90
        0
176
     1
 90
        0
176
     1
290
     0
176
     1
 90
        1
176
     1
 40
0.0
176
     1
 90
        0
176
     1
290
     0
176
     1
290
     1
176
     1
290
     1
176
     1
290
     0
176
     1
290
     0
176
     1
290
     0
176
     1
290
     0
176
     1
290
     0
176
     1
290
     0
176
     1
 90
       50
176
     1
 40
0.0
176
     1
 40
1.0
176
     1
 90
        0
176
     1
 62
    18
420
        0
176
     1
 90
       50
176
     1
 90
        3
176
     1
 62
     5
420
      255
176
     1
290
     0
176
     1
 90
       50
176
     1
 90
       50
176
     1
 90
       50
176
     1
290
     0
176
     1
 90
       50
176
     1
 62
   256
176
     0
 40
1.0
176
     0
 90
        2
176
     1
  1
strokes_ogs.tif
176
     1
290
     0
176
     1
 40
1.0
176
     1
 40
1.0
176
     1
  0
VISUALSTYLE
  5
3F
102
{ACAD_REACTORS
330
29
102
}
330
29
100
AcDbVisualStyle
  2
JitterOff
 70
    20
177
     3
291
     1
 70
    58
 90
        2
176
     0
 90
        2
176
     0
 90
        0
176
     0
 90
        0
176
     0
 40
0.6
176
     0
 40
30.0
176
     0
 62
     7
420
 16777215
176
     0
 90
        1
176
     0
 90
        4
176
     0
 62
     7
176
     0
 62
   257
176
     0
 90
        1
176
     0
 90
        1
176
     0
 40
1.0
176
     0
 90
       10
176
     2
 62
     7
176
     0
 40
1.0
176
     0
 90
        1
176
     0
 90
        6
176
     0
 90
        2
176
     0
 62
     7
176
     0
 90
        5
176
     0
 90
        0
176
     0
 90
        0
176
     0
290
     0
176
     0
 90
        1
176
     0
 40
0.0
176
     0
 90
        0
176
     0
290
     0
176
     0
290
     1
176
     0
290
     1
176
     0
290
     0
176
     0
290
     0
176
     0
290
     0
176
     0
290
     0
176
     0
290
     0
176
     0
290
     0
176
     0
 90
       50
176
     0
 40
0.0
176
     0
 40
1.0
176
     0
 90
        0
176
     0
 62
    18
420
        0
176
     0
 90
       50
176
     0
 90
        3
176
     0
 62
     5
420
      255
176
     0
290
     0
176
     0
 90
       50
176
     0
 90
       50
176
     0
 90
       50
176
     0
290
     0
176
     0
 90
       50
176
     0
 62
   256
176
     0
 40
1.0
176
     0
 90
        2
176
     0
  1
strokes_ogs.tif
176
     0
290
     0
176
     0
 40
1.0
176
     0
 40
1.0
176
     0
  0
VISUALSTYLE
  5
37
102
{ACAD_REACTORS
330
29
102
}
330
29
100
AcDbVisualStyle
  2
Linepattern
 70
    14
177
     3
291
     1
 70
    58
 90
        2
176
     1
 90
        2
176
     1
 90
        0
176
     1
 90
        0
176
     1
 40
0.6
176
     1
 40
30.0
176
     1
 62
     7
420
 16777215
176
     1
 90
        1
176
     1
 90
        4
176
     1
 62
     7
176
     1
 62
   257
176
     1
 90
        7
176
     1
 90
        7
176
     1
 40
1.0
176
     1
 90
        8
176
     1
 62
     7
176
     1
 40
1.0
176
     1
 90
        1
176
     1
 90
        6
176
     1
 90
        2
176
     1
 62
     7
176
     1
 90
        5
176
     1
 90
        0
176
     1
 90
        0
176
     1
290
     0
176
     1
 90
        1
176
     1
 40
0.0
176
     1
 90
        0
176
     1
290
     0
176
     1
290
     1
176
     1
290
     1
176
     1
290
     0
176
     1
290
     0
176
     1
290
     0
176
     1
290
     0
176
     1
290
     0
176
     1
290
     0
176
     1
 90
       50
176
     1
 40
0.0
176
     1
 40
1.0
176
     1
 90
        0
176
     1
 62
    18
420
        0
176
     1
 90
       50
176
     1
 90
        3
176
     1
 62
     5
420
      255
176
     1
290
     0
176
     1
 90
       50
176
     1
 90
       50
176
     1
 90
       50
176
     1
290
     0
176
     1
 90
       50
176
     1
 62
   256
176
     0
 40
1.0
176
     0
 90
        2
176
     1
  1
strokes_ogs.tif
176
     1
290
     0
176
     1
 40
1.0
176
     1
 40
1.0
176
     1
  0
VISUALSTYLE
  5
40
102
{ACAD_REACTORS
330
29
102
}
330
29
100
AcDbVisualStyle
  2
OverhangOff
 70
    21
177
     3
291
     1
 70
    58
 90
        2
176
     0
 90
        2
176
     0
 90
        0
176
     0
 90
        0
176
     0
 40
0.6
176
     0
 40
30.0
176
     0
 62
     7
420
 16777215
176
     0
 90
        1
176
     0
 90
        4
176
     0
 62
     7
176
     0
 62
   257
176
     0
 90
        1
176
     0
 90
        1
176
     0
 40
1.0
176
     0
 90
        9
176
     2
 62
     7
176
     0
 40
1.0
176
     0
 90
        1
176
     0
 90
        6
176
     0
 90
        2
176
     0
 62
     7
176
     0
 90
        5
176
     0
 90
        0
176
     0
 90
        0
176
     0
290
     0
176
     0
 90
        1
176
     0
 40
0.0
176
     0
 90
        0
176
     0
290
     0
176
     0
290
     1
176
     0
290
     1
176
     0
290
     0
176
     0
290
     0
176
     0
290
     0
176
     0
290
     0
176
     0
290
     0
176
     0
290
     0
176
     0
 90
       50
176
     0
 40
0.0
176
     0
 40
1.0
176
     0
 90
        0
176
     0
 62
    18
420
        0
176
     0
 90
       50
176
     0
 90
        3
176
     0
 62
     5
420
      255
176
     0
290
     0
176
     0
 90
       50
176
     0
 90
       50
176
     0
 90
       50
176
     0
290
     0
176
     0
 90
       50
176
     0
 62
   256
176
     0
 40
1.0
176
     0
 90
        2
176
     0
  1
strokes_ogs.tif
176
     0
290
     0
176
     0
 40
1.0
176
     0
 40
1.0
176
     0
  0
VISUALSTYLE
  5
33
102
{ACAD_REACTORS
330
29
102
}
330
29
100
AcDbVisualStyle
  2
Realistic
 70
     8
177
     3
291
     0
 70
    58
 90
        2
176
     1
 90
        3
176
     1
 90
        0
176
     1
 90
        2
176
     1
 40
0.6
176
     1
 40
30.0
176
     1
 62
     7
420
 16777215
176
     1
 90
        0
176
     1
 90
        0
176
     1
 62
     7
176
     1
 62
   257
176
     1
 90
        1
176
     1
 90
        1
176
     1
 40
1.0
176
     1
 90
        8
176
     1
 62
   257
176
     1
 40
1.0
176
     1
 90
        1
176
     1
 90
        6
176
     1
 90
        2
176
     1
 62
     7
176
     1
 90
        3
176
     1
 90
        0
176
     1
 90
        0
176
     1
290
     0
176
     1
 90
       13
176
     1
 40
0.0
176
     1
 90
        0
176
     1
290
     0
176
     1
290
     1
176
     1
290
     1
176
     1
290
     0
176
     1
290
     0
176
     1
290
     0
176
     1
290
     0
176
     1
290
     0
176
     1
290
     0
176
     1
 90
       50
176
     1
 40
0.0
176
     1
 40
1.0
176
     1
 90
        0
176
     1
 62
    18
420
        0
176
     1
 90
       50
176
     1
 90
        3
176
     1
 62
     5
420
      255
176
     1
290
     0
176
     1
 90
       50
176
     1
 90
       50
176
     1
 90
       50
176
     1
290
     0
176
     1
 90
       50
176
     1
 62
   256
176
     0
 40
1.0
176
     0
 90
        2
176
     1
  1
strokes_ogs.tif
176
     1
290
     0
176
     1
 40
1.0
176
     1
 40
1.0
176
     1
  0
VISUALSTYLE
  5
3E
102
{ACAD_REACTORS
330
29
102
}
330
29
100
AcDbVisualStyle
  2
Shaded
 70
    27
177
     3
291
     0
 70
    58
 90
        2
176
     1
 90
        2
176
     1
 90
        1
176
     1
 90
        2
176
     1
 40
0.6
176
     1
 40
30.0
176
     1
 62
     7
420
 16777215
176
     1
 90
        0
176
     1
 90
        4
176
     1
 62
     7
176
     1
 62
   257
176
     1
 90
        1
176
     1
 90
        1
176
     1
 40
1.0
176
     1
 90
        8
176
     1
 62
   257
176
     1
 40
1.0
176
     1
 90
        1
176
     1
 90
        6
176
     1
 90
        2
176
     1
 62
     8
420
  7895160
176
     1
 90
        3
176
     1
 90
        0
176
     1
 90
        0
176
     1
290
     0
176
     1
 90
        5
176
     1
 40
0.0
176
     1
 90
        0
176
     1
290
     0
176
     1
290
     1
176
     1
290
     1
176
     1
290
     0
176
     1
290
     0
176
     1
290
     0
176
     1
290
     0
176
     1
290
     0
176
     1
290
     0
176
     1
 90
       50
176
     1
 40
0.0
176
     1
 40
1.0
176
     1
 90
        0
176
     1
 62
    18
420
        0
176
     1
 90
       50
176
     1
 90
        3
176
     1
 62
     5
420
      255
176
     1
290
     0
176
     1
 90
       50
176
     1
 90
       50
176
     1
 90
       50
176
     1
290
     0
176
     1
 90
       50
176
     1
 62
   256
176
     0
 40
1.0
176
     0
 90
        2
176
     1
  1
strokes_ogs.tif
176
     1
290
     0
176
     1
 40
1.0
176
     1
 40
1.0
176
     1
  0
VISUALSTYLE
  5
3D
102
{ACAD_REACTORS
330
29
102
}
330
29
100
AcDbVisualStyle
  2
Shaded with edges
 70
    26
177
     3
291
     0
 70
    58
 90
        2
176
     1
 90
        2
176
     1
 90
        1
176
     1
 90
        2
176
     1
 40
0.6
176
     1
 40
30.0
176
     1
 62
     7
420
 16777215
176
     1
 90
        1
176
     1
 90
       10
176
     1
 62
     7
176
     1
 62
   257
176
     1
 90
        2
176
     1
 90
        1
176
     1
 40
1.0
176
     1
 90
        8
176
     1
 62
   257
176
     1
 40
1.0
176
     1
 90
        1
176
     1
 90
        6
176
     1
 90
        2
176
     1
 62
     7
176
     1
 90
        3
176
     1
 90
        0
176
     1
 90
        0
176
     1
290
     0
176
     1
 90
        5
176
     1
 40
0.0
176
     1
 90
        0
176
     1
290
     0
176
     1
290
     1
176
     1
290
     1
176
     1
290
     0
176
     1
290
     0
176
     1
290
     0
176
     1
290
     0
176
     1
290
     0
176
     1
290
     0
176
     1
 90
       50
176
     1
 40
0.0
176
     1
 40
1.0
176
     1
 90
        0
176
     1
 62
    18
420
        0
176
     1
 90
       50
176
     1
 90
        3
176
     1
 62
     5
420
      255
176
     1
290
     0
176
     1
 90
       50
176
     1
 90
       50
176
     1
 90
       50
176
     1
290
     0
176
     1
 90
       50
176
     1
 62
   256
176
     0
 40
1.0
176
     0
 90
        2
176
     1
  1
strokes_ogs.tif
176
     1
290
     0
176
     1
 40
1.0
176
     1
 40
1.0
176
     1
  0
VISUALSTYLE
  5
3A
102
{ACAD_REACTORS
330
29
102
}
330
29
100
AcDbVisualStyle
  2
Shades of Gray
 70
    23
177
     3
291
     0
 70
    58
 90
        2
176
     1
 90
        2
176
     1
 90
        3
176
     1
 90
        0
176
     1
 40
0.6
176
     1
 40
30.0
176
     1
 62
     7
420
 16777215
176
     1
 90
        2
176
     1
 90
        2
176
     1
 62
     7
176
     1
 62
     7
176
     1
 90
        1
176
     1
 90
        1
176
     1
 40
40.0
176
     1
 90
        8
176
     1
 62
     7
176
     1
 40
1.0
176
     1
 90
        1
176
     1
 90
        6
176
     1
 90
        2
176
     1
 62
     7
176
     1
 90
        3
176
     1
 90
        0
176
     1
 90
        0
176
     1
290
     0
176
     1
 90
        1
176
     1
 40
0.0
176
     1
 90
        0
176
     1
290
     0
176
     1
290
     1
176
     1
290
     1
176
     1
290
     0
176
     1
290
     0
176
     1
290
     0
176
     1
290
     0
176
     1
290
     0
176
     1
290
     0
176
     1
 90
       50
176
     1
 40
0.0
176
     1
 40
1.0
176
     1
 90
        0
176
     1
 62
    18
420
        0
176
     1
 90
       50
176
     1
 90
        3
176
     1
 62
     5
420
      255
176
     1
290
     0
176
     1
 90
       50
176
     1
 90
       50
176
     1
 90
       50
176
     1
290
     0
176
     1
 90
       50
176
     1
 62
   256
176
     0
 40
1.0
176
     0
 90
        2
176
     1
  1
strokes_ogs.tif
176
     1
290
     0
176
     1
 40
1.0
176
     1
 40
1.0
176
     1
  0
VISUALSTYLE
  5
3B
102
{ACAD_REACTORS
330
29
102
}
330
29
100
AcDbVisualStyle
  2
Sketchy
 70
    24
177
     3
291
     0
 70
    58
 90
        1
176
     1
 90
        2
176
     1
 90
        2
176
     1
 90
        0
176
     1
 40
0.6
176
     1
 40
30.0
176
     1
 62
     7
420
 16777215
176
     1
 90
        2
176
     1
 90
        2
176
     1
 62
     7
176
     1
 62
     7
176
     1
 90
        1
176
     1
 90
        1
176
     1
 40
40.0
176
     1
 90
       11
176
     1
 62
     7
176
     1
 40
1.0
176
     1
 90
        1
176
     1
 90
        6
176
     1
 90
        2
176
     1
 62
     7
176
     1
 90
        6
176
     1
 90
        0
176
     1
 90
        0
176
     1
290
     0
176
     1
 90
        1
176
     1
 40
0.0
176
     1
 90
        0
176
     1
290
     0
176
     1
290
     1
176
     1
290
     1
176
     1
290
     0
176
     1
290
     0
176
     1
290
     0
176
     1
290
     0
176
     1
290
     0
176
     1
290
     0
176
     1
 90
       50
176
     1
 40
0.0
176
     1
 40
1.0
176
     1
 90
        0
176
     1
 62
    18
420
        0
176
     1
 90
       50
176
     1
 90
        3
176
     1
 62
     5
420
      255
176
     1
290
     0
176
     1
 90
       50
176
     1
 90
       50
176
     1
 90
       50
176
     1
290
     0
176
     1
 90
       50
176
     1
 62
   256
176
     0
 40
1.0
176
     0
 90
        2
176
     1
  1
strokes_ogs.tif
176
     1
290
     0
176
     1
 40
1.0
176
     1
 40
1.0
176
     1
  0
VISUALSTYLE
  5
36
102
{ACAD_REACTORS
330
29
102
}
330
29
100
AcDbVisualStyle
  2
Thicken
 70
    13
177
     3
291
     1
 70
    58
 90
        2
176
     1
 90
        2
176
     1
 90
        0
176
     1
 90
        0
176
     1
 40
0.6
176
     1
 40
30.0
176
     1
 62
     7
420
 16777215
176
     1
 90
        1
176
     1
 90
        4
176
     1
 62
     7
176
     1
 62
   257
176
     1
 90
        1
176
     1
 90
        1
176
     1
 40
1.0
176
     1
 90
       12
176
     1
 62
     7
176
     1
 40
1.0
176
     1
 90
        1
176
     1
 90
        6
176
     1
 90
        2
176
     1
 62
     7
176
     1
 90
        5
176
     1
 90
        0
176
     1
 90
        0
176
     1
290
     0
176
     1
 90
        1
176
     1
 40
0.0
176
     1
 90
        0
176
     1
290
     0
176
     1
290
     1
176
     1
290
     1
176
     1
290
     0
176
     1
290
     0
176
     1
290
     0
176
     1
290
     0
176
     1
290
     0
176
     1
290
     0
176
     1
 90
       50
176
     1
 40
0.0
176
     1
 40
1.0
176
     1
 90
        0
176
     1
 62
    18
420
        0
176
     1
 90
       50
176
     1
 90
        3
176
     1
 62
     5
420
      255
176
     1
290
     0
176
     1
 90
       50
176
     1
 90
       50
176
     1
 90
       50
176
     1
290
     0
176
     1
 90
       50
176
     1
 62
   256
176
     0
 40
1.0
176
     0
 90
        2
176
     1
  1
strokes_ogs.tif
176
     1
290
     0
176
     1
 40
1.0
176
     1
 40
1.0
176
     1
  0
VISUALSTYLE
  5
30
102
{ACAD_REACTORS
330
29
102
}
330
29
100
AcDbVisualStyle
  2
Wireframe
 70
     5
177
     3
291
     0
 70
    58
 90
        0
176
     1
 90
        2
176
     1
 90
        0
176
     1
 90
        0
176
     1
 40
0.6
176
     1
 40
30.0
176
     1
 62
     7
420
 16777215
176
     1
 90
        1
176
     1
 90
        4
176
     1
 62
     7
176
     1
 62
   257
176
     1
 90
        1
176
     1
 90
        1
176
     1
 40
1.0
176
     1
 90
        0
176
     1
 62
   257
176
     1
 40
1.0
176
     1
 90
        1
176
     1
 90
        6
176
     1
 90
        2
176
     1
 62
     7
176
     1
 90
        3
176
     1
 90
        0
176
     1
 90
        0
176
     1
290
     0
176
     1
 90
        1
176
     1
 40
0.0
176
     1
 90
        0
176
     1
290
     0
176
     1
290
     1
176
     1
290
     1
176
     1
290
     0
176
     1
290
     0
176
     1
290
     0
176
     1
290
     0
176
     1
290
     0
176
     1
290
     0
176
     1
 90
       50
176
     1
 40
0.0
176
     1
 40
1.0
176
     1
 90
        0
176
     1
 62
    18
420
        0
176
     1
 90
       50
176
     1
 90
        3
176
     1
 62
     5
420
      255
176
     1
290
     0
176
     1
 90
       50
176
     1
 90
       50
176
     1
 90
       50
176
     1
290
     0
176
     1
 90
       50
176
     1
 62
   256
176
     0
 40
1.0
176
     0
 90
        2
176
     1
  1
strokes_ogs.tif
176
     1
290
     0
176
     1
 40
1.0
176
     1
 40
1.0
176
     1
  0
VISUALSTYLE
  5
3C
102
{ACAD_REACTORS
330
29
102
}
330
29
100
AcDbVisualStyle
  2
X-Ray
 70
    25
177
     3
291
     0
 70
    58
 90
        2
176
     1
 90
        2
176
     1
 90
        1
176
     1
 90
        1
176
     1
 40
0.5
176
     1
 40
30.0
176
     1
 62
     7
420
 16777215
176
     1
 90
        1
176
     1
 90
        0
176
     1
 62
     7
176
     1
 62
   257
176
     1
 90
        1
176
     1
 90
        1
176
     1
 40
1.0
176
     1
 90
        8
176
     1
 62
     7
176
     1
 40
1.0
176
     1
 90
        1
176
     1
 90
        6
176
     1
 90
        2
176
     1
 62
     7
176
     1
 90
        3
176
     1
 90
        0
176
     1
 90
        0
176
     1
290
     0
176
     1
 90
       13
176
     1
 40
0.0
176
     1
 90
        0
176
     1
290
     0
176
     1
290
     1
176
     1
290
     1
176
     1
290
     0
176
     1
290
     0
176
     1
290
     0
176
     1
290
     0
176
     1
290
     0
176
     1
290
     0
176
     1
 90
       50
176
     1
 40
0.0
176
     1
 40
1.0
176
     1
 90
        0
176
     1
 62
    18
420
        0
176
     1
 90
       50
176
     1
 90
        3
176
     1
 62
     5
420
      255
176
     1
290
     0
176
     1
 90
       50
176
     1
 90
       50
176
     1
 90
       50
176
     1
290
     0
176
     1
 90
       50
176
     1
 62
   256
176
     0
 40
1.0
176
     0
 90
        2
176
     1
  1
strokes_ogs.tif
176
     1
290
     0
176
     1
 40
1.0
176
     1
 40
1.0
176
     1
  0
DICTIONARYVAR
  5
81
102
{ACAD_REACTORS
330
7C
102
}
330
7C
100
DictionaryVariables
280
     0
  1
1:1
  0
DICTIONARYVAR
  5
7E
102
{ACAD_REACTORS
330
7C
102
}
330
7C
100
DictionaryVariables
280
     0
  1
STANDARD
  0
DICTIONARYVAR
  5
7D
102
{ACAD_REACTORS
330
7C
102
}
330
7C
100
DictionaryVariables
280
     0
  1
STANDARD
  0
DICTIONARYVAR
  5
7F
102
{ACAD_REACTORS
330
7C
102
}
330
7C
100
DictionaryVariables
280
     0
  1
Imperial24
  0
DICTIONARYVAR
  5
80
102
{ACAD_REACTORS
330
7C
102
}
330
7C
100
DictionaryVariables
280
     0
  1
Imperial24
  0
XRECORD
  5
318
102
{ACAD_REACTORS
330
314
102
}
330
314
100
AcDbXrecord
280
     1
  1
BUILDING_ID
  1
Progetto per messa in tavola DXF, DWG
  1
FLOOR_ID
  1
694395
  0
XRECORD
  5
316
102
{ACAD_REACTORS
330
314
102
}
330
314
100
AcDbXrecord
280
     1
  1
-2001160
  1
Apparecchi idraulici
  0
XRECORD
  5
317
102
{ACAD_REACTORS
330
314
102
}
330
314
100
AcDbXrecord
280
     1
  1
923097
  1
Handle
  1
923236
  1
Pressure gauge
  0
XRECORD
  5
315
102
{ACAD_REACTORS
330
314
102
}
330
314
100
AcDbXrecord
280
     1
  1
946936
  1
Automatic flow rate regulator valve_Caleffi_121 DN15 : 1 1/2''_Pressure gauge
  0
DICTIONARY
  5
1A
330
19
100
AcDbDictionary
280
     1
281
     1
  3
BUMPTILE
360
1C
  3
DIFFUSETILE
360
1B
  3
OPACITYTILE
360
1F
  3
REFLECTIONTILE
360
1E
  3
REFRACTIONTILE
360
20
  3
SPECULARTILE
360
1D
  0
DICTIONARY
  5
12
330
11
100
AcDbDictionary
280
     1
281
     1
  3
BUMPTILE
360
14
  3
DIFFUSETILE
360
13
  3
OPACITYTILE
360
17
  3
REFLECTIONTILE
360
16
  3
REFRACTIONTILE
360
18
  3
SPECULARTILE
360
15
  0
DICTIONARY
  5
22
330
21
100
AcDbDictionary
280
     1
281
     1
  3
BUMPTILE
360
24
  3
DIFFUSETILE
360
23
  3
OPACITYTILE
360
27
  3
REFLECTIONTILE
360
26
  3
REFRACTIONTILE
360
28
  3
SPECULARTILE
360
25
  0
DICTIONARY
  5
31B
330
65
100
AcDbDictionary
280
     1
281
     1
  3
ACAD_ROUNDTRIP_2008_TABLESTYLE_CELLSTYLEMAP
360
31C
  0
XRECORD
  5
1C
102
{ACAD_REACTORS
330
1A
102
}
330
1A
100
AcDbXrecord
280
     1
270
     1
271
     1
  0
XRECORD
  5
1B
102
{ACAD_REACTORS
330
1A
102
}
330
1A
100
AcDbXrecord
280
     1
270
     1
271
     1
  0
XRECORD
  5
1F
102
{ACAD_REACTORS
330
1A
102
}
330
1A
100
AcDbXrecord
280
     1
270
     1
271
     1
  0
XRECORD
  5
1E
102
{ACAD_REACTORS
330
1A
102
}
330
1A
100
AcDbXrecord
280
     1
270
     1
271
     1
  0
XRECORD
  5
20
102
{ACAD_REACTORS
330
1A
102
}
330
1A
100
AcDbXrecord
280
     1
270
     1
271
     1
  0
XRECORD
  5
1D
102
{ACAD_REACTORS
330
1A
102
}
330
1A
100
AcDbXrecord
280
     1
270
     1
271
     1
  0
XRECORD
  5
14
102
{ACAD_REACTORS
330
12
102
}
330
12
100
AcDbXrecord
280
     1
270
     1
271
     1
  0
XRECORD
  5
13
102
{ACAD_REACTORS
330
12
102
}
330
12
100
AcDbXrecord
280
     1
270
     1
271
     1
  0
XRECORD
  5
17
102
{ACAD_REACTORS
330
12
102
}
330
12
100
AcDbXrecord
280
     1
270
     1
271
     1
  0
XRECORD
  5
16
102
{ACAD_REACTORS
330
12
102
}
330
12
100
AcDbXrecord
280
     1
270
     1
271
     1
  0
XRECORD
  5
18
102
{ACAD_REACTORS
330
12
102
}
330
12
100
AcDbXrecord
280
     1
270
     1
271
     1
  0
XRECORD
  5
15
102
{ACAD_REACTORS
330
12
102
}
330
12
100
AcDbXrecord
280
     1
270
     1
271
     1
  0
XRECORD
  5
24
102
{ACAD_REACTORS
330
22
102
}
330
22
100
AcDbXrecord
280
     1
270
     1
271
     1
  0
XRECORD
  5
23
102
{ACAD_REACTORS
330
22
102
}
330
22
100
AcDbXrecord
280
     1
270
     1
271
     1
  0
XRECORD
  5
27
102
{ACAD_REACTORS
330
22
102
}
330
22
100
AcDbXrecord
280
     1
270
     1
271
     1
  0
XRECORD
  5
26
102
{ACAD_REACTORS
330
22
102
}
330
22
100
AcDbXrecord
280
     1
270
     1
271
     1
  0
XRECORD
  5
28
102
{ACAD_REACTORS
330
22
102
}
330
22
100
AcDbXrecord
280
     1
270
     1
271
     1
  0
XRECORD
  5
25
102
{ACAD_REACTORS
330
22
102
}
330
22
100
AcDbXrecord
280
     1
270
     1
271
     1
  0
CELLSTYLEMAP
  5
31C
102
{ACAD_REACTORS
330
31B
102
}
330
31B
100
AcDbCellStyleMap
 90
        3
300
CELLSTYLE
  1
TABLEFORMAT_BEGIN
 90
        5
170
     1
 91
        0
 92
    32768
 62
   257
 93
        1
300
CONTENTFORMAT
  1
CONTENTFORMAT_BEGIN
 90
        0
 91
        0
 92
      512
 93
        0
300

 40
0.0
140
1.0
 94
        5
 62
     0
340
55
144
0.25
309
CONTENTFORMAT_END
171
     0
 94
        0
309
TABLEFORMAT_END
  1
CELLSTYLE_BEGIN
 90
        1
 91
        1
300
_TITLE
309
CELLSTYLE_END
300
CELLSTYLE
  1
TABLEFORMAT_BEGIN
 90
        5
170
     1
 91
        0
 92
        0
 62
   257
 93
        1
300
CONTENTFORMAT
  1
CONTENTFORMAT_BEGIN
 90
        0
 91
        0
 92
      512
 93
        0
300

 40
0.0
140
1.0
 94
        5
 62
     0
340
55
144
0.18
309
CONTENTFORMAT_END
171
     0
 94
        0
309
TABLEFORMAT_END
  1
CELLSTYLE_BEGIN
 90
        2
 91
        1
300
_HEADER
309
CELLSTYLE_END
300
CELLSTYLE
  1
TABLEFORMAT_BEGIN
 90
        5
170
     1
 91
        0
 92
        0
 62
   257
 93
        1
300
CONTENTFORMAT
  1
CONTENTFORMAT_BEGIN
 90
        0
 91
        0
 92
      512
 93
        0
300

 40
0.0
140
1.0
 94
        2
 62
     0
340
55
144
0.18
309
CONTENTFORMAT_END
171
     0
 94
        0
309
TABLEFORMAT_END
  1
CELLSTYLE_BEGIN
 90
        3
 91
        2
300
_DATA
309
CELLSTYLE_END
  0
ENDSEC
  0
EOF
