  0
SECTION
  2
HEADER
  9
$ACADVER
  1
AC1027
  9
$ACADMAINTVER
 70
    20
  9
$DWGCODEPAGE
  3
ANSI_1252
  9
$REQUIREDVERSIONS
160
                 0
  9
$INSBASE
 10
0.0
 20
0.0
 30
0.0
  9
$EXTMIN
 10
554.2787092592657
 20
1653.805266564654
 30
-0.00000001
  9
$EXTMAX
 10
1215.964353953078
 20
2177.374720262104
 30
0.00000001
  9
$LIMMIN
 10
0.0
 20
0.0
  9
$LIMMAX
 10
12.0
 20
9.0
  9
$ORTHOMODE
 70
     0
  9
$REGENMODE
 70
     1
  9
$FILLMODE
 70
     1
  9
$QTEXTMODE
 70
     0
  9
$MIRRTEXT
 70
     0
  9
$LTSCALE
 40
1.0
  9
$ATTMODE
 70
     1
  9
$TEXTSIZE
 40
0.2
  9
$TRACEWID
 40
0.05
  9
$TEXTSTYLE
  7
Standard
  9
$CLAYER
  8
0
  9
$CELTYPE
  6
ByLayer
  9
$CECOLOR
 62
   256
  9
$CELTSCALE
 40
1.0
  9
$DISPSILH
 70
     0
  9
$DIMSCALE
 40
1.0
  9
$DIMASZ
 40
0.18
  9
$DIMEXO
 40
0.0625
  9
$DIMDLI
 40
0.38
  9
$DIMRND
 40
0.0
  9
$DIMDLE
 40
0.0
  9
$DIMEXE
 40
0.18
  9
$DIMTP
 40
0.0
  9
$DIMTM
 40
0.0
  9
$DIMTXT
 40
0.18
  9
$DIMCEN
 40
0.09
  9
$DIMTSZ
 40
0.0
  9
$DIMTOL
 70
     0
  9
$DIMLIM
 70
     0
  9
$DIMTIH
 70
     1
  9
$DIMTOH
 70
     1
  9
$DIMSE1
 70
     0
  9
$DIMSE2
 70
     0
  9
$DIMTAD
 70
     0
  9
$DIMZIN
 70
     0
  9
$DIMBLK
  1

  9
$DIMASO
 70
     1
  9
$DIMSHO
 70
     1
  9
$DIMPOST
  1

  9
$DIMAPOST
  1

  9
$DIMALT
 70
     0
  9
$DIMALTD
 70
     2
  9
$DIMALTF
 40
25.4
  9
$DIMLFAC
 40
1.0
  9
$DIMTOFL
 70
     0
  9
$DIMTVP
 40
0.0
  9
$DIMTIX
 70
     0
  9
$DIMSOXD
 70
     0
  9
$DIMSAH
 70
     0
  9
$DIMBLK1
  1

  9
$DIMBLK2
  1

  9
$DIMSTYLE
  2
Standard
  9
$DIMCLRD
 70
     0
  9
$DIMCLRE
 70
     0
  9
$DIMCLRT
 70
     0
  9
$DIMTFAC
 40
1.0
  9
$DIMGAP
 40
0.09
  9
$DIMJUST
 70
     0
  9
$DIMSD1
 70
     0
  9
$DIMSD2
 70
     0
  9
$DIMTOLJ
 70
     1
  9
$DIMTZIN
 70
     0
  9
$DIMALTZ
 70
     0
  9
$DIMALTTZ
 70
     0
  9
$DIMUPT
 70
     0
  9
$DIMDEC
 70
     4
  9
$DIMTDEC
 70
     4
  9
$DIMALTU
 70
     2
  9
$DIMALTTD
 70
     2
  9
$DIMTXSTY
  7
Standard
  9
$DIMAUNIT
 70
     0
  9
$DIMADEC
 70
     0
  9
$DIMALTRND
 40
0.0
  9
$DIMAZIN
 70
     0
  9
$DIMDSEP
 70
    46
  9
$DIMATFIT
 70
     3
  9
$DIMFRAC
 70
     0
  9
$DIMLDRBLK
  1

  9
$DIMLUNIT
 70
     2
  9
$DIMLWD
 70
    -2
  9
$DIMLWE
 70
    -2
  9
$DIMTMOVE
 70
     0
  9
$DIMFXL
 40
1.0
  9
$DIMFXLON
 70
     0
  9
$DIMJOGANG
 40
0.7853981633974483
  9
$DIMTFILL
 70
     0
  9
$DIMTFILLCLR
 70
     0
  9
$DIMARCSYM
 70
     0
  9
$DIMLTYPE
  6

  9
$DIMLTEX1
  6

  9
$DIMLTEX2
  6

  9
$DIMTXTDIRECTION
 70
     0
  9
$LUNITS
 70
     2
  9
$LUPREC
 70
     4
  9
$SKETCHINC
 40
0.1
  9
$FILLETRAD
 40
0.0
  9
$AUNITS
 70
     0
  9
$AUPREC
 70
     0
  9
$MENU
  1
.
  9
$ELEVATION
 40
0.0
  9
$PELEVATION
 40
0.0
  9
$THICKNESS
 40
0.0
  9
$LIMCHECK
 70
     0
  9
$CHAMFERA
 40
0.0
  9
$CHAMFERB
 40
0.0
  9
$CHAMFERC
 40
0.0
  9
$CHAMFERD
 40
0.0
  9
$SKPOLY
 70
     0
  9
$TDCREATE
 40
2457571.592498588
  9
$TDUCREATE
 40
2457571.509165255
  9
$TDUPDATE
 40
2457571.592498588
  9
$TDUUPDATE
 40
2457571.509165255
  9
$TDINDWG
 40
0.0000346759
  9
$TDUSRTIMER
 40
0.0000346759
  9
$USRTIMER
 70
     1
  9
$ANGBASE
 50
0.0
  9
$ANGDIR
 70
     0
  9
$PDMODE
 70
     0
  9
$PDSIZE
 40
0.0
  9
$PLINEWID
 40
0.0
  9
$SPLFRAME
 70
     0
  9
$SPLINETYPE
 70
     6
  9
$SPLINESEGS
 70
     8
  9
$HANDSEED
  5
2D6
  9
$SURFTAB1
 70
     6
  9
$SURFTAB2
 70
     6
  9
$SURFTYPE
 70
     6
  9
$SURFU
 70
     6
  9
$SURFV
 70
     6
  9
$UCSBASE
  2

  9
$UCSNAME
  2

  9
$UCSORG
 10
0.0
 20
0.0
 30
0.0
  9
$UCSXDIR
 10
1.0
 20
0.0
 30
0.0
  9
$UCSYDIR
 10
0.0
 20
1.0
 30
0.0
  9
$UCSORTHOREF
  2

  9
$UCSORTHOVIEW
 70
     0
  9
$UCSORGTOP
 10
0.0
 20
0.0
 30
0.0
  9
$UCSORGBOTTOM
 10
0.0
 20
0.0
 30
0.0
  9
$UCSORGLEFT
 10
0.0
 20
0.0
 30
0.0
  9
$UCSORGRIGHT
 10
0.0
 20
0.0
 30
0.0
  9
$UCSORGFRONT
 10
0.0
 20
0.0
 30
0.0
  9
$UCSORGBACK
 10
0.0
 20
0.0
 30
0.0
  9
$PUCSBASE
  2

  9
$PUCSNAME
  2

  9
$PUCSORG
 10
0.0
 20
0.0
 30
0.0
  9
$PUCSXDIR
 10
1.0
 20
0.0
 30
0.0
  9
$PUCSYDIR
 10
0.0
 20
1.0
 30
0.0
  9
$PUCSORTHOREF
  2

  9
$PUCSORTHOVIEW
 70
     0
  9
$PUCSORGTOP
 10
0.0
 20
0.0
 30
0.0
  9
$PUCSORGBOTTOM
 10
0.0
 20
0.0
 30
0.0
  9
$PUCSORGLEFT
 10
0.0
 20
0.0
 30
0.0
  9
$PUCSORGRIGHT
 10
0.0
 20
0.0
 30
0.0
  9
$PUCSORGFRONT
 10
0.0
 20
0.0
 30
0.0
  9
$PUCSORGBACK
 10
0.0
 20
0.0
 30
0.0
  9
$USERI1
 70
     0
  9
$USERI2
 70
     0
  9
$USERI3
 70
     0
  9
$USERI4
 70
     0
  9
$USERI5
 70
     0
  9
$USERR1
 40
0.0
  9
$USERR2
 40
0.0
  9
$USERR3
 40
0.0
  9
$USERR4
 40
0.0
  9
$USERR5
 40
0.0
  9
$WORLDVIEW
 70
     1
  9
$SHADEDGE
 70
     3
  9
$SHADEDIF
 70
    70
  9
$TILEMODE
 70
     1
  9
$MAXACTVP
 70
    64
  9
$PINSBASE
 10
0.0
 20
0.0
 30
0.0
  9
$PLIMCHECK
 70
     0
  9
$PEXTMIN
 10
1.000000000000000E+20
 20
1.000000000000000E+20
 30
1.000000000000000E+20
  9
$PEXTMAX
 10
-1.000000000000000E+20
 20
-1.000000000000000E+20
 30
-1.000000000000000E+20
  9
$PLIMMIN
 10
0.0
 20
0.0
  9
$PLIMMAX
 10
12.0
 20
9.0
  9
$UNITMODE
 70
     0
  9
$VISRETAIN
 70
     1
  9
$PLINEGEN
 70
     0
  9
$PSLTSCALE
 70
     1
  9
$TREEDEPTH
 70
  3020
  9
$CMLSTYLE
  2
Standard
  9
$CMLJUST
 70
     0
  9
$CMLSCALE
 40
1.0
  9
$PROXYGRAPHICS
 70
     1
  9
$MEASUREMENT
 70
     1
  9
$CELWEIGHT
370
    -1
  9
$ENDCAPS
280
     0
  9
$JOINSTYLE
280
     0
  9
$LWDISPLAY
290
     0
  9
$INSUNITS
 70
     4
  9
$HYPERLINKBASE
  1

  9
$STYLESHEET
  1

  9
$XEDIT
290
     1
  9
$CEPSNTYPE
380
     0
  9
$PSTYLEMODE
290
     1
  9
$FINGERPRINTGUID
  2
{8C98329C-AC0E-4EC6-A25E-DA63B031DE76}
  9
$VERSIONGUID
  2
{C363957C-7BA5-4897-BC67-E65AE5CA966D}
  9
$EXTNAMES
290
     1
  9
$PSVPSCALE
 40
0.0
  9
$OLESTARTUP
290
     0
  9
$SORTENTS
280
   127
  9
$INDEXCTL
280
     0
  9
$HIDETEXT
280
     1
  9
$XCLIPFRAME
280
     2
  9
$HALOGAP
280
     0
  9
$OBSCOLOR
 70
   257
  9
$OBSLTYPE
280
     0
  9
$INTERSECTIONDISPLAY
280
     0
  9
$INTERSECTIONCOLOR
 70
   257
  9
$DIMASSOC
280
     2
  9
$PROJECTNAME
  1

  9
$CAMERADISPLAY
290
     0
  9
$LENSLENGTH
 40
50.0
  9
$CAMERAHEIGHT
 40
0.0
  9
$STEPSPERSEC
 40
2.0
  9
$STEPSIZE
 40
6.0
  9
$3DDWFPREC
 40
2.0
  9
$PSOLWIDTH
 40
0.25
  9
$PSOLHEIGHT
 40
4.0
  9
$LOFTANG1
 40
1.570796326794896
  9
$LOFTANG2
 40
1.570796326794896
  9
$LOFTMAG1
 40
0.0
  9
$LOFTMAG2
 40
0.0
  9
$LOFTPARAM
 70
     7
  9
$LOFTNORMALS
280
     1
  9
$LATITUDE
 40
37.795
  9
$LONGITUDE
 40
-122.394
  9
$NORTHDIRECTION
 40
0.0
  9
$TIMEZONE
 70
 -8000
  9
$LIGHTGLYPHDISPLAY
280
     1
  9
$TILEMODELIGHTSYNCH
280
     1
  9
$CMATERIAL
347
11
  9
$SOLIDHIST
280
     0
  9
$SHOWHIST
280
     1
  9
$DWFFRAME
280
     2
  9
$DGNFRAME
280
     0
  9
$REALWORLDSCALE
290
     1
  9
$INTERFERECOLOR
 62
     1
  9
$INTERFEREOBJVS
345
33
  9
$INTERFEREVPVS
346
30
  9
$CSHADOW
280
     0
  9
$SHADOWPLANELOCATION
 40
0.0
  0
ENDSEC
  0
SECTION
  2
CLASSES
  0
CLASS
  1
ACDBDICTIONARYWDFLT
  2
AcDbDictionaryWithDefault
  3
ObjectDBX Classes
 90
        0
 91
        1
280
     0
281
     0
  0
CLASS
  1
MATERIAL
  2
AcDbMaterial
  3
ObjectDBX Classes
 90
     1153
 91
        3
280
     0
281
     0
  0
CLASS
  1
VISUALSTYLE
  2
AcDbVisualStyle
  3
ObjectDBX Classes
 90
     4095
 91
       24
280
     0
281
     0
  0
CLASS
  1
SCALE
  2
AcDbScale
  3
ObjectDBX Classes
 90
     1153
 91
       17
280
     0
281
     0
  0
CLASS
  1
TABLESTYLE
  2
AcDbTableStyle
  3
ObjectDBX Classes
 90
     4095
 91
        1
280
     0
281
     0
  0
CLASS
  1
MLEADERSTYLE
  2
AcDbMLeaderStyle
  3
ACDB_MLEADERSTYLE_CLASS
 90
     4095
 91
        1
280
     0
281
     0
  0
CLASS
  1
ACDBSECTIONVIEWSTYLE
  2
AcDbSectionViewStyle
  3
ObjectDBX Classes
 90
     1025
 91
        1
280
     0
281
     0
  0
CLASS
  1
ACDBDETAILVIEWSTYLE
  2
AcDbDetailViewStyle
  3
ObjectDBX Classes
 90
     1025
 91
        1
280
     0
281
     0
  0
CLASS
  1
RASTERVARIABLES
  2
AcDbRasterVariables
  3
ISM
 90
        0
 91
        1
280
     0
281
     0
  0
CLASS
  1
DICTIONARYVAR
  2
AcDbDictionaryVar
  3
ObjectDBX Classes
 90
        0
 91
        5
280
     0
281
     0
  0
CLASS
  1
CELLSTYLEMAP
  2
AcDbCellStyleMap
  3
ObjectDBX Classes
 90
     1152
 91
        2
280
     0
281
     0
  0
CLASS
  1
SORTENTSTABLE
  2
AcDbSortentsTable
  3
ObjectDBX Classes
 90
        0
 91
        1
280
     0
281
     0
  0
ENDSEC
  0
SECTION
  2
TABLES
  0
TABLE
  2
VPORT
  5
8
330
0
100
AcDbSymbolTable
 70
     1
  0
VPORT
  5
57
330
8
100
AcDbSymbolTableRecord
100
AcDbViewportTableRecord
  2
*Active
 70
     0
 10
0.0
 20
0.0
 11
1.0
 21
1.0
 12
885.1215316061718
 22
1915.589993413379
 13
0.0
 23
0.0
 14
1.0
 24
1.0
 15
0.0
 25
0.0
 16
0.0
 26
0.0
 36
1.0
 17
0.0
 27
0.0
 37
0.0
 40
523.5694536974499
 41
1.263797267050216
 42
50.0
 43
0.0
 44
0.0
 50
0.0
 51
0.0
 71
     0
 72
  1000
 73
     1
 74
     1
 75
     0
 76
     0
 77
     0
 78
     0
281
     0
 65
     1
110
0.0
120
0.0
130
0.0
111
1.0
121
0.0
131
0.0
112
0.0
122
1.0
132
0.0
 79
     0
146
0.0
 60
     3
 61
     5
292
     1
282
     1
141
0.0
142
0.0
 63
   250
421
  3355443
  0
ENDTAB
  0
TABLE
  2
LTYPE
  5
5
330
0
100
AcDbSymbolTable
 70
     3
  0
LTYPE
  5
5B
330
5
100
AcDbSymbolTableRecord
100
AcDbLinetypeTableRecord
  2
ByBlock
 70
     0
  3

 72
    65
 73
     0
 40
0.0
  0
LTYPE
  5
5C
330
5
100
AcDbSymbolTableRecord
100
AcDbLinetypeTableRecord
  2
ByLayer
 70
     0
  3

 72
    65
 73
     0
 40
0.0
  0
LTYPE
  5
5D
330
5
100
AcDbSymbolTableRecord
100
AcDbLinetypeTableRecord
  2
Continuous
 70
     0
  3
Solid line
 72
    65
 73
     0
 40
0.0
  0
LTYPE
  5
69
330
5
100
AcDbSymbolTableRecord
100
AcDbLinetypeTableRecord
  2
PHANTOM2
 70
     0
  3
___ _ _ ___ _ _ ___ _ _ ___ _ _
 72
    65
 73
     6
 40
1.25
 49
0.625
 74
     0
 49
-0.125
 74
     0
 49
0.125
 74
     0
 49
-0.125
 74
     0
 49
0.125
 74
     0
 49
-0.125
 74
     0
  0
LTYPE
  5
86
330
5
100
AcDbSymbolTableRecord
100
AcDbLinetypeTableRecord
  2
Nascosto 1_5 mm
 70
     0
  3

 72
    65
 73
     2
 40
2.2
 49
1.5
 74
     0
 49
-0.7000000000000001
 74
     0
  0
ENDTAB
  0
TABLE
  2
LAYER
  5
2
330
0
100
AcDbSymbolTable
 70
     4
  0
LAYER
  5
54
330
2
100
AcDbSymbolTableRecord
100
AcDbLayerTableRecord
  2
0
 70
     0
 62
     7
  6
Continuous
370
    -3
390
F
347
21
348
0
  0
LAYER
  5
85
330
2
100
AcDbSymbolTableRecord
100
AcDbLayerTableRecord
  2
P-SANR-FIXT
 70
     0
 62
     6
  6
Continuous
370
    18
390
F
347
21
348
0
  0
LAYER
  5
88
330
2
100
AcDbSymbolTableRecord
100
AcDbLayerTableRecord
  2
M-PIPE
 70
     0
 62
     3
  6
Continuous
370
    18
390
F
347
21
348
0
  0
ENDTAB
  0
TABLE
  2
STYLE
  5
3
330
0
100
AcDbSymbolTable
 70
     2
  0
STYLE
  5
55
330
3
100
AcDbSymbolTableRecord
100
AcDbTextStyleTableRecord
  2
Standard
 70
     0
 40
0.0
 41
1.0
 50
0.0
 71
     0
 42
0.2
  3
txt
  4

  0
STYLE
  5
5A
330
3
100
AcDbSymbolTableRecord
100
AcDbTextStyleTableRecord
  2
Annotative
 70
     0
 40
0.0
 41
1.0
 50
0.0
 71
     0
 42
0.2
  3
txt
  4

1001
AcadAnnotative
1000
AnnotativeData
1002
{
1070
     1
1070
     1
1002
}
  0
ENDTAB
  0
TABLE
  2
VIEW
  5
6
330
0
100
AcDbSymbolTable
 70
     0
  0
ENDTAB
  0
TABLE
  2
UCS
  5
7
330
0
100
AcDbSymbolTable
 70
     0
  0
ENDTAB
  0
TABLE
  2
APPID
  5
9
330
0
100
AcDbSymbolTable
 70
     3
  0
APPID
  5
56
330
9
100
AcDbSymbolTableRecord
100
AcDbRegAppTableRecord
  2
ACAD
 70
     0
  0
APPID
  5
5E
330
9
100
AcDbSymbolTableRecord
100
AcDbRegAppTableRecord
  2
AcadAnnotative
 70
     0
  0
APPID
  5
79
330
9
100
AcDbSymbolTableRecord
100
AcDbRegAppTableRecord
  2
REVIT
 70
     0
  0
ENDTAB
  0
TABLE
  2
DIMSTYLE
  5
A
330
0
100
AcDbSymbolTable
 70
     2
100
AcDbDimStyleTable
 71
     0
  0
DIMSTYLE
105
58
330
A
100
AcDbSymbolTableRecord
100
AcDbDimStyleTableRecord
  2
Standard
 70
     0
340
55
  0
DIMSTYLE
105
59
330
A
100
AcDbSymbolTableRecord
100
AcDbDimStyleTableRecord
  2
Annotative
 70
     0
340
55
1001
AcadAnnotative
1000
AnnotativeData
1002
{
1070
     1
1070
     1
1002
}
  0
ENDTAB
  0
TABLE
  2
BLOCK_RECORD
  5
1
330
0
100
AcDbSymbolTable
 70
     4
  0
BLOCK_RECORD
  5
71
102
{ACAD_XDICTIONARY
360
2D1
102
}
330
1
100
AcDbSymbolTableRecord
100
AcDbBlockTableRecord
  2
*Model_Space
340
74
 70
     0
280
     1
281
     0
  0
BLOCK_RECORD
  5
6D
330
1
100
AcDbSymbolTableRecord
100
AcDbBlockTableRecord
  2
*Paper_Space
340
70
 70
     0
280
     1
281
     0
  0
BLOCK_RECORD
  5
75
330
1
100
AcDbSymbolTableRecord
100
AcDbBlockTableRecord
  2
*Paper_Space0
340
78
 70
     0
280
     1
281
     0
  0
BLOCK_RECORD
  5
87
330
1
100
AcDbSymbolTableRecord
100
AcDbBlockTableRecord
  2
Automatic flow rate regulator valve_Caleffi_121 DN15 - 1 1_4___Pressure gauge H-970634-Est - Idraulica
340
0
102
{BLKREFS
331
171
102
}
 70
     0
280
     1
281
     0
  0
BLOCK_RECORD
  5
172
330
1
100
AcDbSymbolTableRecord
100
AcDbBlockTableRecord
  2
Automatic flow rate regulator valve_Caleffi_121 DN15 - 1 1_4___Pressure gauge H-V1-Est - Idraulica
340
0
102
{BLKREFS
331
237
102
}
 70
     0
280
     1
281
     0
  0
BLOCK_RECORD
  5
238
330
1
100
AcDbSymbolTableRecord
100
AcDbBlockTableRecord
  2
Automatic flow rate regulator valve_Caleffi_121 DN15 - 1 1_4___Pressure gauge H-V2-Est - Idraulica
340
0
102
{BLKREFS
331
2CA
102
}
 70
     0
280
     1
281
     0
  0
ENDTAB
  0
ENDSEC
  0
SECTION
  2
BLOCKS
  0
BLOCK
  5
72
330
71
100
AcDbEntity
  8
0
100
AcDbBlockBegin
  2
*Model_Space
 70
     0
 10
0.0
 20
0.0
 30
0.0
  3
*Model_Space
  1

  0
ENDBLK
  5
73
330
71
100
AcDbEntity
  8
0
100
AcDbBlockEnd
  0
BLOCK
  5
6E
330
6D
100
AcDbEntity
 67
     1
  8
0
100
AcDbBlockBegin
  2
*Paper_Space
 70
     0
 10
0.0
 20
0.0
 30
0.0
  3
*Paper_Space
  1

  0
ENDBLK
  5
6F
330
6D
100
AcDbEntity
 67
     1
  8
0
100
AcDbBlockEnd
  0
BLOCK
  5
76
330
75
100
AcDbEntity
 67
     1
  8
0
100
AcDbBlockBegin
  2
*Paper_Space0
 70
     0
 10
0.0
 20
0.0
 30
0.0
  3
*Paper_Space0
  1

  0
ENDBLK
  5
77
330
75
100
AcDbEntity
 67
     1
  8
0
100
AcDbBlockEnd
  0
BLOCK
  5
16F
330
87
100
AcDbEntity
  8
0
100
AcDbBlockBegin
  2
Automatic flow rate regulator valve_Caleffi_121 DN15 - 1 1_4___Pressure gauge H-970634-Est - Idraulica
 70
     0
 10
0.0
 20
0.0
 30
0.0
  3
Automatic flow rate regulator valve_Caleffi_121 DN15 - 1 1_4___Pressure gauge H-970634-Est - Idraulica
  1

  0
ARC
  5
89
330
87
100
AcDbEntity
  8
M-PIPE
100
AcDbCircle
 10
713.0093023385708
 20
2110.140561405103
 30
0.0
 40
3.999999999999864
100
AcDbArc
 50
163.9999999999929
 51
344.000000000006
1001
REVIT
1002
{
1070
     3
1000
923236
1002
}
  0
ARC
  5
8A
330
87
100
AcDbEntity
  8
M-PIPE
100
AcDbCircle
 10
713.0093023385708
 20
2110.140561405103
 30
0.0
 40
4.000000000000083
100
AcDbArc
 50
344.0000000000042
 51
163.999999999992
1001
REVIT
1002
{
1070
     3
1000
923236
1002
}
  0
ARC
  5
8B
330
87
100
AcDbEntity
  8
M-PIPE
100
AcDbCircle
 10
713.009302338571
 20
2110.140561405103
 30
0.0
 40
30.99999999999998
100
AcDbArc
 50
163.9999999999987
 51
343.9999999999983
1001
REVIT
1002
{
1070
     3
1000
923236
1002
}
  0
ARC
  5
8C
330
87
100
AcDbEntity
  8
M-PIPE
100
AcDbCircle
 10
713.009302338571
 20
2110.140561405103
 30
0.0
 40
30.99999999999995
100
AcDbArc
 50
343.9999999999995
 51
163.9999999999991
1001
REVIT
1002
{
1070
     3
1000
923236
1002
}
  0
LINE
  5
8D
330
87
100
AcDbEntity
  8
M-PIPE
100
AcDbLine
 10
706.0269102829628
 20
2062.208357187189
 30
0.0
 11
707.6807344178697
 21
2067.975927362835
 31
0.0
1001
REVIT
1002
{
1070
     3
1000
923236
1002
}
  0
LINE
  5
8E
330
87
100
AcDbEntity
  8
M-PIPE
100
AcDbLine
 10
695.1843323706921
 20
2071.559212988451
 30
0.0
 11
693.5305082357849
 21
2065.791642812804
 31
0.0
1001
REVIT
1002
{
1070
     3
1000
923236
1002
}
  0
LINE
  5
8F
330
87
100
AcDbEntity
  8
M-PIPE
100
AcDbLine
 10
708.1613652658594
 20
2067.83810868492
 30
0.0
 11
694.7037015227229
 21
2071.697031666358
 31
0.0
1001
REVIT
1002
{
1070
     3
1000
923236
1002
}
  0
LINE
  5
90
330
87
100
AcDbEntity
  8
M-PIPE
100
AcDbLine
 10
711.4219950939005
 20
2079.209276243249
 30
0.0
 11
708.1613652658594
 21
2067.83810868492
 31
0.0
1001
REVIT
1002
{
1070
     3
1000
923236
1002
}
  0
LINE
  5
91
330
87
100
AcDbEntity
  8
M-PIPE
100
AcDbLine
 10
694.7037015227229
 20
2071.697031666358
 30
0.0
 11
697.9643313507581
 21
2083.068199224666
 31
0.0
1001
REVIT
1002
{
1070
     3
1000
923236
1002
}
  0
LWPOLYLINE
  5
92
330
87
100
AcDbEntity
  8
M-PIPE
100
AcDbPolyline
 90
        3
 70
   128
 43
0.0
 10
588.1639473696384
 20
2108.750177039343
 10
585.078828139917
 20
2120.34598836768
 10
584.0241231980228
 20
2124.802337511631
1001
REVIT
1002
{
1070
     3
1000
923097
1002
}
  0
LWPOLYLINE
  5
93
330
87
100
AcDbEntity
  8
M-PIPE
100
AcDbPolyline
 90
        3
 70
   128
 43
0.0
 10
643.4126968316924
 20
2146.418010569812
 10
648.6682721135225
 20
2135.630993860778
 10
650.5595373898231
 20
2131.460314556166
1001
REVIT
1002
{
1070
     3
1000
923097
1002
}
  0
ELLIPSE
  5
94
330
87
100
AcDbEntity
  8
M-PIPE
100
AcDbEllipse
 10
561.7247959507365
 20
2077.104975757228
 30
0.0
 11
-102.606042997697
 21
281.907786235774
 31
0.0
210
0.0
220
0.0
230
0.9999999999999998
 40
0.2588190451030417
 41
4.791451455487143
 42
4.836688948174556
1001
REVIT
1002
{
1070
     3
1000
923097
1002
}
  0
LINE
  5
95
330
87
100
AcDbEntity
  8
M-PIPE
100
AcDbLine
 10
626.3561382563587
 20
2125.843531020922
 30
0.0
 11
610.3152256431616
 21
2120.005116299254
 31
0.0
1001
REVIT
1002
{
1070
     3
1000
923097
1002
}
  0
ELLIPSE
  5
96
330
87
100
AcDbEntity
  8
M-PIPE
100
AcDbEllipse
 10
691.1542457052299
 20
2124.213442905314
 30
0.0
 11
-102.6060429976929
 21
281.9077862357755
 31
0.0
210
0.0
220
0.0
230
0.9999999999999996
 40
0.2588190451030397
 41
1.446496359005032
 42
1.491733851692446
1001
REVIT
1002
{
1070
     3
1000
923097
1002
}
  0
LINE
  5
97
330
87
100
AcDbEntity
  8
M-PIPE
100
AcDbLine
 10
606.0329630559065
 20
2132.812900110633
 30
0.0
 11
584.0241231980209
 21
2124.802337511632
 31
0.0
1001
REVIT
1002
{
1070
     3
1000
923097
1002
}
  0
LINE
  5
98
330
87
100
AcDbEntity
  8
M-PIPE
100
AcDbLine
 10
606.0329630559063
 20
2132.812900110633
 30
0.0
 11
606.0543164139236
 21
2132.820672097353
 31
0.0
1001
REVIT
1002
{
1070
     3
1000
923097
1002
}
  0
LINE
  5
99
330
87
100
AcDbEntity
  8
M-PIPE
100
AcDbLine
 10
621.3825036157873
 20
2138.399675984091
 30
0.0
 11
621.4038569738049
 21
2138.407447970811
 31
0.0
1001
REVIT
1002
{
1070
     3
1000
923097
1002
}
  0
LINE
  5
9A
330
87
100
AcDbEntity
  8
M-PIPE
100
AcDbLine
 10
643.4126968316911
 20
2146.418010569812
 30
0.0
 11
621.4038569738058
 21
2138.407447970809
 31
0.0
1001
REVIT
1002
{
1070
     3
1000
923097
1002
}
  0
LINE
  5
9B
330
87
100
AcDbEntity
  8
M-PIPE
100
AcDbLine
 10
611.1609767190989
 20
2120.312944516496
 30
0.0
 11
606.5437047841945
 21
2132.998794897128
 31
0.0
1001
REVIT
1002
{
1070
     3
1000
923097
1002
}
  0
LINE
  5
9C
330
87
100
AcDbEntity
  8
M-PIPE
100
AcDbLine
 10
620.8931152455181
 20
2138.221553184317
 30
0.0
 11
625.5103871804224
 21
2125.535702803686
 31
0.0
1001
REVIT
1002
{
1070
     3
1000
923097
1002
}
  0
LINE
  5
9D
330
87
100
AcDbEntity
  8
M-PIPE
100
AcDbLine
 10
670.0774899180503
 20
2087.483735231397
 30
0.0
 11
668.7094093447542
 21
2091.242505714523
 31
0.0
1001
REVIT
1002
{
1070
     3
1000
923097
1002
}
  0
LINE
  5
9E
330
87
100
AcDbEntity
  8
M-PIPE
100
AcDbLine
 10
600.1118480273911
 20
2066.275035251752
 30
0.0
 11
601.4799286006871
 21
2062.516264768627
 31
0.0
1001
REVIT
1002
{
1070
     3
1000
923097
1002
}
  0
LWPOLYLINE
  5
9F
330
87
100
AcDbEntity
  8
M-PIPE
100
AcDbPolyline
 90
        4
 70
   128
 43
0.0
 10
598.3568378594382
 20
2078.406397059515
 10
594.0534814368529
 20
2089.607375790151
 10
590.2014869220822
 20
2100.971483290617
 10
587.882039583412
 20
2108.647570996327
1001
REVIT
1002
{
1070
     3
1000
923097
1002
}
  0
LWPOLYLINE
  5
A0
330
87
100
AcDbEntity
  8
M-PIPE
100
AcDbPolyline
 90
        4
 70
   128
 43
0.0
 10
650.8414451760621
 20
2131.562920599144
 10
655.4926460127754
 20
2120.501856825685
 10
659.6978018092243
 20
2109.263642298832
 10
662.255936072878
 20
2101.663766805658
1001
REVIT
1002
{
1070
     3
1000
923097
1002
}
  0
LINE
  5
A1
330
87
100
AcDbEntity
  8
M-PIPE
100
AcDbLine
 10
601.4799286006856
 20
2062.516264768627
 30
0.0
 11
670.0774899180488
 21
2087.483735231396
 31
0.0
1001
REVIT
1002
{
1070
     3
1000
923097
1002
}
  0
LINE
  5
A2
330
87
100
AcDbEntity
  8
M-PIPE
100
AcDbLine
 10
668.7094093447528
 20
2091.242505714522
 30
0.0
 11
667.2998704135896
 21
2090.729475499539
 31
0.0
1001
REVIT
1002
{
1070
     3
1000
923097
1002
}
  0
LINE
  5
A3
330
87
100
AcDbEntity
  8
M-PIPE
100
AcDbLine
 10
667.299870413589
 20
2090.729475499539
 30
0.0
 11
663.1956286936746
 21
2102.005786948988
 31
0.0
1001
REVIT
1002
{
1070
     3
1000
923097
1002
}
  0
LINE
  5
A4
330
87
100
AcDbEntity
  8
M-PIPE
100
AcDbLine
 10
660.4438766120883
 20
2101.00423109921
 30
0.0
 11
664.5481183320026
 21
2089.727919649761
 31
0.0
1001
REVIT
1002
{
1070
     3
1000
923097
1002
}
  0
LINE
  5
A5
330
87
100
AcDbEntity
  8
M-PIPE
100
AcDbLine
 10
664.548118332001
 20
2089.727919649761
 30
0.0
 11
650.7855507473749
 21
2084.71875470188
 31
0.0
1001
REVIT
1002
{
1070
     3
1000
923097
1002
}
  0
LINE
  5
A6
330
87
100
AcDbEntity
  8
M-PIPE
100
AcDbLine
 10
650.7855507473721
 20
2084.718754701879
 30
0.0
 11
646.6813090274579
 21
2095.995066151328
 31
0.0
1001
REVIT
1002
{
1070
     3
1000
923097
1002
}
  0
LINE
  5
A7
330
87
100
AcDbEntity
  8
M-PIPE
100
AcDbLine
 10
640.0379918317979
 20
2093.577096435318
 30
0.0
 11
644.1422335517122
 21
2082.30078498587
 31
0.0
1001
REVIT
1002
{
1070
     3
1000
923097
1002
}
  0
LINE
  5
A8
330
87
100
AcDbEntity
  8
M-PIPE
100
AcDbLine
 10
644.1422335517094
 20
2082.300784985869
 30
0.0
 11
624.6790238204312
 21
2075.216755980403
 31
0.0
1001
REVIT
1002
{
1070
     3
1000
923097
1002
}
  0
LINE
  5
A9
330
87
100
AcDbEntity
  8
M-PIPE
100
AcDbLine
 10
624.6790238204289
 20
2075.216755980402
 30
0.0
 11
620.5747821005145
 21
2086.493067429851
 31
0.0
1001
REVIT
1002
{
1070
     3
1000
923097
1002
}
  0
LINE
  5
AA
330
87
100
AcDbEntity
  8
M-PIPE
100
AcDbLine
 10
613.931464904903
 20
2084.07509771386
 30
0.0
 11
618.0357066248173
 21
2072.798786264411
 31
0.0
1001
REVIT
1002
{
1070
     3
1000
923097
1002
}
  0
LINE
  5
AB
330
87
100
AcDbEntity
  8
M-PIPE
100
AcDbLine
 10
618.0357066248167
 20
2072.798786264411
 30
0.0
 11
604.2731390401129
 21
2067.789621316503
 31
0.0
1001
REVIT
1002
{
1070
     3
1000
923097
1002
}
  0
LINE
  5
AC
330
87
100
AcDbEntity
  8
M-PIPE
100
AcDbLine
 10
604.2731390401129
 20
2067.789621316502
 30
0.0
 11
600.1688973201983
 21
2079.065932765951
 31
0.0
1001
REVIT
1002
{
1070
     3
1000
923097
1002
}
  0
LINE
  5
AD
330
87
100
AcDbEntity
  8
M-PIPE
100
AcDbLine
 10
597.4171452386607
 20
2078.064376916191
 30
0.0
 11
601.5213869585753
 21
2066.788065466742
 31
0.0
1001
REVIT
1002
{
1070
     3
1000
923097
1002
}
  0
LINE
  5
AE
330
87
100
AcDbEntity
  8
M-PIPE
100
AcDbLine
 10
601.5213869585758
 20
2066.788065466742
 30
0.0
 11
600.1118480273897
 21
2066.275035251752
 31
0.0
1001
REVIT
1002
{
1070
     3
1000
923097
1002
}
  0
LINE
  5
AF
330
87
100
AcDbEntity
  8
M-PIPE
100
AcDbLine
 10
600.1688973201988
 20
2079.065932765951
 30
0.0
 11
597.4171452386613
 21
2078.064376916191
 31
0.0
1001
REVIT
1002
{
1070
     3
1000
923097
1002
}
  0
LINE
  5
B0
330
87
100
AcDbEntity
  8
M-PIPE
100
AcDbLine
 10
600.1688973201986
 20
2079.065932765951
 30
0.0
 11
613.9314649049027
 21
2084.07509771386
 31
0.0
1001
REVIT
1002
{
1070
     3
1000
923097
1002
}
  0
LINE
  5
B1
330
87
100
AcDbEntity
  8
M-PIPE
100
AcDbLine
 10
620.5747821005169
 20
2086.493067429852
 30
0.0
 11
613.931464904903
 21
2084.07509771386
 31
0.0
1001
REVIT
1002
{
1070
     3
1000
923097
1002
}
  0
LINE
  5
B2
330
87
100
AcDbEntity
  8
M-PIPE
100
AcDbLine
 10
620.5747821005168
 20
2086.493067429852
 30
0.0
 11
640.0379918317959
 21
2093.577096435318
 31
0.0
1001
REVIT
1002
{
1070
     3
1000
923097
1002
}
  0
LINE
  5
B3
330
87
100
AcDbEntity
  8
M-PIPE
100
AcDbLine
 10
646.6813090274605
 20
2095.995066151329
 30
0.0
 11
640.0379918317963
 21
2093.577096435318
 31
0.0
1001
REVIT
1002
{
1070
     3
1000
923097
1002
}
  0
LINE
  5
B4
330
87
100
AcDbEntity
  8
M-PIPE
100
AcDbLine
 10
646.6813090274604
 20
2095.995066151329
 30
0.0
 11
660.4438766120871
 21
2101.00423109921
 31
0.0
1001
REVIT
1002
{
1070
     3
1000
923097
1002
}
  0
LINE
  5
B5
330
87
100
AcDbEntity
  8
M-PIPE
100
AcDbLine
 10
663.1956286936752
 20
2102.005786948988
 30
0.0
 11
660.4438766120872
 21
2101.00423109921
 31
0.0
1001
REVIT
1002
{
1070
     3
1000
923097
1002
}
  0
LINE
  5
B6
330
87
100
AcDbEntity
  8
M-PIPE
100
AcDbLine
 10
650.8414451760606
 20
2131.562920599143
 30
0.0
 11
587.8820395834106
 21
2108.647570996326
 31
0.0
1001
REVIT
1002
{
1070
     3
1000
923097
1002
}
  0
LWPOLYLINE
  5
B7
330
87
100
AcDbEntity
  8
P-SANR-FIXT
100
AcDbPolyline
 90
        7
 70
   128
 43
0.0
 10
600.9068074063264
 20
2172.450431294304
 10
604.5129720989146
 20
2173.681869656842
 10
608.2137765063116
 20
2174.782473099925
 10
611.9556330638068
 20
2175.734203473438
 10
615.7325555991276
 20
2176.535538211809
 10
619.5385018419186
 20
2177.185195350398
 10
620.4160071092322
 20
2177.312860456097
  0
LWPOLYLINE
  5
B8
330
87
100
AcDbEntity
  8
P-SANR-FIXT
100
AcDbPolyline
 90
        7
 70
   128
 43
0.0
 10
581.7817828600148
 20
2163.251152805417
 10
585.0968566027805
 20
2165.23043734301
 10
588.4884289109652
 20
2167.075571072335
 10
591.9510739923729
 20
2168.783602173029
 10
595.4792523535314
 20
2170.351798159693
 10
599.0673196617006
 20
2171.777650253278
 10
599.8991841156919
 20
2172.084758383359
  0
LWPOLYLINE
  5
B9
330
87
100
AcDbEntity
  8
P-SANR-FIXT
100
AcDbPolyline
 90
       80
 70
   128
 43
0.0
 10
599.8991841156915
 20
2172.084758383359
 10
599.8995680469857
 20
2172.084898122922
 10
599.9007192266612
 20
2172.085317118058
 10
599.9026358130751
 20
2172.086014698464
 10
599.9053147400988
 20
2172.08698974816
 10
599.9087517220202
 20
2172.088240707275
 10
599.9129412604011
 20
2172.089765574542
 10
599.9178766528744
 20
2172.091561910496
 10
599.9235500038642
 20
2172.093626841385
 10
599.9299522372202
 20
2172.09595706376
 10
599.9370731107338
 20
2172.09854884976
 10
599.944901232527
 20
2172.101398053083
 10
599.9534240792747
 20
2172.104500115611
 10
599.9626280162402
 20
2172.107850074704
 10
599.9724983190876
 20
2172.111442571144
 10
599.9830191974382
 20
2172.115271857702
 10
599.9941738201308
 20
2172.119331808337
 10
600.0059443421486
 20
2172.123615927993
 10
600.0183119331672
 20
2172.128117362993
 10
600.0312568076794
 20
2172.132828912002
 10
600.0447582566474
 20
2172.137743037545
 10
600.058794680633
 20
2172.142851878072
 10
600.0733436243521
 20
2172.148147260525
 10
600.0883818125984
 20
2172.153620713425
 10
600.1038851874784
 20
2172.159263480411
 10
600.1198289468999
 20
2172.165066534263
 10
600.1361875842485
 20
2172.171020591331
 10
600.1529349291947
 20
2172.177116126395
 10
600.1700441895589
 20
2172.183343387898
 10
600.187487994174
 20
2172.18969241355
 10
600.2052384366741
 20
2172.196153046265
 10
600.2232671201376
 20
2172.202714950409
 10
600.241545202517
 20
2172.209367628334
 10
600.2600434427797
 20
2172.216100437176
 10
600.2787322476872
 20
2172.222902605877
 10
600.2975817191384
 20
2172.229763252417
 10
600.3165617019998
 20
2172.236671401225
 10
600.335641832348
 20
2172.243616000737
 10
600.3547915860444
 20
2172.250585941077
 10
600.3739803275684
 20
2172.257570071824
 10
600.3931773590267
 20
2172.264557219861
 10
600.4123519692641
 20
2172.271536207242
 10
600.4314734829949
 20
2172.278495869074
 10
600.4505113098759
 20
2172.285425071384
 10
600.4694349934453
 20
2172.292312728925
 10
600.4882142598463
 20
2172.299147822917
 10
600.5068190662586
 20
2172.305919418665
 10
600.5252196489609
 20
2172.312616683062
 10
600.5433865709459
 20
2172.319228901912
 10
600.5612907690141
 20
2172.325745497078
 10
600.5789036002678
 20
2172.332156043395
 10
600.5961968879342
 20
2172.338450285359
 10
600.6131429664421
 20
2172.344618153523
 10
600.6297147256806
 20
2172.350649780615
 10
600.6458856543706
 20
2172.356535517319
 10
600.6616298824753
 20
2172.362265947711
 10
600.6769222225886
 20
2172.367831904324
 10
600.6917382102284
 20
2172.373224482816
 10
600.706054142975
 20
2172.378435056211
 10
600.71984711839
 20
2172.383455288704
 10
600.7330950706553
 20
2172.388277148994
 10
600.7457768058728
 20
2172.392892923132
 10
600.7578720359718
 20
2172.397295226865
 10
600.7693614111644
 20
2172.401477017445
 10
600.7802265509011
 20
2172.405431604901
 10
600.7904500732759
 20
2172.409152662734
 10
600.8000156228343
 20
2172.412634238048
 10
600.8089078967373
 20
2172.415870761064
 10
600.8171126692436
 20
2172.418857054035
 10
600.8246168144676
 20
2172.421588339529
 10
600.8314083273776
 20
2172.424060248074
 10
600.8374763430016
 20
2172.426268825143
 10
600.8428111538094
 20
2172.428210537482
 10
600.8474042252413
 20
2172.429882278767
 10
600.8512482093632
 20
2172.431281374569
 10
600.8543369566202
 20
2172.432405586632
 10
600.8566655256757
 20
2172.433253116456
 10
600.8582301913159
 20
2172.433822608176
 10
600.8590284504098
 20
2172.434113150726
 10
600.8591403392052
 20
2172.434153874917
  0
LWPOLYLINE
  5
BA
330
87
100
AcDbEntity
  8
P-SANR-FIXT
100
AcDbPolyline
 90
       80
 70
   128
 43
0.0
 10
600.8591403392052
 20
2172.434153874917
 10
600.8587564079106
 20
2172.434014135353
 10
600.8576052282355
 20
2172.433595140217
 10
600.8556886418213
 20
2172.432897559811
 10
600.8530097147978
 20
2172.431922510114
 10
600.8495727328766
 20
2172.430671551
 10
600.8453831944954
 20
2172.429146683734
 10
600.8404478020224
 20
2172.427350347779
 10
600.8347744510322
 20
2172.42528541689
 10
600.8283722176763
 20
2172.422955194516
 10
600.8212513441626
 20
2172.420363408515
 10
600.8134232223694
 20
2172.417514205191
 10
600.8049003756217
 20
2172.414412142664
 10
600.7956964386562
 20
2172.411062183571
 10
600.7858261358087
 20
2172.407469687131
 10
600.7753052574582
 20
2172.403640400573
 10
600.7641506347659
 20
2172.399580449939
 10
600.752380112748
 20
2172.395296330282
 10
600.7400125217293
 20
2172.390794895282
 10
600.727067647217
 20
2172.386083346273
 10
600.713566198249
 20
2172.381169220729
 10
600.6995297742634
 20
2172.376060380203
 10
600.6849808305444
 20
2172.370764997749
 10
600.6699426422983
 20
2172.365291544851
 10
600.6544392674182
 20
2172.359648777863
 10
600.6384955079968
 20
2172.353845724012
 10
600.6221368706479
 20
2172.347891666944
 10
600.6053895257018
 20
2172.34179613188
 10
600.5882802653377
 20
2172.335568870377
 10
600.5708364607224
 20
2172.329219844725
 10
600.5530860182225
 20
2172.32275921201
 10
600.5350573347588
 20
2172.316197307866
 10
600.5167792523793
 20
2172.30954462994
 10
600.498281012117
 20
2172.302811821099
 10
600.4795922072093
 20
2172.296009652399
 10
600.4607427357584
 20
2172.289149005859
 10
600.4417627528966
 20
2172.28224085705
 10
600.4226826225487
 20
2172.275296257538
 10
600.4035328688522
 20
2172.268326317198
 10
600.3843441273281
 20
2172.261342186451
 10
600.3651470958699
 20
2172.254355038414
 10
600.3459724856323
 20
2172.247376051033
 10
600.3268509719017
 20
2172.240416389202
 10
600.3078131450207
 20
2172.233487186892
 10
600.2888894614514
 20
2172.22659952935
 10
600.2701101950504
 20
2172.219764435358
 10
600.2515053886379
 20
2172.21299283961
 10
600.2331048059357
 20
2172.206295575213
 10
600.2149378839504
 20
2172.199683356363
 10
600.1970336858825
 20
2172.193166761197
 10
600.1794208546288
 20
2172.186756214879
 10
600.1621275669624
 20
2172.180461972917
 10
600.1451814884545
 20
2172.174294104752
 10
600.1286097292158
 20
2172.16826247766
 10
600.1124388005259
 20
2172.162376740956
 10
600.0966945724212
 20
2172.156646310565
 10
600.081402232308
 20
2172.151080353951
 10
600.0665862446681
 20
2172.145687775459
 10
600.0522703119216
 20
2172.140477202064
 10
600.0384773365066
 20
2172.13545696957
 10
600.0252293842414
 20
2172.130635109281
 10
600.0125476490239
 20
2172.126019335143
 10
600.0004524189247
 20
2172.12161703141
 10
599.9889630437321
 20
2172.11743524083
 10
599.9780979039955
 20
2172.113480653375
 10
599.9678743816205
 20
2172.10975959554
 10
599.958308832062
 20
2172.106278020227
 10
599.9494165581591
 20
2172.103041497212
 10
599.9412117856529
 20
2172.10005520424
 10
599.9337076404288
 20
2172.097323918745
 10
599.926916127519
 20
2172.0948520102
 10
599.920848111895
 20
2172.092643433132
 10
599.9155133010874
 20
2172.090701720792
 10
599.9109202296555
 20
2172.089029979507
 10
599.9070762455336
 20
2172.087630883706
 10
599.9039874982766
 20
2172.086506671643
 10
599.9016589292209
 20
2172.085659141819
 10
599.9000942635807
 20
2172.085089650099
 10
599.8992960044869
 20
2172.08479910755
 10
599.8991841156915
 20
2172.084758383359
  0
LWPOLYLINE
  5
BB
330
87
100
AcDbEntity
  8
P-SANR-FIXT
100
AcDbPolyline
 90
       30
 70
   128
 43
0.0
 10
620.4160071092322
 20
2177.312860456097
 10
620.6727013147813
 20
2177.343781156764
 10
620.9304266905777
 20
2177.364412093799
 10
621.1887709309981
 20
2177.374720262104
 10
621.4473207403687
 20
2177.374689170809
 10
621.7056624941489
 20
2177.364318869652
 10
621.9633829006425
 20
2177.343625948904
 10
622.2200696621763
 20
2177.312643512824
 10
622.4753121346893
 20
2177.271421126699
 10
622.7287019846736
 20
2177.220024737554
 10
622.9798338424235
 20
2177.158536568649
 10
623.2283059505381
 20
2177.087054987935
 10
623.4737208066495
 20
2177.005694350695
 10
623.7156857993398
 20
2176.914584816591
 10
623.9538138362372
 20
2176.813872141442
 10
624.1877239632805
 20
2176.703717444044
 10
624.417041974165
 20
2176.584296948415
 10
624.6414010089917
 20
2176.455801701873
 10
624.8604421411656
 20
2176.318437269401
 10
625.0738149516011
 20
2176.172423404789
 10
625.2811780893191
 20
2176.017993699071
 10
625.4821998175343
 20
2175.855395206834
 10
625.6765585443637
 20
2175.68488805098
 10
625.8639433373054
 20
2175.506745006584
 10
626.0440544206642
 20
2175.321251064518
 10
626.2166036551282
 20
2175.128702975516
 10
626.3813149987305
 20
2174.929408775447
 10
626.5379249484586
 20
2174.723687292518
 10
626.6861829618006
 20
2174.511867637217
 10
626.694462851308
 20
2174.499488653332
  0
LWPOLYLINE
  5
BC
330
87
100
AcDbEntity
  8
P-SANR-FIXT
100
AcDbPolyline
 90
       30
 70
   128
 43
0.0
 10
578.780607263688
 20
2157.060271410509
 10
578.7574311051976
 20
2157.317780382333
 10
578.7445710974922
 20
2157.576010173593
 10
578.7420478138407
 20
2157.834547671709
 10
578.7498652909593
 20
2158.092979271835
 10
578.7680110225517
 20
2158.350891538541
 10
578.7964559793184
 20
2158.607871867217
 10
578.8351546553965
 20
2158.863509144159
 10
578.8840451411596
 20
2159.117394404255
 10
578.9430492222598
 20
2159.369121485249
 10
579.0120725047542
 20
2159.61828767751
 10
579.091004566115
 20
2159.864494368283
 10
579.1797191318821
 20
2160.107347679385
 10
579.278074277675
 20
2160.346459097323
 10
579.3859126562416
 20
2160.581446094836
 10
579.5030617491805
 20
2160.811932742857
 10
579.6293341429337
 20
2161.037550311916
 10
579.7645278286076
 20
2161.257937862032
 10
579.9084265251451
 20
2161.472742820139
 10
580.0608000253284
 20
2161.681621544125
 10
580.2214045640619
 20
2161.884239872591
 10
580.3899832083438
 20
2162.080273659436
 10
580.566266268305
 20
2162.269409292416
 10
580.7499717286549
 20
2162.451344194867
 10
580.9408056998448
 20
2162.625787309756
 10
581.1384628882303
 20
2162.792459565311
 10
581.3426270844744
 20
2162.951094321478
 10
581.5529716694157
 20
2163.101437796489
 10
581.7691601365898
 20
2163.243249472853
 10
581.7817828600148
 20
2163.251152805417
  0
LWPOLYLINE
  5
BD
330
87
100
AcDbEntity
  8
P-SANR-FIXT
100
AcDbPolyline
 90
        4
 70
   128
 43
0.0
 10
626.694462851308
 20
2174.499488653332
 10
633.2866639380249
 20
2164.177794692689
 10
639.4608342978387
 20
2153.600739254011
 10
643.3505021475646
 20
2146.39537355608
  0
LWPOLYLINE
  5
BE
330
87
100
AcDbEntity
  8
P-SANR-FIXT
100
AcDbPolyline
 90
        3
 70
   128
 43
0.0
 10
584.084845954949
 20
2124.832368526128
 10
581.6951763935111
 20
2136.836507473621
 10
580.8760366437216
 20
2142.027770936784
  0
LWPOLYLINE
  5
BF
330
87
100
AcDbEntity
  8
P-SANR-FIXT
100
AcDbPolyline
 90
        3
 70
   128
 43
0.0
 10
580.8665355320092
 20
2142.087983829767
 10
579.786280768195
 20
2148.934052632723
 10
578.780607263688
 20
2157.060271410509
  0
SPLINE
  5
C0
330
87
100
AcDbEntity
  8
P-SANR-FIXT
100
AcDbSpline
210
0.0
220
0.0
230
1.0
 70
     8
 71
     3
 72
     9
 73
     5
 74
     0
 42
0.000000001
 43
0.0000000001
 40
-1.0
 40
-1.0
 40
-1.0
 40
-1.0
 40
-0.5
 40
0.0
 40
0.0
 40
0.0
 40
0.0
 10
581.6053735564877
 20
2158.088402259846
 30
0.0
 10
581.7130002559036
 20
2158.262738411593
 30
0.0
 10
581.9533579091221
 20
2158.48538467969
 30
0.0
 10
582.2419026715815
 20
2158.455243147731
 30
0.0
 10
582.397785358713
 20
2158.376816569138
 30
0.0
  0
SPLINE
  5
C1
330
87
100
AcDbEntity
  8
P-SANR-FIXT
100
AcDbSpline
210
0.0
220
0.0
230
1.0
 70
     8
 71
     3
 72
     9
 73
     5
 74
     0
 42
0.000000001
 43
0.0000000001
 40
-1.0
 40
-1.0
 40
-1.0
 40
-1.0
 40
-0.5
 40
0.0
 40
0.0
 40
0.0
 40
0.0
 10
601.9451232544943
 20
2165.491465722345
 30
0.0
 10
602.1651920142852
 20
2165.706727437399
 30
0.0
 10
602.6506538034699
 20
2166.018584315534
 30
0.0
 10
603.2229968466817
 20
2166.091736910054
 30
0.0
 10
603.5299468604998
 20
2166.068294341494
 30
0.0
  0
SPLINE
  5
C2
330
87
100
AcDbEntity
  8
P-SANR-FIXT
100
AcDbSpline
210
0.0
220
0.0
230
1.0
 70
     8
 71
     3
 72
     9
 73
     5
 74
     0
 42
0.000000001
 43
0.0000000001
 40
-1.0
 40
-1.0
 40
-1.0
 40
-1.0
 40
-0.5
 40
0.0
 40
0.0
 40
0.0
 40
0.0
 10
623.0772847562843
 20
2173.182943494703
 30
0.0
 10
623.1462861895485
 20
2173.34322119928
 30
0.0
 10
623.3479496981392
 20
2173.551783950492
 30
0.0
 10
623.6751886052205
 20
2173.535725935416
 30
0.0
 10
623.8696965585009
 20
2173.471357803991
 30
0.0
  0
SPLINE
  5
C3
330
87
100
AcDbEntity
  8
P-SANR-FIXT
100
AcDbSpline
210
0.0
220
0.0
230
1.0
 70
     8
 71
     3
 72
    23
 73
    19
 74
     0
 42
0.000000001
 43
0.0000000001
 40
-1.0
 40
-1.0
 40
-1.0
 40
-1.0
 40
-0.875
 40
-0.8125
 40
-0.78125
 40
-0.75
 40
-0.71875
 40
-0.6875
 40
-0.625
 40
-0.5625
 40
-0.53125
 40
-0.5
 40
-0.46875
 40
-0.4375
 40
-0.375
 40
-0.3125
 40
-0.25
 40
0.0
 40
0.0
 40
0.0
 40
0.0
 10
623.8696965585009
 20
2173.471357803991
 30
0.0
 10
624.638449487064
 20
2172.709401538809
 30
0.0
 10
625.8617164983279
 20
2171.53023827145
 30
0.0
 10
627.2930828930006
 20
2170.048645491277
 30
0.0
 10
628.1000045068027
 20
2169.166593296985
 30
0.0
 10
628.6988735920435
 20
2168.48903937052
 30
0.0
 10
629.2819743975387
 20
2167.783859107229
 30
0.0
 10
630.0310323042846
 20
2166.79968814524
 30
0.0
 10
630.9245773554401
 20
2165.507982124275
 30
0.0
 10
631.7838108735872
 20
2164.174045262805
 30
0.0
 10
632.4673682807168
 20
2163.106432025612
 30
0.0
 10
632.9853134392465
 20
2162.315165708822
 30
0.0
 10
633.5035990672969
 20
2161.527303736658
 30
0.0
 10
634.1826992166909
 20
2160.465424070419
 30
0.0
 10
635.0171175089585
 20
2159.126681859143
 30
0.0
 10
635.9987305339259
 20
2157.505467795962
 30
0.0
 10
637.9432322045868
 20
2154.254130244234
 30
0.0
 10
639.509937146699
 20
2151.514509480731
 30
0.0
 10
640.7134204307017
 20
2149.292573561309
 30
0.0
  0
LINE
  5
C4
330
87
100
AcDbEntity
  8
P-SANR-FIXT
100
AcDbLine
 10
640.713420430701
 20
2149.292573561311
 30
0.0
 11
632.8977827262075
 21
2146.447914075067
 31
0.0
  0
SPLINE
  5
C5
330
87
100
AcDbEntity
  8
P-SANR-FIXT
100
AcDbSpline
210
0.0
220
0.0
230
1.0
 70
     8
 71
     3
 72
     9
 73
     5
 74
     0
 42
0.000000001
 43
0.0000000001
 40
-1.0
 40
-1.0
 40
-1.0
 40
-1.0
 40
-0.5
 40
0.0
 40
0.0
 40
0.0
 40
0.0
 10
632.8977827262081
 20
2146.447914075066
 30
0.0
 10
631.4815145941748
 20
2149.697609276843
 30
0.0
 10
628.6130595590899
 20
2156.121665233668
 30
0.0
 10
625.9563302367999
 20
2162.498260881322
 30
0.0
 10
624.7862470844234
 20
2165.713037921361
 30
0.0
  0
SPLINE
  5
C6
330
87
100
AcDbEntity
  8
P-SANR-FIXT
100
AcDbSpline
210
0.0
220
0.0
230
1.0
 70
     8
 71
     3
 72
    21
 73
    17
 74
     0
 42
0.000000001
 43
0.0000000001
 40
-1.0
 40
-1.0
 40
-1.0
 40
-1.0
 40
-0.8333333333333332
 40
-0.75
 40
-0.7083333333333333
 40
-0.6666666666666666
 40
-0.625
 40
-0.5833333333333333
 40
-0.5
 40
-0.4166666666666666
 40
-0.375
 40
-0.3333333333333333
 40
-0.2916666666666666
 40
-0.25
 40
-0.1666666666666666
 40
0.0
 40
0.0
 40
0.0
 40
0.0
 10
624.7862470844234
 20
2165.713037921361
 30
0.0
 10
624.6243227150926
 20
2166.157921469757
 30
0.0
 10
624.3884058950214
 20
2166.820363155288
 30
0.0
 10
624.1298561419633
 20
2167.585963634862
 30
0.0
 10
623.9874174852361
 20
2168.021957794253
 30
0.0
 10
623.8838562479456
 20
2168.347376126773
 30
0.0
 10
623.7819582853331
 20
2168.674951055059
 30
0.0
 10
623.6473365572119
 20
2169.116567291148
 30
0.0
 10
623.4853352055452
 20
2169.670099125514
 30
0.0
 10
623.3406521769588
 20
2170.212292299798
 30
0.0
 10
623.241956806512
 20
2170.631700632327
 30
0.0
 10
623.1790297231246
 20
2170.936411570857
 30
0.0
 10
623.1271332107452
 20
2171.233000887093
 30
0.0
 10
623.0704620088706
 20
2171.622586984685
 30
0.0
 10
623.0083575887412
 20
2172.286795979047
 30
0.0
 10
623.0261460737188
 20
2172.829874673615
 30
0.0
 10
623.0772847562843
 20
2173.182943494703
 30
0.0
  0
SPLINE
  5
C7
330
87
100
AcDbEntity
  8
P-SANR-FIXT
100
AcDbSpline
210
0.0
220
0.0
230
1.0
 70
     8
 71
     3
 72
    23
 73
    19
 74
     0
 42
0.000000001
 43
0.0000000001
 40
-1.0
 40
-1.0
 40
-1.0
 40
-1.0
 40
-0.875
 40
-0.8125
 40
-0.78125
 40
-0.75
 40
-0.71875
 40
-0.6875
 40
-0.625
 40
-0.5625
 40
-0.53125
 40
-0.5
 40
-0.46875
 40
-0.4375
 40
-0.375
 40
-0.3125
 40
-0.25
 40
0.0
 40
0.0
 40
0.0
 40
0.0
 10
603.5299468604998
 20
2166.068294341494
 30
0.0
 10
604.6216873744448
 20
2165.42389594333
 30
0.0
 10
606.1590889947812
 20
2164.359068323108
 30
0.0
 10
607.7603138452557
 20
2162.939298964796
 30
0.0
 10
608.6220265645156
 20
2162.077189101958
 30
0.0
 10
609.2441887967319
 20
2161.408113187633
 30
0.0
 10
609.8354600105523
 20
2160.705906709764
 30
0.0
 10
610.5807303805685
 20
2159.720357197146
 30
0.0
 10
611.4508870135323
 20
2158.420138488158
 30
0.0
 10
612.2727736932372
 20
2157.072608489188
 30
0.0
 10
612.9181689932135
 20
2155.991105380945
 30
0.0
 10
613.4017358695587
 20
2155.18732639275
 30
0.0
 10
613.8806639691408
 20
2154.385139451744
 30
0.0
 10
614.5043893218814
 20
2153.303105007816
 30
0.0
 10
615.2636869019945
 20
2151.937021093369
 30
0.0
 10
616.1480306084264
 20
2150.28040389357
 30
0.0
 10
617.8807391577116
 20
2146.951979949907
 30
0.0
 10
619.2455870228563
 20
2144.138889218865
 30
0.0
 10
620.2944256255368
 20
2141.860667238593
 30
0.0
  0
LINE
  5
C8
330
87
100
AcDbEntity
  8
P-SANR-FIXT
100
AcDbLine
 10
620.2944256255364
 20
2141.860667238596
 30
0.0
 11
604.6631502164068
 21
2136.171348266055
 31
0.0
  0
SPLINE
  5
C9
330
87
100
AcDbEntity
  8
P-SANR-FIXT
100
AcDbSpline
210
0.0
220
0.0
230
1.0
 70
     8
 71
     3
 72
    23
 73
    19
 74
     0
 42
0.000000001
 43
0.0000000001
 40
-1.0
 40
-1.0
 40
-1.0
 40
-1.0
 40
-0.75
 40
-0.6875
 40
-0.625
 40
-0.5625
 40
-0.53125
 40
-0.5
 40
-0.46875
 40
-0.4375
 40
-0.375
 40
-0.3125
 40
-0.28125
 40
-0.25
 40
-0.21875
 40
-0.1875
 40
-0.125
 40
0.0
 40
0.0
 40
0.0
 40
0.0
 10
604.663150216407
 20
2136.171348266053
 30
0.0
 10
604.0021943386854
 20
2138.590748012595
 30
0.0
 10
603.2395085946437
 20
2141.623007831922
 30
0.0
 10
602.4273706795984
 20
2145.286492084988
 30
0.0
 10
602.0399642516934
 20
2147.123979662467
 30
0.0
 10
601.7435181296133
 20
2148.658527730527
 30
0.0
 10
601.5258011363024
 20
2149.888337132149
 30
0.0
 10
601.3770455193096
 20
2150.810697028992
 30
0.0
 10
601.2308200632726
 20
2151.737258252964
 30
0.0
 10
601.0300447486179
 20
2152.980589801424
 30
0.0
 10
600.793470885461
 20
2154.541156243352
 30
0.0
 10
600.6242850627652
 20
2156.096507462368
 30
0.0
 10
600.5616962728942
 20
2157.33053274964
 30
0.0
 10
600.5632666772023
 20
2158.248515930141
 30
0.0
 10
600.609796890242
 20
2159.160975990418
 30
0.0
 10
600.7157535923753
 20
2160.375288719253
 30
0.0
 10
601.0297528391305
 20
2162.492142640905
 30
0.0
 10
601.5230128065001
 20
2164.296070634921
 30
0.0
 10
601.9451232544943
 20
2165.491465722345
 30
0.0
  0
SPLINE
  5
CA
330
87
100
AcDbEntity
  8
P-SANR-FIXT
100
AcDbSpline
210
0.0
220
0.0
230
1.0
 70
     8
 71
     3
 72
    21
 73
    17
 74
     0
 42
0.000000001
 43
0.0000000001
 40
-1.0
 40
-1.0
 40
-1.0
 40
-1.0
 40
-0.8333333333333332
 40
-0.75
 40
-0.7083333333333333
 40
-0.6666666666666666
 40
-0.625
 40
-0.5833333333333333
 40
-0.5
 40
-0.4166666666666666
 40
-0.375
 40
-0.3333333333333333
 40
-0.2916666666666666
 40
-0.25
 40
-0.1666666666666666
 40
0.0
 40
0.0
 40
0.0
 40
0.0
 10
582.397785358713
 20
2158.376816569138
 30
0.0
 10
582.6639081258817
 20
2158.139221472232
 30
0.0
 10
583.026619151903
 20
2157.734633273819
 30
0.0
 10
583.4059897177874
 20
2157.185899712851
 30
0.0
 10
583.6129981749444
 20
2156.851031901283
 30
0.0
 10
583.7638870776612
 20
2156.590472868547
 30
0.0
 10
583.9115465509337
 20
2156.316601997813
 30
0.0
 10
584.1055319903899
 20
2155.931876414026
 30
0.0
 10
584.3432134148137
 20
2155.423531887661
 30
0.0
 10
584.5749165842887
 20
2154.895369440254
 30
0.0
 10
584.7556558023324
 20
2154.470538597776
 30
0.0
 10
584.8881585394549
 20
2154.154102896437
 30
0.0
 10
585.0180009012144
 20
2153.838250110947
 30
0.0
 10
585.1891382032951
 20
2153.41270140423
 30
0.0
 10
585.4831961039351
 20
2152.66002483345
 30
0.0
 10
585.7282826424802
 20
2152.000920652501
 30
0.0
 10
585.8902070118108
 20
2151.556037104106
 30
0.0
  0
SPLINE
  5
CB
330
87
100
AcDbEntity
  8
P-SANR-FIXT
100
AcDbSpline
210
0.0
220
0.0
230
1.0
 70
     8
 71
     3
 72
     9
 73
     5
 74
     0
 42
0.000000001
 43
0.0000000001
 40
-1.0
 40
-1.0
 40
-1.0
 40
-1.0
 40
-0.5
 40
0.0
 40
0.0
 40
0.0
 40
0.0
 10
585.8902070118108
 20
2151.556037104105
 30
0.0
 10
587.0602901641875
 20
2148.341260064066
 30
0.0
 10
589.1239141042689
 20
2141.748791711505
 30
0.0
 10
591.0558536372856
 20
2134.983871987999
 30
0.0
 10
592.0597931157357
 20
2131.584101429581
 30
0.0
  0
LINE
  5
CC
330
87
100
AcDbEntity
  8
P-SANR-FIXT
100
AcDbLine
 10
592.0597931157356
 20
2131.584101429583
 30
0.0
 11
584.2441554112418
 21
2128.739441943339
 31
0.0
  0
SPLINE
  5
CD
330
87
100
AcDbEntity
  8
P-SANR-FIXT
100
AcDbSpline
210
0.0
220
0.0
230
1.0
 70
     8
 71
     3
 72
    23
 73
    19
 74
     0
 42
0.000000001
 43
0.0000000001
 40
-1.0
 40
-1.0
 40
-1.0
 40
-1.0
 40
-0.75
 40
-0.6875
 40
-0.625
 40
-0.5625
 40
-0.53125
 40
-0.5
 40
-0.46875
 40
-0.4375
 40
-0.375
 40
-0.3125
 40
-0.28125
 40
-0.25
 40
-0.21875
 40
-0.1875
 40
-0.125
 40
0.0
 40
0.0
 40
0.0
 40
0.0
 10
584.2441554112419
 20
2128.739441943337
 30
0.0
 10
583.737844214817
 20
2131.215127750798
 30
0.0
 10
583.1770155477097
 20
2134.320857537756
 30
0.0
 10
582.5766707539961
 20
2138.061428182876
 30
0.0
 10
582.2865336446037
 20
2139.934318897037
 30
0.0
 10
582.0652082346592
 20
2141.496208668319
 30
0.0
 10
581.9028660379874
 20
2142.746172847669
 30
0.0
 10
581.7934679494536
 20
2143.682857713379
 30
0.0
 10
581.6816207755903
 20
2144.621931608784
 30
0.0
 10
581.5190075680707
 20
2145.879153028347
 30
0.0
 10
581.319780543332
 20
2147.45331260784
 30
0.0
 10
581.173983138812
 20
2149.017176514923
 30
0.0
 10
581.1151818856685
 20
2150.252580352828
 30
0.0
 10
581.1085818816573
 20
2151.167589747889
 30
0.0
 10
581.1318189477348
 20
2152.071571795989
 30
0.0
 10
581.1829845444322
 20
2153.265942193307
 30
0.0
 10
581.3271253354408
 20
2155.320972692942
 30
0.0
 10
581.5062506938131
 20
2157.010565039612
 30
0.0
 10
581.6053735564877
 20
2158.088402259846
 30
0.0
  0
LINE
  5
CE
330
87
100
AcDbEntity
  8
P-SANR-FIXT
100
AcDbLine
 10
606.0488890006045
 20
2132.818696680473
 30
0.0
 11
621.3879310290946
 21
2138.401651401002
 31
0.0
  0
LINE
  5
CF
330
87
100
AcDbEntity
  8
P-SANR-FIXT
100
AcDbLine
 10
599.511065042165
 20
2061.054732597257
 30
0.0
 11
607.0355081953295
 21
2040.381494939967
 31
0.0
  0
LINE
  5
D0
330
87
100
AcDbEntity
  8
P-SANR-FIXT
100
AcDbLine
 10
680.0496248303957
 20
2066.956460076371
 30
0.0
 11
672.5251816772311
 21
2087.629697733661
 31
0.0
  0
LINE
  5
D1
330
87
100
AcDbEntity
  8
P-SANR-FIXT
100
AcDbLine
 10
672.5251816772296
 20
2087.62969773366
 30
0.0
 11
599.5110650421636
 21
2061.054732597256
 31
0.0
  0
LINE
  5
D2
330
87
100
AcDbEntity
  8
P-SANR-FIXT
100
AcDbLine
 10
607.0355081953282
 20
2040.381494939966
 30
0.0
 11
680.0496248303941
 21
2066.956460076371
 31
0.0
  0
LINE
  5
D3
330
87
100
AcDbEntity
  8
P-SANR-FIXT
100
AcDbLine
 10
592.0210695412837
 20
1969.983339501635
 30
0.0
 11
606.5270748057777
 21
1969.983339501635
 31
0.0
  0
LINE
  5
D4
330
87
100
AcDbEntity
  8
P-SANR-FIXT
100
AcDbLine
 10
606.5270748057776
 20
2030.016660498381
 30
0.0
 11
592.0210695412978
 21
2030.016660498381
 31
0.0
  0
LINE
  5
D5
330
87
100
AcDbEntity
  8
P-SANR-FIXT
100
AcDbLine
 10
606.5270748057923
 20
1969.983339501635
 30
0.0
 11
606.6541549441772
 21
1970.202196599835
 31
0.0
  0
LINE
  5
D6
330
87
100
AcDbEntity
  8
P-SANR-FIXT
100
AcDbLine
 10
606.6774719319125
 20
1970.242353058108
 30
0.0
 11
608.2787092593167
 21
1973.000000000101
 31
0.0
  0
LINE
  5
D7
330
87
100
AcDbEntity
  8
P-SANR-FIXT
100
AcDbLine
 10
608.2787092593166
 20
2026.99999999989
 30
0.0
 11
606.677471931898
 21
2029.757646941907
 31
0.0
  0
LINE
  5
D8
330
87
100
AcDbEntity
  8
P-SANR-FIXT
100
AcDbLine
 10
606.6541549441628
 20
2029.79780340018
 30
0.0
 11
606.5270748057776
 21
2030.016660498381
 31
0.0
  0
LINE
  5
D9
330
87
100
AcDbEntity
  8
P-SANR-FIXT
100
AcDbLine
 10
588.2787092593041
 20
1976.446444086184
 30
0.0
 11
591.8711019473666
 21
1970.242335474964
 31
0.0
  0
LINE
  5
DA
330
87
100
AcDbEntity
  8
P-SANR-FIXT
100
AcDbLine
 10
591.8941600518248
 20
1970.202513830491
 30
0.0
 11
592.021069541298
 21
1969.983339501609
 31
0.0
  0
LINE
  5
DB
330
87
100
AcDbEntity
  8
P-SANR-FIXT
100
AcDbLine
 10
592.0210695412979
 20
2030.016660498381
 30
0.0
 11
591.8941600518386
 21
2029.797486169524
 31
0.0
  0
LINE
  5
DC
330
87
100
AcDbEntity
  8
P-SANR-FIXT
100
AcDbLine
 10
591.8711019473806
 20
2029.757664525052
 30
0.0
 11
588.278709259304
 21
2023.553555913807
 31
0.0
  0
LINE
  5
DD
330
87
100
AcDbEntity
  8
P-SANR-FIXT
100
AcDbLine
 10
588.2787092593027
 20
1976.446444086183
 30
0.0
 11
588.2787092593027
 21
2023.553555913805
 31
0.0
  0
LINE
  5
DE
330
87
100
AcDbEntity
  8
P-SANR-FIXT
100
AcDbLine
 10
608.2787092593153
 20
2026.99999999989
 30
0.0
 11
608.2787092593153
 21
2023.382685902083
 31
0.0
  0
LINE
  5
DF
330
87
100
AcDbEntity
  8
P-SANR-FIXT
100
AcDbLine
 10
608.2787092593153
 20
2023.382685902083
 30
0.0
 11
608.2787092593153
 21
1999.999999999994
 31
0.0
  0
LINE
  5
E0
330
87
100
AcDbEntity
  8
P-SANR-FIXT
100
AcDbLine
 10
608.2787092593153
 20
1999.999999999994
 30
0.0
 11
608.2787092593154
 21
1976.617314097906
 31
0.0
  0
LINE
  5
E1
330
87
100
AcDbEntity
  8
P-SANR-FIXT
100
AcDbLine
 10
608.2787092593154
 20
1976.617314097906
 30
0.0
 11
608.2787092593155
 21
1973.0000000001
 31
0.0
  0
SPLINE
  5
E2
330
87
100
AcDbEntity
  8
P-SANR-FIXT
100
AcDbSpline
210
0.0
220
0.0
230
1.0
 70
     8
 71
     3
 72
     9
 73
     5
 74
     0
 42
0.000000001
 43
0.0000000001
 40
0.0
 40
0.0
 40
0.0
 40
0.0
 40
0.5
 40
1.0
 40
1.0
 40
1.0
 40
1.0
 10
606.5270748057765
 20
1969.983339501634
 30
0.0
 10
606.5286484383433
 20
1969.983339501635
 30
0.0
 10
606.6041059257239
 20
1970.16036754486
 30
0.0
 10
606.8241838575978
 20
1970.665337641077
 30
0.0
 10
606.9703779346581
 20
1970.98814897325
 30
0.0
  0
SPLINE
  5
E3
330
87
100
AcDbEntity
  8
P-SANR-FIXT
100
AcDbSpline
210
0.0
220
0.0
230
1.0
 70
     8
 71
     3
 72
     9
 73
     5
 74
     0
 42
0.000000001
 43
0.0000000001
 40
0.0
 40
0.0
 40
0.0
 40
0.0
 40
0.5
 40
1.0
 40
1.0
 40
1.0
 40
1.0
 10
591.5790024705485
 20
1970.98814897325
 30
0.0
 10
591.7247940408241
 20
1970.665315144358
 30
0.0
 10
591.9442634562219
 20
1970.160343626931
 30
0.0
 10
592.0195054213133
 20
1969.983339501628
 30
0.0
 10
592.0210695412822
 20
1969.983339501634
 30
0.0
  0
SPLINE
  5
E4
330
87
100
AcDbEntity
  8
P-SANR-FIXT
100
AcDbSpline
210
0.0
220
0.0
230
1.0
 70
     8
 71
     3
 72
     9
 73
     5
 74
     0
 42
0.000000001
 43
0.0000000001
 40
0.0
 40
0.0
 40
0.0
 40
0.0
 40
0.5
 40
1.0
 40
1.0
 40
1.0
 40
1.0
 10
592.0210695412963
 20
2030.016660498381
 30
0.0
 10
592.0195054213272
 20
2030.016660498386
 30
0.0
 10
591.9442634562359
 20
2029.839656373082
 30
0.0
 10
591.7247940408381
 20
2029.334684855656
 30
0.0
 10
591.5790024705627
 20
2029.011851026764
 30
0.0
  0
SPLINE
  5
E5
330
87
100
AcDbEntity
  8
P-SANR-FIXT
100
AcDbSpline
210
0.0
220
0.0
230
1.0
 70
     8
 71
     3
 72
     9
 73
     5
 74
     0
 42
0.000000001
 43
0.0000000001
 40
0.0
 40
0.0
 40
0.0
 40
0.0
 40
0.5
 40
1.0
 40
1.0
 40
1.0
 40
1.0
 10
606.9703779346438
 20
2029.011851026764
 30
0.0
 10
606.824183857581
 20
2029.334662358937
 30
0.0
 10
606.604105925707
 20
2029.839632455154
 30
0.0
 10
606.528648438336
 20
2030.016660498378
 30
0.0
 10
606.5270748057763
 20
2030.016660498381
 30
0.0
  0
SPLINE
  5
E6
330
87
100
AcDbEntity
  8
P-SANR-FIXT
100
AcDbSpline
210
0.0
220
0.0
230
1.0
 70
     8
 71
     3
 72
     9
 73
     5
 74
     0
 42
0.000000001
 43
0.0000000001
 40
0.0
 40
0.0
 40
0.0
 40
0.0
 40
0.5
 40
1.0
 40
1.0
 40
1.0
 40
1.0
 10
591.5790024705627
 20
2029.011851026764
 30
0.0
 10
590.7092399303112
 20
2027.115229953839
 30
0.0
 10
589.839477390063
 20
2023.342220506051
 30
0.0
 10
590.7092399303245
 20
2019.609676454382
 30
0.0
 10
591.5790024705827
 20
2017.753520777577
 30
0.0
  0
SPLINE
  5
E7
330
87
100
AcDbEntity
  8
P-SANR-FIXT
100
AcDbSpline
210
0.0
220
0.0
230
1.0
 70
     8
 71
     3
 72
     9
 73
     5
 74
     0
 42
0.000000001
 43
0.0000000001
 40
0.0
 40
0.0
 40
0.0
 40
0.0
 40
0.5
 40
1.0
 40
1.0
 40
1.0
 40
1.0
 10
606.9703779346236
 20
2017.753520777577
 30
0.0
 10
607.3970022650785
 20
2018.679921467345
 30
0.0
 10
608.0416818163154
 20
2020.544516344549
 30
0.0
 10
608.2692231482063
 20
2022.432698217089
 30
0.0
 10
608.2787092593154
 20
2023.382685902193
 30
0.0
  0
SPLINE
  5
E8
330
87
100
AcDbEntity
  8
P-SANR-FIXT
100
AcDbSpline
210
0.0
220
0.0
230
1.0
 70
     8
 71
     3
 72
     9
 73
     5
 74
     0
 42
0.000000001
 43
0.0000000001
 40
0.0
 40
0.0
 40
0.0
 40
0.0
 40
0.5
 40
1.0
 40
1.0
 40
1.0
 40
1.0
 10
608.2787092593154
 20
2023.382685902193
 30
0.0
 10
608.2692231482067
 20
2024.33267358729
 30
0.0
 10
608.0416818163193
 20
2026.220855459814
 30
0.0
 10
607.3970022650923
 20
2028.085450337003
 30
0.0
 10
606.9703779346438
 20
2029.011851026764
 30
0.0
  0
SPLINE
  5
E9
330
87
100
AcDbEntity
  8
P-SANR-FIXT
100
AcDbSpline
210
0.0
220
0.0
230
1.0
 70
     8
 71
     3
 72
     9
 73
     5
 74
     0
 42
0.000000001
 43
0.0000000001
 40
0.0
 40
0.0
 40
0.0
 40
0.0
 40
0.5
 40
1.0
 40
1.0
 40
1.0
 40
1.0
 10
591.5790024705827
 20
2017.753520777577
 30
0.0
 10
591.7247940408616
 20
2017.430686948689
 30
0.0
 10
591.9442634562594
 20
2016.635240041017
 30
0.0
 10
592.0195054213373
 20
2015.582790257801
 30
0.0
 10
592.0210695412963
 20
2015.008330249188
 30
0.0
  0
SPLINE
  5
EA
330
87
100
AcDbEntity
  8
P-SANR-FIXT
100
AcDbSpline
210
0.0
220
0.0
230
1.0
 70
     8
 71
     3
 72
     9
 73
     5
 74
     0
 42
0.000000001
 43
0.0000000001
 40
0.0
 40
0.0
 40
0.0
 40
0.0
 40
0.5
 40
1.0
 40
1.0
 40
1.0
 40
1.0
 10
592.0210695412963
 20
2015.008330249188
 30
0.0
 10
592.0195054213374
 20
2014.433870240578
 30
0.0
 10
591.9442634562599
 20
2013.204416332057
 30
0.0
 10
591.7247940408635
 20
2011.903997906967
 30
0.0
 10
591.5790024705855
 20
2011.258330249194
 30
0.0
  0
SPLINE
  5
EB
330
87
100
AcDbEntity
  8
P-SANR-FIXT
100
AcDbSpline
210
0.0
220
0.0
230
1.0
 70
     8
 71
     3
 72
     9
 73
     5
 74
     0
 42
0.000000001
 43
0.0000000001
 40
0.0
 40
0.0
 40
0.0
 40
0.0
 40
0.5
 40
1.0
 40
1.0
 40
1.0
 40
1.0
 10
606.9703779346208
 20
2011.258330249194
 30
0.0
 10
606.8241838575528
 20
2011.903952913542
 30
0.0
 10
606.6041059256774
 20
2013.204327868905
 30
0.0
 10
606.528648438323
 20
2014.433831275128
 30
0.0
 10
606.5270748057762
 20
2015.008330249188
 30
0.0
  0
SPLINE
  5
EC
330
87
100
AcDbEntity
  8
P-SANR-FIXT
100
AcDbSpline
210
0.0
220
0.0
230
1.0
 70
     8
 71
     3
 72
     9
 73
     5
 74
     0
 42
0.000000001
 43
0.0000000001
 40
0.0
 40
0.0
 40
0.0
 40
0.0
 40
0.5
 40
1.0
 40
1.0
 40
1.0
 40
1.0
 10
606.5270748057762
 20
2015.008330249188
 30
0.0
 10
606.528648438323
 20
2015.582829223251
 30
0.0
 10
606.6041059256779
 20
2016.635304586254
 30
0.0
 10
606.8241838575546
 20
2017.430709445402
 30
0.0
 10
606.9703779346236
 20
2017.753520777577
 30
0.0
  0
SPLINE
  5
ED
330
87
100
AcDbEntity
  8
P-SANR-FIXT
100
AcDbSpline
210
0.0
220
0.0
230
1.0
 70
     8
 71
     3
 72
     9
 73
     5
 74
     0
 42
0.000000001
 43
0.0000000001
 40
0.0
 40
0.0
 40
0.0
 40
0.0
 40
0.5
 40
1.0
 40
1.0
 40
1.0
 40
1.0
 10
591.5790024705855
 20
2011.258330249194
 30
0.0
 10
590.7092399303303
 20
2007.465088103346
 30
0.0
 10
589.8394773900742
 20
1999.919069207769
 30
0.0
 10
590.7092399303267
 20
1992.45398110443
 30
0.0
 10
591.5790024705801
 20
1988.741669750821
 30
0.0
  0
SPLINE
  5
EE
330
87
100
AcDbEntity
  8
P-SANR-FIXT
100
AcDbSpline
210
0.0
220
0.0
230
1.0
 70
     8
 71
     3
 72
     9
 73
     5
 74
     0
 42
0.000000001
 43
0.0000000001
 40
0.0
 40
0.0
 40
0.0
 40
0.0
 40
0.5
 40
1.0
 40
1.0
 40
1.0
 40
1.0
 10
606.9703779346264
 20
1988.741669750821
 30
0.0
 10
607.3970022650752
 20
1990.594471130347
 30
0.0
 10
608.0416818163055
 20
1994.323660884736
 30
0.0
 10
608.2692231482012
 20
1998.100024629796
 30
0.0
 10
608.2787092593154
 20
1999.999999999994
 30
0.0
  0
SPLINE
  5
EF
330
87
100
AcDbEntity
  8
P-SANR-FIXT
100
AcDbSpline
210
0.0
220
0.0
230
1.0
 70
     8
 71
     3
 72
     9
 73
     5
 74
     0
 42
0.000000001
 43
0.0000000001
 40
0.0
 40
0.0
 40
0.0
 40
0.0
 40
0.5
 40
1.0
 40
1.0
 40
1.0
 40
1.0
 10
608.2787092593154
 20
1999.999999999994
 30
0.0
 10
608.2692231482011
 20
2001.899975370197
 30
0.0
 10
608.0416818163045
 20
2005.676339115266
 30
0.0
 10
607.3970022650713
 20
2009.405528869663
 30
0.0
 10
606.9703779346208
 20
2011.258330249194
 30
0.0
  0
SPLINE
  5
F0
330
87
100
AcDbEntity
  8
P-SANR-FIXT
100
AcDbSpline
210
0.0
220
0.0
230
1.0
 70
     8
 71
     3
 72
     9
 73
     5
 74
     0
 42
0.000000001
 43
0.0000000001
 40
0.0
 40
0.0
 40
0.0
 40
0.0
 40
0.5
 40
1.0
 40
1.0
 40
1.0
 40
1.0
 10
591.5790024705801
 20
1988.741669750821
 30
0.0
 10
591.7247940408564
 20
1988.096002093048
 30
0.0
 10
591.944263456252
 20
1986.79558366796
 30
0.0
 10
592.019505421334
 20
1985.566129759442
 30
0.0
 10
592.0210695412964
 20
1984.991669750832
 30
0.0
  0
SPLINE
  5
F1
330
87
100
AcDbEntity
  8
P-SANR-FIXT
100
AcDbSpline
210
0.0
220
0.0
230
1.0
 70
     8
 71
     3
 72
     9
 73
     5
 74
     0
 42
0.000000001
 43
0.0000000001
 40
0.0
 40
0.0
 40
0.0
 40
0.0
 40
0.5
 40
1.0
 40
1.0
 40
1.0
 40
1.0
 10
592.0210695412966
 20
1984.991669750832
 30
0.0
 10
592.019505421334
 20
1984.417209742218
 30
0.0
 10
591.9442634562509
 20
1983.364759958999
 30
0.0
 10
591.7247940408524
 20
1982.569313051326
 30
0.0
 10
591.5790024705741
 20
1982.246479222437
 30
0.0
  0
SPLINE
  5
F2
330
87
100
AcDbEntity
  8
P-SANR-FIXT
100
AcDbSpline
210
0.0
220
0.0
230
1.0
 70
     8
 71
     3
 72
     9
 73
     5
 74
     0
 42
0.000000001
 43
0.0000000001
 40
0.0
 40
0.0
 40
0.0
 40
0.0
 40
0.5
 40
1.0
 40
1.0
 40
1.0
 40
1.0
 10
606.9703779346324
 20
1982.246479222437
 30
0.0
 10
606.8241838575642
 20
1982.569290554613
 30
0.0
 10
606.6041059256867
 20
1983.364695413763
 30
0.0
 10
606.5286484383269
 20
1984.417170776768
 30
0.0
 10
606.5270748057763
 20
1984.991669750832
 30
0.0
  0
SPLINE
  5
F3
330
87
100
AcDbEntity
  8
P-SANR-FIXT
100
AcDbSpline
210
0.0
220
0.0
230
1.0
 70
     8
 71
     3
 72
     9
 73
     5
 74
     0
 42
0.000000001
 43
0.0000000001
 40
0.0
 40
0.0
 40
0.0
 40
0.0
 40
0.5
 40
1.0
 40
1.0
 40
1.0
 40
1.0
 10
606.5270748057763
 20
1984.991669750832
 30
0.0
 10
606.5286484383269
 20
1985.566168724891
 30
0.0
 10
606.6041059256855
 20
1986.795672131112
 30
0.0
 10
606.8241838575601
 20
1988.096047086473
 30
0.0
 10
606.9703779346264
 20
1988.741669750821
 30
0.0
  0
SPLINE
  5
F4
330
87
100
AcDbEntity
  8
P-SANR-FIXT
100
AcDbSpline
210
0.0
220
0.0
230
1.0
 70
     8
 71
     3
 72
     9
 73
     5
 74
     0
 42
0.000000001
 43
0.0000000001
 40
0.0
 40
0.0
 40
0.0
 40
0.0
 40
0.5
 40
1.0
 40
1.0
 40
1.0
 40
1.0
 10
591.5790024705741
 20
1982.246479222437
 30
0.0
 10
590.7092399303143
 20
1980.349858149513
 30
0.0
 10
589.8394773900502
 20
1976.576848701725
 30
0.0
 10
590.7092399302974
 20
1972.844304650055
 30
0.0
 10
591.5790024705485
 20
1970.98814897325
 30
0.0
  0
SPLINE
  5
F5
330
87
100
AcDbEntity
  8
P-SANR-FIXT
100
AcDbSpline
210
0.0
220
0.0
230
1.0
 70
     8
 71
     3
 72
     9
 73
     5
 74
     0
 42
0.000000001
 43
0.0000000001
 40
0.0
 40
0.0
 40
0.0
 40
0.0
 40
0.5
 40
1.0
 40
1.0
 40
1.0
 40
1.0
 10
606.9703779346581
 20
1970.98814897325
 30
0.0
 10
607.3970022651081
 20
1971.91454966301
 30
0.0
 10
608.0416818163343
 20
1973.779144540197
 30
0.0
 10
608.2692231482131
 20
1975.66732641272
 30
0.0
 10
608.2787092593154
 20
1976.617314097815
 30
0.0
  0
SPLINE
  5
F6
330
87
100
AcDbEntity
  8
P-SANR-FIXT
100
AcDbSpline
210
0.0
220
0.0
230
1.0
 70
     8
 71
     3
 72
     9
 73
     5
 74
     0
 42
0.000000001
 43
0.0000000001
 40
0.0
 40
0.0
 40
0.0
 40
0.0
 40
0.5
 40
1.0
 40
1.0
 40
1.0
 40
1.0
 10
608.2787092593154
 20
1976.617314097815
 30
0.0
 10
608.2692231482126
 20
1977.56730178292
 30
0.0
 10
608.0416818163293
 20
1979.455483655463
 30
0.0
 10
607.3970022650906
 20
1981.320078532668
 30
0.0
 10
606.9703779346324
 20
1982.246479222437
 30
0.0
  0
LINE
  5
F7
330
87
100
AcDbEntity
  8
P-SANR-FIXT
100
AcDbLine
 10
702.5303437129478
 20
1969.983339501635
 30
0.0
 11
717.0363489774419
 21
1969.983339501635
 31
0.0
  0
LINE
  5
F8
330
87
100
AcDbEntity
  8
P-SANR-FIXT
100
AcDbLine
 10
717.036348977442
 20
2030.016660498381
 30
0.0
 11
702.5303437129623
 21
2030.016660498381
 31
0.0
  0
LINE
  5
F9
330
87
100
AcDbEntity
  8
P-SANR-FIXT
100
AcDbLine
 10
700.7787092594232
 20
1973.000000000101
 30
0.0
 11
702.3799465868328
 21
1970.2423530581
 31
0.0
  0
LINE
  5
FA
330
87
100
AcDbEntity
  8
P-SANR-FIXT
100
AcDbLine
 10
702.4032635745635
 20
1970.202196599833
 30
0.0
 11
702.5303437129623
 21
1969.98333950161
 31
0.0
  0
LINE
  5
FB
330
87
100
AcDbEntity
  8
P-SANR-FIXT
100
AcDbLine
 10
702.5303437129625
 20
2030.016660498382
 30
0.0
 11
702.4032635745781
 21
2029.797803400183
 31
0.0
  0
LINE
  5
FC
330
87
100
AcDbEntity
  8
P-SANR-FIXT
100
AcDbLine
 10
702.3799465868474
 20
2029.757646941916
 30
0.0
 11
700.7787092594233
 21
2026.99999999989
 31
0.0
  0
LINE
  5
FD
330
87
100
AcDbEntity
  8
P-SANR-FIXT
100
AcDbLine
 10
720.7787092594359
 20
2023.553555913807
 30
0.0
 11
717.1863165713647
 21
2029.757664525043
 31
0.0
  0
LINE
  5
FE
330
87
100
AcDbEntity
  8
P-SANR-FIXT
100
AcDbLine
 10
717.1632584669034
 20
2029.79748616952
 30
0.0
 11
717.0363489774423
 21
2030.016660498381
 31
0.0
  0
LINE
  5
FF
330
87
100
AcDbEntity
  8
P-SANR-FIXT
100
AcDbLine
 10
717.0363489774563
 20
1969.983339501635
 30
0.0
 11
717.1632584669175
 21
1970.202513830496
 31
0.0
  0
LINE
  5
100
330
87
100
AcDbEntity
  8
P-SANR-FIXT
100
AcDbLine
 10
717.1863165713785
 20
1970.242335474973
 30
0.0
 11
720.7787092594358
 21
1976.446444086185
 31
0.0
  0
LINE
  5
101
330
87
100
AcDbEntity
  8
P-SANR-FIXT
100
AcDbLine
 10
720.7787092594344
 20
2023.553555913806
 30
0.0
 11
720.7787092594343
 21
1976.446444086184
 31
0.0
  0
LINE
  5
102
330
87
100
AcDbEntity
  8
P-SANR-FIXT
100
AcDbLine
 10
700.7787092594217
 20
1973.0000000001
 30
0.0
 11
700.7787092594217
 21
1976.617314097906
 31
0.0
  0
LINE
  5
103
330
87
100
AcDbEntity
  8
P-SANR-FIXT
100
AcDbLine
 10
700.7787092594217
 20
1976.617314097906
 30
0.0
 11
700.7787092594216
 21
1999.999999999994
 31
0.0
  0
LINE
  5
104
330
87
100
AcDbEntity
  8
P-SANR-FIXT
100
AcDbLine
 10
700.7787092594216
 20
1999.999999999994
 30
0.0
 11
700.7787092594218
 21
2023.382685902083
 31
0.0
  0
LINE
  5
105
330
87
100
AcDbEntity
  8
P-SANR-FIXT
100
AcDbLine
 10
700.7787092594218
 20
2023.382685902083
 30
0.0
 11
700.7787092594218
 21
2026.99999999989
 31
0.0
  0
SPLINE
  5
106
330
87
100
AcDbEntity
  8
P-SANR-FIXT
100
AcDbSpline
210
0.0
220
0.0
230
1.0
 70
     8
 71
     3
 72
     9
 73
     5
 74
     0
 42
0.000000001
 43
0.0000000001
 40
0.0
 40
0.0
 40
0.0
 40
0.0
 40
0.5
 40
1.0
 40
1.0
 40
1.0
 40
1.0
 10
702.0870405840789
 20
1970.988148973251
 30
0.0
 10
702.2332346611444
 20
1970.665337641072
 30
0.0
 10
702.4533125930211
 20
1970.160367544847
 30
0.0
 10
702.5287700803893
 20
1969.983339501629
 30
0.0
 10
702.5303437129463
 20
1969.983339501634
 30
0.0
  0
SPLINE
  5
107
330
87
100
AcDbEntity
  8
P-SANR-FIXT
100
AcDbSpline
210
0.0
220
0.0
230
1.0
 70
     8
 71
     3
 72
     9
 73
     5
 74
     0
 42
0.000000001
 43
0.0000000001
 40
0.0
 40
0.0
 40
0.0
 40
0.0
 40
0.5
 40
1.0
 40
1.0
 40
1.0
 40
1.0
 10
717.0363489774405
 20
1969.983339501634
 30
0.0
 10
717.0379130974193
 20
1969.983339501636
 30
0.0
 10
717.1131550625231
 20
1970.160343626944
 30
0.0
 10
717.3326244779181
 20
1970.665315144364
 30
0.0
 10
717.4784160481884
 20
1970.988148973251
 30
0.0
  0
SPLINE
  5
108
330
87
100
AcDbEntity
  8
P-SANR-FIXT
100
AcDbSpline
210
0.0
220
0.0
230
1.0
 70
     8
 71
     3
 72
     9
 73
     5
 74
     0
 42
0.000000001
 43
0.0000000001
 40
0.0
 40
0.0
 40
0.0
 40
0.0
 40
0.5
 40
1.0
 40
1.0
 40
1.0
 40
1.0
 10
702.5303437129609
 20
2030.016660498381
 30
0.0
 10
702.5287700804037
 20
2030.016660498386
 30
0.0
 10
702.4533125930355
 20
2029.839632455167
 30
0.0
 10
702.2332346611587
 20
2029.334662358943
 30
0.0
 10
702.0870405840932
 20
2029.011851026764
 30
0.0
  0
SPLINE
  5
109
330
87
100
AcDbEntity
  8
P-SANR-FIXT
100
AcDbSpline
210
0.0
220
0.0
230
1.0
 70
     8
 71
     3
 72
     9
 73
     5
 74
     0
 42
0.000000001
 43
0.0000000001
 40
0.0
 40
0.0
 40
0.0
 40
0.0
 40
0.5
 40
1.0
 40
1.0
 40
1.0
 40
1.0
 10
717.4784160481744
 20
2029.011851026764
 30
0.0
 10
717.3326244779017
 20
2029.334684855651
 30
0.0
 10
717.1131550625066
 20
2029.83965637307
 30
0.0
 10
717.0379130974124
 20
2030.016660498379
 30
0.0
 10
717.0363489774406
 20
2030.016660498381
 30
0.0
  0
SPLINE
  5
10A
330
87
100
AcDbEntity
  8
P-SANR-FIXT
100
AcDbSpline
210
0.0
220
0.0
230
1.0
 70
     8
 71
     3
 72
     9
 73
     5
 74
     0
 42
0.000000001
 43
0.0000000001
 40
0.0
 40
0.0
 40
0.0
 40
0.0
 40
0.5
 40
1.0
 40
1.0
 40
1.0
 40
1.0
 10
702.0870405840932
 20
2029.011851026764
 30
0.0
 10
701.6604162536448
 20
2028.085450337004
 30
0.0
 10
701.0157367024175
 20
2026.220855459815
 30
0.0
 10
700.7881953705304
 20
2024.33267358729
 30
0.0
 10
700.7787092594217
 20
2023.382685902193
 30
0.0
  0
SPLINE
  5
10B
330
87
100
AcDbEntity
  8
P-SANR-FIXT
100
AcDbSpline
210
0.0
220
0.0
230
1.0
 70
     8
 71
     3
 72
     9
 73
     5
 74
     0
 42
0.000000001
 43
0.0000000001
 40
0.0
 40
0.0
 40
0.0
 40
0.0
 40
0.5
 40
1.0
 40
1.0
 40
1.0
 40
1.0
 10
700.7787092594217
 20
2023.382685902193
 30
0.0
 10
700.7881953705306
 20
2022.432698217089
 30
0.0
 10
701.0157367024213
 20
2020.544516344549
 30
0.0
 10
701.6604162536583
 20
2018.679921467345
 30
0.0
 10
702.0870405841133
 20
2017.753520777578
 30
0.0
  0
SPLINE
  5
10C
330
87
100
AcDbEntity
  8
P-SANR-FIXT
100
AcDbSpline
210
0.0
220
0.0
230
1.0
 70
     8
 71
     3
 72
     9
 73
     5
 74
     0
 42
0.000000001
 43
0.0000000001
 40
0.0
 40
0.0
 40
0.0
 40
0.0
 40
0.5
 40
1.0
 40
1.0
 40
1.0
 40
1.0
 10
717.4784160481542
 20
2017.753520777578
 30
0.0
 10
718.3481785884123
 20
2019.609676454382
 30
0.0
 10
719.217941128674
 20
2023.342220506051
 30
0.0
 10
718.348178588426
 20
2027.11522995384
 30
0.0
 10
717.4784160481744
 20
2029.011851026764
 30
0.0
  0
SPLINE
  5
10D
330
87
100
AcDbEntity
  8
P-SANR-FIXT
100
AcDbSpline
210
0.0
220
0.0
230
1.0
 70
     8
 71
     3
 72
     9
 73
     5
 74
     0
 42
0.000000001
 43
0.0000000001
 40
0.0
 40
0.0
 40
0.0
 40
0.0
 40
0.5
 40
1.0
 40
1.0
 40
1.0
 40
1.0
 10
702.0870405841133
 20
2017.753520777578
 30
0.0
 10
702.2332346611822
 20
2017.430709445402
 30
0.0
 10
702.4533125930589
 20
2016.635304586255
 30
0.0
 10
702.5287700804137
 20
2015.582829223251
 30
0.0
 10
702.5303437129606
 20
2015.008330249189
 30
0.0
  0
SPLINE
  5
10E
330
87
100
AcDbEntity
  8
P-SANR-FIXT
100
AcDbSpline
210
0.0
220
0.0
230
1.0
 70
     8
 71
     3
 72
     9
 73
     5
 74
     0
 42
0.000000001
 43
0.0000000001
 40
0.0
 40
0.0
 40
0.0
 40
0.0
 40
0.5
 40
1.0
 40
1.0
 40
1.0
 40
1.0
 10
702.5303437129606
 20
2015.008330249189
 30
0.0
 10
702.5287700804137
 20
2014.433831275129
 30
0.0
 10
702.4533125930595
 20
2013.204327868905
 30
0.0
 10
702.233234661184
 20
2011.903952913542
 30
0.0
 10
702.087040584116
 20
2011.258330249194
 30
0.0
  0
SPLINE
  5
10F
330
87
100
AcDbEntity
  8
P-SANR-FIXT
100
AcDbSpline
210
0.0
220
0.0
230
1.0
 70
     8
 71
     3
 72
     9
 73
     5
 74
     0
 42
0.000000001
 43
0.0000000001
 40
0.0
 40
0.0
 40
0.0
 40
0.0
 40
0.5
 40
1.0
 40
1.0
 40
1.0
 40
1.0
 10
717.4784160481514
 20
2011.258330249194
 30
0.0
 10
717.3326244778734
 20
2011.903997906968
 30
0.0
 10
717.113155062477
 20
2013.204416332057
 30
0.0
 10
717.0379130973994
 20
2014.433870240578
 30
0.0
 10
717.0363489774405
 20
2015.008330249189
 30
0.0
  0
SPLINE
  5
110
330
87
100
AcDbEntity
  8
P-SANR-FIXT
100
AcDbSpline
210
0.0
220
0.0
230
1.0
 70
     8
 71
     3
 72
     9
 73
     5
 74
     0
 42
0.000000001
 43
0.0000000001
 40
0.0
 40
0.0
 40
0.0
 40
0.0
 40
0.5
 40
1.0
 40
1.0
 40
1.0
 40
1.0
 10
717.0363489774405
 20
2015.008330249189
 30
0.0
 10
717.0379130973994
 20
2015.582790257802
 30
0.0
 10
717.1131550624774
 20
2016.635240041018
 30
0.0
 10
717.3326244778752
 20
2017.43068694869
 30
0.0
 10
717.4784160481542
 20
2017.753520777578
 30
0.0
  0
SPLINE
  5
111
330
87
100
AcDbEntity
  8
P-SANR-FIXT
100
AcDbSpline
210
0.0
220
0.0
230
1.0
 70
     8
 71
     3
 72
     9
 73
     5
 74
     0
 42
0.000000001
 43
0.0000000001
 40
0.0
 40
0.0
 40
0.0
 40
0.0
 40
0.5
 40
1.0
 40
1.0
 40
1.0
 40
1.0
 10
702.087040584116
 20
2011.258330249194
 30
0.0
 10
701.6604162536655
 20
2009.405528869664
 30
0.0
 10
701.0157367024325
 20
2005.676339115267
 30
0.0
 10
700.7881953705357
 20
2001.899975370198
 30
0.0
 10
700.7787092594216
 20
1999.999999999995
 30
0.0
  0
SPLINE
  5
112
330
87
100
AcDbEntity
  8
P-SANR-FIXT
100
AcDbSpline
210
0.0
220
0.0
230
1.0
 70
     8
 71
     3
 72
     9
 73
     5
 74
     0
 42
0.000000001
 43
0.0000000001
 40
0.0
 40
0.0
 40
0.0
 40
0.0
 40
0.5
 40
1.0
 40
1.0
 40
1.0
 40
1.0
 10
700.7787092594216
 20
1999.999999999995
 30
0.0
 10
700.7881953705356
 20
1998.100024629797
 30
0.0
 10
701.0157367024313
 20
1994.323660884736
 30
0.0
 10
701.6604162536618
 20
1990.594471130347
 30
0.0
 10
702.0870405841105
 20
1988.741669750821
 30
0.0
  0
SPLINE
  5
113
330
87
100
AcDbEntity
  8
P-SANR-FIXT
100
AcDbSpline
210
0.0
220
0.0
230
1.0
 70
     8
 71
     3
 72
     9
 73
     5
 74
     0
 42
0.000000001
 43
0.0000000001
 40
0.0
 40
0.0
 40
0.0
 40
0.0
 40
0.5
 40
1.0
 40
1.0
 40
1.0
 40
1.0
 10
717.4784160481567
 20
1988.741669750821
 30
0.0
 10
718.3481785884102
 20
1992.453981104431
 30
0.0
 10
719.2179411286628
 20
1999.919069207769
 30
0.0
 10
718.3481785884066
 20
2007.465088103346
 30
0.0
 10
717.4784160481514
 20
2011.258330249194
 30
0.0
  0
SPLINE
  5
114
330
87
100
AcDbEntity
  8
P-SANR-FIXT
100
AcDbSpline
210
0.0
220
0.0
230
1.0
 70
     8
 71
     3
 72
     9
 73
     5
 74
     0
 42
0.000000001
 43
0.0000000001
 40
0.0
 40
0.0
 40
0.0
 40
0.0
 40
0.5
 40
1.0
 40
1.0
 40
1.0
 40
1.0
 10
702.0870405841105
 20
1988.741669750821
 30
0.0
 10
702.2332346611768
 20
1988.096047086473
 30
0.0
 10
702.4533125930513
 20
1986.795672131113
 30
0.0
 10
702.5287700804101
 20
1985.566168724892
 30
0.0
 10
702.5303437129605
 20
1984.991669750832
 30
0.0
  0
SPLINE
  5
115
330
87
100
AcDbEntity
  8
P-SANR-FIXT
100
AcDbSpline
210
0.0
220
0.0
230
1.0
 70
     8
 71
     3
 72
     9
 73
     5
 74
     0
 42
0.000000001
 43
0.0000000001
 40
0.0
 40
0.0
 40
0.0
 40
0.0
 40
0.5
 40
1.0
 40
1.0
 40
1.0
 40
1.0
 10
702.5303437129605
 20
1984.991669750832
 30
0.0
 10
702.5287700804101
 20
1984.417170776769
 30
0.0
 10
702.4533125930503
 20
1983.364695413763
 30
0.0
 10
702.2332346611728
 20
1982.569290554613
 30
0.0
 10
702.0870405841045
 20
1982.246479222437
 30
0.0
  0
SPLINE
  5
116
330
87
100
AcDbEntity
  8
P-SANR-FIXT
100
AcDbSpline
210
0.0
220
0.0
230
1.0
 70
     8
 71
     3
 72
     9
 73
     5
 74
     0
 42
0.000000001
 43
0.0000000001
 40
0.0
 40
0.0
 40
0.0
 40
0.0
 40
0.5
 40
1.0
 40
1.0
 40
1.0
 40
1.0
 10
717.4784160481627
 20
1982.246479222437
 30
0.0
 10
717.3326244778845
 20
1982.569313051326
 30
0.0
 10
717.1131550624859
 20
1983.364759959
 30
0.0
 10
717.037913097403
 20
1984.417209742218
 30
0.0
 10
717.0363489774404
 20
1984.991669750832
 30
0.0
  0
SPLINE
  5
117
330
87
100
AcDbEntity
  8
P-SANR-FIXT
100
AcDbSpline
210
0.0
220
0.0
230
1.0
 70
     8
 71
     3
 72
     9
 73
     5
 74
     0
 42
0.000000001
 43
0.0000000001
 40
0.0
 40
0.0
 40
0.0
 40
0.0
 40
0.5
 40
1.0
 40
1.0
 40
1.0
 40
1.0
 10
717.0363489774404
 20
1984.991669750832
 30
0.0
 10
717.037913097403
 20
1985.566129759442
 30
0.0
 10
717.1131550624849
 20
1986.795583667961
 30
0.0
 10
717.3326244778806
 20
1988.096002093048
 30
0.0
 10
717.4784160481567
 20
1988.741669750821
 30
0.0
  0
SPLINE
  5
118
330
87
100
AcDbEntity
  8
P-SANR-FIXT
100
AcDbSpline
210
0.0
220
0.0
230
1.0
 70
     8
 71
     3
 72
     9
 73
     5
 74
     0
 42
0.000000001
 43
0.0000000001
 40
0.0
 40
0.0
 40
0.0
 40
0.0
 40
0.5
 40
1.0
 40
1.0
 40
1.0
 40
1.0
 10
717.4784160481884
 20
1970.988148973251
 30
0.0
 10
718.3481785884397
 20
1972.884770046175
 30
0.0
 10
719.2179411286867
 20
1976.657779493964
 30
0.0
 10
718.3481785884225
 20
1980.390323545633
 30
0.0
 10
717.4784160481627
 20
1982.246479222437
 30
0.0
  0
SPLINE
  5
119
330
87
100
AcDbEntity
  8
P-SANR-FIXT
100
AcDbSpline
210
0.0
220
0.0
230
1.0
 70
     8
 71
     3
 72
     9
 73
     5
 74
     0
 42
0.000000001
 43
0.0000000001
 40
0.0
 40
0.0
 40
0.0
 40
0.0
 40
0.5
 40
1.0
 40
1.0
 40
1.0
 40
1.0
 10
702.0870405841045
 20
1982.246479222437
 30
0.0
 10
701.6604162536463
 20
1981.320078532669
 30
0.0
 10
701.0157367024076
 20
1979.455483655463
 30
0.0
 10
700.7881953705243
 20
1977.567301782921
 30
0.0
 10
700.7787092594217
 20
1976.617314097816
 30
0.0
  0
SPLINE
  5
11A
330
87
100
AcDbEntity
  8
P-SANR-FIXT
100
AcDbSpline
210
0.0
220
0.0
230
1.0
 70
     8
 71
     3
 72
     9
 73
     5
 74
     0
 42
0.000000001
 43
0.0000000001
 40
0.0
 40
0.0
 40
0.0
 40
0.0
 40
0.5
 40
1.0
 40
1.0
 40
1.0
 40
1.0
 10
700.7787092594217
 20
1976.617314097816
 30
0.0
 10
700.788195370524
 20
1975.66732641272
 30
0.0
 10
701.0157367024027
 20
1973.779144540197
 30
0.0
 10
701.6604162536289
 20
1971.91454966301
 30
0.0
 10
702.0870405840789
 20
1970.988148973251
 30
0.0
  0
LINE
  5
11B
330
87
100
AcDbEntity
  8
P-SANR-FIXT
100
AcDbLine
 10
753.6787092594103
 20
2020.949999999951
 30
0.0
 11
720.7787092594359
 21
2020.949999999951
 31
0.0
  0
LINE
  5
11C
330
87
100
AcDbEntity
  8
P-SANR-FIXT
100
AcDbLine
 10
720.7787092594358
 20
1979.050000000042
 30
0.0
 11
753.6787092594103
 21
1979.050000000042
 31
0.0
  0
LINE
  5
11D
330
87
100
AcDbEntity
  8
P-SANR-FIXT
100
AcDbLine
 10
754.2787092594102
 20
2020.34999999995
 30
0.0
 11
753.7432911177011
 21
2020.885418141659
 31
0.0
  0
LINE
  5
11E
330
87
100
AcDbEntity
  8
P-SANR-FIXT
100
AcDbLine
 10
753.7273446085882
 20
2020.901364650772
 30
0.0
 11
753.6787092594103
 21
2020.949999999951
 31
0.0
  0
LINE
  5
11F
330
87
100
AcDbEntity
  8
P-SANR-FIXT
100
AcDbLine
 10
753.6787092594103
 20
1979.050000000043
 30
0.0
 11
753.7273446085882
 21
1979.09863534922
 31
0.0
  0
LINE
  5
120
330
87
100
AcDbEntity
  8
P-SANR-FIXT
100
AcDbLine
 10
753.7432911177011
 20
1979.114581858333
 30
0.0
 11
754.2787092594102
 21
1979.650000000043
 31
0.0
  0
LINE
  5
121
330
87
100
AcDbEntity
  8
P-SANR-FIXT
100
AcDbLine
 10
753.6787092594087
 20
1979.050000000041
 30
0.0
 11
753.6787092594087
 21
2020.949999999949
 31
0.0
  0
LINE
  5
122
330
87
100
AcDbEntity
  8
P-SANR-FIXT
100
AcDbLine
 10
754.2787092594087
 20
2020.349999999949
 30
0.0
 11
754.2787092594087
 21
1979.650000000042
 31
0.0
  0
LINE
  5
123
330
87
100
AcDbEntity
  8
P-SANR-FIXT
100
AcDbLine
 10
588.278709259304
 20
2020.94999999995
 30
0.0
 11
554.8787092593387
 21
2020.94999999995
 31
0.0
  0
LINE
  5
124
330
87
100
AcDbEntity
  8
P-SANR-FIXT
100
AcDbLine
 10
554.8787092593387
 20
1979.050000000042
 30
0.0
 11
588.2787092593041
 21
1979.050000000042
 31
0.0
  0
LINE
  5
125
330
87
100
AcDbEntity
  8
P-SANR-FIXT
100
AcDbLine
 10
554.8787092593387
 20
2020.94999999995
 30
0.0
 11
554.8300739101606
 21
2020.901364650772
 31
0.0
  0
LINE
  5
126
330
87
100
AcDbEntity
  8
P-SANR-FIXT
100
AcDbLine
 10
554.814127401048
 20
2020.885418141659
 30
0.0
 11
554.2787092593386
 21
2020.349999999949
 31
0.0
  0
LINE
  5
127
330
87
100
AcDbEntity
  8
P-SANR-FIXT
100
AcDbLine
 10
554.2787092593386
 20
1979.650000000042
 30
0.0
 11
554.8141274010479
 21
1979.114581858333
 31
0.0
  0
LINE
  5
128
330
87
100
AcDbEntity
  8
P-SANR-FIXT
100
AcDbLine
 10
554.8300739101606
 20
1979.09863534922
 30
0.0
 11
554.8787092593387
 21
1979.050000000042
 31
0.0
  0
LINE
  5
129
330
87
100
AcDbEntity
  8
P-SANR-FIXT
100
AcDbLine
 10
554.2787092593374
 20
1979.650000000041
 30
0.0
 11
554.2787092593374
 21
2020.349999999949
 31
0.0
  0
LINE
  5
12A
330
87
100
AcDbEntity
  8
P-SANR-FIXT
100
AcDbLine
 10
554.8787092593373
 20
2020.949999999949
 30
0.0
 11
554.8787092593373
 21
1979.050000000041
 31
0.0
  0
LINE
  5
12B
330
87
100
AcDbEntity
  8
P-SANR-FIXT
100
AcDbLine
 10
693.9710819878574
 20
2021.978665097603
 30
0.0
 11
701.9629938093836
 21
2049.849773817896
 31
0.0
  0
LINE
  5
12C
330
87
100
AcDbEntity
  8
P-SANR-FIXT
100
AcDbLine
 10
704.4367919128943
 20
2051.221022498138
 30
0.0
 11
705.6135506397733
 21
2051.873310511824
 31
0.0
  0
LINE
  5
12D
330
87
100
AcDbEntity
  8
P-SANR-FIXT
100
AcDbLine
 10
705.6165524798847
 20
2051.874974458968
 30
0.0
 11
705.6736909646495
 21
2051.90664683826
 31
0.0
  0
LINE
  5
12E
330
87
100
AcDbEntity
  8
P-SANR-FIXT
100
AcDbLine
 10
705.6736909646495
 20
2051.90664683826
 30
0.0
 11
708.2371183737478
 21
2060.846380610486
 31
0.0
  0
LINE
  5
12F
330
87
100
AcDbEntity
  8
P-SANR-FIXT
100
AcDbLine
 10
690.934407846858
 20
2065.807853015192
 30
0.0
 11
688.4235758150757
 21
2057.051541121497
 31
0.0
  0
LINE
  5
130
330
87
100
AcDbEntity
  8
P-SANR-FIXT
100
AcDbLine
 10
708.2371183737478
 20
2060.846380610486
 30
0.0
 11
707.7571813356628
 21
2061.712209946715
 31
0.0
  0
LINE
  5
131
330
87
100
AcDbEntity
  8
P-SANR-FIXT
100
AcDbLine
 10
691.8002371830866
 20
2066.287790053277
 30
0.0
 11
690.934407846858
 21
2065.807853015192
 31
0.0
  0
LWPOLYLINE
  5
132
330
87
100
AcDbEntity
  8
P-SANR-FIXT
100
AcDbPolyline
 90
       41
 70
   128
 43
0.0
 10
704.4367919128943
 20
2051.221022498138
 10
704.359470521525
 20
2051.241529793156
 10
704.2813909059479
 20
2051.258928653564
 10
704.2026779768922
 20
2051.2731912449
 10
704.1234576582525
 20
2051.284294750059
 10
704.0438566856399
 20
2051.292221405803
 10
703.9640024036292
 20
2051.296958531171
 10
703.8840225620376
 20
2051.298498547775
 10
703.8040451115497
 20
2051.296838991916
 10
703.7241979990256
 20
2051.29198251853
 10
703.6446089628123
 20
2051.283936896938
 10
703.5654053283893
 20
2051.272714998419
 10
703.4867138046761
 20
2051.258334775616
 10
703.4086602813239
 20
2051.240819233818
 10
703.3313696273197
 20
2051.220196394154
 10
703.2549654912219
 20
2051.196499248772
 10
703.1795701033494
 20
2051.169765708046
 10
703.1053040802397
 20
2051.140038539939
 10
703.0322862316869
 20
2051.107365301579
 10
702.9606333706728
 20
2051.071798263177
 10
702.8904601264896
 20
2051.033394324409
 10
702.8218787613584
 20
2050.992214923382
 10
702.7549989908335
 20
2050.948325938355
 10
702.689927808281
 20
2050.901797582341
 10
702.6267693137119
 20
2050.852704290783
 10
702.5656245472442
 20
2050.801124602477
 10
702.506591327461
 20
2050.747141033919
 10
702.4497640949206
 20
2050.690839947304
 10
702.3952337610726
 20
2050.632311412361
 10
702.3430875628187
 20
2050.57164906226
 10
702.2934089229525
 20
2050.50894994382
 10
702.2462773166997
 20
2050.444314362255
 10
702.2017681445764
 20
2050.377845720708
 10
702.1599526117629
 20
2050.309650354826
 10
702.1208976141921
 20
2050.239837362648
 10
702.0846656315284
 20
2050.168518430067
 10
702.0513146272151
 20
2050.095807652162
 10
702.0208979557446
 20
2050.021821350668
 10
701.9934642773029
 20
2049.946677887883
 10
701.9690574799227
 20
2049.870497477318
 10
701.9629938093835
 20
2049.849773817896
  0
LWPOLYLINE
  5
133
330
87
100
AcDbEntity
  8
P-SANR-FIXT
100
AcDbPolyline
 90
       38
 70
   128
 43
0.0
 10
656.1874609302633
 20
1960.579823178237
 10
655.9603533589848
 20
1960.502270154586
 10
655.7303261557597
 20
1960.433861045646
 10
655.4977473150434
 20
1960.374705291398
 10
655.2629889133668
 20
1960.32489752843
 10
655.0264265140937
 20
1960.284517438537
 10
654.7884385665987
 20
1960.25362962125
 10
654.54940580083
 20
1960.232283490487
 10
654.3097106182216
 20
1960.220513195504
 10
654.0697364799338
 20
1960.218337566262
 10
653.8298672933962
 20
1960.225760083303
 10
653.590486798137
 20
1960.242768872184
 10
653.3519779518846
 20
1960.26933672247
 10
653.114722317913
 20
1960.305421131269
 10
652.8790994546251
 20
1960.350964371225
 10
652.6454863083389
 20
1960.405893582868
 10
652.4142566102531
 20
1960.470120891178
 10
652.1857802785586
 20
1960.543543546162
 10
651.9604228266469
 20
1960.626044087237
 10
651.7385447783674
 20
1960.717490531133
 10
651.520501091266
 20
1960.817736583049
 10
651.3066405887285
 20
1960.926621870687
 10
651.0973054019379
 20
1961.043972200814
 10
650.8928304225371
 20
1961.169599837935
 10
650.6935427668743
 20
1961.303303804631
 10
650.499761252686
 20
1961.444870203075
 10
650.3117958890571
 20
1961.59407255723
 10
650.1299473804724
 20
1961.750672175158
 10
649.9545066457533
 20
1961.914418530875
 10
649.7857543526499
 20
1962.085049665144
 10
649.6239604688325
 20
1962.262292604549
 10
649.4693838300012
 20
1962.445863798197
 10
649.3222717258033
 20
1962.635469571337
 10
649.1828595042236
 20
1962.83080659518
 10
649.0513701950768
 20
1963.031562372157
 10
648.9280141532081
 20
1963.237415735851
 10
648.8129887219696
 20
1963.448037364792
 10
648.746689368115
 20
1963.579334628
  0
LWPOLYLINE
  5
134
330
87
100
AcDbEntity
  8
P-SANR-FIXT
100
AcDbPolyline
 90
       25
 70
   128
 43
0.0
 10
697.3510275025331
 20
1978.029616379462
 10
697.3410956826305
 20
1977.99718994708
 10
697.2616944376002
 20
1977.770721930139
 10
697.1733003998847
 20
1977.547610266379
 10
697.0760549810883
 20
1977.328211886866
 10
696.9701137531359
 20
1977.112877782207
 10
696.8556461993935
 20
1976.901952441032
 10
696.7328354435282
 20
1976.695773298892
 10
696.6018779565509
 20
1976.494670198433
 10
696.4629832425051
 20
1976.298964861716
 10
696.3163735033035
 20
1976.108970375531
 10
696.1622832832544
 20
1975.924990690525
 10
696.0009590938384
 20
1975.747320134948
 10
695.8326590193449
 20
1975.576242943789
 10
695.657652303991
 20
1975.412032804057
 10
695.4762189211885
 20
1975.254952416948
 10
695.2886491256459
 20
1975.105253077571
 10
695.0952429890237
 20
1974.963174272937
 10
694.8963099198825
 20
1974.828943298822
 10
694.6921681686963
 20
1974.702774896153
 10
694.4831443187187
 20
1974.584870907458
 10
694.2695727635205
 20
1974.475419953968
 10
694.0517951720309
 20
1974.37459713386
 10
693.830159941939
 20
1974.282563742139
 10
693.6925704100644
 20
1974.23056666178
  0
LWPOLYLINE
  5
135
330
87
100
AcDbEntity
  8
P-SANR-FIXT
100
AcDbPolyline
 90
        4
 70
   128
 43
0.0
 10
693.6925704100644
 20
1974.23056666178
 10
693.6775703664384
 20
1974.225107092388
 10
693.6325942324302
 20
1974.208737118356
 10
693.5577139602595
 20
1974.181482928153
  0
LWPOLYLINE
  5
136
330
87
100
AcDbEntity
  8
P-SANR-FIXT
100
AcDbPolyline
 90
        5
 70
   128
 43
0.0
 10
656.3289470618344
 20
1960.631319918691
 10
656.2841509147594
 20
1960.615015454546
 10
656.2230200478485
 20
1960.592765638595
 10
656.1918323811872
 20
1960.581414256254
 10
656.1874609302633
 20
1960.579823178237
  0
LWPOLYLINE
  5
137
330
87
100
AcDbEntity
  8
P-SANR-FIXT
100
AcDbPolyline
 90
       80
 70
   128
 43
0.0
 10
656.1874609302633
 20
1960.579823178237
 10
656.2024609738895
 20
1960.585282747629
 10
656.2474371078978
 20
1960.601652721661
 10
656.3223173800683
 20
1960.628906911865
 10
656.4269819979391
 20
1960.667001717351
 10
656.561263520449
 20
1960.715876194556
 10
656.7249471258072
 20
1960.775452154744
 10
656.9177709551621
 20
1960.845634289087
 10
657.1394265315205
 20
1960.926310321141
 10
657.3895592532443
 20
1961.017351186464
 10
657.6677689613376
 20
1961.118611239093
 10
657.9736105796155
 20
1961.229928484547
 10
658.3065948267314
 20
1961.351124838977
 10
658.6661889989231
 20
1961.48200641407
 10
659.0518178222242
 20
1961.622363827227
 10
659.4628643727806
 20
1961.771972536526
 10
659.8986710637966
 20
1961.930593199951
 10
660.3585406975338
 20
1962.097972058274
 10
660.8417375806783
 20
1962.273841341028
 10
661.3474887012938
 20
1962.45791969488
 10
661.8749849654752
 20
1962.649912633728
 10
662.423382491726
 20
1962.849513009828
 10
662.9918039609897
 20
1963.056401505158
 10
663.5793400201721
 20
1963.270247142259
 10
664.1850507369131
 20
1963.490707813729
 10
664.8079671032771
 20
1963.717430829522
 10
665.4470925859596
 20
1963.95005348118
 10
666.1014047205282
 20
1964.188203622082
 10
666.769856747146
 20
1964.431500262806
 10
667.4513792851667
 20
1964.679554180627
 10
668.1448820439125
 20
1964.931968542192
 10
668.8492555669093
 20
1965.188339538368
 10
669.5633730067785
 20
1965.448257030251
 10
670.2860919279531
 20
1965.711305205299
 10
671.0162561343312
 20
1965.977063242547
 10
671.7526975189425
 20
1966.245105985828
 10
672.4942379326709
 20
1966.51500462393
 10
673.2396910690411
 20
1966.786327376609
 10
673.9878643620565
 20
1967.05864018534
 10
674.7375608940504
 20
1967.331507407719
 10
675.4875813104976
 20
1967.604492514397
 10
676.2367257387283
 20
1967.877158787439
 10
676.983795707466
 20
1968.149070018974
 10
677.727596064127
 20
1968.419791209035
 10
678.4669368868098
 20
1968.68888926147
 10
679.200635387916
 20
1968.955933676798
 10
679.9275178063573
 20
1969.220497240922
 10
680.6464212853244
 20
1969.482156708577
 10
681.3561957326088
 20
1969.740493480431
 10
682.0557056605057
 20
1969.995094272759
 10
682.7438320023504
 20
1970.245551778605
 10
683.4194739027894
 20
1970.491465319388
 10
684.0815504789108
 20
1970.732441485901
 10
684.7290025494283
 20
1970.968094767683
 10
685.3607943291445
 20
1971.198048169754
 10
685.9759150859873
 20
1971.421933815724
 10
686.5733807579645
 20
1971.63939353632
 10
687.1522355274535
 20
1971.850079442377
 10
687.7115533503054
 20
1972.053654481389
 10
688.2504394373183
 20
1972.249792976722
 10
688.7680316857097
 20
1972.438181148624
 10
689.2635020582954
 20
1972.618517616206
 10
689.7360579081744
 20
1972.79051387959
 10
690.1849432467932
 20
1972.953894781445
 10
690.6094399533671
 20
1973.108398947183
 10
691.0088689237203
 20
1973.253779203095
 10
691.3825911567066
 20
1973.389802971786
 10
691.7300087764772
 20
1973.516252644241
 10
692.0505659889519
 20
1973.632925927962
 10
692.3437499709723
 20
1973.739636170581
 10
692.6090916907102
 20
1973.836212658474
 10
692.8461666580171
 20
1973.922500889863
 10
693.0545956035184
 20
1973.998362821985
 10
693.2340450853642
 20
1974.063677091932
 10
693.3842280226635
 20
1974.118339210804
 10
693.5049041547546
 20
1974.162261730871
 10
693.5958804255685
 20
1974.195374385472
 10
693.6570112924795
 20
1974.217624201422
 10
693.6881989591405
 20
1974.228975583763
 10
693.6925704100644
 20
1974.23056666178
  0
LWPOLYLINE
  5
138
330
87
100
AcDbEntity
  8
P-SANR-FIXT
100
AcDbPolyline
 90
        3
 70
   128
 43
0.0
 10
648.7466893681161
 20
1963.579334627998
 10
642.2662214641108
 20
1973.678064091111
 10
639.7037776402348
 20
1978.046183024355
  0
LINE
  5
139
330
87
100
AcDbEntity
  8
P-SANR-FIXT
100
AcDbLine
 10
615.1310032727452
 20
2030.614251460363
 30
0.0
 11
613.3146385116228
 21
2035.814691387205
 31
0.0
  0
LINE
  5
13A
330
87
100
AcDbEntity
  8
P-SANR-FIXT
100
AcDbLine
 10
678.1750166835672
 20
2059.421938425042
 30
0.0
 11
678.8415004495649
 21
2057.721585103609
 31
0.0
  0
LINE
  5
13B
330
87
100
AcDbEntity
  8
P-SANR-FIXT
100
AcDbLine
 10
678.0959051870943
 20
2060.202267979326
 30
0.0
 11
678.2560189446352
 21
2061.110318221539
 31
0.0
  0
LINE
  5
13C
330
87
100
AcDbEntity
  8
P-SANR-FIXT
100
AcDbLine
 10
612.1673175660183
 20
2037.055998098415
 30
0.0
 11
612.8736552649167
 21
2036.463310395782
 31
0.0
  0
LINE
  5
13D
330
87
100
AcDbEntity
  8
P-SANR-FIXT
100
AcDbLine
 10
678.1432311140697
 20
2062.39948902402
 30
0.0
 11
676.9016545507628
 21
2065.81069259623
 31
0.0
  0
LINE
  5
13E
330
87
100
AcDbEntity
  8
P-SANR-FIXT
100
AcDbLine
 10
610.1834784749627
 20
2041.527262420108
 30
0.0
 11
611.4250550382698
 21
2038.116058847897
 31
0.0
  0
LINE
  5
13F
330
87
100
AcDbEntity
  8
P-SANR-FIXT
100
AcDbLine
 10
670.7867503287634
 20
2086.996960468503
 30
0.0
 11
669.9469727025591
 21
2087.38855520675
 31
0.0
  0
LINE
  5
140
330
87
100
AcDbEntity
  8
P-SANR-FIXT
100
AcDbLine
 10
601.6581214593282
 20
2062.563769150125
 30
0.0
 11
601.249496390633
 21
2061.687469862414
 31
0.0
  0
LWPOLYLINE
  5
141
330
87
100
AcDbEntity
  8
P-SANR-FIXT
100
AcDbPolyline
 90
       15
 70
   128
 43
0.0
 10
613.3146385116222
 20
2035.814691387207
 10
613.2953310504074
 20
2035.86900921134
 10
613.2738668994804
 20
2035.922511494489
 10
613.2502803969041
 20
2035.975112644414
 10
613.2246092760514
 20
2036.026728510495
 10
613.1968946052389
 20
2036.077276518359
 10
613.1671807220283
 20
2036.126675801973
 10
613.1355151622937
 20
2036.174847333025
 10
613.1019485841761
 20
2036.22171404734
 10
613.0665346870398
 20
2036.267200968172
 10
613.0293301255655
 20
2036.311235326152
 10
612.9903944191153
 20
2036.3537466757
 10
612.9497898565134
 20
2036.394667007725
 10
612.9075813963984
 20
2036.433930858427
 10
612.8736552649167
 20
2036.463310395782
  0
LWPOLYLINE
  5
142
330
87
100
AcDbEntity
  8
P-SANR-FIXT
100
AcDbPolyline
 90
       15
 70
   128
 43
0.0
 10
678.0959051870943
 20
2060.202267979326
 10
678.087032204476
 20
2060.145307692664
 10
678.0804441232361
 20
2060.088038143489
 10
678.0761514828992
 20
2060.030550950862
 10
678.0741611507741
 20
2059.972938082028
 10
678.0744763109676
 20
2059.915291705288
 10
678.0770964592907
 20
2059.857704042548
 10
678.082017404065
 20
2059.800267221782
 10
678.0892312728286
 20
2059.743073129651
 10
678.0987265249304
 20
2059.686213264503
 10
678.1104879699925
 20
2059.629778589991
 10
678.1244967922114
 20
2059.573859389557
 10
678.1407305804608
 20
2059.518545121992
 10
678.159163364142
 20
2059.463924278325
 10
678.1750166835665
 20
2059.421938425043
  0
LWPOLYLINE
  5
143
330
87
100
AcDbEntity
  8
P-SANR-FIXT
100
AcDbPolyline
 90
       15
 70
   128
 43
0.0
 10
612.1673175660183
 20
2037.055998098415
 10
612.0920189517428
 20
2037.12179160437
 10
612.019411606824
 20
2037.190543623989
 10
611.9496116875252
 20
2037.262144168705
 10
611.8827308588276
 20
2037.336478692921
 10
611.8188761157898
 20
2037.413428277256
 10
611.7581496123793
 20
2037.492869818791
 10
611.700648498047
 20
2037.574676228004
 10
611.6464647623097
 20
2037.658716632092
 10
611.5956850875861
 20
2037.744856584336
 10
611.5483907105229
 20
2037.83295827919
 10
611.504657292035
 20
2037.922880772733
 10
611.4645547962624
 20
2038.014480208161
 10
611.4281473786435
 20
2038.107610045915
 10
611.4250550382701
 20
2038.116058847898
  0
LWPOLYLINE
  5
144
330
87
100
AcDbEntity
  8
P-SANR-FIXT
100
AcDbPolyline
 90
       15
 70
   128
 43
0.0
 10
678.1432311140695
 20
2062.39948902402
 10
678.1755448739243
 20
2062.30486086932
 10
678.204048669316
 20
2062.20901620131
 10
678.2286969002527
 20
2062.112108351012
 10
678.2494501348224
 20
2062.014292350313
 10
678.2662751722778
 20
2061.915724683949
 10
678.2791450961474
 20
2061.81656303916
 10
678.2880393172986
 20
2061.716966053422
 10
678.2929436068748
 20
2061.617093060669
 10
678.2938501190592
 20
2061.517103836382
 10
678.2907574036252
 20
2061.417158341992
 10
678.2836704082585
 20
2061.317416468967
 10
678.2726004706391
 20
2061.218037783029
 10
678.257565300306
 20
2061.119181268874
 10
678.2560189446352
 20
2061.110318221539
  0
LINE
  5
145
330
87
100
AcDbEntity
  8
P-SANR-FIXT
100
AcDbLine
 10
691.8002371830852
 20
2066.287790053277
 30
0.0
 11
707.7571813356613
 21
2061.712209946714
 31
0.0
  0
LINE
  5
146
330
87
100
AcDbEntity
  8
P-SANR-FIXT
100
AcDbLine
 10
691.067432561871
 20
2052.974025730871
 30
0.0
 11
686.2099002042651
 21
2036.033797225532
 31
0.0
  0
SPLINE
  5
147
330
87
100
AcDbEntity
  8
P-SANR-FIXT
100
AcDbSpline
210
0.0
220
0.0
230
1.0
 70
     8
 71
     3
 72
    27
 73
    23
 74
     0
 42
0.000000001
 43
0.0000000001
 40
0.0
 40
0.0
 40
0.0
 40
0.0
 40
0.0625
 40
0.09375
 40
0.125
 40
0.15625
 40
0.1875
 40
0.21875
 40
0.25
 40
0.28125
 40
0.3125
 40
0.34375
 40
0.375
 40
0.40625
 40
0.4375
 40
0.5
 40
0.5625
 40
0.59375
 40
0.625
 40
0.65625
 40
0.6875
 40
0.7168744586788208
 40
0.7168744586788208
 40
0.7168744586788208
 40
0.7168744586788208
 10
686.2099002042652
 20
2036.033797225532
 30
0.0
 10
686.2718203446615
 20
2035.683085017403
 30
0.0
 10
686.3896669531706
 20
2035.1345226943
 30
0.0
 10
686.574144695826
 20
2034.363815380316
 30
0.0
 10
686.7228461864195
 20
2033.768652043606
 30
0.0
 10
686.8710580197378
 20
2033.153232680372
 30
0.0
 10
687.0152370899922
 20
2032.519869903576
 30
0.0
 10
687.1606121306708
 20
2031.875461854018
 30
0.0
 10
687.3153981681642
 20
2031.226893973893
 30
0.0
 10
687.4757773288275
 20
2030.574026843256
 30
0.0
 10
687.6331855476692
 20
2029.913596954721
 30
0.0
 10
687.792775275797
 20
2029.249097282658
 30
0.0
 10
687.9587618468399
 20
2028.582695547815
 30
0.0
 10
688.1281602853118
 20
2027.914310367837
 30
0.0
 10
688.3514046674713
 20
2027.019200886636
 30
0.0
 10
688.6405782886194
 20
2025.898943883169
 30
0.0
 10
688.9367042018935
 20
2024.77900855239
 30
0.0
 10
689.1741776636753
 20
2023.885133703376
 30
0.0
 10
689.3588091091193
 20
2023.218500635472
 30
0.0
 10
689.5440375404728
 20
2022.55420866526
 30
0.0
 10
689.7228909757782
 20
2021.905510409915
 30
0.0
 10
689.8420539962293
 20
2021.480751151892
 30
0.0
 10
689.9008160749708
 20
2021.276368697767
 30
0.0
  0
ARC
  5
148
330
87
100
AcDbEntity
  8
P-SANR-FIXT
100
AcDbCircle
 10
871.3503460911551
 20
2163.808854685731
 30
0.0
 40
211.6418405118691
100
AcDbArc
 50
210.3877987305232
 51
210.78170028624
  0
LINE
  5
149
330
87
100
AcDbEntity
  8
P-SANR-FIXT
100
AcDbLine
 10
689.5238896272018
 20
2055.497228416832
 30
0.0
 11
704.4367919128928
 21
2051.221022498138
 31
0.0
  0
LINE
  5
14A
330
87
100
AcDbEntity
  8
P-SANR-FIXT
100
AcDbLine
 10
688.8613051909425
 20
2057.020932101747
 30
0.0
 11
688.7835630622228
 21
2056.749813079155
 31
0.0
  0
LINE
  5
14B
330
87
100
AcDbEntity
  8
P-SANR-FIXT
100
AcDbLine
 10
705.6736909646481
 20
2051.906646838259
 30
0.0
 11
688.7835630622228
 21
2056.749813079155
 31
0.0
  0
LINE
  5
14C
330
87
100
AcDbEntity
  8
P-SANR-FIXT
100
AcDbLine
 10
708.2371183737461
 20
2060.846380610485
 30
0.0
 11
690.9344078468564
 21
2065.807853015191
 31
0.0
  0
SPLINE
  5
14D
330
87
100
AcDbEntity
  8
P-SANR-FIXT
100
AcDbSpline
210
0.0
220
0.0
230
1.0
 70
     8
 71
     3
 72
    12
 73
     8
 74
     0
 42
0.000000001
 43
0.0000000001
 40
-1.0
 40
-1.0
 40
-1.0
 40
-1.0
 40
-0.5714285714285714
 40
-0.4285714285714286
 40
-0.2857142857142857
 40
-0.1428571428571428
 40
0.0
 40
0.0
 40
0.0
 40
0.0
 10
689.5238896272018
 20
2055.497228416832
 30
0.0
 10
689.9798802846512
 20
2055.365063539247
 30
0.0
 10
690.5181352008603
 20
2055.007662185692
 30
0.0
 10
690.9434108895338
 20
2054.346913091673
 30
0.0
 10
691.1046448677945
 20
2053.904985258987
 30
0.0
 10
691.1566554844857
 20
2053.433837273452
 30
0.0
 10
691.1102298840819
 20
2053.127514487296
 30
0.0
 10
691.067432561871
 20
2052.974025730871
 30
0.0
  0
LINE
  5
14E
330
87
100
AcDbEntity
  8
P-SANR-FIXT
100
AcDbLine
 10
695.4544939901187
 20
1980.579585218329
 30
0.0
 11
648.7466893681147
 21
1963.579334627998
 31
0.0
  0
SPLINE
  5
14F
330
87
100
AcDbEntity
  8
P-SANR-FIXT
100
AcDbSpline
210
0.0
220
0.0
230
1.0
 70
     8
 71
     3
 72
     9
 73
     5
 74
     0
 42
0.000000001
 43
0.0000000001
 40
-1.0
 40
-1.0
 40
-1.0
 40
-1.0
 40
-0.5
 40
0.0
 40
0.0
 40
0.0
 40
0.0
 10
686.2099002042652
 20
2036.033797225532
 30
0.0
 10
685.1005706134773
 20
2039.697749921154
 30
0.0
 10
682.7430904441428
 20
2046.977738336578
 30
0.0
 10
680.1079682992907
 20
2054.161892800357
 30
0.0
 10
678.7209967329853
 20
2057.730011544336
 30
0.0
  0
LINE
  5
150
330
87
100
AcDbEntity
  8
P-SANR-FIXT
100
AcDbLine
 10
688.8613051909425
 20
2057.020932101747
 30
0.0
 11
678.7209967329853
 21
2057.730011544336
 31
0.0
  0
LINE
  5
151
330
87
100
AcDbEntity
  8
P-SANR-FIXT
100
AcDbLine
 10
700.7787092594232
 20
2024.149999999996
 30
0.0
 11
699.2787092593747
 21
2024.149999999996
 31
0.0
  0
LINE
  5
152
330
87
100
AcDbEntity
  8
P-SANR-FIXT
100
AcDbLine
 10
699.2787092593747
 20
1975.849999999995
 30
0.0
 11
700.7787092594232
 21
1975.849999999995
 31
0.0
  0
LINE
  5
153
330
87
100
AcDbEntity
  8
P-SANR-FIXT
100
AcDbLine
 10
699.2787092593747
 20
2024.149999999996
 30
0.0
 11
699.2428620020453
 21
2024.087910728989
 31
0.0
  0
LINE
  5
154
330
87
100
AcDbEntity
  8
P-SANR-FIXT
100
AcDbLine
 10
699.2357276158691
 20
2024.075553609651
 30
0.0
 11
698.4126838555901
 21
2022.649999999996
 31
0.0
  0
LINE
  5
155
330
87
100
AcDbEntity
  8
P-SANR-FIXT
100
AcDbLine
 10
698.4126838555901
 20
1977.349999999996
 30
0.0
 11
699.2357276158691
 21
1975.92444639034
 31
0.0
  0
LINE
  5
156
330
87
100
AcDbEntity
  8
P-SANR-FIXT
100
AcDbLine
 10
699.2428620020453
 20
1975.912089271002
 30
0.0
 11
699.2787092593747
 21
1975.849999999996
 31
0.0
  0
LINE
  5
157
330
87
100
AcDbEntity
  8
P-SANR-FIXT
100
AcDbLine
 10
697.2868508306704
 20
2021.999999999996
 30
0.0
 11
693.8472075664121
 21
2021.999999999996
 31
0.0
  0
LINE
  5
158
330
87
100
AcDbEntity
  8
P-SANR-FIXT
100
AcDbLine
 10
611.2754109252559
 20
1977.999999999996
 30
0.0
 11
639.7999013883529
 21
1977.999999999996
 31
0.0
  0
LINE
  5
159
330
87
100
AcDbEntity
  8
P-SANR-FIXT
100
AcDbLine
 10
697.274047674665
 20
1977.999999999996
 30
0.0
 11
697.2868508306704
 21
1977.999999999996
 31
0.0
  0
LINE
  5
15A
330
87
100
AcDbEntity
  8
P-SANR-FIXT
100
AcDbLine
 10
610.1423130445705
 20
2022.654194366428
 30
0.0
 11
609.3216909028805
 21
2024.075553609651
 31
0.0
  0
LINE
  5
15B
330
87
100
AcDbEntity
  8
P-SANR-FIXT
100
AcDbLine
 10
609.3145565187526
 20
2024.087910725441
 30
0.0
 11
609.2787092593745
 21
2024.149999999996
 31
0.0
  0
LINE
  5
15C
330
87
100
AcDbEntity
  8
P-SANR-FIXT
100
AcDbLine
 10
609.2787092593745
 20
1975.849999999996
 30
0.0
 11
609.3145565187526
 21
1975.912089274551
 31
0.0
  0
LINE
  5
15D
330
87
100
AcDbEntity
  8
P-SANR-FIXT
100
AcDbLine
 10
609.3216909028805
 20
1975.92444639034
 30
0.0
 11
610.1423130445705
 21
1977.345805633564
 31
0.0
  0
LINE
  5
15E
330
87
100
AcDbEntity
  8
P-SANR-FIXT
100
AcDbLine
 10
609.2787092593745
 20
2024.149999999996
 30
0.0
 11
608.2787092593167
 21
2024.149999999996
 31
0.0
  0
LINE
  5
15F
330
87
100
AcDbEntity
  8
P-SANR-FIXT
100
AcDbLine
 10
608.2787092593167
 20
1975.849999999996
 30
0.0
 11
609.2787092593745
 21
1975.849999999996
 31
0.0
  0
LWPOLYLINE
  5
160
330
87
100
AcDbEntity
  8
P-SANR-FIXT
100
AcDbPolyline
 90
       28
 70
   128
 43
0.0
 10
698.4126838555901
 20
1977.349999999996
 10
698.3857902420314
 20
1977.394501382397
 10
698.3571385598424
 20
1977.43789171074
 10
698.3267746456025
 20
1977.480101569753
 10
698.2947470750972
 20
1977.521063432667
 10
698.2611070856073
 20
1977.56071176924
 10
698.2259084939398
 20
1977.598983150592
 10
698.1892076103327
 20
1977.635816350675
 10
698.1510631483707
 20
1977.671152444226
 10
698.1115361310557
 20
1977.704934901036
 10
698.0706897931837
 20
1977.737109676379
 10
698.0285894801816
 20
1977.767625297477
 10
697.9853025435696
 20
1977.796432945847
 10
697.9408982332119
 20
1977.823486535397
 10
697.8954475865329
 20
1977.848742786156
 10
697.8490233148715
 20
1977.872161293508
 10
697.8016996871591
 20
1977.893704592838
 10
697.7535524111047
 20
1977.913338219463
 10
697.7046585120797
 20
1977.931030763769
 10
697.6550962098919
 20
1977.946753921458
 10
697.6049447936518
 20
1977.960482538833
 10
697.5542844949278
 20
1977.972194653035
 10
697.5031963593903
 20
1977.981871527179
 10
697.451762117158
 20
1977.989497680331
 10
697.4000640520467
 20
1977.995060912272
 10
697.3481848699321
 20
1977.998552323018
 10
697.2962075664383
 20
1977.999966327058
 10
697.2868508306704
 20
1977.999999999996
  0
LWPOLYLINE
  5
161
330
87
100
AcDbEntity
  8
P-SANR-FIXT
100
AcDbPolyline
 90
       28
 70
   128
 43
0.0
 10
697.2868508306704
 20
2021.999999999996
 10
697.338836965113
 20
2022.001039861336
 10
697.3907399328303
 20
2022.004157781802
 10
697.4424767001461
 20
2022.009348773386
 10
697.493964499269
 20
2022.016604531607
 10
697.5451209607038
 20
2022.025913448802
 10
697.5958642450257
 20
2022.037260632688
 10
697.6461131738037
 20
2022.050627930191
 10
697.6957873594714
 20
2022.065993956488
 10
697.7448073339279
 20
2022.083334129214
 10
697.7930946756717
 20
2022.102620707792
 10
697.8405721352563
 20
2022.12382283781
 10
697.8871637588743
 20
2022.146906600383
 10
697.9327950098673
 20
2022.171835066414
 10
697.9773928879675
 20
2022.198568355678
 10
698.0208860460838
 20
2022.227063700613
 10
698.0632049044416
 20
2022.257275514746
 10
698.1042817618945
 20
2022.289155465619
 10
698.1440509042333
 20
2022.322652552112
 10
698.1824487093141
 20
2022.357713186032
 10
698.2194137488399
 20
2022.394281277844
 10
698.2548868866325
 20
2022.432298326402
 10
698.2888113732391
 20
2022.471703512537
 10
698.3211329367176
 20
2022.512433796359
 10
698.3517998694617
 20
2022.554424018101
 10
698.3807631109207
 20
2022.597607002367
 10
698.4079763260868
 20
2022.641913665593
 10
698.4126838555901
 20
2022.649999999996
  0
LWPOLYLINE
  5
162
330
87
100
AcDbEntity
  8
P-SANR-FIXT
100
AcDbPolyline
 90
       28
 70
   128
 43
0.0
 10
611.2754109252559
 20
1977.999999999996
 10
611.2230893309715
 20
1977.998953428564
 10
611.1708514400764
 20
1977.995815388558
 10
611.1187808220529
 20
1977.990590900173
 10
611.0669607787818
 20
1977.983288321476
 10
611.015474211278
 20
1977.973919335036
 10
610.9644034870666
 20
1977.962498929231
 10
610.9138303084114
 20
1977.949045374275
 10
610.8638355816101
 20
1977.933580192986
 10
610.8144992875605
 20
1977.916128126355
 10
610.7659003538087
 20
1977.896717093966
 10
610.7181165282814
 20
1977.875378149329
 10
610.6712242549061
 20
1977.852145430204
 10
610.6252985513172
 20
1977.827056103985
 10
610.5804128888435
 20
1977.800150308243
 10
610.5366390749695
 20
1977.771471086511
 10
610.4940471384597
 20
1977.741064319425
 10
610.4527052173267
 20
1977.708978651328
 10
610.4126794498254
 20
1977.675265412442
 10
610.374033868645
 20
1977.639978536759
 10
610.3368302984716
 20
1977.603174475752
 10
610.3011282570813
 20
1977.564912108068
 10
610.2669848601242
 20
1977.525252645333
 10
610.2344547297519
 20
1977.484259534226
 10
610.2035899072338
 20
1977.441998354981
 10
610.1744397697013
 20
1977.39853671647
 10
610.1470509511565
 20
1977.353944148043
 10
610.1423130445705
 20
1977.345805633564
  0
LWPOLYLINE
  5
163
330
87
100
AcDbEntity
  8
P-SANR-FIXT
100
AcDbPolyline
 90
       20
 70
   128
 43
0.0
 10
610.1423130445705
 20
2022.654194366428
 10
610.1693801991599
 20
2022.609405822327
 10
610.1982167669705
 20
2022.565735501775
 10
610.2287766156451
 20
2022.523253267968
 10
610.2610108559453
 20
2022.482027083418
 10
610.2948679199622
 20
2022.442122901227
 10
610.3302936436165
 20
2022.403604559572
 10
610.367231353307
 20
2022.366533679584
 10
610.4056219565781
 20
2022.330969566764
 10
610.4454040366538
 20
2022.296969116104
 10
610.4865139506927
 20
2022.264586721073
 10
610.5288859316019
 20
2022.233874186595
 10
610.5724521932509
 20
2022.204880646173
 10
610.6171430389143
 20
2022.177652483287
 10
610.6628869727729
 20
2022.152233257191
 10
610.709610814291
 20
2022.128663633221
 10
610.7572398152886
 20
2022.10698131775
 10
610.805697779525
 20
2022.087220997857
 10
610.8549071845946
 20
2022.069414285837
 10
610.8901693419094
 20
2022.05800079356
  0
LINE
  5
164
330
87
100
AcDbEntity
  8
P-SANR-FIXT
100
AcDbLine
 10
615.1911166408618
 20
2030.876249563032
 30
0.0
 11
610.8901693419094
 21
2022.05800079356
 31
0.0
  0
LINE
  5
165
330
87
100
AcDbEntity
  8
P-SANR-FIXT
100
AcDbLine
 10
608.2787092593155
 20
1975.854277591177
 30
0.0
 11
608.2787092593155
 21
1977.383217423353
 31
0.0
  0
LINE
  5
166
330
87
100
AcDbEntity
  8
P-SANR-FIXT
100
AcDbLine
 10
608.2787092593154
 20
1998.433293511346
 30
0.0
 11
608.2787092593154
 21
2001.566706488625
 31
0.0
  0
LINE
  5
167
330
87
100
AcDbEntity
  8
P-SANR-FIXT
100
AcDbLine
 10
608.2787092593155
 20
2022.616782576653
 30
0.0
 11
608.2787092593155
 21
2024.145722408802
 31
0.0
  0
LINE
  5
168
330
87
100
AcDbEntity
  8
P-SANR-FIXT
100
AcDbLine
 10
700.7787092594217
 20
2024.145722408815
 30
0.0
 11
700.7787092594217
 21
2022.616782576617
 31
0.0
  0
LINE
  5
169
330
87
100
AcDbEntity
  8
P-SANR-FIXT
100
AcDbLine
 10
700.7787092594216
 20
2001.566706488631
 30
0.0
 11
700.7787092594216
 21
1998.433293511352
 31
0.0
  0
LINE
  5
16A
330
87
100
AcDbEntity
  8
P-SANR-FIXT
100
AcDbLine
 10
700.7787092594217
 20
1977.383217423325
 30
0.0
 11
700.7787092594217
 21
1975.854277591188
 31
0.0
  0
LINE
  5
16B
330
87
100
AcDbEntity
  8
P-SANR-FIXT
100
AcDbLine
 10
699.2787092593732
 20
2024.149999999995
 30
0.0
 11
699.2787092593732
 21
1975.849999999995
 31
0.0
  0
SPLINE
  5
16C
330
87
100
AcDbEntity
  8
P-SANR-FIXT
100
AcDbSpline
210
0.0
220
0.0
230
1.0
 70
     8
 71
     3
 72
    28
 73
    24
 74
     0
 42
0.000000001
 43
0.0000000001
 40
0.3980504566783697
 40
0.3980504566783697
 40
0.3980504566783697
 40
0.3980504566783697
 40
0.4166666666666666
 40
0.4444444444444445
 40
0.4583333333333333
 40
0.4722222222222223
 40
0.5
 40
0.5277777777777778
 40
0.5555555555555556
 40
0.5833333333333334
 40
0.6111111111111112
 40
0.6388888888888889
 40
0.6527777777777777
 40
0.6666666666666666
 40
0.6805555555555556
 40
0.6944444444444445
 40
0.7222222222222223
 40
0.75
 40
0.7777777777777778
 40
0.8055555555555555
 40
0.8333333333333332
 40
0.8888888888888889
 40
1.0
 40
1.0
 40
1.0
 40
1.0
 10
627.6920691269914
 20
2012.765700178636
 30
0.0
 10
627.428818309065
 20
2012.741798201388
 30
0.0
 10
626.7732376619878
 20
2012.697082940823
 30
0.0
 10
625.9333407280124
 20
2012.699271008838
 30
0.0
 10
625.1643878070583
 20
2012.757735604096
 30
0.0
 10
624.3856410459548
 20
2012.845034681896
 30
0.0
 10
623.4123803551593
 20
2013.009839351163
 30
0.0
 10
622.2705852836947
 20
2013.291441246024
 30
0.0
 10
621.1946731893607
 20
2013.643360634472
 30
0.0
 10
620.1848883649547
 20
2014.083318877421
 30
0.0
 10
619.2159777185505
 20
2014.604202044473
 30
0.0
 10
618.4537120254177
 20
2015.07301586136
 30
0.0
 10
617.8723551039937
 20
2015.455760024601
 30
0.0
 10
617.4514371530619
 20
2015.741145387157
 30
0.0
 10
617.0460569405422
 20
2016.029432591224
 30
0.0
 10
616.5253600855726
 20
2016.424676597265
 30
0.0
 10
615.9102743206899
 20
2016.927734327742
 30
0.0
 10
615.225282473048
 20
2017.529426500014
 30
0.0
 10
614.5879661463811
 20
2018.108226453407
 30
0.0
 10
613.9977114252464
 20
2018.663743383416
 30
0.0
 10
613.2783926209057
 20
2019.378105601454
 30
0.0
 10
612.1936665718016
 20
2020.507468120297
 30
0.0
 10
611.562947610259
 20
2021.211545875785
 30
0.0
 10
611.2754109252546
 20
2021.531554849546
 30
0.0
  0
LINE
  5
16D
330
87
100
AcDbEntity
  8
P-SANR-FIXT
100
AcDbLine
 10
609.2787092593731
 20
2024.149999999995
 30
0.0
 11
609.2787092593731
 21
1975.849999999995
 31
0.0
  0
SPLINE
  5
16E
330
87
100
AcDbEntity
  8
P-SANR-FIXT
100
AcDbSpline
210
0.0
220
0.0
230
1.0
 70
     8
 71
     3
 72
     9
 73
     5
 74
     0
 42
0.000000001
 43
0.0000000001
 40
-1.0
 40
-1.0
 40
-1.0
 40
-1.0
 40
-0.5
 40
0.0
 40
0.0
 40
0.0
 40
0.0
 10
611.2754109252547
 20
2021.531554849546
 30
0.0
 10
611.1450148092575
 20
2021.698973562608
 30
0.0
 10
610.9484971446071
 20
2021.955067087978
 30
0.0
 10
610.8866114423944
 20
2022.050706018518
 30
0.0
 10
610.890169341908
 20
2022.05800079356
 30
0.0
  0
ENDBLK
  5
170
330
87
100
AcDbEntity
  8
0
100
AcDbBlockEnd
  0
BLOCK
  5
235
330
172
100
AcDbEntity
  8
0
100
AcDbBlockBegin
  2
Automatic flow rate regulator valve_Caleffi_121 DN15 - 1 1_4___Pressure gauge H-V1-Est - Idraulica
 70
     0
 10
0.0
 20
0.0
 30
0.0
  3
Automatic flow rate regulator valve_Caleffi_121 DN15 - 1 1_4___Pressure gauge H-V1-Est - Idraulica
  1

  0
LINE
  5
173
330
172
100
AcDbEntity
  8
M-PIPE
100
AcDbLine
 10
709.0093023385008
 20
1674.655266574674
 30
0.0
 11
709.0093023385008
 21
1672.655266574674
 31
0.0
1001
REVIT
1002
{
1070
     3
1000
923236
1002
}
  0
LINE
  5
174
330
172
100
AcDbEntity
  8
M-PIPE
100
AcDbLine
 10
717.0093023385008
 20
1672.655266574674
 30
0.0
 11
717.0093023385008
 21
1674.655266574674
 31
0.0
1001
REVIT
1002
{
1070
     3
1000
923236
1002
}
  0
LINE
  5
175
330
172
100
AcDbEntity
  8
M-PIPE
100
AcDbLine
 10
709.1642555547463
 20
1672.655266574673
 30
0.0
 11
709.0093023384995
 21
1672.655266574673
 31
0.0
1001
REVIT
1002
{
1070
     3
1000
923236
1002
}
  0
LINE
  5
176
330
172
100
AcDbEntity
  8
M-PIPE
100
AcDbLine
 10
717.0086931191251
 20
1672.655266574673
 30
0.0
 11
709.1642555547463
 21
1672.655266574673
 31
0.0
1001
REVIT
1002
{
1070
     3
1000
923236
1002
}
  0
LINE
  5
177
330
172
100
AcDbEntity
  8
M-PIPE
100
AcDbLine
 10
682.0093023385007
 20
1702.655266574674
 30
0.0
 11
682.0093023385007
 21
1674.655266574674
 31
0.0
1001
REVIT
1002
{
1070
     3
1000
923236
1002
}
  0
LINE
  5
178
330
172
100
AcDbEntity
  8
M-PIPE
100
AcDbLine
 10
744.0093023385007
 20
1674.655266574674
 30
0.0
 11
744.0093023385009
 21
1702.655266574674
 31
0.0
1001
REVIT
1002
{
1070
     3
1000
923236
1002
}
  0
LINE
  5
179
330
172
100
AcDbEntity
  8
M-PIPE
100
AcDbLine
 10
683.2101897644117
 20
1674.655266574673
 30
0.0
 11
682.0093023384995
 21
1674.655266574674
 31
0.0
1001
REVIT
1002
{
1070
     3
1000
923236
1002
}
  0
LINE
  5
17A
330
172
100
AcDbEntity
  8
M-PIPE
100
AcDbLine
 10
744.0045808883476
 20
1674.655266574674
 30
0.0
 11
683.2101897644117
 21
1674.655266574673
 31
0.0
1001
REVIT
1002
{
1070
     3
1000
923236
1002
}
  0
LINE
  5
17B
330
172
100
AcDbEntity
  8
M-PIPE
100
AcDbLine
 10
683.2101897644117
 20
1702.655266574673
 30
0.0
 11
744.0045808883476
 21
1702.655266574673
 31
0.0
1001
REVIT
1002
{
1070
     3
1000
923236
1002
}
  0
LINE
  5
17C
330
172
100
AcDbEntity
  8
M-PIPE
100
AcDbLine
 10
682.0093023384995
 20
1702.655266574673
 30
0.0
 11
683.2101897644117
 21
1702.655266574673
 31
0.0
1001
REVIT
1002
{
1070
     3
1000
923236
1002
}
  0
LINE
  5
17D
330
172
100
AcDbEntity
  8
M-PIPE
100
AcDbLine
 10
613.4349765898028
 20
1725.250666260522
 30
0.0
 11
611.5901902293238
 21
1724.841949321464
 31
0.0
1001
REVIT
1002
{
1070
     3
1000
923097
1002
}
  0
LWPOLYLINE
  5
17E
330
172
100
AcDbEntity
  8
M-PIPE
100
AcDbPolyline
 90
        4
 70
   128
 43
0.0
 10
608.8896092260727
 20
1724.136981478192
 10
606.4166950361051
 20
1723.375313320263
 10
604.0274207181774
 20
1722.527858139545
 10
603.5249216385873
 20
1722.335019895261
1001
REVIT
1002
{
1070
     3
1000
923097
1002
}
  0
LWPOLYLINE
  5
17F
330
172
100
AcDbEntity
  8
M-PIPE
100
AcDbPolyline
 90
        4
 70
   128
 43
0.0
 10
603.5249216385908
 20
1662.975513253966
 10
605.8951335061249
 20
1662.110628949855
 10
608.3507608226649
 20
1661.329848594137
 10
608.8896092260701
 20
1661.173551671037
1001
REVIT
1002
{
1070
     3
1000
923097
1002
}
  0
LINE
  5
180
330
172
100
AcDbEntity
  8
M-PIPE
100
AcDbLine
 10
611.5901902293286
 20
1660.468583827763
 30
0.0
 11
613.4349765898075
 21
1660.059866888706
 31
0.0
1001
REVIT
1002
{
1070
     3
1000
923097
1002
}
  0
ELLIPSE
  5
181
330
172
100
AcDbEntity
  8
M-PIPE
100
AcDbEllipse
 10
619.3617423796577
 20
1692.655266574614
 30
0.0
 11
0.0000000000007392
 21
33.20000000000005
 31
0.0
210
0.0
220
0.0
230
1.0
 40
0.9396926207859133
 41
4.712388980384718
 42
6.457718232379052
1001
REVIT
1002
{
1070
     3
1000
923097
1002
}
  0
ELLIPSE
  5
182
330
172
100
AcDbEntity
  8
M-PIPE
100
AcDbEllipse
 10
691.1542457051682
 20
1435.63649692927
 30
0.0
 11
-82.26463647909726
 21
288.5004845489211
 31
0.0
210
0.0
220
0.0
230
0.9999999999999998
 40
0.3303660895492905
 41
6.268322533308618
 42
6.313560025996041
1001
REVIT
1002
{
1070
     3
1000
923097
1002
}
  0
ELLIPSE
  5
183
330
172
100
AcDbEntity
  8
M-PIPE
100
AcDbEllipse
 10
618.3356819496887
 20
1692.655266574614
 30
0.0
 11
0.0
 21
32.97744693864733
 31
0.0
210
0.0
220
0.0
230
1.0
 40
0.9396926207859074
 41
6.02138591937993
 42
6.544984694979284
1001
REVIT
1002
{
1070
     3
1000
923097
1002
}
  0
ELLIPSE
  5
184
330
172
100
AcDbEntity
  8
M-PIPE
100
AcDbEllipse
 10
561.7247959506758
 20
1435.636496929267
 30
0.0
 11
82.26463647908351
 21
288.5004845489249
 31
0.0
210
0.0
220
0.0
230
1.0
 40
0.3303660895492804
 41
0.1729877240759607
 42
0.2182252167633755
1001
REVIT
1002
{
1070
     3
1000
923097
1002
}
  0
ELLIPSE
  5
185
330
172
100
AcDbEntity
  8
M-PIPE
100
AcDbEllipse
 10
561.7247959506626
 20
1949.674036219959
 30
0.0
 11
-82.26463647909463
 21
288.5004845489213
 31
0.0
210
0.0
220
0.0
230
1.0
 40
0.3303660895492914
 41
2.923367436826444
 42
2.968604929513856
1001
REVIT
1002
{
1070
     3
1000
923097
1002
}
  0
ELLIPSE
  5
186
330
172
100
AcDbEntity
  8
M-PIPE
100
AcDbEllipse
 10
618.3356819496887
 20
1692.655266574614
 30
0.0
 11
0.0
 21
32.9774469386466
 31
0.0
210
0.0
220
0.0
230
1.0
 40
0.9396926207859262
 41
2.879793265790114
 42
3.403392041389462
1001
REVIT
1002
{
1070
     3
1000
923097
1002
}
  0
ELLIPSE
  5
187
330
172
100
AcDbEntity
  8
M-PIPE
100
AcDbEllipse
 10
691.154245705156
 20
1949.67403621996
 30
0.0
 11
82.26463647908822
 21
288.5004845489236
 31
0.0
210
0.0
220
0.0
230
1.0
 40
0.330366089549279
 41
3.111217934773396
 42
3.156455427460801
1001
REVIT
1002
{
1070
     3
1000
923097
1002
}
  0
ELLIPSE
  5
188
330
172
100
AcDbEntity
  8
M-PIPE
100
AcDbEllipse
 10
619.3617423796577
 20
1692.655266574614
 30
0.0
 11
0.0
 21
33.19999999999984
 31
0.0
210
0.0
220
0.0
230
1.0
 40
0.9396926207859209
 41
2.967059728390366
 42
4.712388980384685
1001
REVIT
1002
{
1070
     3
1000
923097
1002
}
  0
ELLIPSE
  5
189
330
172
100
AcDbEntity
  8
M-PIPE
100
AcDbEllipse
 10
613.718410014784
 20
1692.655266574613
 30
0.0
 11
0.0
 21
31.59999999999952
 31
0.0
210
0.0
220
0.0
230
1.0
 40
0.9396926207859232
 41
4.712388980384699
 42
6.021385919379912
1001
REVIT
1002
{
1070
     3
1000
923097
1002
}
  0
LINE
  5
18A
330
172
100
AcDbEntity
  8
M-PIPE
100
AcDbLine
 10
621.4038569737327
 20
1723.178522685343
 30
0.0
 11
621.3825036157344
 21
1723.093716425085
 31
0.0
1001
REVIT
1002
{
1070
     3
1000
923097
1002
}
  0
LINE
  5
18B
330
172
100
AcDbEntity
  8
M-PIPE
100
AcDbLine
 10
606.0543164138322
 20
1723.093716425085
 30
0.0
 11
606.032963055834
 21
1723.178522685343
 31
0.0
1001
REVIT
1002
{
1070
     3
1000
923097
1002
}
  0
ELLIPSE
  5
18C
330
172
100
AcDbEntity
  8
M-PIPE
100
AcDbEllipse
 10
613.7184100147846
 20
1692.655266574613
 30
0.0
 11
0.0
 21
31.59999999999995
 31
0.0
210
0.0
220
0.0
230
1.0
 40
0.939692620785914
 41
0.2617993877997289
 42
0.4887340612388906
1001
REVIT
1002
{
1070
     3
1000
923097
1002
}
  0
ELLIPSE
  5
18D
330
172
100
AcDbEntity
  8
M-PIPE
100
AcDbEllipse
 10
613.718410014784
 20
1692.655266574613
 30
0.0
 11
0.0
 21
31.59999999999963
 31
0.0
210
0.0
220
0.0
230
1.0
 40
0.9396926207859191
 41
2.653551520545752
 42
2.879793265790106
1001
REVIT
1002
{
1070
     3
1000
923097
1002
}
  0
LINE
  5
18E
330
172
100
AcDbEntity
  8
M-PIPE
100
AcDbLine
 10
606.0329630558349
 20
1662.132010463883
 30
0.0
 11
606.0543164138523
 21
1662.216816724218
 31
0.0
1001
REVIT
1002
{
1070
     3
1000
923097
1002
}
  0
LINE
  5
18F
330
172
100
AcDbEntity
  8
M-PIPE
100
AcDbLine
 10
621.3825036157161
 20
1662.216816724219
 30
0.0
 11
621.4038569737335
 21
1662.132010463883
 31
0.0
1001
REVIT
1002
{
1070
     3
1000
923097
1002
}
  0
ELLIPSE
  5
190
330
172
100
AcDbEntity
  8
M-PIPE
100
AcDbEllipse
 10
613.7184100147846
 20
1692.655266574613
 30
0.0
 11
0.0
 21
31.59999999999991
 31
0.0
210
0.0
220
0.0
230
1.0
 40
0.9396926207859156
 41
3.403392041389498
 42
4.712388980384692
1001
REVIT
1002
{
1070
     3
1000
923097
1002
}
  0
LINE
  5
191
330
172
100
AcDbEntity
  8
M-PIPE
100
AcDbLine
 10
610.3152256430894
 20
1724.509034257726
 30
0.0
 11
610.4501792872648
 21
1723.973057018373
 31
0.0
1001
REVIT
1002
{
1070
     3
1000
923097
1002
}
  0
LINE
  5
192
330
172
100
AcDbEntity
  8
M-PIPE
100
AcDbLine
 10
610.4501792872854
 20
1661.337476130934
 30
0.0
 11
610.31522564309
 21
1660.801498891501
 31
0.0
1001
REVIT
1002
{
1070
     3
1000
923097
1002
}
  0
LINE
  5
193
330
172
100
AcDbEntity
  8
M-PIPE
100
AcDbLine
 10
635.7787092592952
 20
1729.155266574631
 30
0.0
 11
634.4106286859995
 21
1729.155266574631
 31
0.0
1001
REVIT
1002
{
1070
     3
1000
923097
1002
}
  0
LINE
  5
194
330
172
100
AcDbEntity
  8
M-PIPE
100
AcDbLine
 10
634.410628686002
 20
1656.155266574639
 30
0.0
 11
635.7787092592984
 21
1656.155266574639
 31
0.0
1001
REVIT
1002
{
1070
     3
1000
923097
1002
}
  0
LWPOLYLINE
  5
195
330
172
100
AcDbEntity
  8
M-PIPE
100
AcDbPolyline
 90
        9
 70
   128
 43
0.0
 10
633.620929603012
 20
1726.471807180522
 10
630.8691395509039
 20
1726.718105850517
 10
628.0973947239608
 20
1726.847734932967
 10
625.3181450188403
 20
1726.859355640061
 10
622.5439372840384
 20
1726.752847766266
 10
619.787253214645
 20
1726.529311875597
 10
617.0603486562529
 20
1726.191049299097
 10
614.3750977761377
 20
1725.741520479934
 10
613.3854239369145
 20
1725.546026888542
1001
REVIT
1002
{
1070
     3
1000
923097
1002
}
  0
LWPOLYLINE
  5
196
330
172
100
AcDbEntity
  8
M-PIPE
100
AcDbPolyline
 90
        9
 70
   128
 43
0.0
 10
613.3854239369167
 20
1659.764506260727
 10
616.0521794883101
 20
1659.274542722813
 10
618.7648943959507
 20
1658.894268077298
 10
621.5118754119912
 20
1658.627560686268
 10
624.2809913478424
 20
1658.477160697606
 10
627.0598262281425
 20
1658.444620560511
 10
629.8358385677337
 20
1658.53027684361
 10
632.5965233608203
 20
1658.733244111279
 10
633.6209296030141
 20
1658.838725968749
1001
REVIT
1002
{
1070
     3
1000
923097
1002
}
  0
ELLIPSE
  5
197
330
172
100
AcDbEntity
  8
M-PIPE
100
AcDbEllipse
 10
635.7787092592956
 20
1692.655266574634
 30
0.0
 11
0.0
 21
36.49999999999568
 31
0.0
210
0.0
220
0.0
230
1.0
 40
0.9396926207859086
 41
4.712388980384691
 42
6.283185307179597
1001
REVIT
1002
{
1070
     3
1000
923097
1002
}
  0
ELLIPSE
  5
198
330
172
100
AcDbEntity
  8
M-PIPE
100
AcDbEllipse
 10
634.4106286859998
 20
1692.655266574634
 30
0.0
 11
0.0
 21
36.4999999999956
 31
0.0
210
0.0
220
0.0
230
0.9999999999999998
 40
0.9396926207859122
 41
5.995503207762009
 42
6.570867406597169
1001
REVIT
1002
{
1070
     3
1000
923097
1002
}
  0
LINE
  5
199
330
172
100
AcDbEntity
  8
M-PIPE
100
AcDbLine
 10
644.1422335517431
 20
1727.655266574618
 30
0.0
 11
640.0379918318283
 21
1727.655266574618
 31
0.0
1001
REVIT
1002
{
1070
     3
1000
923097
1002
}
  0
LINE
  5
19A
330
172
100
AcDbEntity
  8
M-PIPE
100
AcDbLine
 10
646.681309027321
 20
1724.726913174096
 30
0.0
 11
650.7855507472357
 21
1724.726913174096
 31
0.0
1001
REVIT
1002
{
1070
     3
1000
923097
1002
}
  0
ELLIPSE
  5
19B
330
172
100
AcDbEntity
  8
M-PIPE
100
AcDbEllipse
 10
634.4106286859998
 20
1692.655266574634
 30
0.0
 11
0.0
 21
36.49999999999565
 31
0.0
210
0.0
220
0.0
230
1.0
 40
0.9396926207859102
 41
5.21010504436588
 42
5.785469243198392
1001
REVIT
1002
{
1070
     3
1000
923097
1002
}
  0
LINE
  5
19C
330
172
100
AcDbEntity
  8
M-PIPE
100
AcDbLine
 10
664.5481183319672
 20
1710.081094658227
 30
0.0
 11
660.4438766120526
 21
1710.081094658226
 31
0.0
1001
REVIT
1002
{
1070
     3
1000
923097
1002
}
  0
LINE
  5
19D
330
172
100
AcDbEntity
  8
M-PIPE
100
AcDbLine
 10
663.1956286936031
 20
1703.011424163183
 30
0.0
 11
667.2998704135176
 21
1703.011424163183
 31
0.0
1001
REVIT
1002
{
1070
     3
1000
923097
1002
}
  0
ELLIPSE
  5
19E
330
172
100
AcDbEntity
  8
M-PIPE
100
AcDbEllipse
 10
634.4106286859995
 20
1692.655266574634
 30
0.0
 11
0.0
 21
36.49999999999551
 31
0.0
210
0.0
220
0.0
230
0.9999999999999998
 40
0.9396926207859159
 41
4.712388980384697
 42
5.000071079799449
1001
REVIT
1002
{
1070
     3
1000
923097
1002
}
  0
ELLIPSE
  5
19F
330
172
100
AcDbEntity
  8
M-PIPE
100
AcDbEllipse
 10
635.7787092592956
 20
1692.655266574634
 30
0.0
 11
0.0
 21
36.49999999999546
 31
0.0
210
0.0
220
0.0
230
1.0
 40
0.9396926207859145
 41
3.141592653589828
 42
4.712388980384691
1001
REVIT
1002
{
1070
     3
1000
923097
1002
}
  0
ELLIPSE
  5
1A0
330
172
100
AcDbEntity
  8
M-PIPE
100
AcDbEllipse
 10
634.4106286859995
 20
1692.655266574634
 30
0.0
 11
0.0
 21
36.49999999999546
 31
0.0
210
0.0
220
0.0
230
1.0
 40
0.9396926207859145
 41
4.424706880969919
 42
4.712388980384691
1001
REVIT
1002
{
1070
     3
1000
923097
1002
}
  0
LINE
  5
1A1
330
172
100
AcDbEntity
  8
M-PIPE
100
AcDbLine
 10
667.2998704135173
 20
1682.299108986085
 30
0.0
 11
663.195628693603
 21
1682.299108986085
 31
0.0
1001
REVIT
1002
{
1070
     3
1000
923097
1002
}
  0
LINE
  5
1A2
330
172
100
AcDbEntity
  8
M-PIPE
100
AcDbLine
 10
660.4438766120168
 20
1675.229438490971
 30
0.0
 11
664.5481183319311
 21
1675.229438490972
 31
0.0
1001
REVIT
1002
{
1070
     3
1000
923097
1002
}
  0
ELLIPSE
  5
1A3
330
172
100
AcDbEntity
  8
M-PIPE
100
AcDbEllipse
 10
634.4106286859994
 20
1692.655266574634
 30
0.0
 11
0.0
 21
36.49999999999567
 31
0.0
210
0.0
220
0.0
230
1.0
 40
0.939692620785911
 41
3.639308717573261
 42
4.214672916401187
1001
REVIT
1002
{
1070
     3
1000
923097
1002
}
  0
LINE
  5
1A4
330
172
100
AcDbEntity
  8
M-PIPE
100
AcDbLine
 10
650.7855507473009
 20
1660.583619975211
 30
0.0
 11
646.6813090273866
 21
1660.583619975211
 31
0.0
1001
REVIT
1002
{
1070
     3
1000
923097
1002
}
  0
LINE
  5
1A5
330
172
100
AcDbEntity
  8
M-PIPE
100
AcDbLine
 10
640.0379918317266
 20
1657.655266574618
 30
0.0
 11
644.1422335516409
 21
1657.655266574618
 31
0.0
1001
REVIT
1002
{
1070
     3
1000
923097
1002
}
  0
ELLIPSE
  5
1A6
330
172
100
AcDbEntity
  8
M-PIPE
100
AcDbEllipse
 10
634.4106286859994
 20
1692.655266574634
 30
0.0
 11
0.0
 21
36.49999999999565
 31
0.0
210
0.0
220
0.0
230
1.0
 40
0.9396926207859085
 41
2.853910554175447
 42
3.42927475300411
1001
REVIT
1002
{
1070
     3
1000
923097
1002
}
  0
LINE
  5
1A7
330
172
100
AcDbEntity
  8
M-PIPE
100
AcDbLine
 10
663.1956286936035
 20
1692.655266574635
 30
0.0
 11
663.1956286936035
 21
1703.011424163181
 31
0.0
1001
REVIT
1002
{
1070
     3
1000
923097
1002
}
  0
ELLIPSE
  5
1A8
330
172
100
AcDbEntity
  8
M-PIPE
100
AcDbEllipse
 10
630.306386966085
 20
1692.655266574635
 30
0.0
 11
0.0
 21
36.49999999999554
 31
0.0
210
0.0
220
0.0
230
1.0
 40
0.9396926207859149
 41
5.000071079799448
 42
5.210105044365871
1001
REVIT
1002
{
1070
     3
1000
923097
1002
}
  0
LINE
  5
1A9
330
172
100
AcDbEntity
  8
M-PIPE
100
AcDbLine
 10
660.4438766120529
 20
1710.081094658226
 30
0.0
 11
646.6813090273206
 21
1724.726913174096
 31
0.0
1001
REVIT
1002
{
1070
     3
1000
923097
1002
}
  0
ELLIPSE
  5
1AA
330
172
100
AcDbEntity
  8
M-PIPE
100
AcDbEllipse
 10
630.306386966085
 20
1692.655266574635
 30
0.0
 11
0.0
 21
36.49999999999548
 31
0.0
210
0.0
220
0.0
230
1.0
 40
0.9396926207859122
 41
5.785469243198382
 42
5.995503207762022
1001
REVIT
1002
{
1070
     3
1000
923097
1002
}
  0
LINE
  5
1AB
330
172
100
AcDbEntity
  8
M-PIPE
100
AcDbLine
 10
640.0379918318304
 20
1727.655266574618
 30
0.0
 11
620.5747821003398
 21
1727.655266574618
 31
0.0
1001
REVIT
1002
{
1070
     3
1000
923097
1002
}
  0
ELLIPSE
  5
1AC
330
172
100
AcDbEntity
  8
M-PIPE
100
AcDbEllipse
 10
630.306386966085
 20
1692.655266574635
 30
0.0
 11
0.0
 21
36.49999999999531
 31
0.0
210
0.0
220
0.0
230
1.0
 40
0.9396926207859172
 41
0.2876820994175655
 42
0.4177165670497125
1001
REVIT
1002
{
1070
     3
1000
923097
1002
}
  0
ELLIPSE
  5
1AD
330
172
100
AcDbEntity
  8
M-PIPE
100
AcDbEllipse
 10
630.306386966085
 20
1692.655266574635
 30
0.0
 11
0.0
 21
36.49999999999562
 31
0.0
210
0.0
220
0.0
230
1.0
 40
0.9396926207859094
 41
2.728887336092972
 42
2.853910554175452
1001
REVIT
1002
{
1070
     3
1000
923097
1002
}
  0
LINE
  5
1AE
330
172
100
AcDbEntity
  8
M-PIPE
100
AcDbLine
 10
620.5747821004456
 20
1657.655266574618
 30
0.0
 11
640.0379918317248
 21
1657.655266574618
 31
0.0
1001
REVIT
1002
{
1070
     3
1000
923097
1002
}
  0
ELLIPSE
  5
1AF
330
172
100
AcDbEntity
  8
M-PIPE
100
AcDbEllipse
 10
630.306386966085
 20
1692.655266574635
 30
0.0
 11
0.0
 21
36.49999999999606
 31
0.0
210
0.0
220
0.0
230
1.0
 40
0.9396926207858935
 41
3.42927475300415
 42
3.639308717573263
1001
REVIT
1002
{
1070
     3
1000
923097
1002
}
  0
LINE
  5
1B0
330
172
100
AcDbEntity
  8
M-PIPE
100
AcDbLine
 10
646.681309027389
 20
1660.583619975212
 30
0.0
 11
660.4438766120156
 21
1675.229438490969
 31
0.0
1001
REVIT
1002
{
1070
     3
1000
923097
1002
}
  0
ELLIPSE
  5
1B1
330
172
100
AcDbEntity
  8
M-PIPE
100
AcDbEllipse
 10
630.306386966085
 20
1692.655266574635
 30
0.0
 11
0.0
 21
36.49999999999586
 31
0.0
210
0.0
220
0.0
230
1.0
 40
0.9396926207859046
 41
4.214672916401221
 42
4.424706880969911
1001
REVIT
1002
{
1070
     3
1000
923097
1002
}
  0
LINE
  5
1B2
330
172
100
AcDbEntity
  8
M-PIPE
100
AcDbLine
 10
663.1956286936034
 20
1682.299108986087
 30
0.0
 11
663.1956286936035
 21
1692.655266574634
 31
0.0
1001
REVIT
1002
{
1070
     3
1000
923097
1002
}
  0
ELLIPSE
  5
1B3
330
172
100
AcDbEntity
  8
M-PIPE
100
AcDbEllipse
 10
630.3063869660851
 20
1692.655266574635
 30
0.0
 11
0.0
 21
33.99999999999887
 31
0.0
210
0.0
220
0.0
230
1.0
 40
0.9396926207859129
 41
4.712388980384685
 42
6.195918844579879
1001
REVIT
1002
{
1070
     3
1000
923097
1002
}
  0
ELLIPSE
  5
1B4
330
172
100
AcDbEntity
  8
M-PIPE
100
AcDbEllipse
 10
630.3063869660851
 20
1692.655266574635
 30
0.0
 11
0.0
 21
33.99999999999909
 31
0.0
210
0.0
220
0.0
230
1.0
 40
0.9396926207859054
 41
3.228859116189516
 42
4.712388980384685
1001
REVIT
1002
{
1070
     3
1000
923097
1002
}
  0
ELLIPSE
  5
1B5
330
172
100
AcDbEntity
  8
M-PIPE
100
AcDbEllipse
 10
619.3617423796641
 20
1692.655266574634
 30
0.0
 11
0.0
 21
33.49999999999683
 31
0.0
210
0.0
220
0.0
230
1.0
 40
0.939692620785911
 41
4.712388980384698
 42
6.647460048874343
1001
REVIT
1002
{
1070
     3
1000
923097
1002
}
  0
ELLIPSE
  5
1B6
330
172
100
AcDbEntity
  8
M-PIPE
100
AcDbEllipse
 10
619.3617423796641
 20
1692.655266574634
 30
0.0
 11
0.0
 21
33.49999999999682
 31
0.0
210
0.0
220
0.0
230
1.0
 40
0.9396926207859134
 41
2.777317911895075
 42
4.712388980384691
1001
REVIT
1002
{
1070
     3
1000
923097
1002
}
  0
LINE
  5
1B7
330
172
100
AcDbEntity
  8
M-PIPE
100
AcDbLine
 10
650.7855507472352
 20
1724.726913174096
 30
0.0
 11
664.5481183319674
 21
1710.081094658226
 31
0.0
1001
REVIT
1002
{
1070
     3
1000
923097
1002
}
  0
LINE
  5
1B8
330
172
100
AcDbEntity
  8
M-PIPE
100
AcDbLine
 10
667.2998704135181
 20
1703.011424163181
 30
0.0
 11
667.299870413518
 21
1682.299108986088
 31
0.0
1001
REVIT
1002
{
1070
     3
1000
923097
1002
}
  0
LINE
  5
1B9
330
172
100
AcDbEntity
  8
M-PIPE
100
AcDbLine
 10
664.5481183319297
 20
1675.229438490969
 30
0.0
 11
650.7855507473038
 21
1660.583619975213
 31
0.0
1001
REVIT
1002
{
1070
     3
1000
923097
1002
}
  0
LWPOLYLINE
  5
1BA
330
172
100
AcDbEntity
  8
P-SANR-FIXT
100
AcDbPolyline
 90
       22
 70
   128
 43
0.0
 10
586.6783926970561
 20
1711.573651897701
 10
585.9691707332894
 20
1710.86395319272
 10
585.288493397488
 20
1710.126059091467
 10
584.6373257842707
 20
1709.361241121537
 10
584.0165768802032
 20
1708.570798030908
 10
583.4271001774461
 20
1707.756053044714
 10
582.8696943877737
 20
1706.918351336958
 10
582.3451042260288
 20
1706.059057710077
 10
581.8540212354507
 20
1705.179554472303
 10
581.3970846307885
 20
1704.281239500427
 10
580.9748821385465
 20
1703.365524474035
 10
580.587950817002
 20
1702.4338332663
 10
580.2367778417076
 20
1701.487600475948
 10
579.9218012449714
 20
1700.528270085047
 10
579.6434106002865
 20
1699.557294227538
 10
579.4019476448007
 20
1698.576132054029
 10
579.1977068347189
 20
1697.586248679118
 10
579.0309358299796
 20
1696.589114198326
 10
578.9018359057199
 20
1695.58620276261
 10
578.8105622889
 20
1694.578991699235
 10
578.757224419106
 20
1693.568960668585
 10
578.7417088763791
 20
1692.655266574655
  0
LWPOLYLINE
  5
1BB
330
172
100
AcDbEntity
  8
P-SANR-FIXT
100
AcDbPolyline
 90
       22
 70
   128
 43
0.0
 10
578.7417088763791
 20
1692.655266574655
 10
578.7607179448998
 20
1691.643961395253
 10
578.8177224185456
 20
1690.634138073661
 10
578.9126540631607
 20
1689.627277675038
 10
579.0453990271738
 20
1688.624859670464
 10
579.2157976497817
 20
1687.628361117775
 10
579.4236441927942
 20
1686.639255815334
 10
579.6686864967328
 20
1685.659013418903
 10
579.9506255622134
 20
1684.689098511089
 10
580.2691150583152
 20
1683.730969612099
 10
580.6237607605225
 20
1682.786078119667
 10
581.0141199220216
 20
1681.855867165169
 10
581.4397005836267
 20
1680.941770372105
 10
581.89996082942
 20
1680.045210502394
 10
582.3943079973767
 20
1679.167597975389
 10
582.9220978567219
 20
1678.310329244217
 10
583.4826337666007
 20
1677.474785014094
 10
584.0751658337268
 20
1676.66232828778
 10
584.6988900899922
 20
1675.874302224341
 10
585.3529477144603
 20
1675.112027799052
 10
586.0364243276363
 20
1674.376801254599
 10
586.6783926970562
 20
1673.736881251608
  0
LWPOLYLINE
  5
1BC
330
172
100
AcDbEntity
  8
P-SANR-FIXT
100
AcDbPolyline
 90
       10
 70
   128
 43
0.0
 10
602.8622239490251
 20
1721.996562375315
 10
600.6137246058293
 20
1720.998962252251
 10
598.4701962351691
 20
1719.938981838668
 10
596.4364488066936
 20
1718.825998239316
 10
594.5161258240567
 20
1717.66952368953
 10
592.7117125263373
 20
1716.479065334803
 10
591.0245621738296
 20
1715.263990516875
 10
589.4549389399258
 20
1714.033399770565
 10
588.0020756812481
 20
1712.796009398007
 10
586.6783926970765
 20
1711.573651897721
  0
LWPOLYLINE
  5
1BD
330
172
100
AcDbEntity
  8
P-SANR-FIXT
100
AcDbPolyline
 90
       10
 70
   128
 43
0.0
 10
586.6783926970769
 20
1673.736881251589
 10
588.0174807514362
 20
1672.500858383801
 10
589.4716250920585
 20
1671.263497176136
 10
591.0425432596388
 20
1670.033029313884
 10
592.730991377787
 20
1668.818175942391
 10
594.5366935412272
 20
1667.628041201597
 10
596.4582841997596
 20
1666.471994685643
 10
598.4932654406393
 20
1665.35954434376
 10
600.6379808948636
 20
1664.300201692946
 10
602.862223949026
 20
1663.313970773996
  0
SPLINE
  5
1BE
330
172
100
AcDbEntity
  8
P-SANR-FIXT
100
AcDbSpline
210
0.0
220
0.0
230
1.0
 70
     8
 71
     3
 72
     9
 73
     5
 74
     0
 42
0.000000001
 43
0.0000000001
 40
-1.0
 40
-1.0
 40
-1.0
 40
-1.0
 40
-0.5
 40
0.0
 40
0.0
 40
0.0
 40
0.0
 10
623.869696558429
 20
1704.665215941975
 30
0.0
 10
623.6751886051488
 20
1704.896201760293
 30
0.0
 10
623.3479496980674
 20
1705.371753957686
 30
0.0
 10
623.1462861894767
 20
1705.871079966133
 30
0.0
 10
623.0772847562125
 20
1706.12579727634
 30
0.0
  0
SPLINE
  5
1BF
330
172
100
AcDbEntity
  8
P-SANR-FIXT
100
AcDbSpline
210
0.0
220
0.0
230
1.0
 70
     8
 71
     3
 72
     9
 73
     5
 74
     0
 42
0.000000001
 43
0.0000000001
 40
-1.0
 40
-1.0
 40
-1.0
 40
-1.0
 40
-0.5
 40
0.0
 40
0.0
 40
0.0
 40
0.0
 10
603.5299468604278
 20
1718.135746643698
 30
0.0
 10
603.2229968466094
 20
1718.112015151761
 30
0.0
 10
602.6506538033976
 20
1718.08824134066
 30
0.0
 10
602.1651920142133
 20
1718.112015151761
 30
0.0
 10
601.9451232544224
 20
1718.135746643698
 30
0.0
  0
SPLINE
  5
1C0
330
172
100
AcDbEntity
  8
P-SANR-FIXT
100
AcDbSpline
210
0.0
220
0.0
230
1.0
 70
     8
 71
     3
 72
     8
 73
     4
 74
     0
 42
0.000000001
 43
0.0000000001
 40
-0.5
 40
-0.5
 40
-0.5
 40
-0.5
 40
-0.25
 40
-0.25
 40
-0.25
 40
-0.25
 10
581.9654046863607
 20
1705.377697410449
 30
0.0
 10
581.899291884401
 20
1705.255837634718
 30
0.0
 10
581.8392972241993
 20
1705.137108365547
 30
0.0
 10
581.7808242033455
 20
1705.019148491334
 30
0.0
  0
SPLINE
  5
1C1
330
172
100
AcDbEntity
  8
P-SANR-FIXT
100
AcDbSpline
210
0.0
220
0.0
230
1.0
 70
     8
 71
     3
 72
     9
 73
     5
 74
     0
 42
0.000000001
 43
0.0000000001
 40
-1.0
 40
-1.0
 40
-1.0
 40
-1.0
 40
-0.5
 40
-0.25
 40
-0.25
 40
-0.25
 40
-0.25
 10
581.6053735564163
 20
1680.645317207342
 30
0.0
 10
581.7130002558322
 20
1680.414331389021
 30
0.0
 10
581.8932684957458
 20
1680.057667240972
 30
0.0
 10
582.1006419846079
 20
1679.687630324206
 30
0.0
 10
582.1727236162967
 20
1679.56290996544
 30
0.0
  0
SPLINE
  5
1C2
330
172
100
AcDbEntity
  8
P-SANR-FIXT
100
AcDbSpline
210
0.0
220
0.0
230
1.0
 70
     8
 71
     3
 72
     9
 73
     5
 74
     0
 42
0.000000001
 43
0.0000000001
 40
-1.0
 40
-1.0
 40
-1.0
 40
-1.0
 40
-0.5
 40
0.0
 40
0.0
 40
0.0
 40
0.0
 10
601.9451232544229
 20
1667.174786505611
 30
0.0
 10
602.1651920142138
 20
1667.198517997548
 30
0.0
 10
602.6506538033985
 20
1667.222291808649
 30
0.0
 10
603.2229968466102
 20
1667.198517997548
 30
0.0
 10
603.5299468604285
 20
1667.174786505611
 30
0.0
  0
SPLINE
  5
1C3
330
172
100
AcDbEntity
  8
P-SANR-FIXT
100
AcDbSpline
210
0.0
220
0.0
230
1.0
 70
     8
 71
     3
 72
     9
 73
     5
 74
     0
 42
0.000000001
 43
0.0000000001
 40
-1.0
 40
-1.0
 40
-1.0
 40
-1.0
 40
-0.5
 40
0.0
 40
0.0
 40
0.0
 40
0.0
 10
623.0772847562128
 20
1679.184735872969
 30
0.0
 10
623.1462861894771
 20
1679.439453183176
 30
0.0
 10
623.3479496980678
 20
1679.938779191623
 30
0.0
 10
623.6751886051491
 20
1680.414331389017
 30
0.0
 10
623.8696965584294
 20
1680.645317207335
 30
0.0
  0
SPLINE
  5
1C4
330
172
100
AcDbEntity
  8
P-SANR-FIXT
100
AcDbSpline
210
0.0
220
0.0
230
1.0
 70
     8
 71
     3
 72
    23
 73
    19
 74
     0
 42
0.000000001
 43
0.0000000001
 40
-1.0
 40
-1.0
 40
-1.0
 40
-1.0
 40
-0.875
 40
-0.8125
 40
-0.78125
 40
-0.75
 40
-0.71875
 40
-0.6875
 40
-0.625
 40
-0.5625
 40
-0.53125
 40
-0.5
 40
-0.46875
 40
-0.4375
 40
-0.375
 40
-0.3125
 40
-0.25
 40
0.0
 40
0.0
 40
0.0
 40
0.0
 10
601.9451232544224
 20
1718.135746643698
 30
0.0
 10
601.5230128064283
 20
1718.203914883039
 30
0.0
 10
601.0297528390585
 20
1718.441726801491
 30
0.0
 10
600.7157535923036
 20
1718.821363627126
 30
0.0
 10
600.6097968901704
 20
1719.051305606748
 30
0.0
 10
600.5632666771305
 20
1719.228106263243
 30
0.0
 10
600.5616962728224
 20
1719.400188341376
 30
0.0
 10
600.6242850626936
 20
1719.614563407493
 30
0.0
 10
600.7934708853894
 20
1719.858642648921
 30
0.0
 10
601.0300447485462
 20
1720.08434376208
 30
0.0
 10
601.2308200632011
 20
1720.267825611309
 30
0.0
 10
601.3770455192378
 20
1720.41370171783
 30
0.0
 10
601.5258011362308
 20
1720.563494045699
 30
0.0
 10
601.7435181295418
 20
1720.756265406556
 30
0.0
 10
602.0399642516219
 20
1720.99076297397
 30
0.0
 10
602.4273706795268
 20
1721.262948116819
 30
0.0
 10
603.2395085945722
 20
1721.806001740618
 30
0.0
 10
604.0021943386136
 20
1722.239030262684
 30
0.0
 10
604.6631502163354
 20
1722.548216892618
 30
0.0
  0
ELLIPSE
  5
1C5
330
172
100
AcDbEntity
  8
P-SANR-FIXT
100
AcDbEllipse
 10
612.4787879208996
 20
1692.655266574655
 30
0.0
 11
0.0
 21
31.02845079977456
 31
0.0
210
0.0
220
0.0
230
0.9999999999999998
 40
0.9396926207859095
 41
6.011815189188459
 42
6.55455542517071
  0
SPLINE
  5
1C6
330
172
100
AcDbEntity
  8
P-SANR-FIXT
100
AcDbSpline
210
0.0
220
0.0
230
1.0
 70
     8
 71
     3
 72
    23
 73
    19
 74
     0
 42
0.000000001
 43
0.0000000001
 40
-1.0
 40
-1.0
 40
-1.0
 40
-1.0
 40
-0.75
 40
-0.6875
 40
-0.625
 40
-0.5625
 40
-0.53125
 40
-0.5
 40
-0.46875
 40
-0.4375
 40
-0.375
 40
-0.3125
 40
-0.28125
 40
-0.25
 40
-0.21875
 40
-0.1875
 40
-0.125
 40
0.0
 40
0.0
 40
0.0
 40
0.0
 10
620.2944256254652
 20
1722.548216892617
 30
0.0
 10
619.2455870227847
 20
1722.239030262684
 30
0.0
 10
617.88073915764
 20
1721.806001740618
 30
0.0
 10
616.1480306083547
 20
1721.262948116818
 30
0.0
 10
615.2636869019229
 20
1720.99076297397
 30
0.0
 10
614.5043893218097
 20
1720.756265406556
 30
0.0
 10
613.880663969069
 20
1720.563494045699
 30
0.0
 10
613.4017358694869
 20
1720.41370171783
 30
0.0
 10
612.9181689931416
 20
1720.267825611309
 30
0.0
 10
612.2727736931655
 20
1720.084343762079
 30
0.0
 10
611.4508870134605
 20
1719.858642648921
 30
0.0
 10
610.5807303804968
 20
1719.614563407493
 30
0.0
 10
609.8354600104805
 20
1719.400188341376
 30
0.0
 10
609.24418879666
 20
1719.228106263243
 30
0.0
 10
608.6220265644438
 20
1719.051305606748
 30
0.0
 10
607.7603138451839
 20
1718.821363627126
 30
0.0
 10
606.159088994709
 20
1718.441726801491
 30
0.0
 10
604.621687374373
 20
1718.203914883039
 30
0.0
 10
603.5299468604278
 20
1718.135746643698
 30
0.0
  0
SPLINE
  5
1C7
330
172
100
AcDbEntity
  8
P-SANR-FIXT
100
AcDbSpline
210
0.0
220
0.0
230
1.0
 70
     8
 71
     3
 72
    21
 73
    17
 74
     0
 42
0.000000001
 43
0.0000000001
 40
-1.0
 40
-1.0
 40
-1.0
 40
-1.0
 40
-0.8333333333333332
 40
-0.75
 40
-0.7083333333333333
 40
-0.6666666666666666
 40
-0.625
 40
-0.5833333333333333
 40
-0.5
 40
-0.4166666666666666
 40
-0.375
 40
-0.3333333333333333
 40
-0.2916666666666666
 40
-0.25
 40
-0.1666666666666666
 40
0.0
 40
0.0
 40
0.0
 40
0.0
 10
623.0772847562128
 20
1706.12579727634
 30
0.0
 10
623.026146073647
 20
1706.485146718031
 30
0.0
 10
623.0083575886696
 20
1706.9990510889
 30
0.0
 10
623.070462008799
 20
1707.540188935424
 30
0.0
 10
623.1271332106736
 20
1707.830976117449
 30
0.0
 10
623.179029723053
 20
1708.040494575861
 30
0.0
 10
623.2419568064403
 20
1708.237237383738
 30
0.0
 10
623.3406521768871
 20
1708.480014840213
 30
0.0
 10
623.4853352054734
 20
1708.754506910494
 30
0.0
 10
623.64733655714
 20
1709.004726698144
 30
0.0
 10
623.7819582852615
 20
1709.199293095723
 30
0.0
 10
623.8838562478738
 20
1709.345730307295
 30
0.0
 10
623.9874174851645
 20
1709.491021607302
 30
0.0
 10
624.1298561418915
 20
1709.677788230847
 30
0.0
 10
624.3884058949499
 20
1709.989660236604
 30
0.0
 10
624.6243227150209
 20
1710.229798529704
 30
0.0
 10
624.7862470843516
 20
1710.377697410437
 30
0.0
  0
SPLINE
  5
1C8
330
172
100
AcDbEntity
  8
P-SANR-FIXT
100
AcDbSpline
210
0.0
220
0.0
230
1.0
 70
     8
 71
     3
 72
     9
 73
     5
 74
     0
 42
0.000000001
 43
0.0000000001
 40
-1.0
 40
-1.0
 40
-1.0
 40
-1.0
 40
-0.5
 40
0.0
 40
0.0
 40
0.0
 40
0.0
 10
624.7862470843516
 20
1710.377697410437
 30
0.0
 10
625.9563302367284
 20
1711.41079223186
 30
0.0
 10
628.6130595590183
 20
1713.197067569771
 30
0.0
 10
631.4815145941032
 20
1714.360293155175
 30
0.0
 10
632.8977827261365
 20
1714.804672403881
 30
0.0
  0
ELLIPSE
  5
1C9
330
172
100
AcDbEntity
  8
P-SANR-FIXT
100
AcDbEllipse
 10
612.4787879208996
 20
1692.655266574655
 30
0.0
 11
0.0
 21
31.02845079977455
 31
0.0
210
0.0
220
0.0
230
0.9999999999999998
 40
0.9396926207859086
 41
4.96461763799226
 42
5.507357873970826
  0
SPLINE
  5
1CA
330
172
100
AcDbEntity
  8
P-SANR-FIXT
100
AcDbSpline
210
0.0
220
0.0
230
1.0
 70
     8
 71
     3
 72
    23
 73
    19
 74
     0
 42
0.000000001
 43
0.0000000001
 40
-1.0
 40
-1.0
 40
-1.0
 40
-1.0
 40
-0.75
 40
-0.6875
 40
-0.625
 40
-0.5625
 40
-0.53125
 40
-0.5
 40
-0.46875
 40
-0.4375
 40
-0.375
 40
-0.3125
 40
-0.28125
 40
-0.25
 40
-0.21875
 40
-0.1875
 40
-0.125
 40
0.0
 40
0.0
 40
0.0
 40
0.0
 10
640.71342043063
 20
1700.398811063332
 30
0.0
 10
639.5099371466272
 20
1700.422955074849
 30
0.0
 10
637.9432322045151
 20
1700.48391862015
 30
0.0
 10
635.9987305338544
 20
1700.636593051094
 30
0.0
 10
635.0171175088867
 20
1700.729490416266
 30
0.0
 10
634.1826992166192
 20
1700.825524738111
 30
0.0
 10
633.5035990672255
 20
1700.916228721714
 30
0.0
 10
632.9853134391749
 20
1700.993476860736
 30
0.0
 10
632.4673682806452
 20
1701.075986574803
 30
0.0
 10
631.7838108735156
 20
1701.18912764767
 30
0.0
 10
630.9245773553684
 20
1701.345990695889
 30
0.0
 10
630.0310323042128
 20
1701.54696017177
 30
0.0
 10
629.2819743974672
 20
1701.754354012487
 30
0.0
 10
628.6988735919721
 20
1701.94149586877
 30
0.0
 10
628.100004506731
 20
1702.161230686084
 30
0.0
 10
627.2930828929291
 20
1702.492164177676
 30
0.0
 10
625.8617164982561
 20
1703.184885802789
 30
0.0
 10
624.6384494869925
 20
1704.001713764884
 30
0.0
 10
623.869696558429
 20
1704.665215941975
 30
0.0
  0
SPLINE
  5
1CB
330
172
100
AcDbEntity
  8
P-SANR-FIXT
100
AcDbSpline
210
0.0
220
0.0
230
1.0
 70
     8
 71
     3
 72
    23
 73
    19
 74
     0
 42
0.000000001
 43
0.0000000001
 40
-1.0
 40
-1.0
 40
-1.0
 40
-1.0
 40
-0.875
 40
-0.8125
 40
-0.78125
 40
-0.75
 40
-0.71875
 40
-0.6875
 40
-0.625
 40
-0.5625
 40
-0.53125
 40
-0.5
 40
-0.46875
 40
-0.4375
 40
-0.375
 40
-0.3125
 40
-0.25
 40
0.0
 40
0.0
 40
0.0
 40
0.0
 10
623.8696965584292
 20
1680.645317207335
 30
0.0
 10
624.6384494869923
 20
1681.308819384425
 30
0.0
 10
625.8617164982563
 20
1682.12564734652
 30
0.0
 10
627.2930828929292
 20
1682.818368971634
 30
0.0
 10
628.1000045067311
 20
1683.149302463226
 30
0.0
 10
628.698873591972
 20
1683.369037280539
 30
0.0
 10
629.2819743974672
 20
1683.556179136822
 30
0.0
 10
630.0310323042128
 20
1683.76357297754
 30
0.0
 10
630.9245773553684
 20
1683.96454245342
 30
0.0
 10
631.7838108735156
 20
1684.121405501639
 30
0.0
 10
632.4673682806452
 20
1684.234546574507
 30
0.0
 10
632.9853134391749
 20
1684.317056288574
 30
0.0
 10
633.5035990672253
 20
1684.394304427596
 30
0.0
 10
634.1826992166192
 20
1684.485008411199
 30
0.0
 10
635.0171175088868
 20
1684.581042733043
 30
0.0
 10
635.9987305338544
 20
1684.673940098216
 30
0.0
 10
637.9432322045151
 20
1684.82661452916
 30
0.0
 10
639.5099371466273
 20
1684.88757807446
 30
0.0
 10
640.71342043063
 20
1684.911722085978
 30
0.0
  0
ELLIPSE
  5
1CC
330
172
100
AcDbEntity
  8
P-SANR-FIXT
100
AcDbEllipse
 10
612.4787879208996
 20
1692.655266574655
 30
0.0
 11
0.0
 21
31.02845079977456
 31
0.0
210
0.0
220
0.0
230
0.9999999999999998
 40
0.9396926207859054
 41
3.917420086798585
 42
4.460160322777139
  0
SPLINE
  5
1CD
330
172
100
AcDbEntity
  8
P-SANR-FIXT
100
AcDbSpline
210
0.0
220
0.0
230
1.0
 70
     8
 71
     3
 72
     9
 73
     5
 74
     0
 42
0.000000001
 43
0.0000000001
 40
-1.0
 40
-1.0
 40
-1.0
 40
-1.0
 40
-0.5
 40
0.0
 40
0.0
 40
0.0
 40
0.0
 10
632.8977827261368
 20
1670.505860745429
 30
0.0
 10
631.4815145941036
 20
1670.950239994134
 30
0.0
 10
628.6130595590186
 20
1672.113465579538
 30
0.0
 10
625.9563302367285
 20
1673.89974091745
 30
0.0
 10
624.786247084352
 20
1674.932835738872
 30
0.0
  0
SPLINE
  5
1CE
330
172
100
AcDbEntity
  8
P-SANR-FIXT
100
AcDbSpline
210
0.0
220
0.0
230
1.0
 70
     8
 71
     3
 72
    21
 73
    17
 74
     0
 42
0.000000001
 43
0.0000000001
 40
-1.0
 40
-1.0
 40
-1.0
 40
-1.0
 40
-0.8333333333333332
 40
-0.75
 40
-0.7083333333333333
 40
-0.6666666666666666
 40
-0.625
 40
-0.5833333333333333
 40
-0.5
 40
-0.4166666666666666
 40
-0.375
 40
-0.3333333333333333
 40
-0.2916666666666666
 40
-0.25
 40
-0.1666666666666666
 40
0.0
 40
0.0
 40
0.0
 40
0.0
 10
624.786247084352
 20
1674.932835738872
 30
0.0
 10
624.6243227150211
 20
1675.080734619605
 30
0.0
 10
624.3884058949499
 20
1675.320872912705
 30
0.0
 10
624.1298561418918
 20
1675.632744918462
 30
0.0
 10
623.9874174851649
 20
1675.819511542008
 30
0.0
 10
623.883856247874
 20
1675.964802842014
 30
0.0
 10
623.7819582852616
 20
1676.111240053586
 30
0.0
 10
623.6473365571404
 20
1676.305806451165
 30
0.0
 10
623.4853352054738
 20
1676.556026238815
 30
0.0
 10
623.3406521768874
 20
1676.830518309096
 30
0.0
 10
623.2419568064405
 20
1677.073295765571
 30
0.0
 10
623.1790297230531
 20
1677.270038573448
 30
0.0
 10
623.1271332106737
 20
1677.47955703186
 30
0.0
 10
623.0704620087992
 20
1677.770344213885
 30
0.0
 10
623.0083575886697
 20
1678.311482060409
 30
0.0
 10
623.0261460736472
 20
1678.825386431278
 30
0.0
 10
623.0772847562128
 20
1679.184735872969
 30
0.0
  0
SPLINE
  5
1CF
330
172
100
AcDbEntity
  8
P-SANR-FIXT
100
AcDbSpline
210
0.0
220
0.0
230
1.0
 70
     8
 71
     3
 72
    23
 73
    19
 74
     0
 42
0.000000001
 43
0.0000000001
 40
-1.0
 40
-1.0
 40
-1.0
 40
-1.0
 40
-0.875
 40
-0.8125
 40
-0.78125
 40
-0.75
 40
-0.71875
 40
-0.6875
 40
-0.625
 40
-0.5625
 40
-0.53125
 40
-0.5
 40
-0.46875
 40
-0.4375
 40
-0.375
 40
-0.3125
 40
-0.25
 40
0.0
 40
0.0
 40
0.0
 40
0.0
 10
603.5299468604285
 20
1667.174786505611
 30
0.0
 10
604.6216873743734
 20
1667.10661826627
 30
0.0
 10
606.1590889947098
 20
1666.868806347818
 30
0.0
 10
607.7603138451843
 20
1666.489169522182
 30
0.0
 10
608.6220265644442
 20
1666.259227542561
 30
0.0
 10
609.2441887966605
 20
1666.082426886066
 30
0.0
 10
609.835460010481
 20
1665.910344807933
 30
0.0
 10
610.5807303804971
 20
1665.695969741816
 30
0.0
 10
611.4508870134609
 20
1665.451890500388
 30
0.0
 10
612.2727736931658
 20
1665.226189387229
 30
0.0
 10
612.9181689931421
 20
1665.042707538
 30
0.0
 10
613.4017358694874
 20
1664.896831431479
 30
0.0
 10
613.8806639690695
 20
1664.74703910361
 30
0.0
 10
614.5043893218101
 20
1664.554267742753
 30
0.0
 10
615.2636869019232
 20
1664.319770175338
 30
0.0
 10
616.1480306083551
 20
1664.047585032491
 30
0.0
 10
617.8807391576404
 20
1663.504531408691
 30
0.0
 10
619.245587022785
 20
1663.071502886625
 30
0.0
 10
620.2944256254654
 20
1662.762316256692
 30
0.0
  0
ELLIPSE
  5
1D0
330
172
100
AcDbEntity
  8
P-SANR-FIXT
100
AcDbEllipse
 10
612.4787879208996
 20
1692.655266574655
 30
0.0
 11
0.0
 21
31.02845079977447
 31
0.0
210
0.0
220
0.0
230
1.0
 40
0.9396926207859069
 41
2.87022253559869
 42
3.412962771580932
  0
SPLINE
  5
1D1
330
172
100
AcDbEntity
  8
P-SANR-FIXT
100
AcDbSpline
210
0.0
220
0.0
230
1.0
 70
     8
 71
     3
 72
    23
 73
    19
 74
     0
 42
0.000000001
 43
0.0000000001
 40
-1.0
 40
-1.0
 40
-1.0
 40
-1.0
 40
-0.75
 40
-0.6875
 40
-0.625
 40
-0.5625
 40
-0.53125
 40
-0.5
 40
-0.46875
 40
-0.4375
 40
-0.375
 40
-0.3125
 40
-0.28125
 40
-0.25
 40
-0.21875
 40
-0.1875
 40
-0.125
 40
0.0
 40
0.0
 40
0.0
 40
0.0
 10
604.6631502163357
 20
1662.762316256691
 30
0.0
 10
604.0021943386142
 20
1663.071502886625
 30
0.0
 10
603.2395085945725
 20
1663.504531408691
 30
0.0
 10
602.4273706795271
 20
1664.047585032491
 30
0.0
 10
602.039964251622
 20
1664.319770175338
 30
0.0
 10
601.7435181295419
 20
1664.554267742753
 30
0.0
 10
601.5258011362312
 20
1664.74703910361
 30
0.0
 10
601.3770455192382
 20
1664.896831431479
 30
0.0
 10
601.2308200632012
 20
1665.042707538
 30
0.0
 10
601.0300447485465
 20
1665.22618938723
 30
0.0
 10
600.7934708853896
 20
1665.451890500388
 30
0.0
 10
600.6242850626938
 20
1665.695969741816
 30
0.0
 10
600.5616962728228
 20
1665.910344807933
 30
0.0
 10
600.5632666771309
 20
1666.082426886066
 30
0.0
 10
600.6097968901705
 20
1666.259227542561
 30
0.0
 10
600.7157535923039
 20
1666.489169522182
 30
0.0
 10
601.029752839059
 20
1666.868806347818
 30
0.0
 10
601.5230128064287
 20
1667.10661826627
 30
0.0
 10
601.9451232544229
 20
1667.174786505611
 30
0.0
  0
ELLIPSE
  5
1D2
330
172
100
AcDbEntity
  8
P-SANR-FIXT
100
AcDbEllipse
 10
613.7184100147778
 20
1692.655266574655
 30
0.0
 11
0.0000000000018294
 21
31.53381379959251
 31
0.0
210
0.0
220
0.0
230
1.0
 40
0.9396926207859028
 41
4.712388980384744
 42
6.675884388878376
  0
ELLIPSE
  5
1D3
330
172
100
AcDbEntity
  8
P-SANR-FIXT
100
AcDbEllipse
 10
613.7184100147778
 20
1692.655266574655
 30
0.0
 11
0.0
 21
31.53381379959224
 31
0.0
210
0.0
220
0.0
230
1.0
 40
0.939692620785911
 41
2.748893571891072
 42
4.712388980384692
  0
ELLIPSE
  5
1D4
330
172
100
AcDbEntity
  8
P-SANR-FIXT
100
AcDbEllipse
 10
612.4787879209003
 20
1728.10012824621
 30
0.0
 11
0.0
 21
10.00000000000008
 31
0.0
210
0.0
220
0.0
230
0.9999999999999998
 40
0.9396926207858989
 41
2.159389081876676
 42
2.70657664965065
  0
ELLIPSE
  5
1D5
330
172
100
AcDbEntity
  8
P-SANR-FIXT
100
AcDbEllipse
 10
612.4787879209009
 20
1657.210404903098
 30
0.0
 11
0.0
 21
10.00000000000015
 31
0.0
210
0.0
220
0.0
230
1.0
 40
0.9396926207859232
 41
0.4350519522222866
 42
0.982203571713115
  0
ELLIPSE
  5
1D6
330
172
100
AcDbEntity
  8
P-SANR-FIXT
100
AcDbEllipse
 10
641.3237341650656
 20
1710.377697410438
 30
0.0
 11
0.0
 21
10.00000000000023
 31
0.0
210
0.0
220
0.0
230
1.0
 40
0.9396926207858925
 41
1.11219153068859
 42
1.570796326794898
  0
ELLIPSE
  5
1D7
330
172
100
AcDbEntity
  8
P-SANR-FIXT
100
AcDbEllipse
 10
641.3237341650656
 20
1710.377697410438
 30
0.0
 11
0.0
 21
10.00000000000023
 31
0.0
210
0.0
220
0.0
230
1.0
 40
0.9396926207858896
 41
1.570796326794898
 42
3.07659867409494
  0
ELLIPSE
  5
1D8
330
172
100
AcDbEntity
  8
P-SANR-FIXT
100
AcDbEllipse
 10
641.3237341650658
 20
1674.932835738872
 30
0.0
 11
0.0
 21
10.00000000000011
 31
0.0
210
0.0
220
0.0
230
1.0
 40
0.9396926207858944
 41
0.0649939794948855
 42
1.570796326794875
  0
ELLIPSE
  5
1D9
330
172
100
AcDbEntity
  8
P-SANR-FIXT
100
AcDbEllipse
 10
641.3237341650658
 20
1674.932835738872
 30
0.0
 11
0.0000000000009709
 21
9.99999999999977
 31
0.0
210
0.0
220
0.0
230
0.9999999999999998
 40
0.9396926207859209
 41
1.570796326794987
 42
2.029401122901315
  0
LINE
  5
1DA
330
172
100
AcDbEntity
  8
P-SANR-FIXT
100
AcDbLine
 10
643.5425665127905
 20
1731.505266574655
 30
0.0
 11
636.0181233596261
 21
1731.505266574655
 31
0.0
  0
LINE
  5
1DB
330
172
100
AcDbEntity
  8
P-SANR-FIXT
100
AcDbLine
 10
636.0181233596265
 20
1653.805266574655
 30
0.0
 11
643.5425665127913
 21
1653.805266574654
 31
0.0
  0
ELLIPSE
  5
1DC
330
172
100
AcDbEntity
  8
P-SANR-FIXT
100
AcDbEllipse
 10
636.018123359625
 20
1692.655266574655
 30
0.0
 11
0.0
 21
38.85000000000047
 31
0.0
210
0.0
220
0.0
230
1.0
 40
0.9396926207859054
 41
4.712388980384702
 42
6.754909228677533
  0
ELLIPSE
  5
1DD
330
172
100
AcDbEntity
  8
P-SANR-FIXT
100
AcDbEllipse
 10
636.018123359625
 20
1692.655266574655
 30
0.0
 11
0.0000000000015896
 21
38.85000000000037
 31
0.0
210
0.0
220
0.0
230
1.0
 40
0.9396926207859097
 41
2.669718147248064
 42
4.712388980384739
  0
ELLIPSE
  5
1DE
330
172
100
AcDbEntity
  8
P-SANR-FIXT
100
AcDbEllipse
 10
643.5425665127897
 20
1692.655266574655
 30
0.0
 11
0.0000000000008564
 21
38.85000000000037
 31
0.0
210
0.0
220
0.0
230
1.0
 40
0.9396926207859097
 41
4.71238898038471
 42
6.283185307179612
  0
ELLIPSE
  5
1DF
330
172
100
AcDbEntity
  8
P-SANR-FIXT
100
AcDbEllipse
 10
643.5425665127897
 20
1692.655266574655
 30
0.0
 11
0.0000000000008564
 21
38.85000000000037
 31
0.0
210
0.0
220
0.0
230
1.0
 40
0.9396926207859097
 41
3.141592653589813
 42
4.71238898038471
  0
ELLIPSE
  5
1E0
330
172
100
AcDbEntity
  8
P-SANR-FIXT
100
AcDbEllipse
 10
636.018123359625
 20
1692.655266574655
 30
0.0
 11
0.0000000000008567
 21
37.00000000000023
 31
0.0
210
0.0
220
0.0
230
1.0
 40
0.939692620785911
 41
4.71238898038471
 42
6.611449065129299
  0
ELLIPSE
  5
1E1
330
172
100
AcDbEntity
  8
P-SANR-FIXT
100
AcDbEllipse
 10
636.018123359625
 20
1692.655266574655
 30
0.0
 11
0.0
 21
37.00000000000051
 31
0.0
210
0.0
220
0.0
230
1.0
 40
0.9396926207859014
 41
2.813328895646709
 42
4.712388980384691
  0
LINE
  5
1E2
330
172
100
AcDbEntity
  8
P-SANR-FIXT
100
AcDbLine
 10
598.0273949715722
 20
1719.655266574577
 30
0.0
 11
591.5790024704518
 21
1719.655266574577
 31
0.0
  0
LINE
  5
1E3
330
172
100
AcDbEntity
  8
P-SANR-FIXT
100
AcDbLine
 10
591.5790024705152
 20
1665.655266574615
 30
0.0
 11
598.0273949701377
 21
1665.655266574615
 31
0.0
  0
LINE
  5
1E4
330
172
100
AcDbEntity
  8
P-SANR-FIXT
100
AcDbLine
 10
590.274400904747
 20
1719.655407758619
 30
0.0
 11
588.2787092592321
 21
1716.208822488466
 31
0.0
  0
LINE
  5
1E5
330
172
100
AcDbEntity
  8
P-SANR-FIXT
100
AcDbLine
 10
588.2787092592324
 20
1669.101710660844
 30
0.0
 11
590.2744009048156
 21
1665.655125390573
 31
0.0
  0
LINE
  5
1E6
330
172
100
AcDbEntity
  8
P-SANR-FIXT
100
AcDbLine
 10
588.2787092592309
 20
1712.990806196669
 30
0.0
 11
588.278709259231
 21
1716.208822488465
 31
0.0
  0
LINE
  5
1E7
330
172
100
AcDbEntity
  8
P-SANR-FIXT
100
AcDbLine
 10
588.2787092592312
 20
1669.101710660843
 30
0.0
 11
588.2787092592312
 21
1672.319726952929
 31
0.0
  0
SPLINE
  5
1E8
330
172
100
AcDbEntity
  8
P-SANR-FIXT
100
AcDbSpline
210
0.0
220
0.0
230
1.0
 70
     8
 71
     3
 72
     9
 73
     5
 74
     0
 42
0.000000001
 43
0.0000000001
 40
0.4971548179426745
 40
0.4971548179426745
 40
0.4971548179426745
 40
0.4971548179426745
 40
0.5
 40
1.0
 40
1.0
 40
1.0
 40
1.0
 10
590.2744009047458
 20
1719.655266574576
 30
0.0
 10
590.2743727416227
 20
1719.655266574576
 30
0.0
 10
590.2718840272862
 20
1719.655266574577
 30
0.0
 10
590.7092399298305
 20
1719.655266574391
 30
0.0
 10
591.5790024704507
 20
1719.655266574576
 30
0.0
  0
SPLINE
  5
1E9
330
172
100
AcDbEntity
  8
P-SANR-FIXT
100
AcDbSpline
210
0.0
220
0.0
230
1.0
 70
     8
 71
     3
 72
     9
 73
     5
 74
     0
 42
0.000000001
 43
0.0000000001
 40
0.0
 40
0.0
 40
0.0
 40
0.0
 40
0.5
 40
1.0
 40
1.0
 40
1.0
 40
1.0
 10
591.5790024704507
 20
1719.655266574576
 30
0.0
 10
591.7247940407203
 20
1719.655266574576
 30
0.0
 10
591.9442634561188
 20
1719.487560529821
 30
0.0
 10
592.0195054212363
 20
1718.982121743565
 30
0.0
 10
592.0210695412247
 20
1718.650457102953
 30
0.0
  0
SPLINE
  5
1EA
330
172
100
AcDbEntity
  8
P-SANR-FIXT
100
AcDbSpline
210
0.0
220
0.0
230
1.0
 70
     8
 71
     3
 72
     9
 73
     5
 74
     0
 42
0.000000001
 43
0.0000000001
 40
0.0
 40
0.0
 40
0.0
 40
0.0
 40
0.5
 40
1.0
 40
1.0
 40
1.0
 40
1.0
 10
592.0210695412247
 20
1718.650457102953
 30
0.0
 10
592.0195054212363
 20
1718.318792462343
 30
0.0
 10
591.9442634561199
 20
1717.50677353791
 30
0.0
 10
591.7247940407243
 20
1716.464431168611
 30
0.0
 10
591.5790024704566
 20
1715.905266574576
 30
0.0
  0
SPLINE
  5
1EB
330
172
100
AcDbEntity
  8
P-SANR-FIXT
100
AcDbSpline
210
0.0
220
0.0
230
1.0
 70
     8
 71
     3
 72
     8
 73
     4
 74
     0
 42
0.000000001
 43
0.0000000001
 40
0.0
 40
0.0
 40
0.0
 40
0.0
 40
0.0163016345034611
 40
0.0163016345034611
 40
0.0163016345034611
 40
0.0163016345034611
 10
591.5790024704566
 20
1715.905266574576
 30
0.0
 10
591.5506453683845
 20
1715.798163399355
 30
0.0
 10
591.5227505334262
 20
1715.691078849583
 30
0.0
 10
591.4953179655813
 20
1715.584012925258
 30
0.0
  0
SPLINE
  5
1EC
330
172
100
AcDbEntity
  8
P-SANR-FIXT
100
AcDbSpline
210
0.0
220
0.0
230
1.0
 70
     8
 71
     3
 72
     8
 73
     4
 74
     0
 42
0.000000001
 43
0.0000000001
 40
0.9834146515269583
 40
0.9834146515269583
 40
0.9834146515269583
 40
0.9834146515269583
 40
1.0
 40
1.0
 40
1.0
 40
1.0
 10
591.4938860748361
 20
1669.72525140027
 30
0.0
 10
591.5217797089816
 20
1669.618570512313
 30
0.0
 10
591.5501518408734
 20
1669.511908903762
 30
0.0
 10
591.5790024705113
 20
1669.405266574615
 30
0.0
  0
SPLINE
  5
1ED
330
172
100
AcDbEntity
  8
P-SANR-FIXT
100
AcDbSpline
210
0.0
220
0.0
230
1.0
 70
     8
 71
     3
 72
     9
 73
     5
 74
     0
 42
0.000000001
 43
0.0000000001
 40
0.0
 40
0.0
 40
0.0
 40
0.0
 40
0.5
 40
1.0
 40
1.0
 40
1.0
 40
1.0
 10
591.5790024705113
 20
1669.405266574615
 30
0.0
 10
591.7247940407902
 20
1668.846101980579
 30
0.0
 10
591.9442634561881
 20
1667.803759611275
 30
0.0
 10
592.0195054212659
 20
1666.991740686838
 30
0.0
 10
592.0210695412249
 20
1666.660076046228
 30
0.0
  0
SPLINE
  5
1EE
330
172
100
AcDbEntity
  8
P-SANR-FIXT
100
AcDbSpline
210
0.0
220
0.0
230
1.0
 70
     8
 71
     3
 72
     9
 73
     5
 74
     0
 42
0.000000001
 43
0.0000000001
 40
0.0
 40
0.0
 40
0.0
 40
0.0
 40
0.5
 40
1.0
 40
1.0
 40
1.0
 40
1.0
 10
592.0210695412249
 20
1666.660076046228
 30
0.0
 10
592.0195054212661
 20
1666.328411405618
 30
0.0
 10
591.9442634561885
 20
1665.822972619367
 30
0.0
 10
591.7247940407921
 20
1665.655266574615
 30
0.0
 10
591.5790024705142
 20
1665.655266574615
 30
0.0
  0
SPLINE
  5
1EF
330
172
100
AcDbEntity
  8
P-SANR-FIXT
100
AcDbSpline
210
0.0
220
0.0
230
1.0
 70
    24
 71
     3
 72
     8
 73
     4
 74
     0
 42
0.000000001
 43
0.0000000001
 40
0.0
 40
0.0
 40
0.0
 40
0.0
 40
0.5
 40
0.5
 40
0.5
 40
0.5
 10
591.5790024705142
 20
1665.655266574615
 30
0.0
 10
590.7092399302589
 20
1665.655266574615
 30
0.0
 10
590.2743586601308
 20
1665.655266574615
 30
0.0
 10
590.2743586601299
 20
1665.655266574615
 30
0.0
  0
LINE
  5
1F0
330
172
100
AcDbEntity
  8
P-SANR-FIXT
100
AcDbLine
 10
717.4784160481443
 20
1719.655266574577
 30
0.0
 11
702.0870405839824
 21
1719.655266574577
 31
0.0
  0
LINE
  5
1F1
330
172
100
AcDbEntity
  8
P-SANR-FIXT
100
AcDbLine
 10
702.0870405840461
 20
1665.655266574615
 30
0.0
 11
717.4784160480814
 21
1665.655266574615
 31
0.0
  0
LINE
  5
1F2
330
172
100
AcDbEntity
  8
P-SANR-FIXT
100
AcDbLine
 10
720.778709259364
 20
1716.208822488467
 30
0.0
 11
718.7830176138492
 21
1719.655407758619
 31
0.0
  0
LINE
  5
1F3
330
172
100
AcDbEntity
  8
P-SANR-FIXT
100
AcDbLine
 10
718.783017613781
 20
1665.655125390574
 30
0.0
 11
720.7787092593641
 21
1669.101710660845
 31
0.0
  0
LINE
  5
1F4
330
172
100
AcDbEntity
  8
P-SANR-FIXT
100
AcDbLine
 10
720.7787092593626
 20
1716.208822488466
 30
0.0
 11
720.7787092593628
 21
1702.656254617534
 31
0.0
  0
LINE
  5
1F5
330
172
100
AcDbEntity
  8
P-SANR-FIXT
100
AcDbLine
 10
720.778709259363
 20
1674.65325441624
 30
0.0
 11
720.778709259363
 21
1669.101710660844
 31
0.0
  0
LINE
  5
1F6
330
172
100
AcDbEntity
  8
P-SANR-FIXT
100
AcDbLine
 10
700.7787092593502
 20
1702.664142694424
 30
0.0
 11
700.7787092593501
 21
1706.155266574603
 31
0.0
  0
LINE
  5
1F7
330
172
100
AcDbEntity
  8
P-SANR-FIXT
100
AcDbLine
 10
700.7787092593501
 20
1706.155266574602
 30
0.0
 11
700.7787092593499
 21
1719.655266574549
 31
0.0
  0
LINE
  5
1F8
330
172
100
AcDbEntity
  8
P-SANR-FIXT
100
AcDbLine
 10
700.7787092593499
 20
1719.655266574549
 30
0.0
 11
700.7787092593499
 21
1719.606462955332
 31
0.0
  0
LINE
  5
1F9
330
172
100
AcDbEntity
  8
P-SANR-FIXT
100
AcDbLine
 10
700.7787092593502
 20
1665.704070193931
 30
0.0
 11
700.7787092593502
 21
1665.65526657476
 31
0.0
  0
LINE
  5
1FA
330
172
100
AcDbEntity
  8
P-SANR-FIXT
100
AcDbLine
 10
700.7787092593502
 20
1665.65526657476
 30
0.0
 11
700.7787092593503
 21
1674.639122677345
 31
0.0
  0
SPLINE
  5
1FB
330
172
100
AcDbEntity
  8
P-SANR-FIXT
100
AcDbSpline
210
0.0
220
0.0
230
1.0
 70
    24
 71
     3
 72
     8
 73
     4
 74
     0
 42
0.000000001
 43
0.0000000001
 40
0.8147924918283944
 40
0.8147924918283944
 40
0.8147924918283944
 40
0.8147924918283944
 40
0.8795849836582313
 40
0.8795849836582313
 40
0.8795849836582313
 40
0.8795849836582313
 10
700.8321764550268
 20
1719.655266574577
 30
0.0
 10
700.8209358335261
 20
1719.655266574577
 30
0.0
 10
700.813723482552
 20
1719.655266574577
 30
0.0
 10
700.8081495625061
 20
1719.655266574577
 30
0.0
  0
SPLINE
  5
1FC
330
172
100
AcDbEntity
  8
P-SANR-FIXT
100
AcDbSpline
210
0.0
220
0.0
230
1.0
 70
    24
 71
     3
 72
     9
 73
     5
 74
     0
 42
0.000000001
 43
0.0000000001
 40
0.0
 40
0.0
 40
0.0
 40
0.0
 40
0.5
 40
1.0
 40
1.0
 40
1.0
 40
1.0
 10
700.7787092593499
 20
1719.655266574577
 30
0.0
 10
700.7881953704302
 20
1719.655266574577
 30
0.0
 10
701.0157367022822
 20
1719.655266574577
 30
0.0
 10
701.6604162535176
 20
1719.655266574577
 30
0.0
 10
702.0870405839811
 20
1719.655266574577
 30
0.0
  0
SPLINE
  5
1FD
330
172
100
AcDbEntity
  8
P-SANR-FIXT
100
AcDbSpline
210
0.0
220
0.0
230
1.0
 70
    24
 71
     3
 72
     9
 73
     5
 74
     0
 42
0.000000001
 43
0.0000000001
 40
0.0
 40
0.0
 40
0.0
 40
0.0
 40
0.5
 40
0.5028451820573221
 40
0.5028451820573221
 40
0.5028451820573221
 40
0.5028451820573221
 10
717.4784160481429
 20
1719.655266574577
 30
0.0
 10
718.3481785884016
 20
1719.655266574577
 30
0.0
 10
718.7855344913051
 20
1719.655266574577
 30
0.0
 10
718.7830457769709
 20
1719.655266574577
 30
0.0
 10
718.7830176138478
 20
1719.655266574577
 30
0.0
  0
SPLINE
  5
1FE
330
172
100
AcDbEntity
  8
P-SANR-FIXT
100
AcDbSpline
210
0.0
220
0.0
230
1.0
 70
     8
 71
     3
 72
     9
 73
     5
 74
     0
 42
0.000000001
 43
0.0000000001
 40
0.0
 40
0.0
 40
0.0
 40
0.0
 40
0.5
 40
1.0
 40
1.0
 40
1.0
 40
1.0
 10
702.0870405839811
 20
1719.655266574577
 30
0.0
 10
702.2332346610406
 20
1719.655266574577
 30
0.0
 10
702.4533125929181
 20
1719.487583986017
 30
0.0
 10
702.5287700803126
 20
1718.982144240278
 30
0.0
 10
702.530343712889
 20
1718.650457102954
 30
0.0
  0
SPLINE
  5
1FF
330
172
100
AcDbEntity
  8
P-SANR-FIXT
100
AcDbSpline
210
0.0
220
0.0
230
1.0
 70
     8
 71
     3
 72
     9
 73
     5
 74
     0
 42
0.000000001
 43
0.0000000001
 40
0.0
 40
0.0
 40
0.0
 40
0.0
 40
0.5
 40
1.0
 40
1.0
 40
1.0
 40
1.0
 10
702.530343712889
 20
1718.650457102954
 30
0.0
 10
702.5287700803127
 20
1718.318769965631
 30
0.0
 10
702.4533125929192
 20
1717.506708654671
 30
0.0
 10
702.2332346610446
 20
1716.464392203162
 30
0.0
 10
702.0870405839872
 20
1715.905266574577
 30
0.0
  0
SPLINE
  5
200
330
172
100
AcDbEntity
  8
P-SANR-FIXT
100
AcDbSpline
210
0.0
220
0.0
230
1.0
 70
     8
 71
     3
 72
     9
 73
     5
 74
     0
 42
0.000000001
 43
0.0000000001
 40
0.0
 40
0.0
 40
0.0
 40
0.0
 40
0.5
 40
1.0
 40
1.0
 40
1.0
 40
1.0
 10
717.4784160481371
 20
1715.905266574577
 30
0.0
 10
717.3326244778693
 20
1716.464431168611
 30
0.0
 10
717.1131550624737
 20
1717.506773537911
 30
0.0
 10
717.0379130973574
 20
1718.318792462344
 30
0.0
 10
717.0363489773689
 20
1718.650457102953
 30
0.0
  0
SPLINE
  5
201
330
172
100
AcDbEntity
  8
P-SANR-FIXT
100
AcDbSpline
210
0.0
220
0.0
230
1.0
 70
     8
 71
     3
 72
     9
 73
     5
 74
     0
 42
0.000000001
 43
0.0000000001
 40
0.0
 40
0.0
 40
0.0
 40
0.0
 40
0.5
 40
1.0
 40
1.0
 40
1.0
 40
1.0
 10
717.0363489773689
 20
1718.650457102953
 30
0.0
 10
717.0379130973574
 20
1718.982121743565
 30
0.0
 10
717.1131550624749
 20
1719.487560529822
 30
0.0
 10
717.3326244778734
 20
1719.655266574577
 30
0.0
 10
717.4784160481429
 20
1719.655266574577
 30
0.0
  0
SPLINE
  5
202
330
172
100
AcDbEntity
  8
P-SANR-FIXT
100
AcDbSpline
210
0.0
220
0.0
230
1.0
 70
     8
 71
     3
 72
     9
 73
     5
 74
     0
 42
0.000000001
 43
0.0000000001
 40
0.0
 40
0.0
 40
0.0
 40
0.0
 40
0.5
 40
1.0
 40
1.0
 40
1.0
 40
1.0
 10
702.0870405839872
 20
1715.905266574577
 30
0.0
 10
701.6604162535331
 20
1714.300693511747
 30
0.0
 10
701.0157367023061
 20
1711.071120448927
 30
0.0
 10
700.7881953704416
 20
1707.800693511786
 30
0.0
 10
700.7787092593499
 20
1706.155266574636
 30
0.0
  0
SPLINE
  5
203
330
172
100
AcDbEntity
  8
P-SANR-FIXT
100
AcDbSpline
210
0.0
220
0.0
230
1.0
 70
     8
 71
     3
 72
     8
 73
     4
 74
     0
 42
0.000000001
 43
0.0000000001
 40
0.0
 40
0.0
 40
0.0
 40
0.0
 40
0.3549996152258132
 40
0.3549996152258132
 40
0.3549996152258132
 40
0.3549996152258132
 10
700.7787092593499
 20
1706.155266574636
 30
0.0
 10
700.7854443909251
 20
1704.987014715483
 30
0.0
 10
700.844749252639
 20
1703.823911454679
 30
0.0
 10
700.956623844491
 20
1702.665956792227
 30
0.0
  0
SPLINE
  5
204
330
172
100
AcDbEntity
  8
P-SANR-FIXT
100
AcDbSpline
210
0.0
220
0.0
230
1.0
 70
     8
 71
     3
 72
     9
 73
     5
 74
     0
 42
0.000000001
 43
0.0000000001
 40
0.3148748111275153
 40
0.3148748111275153
 40
0.3148748111275153
 40
0.3148748111275153
 40
0.5
 40
1.0
 40
1.0
 40
1.0
 40
1.0
 10
718.6042123152823
 20
1702.499965340701
 30
0.0
 10
718.7234440107654
 20
1703.698475041274
 30
0.0
 10
718.9440748130509
 20
1708.142899216978
 30
0.0
 10
718.3481785883893
 20
1712.620222513566
 30
0.0
 10
717.4784160481371
 20
1715.905266574577
 30
0.0
  0
SPLINE
  5
205
330
172
100
AcDbEntity
  8
P-SANR-FIXT
100
AcDbSpline
210
0.0
220
0.0
230
1.0
 70
     8
 71
     3
 72
     9
 73
     5
 74
     0
 42
0.000000001
 43
0.0000000001
 40
0.4581557170126761
 40
0.4581557170126761
 40
0.4581557170126761
 40
0.4581557170126761
 40
0.5
 40
1.0
 40
1.0
 40
1.0
 40
1.0
 10
701.0674662280055
 20
1674.657822526557
 30
0.0
 10
701.0842541853955
 20
1674.521685541155
 30
0.0
 10
701.3111003243905
 20
1672.759765338054
 30
0.0
 10
701.6604162535859
 20
1671.009839637459
 30
0.0
 10
702.087040584042
 20
1669.405266574615
 30
0.0
  0
SPLINE
  5
206
330
172
100
AcDbEntity
  8
P-SANR-FIXT
100
AcDbSpline
210
0.0
220
0.0
230
1.0
 70
     8
 71
     3
 72
     8
 73
     4
 74
     0
 42
0.000000001
 43
0.0000000001
 40
0.0
 40
0.0
 40
0.0
 40
0.0
 40
0.2627676767585329
 40
0.2627676767585329
 40
0.2627676767585329
 40
0.2627676767585329
 10
717.4784160480828
 20
1669.405266574615
 30
0.0
 10
717.9355070121535
 20
1671.094839580551
 30
0.0
 10
718.2724892455281
 20
1672.789251950671
 30
0.0
 10
718.4893627482073
 20
1674.488503684976
 30
0.0
  0
SPLINE
  5
207
330
172
100
AcDbEntity
  8
P-SANR-FIXT
100
AcDbSpline
210
0.0
220
0.0
230
1.0
 70
     8
 71
     3
 72
     9
 73
     5
 74
     0
 42
0.000000001
 43
0.0000000001
 40
0.0
 40
0.0
 40
0.0
 40
0.0
 40
0.5
 40
1.0
 40
1.0
 40
1.0
 40
1.0
 10
702.087040584042
 20
1669.405266574615
 30
0.0
 10
702.2332346611109
 20
1668.846140946029
 30
0.0
 10
702.4533125929877
 20
1667.803824494515
 30
0.0
 10
702.5287700803424
 20
1666.991763183552
 30
0.0
 10
702.5303437128892
 20
1666.660076046229
 30
0.0
  0
SPLINE
  5
208
330
172
100
AcDbEntity
  8
P-SANR-FIXT
100
AcDbSpline
210
0.0
220
0.0
230
1.0
 70
     8
 71
     3
 72
     9
 73
     5
 74
     0
 42
0.000000001
 43
0.0000000001
 40
0.0
 40
0.0
 40
0.0
 40
0.0
 40
0.5
 40
1.0
 40
1.0
 40
1.0
 40
1.0
 10
702.5303437128892
 20
1666.660076046229
 30
0.0
 10
702.5287700803424
 20
1666.328388908906
 30
0.0
 10
702.4533125929881
 20
1665.822949163173
 30
0.0
 10
702.2332346611126
 20
1665.655266574615
 30
0.0
 10
702.0870405840447
 20
1665.655266574615
 30
0.0
  0
SPLINE
  5
209
330
172
100
AcDbEntity
  8
P-SANR-FIXT
100
AcDbSpline
210
0.0
220
0.0
230
1.0
 70
     8
 71
     3
 72
     9
 73
     5
 74
     0
 42
0.000000001
 43
0.0000000001
 40
0.0
 40
0.0
 40
0.0
 40
0.0
 40
0.5
 40
1.0
 40
1.0
 40
1.0
 40
1.0
 10
717.47841604808
 20
1665.655266574615
 30
0.0
 10
717.332624477802
 20
1665.655266574615
 30
0.0
 10
717.1131550624056
 20
1665.822972619368
 30
0.0
 10
717.037913097328
 20
1666.328411405619
 30
0.0
 10
717.0363489773692
 20
1666.660076046229
 30
0.0
  0
SPLINE
  5
20A
330
172
100
AcDbEntity
  8
P-SANR-FIXT
100
AcDbSpline
210
0.0
220
0.0
230
1.0
 70
     8
 71
     3
 72
     9
 73
     5
 74
     0
 42
0.000000001
 43
0.0000000001
 40
0.0
 40
0.0
 40
0.0
 40
0.0
 40
0.5
 40
1.0
 40
1.0
 40
1.0
 40
1.0
 10
717.0363489773692
 20
1666.660076046229
 30
0.0
 10
717.037913097328
 20
1666.991740686839
 30
0.0
 10
717.113155062406
 20
1667.803759611276
 30
0.0
 10
717.3326244778039
 20
1668.846101980579
 30
0.0
 10
717.4784160480828
 20
1669.405266574615
 30
0.0
  0
SPLINE
  5
20B
330
172
100
AcDbEntity
  8
P-SANR-FIXT
100
AcDbSpline
210
0.0
220
0.0
230
1.0
 70
    24
 71
     3
 72
     9
 73
     5
 74
     0
 42
0.000000001
 43
0.0000000001
 40
0.0
 40
0.0
 40
0.0
 40
0.0
 40
0.5
 40
1.0
 40
1.0
 40
1.0
 40
1.0
 10
702.0870405840447
 20
1665.655266574615
 30
0.0
 10
701.6604162535942
 20
1665.655266574615
 30
0.0
 10
701.0157367023611
 20
1665.655266574615
 30
0.0
 10
700.7881953704644
 20
1665.655266574615
 30
0.0
 10
700.7787092593502
 20
1665.655266574615
 30
0.0
  0
SPLINE
  5
20C
330
172
100
AcDbEntity
  8
P-SANR-FIXT
100
AcDbSpline
210
0.0
220
0.0
230
1.0
 70
    24
 71
     3
 72
     8
 73
     4
 74
     0
 42
0.000000001
 43
0.0000000001
 40
0.1204150163092235
 40
0.1204150163092235
 40
0.1204150163092235
 40
0.1204150163092235
 40
0.1852075081550926
 40
0.1852075081550926
 40
0.1852075081550926
 40
0.1852075081550926
 10
700.8037081131126
 20
1665.655266574615
 30
0.0
 10
700.8114463862328
 20
1665.655266574615
 30
0.0
 10
700.8193136553471
 20
1665.655266574615
 30
0.0
 10
700.828140603746
 20
1665.655266574615
 30
0.0
  0
SPLINE
  5
20D
330
172
100
AcDbEntity
  8
P-SANR-FIXT
100
AcDbSpline
210
0.0
220
0.0
230
1.0
 70
    24
 71
     3
 72
     8
 73
     4
 74
     0
 42
0.000000001
 43
0.0000000001
 40
0.5
 40
0.5
 40
0.5
 40
0.5
 40
1.0
 40
1.0
 40
1.0
 40
1.0
 10
718.7830598584643
 20
1665.655266574615
 30
0.0
 10
718.7830598584634
 20
1665.655266574615
 30
0.0
 10
718.3481785883353
 20
1665.655266574615
 30
0.0
 10
717.47841604808
 20
1665.655266574615
 30
0.0
  0
LINE
  5
20E
330
172
100
AcDbEntity
  8
P-SANR-FIXT
100
AcDbLine
 10
753.6787092593383
 20
1713.60526657461
 30
0.0
 11
720.778709259364
 21
1713.605266574609
 31
0.0
  0
LINE
  5
20F
330
172
100
AcDbEntity
  8
P-SANR-FIXT
100
AcDbLine
 10
720.7787092593642
 20
1671.705266574702
 30
0.0
 11
753.6787092593385
 21
1671.705266574702
 31
0.0
  0
LINE
  5
210
330
172
100
AcDbEntity
  8
P-SANR-FIXT
100
AcDbLine
 10
754.2787092593384
 20
1713.00526657461
 30
0.0
 11
753.6787092593383
 21
1713.605266574609
 31
0.0
  0
LINE
  5
211
330
172
100
AcDbEntity
  8
P-SANR-FIXT
100
AcDbLine
 10
753.6787092593385
 20
1671.705266574702
 30
0.0
 11
753.7273446085166
 21
1671.75390192388
 31
0.0
  0
LINE
  5
212
330
172
100
AcDbEntity
  8
P-SANR-FIXT
100
AcDbLine
 10
753.7432911176292
 20
1671.769848432992
 30
0.0
 11
754.2787092593385
 21
1672.305266574702
 31
0.0
  0
LINE
  5
213
330
172
100
AcDbEntity
  8
P-SANR-FIXT
100
AcDbLine
 10
753.6787092593372
 20
1692.655266574655
 30
0.0
 11
753.6787092593371
 21
1713.605266574609
 31
0.0
  0
LINE
  5
214
330
172
100
AcDbEntity
  8
P-SANR-FIXT
100
AcDbLine
 10
753.6787092593373
 20
1671.705266574701
 30
0.0
 11
753.6787092593372
 21
1692.655266574655
 31
0.0
  0
LINE
  5
215
330
172
100
AcDbEntity
  8
P-SANR-FIXT
100
AcDbLine
 10
754.2787092593369
 20
1713.005266574609
 30
0.0
 11
754.2787092593371
 21
1692.655266574655
 31
0.0
  0
LINE
  5
216
330
172
100
AcDbEntity
  8
P-SANR-FIXT
100
AcDbLine
 10
754.2787092593371
 20
1692.655266574655
 30
0.0
 11
754.2787092593372
 21
1672.305266574701
 31
0.0
  0
LINE
  5
217
330
172
100
AcDbEntity
  8
P-SANR-FIXT
100
AcDbLine
 10
588.2787092592321
 20
1713.605266574609
 30
0.0
 11
554.8787092592668
 21
1713.605266574608
 31
0.0
  0
LINE
  5
218
330
172
100
AcDbEntity
  8
P-SANR-FIXT
100
AcDbLine
 10
554.878709259267
 20
1671.7052665747
 30
0.0
 11
588.2787092592324
 21
1671.705266574701
 31
0.0
  0
LINE
  5
219
330
172
100
AcDbEntity
  8
P-SANR-FIXT
100
AcDbLine
 10
554.8787092592668
 20
1713.605266574608
 30
0.0
 11
554.2787092592668
 21
1713.005266574609
 31
0.0
  0
LINE
  5
21A
330
172
100
AcDbEntity
  8
P-SANR-FIXT
100
AcDbLine
 10
554.278709259267
 20
1672.305266574701
 30
0.0
 11
554.8141274009763
 21
1671.769848432991
 31
0.0
  0
LINE
  5
21B
330
172
100
AcDbEntity
  8
P-SANR-FIXT
100
AcDbLine
 10
554.8300739100889
 20
1671.753901923879
 30
0.0
 11
554.878709259267
 21
1671.705266574701
 31
0.0
  0
LINE
  5
21C
330
172
100
AcDbEntity
  8
P-SANR-FIXT
100
AcDbLine
 10
554.2787092592658
 20
1692.655266574654
 30
0.0
 11
554.2787092592657
 21
1713.005266574608
 31
0.0
  0
LINE
  5
21D
330
172
100
AcDbEntity
  8
P-SANR-FIXT
100
AcDbLine
 10
554.2787092592659
 20
1672.3052665747
 30
0.0
 11
554.2787092592658
 21
1692.655266574654
 31
0.0
  0
LINE
  5
21E
330
172
100
AcDbEntity
  8
P-SANR-FIXT
100
AcDbLine
 10
554.8787092592656
 20
1713.605266574608
 30
0.0
 11
554.8787092592657
 21
1692.655266574654
 31
0.0
  0
LINE
  5
21F
330
172
100
AcDbEntity
  8
P-SANR-FIXT
100
AcDbLine
 10
554.8787092592657
 20
1692.655266574654
 30
0.0
 11
554.8787092592658
 21
1671.7052665747
 31
0.0
  0
LWPOLYLINE
  5
220
330
172
100
AcDbEntity
  8
P-SANR-FIXT
100
AcDbPolyline
 90
       13
 70
   128
 43
0.0
 10
686.2951263343286
 20
1714.652621978952
 10
685.2873485343376
 20
1715.456117765005
 10
683.6235546108818
 20
1716.675258493535
 10
681.8438274630377
 20
1717.87063340297
 10
679.9493302718444
 20
1719.033070208913
 10
677.942329440782
 20
1720.153236360966
 10
675.8262236555561
 20
1721.221769728333
 10
673.6055554919183
 20
1722.229415136126
 10
671.2860043700152
 20
1723.16716435078
 10
668.8743600236964
 20
1724.026396851625
 10
666.3784760841188
 20
1724.799018525212
 10
663.8072038574258
 20
1725.477595294358
 10
662.6287363633097
 20
1725.735859749657
  0
LWPOLYLINE
  5
221
330
172
100
AcDbEntity
  8
P-SANR-FIXT
100
AcDbPolyline
 90
       13
 70
   128
 43
0.0
 10
662.5985033272249
 20
1659.554176731107
 10
665.1720033043046
 20
1660.178643923812
 10
667.7046800273203
 20
1660.907697272537
 10
670.1571811074185
 20
1661.72696526623
 10
672.5211719221606
 20
1662.628649523087
 10
674.7893528912276
 20
1663.60436127886
 10
676.9555152947638
 20
1664.64525806393
 10
679.0145771813445
 20
1665.742183859489
 10
680.9625995444873
 20
1666.885809800259
 10
682.7967834026082
 20
1668.066772657527
 10
684.5154488172323
 20
1669.275808570752
 10
686.1179972188686
 20
1670.503879783156
 10
686.3029279336632
 20
1670.657909293303
  0
LINE
  5
222
330
172
100
AcDbEntity
  8
P-SANR-FIXT
100
AcDbLine
 10
637.3195330881811
 20
1729.655266574655
 30
0.0
 11
636.0181233596311
 21
1729.655266574655
 31
0.0
  0
LINE
  5
223
330
172
100
AcDbEntity
  8
P-SANR-FIXT
100
AcDbLine
 10
636.0181233596311
 20
1655.655266574655
 30
0.0
 11
637.3195330881811
 21
1655.655266574655
 31
0.0
  0
ELLIPSE
  5
224
330
172
100
AcDbEntity
  8
P-SANR-FIXT
100
AcDbEllipse
 10
636.0181233596299
 20
1692.655266574655
 30
0.0
 11
0.0
 21
36.99999999999987
 31
0.0
210
0.0
220
0.0
230
1.0
 40
0.9396926207859092
 41
4.712388980384703
 42
6.611449065129265
  0
ELLIPSE
  5
225
330
172
100
AcDbEntity
  8
P-SANR-FIXT
100
AcDbEllipse
 10
636.0181233596299
 20
1692.655266574655
 30
0.0
 11
0.0
 21
37.0
 31
0.0
210
0.0
220
0.0
230
1.0
 40
0.9396926207859046
 41
2.813328895646743
 42
4.712388980384691
  0
LINE
  5
226
330
172
100
AcDbEntity
  8
P-SANR-FIXT
100
AcDbLine
 10
682.0140237886514
 20
1689.909078358932
 30
0.0
 11
679.9369545885603
 21
1689.909078358932
 31
0.0
  0
LINE
  5
227
330
172
100
AcDbEntity
  8
P-SANR-FIXT
100
AcDbLine
 10
679.9345734158087
 20
1695.459492728767
 30
0.0
 11
682.0140237886514
 21
1695.459492728767
 31
0.0
  0
LINE
  5
228
330
172
100
AcDbEntity
  8
P-SANR-FIXT
100
AcDbLine
 10
700.7787092593511
 20
1716.805266574656
 30
0.0
 11
699.2787092593028
 21
1716.805266574656
 31
0.0
  0
LINE
  5
229
330
172
100
AcDbEntity
  8
P-SANR-FIXT
100
AcDbLine
 10
699.2787092593029
 20
1668.505266574655
 30
0.0
 11
700.7787092593514
 21
1668.505266574655
 31
0.0
  0
LINE
  5
22A
330
172
100
AcDbEntity
  8
P-SANR-FIXT
100
AcDbLine
 10
699.2787092593028
 20
1716.805266574655
 30
0.0
 11
699.2428620019733
 21
1716.743177303649
 31
0.0
  0
LINE
  5
22B
330
172
100
AcDbEntity
  8
P-SANR-FIXT
100
AcDbLine
 10
699.2357276157969
 20
1716.730820184311
 30
0.0
 11
698.4126838555181
 21
1715.305266574655
 31
0.0
  0
LINE
  5
22C
330
172
100
AcDbEntity
  8
P-SANR-FIXT
100
AcDbLine
 10
698.4126838555186
 20
1670.005266574656
 30
0.0
 11
699.2357276157973
 21
1668.579712965
 31
0.0
  0
LINE
  5
22D
330
172
100
AcDbEntity
  8
P-SANR-FIXT
100
AcDbLine
 10
699.2428620019738
 20
1668.567355845662
 30
0.0
 11
699.2787092593029
 21
1668.505266574655
 31
0.0
  0
LINE
  5
22E
330
172
100
AcDbEntity
  8
P-SANR-FIXT
100
AcDbLine
 10
697.2868508305984
 20
1714.655266574655
 30
0.0
 11
685.2628027118747
 21
1714.655266574655
 31
0.0
  0
LINE
  5
22F
330
172
100
AcDbEntity
  8
P-SANR-FIXT
100
AcDbLine
 10
685.2528824620509
 20
1670.655266574655
 30
0.0
 11
697.2868508305987
 21
1670.655266574655
 31
0.0
  0
LWPOLYLINE
  5
230
330
172
100
AcDbEntity
  8
P-SANR-FIXT
100
AcDbPolyline
 90
       28
 70
   128
 43
0.0
 10
697.2868508305984
 20
1714.655266574655
 10
697.338836965041
 20
1714.656306435996
 10
697.3907399327583
 20
1714.659424356462
 10
697.4424767000741
 20
1714.664615348045
 10
697.493964499197
 20
1714.671871106267
 10
697.5451209606322
 20
1714.681180023462
 10
697.5958642449537
 20
1714.692527207348
 10
697.6461131737318
 20
1714.705894504851
 10
697.6957873593994
 20
1714.721260531148
 10
697.7448073338562
 20
1714.738600703874
 10
697.7930946755996
 20
1714.757887282451
 10
697.8405721351842
 20
1714.779089412469
 10
697.8871637588023
 20
1714.802173175042
 10
697.9327950097954
 20
1714.827101641074
 10
697.9773928878958
 20
1714.853834930338
 10
698.020886046012
 20
1714.882330275273
 10
698.0632049043696
 20
1714.912542089405
 10
698.1042817618225
 20
1714.944422040279
 10
698.1440509041614
 20
1714.977919126772
 10
698.1824487092421
 20
1715.012979760692
 10
698.2194137487677
 20
1715.049547852504
 10
698.2548868865606
 20
1715.087564901061
 10
698.2888113731672
 20
1715.126970087197
 10
698.3211329366457
 20
1715.167700371019
 10
698.3517998693898
 20
1715.209690592761
 10
698.3807631108487
 20
1715.252873577027
 10
698.4079763260147
 20
1715.297180240253
 10
698.4126838555181
 20
1715.305266574655
  0
LWPOLYLINE
  5
231
330
172
100
AcDbEntity
  8
P-SANR-FIXT
100
AcDbPolyline
 90
       28
 70
   128
 43
0.0
 10
698.4126838555186
 20
1670.005266574656
 10
698.3857902419596
 20
1670.049767957057
 10
698.3571385597706
 20
1670.093158285399
 10
698.3267746455307
 20
1670.135368144413
 10
698.2947470750255
 20
1670.176330007327
 10
698.2611070855357
 20
1670.2159783439
 10
698.2259084938682
 20
1670.254249725251
 10
698.189207610261
 20
1670.291082925334
 10
698.1510631482989
 20
1670.326419018886
 10
698.1115361309841
 20
1670.360201475696
 10
698.0706897931121
 20
1670.392376251038
 10
698.02858948011
 20
1670.422891872136
 10
697.9853025434977
 20
1670.451699520507
 10
697.9408982331401
 20
1670.478753110057
 10
697.8954475864611
 20
1670.504009360815
 10
697.8490233147997
 20
1670.527427868168
 10
697.8016996870873
 20
1670.548971167498
 10
697.7535524110331
 20
1670.568604794123
 10
697.704658512008
 20
1670.586297338429
 10
697.6550962098201
 20
1670.602020496118
 10
697.6049447935801
 20
1670.615749113493
 10
697.5542844948561
 20
1670.627461227695
 10
697.5031963593186
 20
1670.637138101839
 10
697.4517621170863
 20
1670.644764254991
 10
697.4000640519749
 20
1670.650327486932
 10
697.3481848698602
 20
1670.653818897678
 10
697.2962075663666
 20
1670.655232901718
 10
697.2868508305987
 20
1670.655266574655
  0
LINE
  5
232
330
172
100
AcDbEntity
  8
P-SANR-FIXT
100
AcDbLine
 10
700.7787092593499
 20
1707.522993866482
 30
0.0
 11
700.7787092593499
 21
1704.806420240537
 31
0.0
  0
LINE
  5
233
330
172
100
AcDbEntity
  8
P-SANR-FIXT
100
AcDbLine
 10
699.2787092593015
 20
1716.805266574655
 30
0.0
 11
699.2787092593016
 21
1702.662924239782
 31
0.0
  0
LINE
  5
234
330
172
100
AcDbEntity
  8
P-SANR-FIXT
100
AcDbLine
 10
699.2787092593017
 20
1674.644120176844
 30
0.0
 11
699.2787092593017
 21
1668.505266574655
 31
0.0
  0
ENDBLK
  5
236
330
172
100
AcDbEntity
  8
0
100
AcDbBlockEnd
  0
BLOCK
  5
2C8
330
238
100
AcDbEntity
  8
0
100
AcDbBlockBegin
  2
Automatic flow rate regulator valve_Caleffi_121 DN15 - 1 1_4___Pressure gauge H-V2-Est - Idraulica
 70
     0
 10
0.0
 20
0.0
 30
0.0
  3
Automatic flow rate regulator valve_Caleffi_121 DN15 - 1 1_4___Pressure gauge H-V2-Est - Idraulica
  1

  0
LINE
  5
239
330
238
100
AcDbEntity
  8
M-PIPE
100
AcDbLine
 10
1143.924869398236
 20
2120.373573815518
 30
0.0
 11
1144.150620947882
 21
2123.232127951435
 31
0.0
1001
REVIT
1002
{
1070
     3
1000
923097
1002
}
  0
LINE
  5
23A
330
238
100
AcDbEntity
  8
M-PIPE
100
AcDbLine
 10
1210.303838488004
 20
2120.373573815515
 30
0.0
 11
1210.078086938358
 21
2123.232127951433
 31
0.0
1001
REVIT
1002
{
1070
     3
1000
923097
1002
}
  0
ELLIPSE
  5
23B
330
238
100
AcDbEntity
  8
M-PIPE
100
AcDbEllipse
 10
1177.114353943118
 20
2120.08780464777
 30
0.0
 11
33.19999999999992
 21
0.0
 31
0.0
210
0.0
220
0.0
230
1.0
 40
0.3420201433256513
 41
3.116423335088675
 42
4.712388980384676
1001
REVIT
1002
{
1070
     3
1000
923097
1002
}
  0
ELLIPSE
  5
23C
330
238
100
AcDbEntity
  8
M-PIPE
100
AcDbEllipse
 10
1434.133123588463
 20
2124.196001755318
 30
0.0
 11
236.1572155968437
 21
185.0128901497034
 31
0.0
210
0.0
220
0.0
230
1.0
 40
0.9076733711902388
 41
2.399156183309993
 42
2.444393675997408
1001
REVIT
1002
{
1070
     3
1000
923097
1002
}
  0
ELLIPSE
  5
23D
330
238
100
AcDbEntity
  8
M-PIPE
100
AcDbEllipse
 10
1177.114353943118
 20
2122.906882510105
 30
0.0
 11
32.97744693864693
 21
0.0
 31
0.0
210
0.0
220
0.0
230
1.0
 40
0.3420201433256556
 41
2.879793265790056
 42
3.403392041389407
1001
REVIT
1002
{
1070
     3
1000
923097
1002
}
  0
ELLIPSE
  5
23E
330
238
100
AcDbEntity
  8
M-PIPE
100
AcDbEllipse
 10
1434.133123588464
 20
2077.087534607233
 30
0.0
 11
-236.1572155968462
 21
185.0128901496993
 31
0.0
210
0.0
220
0.0
230
1.0
 40
0.90767337119025
 41
0.5105023395578387
 42
0.5390740273873613
1001
REVIT
1002
{
1070
     3
1000
923097
1002
}
  0
ELLIPSE
  5
23F
330
238
100
AcDbEntity
  8
M-PIPE
100
AcDbEllipse
 10
920.0955842977721
 20
2077.087534607244
 30
0.0
 11
236.1572155968479
 21
185.0128901496969
 31
0.0
210
0.0
220
0.0
230
0.9999999999999998
 40
0.9076733711902441
 41
5.744111279792192
 42
5.772682967622142
1001
REVIT
1002
{
1070
     3
1000
923097
1002
}
  0
ELLIPSE
  5
240
330
238
100
AcDbEntity
  8
M-PIPE
100
AcDbEllipse
 10
1177.114353943118
 20
2122.906882510105
 30
0.0
 11
32.9774469386471
 21
0.0
 31
0.0
210
0.0
220
0.0
230
1.0
 40
0.3420201433256503
 41
6.021385919379839
 42
6.544984694979169
1001
REVIT
1002
{
1070
     3
1000
923097
1002
}
  0
ELLIPSE
  5
241
330
238
100
AcDbEntity
  8
M-PIPE
100
AcDbEllipse
 10
920.0955842977725
 20
2124.19600175533
 30
0.0
 11
-236.1572155968425
 21
185.0128901497038
 31
0.0
210
0.0
220
0.0
230
1.0
 40
0.9076733711902477
 41
3.83879163118212
 42
3.884029123869533
1001
REVIT
1002
{
1070
     3
1000
923097
1002
}
  0
ELLIPSE
  5
242
330
238
100
AcDbEntity
  8
M-PIPE
100
AcDbEllipse
 10
1177.114353943118
 20
2120.08780464777
 30
0.0
 11
-33.20000000000005
 21
0.0000000000009383
 31
0.0
210
0.0
220
0.0
230
1.0
 40
0.342020143325649
 41
1.570796326794894
 42
3.166761972090868
1001
REVIT
1002
{
1070
     3
1000
923097
1002
}
  0
LINE
  5
243
330
238
100
AcDbEntity
  8
M-PIPE
100
AcDbLine
 10
1146.675904092647
 20
2132.803230947363
 30
0.0
 11
1146.591097832388
 21
2132.79545896065
 31
0.0
1001
REVIT
1002
{
1070
     3
1000
923097
1002
}
  0
ELLIPSE
  5
244
330
238
100
AcDbEntity
  8
M-PIPE
100
AcDbEllipse
 10
1177.114353943118
 20
2135.592732890737
 30
0.0
 11
-31.59999999999991
 21
0.0000000000009422
 31
0.0
210
0.0
220
0.0
230
1.0
 40
0.3420201433256436
 41
0.261799387799696
 42
1.570796326794894
1001
REVIT
1002
{
1070
     3
1000
923097
1002
}
  0
ELLIPSE
  5
245
330
238
100
AcDbEntity
  8
M-PIPE
100
AcDbEllipse
 10
1177.114353943118
 20
2135.592732890739
 30
0.0
 11
31.59999999999975
 21
0.0
 31
0.0
210
0.0
220
0.0
230
1.0
 40
0.3420201433256448
 41
4.712388980384676
 42
6.021385919379803
1001
REVIT
1002
{
1070
     3
1000
923097
1002
}
  0
LINE
  5
246
330
238
100
AcDbEntity
  8
M-PIPE
100
AcDbLine
 10
1207.637610053848
 20
2132.795458960648
 30
0.0
 11
1207.552803793513
 21
2132.803230947368
 31
0.0
1001
REVIT
1002
{
1070
     3
1000
923097
1002
}
  0
LINE
  5
247
330
238
100
AcDbEntity
  8
M-PIPE
100
AcDbLine
 10
1145.795296504851
 20
2125.777086873927
 30
0.0
 11
1145.260586260006
 21
2125.826089870941
 31
0.0
1001
REVIT
1002
{
1070
     3
1000
923097
1002
}
  0
LINE
  5
248
330
238
100
AcDbEntity
  8
M-PIPE
100
AcDbLine
 10
1208.96812162623
 20
2125.82608987094
 30
0.0
 11
1208.433411381385
 21
2125.777086873926
 31
0.0
1001
REVIT
1002
{
1070
     3
1000
923097
1002
}
  0
LINE
  5
249
330
238
100
AcDbEntity
  8
M-PIPE
100
AcDbLine
 10
1140.614353943103
 20
2078.741329333153
 30
0.0
 11
1140.614353943103
 21
2074.982558850029
 31
0.0
1001
REVIT
1002
{
1070
     3
1000
923097
1002
}
  0
LINE
  5
24A
330
238
100
AcDbEntity
  8
M-PIPE
100
AcDbLine
 10
1213.614353943095
 20
2074.982558850027
 30
0.0
 11
1213.614353943095
 21
2078.741329333153
 31
0.0
1001
REVIT
1002
{
1070
     3
1000
923097
1002
}
  0
LINE
  5
24B
330
238
100
AcDbEntity
  8
M-PIPE
100
AcDbLine
 10
1143.117565019626
 20
2089.85782443008
 30
0.0
 11
1143.624950217318
 21
2120.37596308157
 31
0.0
1001
REVIT
1002
{
1070
     3
1000
923097
1002
}
  0
LINE
  5
24C
330
238
100
AcDbEntity
  8
M-PIPE
100
AcDbLine
 10
1211.111142866571
 20
2089.857824430069
 30
0.0
 11
1210.603757668882
 21
2120.375963081559
 31
0.0
1001
REVIT
1002
{
1070
     3
1000
923097
1002
}
  0
ELLIPSE
  5
24D
330
238
100
AcDbEntity
  8
M-PIPE
100
AcDbEllipse
 10
1177.114353943097
 20
2074.982558850027
 30
0.0
 11
-36.49999999999546
 21
0.0000000000003426
 31
0.0
210
0.0
220
0.0
230
1.0
 40
0.3420201433256536
 41
0.0
 42
1.570796326794888
1001
REVIT
1002
{
1070
     3
1000
923097
1002
}
  0
ELLIPSE
  5
24E
330
238
100
AcDbEntity
  8
M-PIPE
100
AcDbEllipse
 10
1177.114353943097
 20
2078.741329333152
 30
0.0
 11
36.49999999999568
 21
0.0
 31
0.0
210
0.0
220
0.0
230
1.0
 40
0.3420201433256639
 41
4.424706880967525
 42
4.712388980384671
1001
REVIT
1002
{
1070
     3
1000
923097
1002
}
  0
LINE
  5
24F
330
238
100
AcDbEntity
  8
M-PIPE
100
AcDbLine
 10
1166.758196354469
 20
2066.770624316758
 30
0.0
 11
1166.758196354469
 21
2078.046935766208
 31
0.0
1001
REVIT
1002
{
1070
     3
1000
923097
1002
}
  0
LINE
  5
250
330
238
100
AcDbEntity
  8
M-PIPE
100
AcDbLine
 10
1159.688525859556
 20
2079.048491615955
 30
0.0
 11
1159.688525859555
 21
2067.772180166504
 31
0.0
1001
REVIT
1002
{
1070
     3
1000
923097
1002
}
  0
ELLIPSE
  5
251
330
238
100
AcDbEntity
  8
M-PIPE
100
AcDbEllipse
 10
1177.114353943097
 20
2078.741329333151
 30
0.0
 11
36.49999999999591
 21
0.0
 31
0.0
210
0.0
220
0.0
230
1.0
 40
0.3420201433256556
 41
3.639308717569254
 42
4.214672916405159
1001
REVIT
1002
{
1070
     3
1000
923097
1002
}
  0
LINE
  5
252
330
238
100
AcDbEntity
  8
M-PIPE
100
AcDbLine
 10
1145.042707343607
 20
2072.781345114451
 30
0.0
 11
1145.042707343608
 21
2084.057656563901
 31
0.0
1001
REVIT
1002
{
1070
     3
1000
923097
1002
}
  0
LINE
  5
253
330
238
100
AcDbEntity
  8
M-PIPE
100
AcDbLine
 10
1142.114353943113
 20
2086.475626279832
 30
0.0
 11
1142.114353943113
 21
2075.199314830381
 31
0.0
1001
REVIT
1002
{
1070
     3
1000
923097
1002
}
  0
ELLIPSE
  5
254
330
238
100
AcDbEntity
  8
M-PIPE
100
AcDbEllipse
 10
1177.114353943097
 20
2078.741329333151
 30
0.0
 11
36.49999999999592
 21
0.0
 31
0.0
210
0.0
220
0.0
230
1.0
 40
0.3420201433256557
 41
2.853910554172179
 42
3.429274753007326
1001
REVIT
1002
{
1070
     3
1000
923097
1002
}
  0
ELLIPSE
  5
255
330
238
100
AcDbEntity
  8
M-PIPE
100
AcDbEllipse
 10
1177.114353943097
 20
2074.982558850027
 30
0.0
 11
-36.49999999999568
 21
0.0000000000003426
 31
0.0
210
0.0
220
0.0
230
1.0
 40
0.3420201433256514
 41
1.570796326794888
 42
3.141592653589779
1001
REVIT
1002
{
1070
     3
1000
923097
1002
}
  0
ELLIPSE
  5
256
330
238
100
AcDbEntity
  8
M-PIPE
100
AcDbEllipse
 10
1177.114353943097
 20
2078.741329333153
 30
0.0
 11
36.49999999999523
 21
0.0
 31
0.0
210
0.0
220
0.0
230
1.0
 40
0.3420201433256568
 41
5.995503207765194
 42
6.570867406593863
1001
REVIT
1002
{
1070
     3
1000
923097
1002
}
  0
LINE
  5
257
330
238
100
AcDbEntity
  8
M-PIPE
100
AcDbLine
 10
1212.114353943113
 20
2075.199314830419
 30
0.0
 11
1212.114353943113
 21
2086.475626279867
 31
0.0
1001
REVIT
1002
{
1070
     3
1000
923097
1002
}
  0
LINE
  5
258
330
238
100
AcDbEntity
  8
M-PIPE
100
AcDbLine
 10
1209.186000542548
 20
2084.057656563876
 30
0.0
 11
1209.186000542548
 21
2072.781345114427
 31
0.0
1001
REVIT
1002
{
1070
     3
1000
923097
1002
}
  0
ELLIPSE
  5
259
330
238
100
AcDbEntity
  8
M-PIPE
100
AcDbEllipse
 10
1177.114353943097
 20
2078.741329333153
 30
0.0
 11
36.49999999999534
 21
0.0
 31
0.0
210
0.0
220
0.0
230
1.0
 40
0.3420201433256657
 41
5.210105044366435
 42
5.785469243197729
1001
REVIT
1002
{
1070
     3
1000
923097
1002
}
  0
LINE
  5
25A
330
238
100
AcDbEntity
  8
M-PIPE
100
AcDbLine
 10
1194.540182026707
 20
2067.772180166517
 30
0.0
 11
1194.540182026708
 21
2079.048491615967
 31
0.0
1001
REVIT
1002
{
1070
     3
1000
923097
1002
}
  0
LINE
  5
25B
330
238
100
AcDbEntity
  8
M-PIPE
100
AcDbLine
 10
1187.470511531725
 20
2078.046935766207
 30
0.0
 11
1187.470511531724
 21
2066.770624316758
 31
0.0
1001
REVIT
1002
{
1070
     3
1000
923097
1002
}
  0
ELLIPSE
  5
25C
330
238
100
AcDbEntity
  8
M-PIPE
100
AcDbEllipse
 10
1177.114353943097
 20
2078.741329333152
 30
0.0
 11
36.4999999999957
 21
0.0
 31
0.0
210
0.0
220
0.0
230
1.0
 40
0.3420201433256631
 41
4.712388980384671
 42
5.000071079801789
1001
REVIT
1002
{
1070
     3
1000
923097
1002
}
  0
ELLIPSE
  5
25D
330
238
100
AcDbEntity
  8
M-PIPE
100
AcDbEllipse
 10
1177.114353943097
 20
2090.017640782601
 30
0.0
 11
36.49999999999548
 21
0.0
 31
0.0
210
0.0
220
0.0
230
1.0
 40
0.3420201433256669
 41
2.779352090989086
 42
2.853910554172188
1001
REVIT
1002
{
1070
     3
1000
923097
1002
}
  0
LINE
  5
25E
330
238
100
AcDbEntity
  8
M-PIPE
100
AcDbLine
 10
1142.114353943114
 20
2093.559655285373
 30
0.0
 11
1142.114353943114
 21
2086.475626279831
 31
0.0
1001
REVIT
1002
{
1070
     3
1000
923097
1002
}
  0
ELLIPSE
  5
25F
330
238
100
AcDbEntity
  8
M-PIPE
100
AcDbEllipse
 10
1177.114353943097
 20
2090.017640782601
 30
0.0
 11
36.49999999999571
 21
0.0
 31
0.0
210
0.0
220
0.0
230
1.0
 40
0.3420201433256566
 41
3.429274753007291
 42
3.639308717569259
1001
REVIT
1002
{
1070
     3
1000
923097
1002
}
  0
LINE
  5
260
330
238
100
AcDbEntity
  8
M-PIPE
100
AcDbLine
 10
1145.042707343606
 20
2084.057656563902
 30
0.0
 11
1159.688525859558
 21
2079.048491615954
 31
0.0
1001
REVIT
1002
{
1070
     3
1000
923097
1002
}
  0
ELLIPSE
  5
261
330
238
100
AcDbEntity
  8
M-PIPE
100
AcDbEllipse
 10
1177.114353943097
 20
2090.017640782601
 30
0.0
 11
36.49999999999558
 21
0.0
 31
0.0
210
0.0
220
0.0
230
1.0
 40
0.3420201433256509
 41
4.214672916405143
 42
4.424706880967536
1001
REVIT
1002
{
1070
     3
1000
923097
1002
}
  0
LINE
  5
262
330
238
100
AcDbEntity
  8
M-PIPE
100
AcDbLine
 10
1166.758196354467
 20
2078.046935766208
 30
0.0
 11
1177.114353943097
 21
2078.046935766208
 31
0.0
1001
REVIT
1002
{
1070
     3
1000
923097
1002
}
  0
LINE
  5
263
330
238
100
AcDbEntity
  8
M-PIPE
100
AcDbLine
 10
1177.114353943097
 20
2078.046935766208
 30
0.0
 11
1187.470511531726
 21
2078.046935766208
 31
0.0
1001
REVIT
1002
{
1070
     3
1000
923097
1002
}
  0
ELLIPSE
  5
264
330
238
100
AcDbEntity
  8
M-PIPE
100
AcDbEllipse
 10
1177.114353943097
 20
2090.017640782601
 30
0.0
 11
36.49999999999558
 21
0.0
 31
0.0
210
0.0
220
0.0
230
1.0
 40
0.3420201433256565
 41
5.000071079801806
 42
5.210105044366457
1001
REVIT
1002
{
1070
     3
1000
923097
1002
}
  0
LINE
  5
265
330
238
100
AcDbEntity
  8
M-PIPE
100
AcDbLine
 10
1194.540182026708
 20
2079.048491615967
 30
0.0
 11
1209.186000542548
 21
2084.057656563876
 31
0.0
1001
REVIT
1002
{
1070
     3
1000
923097
1002
}
  0
ELLIPSE
  5
266
330
238
100
AcDbEntity
  8
M-PIPE
100
AcDbEllipse
 10
1177.114353943097
 20
2090.017640782601
 30
0.0
 11
36.49999999999538
 21
0.0
 31
0.0
210
0.0
220
0.0
230
1.0
 40
0.3420201433256506
 41
5.785469243197751
 42
5.995503207765224
1001
REVIT
1002
{
1070
     3
1000
923097
1002
}
  0
LINE
  5
267
330
238
100
AcDbEntity
  8
M-PIPE
100
AcDbLine
 10
1212.114353943114
 20
2086.475626279868
 30
0.0
 11
1212.114353943114
 21
2093.559655285334
 31
0.0
1001
REVIT
1002
{
1070
     3
1000
923097
1002
}
  0
ELLIPSE
  5
268
330
238
100
AcDbEntity
  8
M-PIPE
100
AcDbEllipse
 10
1177.114353943097
 20
2090.017640782601
 30
0.0
 11
36.49999999999558
 21
0.0
 31
0.0
210
0.0
220
0.0
230
1.0
 40
0.3420201433256527
 41
0.2876820994143152
 42
0.3639017062949322
1001
REVIT
1002
{
1070
     3
1000
923097
1002
}
  0
ELLIPSE
  5
269
330
238
100
AcDbEntity
  8
M-PIPE
100
AcDbEllipse
 10
1177.114353943097
 20
2090.017640782601
 30
0.0
 11
-33.99999999999887
 21
0.0000000000005154
 31
0.0
210
0.0
220
0.0
230
1.0
 40
0.3420201433256573
 41
0.0000000000000069
 42
1.570796326794896
1001
REVIT
1002
{
1070
     3
1000
923097
1002
}
  0
ELLIPSE
  5
26A
330
238
100
AcDbEntity
  8
M-PIPE
100
AcDbEllipse
 10
1177.114353943097
 20
2090.017640782601
 30
0.0
 11
-33.99999999999887
 21
0.0000000000005154
 31
0.0
210
0.0
220
0.0
230
1.0
 40
0.3420201433256573
 41
1.570796326794896
 42
3.141592653589793
1001
REVIT
1002
{
1070
     3
1000
923097
1002
}
  0
ELLIPSE
  5
26B
330
238
100
AcDbEntity
  8
M-PIPE
100
AcDbEllipse
 10
1177.114353943098
 20
2120.08780464775
 30
0.0
 11
-33.49999999999682
 21
0.0000000000005153
 31
0.0
210
0.0
220
0.0
230
1.0
 40
0.3420201433256534
 41
6.12358022879647
 42
7.853981633974483
1001
REVIT
1002
{
1070
     3
1000
923097
1002
}
  0
ELLIPSE
  5
26C
330
238
100
AcDbEntity
  8
M-PIPE
100
AcDbEllipse
 10
1177.114353943098
 20
2120.08780464775
 30
0.0
 11
33.49999999999684
 21
0.0
 31
0.0
210
0.0
220
0.0
230
1.0
 40
0.3420201433256602
 41
4.712388980384683
 42
6.442790385550922
1001
REVIT
1002
{
1070
     3
1000
923097
1002
}
  0
LINE
  5
26D
330
238
100
AcDbEntity
  8
M-PIPE
100
AcDbLine
 10
1159.688525859559
 20
2067.772180166504
 30
0.0
 11
1145.042707343606
 21
2072.781345114452
 31
0.0
1001
REVIT
1002
{
1070
     3
1000
923097
1002
}
  0
LINE
  5
26E
330
238
100
AcDbEntity
  8
M-PIPE
100
AcDbLine
 10
1209.186000542548
 20
2072.781345114427
 30
0.0
 11
1194.540182026708
 21
2067.772180166517
 31
0.0
1001
REVIT
1002
{
1070
     3
1000
923097
1002
}
  0
LINE
  5
26F
330
238
100
AcDbEntity
  8
M-PIPE
100
AcDbLine
 10
1187.470511531727
 20
2066.770624316758
 30
0.0
 11
1166.758196354466
 21
2066.770624316758
 31
0.0
1001
REVIT
1002
{
1070
     3
1000
923097
1002
}
  0
LWPOLYLINE
  5
270
330
238
100
AcDbEntity
  8
P-SANR-FIXT
100
AcDbPolyline
 90
       39
 70
   128
 43
0.0
 10
1151.720644873512
 20
2166.536757947306
 10
1152.014803561724
 20
2167.458624655626
 10
1152.388484264827
 20
2168.312030193428
 10
1152.823487643677
 20
2169.091411280823
 10
1153.303877558327
 20
2169.797540824601
 10
1153.817158963738
 20
2170.435292003481
 10
1154.354377463515
 20
2171.011611260377
 10
1154.909618604687
 20
2171.534046898586
 10
1155.479300261386
 20
2172.009850455215
 10
1156.061489272701
 20
2172.445521071608
 10
1156.655340367324
 20
2172.846639302035
 10
1157.260676550804
 20
2173.217866334764
 10
1157.877694221862
 20
2173.563024859594
 10
1158.506765452247
 20
2173.885211321826
 10
1159.148310757975
 20
2174.186912332756
 10
1159.802720703285
 20
2174.470112158108
 10
1160.470310230534
 20
2174.736386203302
 10
1161.151294344133
 20
2174.986979584802
 10
1161.845777386283
 20
2175.22287183599
 10
1162.553750731554
 20
2175.444829554662
 10
1163.275095517018
 20
2175.653448948185
 10
1164.009588232169
 20
2175.849190099724
 10
1164.756907793801
 20
2176.032404538233
 10
1165.516643255428
 20
2176.203357432646
 10
1166.288301640414
 20
2176.36224548616
 10
1167.071315605363
 20
2176.509211394741
 10
1167.865050777824
 20
2176.644355557736
 10
1168.668812697825
 20
2176.767745585357
 10
1169.4818533448
 20
2176.879424033134
 10
1170.303377262014
 20
2176.979414702385
 10
1171.132547307709
 20
2177.067727773742
 10
1171.968490070785
 20
2177.14436398386
 10
1172.810300992412
 20
2177.209318010437
 10
1173.657049235504
 20
2177.262581194893
 10
1174.507782342976
 20
2177.304143703465
 10
1175.361530723871
 20
2177.333996204343
 10
1176.217312004472
 20
2177.352131119589
 10
1177.074135279615
 20
2177.358543494659
 10
1177.114353943079
 20
2177.358556405351
  0
LWPOLYLINE
  5
271
330
238
100
AcDbEntity
  8
P-SANR-FIXT
100
AcDbPolyline
 90
       39
 70
   128
 43
0.0
 10
1202.508063012646
 20
2166.536757947307
 10
1202.213904324433
 20
2167.458624655626
 10
1201.84022362133
 20
2168.312030193429
 10
1201.40522024248
 20
2169.091411280823
 10
1200.924830327831
 20
2169.797540824601
 10
1200.41154892242
 20
2170.435292003481
 10
1199.874330422643
 20
2171.011611260377
 10
1199.319089281471
 20
2171.534046898586
 10
1198.749407624772
 20
2172.009850455215
 10
1198.167218613457
 20
2172.445521071609
 10
1197.573367518834
 20
2172.846639302035
 10
1196.968031335353
 20
2173.217866334764
 10
1196.351013664296
 20
2173.563024859594
 10
1195.721942433911
 20
2173.885211321826
 10
1195.080397128182
 20
2174.186912332757
 10
1194.425987182873
 20
2174.470112158108
 10
1193.758397655623
 20
2174.736386203302
 10
1193.077413542025
 20
2174.986979584803
 10
1192.382930499875
 20
2175.22287183599
 10
1191.674957154603
 20
2175.444829554662
 10
1190.953612369139
 20
2175.653448948185
 10
1190.219119653989
 20
2175.849190099724
 10
1189.471800092357
 20
2176.032404538233
 10
1188.712064630729
 20
2176.203357432646
 10
1187.940406245743
 20
2176.362245486161
 10
1187.157392280794
 20
2176.509211394742
 10
1186.363657108334
 20
2176.644355557736
 10
1185.559895188332
 20
2176.767745585357
 10
1184.746854541358
 20
2176.879424033134
 10
1183.925330624144
 20
2176.979414702385
 10
1183.096160578449
 20
2177.067727773742
 10
1182.260217815373
 20
2177.14436398386
 10
1181.418406893746
 20
2177.209318010437
 10
1180.571658650654
 20
2177.262581194893
 10
1179.720925543182
 20
2177.304143703465
 10
1178.867177162287
 20
2177.333996204343
 10
1178.011395881686
 20
2177.352131119589
 10
1177.154572606543
 20
2177.358543494659
 10
1177.114353943079
 20
2177.358556405351
  0
LINE
  5
272
330
238
100
AcDbEntity
  8
P-SANR-FIXT
100
AcDbLine
 10
1145.617701869679
 20
2136.116182503398
 30
0.0
 11
1146.045945603071
 21
2138.99856660234
 31
0.0
  0
LINE
  5
273
330
238
100
AcDbEntity
  8
P-SANR-FIXT
100
AcDbLine
 10
1146.064242123606
 20
2139.121715164114
 30
0.0
 11
1146.129461566471
 21
2139.560688277784
 31
0.0
  0
LINE
  5
274
330
238
100
AcDbEntity
  8
P-SANR-FIXT
100
AcDbLine
 10
1151.255189272537
 20
2164.725617452201
 30
0.0
 11
1151.594578960015
 21
2166.046221190399
 31
0.0
  0
LINE
  5
275
330
238
100
AcDbEntity
  8
P-SANR-FIXT
100
AcDbLine
 10
1151.595769365103
 20
2166.05085319151
 30
0.0
 11
1151.720644873512
 21
2166.536757947306
 31
0.0
  0
LINE
  5
276
330
238
100
AcDbEntity
  8
P-SANR-FIXT
100
AcDbLine
 10
1202.973518613621
 20
2164.725617452202
 30
0.0
 11
1202.634128959229
 21
2166.046221061657
 31
0.0
  0
LINE
  5
277
330
238
100
AcDbEntity
  8
P-SANR-FIXT
100
AcDbLine
 10
1202.632938521055
 20
2166.050853191511
 30
0.0
 11
1202.508063012645
 21
2166.536757947311
 31
0.0
  0
LINE
  5
278
330
238
100
AcDbEntity
  8
P-SANR-FIXT
100
AcDbLine
 10
1208.611006016478
 20
2136.116182503404
 30
0.0
 11
1208.182762283087
 21
2138.99856660234
 31
0.0
  0
LINE
  5
279
330
238
100
AcDbEntity
  8
P-SANR-FIXT
100
AcDbLine
 10
1208.164465762552
 20
2139.121715164114
 30
0.0
 11
1208.099246319686
 21
2139.560688277789
 31
0.0
  0
SPLINE
  5
27A
330
238
100
AcDbEntity
  8
P-SANR-FIXT
100
AcDbSpline
210
0.0
220
0.0
230
1.0
 70
     8
 71
     3
 72
     9
 73
     5
 74
     0
 42
0.000000001
 43
0.0000000001
 40
-1.0
 40
-1.0
 40
-1.0
 40
-1.0
 40
-0.5
 40
0.0
 40
0.0
 40
0.0
 40
0.0
 10
1151.633873874033
 20
2166.05085319151
 30
0.0
 10
1151.65760536597
 20
2166.07429576007
 30
0.0
 10
1151.681379177071
 20
2166.00114316555
 30
0.0
 10
1151.65760536597
 20
2165.689286287415
 30
0.0
 10
1151.633873874033
 20
2165.474024572361
 30
0.0
  0
SPLINE
  5
27B
330
238
100
AcDbEntity
  8
P-SANR-FIXT
100
AcDbSpline
210
0.0
220
0.0
230
1.0
 70
     8
 71
     3
 72
     9
 73
     5
 74
     0
 42
0.000000001
 43
0.0000000001
 40
-1.0
 40
-1.0
 40
-1.0
 40
-1.0
 40
-0.5
 40
0.0
 40
0.0
 40
0.0
 40
0.0
 10
1163.643823241382
 20
2158.359375419153
 30
0.0
 10
1163.898540551593
 20
2158.437801997747
 30
0.0
 10
1164.397866560045
 20
2158.467943529706
 30
0.0
 10
1164.873418757444
 20
2158.245297261609
 30
0.0
 10
1165.104404575764
 20
2158.070961109862
 30
0.0
  0
SPLINE
  5
27C
330
238
100
AcDbEntity
  8
P-SANR-FIXT
100
AcDbSpline
210
0.0
220
0.0
230
1.0
 70
     8
 71
     3
 72
     9
 73
     5
 74
     0
 42
0.000000001
 43
0.0000000001
 40
-1.0
 40
-1.0
 40
-1.0
 40
-1.0
 40
-0.5
 40
0.0
 40
0.0
 40
0.0
 40
0.0
 10
1189.12430331039
 20
2158.070961109862
 30
0.0
 10
1189.35528912871
 20
2158.245297261609
 30
0.0
 10
1189.830841326109
 20
2158.467943529706
 30
0.0
 10
1190.330167334561
 20
2158.437801997747
 30
0.0
 10
1190.584884644771
 20
2158.359375419153
 30
0.0
  0
SPLINE
  5
27D
330
238
100
AcDbEntity
  8
P-SANR-FIXT
100
AcDbSpline
210
0.0
220
0.0
230
1.0
 70
     8
 71
     3
 72
     9
 73
     5
 74
     0
 42
0.000000001
 43
0.0000000001
 40
-1.0
 40
-1.0
 40
-1.0
 40
-1.0
 40
-0.5
 40
0.0
 40
0.0
 40
0.0
 40
0.0
 10
1202.59483401212
 20
2165.474024572361
 30
0.0
 10
1202.571102520183
 20
2165.689286287415
 30
0.0
 10
1202.547328709083
 20
2166.00114316555
 30
0.0
 10
1202.571102520183
 20
2166.07429576007
 30
0.0
 10
1202.59483401212
 20
2166.05085319151
 30
0.0
  0
SPLINE
  5
27E
330
238
100
AcDbEntity
  8
P-SANR-FIXT
100
AcDbSpline
210
0.0
220
0.0
230
1.0
 70
     8
 71
     3
 72
    23
 73
    19
 74
     0
 42
0.000000001
 43
0.0000000001
 40
-1.0
 40
-1.0
 40
-1.0
 40
-1.0
 40
-0.875
 40
-0.8125
 40
-0.78125
 40
-0.75
 40
-0.71875
 40
-0.6875
 40
-0.625
 40
-0.5625
 40
-0.53125
 40
-0.5
 40
-0.46875
 40
-0.4375
 40
-0.375
 40
-0.3125
 40
-0.25
 40
0.0
 40
0.0
 40
0.0
 40
0.0
 10
1165.104404575764
 20
2158.070961109862
 30
0.0
 10
1165.767906752853
 20
2156.993123889628
 30
0.0
 10
1166.584734714946
 20
2155.303531542958
 30
0.0
 10
1167.277456340058
 20
2153.248501043323
 30
0.0
 10
1167.608389831649
 20
2152.054130646005
 30
0.0
 10
1167.828124648962
 20
2151.150148597904
 30
0.0
 10
1168.015266505245
 20
2150.235139202844
 30
0.0
 10
1168.222660345962
 20
2148.999735364939
 30
0.0
 10
1168.423629821843
 20
2147.435871457855
 30
0.0
 10
1168.580492870062
 20
2145.861711878363
 30
0.0
 10
1168.693633942929
 20
2144.604490458799
 30
0.0
 10
1168.776143656996
 20
2143.665416563395
 30
0.0
 10
1168.853391796018
 20
2142.728731697685
 30
0.0
 10
1168.944095779621
 20
2141.478767518335
 30
0.0
 10
1169.040130101465
 20
2139.916877747053
 30
0.0
 10
1169.133027466638
 20
2138.043987032892
 30
0.0
 10
1169.285701897582
 20
2134.303416387772
 30
0.0
 10
1169.346665442883
 20
2131.197686600813
 30
0.0
 10
1169.3708094544
 20
2128.722000793352
 30
0.0
  0
ELLIPSE
  5
27F
330
238
100
AcDbEntity
  8
P-SANR-FIXT
100
AcDbEllipse
 10
1177.114353943077
 20
2138.998566602341
 30
0.0
 11
31.02845079977457
 21
0.0
 31
0.0
210
0.0
220
0.0
230
1.0
 40
0.3420201433256619
 41
3.91742008679853
 42
4.460160322777104
  0
SPLINE
  5
280
330
238
100
AcDbEntity
  8
P-SANR-FIXT
100
AcDbSpline
210
0.0
220
0.0
230
1.0
 70
     8
 71
     3
 72
     9
 73
     5
 74
     0
 42
0.000000001
 43
0.0000000001
 40
-1.0
 40
-1.0
 40
-1.0
 40
-1.0
 40
-0.5
 40
0.0
 40
0.0
 40
0.0
 40
0.0
 10
1154.964948113851
 20
2131.566660279597
 30
0.0
 10
1155.409327362556
 20
2134.966430838014
 30
0.0
 10
1156.57255294796
 20
2141.731350561521
 30
0.0
 10
1158.358828285871
 20
2148.323818914082
 30
0.0
 10
1159.391923107294
 20
2151.538595954122
 30
0.0
  0
SPLINE
  5
281
330
238
100
AcDbEntity
  8
P-SANR-FIXT
100
AcDbSpline
210
0.0
220
0.0
230
1.0
 70
     8
 71
     3
 72
    21
 73
    17
 74
     0
 42
0.000000001
 43
0.0000000001
 40
-1.0
 40
-1.0
 40
-1.0
 40
-1.0
 40
-0.8333333333333332
 40
-0.75
 40
-0.7083333333333333
 40
-0.6666666666666666
 40
-0.625
 40
-0.5833333333333333
 40
-0.5
 40
-0.4166666666666666
 40
-0.375
 40
-0.3333333333333333
 40
-0.2916666666666666
 40
-0.25
 40
-0.1666666666666666
 40
0.0
 40
0.0
 40
0.0
 40
0.0
 10
1159.391923107294
 20
2151.538595954122
 30
0.0
 10
1159.539821988027
 20
2151.983479502517
 30
0.0
 10
1159.779960281127
 20
2152.642583683466
 30
0.0
 10
1160.091832286884
 20
2153.395260254245
 30
0.0
 10
1160.278598910429
 20
2153.820808960963
 30
0.0
 10
1160.423890210435
 20
2154.136661746453
 30
0.0
 10
1160.570327422007
 20
2154.453097447792
 30
0.0
 10
1160.764893819586
 20
2154.877928290269
 30
0.0
 10
1161.015113607235
 20
2155.406090737677
 30
0.0
 10
1161.289605677517
 20
2155.914435264042
 30
0.0
 10
1161.532383133991
 20
2156.299160847829
 30
0.0
 10
1161.729125941868
 20
2156.573031718563
 30
0.0
 10
1161.938644400279
 20
2156.833590751299
 30
0.0
 10
1162.229431582303
 20
2157.168458562867
 30
0.0
 10
1162.770569428825
 20
2157.717192123834
 30
0.0
 10
1163.284473799692
 20
2158.121780322248
 30
0.0
 10
1163.643823241382
 20
2158.359375419153
 30
0.0
  0
SPLINE
  5
282
330
238
100
AcDbEntity
  8
P-SANR-FIXT
100
AcDbSpline
210
0.0
220
0.0
230
1.0
 70
     8
 71
     3
 72
    23
 73
    19
 74
     0
 42
0.000000001
 43
0.0000000001
 40
-1.0
 40
-1.0
 40
-1.0
 40
-1.0
 40
-0.875
 40
-0.8125
 40
-0.78125
 40
-0.75
 40
-0.71875
 40
-0.6875
 40
-0.625
 40
-0.5625
 40
-0.53125
 40
-0.5
 40
-0.46875
 40
-0.4375
 40
-0.375
 40
-0.3125
 40
-0.25
 40
0.0
 40
0.0
 40
0.0
 40
0.0
 10
1151.633873874033
 20
2165.474024572361
 30
0.0
 10
1151.565705634692
 20
2164.278629484936
 30
0.0
 10
1151.327893716241
 20
2162.474701490921
 30
0.0
 10
1150.948256890605
 20
2160.357847569269
 30
0.0
 10
1150.718314910983
 20
2159.143534840434
 30
0.0
 10
1150.541514254489
 20
2158.231074780157
 30
0.0
 10
1150.369432176355
 20
2157.313091599656
 30
0.0
 10
1150.155057110239
 20
2156.079066312383
 30
0.0
 10
1149.910977868811
 20
2154.523715093367
 30
0.0
 10
1149.685276755652
 20
2152.96314865144
 30
0.0
 10
1149.501794906423
 20
2151.719817102979
 30
0.0
 10
1149.355918799902
 20
2150.793255879008
 30
0.0
 10
1149.206126472033
 20
2149.870895982165
 30
0.0
 10
1149.013355111176
 20
2148.641086580542
 30
0.0
 10
1148.778857543761
 20
2147.106538512483
 30
0.0
 10
1148.506672400913
 20
2145.269050935003
 30
0.0
 10
1147.963618777113
 20
2141.605566681938
 30
0.0
 10
1147.530590255047
 20
2138.57330686261
 30
0.0
 10
1147.221403625114
 20
2136.153907116069
 30
0.0
  0
ELLIPSE
  5
283
330
238
100
AcDbEntity
  8
P-SANR-FIXT
100
AcDbEllipse
 10
1177.114353943077
 20
2138.998566602341
 30
0.0
 11
31.02845079977472
 21
0.0
 31
0.0
210
0.0
220
0.0
230
1.0
 40
0.3420201433256571
 41
2.870222535598656
 42
3.41296277158088
  0
SPLINE
  5
284
330
238
100
AcDbEntity
  8
P-SANR-FIXT
100
AcDbSpline
210
0.0
220
0.0
230
1.0
 70
     8
 71
     3
 72
    23
 73
    19
 74
     0
 42
0.000000001
 43
0.0000000001
 40
-1.0
 40
-1.0
 40
-1.0
 40
-1.0
 40
-0.75
 40
-0.6875
 40
-0.625
 40
-0.5625
 40
-0.53125
 40
-0.5
 40
-0.46875
 40
-0.4375
 40
-0.375
 40
-0.3125
 40
-0.28125
 40
-0.25
 40
-0.21875
 40
-0.1875
 40
-0.125
 40
-0.0006791229064373
 40
-0.0006791229064373
 40
-0.0006791229064373
 40
-0.0006791229064373
 10
1147.221403625114
 20
2141.843226088609
 30
0.0
 10
1147.530590255047
 20
2144.12144806888
 30
0.0
 10
1147.963618777113
 20
2146.934538799923
 30
0.0
 10
1148.506672400913
 20
2150.262962743585
 30
0.0
 10
1148.778857543761
 20
2151.919579943384
 30
0.0
 10
1149.013355111176
 20
2153.285663857833
 30
0.0
 10
1149.206126472033
 20
2154.36769830176
 30
0.0
 10
1149.355918799902
 20
2155.169885242766
 30
0.0
 10
1149.501794906423
 20
2155.973664230961
 30
0.0
 10
1149.685276755652
 20
2157.055167339204
 30
0.0
 10
1149.910977868811
 20
2158.402697338173
 30
0.0
 10
1150.155057110239
 20
2159.702916047162
 30
0.0
 10
1150.369432176355
 20
2160.68846555978
 30
0.0
 10
1150.541514254489
 20
2161.390672037649
 30
0.0
 10
1150.718314910984
 20
2162.059747951974
 30
0.0
 10
1150.948256890605
 20
2162.921857814811
 30
0.0
 10
1151.326715110232
 20
2164.337219411326
 30
0.0
 10
1151.563981781376
 20
2165.398739210244
 30
0.0
 10
1151.632754808869
 20
2166.040344375085
 30
0.0
  0
SPLINE
  5
285
330
238
100
AcDbEntity
  8
P-SANR-FIXT
100
AcDbSpline
210
0.0
220
0.0
230
1.0
 70
     8
 71
     3
 72
    23
 73
    19
 74
     0
 42
0.000000001
 43
0.0000000001
 40
-0.9993208770935485
 40
-0.9993208770935485
 40
-0.9993208770935485
 40
-0.9993208770935485
 40
-0.875
 40
-0.8125
 40
-0.78125
 40
-0.75
 40
-0.71875
 40
-0.6875
 40
-0.625
 40
-0.5625
 40
-0.53125
 40
-0.5
 40
-0.46875
 40
-0.4375
 40
-0.375
 40
-0.3125
 40
-0.25
 40
0.0
 40
0.0
 40
0.0
 40
0.0
 10
1202.595953077285
 20
2166.040344375085
 30
0.0
 10
1202.664726104778
 20
2165.398739210244
 30
0.0
 10
1202.901992775922
 20
2164.337219411326
 30
0.0
 10
1203.280450995549
 20
2162.921857814811
 30
0.0
 10
1203.510392975171
 20
2162.059747951973
 30
0.0
 10
1203.687193631665
 20
2161.390672037648
 30
0.0
 10
1203.859275709799
 20
2160.68846555978
 30
0.0
 10
1204.073650775915
 20
2159.702916047162
 30
0.0
 10
1204.317730017344
 20
2158.402697338173
 30
0.0
 10
1204.543431130502
 20
2157.055167339204
 30
0.0
 10
1204.726912979732
 20
2155.97366423096
 30
0.0
 10
1204.872789086252
 20
2155.169885242766
 30
0.0
 10
1205.022581414121
 20
2154.36769830176
 30
0.0
 10
1205.215352774978
 20
2153.285663857833
 30
0.0
 10
1205.449850342393
 20
2151.919579943384
 30
0.0
 10
1205.722035485241
 20
2150.262962743585
 30
0.0
 10
1206.265089109041
 20
2146.934538799923
 30
0.0
 10
1206.698117631107
 20
2144.12144806888
 30
0.0
 10
1207.00730426104
 20
2141.843226088609
 30
0.0
  0
ELLIPSE
  5
286
330
238
100
AcDbEntity
  8
P-SANR-FIXT
100
AcDbEllipse
 10
1177.114353943077
 20
2138.998566602341
 30
0.0
 11
31.0284507997744
 21
0.0
 31
0.0
210
0.0
220
0.0
230
1.0
 40
0.3420201433256543
 41
6.011815189188522
 42
6.554555425170768
  0
SPLINE
  5
287
330
238
100
AcDbEntity
  8
P-SANR-FIXT
100
AcDbSpline
210
0.0
220
0.0
230
1.0
 70
     8
 71
     3
 72
    23
 73
    19
 74
     0
 42
0.000000001
 43
0.0000000001
 40
-1.0
 40
-1.0
 40
-1.0
 40
-1.0
 40
-0.75
 40
-0.6875
 40
-0.625
 40
-0.5625
 40
-0.53125
 40
-0.5
 40
-0.46875
 40
-0.4375
 40
-0.375
 40
-0.3125
 40
-0.28125
 40
-0.25
 40
-0.21875
 40
-0.1875
 40
-0.125
 40
0.0
 40
0.0
 40
0.0
 40
0.0
 10
1207.00730426104
 20
2136.153907116069
 30
0.0
 10
1206.698117631107
 20
2138.57330686261
 30
0.0
 10
1206.265089109041
 20
2141.605566681938
 30
0.0
 10
1205.722035485241
 20
2145.269050935003
 30
0.0
 10
1205.449850342393
 20
2147.106538512483
 30
0.0
 10
1205.215352774978
 20
2148.641086580542
 30
0.0
 10
1205.022581414121
 20
2149.870895982165
 30
0.0
 10
1204.872789086252
 20
2150.793255879008
 30
0.0
 10
1204.726912979732
 20
2151.719817102979
 30
0.0
 10
1204.543431130502
 20
2152.96314865144
 30
0.0
 10
1204.317730017343
 20
2154.523715093367
 30
0.0
 10
1204.073650775915
 20
2156.079066312384
 30
0.0
 10
1203.859275709799
 20
2157.313091599656
 30
0.0
 10
1203.687193631665
 20
2158.231074780157
 30
0.0
 10
1203.51039297517
 20
2159.143534840434
 30
0.0
 10
1203.280450995549
 20
2160.357847569269
 30
0.0
 10
1202.900814169913
 20
2162.474701490921
 30
0.0
 10
1202.663002251461
 20
2164.278629484936
 30
0.0
 10
1202.59483401212
 20
2165.474024572361
 30
0.0
  0
SPLINE
  5
288
330
238
100
AcDbEntity
  8
P-SANR-FIXT
100
AcDbSpline
210
0.0
220
0.0
230
1.0
 70
     8
 71
     3
 72
    21
 73
    17
 74
     0
 42
0.000000001
 43
0.0000000001
 40
-1.0
 40
-1.0
 40
-1.0
 40
-1.0
 40
-0.8333333333333332
 40
-0.75
 40
-0.7083333333333333
 40
-0.6666666666666666
 40
-0.625
 40
-0.5833333333333333
 40
-0.5
 40
-0.4166666666666666
 40
-0.375
 40
-0.3333333333333333
 40
-0.2916666666666666
 40
-0.25
 40
-0.1666666666666666
 40
0.0
 40
0.0
 40
0.0
 40
0.0
 10
1190.584884644771
 20
2158.359375419153
 30
0.0
 10
1190.944234086461
 20
2158.121780322248
 30
0.0
 10
1191.458138457329
 20
2157.717192123834
 30
0.0
 10
1191.99927630385
 20
2157.168458562866
 30
0.0
 10
1192.290063485875
 20
2156.833590751299
 30
0.0
 10
1192.499581944286
 20
2156.573031718563
 30
0.0
 10
1192.696324752162
 20
2156.299160847829
 30
0.0
 10
1192.939102208637
 20
2155.914435264042
 30
0.0
 10
1193.213594278918
 20
2155.406090737677
 30
0.0
 10
1193.463814066567
 20
2154.877928290269
 30
0.0
 10
1193.658380464147
 20
2154.453097447792
 30
0.0
 10
1193.804817675719
 20
2154.136661746453
 30
0.0
 10
1193.950108975724
 20
2153.820808960963
 30
0.0
 10
1194.136875599269
 20
2153.395260254245
 30
0.0
 10
1194.448747605027
 20
2152.642583683466
 30
0.0
 10
1194.688885898127
 20
2151.983479502516
 30
0.0
 10
1194.836784778859
 20
2151.538595954122
 30
0.0
  0
SPLINE
  5
289
330
238
100
AcDbEntity
  8
P-SANR-FIXT
100
AcDbSpline
210
0.0
220
0.0
230
1.0
 70
     8
 71
     3
 72
     9
 73
     5
 74
     0
 42
0.000000001
 43
0.0000000001
 40
-1.0
 40
-1.0
 40
-1.0
 40
-1.0
 40
-0.5
 40
0.0
 40
0.0
 40
0.0
 40
0.0
 10
1194.836784778859
 20
2151.538595954121
 30
0.0
 10
1195.869879600282
 20
2148.323818914082
 30
0.0
 10
1197.656154938193
 20
2141.731350561521
 30
0.0
 10
1198.819380523598
 20
2134.966430838014
 30
0.0
 10
1199.263759772303
 20
2131.566660279597
 30
0.0
  0
ELLIPSE
  5
28A
330
238
100
AcDbEntity
  8
P-SANR-FIXT
100
AcDbEllipse
 10
1177.114353943077
 20
2138.998566602341
 30
0.0
 11
31.02845079977439
 21
0.0
 31
0.0
210
0.0
220
0.0
230
1.0
 40
0.3420201433256549
 41
4.964617637992249
 42
5.507357873970826
  0
SPLINE
  5
28B
330
238
100
AcDbEntity
  8
P-SANR-FIXT
100
AcDbSpline
210
0.0
220
0.0
230
1.0
 70
     8
 71
     3
 72
    23
 73
    19
 74
     0
 42
0.000000001
 43
0.0000000001
 40
-1.0
 40
-1.0
 40
-1.0
 40
-1.0
 40
-0.75
 40
-0.6875
 40
-0.625
 40
-0.5625
 40
-0.53125
 40
-0.5
 40
-0.46875
 40
-0.4375
 40
-0.375
 40
-0.3125
 40
-0.28125
 40
-0.25
 40
-0.21875
 40
-0.1875
 40
-0.125
 40
0.0
 40
0.0
 40
0.0
 40
0.0
 10
1184.857898431754
 20
2128.722000793352
 30
0.0
 10
1184.882042443271
 20
2131.197686600813
 30
0.0
 10
1184.943005988571
 20
2134.303416387771
 30
0.0
 10
1185.095680419515
 20
2138.043987032892
 30
0.0
 10
1185.188577784688
 20
2139.916877747053
 30
0.0
 10
1185.284612106533
 20
2141.478767518335
 30
0.0
 10
1185.375316090135
 20
2142.728731697685
 30
0.0
 10
1185.452564229158
 20
2143.665416563395
 30
0.0
 10
1185.535073943224
 20
2144.604490458799
 30
0.0
 10
1185.648215016092
 20
2145.861711878363
 30
0.0
 10
1185.805078064311
 20
2147.435871457855
 30
0.0
 10
1186.006047540191
 20
2148.999735364939
 30
0.0
 10
1186.213441380909
 20
2150.235139202844
 30
0.0
 10
1186.400583237191
 20
2151.150148597904
 30
0.0
 10
1186.620318054504
 20
2152.054130646005
 30
0.0
 10
1186.951251546096
 20
2153.248501043323
 30
0.0
 10
1187.643973171208
 20
2155.303531542958
 30
0.0
 10
1188.4608011333
 20
2156.993123889628
 30
0.0
 10
1189.12430331039
 20
2158.070961109862
 30
0.0
  0
ELLIPSE
  5
28C
330
238
100
AcDbEntity
  8
P-SANR-FIXT
100
AcDbEllipse
 10
1177.114353943077
 20
2135.592732890753
 30
0.0
 11
31.53381379959239
 21
0.0
 31
0.0
210
0.0
220
0.0
230
1.0
 40
0.3420201433256647
 41
3.063052837250044
 42
3.612831551628238
  0
ELLIPSE
  5
28D
330
238
100
AcDbEntity
  8
P-SANR-FIXT
100
AcDbEllipse
 10
1177.114353943077
 20
2135.592732890753
 30
0.0
 11
31.53381379959215
 21
0.0
 31
0.0
210
0.0
220
0.0
230
1.0
 40
0.3420201433256675
 41
5.811946409141087
 42
6.361725123519334
  0
ELLIPSE
  5
28E
330
238
100
AcDbEntity
  8
P-SANR-FIXT
100
AcDbEllipse
 10
1141.669492271521
 20
2138.998566602339
 30
0.0
 11
10.0
 21
0.0
 31
0.0
210
0.0
220
0.0
230
1.0
 40
0.3420201433256783
 41
0.8879524938331597
 42
0.9822035717131029
  0
ELLIPSE
  5
28F
330
238
100
AcDbEntity
  8
P-SANR-FIXT
100
AcDbEllipse
 10
1212.559215614633
 20
2138.998566602339
 30
0.0
 11
10.00000000000008
 21
0.0
 31
0.0
210
0.0
220
0.0
230
0.9999999999999998
 40
0.3420201433256702
 41
2.159389081876679
 42
2.253668270527155
  0
ELLIPSE
  5
290
330
238
100
AcDbEntity
  8
P-SANR-FIXT
100
AcDbEllipse
 10
1159.391923107294
 20
2128.499864760454
 30
0.0
 11
9.999999999999868
 21
0.0
 31
0.0
210
0.0
220
0.0
230
1.0
 40
0.3420201433256685
 41
0.0649939794947812
 42
1.570796326794873
  0
ELLIPSE
  5
291
330
238
100
AcDbEntity
  8
P-SANR-FIXT
100
AcDbEllipse
 10
1159.391923107294
 20
2128.499864760454
 30
0.0
 11
10.0
 21
0.0
 31
0.0
210
0.0
220
0.0
230
1.0
 40
0.3420201433256807
 41
1.570796326794873
 42
2.029401122901211
  0
ELLIPSE
  5
292
330
238
100
AcDbEntity
  8
P-SANR-FIXT
100
AcDbEllipse
 10
1194.836784778859
 20
2128.499864760454
 30
0.0
 11
9.999999999999927
 21
0.0
 31
0.0
210
0.0
220
0.0
230
1.0
 40
0.3420201433256675
 41
1.112191530688497
 42
1.570796326794873
  0
ELLIPSE
  5
293
330
238
100
AcDbEntity
  8
P-SANR-FIXT
100
AcDbEllipse
 10
1194.836784778859
 20
2128.499864760454
 30
0.0
 11
10.0
 21
0.0
 31
0.0
210
0.0
220
0.0
230
1.0
 40
0.3420201433256807
 41
1.570796326794873
 42
3.076598674094881
  0
LINE
  5
294
330
238
100
AcDbEntity
  8
P-SANR-FIXT
100
AcDbLine
 10
1138.264353943079
 20
2074.324774015474
 30
0.0
 11
1138.264353943079
 21
2053.651536358184
 31
0.0
  0
LINE
  5
295
330
238
100
AcDbEntity
  8
P-SANR-FIXT
100
AcDbLine
 10
1215.96435394308
 20
2053.651536358185
 30
0.0
 11
1215.96435394308
 21
2074.324774015475
 31
0.0
  0
ELLIPSE
  5
296
330
238
100
AcDbEntity
  8
P-SANR-FIXT
100
AcDbEllipse
 10
1177.114353943077
 20
2074.324774015474
 30
0.0
 11
38.85000000000037
 21
0.0
 31
0.0
210
0.0
220
0.0
230
1.0
 40
0.3420201433256711
 41
2.790622772595757
 42
4.712388980384677
  0
ELLIPSE
  5
297
330
238
100
AcDbEntity
  8
P-SANR-FIXT
100
AcDbEllipse
 10
1177.114353943077
 20
2074.324774015474
 30
0.0
 11
38.85000000000056
 21
0.0
 31
0.0
210
0.0
220
0.0
230
1.0
 40
0.3420201433256631
 41
4.712388980384683
 42
6.634155188170563
  0
ELLIPSE
  5
298
330
238
100
AcDbEntity
  8
P-SANR-FIXT
100
AcDbEllipse
 10
1177.114353943077
 20
2053.651536358183
 30
0.0
 11
38.85000000000037
 21
0.0
 31
0.0
210
0.0
220
0.0
230
1.0
 40
0.3420201433256536
 41
3.141592653589793
 42
4.712388980384677
  0
ELLIPSE
  5
299
330
238
100
AcDbEntity
  8
P-SANR-FIXT
100
AcDbEllipse
 10
1177.114353943077
 20
2053.651536358183
 30
0.0
 11
38.85000000000037
 21
0.0
 31
0.0
210
0.0
220
0.0
230
1.0
 40
0.3420201433256536
 41
4.712388980384683
 42
6.283185307179586
  0
ELLIPSE
  5
29A
330
238
100
AcDbEntity
  8
P-SANR-FIXT
100
AcDbEllipse
 10
1177.114353943077
 20
2074.324774015474
 30
0.0
 11
37.00000000000026
 21
0.0
 31
0.0
210
0.0
220
0.0
230
1.0
 40
0.3420201433256607
 41
2.979925086997727
 42
4.712388980384671
  0
ELLIPSE
  5
29B
330
238
100
AcDbEntity
  8
P-SANR-FIXT
100
AcDbEllipse
 10
1177.114353943077
 20
2074.324774015474
 30
0.0
 11
37.00000000000045
 21
0.0
 31
0.0
210
0.0
220
0.0
230
1.0
 40
0.3420201433256667
 41
4.712388980384677
 42
6.444852873763455
  0
ARC
  5
29C
330
238
100
AcDbEntity
  8
P-SANR-FIXT
100
AcDbCircle
 10
1177.114353943077
 20
1999.98255885001
 30
0.0
 40
23.55355591381112
100
AcDbArc
 50
90.0
 51
269.9999999999997
  0
ARC
  5
29D
330
238
100
AcDbEntity
  8
P-SANR-FIXT
100
AcDbCircle
 10
1177.114353943077
 20
1999.98255885001
 30
0.0
 40
23.55355591381085
100
AcDbArc
 50
269.9999999999993
 51
89.99999999999863
  0
ARC
  5
29E
330
238
100
AcDbEntity
  8
P-SANR-FIXT
100
AcDbCircle
 10
1177.114353943077
 20
1999.98255885001
 30
0.0
 40
26.99999999989449
100
AcDbArc
 50
239.867695938096
 51
240.0000000000007
  0
ARC
  5
29F
330
238
100
AcDbEntity
  8
P-SANR-FIXT
100
AcDbCircle
 10
1177.114353943077
 20
1999.98255885001
 30
0.0
 40
26.9999999998945
100
AcDbArc
 50
179.8710310134614
 51
180.0000000000011
  0
ARC
  5
2A0
330
238
100
AcDbEntity
  8
P-SANR-FIXT
100
AcDbCircle
 10
1177.114353943077
 20
1999.98255885001
 30
0.0
 40
26.99999999989466
100
AcDbArc
 50
119.8742020841787
 51
120.0000000000013
  0
ARC
  5
2A1
330
238
100
AcDbEntity
  8
P-SANR-FIXT
100
AcDbCircle
 10
1177.114353943077
 20
1999.98255885001
 30
0.0
 40
26.99999999989441
100
AcDbArc
 50
59.8676959377977
 51
60.00000000000044
  0
ARC
  5
2A2
330
238
100
AcDbEntity
  8
P-SANR-FIXT
100
AcDbCircle
 10
1177.114353943077
 20
1999.98255885001
 30
0.0
 40
26.9999999998945
100
AcDbArc
 50
359.8710310135137
 51
0.0
  0
ARC
  5
2A3
330
238
100
AcDbEntity
  8
P-SANR-FIXT
100
AcDbCircle
 10
1177.114353943077
 20
1999.98255885001
 30
0.0
 40
26.99999999989452
100
AcDbArc
 50
299.8742020844629
 51
299.9999999999996
  0
SPLINE
  5
2A4
330
238
100
AcDbEntity
  8
P-SANR-FIXT
100
AcDbSpline
210
0.0
220
0.0
230
1.0
 70
     8
 71
     3
 72
     9
 73
     5
 74
     0
 42
0.000000001
 43
0.0000000001
 40
0.0
 40
0.0
 40
0.0
 40
0.0
 40
0.5
 40
1.0
 40
1.0
 40
1.0
 40
1.0
 10
1180.864353943136
 20
1970.970707823266
 30
0.0
 10
1180.305189349093
 20
1970.647873994374
 30
0.0
 10
1179.095140935019
 20
1970.142902476947
 30
0.0
 10
1177.777683224308
 20
1969.965898351644
 30
0.0
 10
1177.114353943077
 20
1969.965898351649
 30
0.0
  0
SPLINE
  5
2A5
330
238
100
AcDbEntity
  8
P-SANR-FIXT
100
AcDbSpline
210
0.0
220
0.0
230
1.0
 70
     8
 71
     3
 72
     9
 73
     5
 74
     0
 42
0.000000001
 43
0.0000000001
 40
0.0
 40
0.0
 40
0.0
 40
0.0
 40
0.5
 40
1.0
 40
1.0
 40
1.0
 40
1.0
 10
1177.114353943077
 20
1969.965898351649
 30
0.0
 10
1176.451024661868
 20
1969.965898351654
 30
0.0
 10
1175.133566951202
 20
1970.142902476967
 30
0.0
 10
1173.923518537164
 20
1970.647873994383
 30
0.0
 10
1173.364353943136
 20
1970.970707823266
 30
0.0
  0
SPLINE
  5
2A6
330
238
100
AcDbEntity
  8
P-SANR-FIXT
100
AcDbSpline
210
0.0
220
0.0
230
1.0
 70
    24
 71
     3
 72
     9
 73
     5
 74
     0
 42
0.000000001
 43
0.0000000001
 40
0.0
 40
0.0
 40
0.0
 40
0.0
 40
0.5
 40
1.0
 40
1.0
 40
1.0
 40
1.0
 10
1173.364353943136
 20
1970.970707823266
 30
0.0
 10
1170.079309882126
 20
1972.86732889619
 30
0.0
 10
1163.544265821119
 20
1976.640338343978
 30
0.0
 10
1157.079309882139
 20
1980.372882395647
 30
0.0
 10
1153.864353943155
 20
1982.229038072452
 30
0.0
  0
SPLINE
  5
2A7
330
238
100
AcDbEntity
  8
P-SANR-FIXT
100
AcDbSpline
210
0.0
220
0.0
230
1.0
 70
     8
 71
     3
 72
     9
 73
     5
 74
     0
 42
0.000000001
 43
0.0000000001
 40
0.0
 40
0.0
 40
0.0
 40
0.0
 40
0.5
 40
1.0
 40
1.0
 40
1.0
 40
1.0
 10
1153.864353943155
 20
1982.229038072452
 30
0.0
 10
1153.30518934912
 20
1982.55187190134
 30
0.0
 10
1152.262846979819
 20
1983.34731880901
 30
0.0
 10
1151.450828055385
 20
1984.399768592221
 30
0.0
 10
1151.119163414775
 20
1984.97422860083
 30
0.0
  0
SPLINE
  5
2A8
330
238
100
AcDbEntity
  8
P-SANR-FIXT
100
AcDbSpline
210
0.0
220
0.0
230
1.0
 70
     8
 71
     3
 72
     9
 73
     5
 74
     0
 42
0.000000001
 43
0.0000000001
 40
0.0
 40
0.0
 40
0.0
 40
0.0
 40
0.5
 40
1.0
 40
1.0
 40
1.0
 40
1.0
 10
1151.119163414775
 20
1984.97422860083
 30
0.0
 10
1150.787498774165
 20
1985.548688609441
 30
0.0
 10
1150.28205998791
 20
1986.778142517963
 30
0.0
 10
1150.114353943155
 20
1988.078560943058
 30
0.0
 10
1150.114353943155
 20
1988.724228600836
 30
0.0
  0
SPLINE
  5
2A9
330
238
100
AcDbEntity
  8
P-SANR-FIXT
100
AcDbSpline
210
0.0
220
0.0
230
1.0
 70
    24
 71
     3
 72
     9
 73
     5
 74
     0
 42
0.000000001
 43
0.0000000001
 40
0.0
 40
0.0
 40
0.0
 40
0.0
 40
0.5
 40
1.0
 40
1.0
 40
1.0
 40
1.0
 10
1150.114353943155
 20
1988.724228600836
 30
0.0
 10
1150.114353943155
 20
1992.517470746684
 30
0.0
 10
1150.114353943155
 20
2000.063489642261
 30
0.0
 10
1150.114353943155
 20
2007.5285777456
 30
0.0
 10
1150.114353943155
 20
2011.240889099209
 30
0.0
  0
SPLINE
  5
2AA
330
238
100
AcDbEntity
  8
P-SANR-FIXT
100
AcDbSpline
210
0.0
220
0.0
230
1.0
 70
     8
 71
     3
 72
     9
 73
     5
 74
     0
 42
0.000000001
 43
0.0000000001
 40
0.0
 40
0.0
 40
0.0
 40
0.0
 40
0.5
 40
1.0
 40
1.0
 40
1.0
 40
1.0
 10
1150.114353943155
 20
2011.240889099209
 30
0.0
 10
1150.114353943155
 20
2011.886556756987
 30
0.0
 10
1150.28205998791
 20
2013.186975182085
 30
0.0
 10
1150.787498774167
 20
2014.416429090609
 30
0.0
 10
1151.119163414778
 20
2014.99088909922
 30
0.0
  0
SPLINE
  5
2AB
330
238
100
AcDbEntity
  8
P-SANR-FIXT
100
AcDbSpline
210
0.0
220
0.0
230
1.0
 70
     8
 71
     3
 72
     9
 73
     5
 74
     0
 42
0.000000001
 43
0.0000000001
 40
0.0
 40
0.0
 40
0.0
 40
0.0
 40
0.5
 40
1.0
 40
1.0
 40
1.0
 40
1.0
 10
1151.119163414778
 20
2014.99088909922
 30
0.0
 10
1151.450828055388
 20
2015.565349107828
 30
0.0
 10
1152.262846979821
 20
2016.617798891037
 30
0.0
 10
1153.305189349121
 20
2017.413245798705
 30
0.0
 10
1153.864353943155
 20
2017.736079627592
 30
0.0
  0
SPLINE
  5
2AC
330
238
100
AcDbEntity
  8
P-SANR-FIXT
100
AcDbSpline
210
0.0
220
0.0
230
1.0
 70
    24
 71
     3
 72
     9
 73
     5
 74
     0
 42
0.000000001
 43
0.0000000001
 40
0.0
 40
0.0
 40
0.0
 40
0.0
 40
0.5
 40
1.0
 40
1.0
 40
1.0
 40
1.0
 10
1153.864353943155
 20
2017.736079627592
 30
0.0
 10
1157.149398004166
 20
2019.632700700517
 30
0.0
 10
1163.684442065173
 20
2023.405710148305
 30
0.0
 10
1170.149398004153
 20
2027.138254199975
 30
0.0
 10
1173.364353943136
 20
2028.994409876779
 30
0.0
  0
SPLINE
  5
2AD
330
238
100
AcDbEntity
  8
P-SANR-FIXT
100
AcDbSpline
210
0.0
220
0.0
230
1.0
 70
     8
 71
     3
 72
     9
 73
     5
 74
     0
 42
0.000000001
 43
0.0000000001
 40
0.0
 40
0.0
 40
0.0
 40
0.0
 40
0.5
 40
1.0
 40
1.0
 40
1.0
 40
1.0
 10
1173.364353943136
 20
2028.994409876779
 30
0.0
 10
1173.923518537164
 20
2029.317243705662
 30
0.0
 10
1175.133566951201
 20
2029.822215223078
 30
0.0
 10
1176.451024661868
 20
2029.999219348391
 30
0.0
 10
1177.114353943077
 20
2029.999219348396
 30
0.0
  0
SPLINE
  5
2AE
330
238
100
AcDbEntity
  8
P-SANR-FIXT
100
AcDbSpline
210
0.0
220
0.0
230
1.0
 70
     8
 71
     3
 72
     9
 73
     5
 74
     0
 42
0.000000001
 43
0.0000000001
 40
0.0
 40
0.0
 40
0.0
 40
0.0
 40
0.5
 40
1.0
 40
1.0
 40
1.0
 40
1.0
 10
1177.114353943077
 20
2029.999219348396
 30
0.0
 10
1177.777683224308
 20
2029.999219348401
 30
0.0
 10
1179.095140935019
 20
2029.822215223098
 30
0.0
 10
1180.305189349093
 20
2029.317243705671
 30
0.0
 10
1180.864353943136
 20
2028.994409876779
 30
0.0
  0
SPLINE
  5
2AF
330
238
100
AcDbEntity
  8
P-SANR-FIXT
100
AcDbSpline
210
0.0
220
0.0
230
1.0
 70
    24
 71
     3
 72
     9
 73
     5
 74
     0
 42
0.000000001
 43
0.0000000001
 40
0.0
 40
0.0
 40
0.0
 40
0.0
 40
0.5
 40
1.0
 40
1.0
 40
1.0
 40
1.0
 10
1180.864353943136
 20
2028.994409876779
 30
0.0
 10
1184.149398004146
 20
2027.097788803855
 30
0.0
 10
1190.684442065154
 20
2023.324779356066
 30
0.0
 10
1197.149398004134
 20
2019.592235304397
 30
0.0
 10
1200.364353943117
 20
2017.736079627593
 30
0.0
  0
SPLINE
  5
2B0
330
238
100
AcDbEntity
  8
P-SANR-FIXT
100
AcDbSpline
210
0.0
220
0.0
230
1.0
 70
     8
 71
     3
 72
     9
 73
     5
 74
     0
 42
0.000000001
 43
0.0000000001
 40
0.0
 40
0.0
 40
0.0
 40
0.0
 40
0.5
 40
1.0
 40
1.0
 40
1.0
 40
1.0
 10
1200.364353943117
 20
2017.736079627593
 30
0.0
 10
1200.923518537152
 20
2017.413245798705
 30
0.0
 10
1201.965860906456
 20
2016.617798891033
 30
0.0
 10
1202.777879830893
 20
2015.565349107816
 30
0.0
 10
1203.109544471503
 20
2014.990889099204
 30
0.0
  0
SPLINE
  5
2B1
330
238
100
AcDbEntity
  8
P-SANR-FIXT
100
AcDbSpline
210
0.0
220
0.0
230
1.0
 70
     8
 71
     3
 72
     9
 73
     5
 74
     0
 42
0.000000001
 43
0.0000000001
 40
0.0
 40
0.0
 40
0.0
 40
0.0
 40
0.5
 40
1.0
 40
1.0
 40
1.0
 40
1.0
 10
1203.109544471503
 20
2014.990889099204
 30
0.0
 10
1203.441209112113
 20
2014.416429090593
 30
0.0
 10
1203.946647898364
 20
2013.186975182073
 30
0.0
 10
1204.114353943117
 20
2011.886556756983
 30
0.0
 10
1204.114353943117
 20
2011.24088909921
 30
0.0
  0
SPLINE
  5
2B2
330
238
100
AcDbEntity
  8
P-SANR-FIXT
100
AcDbSpline
210
0.0
220
0.0
230
1.0
 70
    24
 71
     3
 72
     9
 73
     5
 74
     0
 42
0.000000001
 43
0.0000000001
 40
0.0
 40
0.0
 40
0.0
 40
0.0
 40
0.5
 40
1.0
 40
1.0
 40
1.0
 40
1.0
 10
1204.114353943117
 20
2011.24088909921
 30
0.0
 10
1204.114353943117
 20
2007.447646953361
 30
0.0
 10
1204.114353943117
 20
1999.901628057784
 30
0.0
 10
1204.114353943117
 20
1992.436539954446
 30
0.0
 10
1204.114353943117
 20
1988.724228600836
 30
0.0
  0
SPLINE
  5
2B3
330
238
100
AcDbEntity
  8
P-SANR-FIXT
100
AcDbSpline
210
0.0
220
0.0
230
1.0
 70
     8
 71
     3
 72
     9
 73
     5
 74
     0
 42
0.000000001
 43
0.0000000001
 40
0.0
 40
0.0
 40
0.0
 40
0.0
 40
0.5
 40
1.0
 40
1.0
 40
1.0
 40
1.0
 10
1204.114353943117
 20
1988.724228600836
 30
0.0
 10
1204.114353943117
 20
1988.078560943063
 30
0.0
 10
1203.946647898365
 20
1986.778142517976
 30
0.0
 10
1203.441209112115
 20
1985.548688609457
 30
0.0
 10
1203.109544471507
 20
1984.974228600848
 30
0.0
  0
SPLINE
  5
2B4
330
238
100
AcDbEntity
  8
P-SANR-FIXT
100
AcDbSpline
210
0.0
220
0.0
230
1.0
 70
     8
 71
     3
 72
     9
 73
     5
 74
     0
 42
0.000000001
 43
0.0000000001
 40
0.0
 40
0.0
 40
0.0
 40
0.0
 40
0.5
 40
1.0
 40
1.0
 40
1.0
 40
1.0
 10
1203.109544471507
 20
1984.974228600848
 30
0.0
 10
1202.777879830896
 20
1984.399768592234
 30
0.0
 10
1201.965860906459
 20
1983.347318809015
 30
0.0
 10
1200.923518537154
 20
1982.551871901341
 30
0.0
 10
1200.364353943117
 20
1982.229038072453
 30
0.0
  0
SPLINE
  5
2B5
330
238
100
AcDbEntity
  8
P-SANR-FIXT
100
AcDbSpline
210
0.0
220
0.0
230
1.0
 70
    24
 71
     3
 72
     9
 73
     5
 74
     0
 42
0.000000001
 43
0.0000000001
 40
0.0
 40
0.0
 40
0.0
 40
0.0
 40
0.5
 40
1.0
 40
1.0
 40
1.0
 40
1.0
 10
1200.364353943117
 20
1982.229038072453
 30
0.0
 10
1197.079309882107
 20
1980.332416999529
 30
0.0
 10
1190.5442658211
 20
1976.55940755174
 30
0.0
 10
1184.07930988212
 20
1972.826863500071
 30
0.0
 10
1180.864353943136
 20
1970.970707823266
 30
0.0
  0
ARC
  5
2B6
330
238
100
AcDbEntity
  8
P-SANR-FIXT
100
AcDbCircle
 10
1177.114353943077
 20
1999.982558850011
 30
0.0
 40
20.34999999995375
100
AcDbArc
 50
90.0
 51
269.9999999999997
  0
ARC
  5
2B7
330
238
100
AcDbEntity
  8
P-SANR-FIXT
100
AcDbCircle
 10
1177.114353943077
 20
1999.982558850011
 30
0.0
 40
20.34999999995375
100
AcDbArc
 50
269.9999999999997
 51
89.99999999999936
  0
ARC
  5
2B8
330
238
100
AcDbEntity
  8
P-SANR-FIXT
100
AcDbCircle
 10
1177.114353943077
 20
1999.982558850011
 30
0.0
 40
20.94999999995366
100
AcDbArc
 50
90.00000000000062
 51
269.9999999999997
  0
ARC
  5
2B9
330
238
100
AcDbEntity
  8
P-SANR-FIXT
100
AcDbCircle
 10
1177.114353943077
 20
1999.982558850011
 30
0.0
 40
20.94999999995366
100
AcDbArc
 50
270.0000000000002
 51
90.0
  0
LWPOLYLINE
  5
2BA
330
238
100
AcDbEntity
  8
P-SANR-FIXT
100
AcDbPolyline
 90
       40
 70
   128
 43
0.0
 10
1151.256736552979
 20
1971.821552405708
 10
1151.374224594684
 20
1971.137980324798
 10
1151.634329429305
 20
1970.239095683818
 10
1151.975951274006
 20
1969.401457346642
 10
1152.381972956892
 20
1968.632041517747
 10
1152.836897855955
 20
1967.931468486508
 10
1153.328253256712
 20
1967.296025797999
 10
1153.846894122124
 20
1966.719644636591
 10
1154.386638884558
 20
1966.195405887304
 10
1154.943634993053
 20
1965.71649961245
 10
1155.515706454056
 20
1965.276737668351
 10
1156.101800783891
 20
1964.870763288616
 10
1156.701567200454
 20
1964.49408167619
 10
1157.31505611443
 20
1964.142998520779
 10
1157.942515453933
 20
1963.814520019571
 10
1158.584258297456
 20
1963.506244191139
 10
1159.24058040758
 20
1963.216258295397
 10
1159.911711461554
 20
1962.943048538106
 10
1160.597788412603
 20
1962.68542363935
 10
1161.298843028923
 20
1962.442451617302
 10
1162.014798281433
 20
1962.213408217709
 10
1162.745470079397
 20
1961.997735174939
 10
1163.490572092944
 20
1961.79500656714
 10
1164.249722227025
 20
1961.604901736171
 10
1165.022449853524
 20
1961.427183486058
 10
1165.808203260272
 20
1961.261680506774
 10
1166.606357001727
 20
1961.10827317494
 10
1167.416218979498
 20
1960.966882054831
 10
1168.237037170509
 20
1960.837458563299
 10
1169.068005975421
 20
1960.719977374878
 10
1169.908272192538
 20
1960.614430232961
 10
1170.756940640877
 20
1960.520820903814
 10
1171.613079465716
 20
1960.439161066318
 10
1172.475725164209
 20
1960.369466974526
 10
1173.343887369714
 20
1960.31175676539
 10
1174.216553432788
 20
1960.266048311977
 10
1175.092692835294
 20
1960.232357545162
 10
1175.971261472145
 20
1960.210697185198
 10
1176.851205833486
 20
1960.201075839914
 10
1177.114353943079
 20
1960.200537752968
  0
LWPOLYLINE
  5
2BB
330
238
100
AcDbEntity
  8
P-SANR-FIXT
100
AcDbPolyline
 90
       40
 70
   128
 43
0.0
 10
1202.972281112323
 20
1971.823354771041
 10
1202.854483291474
 20
1971.137980324797
 10
1202.594378456854
 20
1970.239095683818
 10
1202.252756612152
 20
1969.401457346642
 10
1201.846734929266
 20
1968.632041517747
 10
1201.391810030203
 20
1967.931468486508
 10
1200.900454629446
 20
1967.296025797999
 10
1200.381813764034
 20
1966.719644636591
 10
1199.8420690016
 20
1966.195405887304
 10
1199.285072893104
 20
1965.71649961245
 10
1198.713001432103
 20
1965.276737668351
 10
1198.126907102267
 20
1964.870763288616
 10
1197.527140685704
 20
1964.49408167619
 10
1196.913651771729
 20
1964.142998520779
 10
1196.286192432225
 20
1963.814520019571
 10
1195.644449588703
 20
1963.506244191139
 10
1194.988127478578
 20
1963.216258295397
 10
1194.316996424604
 20
1962.943048538106
 10
1193.630919473556
 20
1962.68542363935
 10
1192.929864857235
 20
1962.442451617302
 10
1192.213909604725
 20
1962.213408217709
 10
1191.483237806762
 20
1961.997735174939
 10
1190.738135793214
 20
1961.79500656714
 10
1189.978985659133
 20
1961.604901736171
 10
1189.206258032634
 20
1961.427183486058
 10
1188.420504625886
 20
1961.261680506774
 10
1187.622350884432
 20
1961.10827317494
 10
1186.81248890666
 20
1960.966882054832
 10
1185.991670715649
 20
1960.837458563299
 10
1185.160701910737
 20
1960.719977374878
 10
1184.32043569362
 20
1960.614430232961
 10
1183.471767245282
 20
1960.520820903814
 10
1182.615628420443
 20
1960.439161066318
 10
1181.752982721949
 20
1960.369466974526
 10
1180.884820516445
 20
1960.31175676539
 10
1180.01215445337
 20
1960.266048311977
 10
1179.136015050865
 20
1960.232357545162
 10
1178.257446414014
 20
1960.210697185198
 10
1177.377502052672
 20
1960.201075839914
 10
1177.114353943079
 20
1960.200537752969
  0
LWPOLYLINE
  5
2BC
330
238
100
AcDbEntity
  8
P-SANR-FIXT
100
AcDbPolyline
 90
        4
 70
   128
 43
0.0
 10
1142.633088692842
 20
2046.739060725526
 10
1143.515996642311
 20
2016.359764779023
 10
1147.946990833706
 20
1985.958440096286
 10
1151.296498012372
 20
1971.633127091969
  0
LWPOLYLINE
  5
2BD
330
238
100
AcDbEntity
  8
P-SANR-FIXT
100
AcDbPolyline
 90
        4
 70
   128
 43
0.0
 10
1211.595619193317
 20
2046.739060725526
 10
1210.712711243847
 20
2016.359764779013
 10
1206.28171705245
 20
1985.958440096276
 10
1202.932209873785
 20
1971.63312709196
  0
LINE
  5
2BE
330
238
100
AcDbEntity
  8
P-SANR-FIXT
100
AcDbLine
 10
1142.734467662413
 20
2046.538349887715
 30
0.0
 11
1143.185202839814
 21
2045.821115791275
 31
0.0
  0
LINE
  5
2BF
330
238
100
AcDbEntity
  8
P-SANR-FIXT
100
AcDbLine
 10
1211.043505046344
 20
2045.821115791275
 30
0.0
 11
1211.494240223745
 21
2046.538349887715
 31
0.0
  0
LINE
  5
2C0
330
238
100
AcDbEntity
  8
P-SANR-FIXT
100
AcDbLine
 10
1140.114353943079
 20
2074.324774015461
 30
0.0
 11
1140.114353943079
 21
2073.851099612234
 31
0.0
  0
LINE
  5
2C1
330
238
100
AcDbEntity
  8
P-SANR-FIXT
100
AcDbLine
 10
1214.114353943079
 20
2073.851099612234
 30
0.0
 11
1214.114353943079
 21
2074.324774015461
 31
0.0
  0
LWPOLYLINE
  5
2C2
330
238
100
AcDbEntity
  8
P-SANR-FIXT
100
AcDbPolyline
 90
        4
 70
   128
 43
0.0
 10
1142.039508430529
 20
2047.947167307504
 10
1142.274900130734
 20
2047.375348850766
 10
1142.621514728775
 20
2046.723366405879
 10
1142.734467662413
 20
2046.538349887715
  0
LWPOLYLINE
  5
2C3
330
238
100
AcDbEntity
  8
P-SANR-FIXT
100
AcDbPolyline
 90
        4
 70
   128
 43
0.0
 10
1212.189199455629
 20
2047.947167307504
 10
1211.953807755423
 20
2047.375348850766
 10
1211.607193157383
 20
2046.723366405879
 10
1211.494240223745
 20
2046.538349887715
  0
ELLIPSE
  5
2C4
330
238
100
AcDbEntity
  8
P-SANR-FIXT
100
AcDbEllipse
 10
1177.114353943077
 20
1972.427806917313
 30
0.0
 11
25.92219672528927
 21
0.0
 31
0.0
210
0.0
220
0.0
230
1.0
 40
0.342020143325671
 41
3.220132469929546
 42
4.712388980384683
  0
ELLIPSE
  5
2C5
330
238
100
AcDbEntity
  8
P-SANR-FIXT
100
AcDbEllipse
 10
1177.114353943077
 20
1972.427806917313
 30
0.0
 11
25.922196725289
 21
0.0
 31
0.0
210
0.0
220
0.0
230
1.0
 40
0.3420201433256771
 41
4.712388980384683
 42
6.204645490839846
  0
ELLIPSE
  5
2C6
330
238
100
AcDbEntity
  8
P-SANR-FIXT
100
AcDbEllipse
 10
1177.114353943077
 20
2074.32477401546
 30
0.0
 11
36.99999999999977
 21
0.0
 31
0.0
210
0.0
220
0.0
230
0.9999999999999998
 40
0.342020143325673
 41
2.979925086997769
 42
4.712388980384683
  0
ELLIPSE
  5
2C7
330
238
100
AcDbEntity
  8
P-SANR-FIXT
100
AcDbEllipse
 10
1177.114353943077
 20
2074.32477401546
 30
0.0
 11
36.99999999999999
 21
0.0
 31
0.0
210
0.0
220
0.0
230
1.0
 40
0.3420201433256649
 41
4.712388980384683
 42
6.44485287376342
  0
ENDBLK
  5
2C9
330
238
100
AcDbEntity
  8
0
100
AcDbBlockEnd
  0
ENDSEC
  0
SECTION
  2
ENTITIES
  0
INSERT
  5
171
330
71
100
AcDbEntity
  8
P-SANR-FIXT
100
AcDbBlockReference
  2
Automatic flow rate regulator valve_Caleffi_121 DN15 - 1 1_4___Pressure gauge H-970634-Est - Idraulica
 10
0.0
 20
0.0
 30
0.0
1001
REVIT
1002
{
1070
     1
1000
863131
1002
}
1002
{
1070
     5
1000
970634
1002
}
1002
{
1070
     2
1000
-2001160
1002
}
  0
INSERT
  5
237
330
71
100
AcDbEntity
  8
P-SANR-FIXT
100
AcDbBlockReference
  2
Automatic flow rate regulator valve_Caleffi_121 DN15 - 1 1_4___Pressure gauge H-V1-Est - Idraulica
 10
0.0
 20
0.0
 30
0.0
1001
REVIT
1002
{
1070
     1
1000
863152
1002
}
1002
{
1070
     5
1000
970634
1002
}
1002
{
1070
     2
1000
-2001160
1002
}
  0
INSERT
  5
2CA
330
71
100
AcDbEntity
  8
P-SANR-FIXT
100
AcDbBlockReference
  2
Automatic flow rate regulator valve_Caleffi_121 DN15 - 1 1_4___Pressure gauge H-V2-Est - Idraulica
 10
0.0
 20
0.0
 30
0.0
1001
REVIT
1002
{
1070
     1
1000
863172
1002
}
1002
{
1070
     5
1000
970634
1002
}
1002
{
1070
     2
1000
-2001160
1002
}
  0
ENDSEC
  0
SECTION
  2
OBJECTS
  0
DICTIONARY
  5
C
330
0
100
AcDbDictionary
281
     1
  3
ACAD_CIP_PREVIOUS_PRODUCT_INFO
350
7A
  3
ACAD_COLOR
350
63
  3
ACAD_DETAILVIEWSTYLE
350
6B
  3
ACAD_GROUP
350
D
  3
ACAD_IMAGE_VARS
350
7B
  3
ACAD_LAYOUT
350
62
  3
ACAD_MATERIAL
350
10
  3
ACAD_MLEADERSTYLE
350
66
  3
ACAD_MLINESTYLE
350
5F
  3
ACAD_PLOTSETTINGS
350
61
  3
ACAD_PLOTSTYLENAME
350
E
  3
ACAD_SCALELIST
350
42
  3
ACAD_SECTIONVIEWSTYLE
350
68
  3
ACAD_TABLESTYLE
350
64
  3
ACAD_VISUALSTYLE
350
29
  3
ACDB_RECOMPOSE_DATA
350
2D5
  3
AcDbVariableDictionary
350
7C
  3
REVIT_DICTIONARY
350
2CC
  0
DICTIONARY
  5
2D1
330
71
100
AcDbDictionary
280
     1
281
     1
  3
ACAD_SORTENTS
360
2D2
  0
XRECORD
  5
7A
102
{ACAD_REACTORS
330
C
102
}
330
C
100
AcDbXrecord
280
     1
300
RVT
300
2013
300
RVT2013
  0
DICTIONARY
  5
63
102
{ACAD_REACTORS
330
C
102
}
330
C
100
AcDbDictionary
281
     1
  0
DICTIONARY
  5
6B
102
{ACAD_REACTORS
330
C
102
}
330
C
100
AcDbDictionary
281
     1
  3
Imperial24
350
6C
  0
DICTIONARY
  5
D
102
{ACAD_REACTORS
330
C
102
}
330
C
100
AcDbDictionary
281
     1
  0
RASTERVARIABLES
  5
7B
102
{ACAD_REACTORS
330
C
102
}
330
C
100
AcDbRasterVariables
 90
        0
 70
     0
 71
     1
 72
     1
  0
DICTIONARY
  5
62
102
{ACAD_REACTORS
330
C
102
}
330
C
100
AcDbDictionary
281
     1
  3
Layout1
350
70
  3
Layout2
350
78
  3
Model
350
74
  0
DICTIONARY
  5
10
102
{ACAD_REACTORS
330
C
102
}
330
C
100
AcDbDictionary
281
     1
  3
ByBlock
350
19
  3
ByLayer
350
11
  3
Global
350
21
  0
DICTIONARY
  5
66
102
{ACAD_REACTORS
330
C
102
}
330
C
100
AcDbDictionary
281
     1
  3
Standard
350
67
  0
DICTIONARY
  5
5F
102
{ACAD_REACTORS
330
C
102
}
330
C
100
AcDbDictionary
281
     1
  3
Standard
350
60
  0
DICTIONARY
  5
61
102
{ACAD_REACTORS
330
C
102
}
330
C
100
AcDbDictionary
281
     1
  0
ACDBDICTIONARYWDFLT
  5
E
102
{ACAD_REACTORS
330
C
102
}
330
C
100
AcDbDictionary
281
     1
  3
Normal
350
F
100
AcDbDictionaryWithDefault
340
F
  0
DICTIONARY
  5
42
102
{ACAD_REACTORS
330
C
102
}
330
C
100
AcDbDictionary
281
     1
  3
A0
350
43
  3
A1
350
44
  3
A2
350
45
  3
A3
350
46
  3
A4
350
47
  3
A5
350
48
  3
A6
350
49
  3
A7
350
4A
  3
A8
350
4B
  3
A9
350
4C
  3
B0
350
4D
  3
B1
350
4E
  3
B2
350
4F
  3
B3
350
50
  3
B4
350
51
  3
B5
350
52
  3
B6
350
53
  0
DICTIONARY
  5
68
102
{ACAD_REACTORS
330
C
102
}
330
C
100
AcDbDictionary
281
     1
  3
Imperial24
350
6A
  0
DICTIONARY
  5
64
102
{ACAD_REACTORS
330
C
102
}
330
C
100
AcDbDictionary
281
     1
  3
Standard
350
65
  0
DICTIONARY
  5
29
102
{ACAD_REACTORS
330
C
102
}
330
C
100
AcDbDictionary
281
     1
  3
2dWireframe
350
2F
  3
Basic
350
2E
  3
Brighten
350
35
  3
ColorChange
350
39
  3
Conceptual
350
32
  3
Dim
350
34
  3
EdgeColorOff
350
41
  3
Facepattern
350
38
  3
Flat
350
2A
  3
FlatWithEdges
350
2B
  3
Gouraud
350
2C
  3
GouraudWithEdges
350
2D
  3
Hidden
350
31
  3
JitterOff
350
3F
  3
Linepattern
350
37
  3
OverhangOff
350
40
  3
Realistic
350
33
  3
Shaded
350
3E
  3
Shaded with edges
350
3D
  3
Shades of Gray
350
3A
  3
Sketchy
350
3B
  3
Thicken
350
36
  3
Wireframe
350
30
  3
X-Ray
350
3C
  0
XRECORD
  5
2D5
102
{ACAD_REACTORS
330
C
102
}
330
C
100
AcDbXrecord
280
     1
 90
        1
330
65
  0
DICTIONARY
  5
7C
102
{ACAD_REACTORS
330
C
102
}
330
C
100
AcDbDictionary
281
     1
  3
CANNOSCALE
350
81
  3
CMLEADERSTYLE
350
7E
  3
CTABLESTYLE
350
7D
  3
CVIEWDETAILSTYLE
350
7F
  3
CVIEWSECTIONSTYLE
350
80
  0
DICTIONARY
  5
2CC
102
{ACAD_REACTORS
330
C
102
}
330
C
100
AcDbDictionary
281
     1
  3
DRAWING_TOOL
350
2D0
  3
REVIT_CATEGORY_MAPPING
350
2CE
  3
REVIT_SUB_CATEGORY_MAPPING
350
2CF
  3
REVIT_TYPE_MAPPING
350
2CD
  0
SORTENTSTABLE
  5
2D2
102
{ACAD_REACTORS
330
2D1
102
}
330
2D1
100
AcDbSortentsTable
330
71
  0
ACDBDETAILVIEWSTYLE
  5
6C
102
{ACAD_REACTORS
330
6B
102
}
330
6B
100
AcDbModelDocViewStyle
 70
     0
  3
Imperial24
290
     1
100
AcDbDetailViewStyle
 70
     0
 71
     0
 90
        3
 71
     1
340
55
 62
   256
 40
0.24
340
0
 62
   256
 40
0.24
300

 40
0.36
280
     3
 71
     2
340
5D
 90
       25
 62
   256
 71
     3
340
55
 62
   256
 40
0.24
 90
        1
 40
0.75
 90
        1
300
%<\AcVar ViewType \f "%tc1">% %<\AcVar ViewDetailId>%\PSCALA %<\AcVar ViewScale \f "%sn">%
 71
     4
340
5D
 90
       25
 62
   256
340
5D
 90
       25
 62
   256
280
     0
  0
LAYOUT
  5
70
102
{ACAD_REACTORS
330
62
102
}
330
62
100
AcDbPlotSettings
  1

  2

  4

  6

 40
0.0
 41
0.0
 42
0.0
 43
0.0
 44
0.0
 45
0.0
 46
0.0
 47
0.0
 48
0.0
 49
0.0
140
0.0
141
0.0
142
1.0
143
1.0
 70
   688
 72
     0
 73
     0
 74
     5
  7

 75
    16
147
1.0
 76
     0
 77
     2
 78
   300
148
0.0
149
0.0
100
AcDbLayout
  1
Layout1
 70
     1
 71
     1
 10
0.0
 20
0.0
 11
12.0
 21
9.0
 12
0.0
 22
0.0
 32
0.0
 14
0.0
 24
0.0
 34
0.0
 15
0.0
 25
0.0
 35
0.0
146
0.0
 13
0.0
 23
0.0
 33
0.0
 16
1.0
 26
0.0
 36
0.0
 17
0.0
 27
1.0
 37
0.0
 76
     0
330
6D
  0
LAYOUT
  5
78
102
{ACAD_REACTORS
330
62
102
}
330
62
100
AcDbPlotSettings
  1

  2

  4

  6

 40
0.0
 41
0.0
 42
0.0
 43
0.0
 44
0.0
 45
0.0
 46
0.0
 47
0.0
 48
0.0
 49
0.0
140
0.0
141
0.0
142
1.0
143
1.0
 70
   688
 72
     0
 73
     0
 74
     5
  7

 75
    16
147
1.0
 76
     0
 77
     2
 78
   300
148
0.0
149
0.0
100
AcDbLayout
  1
Layout2
 70
     1
 71
     2
 10
0.0
 20
0.0
 11
12.0
 21
9.0
 12
0.0
 22
0.0
 32
0.0
 14
0.0
 24
0.0
 34
0.0
 15
0.0
 25
0.0
 35
0.0
146
0.0
 13
0.0
 23
0.0
 33
0.0
 16
1.0
 26
0.0
 36
0.0
 17
0.0
 27
1.0
 37
0.0
 76
     0
330
75
  0
LAYOUT
  5
74
102
{ACAD_REACTORS
330
62
102
}
330
62
100
AcDbPlotSettings
  1

  2

  4

  6

 40
0.0
 41
0.0
 42
0.0
 43
0.0
 44
0.0
 45
0.0
 46
0.0
 47
0.0
 48
0.0
 49
0.0
140
0.0
141
0.0
142
1.0
143
1.0
 70
  1712
 72
     0
 73
     0
 74
     0
  7

 75
     0
147
1.0
 76
     0
 77
     2
 78
   300
148
0.0
149
0.0
100
AcDbLayout
  1
Model
 70
     1
 71
     0
 10
0.0
 20
0.0
 11
12.0
 21
9.0
 12
0.0
 22
0.0
 32
0.0
 14
0.0
 24
0.0
 34
0.0
 15
0.0
 25
0.0
 35
0.0
146
0.0
 13
0.0
 23
0.0
 33
0.0
 16
1.0
 26
0.0
 36
0.0
 17
0.0
 27
1.0
 37
0.0
 76
     0
330
71
  0
MATERIAL
  5
19
102
{ACAD_XDICTIONARY
360
1A
102
}
102
{ACAD_REACTORS
330
10
102
}
330
10
100
AcDbMaterial
  1
ByBlock
 72
     0
 43
0.0208333333333333
 43
0.0
 43
0.0
 43
0.0
 43
0.0
 43
0.0208333333333333
 43
0.0
 43
0.0
 43
0.0
 43
0.0
 43
1.0
 43
0.0
 43
0.0
 43
0.0
 43
0.0
 43
1.0
 77
     0
 47
0.0208333333333333
 47
0.0
 47
0.0
 47
0.0
 47
0.0
 47
0.0208333333333333
 47
0.0
 47
0.0
 47
0.0
 47
0.0
 47
1.0
 47
0.0
 47
0.0
 47
0.0
 47
0.0
 47
1.0
171
     0
 49
0.0208333333333333
 49
0.0
 49
0.0
 49
0.0
 49
0.0
 49
0.0208333333333333
 49
0.0
 49
0.0
 49
0.0
 49
0.0
 49
1.0
 49
0.0
 49
0.0
 49
0.0
 49
0.0
 49
1.0
175
     0
142
0.0208333333333333
142
0.0
142
0.0
142
0.0
142
0.0
142
0.0208333333333333
142
0.0
142
0.0
142
0.0
142
0.0
142
1.0
142
0.0
142
0.0
142
0.0
142
0.0
142
1.0
179
     0
144
0.0208333333333333
144
0.0
144
0.0
144
0.0
144
0.0
144
0.0208333333333333
144
0.0
144
0.0
144
0.0
144
0.0
144
1.0
144
0.0
144
0.0
144
0.0
144
0.0
144
1.0
147
0.0208333333333333
147
0.0
147
0.0
147
0.0
147
0.0
147
0.0208333333333333
147
0.0
147
0.0
147
0.0
147
0.0
147
1.0
147
0.0
147
0.0
147
0.0
147
0.0
147
1.0
  0
MATERIAL
  5
11
102
{ACAD_XDICTIONARY
360
12
102
}
102
{ACAD_REACTORS
330
10
102
}
330
10
100
AcDbMaterial
  1
ByLayer
 72
     0
 43
0.0208333333333333
 43
0.0
 43
0.0
 43
0.0
 43
0.0
 43
0.0208333333333333
 43
0.0
 43
0.0
 43
0.0
 43
0.0
 43
1.0
 43
0.0
 43
0.0
 43
0.0
 43
0.0
 43
1.0
 77
     0
 47
0.0208333333333333
 47
0.0
 47
0.0
 47
0.0
 47
0.0
 47
0.0208333333333333
 47
0.0
 47
0.0
 47
0.0
 47
0.0
 47
1.0
 47
0.0
 47
0.0
 47
0.0
 47
0.0
 47
1.0
171
     0
 49
0.0208333333333333
 49
0.0
 49
0.0
 49
0.0
 49
0.0
 49
0.0208333333333333
 49
0.0
 49
0.0
 49
0.0
 49
0.0
 49
1.0
 49
0.0
 49
0.0
 49
0.0
 49
0.0
 49
1.0
175
     0
142
0.0208333333333333
142
0.0
142
0.0
142
0.0
142
0.0
142
0.0208333333333333
142
0.0
142
0.0
142
0.0
142
0.0
142
1.0
142
0.0
142
0.0
142
0.0
142
0.0
142
1.0
179
     0
144
0.0208333333333333
144
0.0
144
0.0
144
0.0
144
0.0
144
0.0208333333333333
144
0.0
144
0.0
144
0.0
144
0.0
144
1.0
144
0.0
144
0.0
144
0.0
144
0.0
144
1.0
147
0.0208333333333333
147
0.0
147
0.0
147
0.0
147
0.0
147
0.0208333333333333
147
0.0
147
0.0
147
0.0
147
0.0
147
1.0
147
0.0
147
0.0
147
0.0
147
0.0
147
1.0
  0
MATERIAL
  5
21
102
{ACAD_XDICTIONARY
360
22
102
}
102
{ACAD_REACTORS
330
10
102
}
330
10
100
AcDbMaterial
  1
Global
 72
     0
 43
0.0208333333333333
 43
0.0
 43
0.0
 43
0.0
 43
0.0
 43
0.0208333333333333
 43
0.0
 43
0.0
 43
0.0
 43
0.0
 43
1.0
 43
0.0
 43
0.0
 43
0.0
 43
0.0
 43
1.0
 77
     0
 47
0.0208333333333333
 47
0.0
 47
0.0
 47
0.0
 47
0.0
 47
0.0208333333333333
 47
0.0
 47
0.0
 47
0.0
 47
0.0
 47
1.0
 47
0.0
 47
0.0
 47
0.0
 47
0.0
 47
1.0
171
     0
 49
0.0208333333333333
 49
0.0
 49
0.0
 49
0.0
 49
0.0
 49
0.0208333333333333
 49
0.0
 49
0.0
 49
0.0
 49
0.0
 49
1.0
 49
0.0
 49
0.0
 49
0.0
 49
0.0
 49
1.0
175
     0
142
0.0208333333333333
142
0.0
142
0.0
142
0.0
142
0.0
142
0.0208333333333333
142
0.0
142
0.0
142
0.0
142
0.0
142
1.0
142
0.0
142
0.0
142
0.0
142
0.0
142
1.0
179
     0
144
0.0208333333333333
144
0.0
144
0.0
144
0.0
144
0.0
144
0.0208333333333333
144
0.0
144
0.0
144
0.0
144
0.0
144
1.0
144
0.0
144
0.0
144
0.0
144
0.0
144
1.0
147
0.0208333333333333
147
0.0
147
0.0
147
0.0
147
0.0
147
0.0208333333333333
147
0.0
147
0.0
147
0.0
147
0.0
147
1.0
147
0.0
147
0.0
147
0.0
147
0.0
147
1.0
  0
MLEADERSTYLE
  5
67
102
{ACAD_REACTORS
330
66
102
}
330
66
100
AcDbMLeaderStyle
179
     2
170
     2
171
     1
172
     0
 90
        2
 40
0.0
 41
0.0
173
     1
 91
-1056964608
340
5B
 92
       -2
290
     1
 42
0.09
291
     1
 43
0.36
  3
Standard
 44
0.18
300

342
55
174
     1
178
     6
175
     1
176
     0
 93
-1056964608
 45
0.18
292
     0
297
     0
 46
0.18
 94
-1056964608
 47
1.0
 49
1.0
140
1.0
293
     1
141
0.0
294
     1
177
     0
142
1.0
295
     1
296
     0
143
0.125
271
     0
272
     9
273
     9
298
     1
  0
MLINESTYLE
  5
60
102
{ACAD_REACTORS
330
5F
102
}
330
5F
100
AcDbMlineStyle
  2
STANDARD
 70
     0
  3

 62
   256
 51
90.0
 52
90.0
 71
     2
 49
0.5
 62
   256
  6
BYLAYER
 49
-0.5
 62
   256
  6
BYLAYER
  0
ACDBPLACEHOLDER
  5
F
102
{ACAD_REACTORS
330
E
102
}
330
E
  0
SCALE
  5
43
102
{ACAD_REACTORS
330
42
102
}
330
42
100
AcDbScale
 70
     0
300
1:1
140
1.0
141
1.0
290
     1
  0
SCALE
  5
44
102
{ACAD_REACTORS
330
42
102
}
330
42
100
AcDbScale
 70
     0
300
1/128" = 1'-0"
140
0.0078125
141
12.0
290
     0
  0
SCALE
  5
45
102
{ACAD_REACTORS
330
42
102
}
330
42
100
AcDbScale
 70
     0
300
1/64" = 1'-0"
140
0.015625
141
12.0
290
     0
  0
SCALE
  5
46
102
{ACAD_REACTORS
330
42
102
}
330
42
100
AcDbScale
 70
     0
300
1/32" = 1'-0"
140
0.03125
141
12.0
290
     0
  0
SCALE
  5
47
102
{ACAD_REACTORS
330
42
102
}
330
42
100
AcDbScale
 70
     0
300
1/16" = 1'-0"
140
0.0625
141
12.0
290
     0
  0
SCALE
  5
48
102
{ACAD_REACTORS
330
42
102
}
330
42
100
AcDbScale
 70
     0
300
3/32" = 1'-0"
140
0.09375
141
12.0
290
     0
  0
SCALE
  5
49
102
{ACAD_REACTORS
330
42
102
}
330
42
100
AcDbScale
 70
     0
300
1/8" = 1'-0"
140
0.125
141
12.0
290
     0
  0
SCALE
  5
4A
102
{ACAD_REACTORS
330
42
102
}
330
42
100
AcDbScale
 70
     0
300
3/16" = 1'-0"
140
0.1875
141
12.0
290
     0
  0
SCALE
  5
4B
102
{ACAD_REACTORS
330
42
102
}
330
42
100
AcDbScale
 70
     0
300
1/4" = 1'-0"
140
0.25
141
12.0
290
     0
  0
SCALE
  5
4C
102
{ACAD_REACTORS
330
42
102
}
330
42
100
AcDbScale
 70
     0
300
3/8" = 1'-0"
140
0.375
141
12.0
290
     0
  0
SCALE
  5
4D
102
{ACAD_REACTORS
330
42
102
}
330
42
100
AcDbScale
 70
     0
300
1/2" = 1'-0"
140
0.5
141
12.0
290
     0
  0
SCALE
  5
4E
102
{ACAD_REACTORS
330
42
102
}
330
42
100
AcDbScale
 70
     0
300
3/4" = 1'-0"
140
0.75
141
12.0
290
     0
  0
SCALE
  5
4F
102
{ACAD_REACTORS
330
42
102
}
330
42
100
AcDbScale
 70
     0
300
1" = 1'-0"
140
1.0
141
12.0
290
     0
  0
SCALE
  5
50
102
{ACAD_REACTORS
330
42
102
}
330
42
100
AcDbScale
 70
     0
300
1-1/2" = 1'-0"
140
1.5
141
12.0
290
     0
  0
SCALE
  5
51
102
{ACAD_REACTORS
330
42
102
}
330
42
100
AcDbScale
 70
     0
300
3" = 1'-0"
140
3.0
141
12.0
290
     0
  0
SCALE
  5
52
102
{ACAD_REACTORS
330
42
102
}
330
42
100
AcDbScale
 70
     0
300
6" = 1'-0"
140
6.0
141
12.0
290
     0
  0
SCALE
  5
53
102
{ACAD_REACTORS
330
42
102
}
330
42
100
AcDbScale
 70
     0
300
1'-0" = 1'-0"
140
12.0
141
12.0
290
     0
  0
ACDBSECTIONVIEWSTYLE
  5
6A
102
{ACAD_REACTORS
330
68
102
}
330
68
100
AcDbModelDocViewStyle
 70
     0
  3
Imperial24
290
     1
100
AcDbSectionViewStyle
 70
     0
 71
     0
 90
       78
 71
     1
340
55
 62
   256
 40
0.24
340
0
340
0
 62
   256
 40
0.24
300
I, O, Q, S, X, Z
 40
0.48
 90
        3
 40
0.18
 90
        1
 71
     2
340
69
 90
       25
 62
   256
340
5D
 90
       50
 62
   256
 40
0.24
 40
0.0
 40
0.24
 71
     3
340
55
 62
   256
 40
0.24
 90
        1
 40
0.75
 90
        1
300
%<\AcVar ViewType \f "%tc1">% %<\AcVar ViewSectionStartId>%-%<\AcVar ViewSectionEndId>%\PSCALA %<\AcVar ViewScale \f "%sn">%
 71
     4
 62
   256
 62
   257
300
ANSI31
 40
1.0
 90
        0
290
     0
290
     0
 90
        6
 40
0.0
 40
1.570796326794896
 40
0.2617993877991494
 40
1.308996938995747
 40
-0.2617993877991494
 40
1.832595714594046
  0
TABLESTYLE
  5
65
102
{ACAD_XDICTIONARY
360
2D3
102
}
102
{ACAD_REACTORS
330
64
102
}
330
64
100
AcDbTableStyle
280
     0
  3
Standard
 70
     0
 71
     0
 40
0.06
 41
0.06
280
     0
281
     0
  7
Standard
140
0.18
170
     2
 62
     0
 63
     7
283
     0
 90
      512
 91
        0
  1

274
    -2
284
     1
 64
     0
275
    -2
285
     1
 65
     0
276
    -2
286
     1
 66
     0
277
    -2
287
     1
 67
     0
278
    -2
288
     1
 68
     0
279
    -2
289
     1
 69
     0
  7
Standard
140
0.25
170
     5
 62
     0
 63
     7
283
     0
 90
      512
 91
        0
  1

274
    -2
284
     1
 64
     0
275
    -2
285
     1
 65
     0
276
    -2
286
     1
 66
     0
277
    -2
287
     1
 67
     0
278
    -2
288
     1
 68
     0
279
    -2
289
     1
 69
     0
  7
Standard
140
0.18
170
     5
 62
     0
 63
     7
283
     0
 90
      512
 91
        0
  1

274
    -2
284
     1
 64
     0
275
    -2
285
     1
 65
     0
276
    -2
286
     1
 66
     0
277
    -2
287
     1
 67
     0
278
    -2
288
     1
 68
     0
279
    -2
289
     1
 69
     0
  0
VISUALSTYLE
  5
2F
102
{ACAD_REACTORS
330
29
102
}
330
29
100
AcDbVisualStyle
  2
2dWireframe
 70
     4
177
     3
291
     0
 70
    58
 90
        0
176
     1
 90
        2
176
     1
 90
        0
176
     1
 90
        0
176
     1
 40
0.6
176
     1
 40
30.0
176
     1
 62
     7
420
 16777215
176
     1
 90
        1
176
     1
 90
        4
176
     1
 62
     7
176
     1
 62
   257
176
     1
 90
        1
176
     1
 90
        1
176
     1
 40
1.0
176
     1
 90
        0
176
     1
 62
   257
176
     1
 40
1.0
176
     1
 90
        1
176
     1
 90
        6
176
     1
 90
        2
176
     1
 62
     7
176
     1
 90
        5
176
     1
 90
        0
176
     1
 90
        0
176
     1
290
     0
176
     1
 90
        1
176
     1
 40
0.0
176
     1
 90
        0
176
     1
290
     1
176
     1
290
     1
176
     1
290
     0
176
     1
290
     0
176
     1
290
     0
176
     1
290
     0
176
     1
290
     0
176
     1
290
     0
176
     1
290
     0
176
     1
 90
       50
176
     1
 40
0.0
176
     1
 40
1.0
176
     1
 90
        0
176
     1
 62
    18
420
        0
176
     1
 90
       50
176
     1
 90
        3
176
     1
 62
     5
420
      255
176
     1
290
     0
176
     1
 90
       50
176
     1
 90
       50
176
     1
 90
       50
176
     1
290
     0
176
     1
 90
       50
176
     1
 62
   256
176
     0
 40
1.0
176
     0
 90
        2
176
     1
  1
strokes_ogs.tif
176
     1
290
     0
176
     1
 40
1.0
176
     1
 40
1.0
176
     1
  0
VISUALSTYLE
  5
2E
102
{ACAD_REACTORS
330
29
102
}
330
29
100
AcDbVisualStyle
  2
Basic
 70
     7
177
     3
291
     1
 70
    58
 90
        1
176
     1
 90
        0
176
     1
 90
        1
176
     1
 90
        0
176
     1
 40
0.6
176
     1
 40
30.0
176
     1
 62
     7
420
 16777215
176
     1
 90
        0
176
     1
 90
        4
176
     1
 62
     7
176
     1
 62
   257
176
     1
 90
        1
176
     1
 90
        1
176
     1
 40
1.0
176
     1
 90
        8
176
     1
 62
     7
176
     1
 40
1.0
176
     1
 90
        1
176
     1
 90
        6
176
     1
 90
        2
176
     1
 62
     7
176
     1
 90
        5
176
     1
 90
        0
176
     1
 90
        0
176
     1
290
     0
176
     1
 90
        1
176
     1
 40
0.0
176
     1
 90
        0
176
     1
290
     0
176
     1
290
     1
176
     1
290
     1
176
     1
290
     0
176
     1
290
     0
176
     1
290
     0
176
     1
290
     0
176
     1
290
     0
176
     1
290
     0
176
     1
 90
       50
176
     1
 40
0.0
176
     1
 40
1.0
176
     1
 90
        0
176
     1
 62
    18
420
        0
176
     1
 90
       50
176
     1
 90
        3
176
     1
 62
     5
420
      255
176
     1
290
     0
176
     1
 90
       50
176
     1
 90
       50
176
     1
 90
       50
176
     1
290
     0
176
     1
 90
       50
176
     1
 62
   256
176
     0
 40
1.0
176
     0
 90
        2
176
     1
  1
strokes_ogs.tif
176
     1
290
     0
176
     1
 40
1.0
176
     1
 40
1.0
176
     1
  0
VISUALSTYLE
  5
35
102
{ACAD_REACTORS
330
29
102
}
330
29
100
AcDbVisualStyle
  2
Brighten
 70
    12
177
     3
291
     1
 70
    58
 90
        2
176
     1
 90
        2
176
     1
 90
        0
176
     1
 90
        0
176
     1
 40
0.6
176
     1
 40
30.0
176
     1
 62
     7
420
 16777215
176
     1
 90
        1
176
     1
 90
        4
176
     1
 62
     7
176
     1
 62
   257
176
     1
 90
        1
176
     1
 90
        1
176
     1
 40
1.0
176
     1
 90
        8
176
     1
 62
     7
176
     1
 40
1.0
176
     1
 90
        1
176
     1
 90
        6
176
     1
 90
        2
176
     1
 62
     7
176
     1
 90
        5
176
     1
 90
        0
176
     1
 90
        0
176
     1
290
     0
176
     1
 90
        1
176
     1
 40
50.0
176
     1
 90
        0
176
     1
290
     0
176
     1
290
     1
176
     1
290
     1
176
     1
290
     0
176
     1
290
     0
176
     1
290
     0
176
     1
290
     0
176
     1
290
     0
176
     1
290
     0
176
     1
 90
       50
176
     1
 40
0.0
176
     1
 40
1.0
176
     1
 90
        0
176
     1
 62
    18
420
        0
176
     1
 90
       50
176
     1
 90
        3
176
     1
 62
     5
420
      255
176
     1
290
     0
176
     1
 90
       50
176
     1
 90
       50
176
     1
 90
       50
176
     1
290
     0
176
     1
 90
       50
176
     1
 62
   256
176
     0
 40
1.0
176
     0
 90
        2
176
     1
  1
strokes_ogs.tif
176
     1
290
     0
176
     1
 40
1.0
176
     1
 40
1.0
176
     1
  0
VISUALSTYLE
  5
39
102
{ACAD_REACTORS
330
29
102
}
330
29
100
AcDbVisualStyle
  2
ColorChange
 70
    16
177
     3
291
     1
 70
    58
 90
        2
176
     1
 90
        2
176
     1
 90
        3
176
     1
 90
        0
176
     1
 40
0.6
176
     1
 40
30.0
176
     1
 62
     8
420
  8421504
176
     1
 90
        1
176
     1
 90
        4
176
     1
 62
     7
176
     1
 62
   257
176
     1
 90
        1
176
     1
 90
        1
176
     1
 40
1.0
176
     1
 90
        8
176
     1
 62
     8
420
  8421504
176
     1
 40
1.0
176
     1
 90
        1
176
     1
 90
        6
176
     1
 90
        2
176
     1
 62
     7
176
     1
 90
        5
176
     1
 90
        0
176
     1
 90
        0
176
     1
290
     0
176
     1
 90
        1
176
     1
 40
0.0
176
     1
 90
        0
176
     1
290
     0
176
     1
290
     1
176
     1
290
     1
176
     1
290
     0
176
     1
290
     0
176
     1
290
     0
176
     1
290
     0
176
     1
290
     0
176
     1
290
     0
176
     1
 90
       50
176
     1
 40
0.0
176
     1
 40
1.0
176
     1
 90
        0
176
     1
 62
    18
420
        0
176
     1
 90
       50
176
     1
 90
        3
176
     1
 62
     5
420
      255
176
     1
290
     0
176
     1
 90
       50
176
     1
 90
       50
176
     1
 90
       50
176
     1
290
     0
176
     1
 90
       50
176
     1
 62
   256
176
     0
 40
1.0
176
     0
 90
        2
176
     1
  1
strokes_ogs.tif
176
     1
290
     0
176
     1
 40
1.0
176
     1
 40
1.0
176
     1
  0
VISUALSTYLE
  5
32
102
{ACAD_REACTORS
330
29
102
}
330
29
100
AcDbVisualStyle
  2
Conceptual
 70
     9
177
     3
291
     0
 70
    58
 90
        3
176
     1
 90
        2
176
     1
 90
        0
176
     1
 90
        0
176
     1
 40
0.6
176
     1
 40
30.0
176
     1
 62
     7
420
 16777215
176
     1
 90
        2
176
     1
 90
        2
176
     1
 62
     7
176
     1
 62
   257
176
     1
 90
        1
176
     1
 90
        1
176
     1
 40
179.0
176
     1
 90
        8
176
     1
 62
     7
176
     1
 40
1.0
176
     1
 90
        1
176
     1
 90
        6
176
     1
 90
        2
176
     1
 62
     7
176
     1
 90
        3
176
     1
 90
        0
176
     1
 90
        0
176
     1
290
     0
176
     1
 90
        1
176
     1
 40
0.0
176
     1
 90
        0
176
     1
290
     0
176
     1
290
     1
176
     1
290
     1
176
     1
290
     0
176
     1
290
     0
176
     1
290
     0
176
     1
290
     0
176
     1
290
     0
176
     1
290
     0
176
     1
 90
       50
176
     1
 40
0.0
176
     1
 40
1.0
176
     1
 90
        0
176
     1
 62
    18
420
        0
176
     1
 90
       50
176
     1
 90
        3
176
     1
 62
     5
420
      255
176
     1
290
     0
176
     1
 90
       50
176
     1
 90
       50
176
     1
 90
       50
176
     1
290
     0
176
     1
 90
       50
176
     1
 62
   256
176
     0
 40
1.0
176
     0
 90
        2
176
     1
  1
strokes_ogs.tif
176
     1
290
     0
176
     1
 40
1.0
176
     1
 40
1.0
176
     1
  0
VISUALSTYLE
  5
34
102
{ACAD_REACTORS
330
29
102
}
330
29
100
AcDbVisualStyle
  2
Dim
 70
    11
177
     3
291
     1
 70
    58
 90
        2
176
     1
 90
        2
176
     1
 90
        0
176
     1
 90
        0
176
     1
 40
0.6
176
     1
 40
30.0
176
     1
 62
     7
420
 16777215
176
     1
 90
        1
176
     1
 90
        4
176
     1
 62
     7
176
     1
 62
   257
176
     1
 90
        1
176
     1
 90
        1
176
     1
 40
1.0
176
     1
 90
        8
176
     1
 62
     7
176
     1
 40
1.0
176
     1
 90
        1
176
     1
 90
        6
176
     1
 90
        2
176
     1
 62
     7
176
     1
 90
        5
176
     1
 90
        0
176
     1
 90
        0
176
     1
290
     0
176
     1
 90
        1
176
     1
 40
-50.0
176
     1
 90
        0
176
     1
290
     0
176
     1
290
     1
176
     1
290
     1
176
     1
290
     0
176
     1
290
     0
176
     1
290
     0
176
     1
290
     0
176
     1
290
     0
176
     1
290
     0
176
     1
 90
       50
176
     1
 40
0.0
176
     1
 40
1.0
176
     1
 90
        0
176
     1
 62
    18
420
        0
176
     1
 90
       50
176
     1
 90
        3
176
     1
 62
     5
420
      255
176
     1
290
     0
176
     1
 90
       50
176
     1
 90
       50
176
     1
 90
       50
176
     1
290
     0
176
     1
 90
       50
176
     1
 62
   256
176
     0
 40
1.0
176
     0
 90
        2
176
     1
  1
strokes_ogs.tif
176
     1
290
     0
176
     1
 40
1.0
176
     1
 40
1.0
176
     1
  0
VISUALSTYLE
  5
41
102
{ACAD_REACTORS
330
29
102
}
330
29
100
AcDbVisualStyle
  2
EdgeColorOff
 70
    22
177
     3
291
     1
 70
    58
 90
        2
176
     0
 90
        2
176
     0
 90
        0
176
     0
 90
        0
176
     0
 40
0.6
176
     0
 40
30.0
176
     0
 62
     7
420
 16777215
176
     0
 90
        1
176
     0
 90
        4
176
     0
 62
     7
176
     0
 62
   257
176
     0
 90
        1
176
     0
 90
        1
176
     0
 40
1.0
176
     0
 90
        8
176
     2
 62
     7
176
     0
 40
1.0
176
     0
 90
        1
176
     0
 90
        6
176
     0
 90
        2
176
     0
 62
     7
176
     0
 90
        5
176
     0
 90
        0
176
     0
 90
        0
176
     0
290
     0
176
     0
 90
        1
176
     0
 40
0.0
176
     0
 90
        0
176
     0
290
     0
176
     0
290
     1
176
     0
290
     1
176
     0
290
     0
176
     0
290
     0
176
     0
290
     0
176
     0
290
     0
176
     0
290
     0
176
     0
290
     0
176
     0
 90
       50
176
     0
 40
0.0
176
     0
 40
1.0
176
     0
 90
        0
176
     0
 62
    18
420
        0
176
     0
 90
       50
176
     0
 90
        3
176
     0
 62
     5
420
      255
176
     0
290
     0
176
     0
 90
       50
176
     0
 90
       50
176
     0
 90
       50
176
     0
290
     0
176
     0
 90
       50
176
     0
 62
   256
176
     0
 40
1.0
176
     0
 90
        2
176
     0
  1
strokes_ogs.tif
176
     0
290
     0
176
     0
 40
1.0
176
     0
 40
1.0
176
     0
  0
VISUALSTYLE
  5
38
102
{ACAD_REACTORS
330
29
102
}
330
29
100
AcDbVisualStyle
  2
Facepattern
 70
    15
177
     3
291
     1
 70
    58
 90
        2
176
     1
 90
        2
176
     1
 90
        0
176
     1
 90
        0
176
     1
 40
0.6
176
     1
 40
30.0
176
     1
 62
     7
420
 16777215
176
     1
 90
        1
176
     1
 90
        4
176
     1
 62
     7
176
     1
 62
   257
176
     1
 90
        1
176
     1
 90
        1
176
     1
 40
1.0
176
     1
 90
        8
176
     1
 62
     7
176
     1
 40
1.0
176
     1
 90
        1
176
     1
 90
        6
176
     1
 90
        2
176
     1
 62
     7
176
     1
 90
        5
176
     1
 90
        0
176
     1
 90
        0
176
     1
290
     0
176
     1
 90
        1
176
     1
 40
0.0
176
     1
 90
        0
176
     1
290
     0
176
     1
290
     1
176
     1
290
     1
176
     1
290
     0
176
     1
290
     0
176
     1
290
     0
176
     1
290
     0
176
     1
290
     0
176
     1
290
     0
176
     1
 90
       50
176
     1
 40
0.0
176
     1
 40
1.0
176
     1
 90
        0
176
     1
 62
    18
420
        0
176
     1
 90
       50
176
     1
 90
        3
176
     1
 62
     5
420
      255
176
     1
290
     0
176
     1
 90
       50
176
     1
 90
       50
176
     1
 90
       50
176
     1
290
     0
176
     1
 90
       50
176
     1
 62
   256
176
     0
 40
1.0
176
     0
 90
        2
176
     1
  1
strokes_ogs.tif
176
     1
290
     0
176
     1
 40
1.0
176
     1
 40
1.0
176
     1
  0
VISUALSTYLE
  5
2A
102
{ACAD_REACTORS
330
29
102
}
330
29
100
AcDbVisualStyle
  2
Flat
 70
     0
177
     3
291
     1
 70
    58
 90
        2
176
     1
 90
        1
176
     1
 90
        1
176
     1
 90
        2
176
     1
 40
0.6
176
     1
 40
30.0
176
     1
 62
     7
420
 16777215
176
     1
 90
        0
176
     1
 90
        0
176
     1
 62
     7
176
     1
 62
   257
176
     1
 90
        1
176
     1
 90
        1
176
     1
 40
1.0
176
     1
 90
        8
176
     1
 62
     7
176
     1
 40
1.0
176
     1
 90
        1
176
     1
 90
        6
176
     1
 90
        2
176
     1
 62
     7
176
     1
 90
        5
176
     1
 90
        0
176
     1
 90
        0
176
     1
290
     0
176
     1
 90
       13
176
     1
 40
0.0
176
     1
 90
        0
176
     1
290
     0
176
     1
290
     1
176
     1
290
     1
176
     1
290
     0
176
     1
290
     0
176
     1
290
     0
176
     1
290
     0
176
     1
290
     0
176
     1
290
     0
176
     1
 90
       50
176
     1
 40
0.0
176
     1
 40
1.0
176
     1
 90
        0
176
     1
 62
    18
420
        0
176
     1
 90
       50
176
     1
 90
        3
176
     1
 62
     5
420
      255
176
     1
290
     0
176
     1
 90
       50
176
     1
 90
       50
176
     1
 90
       50
176
     1
290
     0
176
     1
 90
       50
176
     1
 62
   256
176
     0
 40
1.0
176
     0
 90
        2
176
     1
  1
strokes_ogs.tif
176
     1
290
     0
176
     1
 40
1.0
176
     1
 40
1.0
176
     1
  0
VISUALSTYLE
  5
2B
102
{ACAD_REACTORS
330
29
102
}
330
29
100
AcDbVisualStyle
  2
FlatWithEdges
 70
     1
177
     3
291
     1
 70
    58
 90
        2
176
     1
 90
        1
176
     1
 90
        1
176
     1
 90
        2
176
     1
 40
0.6
176
     1
 40
30.0
176
     1
 62
     7
420
 16777215
176
     1
 90
        1
176
     1
 90
        0
176
     1
 62
     7
176
     1
 62
   257
176
     1
 90
        1
176
     1
 90
        1
176
     1
 40
1.0
176
     1
 90
        0
176
     1
 62
   257
176
     1
 40
1.0
176
     1
 90
        1
176
     1
 90
        6
176
     1
 90
        2
176
     1
 62
     7
176
     1
 90
        5
176
     1
 90
        0
176
     1
 90
        0
176
     1
290
     0
176
     1
 90
       13
176
     1
 40
0.0
176
     1
 90
        0
176
     1
290
     0
176
     1
290
     1
176
     1
290
     1
176
     1
290
     0
176
     1
290
     0
176
     1
290
     0
176
     1
290
     0
176
     1
290
     0
176
     1
290
     0
176
     1
 90
       50
176
     1
 40
0.0
176
     1
 40
1.0
176
     1
 90
        0
176
     1
 62
    18
420
        0
176
     1
 90
       50
176
     1
 90
        3
176
     1
 62
     5
420
      255
176
     1
290
     0
176
     1
 90
       50
176
     1
 90
       50
176
     1
 90
       50
176
     1
290
     0
176
     1
 90
       50
176
     1
 62
   256
176
     0
 40
1.0
176
     0
 90
        2
176
     1
  1
strokes_ogs.tif
176
     1
290
     0
176
     1
 40
1.0
176
     1
 40
1.0
176
     1
  0
VISUALSTYLE
  5
2C
102
{ACAD_REACTORS
330
29
102
}
330
29
100
AcDbVisualStyle
  2
Gouraud
 70
     2
177
     3
291
     1
 70
    58
 90
        2
176
     1
 90
        2
176
     1
 90
        1
176
     1
 90
        2
176
     1
 40
0.6
176
     1
 40
30.0
176
     1
 62
     7
420
 16777215
176
     1
 90
        0
176
     1
 90
        0
176
     1
 62
     7
176
     1
 62
   257
176
     1
 90
        1
176
     1
 90
        1
176
     1
 40
1.0
176
     1
 90
        0
176
     1
 62
     7
176
     1
 40
1.0
176
     1
 90
        1
176
     1
 90
        6
176
     1
 90
        2
176
     1
 62
     7
176
     1
 90
        5
176
     1
 90
        0
176
     1
 90
        0
176
     1
290
     0
176
     1
 90
       13
176
     1
 40
0.0
176
     1
 90
        0
176
     1
290
     0
176
     1
290
     1
176
     1
290
     1
176
     1
290
     0
176
     1
290
     0
176
     1
290
     0
176
     1
290
     0
176
     1
290
     0
176
     1
290
     0
176
     1
 90
       50
176
     1
 40
0.0
176
     1
 40
1.0
176
     1
 90
        0
176
     1
 62
    18
420
        0
176
     1
 90
       50
176
     1
 90
        3
176
     1
 62
     5
420
      255
176
     1
290
     0
176
     1
 90
       50
176
     1
 90
       50
176
     1
 90
       50
176
     1
290
     0
176
     1
 90
       50
176
     1
 62
   256
176
     0
 40
1.0
176
     0
 90
        2
176
     1
  1
strokes_ogs.tif
176
     1
290
     0
176
     1
 40
1.0
176
     1
 40
1.0
176
     1
  0
VISUALSTYLE
  5
2D
102
{ACAD_REACTORS
330
29
102
}
330
29
100
AcDbVisualStyle
  2
GouraudWithEdges
 70
     3
177
     3
291
     1
 70
    58
 90
        2
176
     1
 90
        2
176
     1
 90
        1
176
     1
 90
        2
176
     1
 40
0.6
176
     1
 40
30.0
176
     1
 62
     7
420
 16777215
176
     1
 90
        1
176
     1
 90
        0
176
     1
 62
     7
176
     1
 62
   257
176
     1
 90
        1
176
     1
 90
        1
176
     1
 40
1.0
176
     1
 90
        0
176
     1
 62
   257
176
     1
 40
1.0
176
     1
 90
        1
176
     1
 90
        6
176
     1
 90
        2
176
     1
 62
     7
176
     1
 90
        5
176
     1
 90
        0
176
     1
 90
        0
176
     1
290
     0
176
     1
 90
       13
176
     1
 40
0.0
176
     1
 90
        0
176
     1
290
     0
176
     1
290
     1
176
     1
290
     1
176
     1
290
     0
176
     1
290
     0
176
     1
290
     0
176
     1
290
     0
176
     1
290
     0
176
     1
290
     0
176
     1
 90
       50
176
     1
 40
0.0
176
     1
 40
1.0
176
     1
 90
        0
176
     1
 62
    18
420
        0
176
     1
 90
       50
176
     1
 90
        3
176
     1
 62
     5
420
      255
176
     1
290
     0
176
     1
 90
       50
176
     1
 90
       50
176
     1
 90
       50
176
     1
290
     0
176
     1
 90
       50
176
     1
 62
   256
176
     0
 40
1.0
176
     0
 90
        2
176
     1
  1
strokes_ogs.tif
176
     1
290
     0
176
     1
 40
1.0
176
     1
 40
1.0
176
     1
  0
VISUALSTYLE
  5
31
102
{ACAD_REACTORS
330
29
102
}
330
29
100
AcDbVisualStyle
  2
Hidden
 70
     6
177
     3
291
     0
 70
    58
 90
        1
176
     1
 90
        2
176
     1
 90
        2
176
     1
 90
        0
176
     1
 40
0.6
176
     1
 40
30.0
176
     1
 62
     7
420
 16777215
176
     1
 90
        2
176
     1
 90
        2
176
     1
 62
     7
176
     1
 62
   257
176
     1
 90
        2
176
     1
 90
        1
176
     1
 40
40.0
176
     1
 90
        0
176
     1
 62
   257
176
     1
 40
1.0
176
     1
 90
        1
176
     1
 90
        6
176
     1
 90
        2
176
     1
 62
     7
176
     1
 90
        3
176
     1
 90
        0
176
     1
 90
        0
176
     1
290
     0
176
     1
 90
        1
176
     1
 40
0.0
176
     1
 90
        0
176
     1
290
     0
176
     1
290
     1
176
     1
290
     1
176
     1
290
     0
176
     1
290
     0
176
     1
290
     0
176
     1
290
     0
176
     1
290
     0
176
     1
290
     0
176
     1
 90
       50
176
     1
 40
0.0
176
     1
 40
1.0
176
     1
 90
        0
176
     1
 62
    18
420
        0
176
     1
 90
       50
176
     1
 90
        3
176
     1
 62
     5
420
      255
176
     1
290
     0
176
     1
 90
       50
176
     1
 90
       50
176
     1
 90
       50
176
     1
290
     0
176
     1
 90
       50
176
     1
 62
   256
176
     0
 40
1.0
176
     0
 90
        2
176
     1
  1
strokes_ogs.tif
176
     1
290
     0
176
     1
 40
1.0
176
     1
 40
1.0
176
     1
  0
VISUALSTYLE
  5
3F
102
{ACAD_REACTORS
330
29
102
}
330
29
100
AcDbVisualStyle
  2
JitterOff
 70
    20
177
     3
291
     1
 70
    58
 90
        2
176
     0
 90
        2
176
     0
 90
        0
176
     0
 90
        0
176
     0
 40
0.6
176
     0
 40
30.0
176
     0
 62
     7
420
 16777215
176
     0
 90
        1
176
     0
 90
        4
176
     0
 62
     7
176
     0
 62
   257
176
     0
 90
        1
176
     0
 90
        1
176
     0
 40
1.0
176
     0
 90
       10
176
     2
 62
     7
176
     0
 40
1.0
176
     0
 90
        1
176
     0
 90
        6
176
     0
 90
        2
176
     0
 62
     7
176
     0
 90
        5
176
     0
 90
        0
176
     0
 90
        0
176
     0
290
     0
176
     0
 90
        1
176
     0
 40
0.0
176
     0
 90
        0
176
     0
290
     0
176
     0
290
     1
176
     0
290
     1
176
     0
290
     0
176
     0
290
     0
176
     0
290
     0
176
     0
290
     0
176
     0
290
     0
176
     0
290
     0
176
     0
 90
       50
176
     0
 40
0.0
176
     0
 40
1.0
176
     0
 90
        0
176
     0
 62
    18
420
        0
176
     0
 90
       50
176
     0
 90
        3
176
     0
 62
     5
420
      255
176
     0
290
     0
176
     0
 90
       50
176
     0
 90
       50
176
     0
 90
       50
176
     0
290
     0
176
     0
 90
       50
176
     0
 62
   256
176
     0
 40
1.0
176
     0
 90
        2
176
     0
  1
strokes_ogs.tif
176
     0
290
     0
176
     0
 40
1.0
176
     0
 40
1.0
176
     0
  0
VISUALSTYLE
  5
37
102
{ACAD_REACTORS
330
29
102
}
330
29
100
AcDbVisualStyle
  2
Linepattern
 70
    14
177
     3
291
     1
 70
    58
 90
        2
176
     1
 90
        2
176
     1
 90
        0
176
     1
 90
        0
176
     1
 40
0.6
176
     1
 40
30.0
176
     1
 62
     7
420
 16777215
176
     1
 90
        1
176
     1
 90
        4
176
     1
 62
     7
176
     1
 62
   257
176
     1
 90
        7
176
     1
 90
        7
176
     1
 40
1.0
176
     1
 90
        8
176
     1
 62
     7
176
     1
 40
1.0
176
     1
 90
        1
176
     1
 90
        6
176
     1
 90
        2
176
     1
 62
     7
176
     1
 90
        5
176
     1
 90
        0
176
     1
 90
        0
176
     1
290
     0
176
     1
 90
        1
176
     1
 40
0.0
176
     1
 90
        0
176
     1
290
     0
176
     1
290
     1
176
     1
290
     1
176
     1
290
     0
176
     1
290
     0
176
     1
290
     0
176
     1
290
     0
176
     1
290
     0
176
     1
290
     0
176
     1
 90
       50
176
     1
 40
0.0
176
     1
 40
1.0
176
     1
 90
        0
176
     1
 62
    18
420
        0
176
     1
 90
       50
176
     1
 90
        3
176
     1
 62
     5
420
      255
176
     1
290
     0
176
     1
 90
       50
176
     1
 90
       50
176
     1
 90
       50
176
     1
290
     0
176
     1
 90
       50
176
     1
 62
   256
176
     0
 40
1.0
176
     0
 90
        2
176
     1
  1
strokes_ogs.tif
176
     1
290
     0
176
     1
 40
1.0
176
     1
 40
1.0
176
     1
  0
VISUALSTYLE
  5
40
102
{ACAD_REACTORS
330
29
102
}
330
29
100
AcDbVisualStyle
  2
OverhangOff
 70
    21
177
     3
291
     1
 70
    58
 90
        2
176
     0
 90
        2
176
     0
 90
        0
176
     0
 90
        0
176
     0
 40
0.6
176
     0
 40
30.0
176
     0
 62
     7
420
 16777215
176
     0
 90
        1
176
     0
 90
        4
176
     0
 62
     7
176
     0
 62
   257
176
     0
 90
        1
176
     0
 90
        1
176
     0
 40
1.0
176
     0
 90
        9
176
     2
 62
     7
176
     0
 40
1.0
176
     0
 90
        1
176
     0
 90
        6
176
     0
 90
        2
176
     0
 62
     7
176
     0
 90
        5
176
     0
 90
        0
176
     0
 90
        0
176
     0
290
     0
176
     0
 90
        1
176
     0
 40
0.0
176
     0
 90
        0
176
     0
290
     0
176
     0
290
     1
176
     0
290
     1
176
     0
290
     0
176
     0
290
     0
176
     0
290
     0
176
     0
290
     0
176
     0
290
     0
176
     0
290
     0
176
     0
 90
       50
176
     0
 40
0.0
176
     0
 40
1.0
176
     0
 90
        0
176
     0
 62
    18
420
        0
176
     0
 90
       50
176
     0
 90
        3
176
     0
 62
     5
420
      255
176
     0
290
     0
176
     0
 90
       50
176
     0
 90
       50
176
     0
 90
       50
176
     0
290
     0
176
     0
 90
       50
176
     0
 62
   256
176
     0
 40
1.0
176
     0
 90
        2
176
     0
  1
strokes_ogs.tif
176
     0
290
     0
176
     0
 40
1.0
176
     0
 40
1.0
176
     0
  0
VISUALSTYLE
  5
33
102
{ACAD_REACTORS
330
29
102
}
330
29
100
AcDbVisualStyle
  2
Realistic
 70
     8
177
     3
291
     0
 70
    58
 90
        2
176
     1
 90
        3
176
     1
 90
        0
176
     1
 90
        2
176
     1
 40
0.6
176
     1
 40
30.0
176
     1
 62
     7
420
 16777215
176
     1
 90
        0
176
     1
 90
        0
176
     1
 62
     7
176
     1
 62
   257
176
     1
 90
        1
176
     1
 90
        1
176
     1
 40
1.0
176
     1
 90
        8
176
     1
 62
   257
176
     1
 40
1.0
176
     1
 90
        1
176
     1
 90
        6
176
     1
 90
        2
176
     1
 62
     7
176
     1
 90
        3
176
     1
 90
        0
176
     1
 90
        0
176
     1
290
     0
176
     1
 90
       13
176
     1
 40
0.0
176
     1
 90
        0
176
     1
290
     0
176
     1
290
     1
176
     1
290
     1
176
     1
290
     0
176
     1
290
     0
176
     1
290
     0
176
     1
290
     0
176
     1
290
     0
176
     1
290
     0
176
     1
 90
       50
176
     1
 40
0.0
176
     1
 40
1.0
176
     1
 90
        0
176
     1
 62
    18
420
        0
176
     1
 90
       50
176
     1
 90
        3
176
     1
 62
     5
420
      255
176
     1
290
     0
176
     1
 90
       50
176
     1
 90
       50
176
     1
 90
       50
176
     1
290
     0
176
     1
 90
       50
176
     1
 62
   256
176
     0
 40
1.0
176
     0
 90
        2
176
     1
  1
strokes_ogs.tif
176
     1
290
     0
176
     1
 40
1.0
176
     1
 40
1.0
176
     1
  0
VISUALSTYLE
  5
3E
102
{ACAD_REACTORS
330
29
102
}
330
29
100
AcDbVisualStyle
  2
Shaded
 70
    27
177
     3
291
     0
 70
    58
 90
        2
176
     1
 90
        2
176
     1
 90
        1
176
     1
 90
        2
176
     1
 40
0.6
176
     1
 40
30.0
176
     1
 62
     7
420
 16777215
176
     1
 90
        0
176
     1
 90
        4
176
     1
 62
     7
176
     1
 62
   257
176
     1
 90
        1
176
     1
 90
        1
176
     1
 40
1.0
176
     1
 90
        8
176
     1
 62
   257
176
     1
 40
1.0
176
     1
 90
        1
176
     1
 90
        6
176
     1
 90
        2
176
     1
 62
     8
420
  7895160
176
     1
 90
        3
176
     1
 90
        0
176
     1
 90
        0
176
     1
290
     0
176
     1
 90
        5
176
     1
 40
0.0
176
     1
 90
        0
176
     1
290
     0
176
     1
290
     1
176
     1
290
     1
176
     1
290
     0
176
     1
290
     0
176
     1
290
     0
176
     1
290
     0
176
     1
290
     0
176
     1
290
     0
176
     1
 90
       50
176
     1
 40
0.0
176
     1
 40
1.0
176
     1
 90
        0
176
     1
 62
    18
420
        0
176
     1
 90
       50
176
     1
 90
        3
176
     1
 62
     5
420
      255
176
     1
290
     0
176
     1
 90
       50
176
     1
 90
       50
176
     1
 90
       50
176
     1
290
     0
176
     1
 90
       50
176
     1
 62
   256
176
     0
 40
1.0
176
     0
 90
        2
176
     1
  1
strokes_ogs.tif
176
     1
290
     0
176
     1
 40
1.0
176
     1
 40
1.0
176
     1
  0
VISUALSTYLE
  5
3D
102
{ACAD_REACTORS
330
29
102
}
330
29
100
AcDbVisualStyle
  2
Shaded with edges
 70
    26
177
     3
291
     0
 70
    58
 90
        2
176
     1
 90
        2
176
     1
 90
        1
176
     1
 90
        2
176
     1
 40
0.6
176
     1
 40
30.0
176
     1
 62
     7
420
 16777215
176
     1
 90
        1
176
     1
 90
       10
176
     1
 62
     7
176
     1
 62
   257
176
     1
 90
        2
176
     1
 90
        1
176
     1
 40
1.0
176
     1
 90
        8
176
     1
 62
   257
176
     1
 40
1.0
176
     1
 90
        1
176
     1
 90
        6
176
     1
 90
        2
176
     1
 62
     7
176
     1
 90
        3
176
     1
 90
        0
176
     1
 90
        0
176
     1
290
     0
176
     1
 90
        5
176
     1
 40
0.0
176
     1
 90
        0
176
     1
290
     0
176
     1
290
     1
176
     1
290
     1
176
     1
290
     0
176
     1
290
     0
176
     1
290
     0
176
     1
290
     0
176
     1
290
     0
176
     1
290
     0
176
     1
 90
       50
176
     1
 40
0.0
176
     1
 40
1.0
176
     1
 90
        0
176
     1
 62
    18
420
        0
176
     1
 90
       50
176
     1
 90
        3
176
     1
 62
     5
420
      255
176
     1
290
     0
176
     1
 90
       50
176
     1
 90
       50
176
     1
 90
       50
176
     1
290
     0
176
     1
 90
       50
176
     1
 62
   256
176
     0
 40
1.0
176
     0
 90
        2
176
     1
  1
strokes_ogs.tif
176
     1
290
     0
176
     1
 40
1.0
176
     1
 40
1.0
176
     1
  0
VISUALSTYLE
  5
3A
102
{ACAD_REACTORS
330
29
102
}
330
29
100
AcDbVisualStyle
  2
Shades of Gray
 70
    23
177
     3
291
     0
 70
    58
 90
        2
176
     1
 90
        2
176
     1
 90
        3
176
     1
 90
        0
176
     1
 40
0.6
176
     1
 40
30.0
176
     1
 62
     7
420
 16777215
176
     1
 90
        2
176
     1
 90
        2
176
     1
 62
     7
176
     1
 62
     7
176
     1
 90
        1
176
     1
 90
        1
176
     1
 40
40.0
176
     1
 90
        8
176
     1
 62
     7
176
     1
 40
1.0
176
     1
 90
        1
176
     1
 90
        6
176
     1
 90
        2
176
     1
 62
     7
176
     1
 90
        3
176
     1
 90
        0
176
     1
 90
        0
176
     1
290
     0
176
     1
 90
        1
176
     1
 40
0.0
176
     1
 90
        0
176
     1
290
     0
176
     1
290
     1
176
     1
290
     1
176
     1
290
     0
176
     1
290
     0
176
     1
290
     0
176
     1
290
     0
176
     1
290
     0
176
     1
290
     0
176
     1
 90
       50
176
     1
 40
0.0
176
     1
 40
1.0
176
     1
 90
        0
176
     1
 62
    18
420
        0
176
     1
 90
       50
176
     1
 90
        3
176
     1
 62
     5
420
      255
176
     1
290
     0
176
     1
 90
       50
176
     1
 90
       50
176
     1
 90
       50
176
     1
290
     0
176
     1
 90
       50
176
     1
 62
   256
176
     0
 40
1.0
176
     0
 90
        2
176
     1
  1
strokes_ogs.tif
176
     1
290
     0
176
     1
 40
1.0
176
     1
 40
1.0
176
     1
  0
VISUALSTYLE
  5
3B
102
{ACAD_REACTORS
330
29
102
}
330
29
100
AcDbVisualStyle
  2
Sketchy
 70
    24
177
     3
291
     0
 70
    58
 90
        1
176
     1
 90
        2
176
     1
 90
        2
176
     1
 90
        0
176
     1
 40
0.6
176
     1
 40
30.0
176
     1
 62
     7
420
 16777215
176
     1
 90
        2
176
     1
 90
        2
176
     1
 62
     7
176
     1
 62
     7
176
     1
 90
        1
176
     1
 90
        1
176
     1
 40
40.0
176
     1
 90
       11
176
     1
 62
     7
176
     1
 40
1.0
176
     1
 90
        1
176
     1
 90
        6
176
     1
 90
        2
176
     1
 62
     7
176
     1
 90
        6
176
     1
 90
        0
176
     1
 90
        0
176
     1
290
     0
176
     1
 90
        1
176
     1
 40
0.0
176
     1
 90
        0
176
     1
290
     0
176
     1
290
     1
176
     1
290
     1
176
     1
290
     0
176
     1
290
     0
176
     1
290
     0
176
     1
290
     0
176
     1
290
     0
176
     1
290
     0
176
     1
 90
       50
176
     1
 40
0.0
176
     1
 40
1.0
176
     1
 90
        0
176
     1
 62
    18
420
        0
176
     1
 90
       50
176
     1
 90
        3
176
     1
 62
     5
420
      255
176
     1
290
     0
176
     1
 90
       50
176
     1
 90
       50
176
     1
 90
       50
176
     1
290
     0
176
     1
 90
       50
176
     1
 62
   256
176
     0
 40
1.0
176
     0
 90
        2
176
     1
  1
strokes_ogs.tif
176
     1
290
     0
176
     1
 40
1.0
176
     1
 40
1.0
176
     1
  0
VISUALSTYLE
  5
36
102
{ACAD_REACTORS
330
29
102
}
330
29
100
AcDbVisualStyle
  2
Thicken
 70
    13
177
     3
291
     1
 70
    58
 90
        2
176
     1
 90
        2
176
     1
 90
        0
176
     1
 90
        0
176
     1
 40
0.6
176
     1
 40
30.0
176
     1
 62
     7
420
 16777215
176
     1
 90
        1
176
     1
 90
        4
176
     1
 62
     7
176
     1
 62
   257
176
     1
 90
        1
176
     1
 90
        1
176
     1
 40
1.0
176
     1
 90
       12
176
     1
 62
     7
176
     1
 40
1.0
176
     1
 90
        1
176
     1
 90
        6
176
     1
 90
        2
176
     1
 62
     7
176
     1
 90
        5
176
     1
 90
        0
176
     1
 90
        0
176
     1
290
     0
176
     1
 90
        1
176
     1
 40
0.0
176
     1
 90
        0
176
     1
290
     0
176
     1
290
     1
176
     1
290
     1
176
     1
290
     0
176
     1
290
     0
176
     1
290
     0
176
     1
290
     0
176
     1
290
     0
176
     1
290
     0
176
     1
 90
       50
176
     1
 40
0.0
176
     1
 40
1.0
176
     1
 90
        0
176
     1
 62
    18
420
        0
176
     1
 90
       50
176
     1
 90
        3
176
     1
 62
     5
420
      255
176
     1
290
     0
176
     1
 90
       50
176
     1
 90
       50
176
     1
 90
       50
176
     1
290
     0
176
     1
 90
       50
176
     1
 62
   256
176
     0
 40
1.0
176
     0
 90
        2
176
     1
  1
strokes_ogs.tif
176
     1
290
     0
176
     1
 40
1.0
176
     1
 40
1.0
176
     1
  0
VISUALSTYLE
  5
30
102
{ACAD_REACTORS
330
29
102
}
330
29
100
AcDbVisualStyle
  2
Wireframe
 70
     5
177
     3
291
     0
 70
    58
 90
        0
176
     1
 90
        2
176
     1
 90
        0
176
     1
 90
        0
176
     1
 40
0.6
176
     1
 40
30.0
176
     1
 62
     7
420
 16777215
176
     1
 90
        1
176
     1
 90
        4
176
     1
 62
     7
176
     1
 62
   257
176
     1
 90
        1
176
     1
 90
        1
176
     1
 40
1.0
176
     1
 90
        0
176
     1
 62
   257
176
     1
 40
1.0
176
     1
 90
        1
176
     1
 90
        6
176
     1
 90
        2
176
     1
 62
     7
176
     1
 90
        3
176
     1
 90
        0
176
     1
 90
        0
176
     1
290
     0
176
     1
 90
        1
176
     1
 40
0.0
176
     1
 90
        0
176
     1
290
     0
176
     1
290
     1
176
     1
290
     1
176
     1
290
     0
176
     1
290
     0
176
     1
290
     0
176
     1
290
     0
176
     1
290
     0
176
     1
290
     0
176
     1
 90
       50
176
     1
 40
0.0
176
     1
 40
1.0
176
     1
 90
        0
176
     1
 62
    18
420
        0
176
     1
 90
       50
176
     1
 90
        3
176
     1
 62
     5
420
      255
176
     1
290
     0
176
     1
 90
       50
176
     1
 90
       50
176
     1
 90
       50
176
     1
290
     0
176
     1
 90
       50
176
     1
 62
   256
176
     0
 40
1.0
176
     0
 90
        2
176
     1
  1
strokes_ogs.tif
176
     1
290
     0
176
     1
 40
1.0
176
     1
 40
1.0
176
     1
  0
VISUALSTYLE
  5
3C
102
{ACAD_REACTORS
330
29
102
}
330
29
100
AcDbVisualStyle
  2
X-Ray
 70
    25
177
     3
291
     0
 70
    58
 90
        2
176
     1
 90
        2
176
     1
 90
        1
176
     1
 90
        1
176
     1
 40
0.5
176
     1
 40
30.0
176
     1
 62
     7
420
 16777215
176
     1
 90
        1
176
     1
 90
        0
176
     1
 62
     7
176
     1
 62
   257
176
     1
 90
        1
176
     1
 90
        1
176
     1
 40
1.0
176
     1
 90
        8
176
     1
 62
     7
176
     1
 40
1.0
176
     1
 90
        1
176
     1
 90
        6
176
     1
 90
        2
176
     1
 62
     7
176
     1
 90
        3
176
     1
 90
        0
176
     1
 90
        0
176
     1
290
     0
176
     1
 90
       13
176
     1
 40
0.0
176
     1
 90
        0
176
     1
290
     0
176
     1
290
     1
176
     1
290
     1
176
     1
290
     0
176
     1
290
     0
176
     1
290
     0
176
     1
290
     0
176
     1
290
     0
176
     1
290
     0
176
     1
 90
       50
176
     1
 40
0.0
176
     1
 40
1.0
176
     1
 90
        0
176
     1
 62
    18
420
        0
176
     1
 90
       50
176
     1
 90
        3
176
     1
 62
     5
420
      255
176
     1
290
     0
176
     1
 90
       50
176
     1
 90
       50
176
     1
 90
       50
176
     1
290
     0
176
     1
 90
       50
176
     1
 62
   256
176
     0
 40
1.0
176
     0
 90
        2
176
     1
  1
strokes_ogs.tif
176
     1
290
     0
176
     1
 40
1.0
176
     1
 40
1.0
176
     1
  0
DICTIONARYVAR
  5
81
102
{ACAD_REACTORS
330
7C
102
}
330
7C
100
DictionaryVariables
280
     0
  1
1:1
  0
DICTIONARYVAR
  5
7E
102
{ACAD_REACTORS
330
7C
102
}
330
7C
100
DictionaryVariables
280
     0
  1
STANDARD
  0
DICTIONARYVAR
  5
7D
102
{ACAD_REACTORS
330
7C
102
}
330
7C
100
DictionaryVariables
280
     0
  1
STANDARD
  0
DICTIONARYVAR
  5
7F
102
{ACAD_REACTORS
330
7C
102
}
330
7C
100
DictionaryVariables
280
     0
  1
Imperial24
  0
DICTIONARYVAR
  5
80
102
{ACAD_REACTORS
330
7C
102
}
330
7C
100
DictionaryVariables
280
     0
  1
Imperial24
  0
XRECORD
  5
2D0
102
{ACAD_REACTORS
330
2CC
102
}
330
2CC
100
AcDbXrecord
280
     1
  1
BUILDING_ID
  1
Progetto per messa in tavola DXF, DWG
  1
FLOOR_ID
  1
694395
  0
XRECORD
  5
2CE
102
{ACAD_REACTORS
330
2CC
102
}
330
2CC
100
AcDbXrecord
280
     1
  1
-2001160
  1
Apparecchi idraulici
  0
XRECORD
  5
2CF
102
{ACAD_REACTORS
330
2CC
102
}
330
2CC
100
AcDbXrecord
280
     1
  1
923097
  1
Handle
  1
923236
  1
Pressure gauge
  0
XRECORD
  5
2CD
102
{ACAD_REACTORS
330
2CC
102
}
330
2CC
100
AcDbXrecord
280
     1
  1
970634
  1
Automatic flow rate regulator valve_Caleffi_121 DN15 : 1 1/4''_Pressure gauge H
  0
DICTIONARY
  5
1A
330
19
100
AcDbDictionary
280
     1
281
     1
  3
BUMPTILE
360
1C
  3
DIFFUSETILE
360
1B
  3
OPACITYTILE
360
1F
  3
REFLECTIONTILE
360
1E
  3
REFRACTIONTILE
360
20
  3
SPECULARTILE
360
1D
  0
DICTIONARY
  5
12
330
11
100
AcDbDictionary
280
     1
281
     1
  3
BUMPTILE
360
14
  3
DIFFUSETILE
360
13
  3
OPACITYTILE
360
17
  3
REFLECTIONTILE
360
16
  3
REFRACTIONTILE
360
18
  3
SPECULARTILE
360
15
  0
DICTIONARY
  5
22
330
21
100
AcDbDictionary
280
     1
281
     1
  3
BUMPTILE
360
24
  3
DIFFUSETILE
360
23
  3
OPACITYTILE
360
27
  3
REFLECTIONTILE
360
26
  3
REFRACTIONTILE
360
28
  3
SPECULARTILE
360
25
  0
DICTIONARY
  5
2D3
330
65
100
AcDbDictionary
280
     1
281
     1
  3
ACAD_ROUNDTRIP_2008_TABLESTYLE_CELLSTYLEMAP
360
2D4
  0
XRECORD
  5
1C
102
{ACAD_REACTORS
330
1A
102
}
330
1A
100
AcDbXrecord
280
     1
270
     1
271
     1
  0
XRECORD
  5
1B
102
{ACAD_REACTORS
330
1A
102
}
330
1A
100
AcDbXrecord
280
     1
270
     1
271
     1
  0
XRECORD
  5
1F
102
{ACAD_REACTORS
330
1A
102
}
330
1A
100
AcDbXrecord
280
     1
270
     1
271
     1
  0
XRECORD
  5
1E
102
{ACAD_REACTORS
330
1A
102
}
330
1A
100
AcDbXrecord
280
     1
270
     1
271
     1
  0
XRECORD
  5
20
102
{ACAD_REACTORS
330
1A
102
}
330
1A
100
AcDbXrecord
280
     1
270
     1
271
     1
  0
XRECORD
  5
1D
102
{ACAD_REACTORS
330
1A
102
}
330
1A
100
AcDbXrecord
280
     1
270
     1
271
     1
  0
XRECORD
  5
14
102
{ACAD_REACTORS
330
12
102
}
330
12
100
AcDbXrecord
280
     1
270
     1
271
     1
  0
XRECORD
  5
13
102
{ACAD_REACTORS
330
12
102
}
330
12
100
AcDbXrecord
280
     1
270
     1
271
     1
  0
XRECORD
  5
17
102
{ACAD_REACTORS
330
12
102
}
330
12
100
AcDbXrecord
280
     1
270
     1
271
     1
  0
XRECORD
  5
16
102
{ACAD_REACTORS
330
12
102
}
330
12
100
AcDbXrecord
280
     1
270
     1
271
     1
  0
XRECORD
  5
18
102
{ACAD_REACTORS
330
12
102
}
330
12
100
AcDbXrecord
280
     1
270
     1
271
     1
  0
XRECORD
  5
15
102
{ACAD_REACTORS
330
12
102
}
330
12
100
AcDbXrecord
280
     1
270
     1
271
     1
  0
XRECORD
  5
24
102
{ACAD_REACTORS
330
22
102
}
330
22
100
AcDbXrecord
280
     1
270
     1
271
     1
  0
XRECORD
  5
23
102
{ACAD_REACTORS
330
22
102
}
330
22
100
AcDbXrecord
280
     1
270
     1
271
     1
  0
XRECORD
  5
27
102
{ACAD_REACTORS
330
22
102
}
330
22
100
AcDbXrecord
280
     1
270
     1
271
     1
  0
XRECORD
  5
26
102
{ACAD_REACTORS
330
22
102
}
330
22
100
AcDbXrecord
280
     1
270
     1
271
     1
  0
XRECORD
  5
28
102
{ACAD_REACTORS
330
22
102
}
330
22
100
AcDbXrecord
280
     1
270
     1
271
     1
  0
XRECORD
  5
25
102
{ACAD_REACTORS
330
22
102
}
330
22
100
AcDbXrecord
280
     1
270
     1
271
     1
  0
CELLSTYLEMAP
  5
2D4
102
{ACAD_REACTORS
330
2D3
102
}
330
2D3
100
AcDbCellStyleMap
 90
        3
300
CELLSTYLE
  1
TABLEFORMAT_BEGIN
 90
        5
170
     1
 91
        0
 92
    32768
 62
   257
 93
        1
300
CONTENTFORMAT
  1
CONTENTFORMAT_BEGIN
 90
        0
 91
        0
 92
      512
 93
        0
300

 40
0.0
140
1.0
 94
        5
 62
     0
340
55
144
0.25
309
CONTENTFORMAT_END
171
     0
 94
        0
309
TABLEFORMAT_END
  1
CELLSTYLE_BEGIN
 90
        1
 91
        1
300
_TITLE
309
CELLSTYLE_END
300
CELLSTYLE
  1
TABLEFORMAT_BEGIN
 90
        5
170
     1
 91
        0
 92
        0
 62
   257
 93
        1
300
CONTENTFORMAT
  1
CONTENTFORMAT_BEGIN
 90
        0
 91
        0
 92
      512
 93
        0
300

 40
0.0
140
1.0
 94
        5
 62
     0
340
55
144
0.18
309
CONTENTFORMAT_END
171
     0
 94
        0
309
TABLEFORMAT_END
  1
CELLSTYLE_BEGIN
 90
        2
 91
        1
300
_HEADER
309
CELLSTYLE_END
300
CELLSTYLE
  1
TABLEFORMAT_BEGIN
 90
        5
170
     1
 91
        0
 92
        0
 62
   257
 93
        1
300
CONTENTFORMAT
  1
CONTENTFORMAT_BEGIN
 90
        0
 91
        0
 92
      512
 93
        0
300

 40
0.0
140
1.0
 94
        2
 62
     0
340
55
144
0.18
309
CONTENTFORMAT_END
171
     0
 94
        0
309
TABLEFORMAT_END
  1
CELLSTYLE_BEGIN
 90
        3
 91
        2
300
_DATA
309
CELLSTYLE_END
  0
ENDSEC
  0
EOF
