  0
SECTION
  2
HEADER
  9
$ACADVER
  1
AC1027
  9
$ACADMAINTVER
 70
    20
  9
$DWGCODEPAGE
  3
ANSI_1252
  9
$REQUIREDVERSIONS
160
                 0
  9
$INSBASE
 10
0.0
 20
0.0
 30
0.0
  9
$EXTMIN
 10
629.2787092592649
 20
1655.655266564655
 30
-0.00000001
  9
$EXTMAX
 10
1214.114353953077
 20
2177.374720262106
 30
0.00000001
  9
$LIMMIN
 10
0.0
 20
0.0
  9
$LIMMAX
 10
12.0
 20
9.0
  9
$ORTHOMODE
 70
     0
  9
$REGENMODE
 70
     1
  9
$FILLMODE
 70
     1
  9
$QTEXTMODE
 70
     0
  9
$MIRRTEXT
 70
     0
  9
$LTSCALE
 40
1.0
  9
$ATTMODE
 70
     1
  9
$TEXTSIZE
 40
0.2
  9
$TRACEWID
 40
0.05
  9
$TEXTSTYLE
  7
Standard
  9
$CLAYER
  8
0
  9
$CELTYPE
  6
ByLayer
  9
$CECOLOR
 62
   256
  9
$CELTSCALE
 40
1.0
  9
$DISPSILH
 70
     0
  9
$DIMSCALE
 40
1.0
  9
$DIMASZ
 40
0.18
  9
$DIMEXO
 40
0.0625
  9
$DIMDLI
 40
0.38
  9
$DIMRND
 40
0.0
  9
$DIMDLE
 40
0.0
  9
$DIMEXE
 40
0.18
  9
$DIMTP
 40
0.0
  9
$DIMTM
 40
0.0
  9
$DIMTXT
 40
0.18
  9
$DIMCEN
 40
0.09
  9
$DIMTSZ
 40
0.0
  9
$DIMTOL
 70
     0
  9
$DIMLIM
 70
     0
  9
$DIMTIH
 70
     1
  9
$DIMTOH
 70
     1
  9
$DIMSE1
 70
     0
  9
$DIMSE2
 70
     0
  9
$DIMTAD
 70
     0
  9
$DIMZIN
 70
     0
  9
$DIMBLK
  1

  9
$DIMASO
 70
     1
  9
$DIMSHO
 70
     1
  9
$DIMPOST
  1

  9
$DIMAPOST
  1

  9
$DIMALT
 70
     0
  9
$DIMALTD
 70
     2
  9
$DIMALTF
 40
25.4
  9
$DIMLFAC
 40
1.0
  9
$DIMTOFL
 70
     0
  9
$DIMTVP
 40
0.0
  9
$DIMTIX
 70
     0
  9
$DIMSOXD
 70
     0
  9
$DIMSAH
 70
     0
  9
$DIMBLK1
  1

  9
$DIMBLK2
  1

  9
$DIMSTYLE
  2
Standard
  9
$DIMCLRD
 70
     0
  9
$DIMCLRE
 70
     0
  9
$DIMCLRT
 70
     0
  9
$DIMTFAC
 40
1.0
  9
$DIMGAP
 40
0.09
  9
$DIMJUST
 70
     0
  9
$DIMSD1
 70
     0
  9
$DIMSD2
 70
     0
  9
$DIMTOLJ
 70
     1
  9
$DIMTZIN
 70
     0
  9
$DIMALTZ
 70
     0
  9
$DIMALTTZ
 70
     0
  9
$DIMUPT
 70
     0
  9
$DIMDEC
 70
     4
  9
$DIMTDEC
 70
     4
  9
$DIMALTU
 70
     2
  9
$DIMALTTD
 70
     2
  9
$DIMTXSTY
  7
Standard
  9
$DIMAUNIT
 70
     0
  9
$DIMADEC
 70
     0
  9
$DIMALTRND
 40
0.0
  9
$DIMAZIN
 70
     0
  9
$DIMDSEP
 70
    46
  9
$DIMATFIT
 70
     3
  9
$DIMFRAC
 70
     0
  9
$DIMLDRBLK
  1

  9
$DIMLUNIT
 70
     2
  9
$DIMLWD
 70
    -2
  9
$DIMLWE
 70
    -2
  9
$DIMTMOVE
 70
     0
  9
$DIMFXL
 40
1.0
  9
$DIMFXLON
 70
     0
  9
$DIMJOGANG
 40
0.7853981633974483
  9
$DIMTFILL
 70
     0
  9
$DIMTFILLCLR
 70
     0
  9
$DIMARCSYM
 70
     0
  9
$DIMLTYPE
  6

  9
$DIMLTEX1
  6

  9
$DIMLTEX2
  6

  9
$DIMTXTDIRECTION
 70
     0
  9
$LUNITS
 70
     2
  9
$LUPREC
 70
     4
  9
$SKETCHINC
 40
0.1
  9
$FILLETRAD
 40
0.0
  9
$AUNITS
 70
     0
  9
$AUPREC
 70
     0
  9
$MENU
  1
.
  9
$ELEVATION
 40
0.0
  9
$PELEVATION
 40
0.0
  9
$THICKNESS
 40
0.0
  9
$LIMCHECK
 70
     0
  9
$CHAMFERA
 40
0.0
  9
$CHAMFERB
 40
0.0
  9
$CHAMFERC
 40
0.0
  9
$CHAMFERD
 40
0.0
  9
$SKPOLY
 70
     0
  9
$TDCREATE
 40
2457571.483147847
  9
$TDUCREATE
 40
2457571.399814514
  9
$TDUPDATE
 40
2457571.483147847
  9
$TDUUPDATE
 40
2457571.399814514
  9
$TDINDWG
 40
0.0000395255
  9
$TDUSRTIMER
 40
0.0000395255
  9
$USRTIMER
 70
     1
  9
$ANGBASE
 50
0.0
  9
$ANGDIR
 70
     0
  9
$PDMODE
 70
     0
  9
$PDSIZE
 40
0.0
  9
$PLINEWID
 40
0.0
  9
$SPLFRAME
 70
     0
  9
$SPLINETYPE
 70
     6
  9
$SPLINESEGS
 70
     8
  9
$HANDSEED
  5
2E0
  9
$SURFTAB1
 70
     6
  9
$SURFTAB2
 70
     6
  9
$SURFTYPE
 70
     6
  9
$SURFU
 70
     6
  9
$SURFV
 70
     6
  9
$UCSBASE
  2

  9
$UCSNAME
  2

  9
$UCSORG
 10
0.0
 20
0.0
 30
0.0
  9
$UCSXDIR
 10
1.0
 20
0.0
 30
0.0
  9
$UCSYDIR
 10
0.0
 20
1.0
 30
0.0
  9
$UCSORTHOREF
  2

  9
$UCSORTHOVIEW
 70
     0
  9
$UCSORGTOP
 10
0.0
 20
0.0
 30
0.0
  9
$UCSORGBOTTOM
 10
0.0
 20
0.0
 30
0.0
  9
$UCSORGLEFT
 10
0.0
 20
0.0
 30
0.0
  9
$UCSORGRIGHT
 10
0.0
 20
0.0
 30
0.0
  9
$UCSORGFRONT
 10
0.0
 20
0.0
 30
0.0
  9
$UCSORGBACK
 10
0.0
 20
0.0
 30
0.0
  9
$PUCSBASE
  2

  9
$PUCSNAME
  2

  9
$PUCSORG
 10
0.0
 20
0.0
 30
0.0
  9
$PUCSXDIR
 10
1.0
 20
0.0
 30
0.0
  9
$PUCSYDIR
 10
0.0
 20
1.0
 30
0.0
  9
$PUCSORTHOREF
  2

  9
$PUCSORTHOVIEW
 70
     0
  9
$PUCSORGTOP
 10
0.0
 20
0.0
 30
0.0
  9
$PUCSORGBOTTOM
 10
0.0
 20
0.0
 30
0.0
  9
$PUCSORGLEFT
 10
0.0
 20
0.0
 30
0.0
  9
$PUCSORGRIGHT
 10
0.0
 20
0.0
 30
0.0
  9
$PUCSORGFRONT
 10
0.0
 20
0.0
 30
0.0
  9
$PUCSORGBACK
 10
0.0
 20
0.0
 30
0.0
  9
$USERI1
 70
     0
  9
$USERI2
 70
     0
  9
$USERI3
 70
     0
  9
$USERI4
 70
     0
  9
$USERI5
 70
     0
  9
$USERR1
 40
0.0
  9
$USERR2
 40
0.0
  9
$USERR3
 40
0.0
  9
$USERR4
 40
0.0
  9
$USERR5
 40
0.0
  9
$WORLDVIEW
 70
     1
  9
$SHADEDGE
 70
     3
  9
$SHADEDIF
 70
    70
  9
$TILEMODE
 70
     1
  9
$MAXACTVP
 70
    64
  9
$PINSBASE
 10
0.0
 20
0.0
 30
0.0
  9
$PLIMCHECK
 70
     0
  9
$PEXTMIN
 10
1.000000000000000E+20
 20
1.000000000000000E+20
 30
1.000000000000000E+20
  9
$PEXTMAX
 10
-1.000000000000000E+20
 20
-1.000000000000000E+20
 30
-1.000000000000000E+20
  9
$PLIMMIN
 10
0.0
 20
0.0
  9
$PLIMMAX
 10
12.0
 20
9.0
  9
$UNITMODE
 70
     0
  9
$VISRETAIN
 70
     1
  9
$PLINEGEN
 70
     0
  9
$PSLTSCALE
 70
     1
  9
$TREEDEPTH
 70
  3020
  9
$CMLSTYLE
  2
Standard
  9
$CMLJUST
 70
     0
  9
$CMLSCALE
 40
1.0
  9
$PROXYGRAPHICS
 70
     1
  9
$MEASUREMENT
 70
     1
  9
$CELWEIGHT
370
    -1
  9
$ENDCAPS
280
     0
  9
$JOINSTYLE
280
     0
  9
$LWDISPLAY
290
     0
  9
$INSUNITS
 70
     4
  9
$HYPERLINKBASE
  1

  9
$STYLESHEET
  1

  9
$XEDIT
290
     1
  9
$CEPSNTYPE
380
     0
  9
$PSTYLEMODE
290
     1
  9
$FINGERPRINTGUID
  2
{1C3E7E8C-7678-4CF7-AEC7-5668080DCA08}
  9
$VERSIONGUID
  2
{299C41D3-6454-4B0F-B71A-D639DC3FE398}
  9
$EXTNAMES
290
     1
  9
$PSVPSCALE
 40
0.0
  9
$OLESTARTUP
290
     0
  9
$SORTENTS
280
   127
  9
$INDEXCTL
280
     0
  9
$HIDETEXT
280
     1
  9
$XCLIPFRAME
280
     2
  9
$HALOGAP
280
     0
  9
$OBSCOLOR
 70
   257
  9
$OBSLTYPE
280
     0
  9
$INTERSECTIONDISPLAY
280
     0
  9
$INTERSECTIONCOLOR
 70
   257
  9
$DIMASSOC
280
     2
  9
$PROJECTNAME
  1

  9
$CAMERADISPLAY
290
     0
  9
$LENSLENGTH
 40
50.0
  9
$CAMERAHEIGHT
 40
0.0
  9
$STEPSPERSEC
 40
2.0
  9
$STEPSIZE
 40
6.0
  9
$3DDWFPREC
 40
2.0
  9
$PSOLWIDTH
 40
0.25
  9
$PSOLHEIGHT
 40
4.0
  9
$LOFTANG1
 40
1.570796326794896
  9
$LOFTANG2
 40
1.570796326794896
  9
$LOFTMAG1
 40
0.0
  9
$LOFTMAG2
 40
0.0
  9
$LOFTPARAM
 70
     7
  9
$LOFTNORMALS
280
     1
  9
$LATITUDE
 40
37.795
  9
$LONGITUDE
 40
-122.394
  9
$NORTHDIRECTION
 40
0.0
  9
$TIMEZONE
 70
 -8000
  9
$LIGHTGLYPHDISPLAY
280
     1
  9
$TILEMODELIGHTSYNCH
280
     1
  9
$CMATERIAL
347
11
  9
$SOLIDHIST
280
     0
  9
$SHOWHIST
280
     1
  9
$DWFFRAME
280
     2
  9
$DGNFRAME
280
     0
  9
$REALWORLDSCALE
290
     1
  9
$INTERFERECOLOR
 62
     1
  9
$INTERFEREOBJVS
345
33
  9
$INTERFEREVPVS
346
30
  9
$CSHADOW
280
     0
  9
$SHADOWPLANELOCATION
 40
0.0
  0
ENDSEC
  0
SECTION
  2
CLASSES
  0
CLASS
  1
ACDBDICTIONARYWDFLT
  2
AcDbDictionaryWithDefault
  3
ObjectDBX Classes
 90
        0
 91
        1
280
     0
281
     0
  0
CLASS
  1
MATERIAL
  2
AcDbMaterial
  3
ObjectDBX Classes
 90
     1153
 91
        3
280
     0
281
     0
  0
CLASS
  1
VISUALSTYLE
  2
AcDbVisualStyle
  3
ObjectDBX Classes
 90
     4095
 91
       24
280
     0
281
     0
  0
CLASS
  1
SCALE
  2
AcDbScale
  3
ObjectDBX Classes
 90
     1153
 91
       17
280
     0
281
     0
  0
CLASS
  1
TABLESTYLE
  2
AcDbTableStyle
  3
ObjectDBX Classes
 90
     4095
 91
        1
280
     0
281
     0
  0
CLASS
  1
MLEADERSTYLE
  2
AcDbMLeaderStyle
  3
ACDB_MLEADERSTYLE_CLASS
 90
     4095
 91
        1
280
     0
281
     0
  0
CLASS
  1
ACDBSECTIONVIEWSTYLE
  2
AcDbSectionViewStyle
  3
ObjectDBX Classes
 90
     1025
 91
        1
280
     0
281
     0
  0
CLASS
  1
ACDBDETAILVIEWSTYLE
  2
AcDbDetailViewStyle
  3
ObjectDBX Classes
 90
     1025
 91
        1
280
     0
281
     0
  0
CLASS
  1
RASTERVARIABLES
  2
AcDbRasterVariables
  3
ISM
 90
        0
 91
        1
280
     0
281
     0
  0
CLASS
  1
DICTIONARYVAR
  2
AcDbDictionaryVar
  3
ObjectDBX Classes
 90
        0
 91
        5
280
     0
281
     0
  0
CLASS
  1
CELLSTYLEMAP
  2
AcDbCellStyleMap
  3
ObjectDBX Classes
 90
     1152
 91
        2
280
     0
281
     0
  0
CLASS
  1
SORTENTSTABLE
  2
AcDbSortentsTable
  3
ObjectDBX Classes
 90
        0
 91
        1
280
     0
281
     0
  0
ENDSEC
  0
SECTION
  2
TABLES
  0
TABLE
  2
VPORT
  5
8
330
0
100
AcDbSymbolTable
 70
     1
  0
VPORT
  5
57
330
8
100
AcDbSymbolTableRecord
100
AcDbViewportTableRecord
  2
*Active
 70
     0
 10
0.0
 20
0.0
 11
1.0
 21
1.0
 12
921.6965316061711
 22
1916.51499341338
 13
0.0
 23
0.0
 14
1.0
 24
1.0
 15
0.0
 25
0.0
 16
0.0
 26
0.0
 36
1.0
 17
0.0
 27
0.0
 37
0.0
 40
521.7194536974513
 41
1.120977261915486
 42
50.0
 43
0.0
 44
0.0
 50
0.0
 51
0.0
 71
     0
 72
  1000
 73
     1
 74
     1
 75
     0
 76
     0
 77
     0
 78
     0
281
     0
 65
     1
110
0.0
120
0.0
130
0.0
111
1.0
121
0.0
131
0.0
112
0.0
122
1.0
132
0.0
 79
     0
146
0.0
 60
     3
 61
     5
292
     1
282
     1
141
0.0
142
0.0
 63
   250
421
  3355443
  0
ENDTAB
  0
TABLE
  2
LTYPE
  5
5
330
0
100
AcDbSymbolTable
 70
     3
  0
LTYPE
  5
5B
330
5
100
AcDbSymbolTableRecord
100
AcDbLinetypeTableRecord
  2
ByBlock
 70
     0
  3

 72
    65
 73
     0
 40
0.0
  0
LTYPE
  5
5C
330
5
100
AcDbSymbolTableRecord
100
AcDbLinetypeTableRecord
  2
ByLayer
 70
     0
  3

 72
    65
 73
     0
 40
0.0
  0
LTYPE
  5
5D
330
5
100
AcDbSymbolTableRecord
100
AcDbLinetypeTableRecord
  2
Continuous
 70
     0
  3
Solid line
 72
    65
 73
     0
 40
0.0
  0
LTYPE
  5
69
330
5
100
AcDbSymbolTableRecord
100
AcDbLinetypeTableRecord
  2
PHANTOM2
 70
     0
  3
___ _ _ ___ _ _ ___ _ _ ___ _ _
 72
    65
 73
     6
 40
1.25
 49
0.625
 74
     0
 49
-0.125
 74
     0
 49
0.125
 74
     0
 49
-0.125
 74
     0
 49
0.125
 74
     0
 49
-0.125
 74
     0
  0
LTYPE
  5
86
330
5
100
AcDbSymbolTableRecord
100
AcDbLinetypeTableRecord
  2
Nascosto 1_5 mm
 70
     0
  3

 72
    65
 73
     2
 40
2.2
 49
1.5
 74
     0
 49
-0.7000000000000001
 74
     0
  0
ENDTAB
  0
TABLE
  2
LAYER
  5
2
330
0
100
AcDbSymbolTable
 70
     4
  0
LAYER
  5
54
330
2
100
AcDbSymbolTableRecord
100
AcDbLayerTableRecord
  2
0
 70
     0
 62
     7
  6
Continuous
370
    -3
390
F
347
21
348
0
  0
LAYER
  5
85
330
2
100
AcDbSymbolTableRecord
100
AcDbLayerTableRecord
  2
P-SANR-FIXT
 70
     0
 62
     6
  6
Continuous
370
    18
390
F
347
21
348
0
  0
LAYER
  5
88
330
2
100
AcDbSymbolTableRecord
100
AcDbLayerTableRecord
  2
M-PIPE
 70
     0
 62
     3
  6
Continuous
370
    18
390
F
347
21
348
0
  0
ENDTAB
  0
TABLE
  2
STYLE
  5
3
330
0
100
AcDbSymbolTable
 70
     2
  0
STYLE
  5
55
330
3
100
AcDbSymbolTableRecord
100
AcDbTextStyleTableRecord
  2
Standard
 70
     0
 40
0.0
 41
1.0
 50
0.0
 71
     0
 42
0.2
  3
txt
  4

  0
STYLE
  5
5A
330
3
100
AcDbSymbolTableRecord
100
AcDbTextStyleTableRecord
  2
Annotative
 70
     0
 40
0.0
 41
1.0
 50
0.0
 71
     0
 42
0.2
  3
txt
  4

1001
AcadAnnotative
1000
AnnotativeData
1002
{
1070
     1
1070
     1
1002
}
  0
ENDTAB
  0
TABLE
  2
VIEW
  5
6
330
0
100
AcDbSymbolTable
 70
     0
  0
ENDTAB
  0
TABLE
  2
UCS
  5
7
330
0
100
AcDbSymbolTable
 70
     0
  0
ENDTAB
  0
TABLE
  2
APPID
  5
9
330
0
100
AcDbSymbolTable
 70
     3
  0
APPID
  5
56
330
9
100
AcDbSymbolTableRecord
100
AcDbRegAppTableRecord
  2
ACAD
 70
     0
  0
APPID
  5
5E
330
9
100
AcDbSymbolTableRecord
100
AcDbRegAppTableRecord
  2
AcadAnnotative
 70
     0
  0
APPID
  5
79
330
9
100
AcDbSymbolTableRecord
100
AcDbRegAppTableRecord
  2
REVIT
 70
     0
  0
ENDTAB
  0
TABLE
  2
DIMSTYLE
  5
A
330
0
100
AcDbSymbolTable
 70
     2
100
AcDbDimStyleTable
 71
     0
  0
DIMSTYLE
105
58
330
A
100
AcDbSymbolTableRecord
100
AcDbDimStyleTableRecord
  2
Standard
 70
     0
340
55
  0
DIMSTYLE
105
59
330
A
100
AcDbSymbolTableRecord
100
AcDbDimStyleTableRecord
  2
Annotative
 70
     0
340
55
1001
AcadAnnotative
1000
AnnotativeData
1002
{
1070
     1
1070
     1
1002
}
  0
ENDTAB
  0
TABLE
  2
BLOCK_RECORD
  5
1
330
0
100
AcDbSymbolTable
 70
     4
  0
BLOCK_RECORD
  5
71
102
{ACAD_XDICTIONARY
360
2DB
102
}
330
1
100
AcDbSymbolTableRecord
100
AcDbBlockTableRecord
  2
*Model_Space
340
74
 70
     0
280
     1
281
     0
  0
BLOCK_RECORD
  5
6D
330
1
100
AcDbSymbolTableRecord
100
AcDbBlockTableRecord
  2
*Paper_Space
340
70
 70
     0
280
     1
281
     0
  0
BLOCK_RECORD
  5
75
330
1
100
AcDbSymbolTableRecord
100
AcDbBlockTableRecord
  2
*Paper_Space0
340
78
 70
     0
280
     1
281
     0
  0
BLOCK_RECORD
  5
87
330
1
100
AcDbSymbolTableRecord
100
AcDbBlockTableRecord
  2
Automatic flow rate regulator valve_Caleffi_121 DN15 - 1 1_4__-937400-Est - Idraulica
340
0
102
{BLKREFS
331
173
102
}
 70
     0
280
     1
281
     0
  0
BLOCK_RECORD
  5
174
330
1
100
AcDbSymbolTableRecord
100
AcDbBlockTableRecord
  2
Automatic flow rate regulator valve_Caleffi_121 DN15 - 1 1_4__-V1-Est - Idraulica
340
0
102
{BLKREFS
331
243
102
}
 70
     0
280
     1
281
     0
  0
BLOCK_RECORD
  5
244
330
1
100
AcDbSymbolTableRecord
100
AcDbBlockTableRecord
  2
Automatic flow rate regulator valve_Caleffi_121 DN15 - 1 1_4__-V2-Est - Idraulica
340
0
102
{BLKREFS
331
2D4
102
}
 70
     0
280
     1
281
     0
  0
ENDTAB
  0
ENDSEC
  0
SECTION
  2
BLOCKS
  0
BLOCK
  5
72
330
71
100
AcDbEntity
  8
0
100
AcDbBlockBegin
  2
*Model_Space
 70
     0
 10
0.0
 20
0.0
 30
0.0
  3
*Model_Space
  1

  0
ENDBLK
  5
73
330
71
100
AcDbEntity
  8
0
100
AcDbBlockEnd
  0
BLOCK
  5
6E
330
6D
100
AcDbEntity
 67
     1
  8
0
100
AcDbBlockBegin
  2
*Paper_Space
 70
     0
 10
0.0
 20
0.0
 30
0.0
  3
*Paper_Space
  1

  0
ENDBLK
  5
6F
330
6D
100
AcDbEntity
 67
     1
  8
0
100
AcDbBlockEnd
  0
BLOCK
  5
76
330
75
100
AcDbEntity
 67
     1
  8
0
100
AcDbBlockBegin
  2
*Paper_Space0
 70
     0
 10
0.0
 20
0.0
 30
0.0
  3
*Paper_Space0
  1

  0
ENDBLK
  5
77
330
75
100
AcDbEntity
 67
     1
  8
0
100
AcDbBlockEnd
  0
BLOCK
  5
171
330
87
100
AcDbEntity
  8
0
100
AcDbBlockBegin
  2
Automatic flow rate regulator valve_Caleffi_121 DN15 - 1 1_4__-937400-Est - Idraulica
 70
     0
 10
0.0
 20
0.0
 30
0.0
  3
Automatic flow rate regulator valve_Caleffi_121 DN15 - 1 1_4__-937400-Est - Idraulica
  1

  0
LWPOLYLINE
  5
89
330
87
100
AcDbEntity
  8
M-PIPE
100
AcDbPolyline
 90
        3
 70
   128
 43
0.0
 10
663.1639473696375
 20
2108.750177039343
 10
660.0788281399162
 20
2120.34598836768
 10
659.0241231980217
 20
2124.802337511631
1001
REVIT
1002
{
1070
     3
1000
923097
1002
}
  0
LWPOLYLINE
  5
8A
330
87
100
AcDbEntity
  8
M-PIPE
100
AcDbPolyline
 90
        3
 70
   128
 43
0.0
 10
718.4126968316918
 20
2146.418010569812
 10
723.6682721135219
 20
2135.630993860778
 10
725.5595373898223
 20
2131.460314556166
1001
REVIT
1002
{
1070
     3
1000
923097
1002
}
  0
ELLIPSE
  5
8B
330
87
100
AcDbEntity
  8
M-PIPE
100
AcDbEllipse
 10
636.7247959507359
 20
2077.104975757228
 30
0.0
 11
-102.6060429976969
 21
281.907786235774
 31
0.0
210
0.0
220
0.0
230
1.0
 40
0.2588190451030413
 41
4.791451455487143
 42
4.836688948174556
1001
REVIT
1002
{
1070
     3
1000
923097
1002
}
  0
LINE
  5
8C
330
87
100
AcDbEntity
  8
M-PIPE
100
AcDbLine
 10
701.3561382563579
 20
2125.843531020922
 30
0.0
 11
685.3152256431608
 21
2120.005116299254
 31
0.0
1001
REVIT
1002
{
1070
     3
1000
923097
1002
}
  0
ELLIPSE
  5
8D
330
87
100
AcDbEntity
  8
M-PIPE
100
AcDbEllipse
 10
766.1542457052291
 20
2124.213442905314
 30
0.0
 11
-102.6060429976928
 21
281.9077862357755
 31
0.0
210
0.0
220
0.0
230
0.9999999999999998
 40
0.2588190451030398
 41
1.446496359005032
 42
1.491733851692446
1001
REVIT
1002
{
1070
     3
1000
923097
1002
}
  0
LINE
  5
8E
330
87
100
AcDbEntity
  8
M-PIPE
100
AcDbLine
 10
681.0329630559057
 20
2132.812900110633
 30
0.0
 11
659.0241231980201
 21
2124.802337511632
 31
0.0
1001
REVIT
1002
{
1070
     3
1000
923097
1002
}
  0
LINE
  5
8F
330
87
100
AcDbEntity
  8
M-PIPE
100
AcDbLine
 10
681.0329630559055
 20
2132.812900110633
 30
0.0
 11
681.0543164139227
 21
2132.820672097353
 31
0.0
1001
REVIT
1002
{
1070
     3
1000
923097
1002
}
  0
LINE
  5
90
330
87
100
AcDbEntity
  8
M-PIPE
100
AcDbLine
 10
696.3825036157865
 20
2138.399675984091
 30
0.0
 11
696.4038569738041
 21
2138.407447970811
 31
0.0
1001
REVIT
1002
{
1070
     3
1000
923097
1002
}
  0
LINE
  5
91
330
87
100
AcDbEntity
  8
M-PIPE
100
AcDbLine
 10
718.4126968316903
 20
2146.418010569812
 30
0.0
 11
696.4038569738049
 21
2138.407447970809
 31
0.0
1001
REVIT
1002
{
1070
     3
1000
923097
1002
}
  0
LINE
  5
92
330
87
100
AcDbEntity
  8
M-PIPE
100
AcDbLine
 10
686.1609767190981
 20
2120.312944516496
 30
0.0
 11
681.5437047841937
 21
2132.998794897128
 31
0.0
1001
REVIT
1002
{
1070
     3
1000
923097
1002
}
  0
LINE
  5
93
330
87
100
AcDbEntity
  8
M-PIPE
100
AcDbLine
 10
695.8931152455173
 20
2138.221553184317
 30
0.0
 11
700.5103871804216
 21
2125.535702803686
 31
0.0
1001
REVIT
1002
{
1070
     3
1000
923097
1002
}
  0
LINE
  5
94
330
87
100
AcDbEntity
  8
M-PIPE
100
AcDbLine
 10
745.0774899180496
 20
2087.483735231397
 30
0.0
 11
743.7094093447534
 21
2091.242505714523
 31
0.0
1001
REVIT
1002
{
1070
     3
1000
923097
1002
}
  0
LINE
  5
95
330
87
100
AcDbEntity
  8
M-PIPE
100
AcDbLine
 10
675.1118480273902
 20
2066.275035251752
 30
0.0
 11
676.4799286006862
 21
2062.516264768627
 31
0.0
1001
REVIT
1002
{
1070
     3
1000
923097
1002
}
  0
LWPOLYLINE
  5
96
330
87
100
AcDbEntity
  8
M-PIPE
100
AcDbPolyline
 90
        4
 70
   128
 43
0.0
 10
673.3568378594372
 20
2078.406397059515
 10
669.0534814368521
 20
2089.607375790151
 10
665.2014869220814
 20
2100.971483290617
 10
662.8820395834111
 20
2108.647570996327
1001
REVIT
1002
{
1070
     3
1000
923097
1002
}
  0
LWPOLYLINE
  5
97
330
87
100
AcDbEntity
  8
M-PIPE
100
AcDbPolyline
 90
        4
 70
   128
 43
0.0
 10
725.8414451760613
 20
2131.562920599144
 10
730.4926460127745
 20
2120.501856825685
 10
734.6978018092234
 20
2109.263642298832
 10
737.2559360728773
 20
2101.663766805658
1001
REVIT
1002
{
1070
     3
1000
923097
1002
}
  0
LINE
  5
98
330
87
100
AcDbEntity
  8
M-PIPE
100
AcDbLine
 10
676.4799286006848
 20
2062.516264768627
 30
0.0
 11
745.077489918048
 21
2087.483735231396
 31
0.0
1001
REVIT
1002
{
1070
     3
1000
923097
1002
}
  0
LINE
  5
99
330
87
100
AcDbEntity
  8
M-PIPE
100
AcDbLine
 10
743.7094093447519
 20
2091.242505714522
 30
0.0
 11
742.2998704135888
 21
2090.729475499539
 31
0.0
1001
REVIT
1002
{
1070
     3
1000
923097
1002
}
  0
LINE
  5
9A
330
87
100
AcDbEntity
  8
M-PIPE
100
AcDbLine
 10
742.2998704135882
 20
2090.729475499539
 30
0.0
 11
738.1956286936738
 21
2102.005786948988
 31
0.0
1001
REVIT
1002
{
1070
     3
1000
923097
1002
}
  0
LINE
  5
9B
330
87
100
AcDbEntity
  8
M-PIPE
100
AcDbLine
 10
735.4438766120873
 20
2101.00423109921
 30
0.0
 11
739.5481183320018
 21
2089.727919649761
 31
0.0
1001
REVIT
1002
{
1070
     3
1000
923097
1002
}
  0
LINE
  5
9C
330
87
100
AcDbEntity
  8
M-PIPE
100
AcDbLine
 10
739.5481183320002
 20
2089.727919649761
 30
0.0
 11
725.7855507473741
 21
2084.71875470188
 31
0.0
1001
REVIT
1002
{
1070
     3
1000
923097
1002
}
  0
LINE
  5
9D
330
87
100
AcDbEntity
  8
M-PIPE
100
AcDbLine
 10
725.7855507473713
 20
2084.718754701879
 30
0.0
 11
721.6813090274571
 21
2095.995066151328
 31
0.0
1001
REVIT
1002
{
1070
     3
1000
923097
1002
}
  0
LINE
  5
9E
330
87
100
AcDbEntity
  8
M-PIPE
100
AcDbLine
 10
715.0379918317971
 20
2093.577096435318
 30
0.0
 11
719.1422335517114
 21
2082.30078498587
 31
0.0
1001
REVIT
1002
{
1070
     3
1000
923097
1002
}
  0
LINE
  5
9F
330
87
100
AcDbEntity
  8
M-PIPE
100
AcDbLine
 10
719.1422335517086
 20
2082.300784985869
 30
0.0
 11
699.6790238204304
 21
2075.216755980403
 31
0.0
1001
REVIT
1002
{
1070
     3
1000
923097
1002
}
  0
LINE
  5
A0
330
87
100
AcDbEntity
  8
M-PIPE
100
AcDbLine
 10
699.6790238204281
 20
2075.216755980402
 30
0.0
 11
695.5747821005137
 21
2086.493067429851
 31
0.0
1001
REVIT
1002
{
1070
     3
1000
923097
1002
}
  0
LINE
  5
A1
330
87
100
AcDbEntity
  8
M-PIPE
100
AcDbLine
 10
688.9314649049022
 20
2084.07509771386
 30
0.0
 11
693.0357066248165
 21
2072.798786264411
 31
0.0
1001
REVIT
1002
{
1070
     3
1000
923097
1002
}
  0
LINE
  5
A2
330
87
100
AcDbEntity
  8
M-PIPE
100
AcDbLine
 10
693.0357066248159
 20
2072.798786264411
 30
0.0
 11
679.2731390401122
 21
2067.789621316503
 31
0.0
1001
REVIT
1002
{
1070
     3
1000
923097
1002
}
  0
LINE
  5
A3
330
87
100
AcDbEntity
  8
M-PIPE
100
AcDbLine
 10
679.2731390401121
 20
2067.789621316502
 30
0.0
 11
675.1688973201976
 21
2079.065932765951
 31
0.0
1001
REVIT
1002
{
1070
     3
1000
923097
1002
}
  0
LINE
  5
A4
330
87
100
AcDbEntity
  8
M-PIPE
100
AcDbLine
 10
672.4171452386599
 20
2078.064376916191
 30
0.0
 11
676.5213869585744
 21
2066.788065466742
 31
0.0
1001
REVIT
1002
{
1070
     3
1000
923097
1002
}
  0
LINE
  5
A5
330
87
100
AcDbEntity
  8
M-PIPE
100
AcDbLine
 10
676.521386958575
 20
2066.788065466742
 30
0.0
 11
675.1118480273889
 21
2066.275035251752
 31
0.0
1001
REVIT
1002
{
1070
     3
1000
923097
1002
}
  0
LINE
  5
A6
330
87
100
AcDbEntity
  8
M-PIPE
100
AcDbLine
 10
675.168897320198
 20
2079.065932765951
 30
0.0
 11
672.4171452386605
 21
2078.064376916191
 31
0.0
1001
REVIT
1002
{
1070
     3
1000
923097
1002
}
  0
LINE
  5
A7
330
87
100
AcDbEntity
  8
M-PIPE
100
AcDbLine
 10
675.1688973201979
 20
2079.065932765951
 30
0.0
 11
688.9314649049019
 21
2084.07509771386
 31
0.0
1001
REVIT
1002
{
1070
     3
1000
923097
1002
}
  0
LINE
  5
A8
330
87
100
AcDbEntity
  8
M-PIPE
100
AcDbLine
 10
695.5747821005161
 20
2086.493067429852
 30
0.0
 11
688.9314649049022
 21
2084.07509771386
 31
0.0
1001
REVIT
1002
{
1070
     3
1000
923097
1002
}
  0
LINE
  5
A9
330
87
100
AcDbEntity
  8
M-PIPE
100
AcDbLine
 10
695.574782100516
 20
2086.493067429852
 30
0.0
 11
715.0379918317951
 21
2093.577096435318
 31
0.0
1001
REVIT
1002
{
1070
     3
1000
923097
1002
}
  0
LINE
  5
AA
330
87
100
AcDbEntity
  8
M-PIPE
100
AcDbLine
 10
721.6813090274597
 20
2095.995066151329
 30
0.0
 11
715.0379918317955
 21
2093.577096435318
 31
0.0
1001
REVIT
1002
{
1070
     3
1000
923097
1002
}
  0
LINE
  5
AB
330
87
100
AcDbEntity
  8
M-PIPE
100
AcDbLine
 10
721.6813090274596
 20
2095.995066151329
 30
0.0
 11
735.4438766120863
 21
2101.00423109921
 31
0.0
1001
REVIT
1002
{
1070
     3
1000
923097
1002
}
  0
LINE
  5
AC
330
87
100
AcDbEntity
  8
M-PIPE
100
AcDbLine
 10
738.1956286936744
 20
2102.005786948988
 30
0.0
 11
735.4438766120864
 21
2101.00423109921
 31
0.0
1001
REVIT
1002
{
1070
     3
1000
923097
1002
}
  0
LINE
  5
AD
330
87
100
AcDbEntity
  8
M-PIPE
100
AcDbLine
 10
725.8414451760598
 20
2131.562920599143
 30
0.0
 11
662.8820395834098
 21
2108.647570996326
 31
0.0
1001
REVIT
1002
{
1070
     3
1000
923097
1002
}
  0
LWPOLYLINE
  5
AE
330
87
100
AcDbEntity
  8
P-SANR-FIXT
100
AcDbPolyline
 90
        7
 70
   128
 43
0.0
 10
675.9068074063264
 20
2172.450431294306
 10
679.5129720989133
 20
2173.681869656844
 10
683.2137765063102
 20
2174.782473099927
 10
686.955633063805
 20
2175.73420347344
 10
690.732555599126
 20
2176.535538211811
 10
694.5385018419171
 20
2177.1851953504
 10
695.4160071092307
 20
2177.312860456099
  0
LWPOLYLINE
  5
AF
330
87
100
AcDbEntity
  8
P-SANR-FIXT
100
AcDbPolyline
 90
        7
 70
   128
 43
0.0
 10
656.7817828600131
 20
2163.251152805418
 10
660.0968566027789
 20
2165.230437343013
 10
663.4884289109636
 20
2167.075571072337
 10
666.9510739923713
 20
2168.783602173031
 10
670.4792523535298
 20
2170.351798159694
 10
674.067319661699
 20
2171.77765025328
 10
674.8991841156904
 20
2172.084758383361
  0
LWPOLYLINE
  5
B0
330
87
100
AcDbEntity
  8
P-SANR-FIXT
100
AcDbPolyline
 90
       80
 70
   128
 43
0.0
 10
674.8991841156899
 20
2172.084758383361
 10
674.8995680469842
 20
2172.084898122924
 10
674.9007192266595
 20
2172.08531711806
 10
674.9026358130737
 20
2172.086014698466
 10
674.9053147400972
 20
2172.086989748163
 10
674.9087517220184
 20
2172.088240707277
 10
674.9129412603995
 20
2172.089765574543
 10
674.9178766528728
 20
2172.091561910498
 10
674.9235500038628
 20
2172.093626841387
 10
674.9299522372186
 20
2172.095957063762
 10
674.9370731107323
 20
2172.098548849762
 10
674.9449012325254
 20
2172.101398053085
 10
674.9534240792732
 20
2172.104500115613
 10
674.9626280162386
 20
2172.107850074706
 10
674.972498319086
 20
2172.111442571146
 10
674.9830191974368
 20
2172.115271857704
 10
674.9941738201292
 20
2172.119331808338
 10
675.0059443421471
 20
2172.123615927994
 10
675.0183119331656
 20
2172.128117362995
 10
675.0312568076779
 20
2172.132828912004
 10
675.044758256646
 20
2172.137743037547
 10
675.0587946806316
 20
2172.142851878074
 10
675.0733436243506
 20
2172.148147260527
 10
675.0883818125966
 20
2172.153620713427
 10
675.1038851874768
 20
2172.159263480413
 10
675.1198289468982
 20
2172.165066534265
 10
675.1361875842471
 20
2172.171020591333
 10
675.1529349291931
 20
2172.177116126396
 10
675.1700441895573
 20
2172.183343387899
 10
675.1874879941725
 20
2172.189692413552
 10
675.2052384366725
 20
2172.196153046267
 10
675.2232671201362
 20
2172.202714950411
 10
675.2415452025157
 20
2172.209367628336
 10
675.2600434427782
 20
2172.216100437179
 10
675.2787322476856
 20
2172.222902605879
 10
675.2975817191368
 20
2172.229763252418
 10
675.3165617019982
 20
2172.236671401227
 10
675.3356418323464
 20
2172.243616000739
 10
675.3547915860429
 20
2172.250585941078
 10
675.3739803275667
 20
2172.257570071826
 10
675.3931773590252
 20
2172.264557219863
 10
675.4123519692626
 20
2172.271536207243
 10
675.4314734829932
 20
2172.278495869075
 10
675.4505113098744
 20
2172.285425071385
 10
675.4694349934436
 20
2172.292312728927
 10
675.4882142598447
 20
2172.299147822918
 10
675.506819066257
 20
2172.305919418667
 10
675.5252196489594
 20
2172.312616683064
 10
675.5433865709445
 20
2172.319228901915
 10
675.5612907690126
 20
2172.32574549708
 10
675.5789036002664
 20
2172.332156043397
 10
675.5961968879327
 20
2172.33845028536
 10
675.6131429664405
 20
2172.344618153525
 10
675.6297147256791
 20
2172.350649780617
 10
675.6458856543692
 20
2172.35653551732
 10
675.6616298824739
 20
2172.362265947712
 10
675.6769222225872
 20
2172.367831904326
 10
675.6917382102268
 20
2172.373224482818
 10
675.7060541429735
 20
2172.378435056213
 10
675.7198471183885
 20
2172.383455288706
 10
675.7330950706536
 20
2172.388277148996
 10
675.7457768058714
 20
2172.392892923134
 10
675.7578720359705
 20
2172.397295226867
 10
675.7693614111628
 20
2172.401477017447
 10
675.7802265508996
 20
2172.405431604902
 10
675.7904500732746
 20
2172.409152662736
 10
675.8000156228328
 20
2172.41263423805
 10
675.8089078967359
 20
2172.415870761065
 10
675.8171126692423
 20
2172.418857054037
 10
675.8246168144664
 20
2172.421588339532
 10
675.831408327376
 20
2172.424060248076
 10
675.8374763430002
 20
2172.426268825145
 10
675.8428111538076
 20
2172.428210537484
 10
675.8474042252397
 20
2172.429882278769
 10
675.8512482093615
 20
2172.431281374571
 10
675.8543369566186
 20
2172.432405586633
 10
675.8566655256741
 20
2172.433253116458
 10
675.8582301913143
 20
2172.433822608178
 10
675.8590284504082
 20
2172.434113150726
 10
675.8591403392037
 20
2172.434153874919
  0
LWPOLYLINE
  5
B1
330
87
100
AcDbEntity
  8
P-SANR-FIXT
100
AcDbPolyline
 90
       80
 70
   128
 43
0.0
 10
675.8591403392037
 20
2172.434153874919
 10
675.8587564079093
 20
2172.434014135355
 10
675.8576052282339
 20
2172.433595140219
 10
675.8556886418199
 20
2172.432897559813
 10
675.8530097147962
 20
2172.431922510116
 10
675.849572732875
 20
2172.430671551001
 10
675.845383194494
 20
2172.429146683735
 10
675.840447802021
 20
2172.427350347781
 10
675.8347744510309
 20
2172.425285416892
 10
675.828372217675
 20
2172.422955194517
 10
675.8212513441613
 20
2172.420363408517
 10
675.813423222368
 20
2172.417514205194
 10
675.8049003756204
 20
2172.414412142666
 10
675.7956964386549
 20
2172.411062183573
 10
675.7858261358073
 20
2172.407469687133
 10
675.7753052574567
 20
2172.403640400575
 10
675.7641506347643
 20
2172.39958044994
 10
675.7523801127466
 20
2172.395296330284
 10
675.7400125217278
 20
2172.390794895284
 10
675.7270676472155
 20
2172.386083346275
 10
675.7135661982476
 20
2172.381169220731
 10
675.699529774262
 20
2172.376060380205
 10
675.684980830543
 20
2172.370764997751
 10
675.6699426422967
 20
2172.365291544853
 10
675.6544392674166
 20
2172.359648777865
 10
675.6384955079952
 20
2172.353845724014
 10
675.6221368706463
 20
2172.347891666946
 10
675.6053895257005
 20
2172.341796131882
 10
675.5882802653363
 20
2172.335568870379
 10
675.5708364607212
 20
2172.329219844727
 10
675.5530860182209
 20
2172.322759212012
 10
675.5350573347574
 20
2172.316197307868
 10
675.516779252378
 20
2172.309544629943
 10
675.4982810121153
 20
2172.302811821101
 10
675.4795922072079
 20
2172.2960096524
 10
675.4607427357568
 20
2172.289149005861
 10
675.4417627528953
 20
2172.282240857052
 10
675.4226826225469
 20
2172.275296257539
 10
675.4035328688506
 20
2172.2683263172
 10
675.3843441273268
 20
2172.261342186453
 10
675.3651470958683
 20
2172.254355038415
 10
675.3459724856307
 20
2172.247376051035
 10
675.3268509719001
 20
2172.240416389203
 10
675.3078131450193
 20
2172.233487186893
 10
675.2888894614498
 20
2172.226599529352
 10
675.2701101950488
 20
2172.21976443536
 10
675.2515053886366
 20
2172.212992839612
 10
675.2331048059342
 20
2172.206295575215
 10
675.214937883949
 20
2172.199683356364
 10
675.1970336858809
 20
2172.193166761199
 10
675.1794208546272
 20
2172.186756214881
 10
675.162127566961
 20
2172.180461972919
 10
675.1451814884529
 20
2172.174294104754
 10
675.1286097292143
 20
2172.168262477662
 10
675.1124388005246
 20
2172.162376740958
 10
675.0966945724199
 20
2172.156646310567
 10
675.0814022323066
 20
2172.151080353953
 10
675.0665862446666
 20
2172.145687775461
 10
675.0522703119198
 20
2172.140477202065
 10
675.038477336505
 20
2172.135456969572
 10
675.0252293842399
 20
2172.130635109283
 10
675.0125476490223
 20
2172.126019335145
 10
675.0004524189233
 20
2172.121617031412
 10
674.9889630437307
 20
2172.117435240831
 10
674.978097903994
 20
2172.113480653377
 10
674.9678743816189
 20
2172.109759595542
 10
674.9583088320606
 20
2172.106278020229
 10
674.9494165581575
 20
2172.103041497214
 10
674.9412117856514
 20
2172.100055204242
 10
674.9337076404274
 20
2172.097323918747
 10
674.9269161275175
 20
2172.094852010202
 10
674.9208481118934
 20
2172.092643433134
 10
674.9155133010857
 20
2172.090701720795
 10
674.9109202296538
 20
2172.089029979509
 10
674.9070762455321
 20
2172.087630883709
 10
674.903987498275
 20
2172.086506671645
 10
674.9016589292194
 20
2172.085659141821
 10
674.900094263579
 20
2172.085089650101
 10
674.8992960044851
 20
2172.084799107552
 10
674.8991841156899
 20
2172.084758383361
  0
LWPOLYLINE
  5
B2
330
87
100
AcDbEntity
  8
P-SANR-FIXT
100
AcDbPolyline
 90
       30
 70
   128
 43
0.0
 10
695.4160071092307
 20
2177.312860456099
 10
695.6727013147799
 20
2177.343781156766
 10
695.9304266905761
 20
2177.364412093802
 10
696.1887709309967
 20
2177.374720262106
 10
696.4473207403673
 20
2177.374689170811
 10
696.7056624941475
 20
2177.364318869654
 10
696.9633829006409
 20
2177.343625948906
 10
697.2200696621748
 20
2177.312643512825
 10
697.4753121346878
 20
2177.271421126701
 10
697.7287019846722
 20
2177.220024737556
 10
697.9798338424221
 20
2177.158536568651
 10
698.2283059505367
 20
2177.087054987937
 10
698.4737208066479
 20
2177.005694350697
 10
698.7156857993381
 20
2176.914584816592
 10
698.9538138362356
 20
2176.813872141443
 10
699.1877239632791
 20
2176.703717444046
 10
699.4170419741636
 20
2176.584296948417
 10
699.6414010089903
 20
2176.455801701874
 10
699.860442141164
 20
2176.318437269403
 10
700.0738149515997
 20
2176.17242340479
 10
700.2811780893177
 20
2176.017993699073
 10
700.4821998175327
 20
2175.855395206836
 10
700.6765585443623
 20
2175.684888050982
 10
700.8639433373039
 20
2175.506745006586
 10
701.0440544206627
 20
2175.321251064519
 10
701.2166036551267
 20
2175.128702975518
 10
701.3813149987291
 20
2174.929408775449
 10
701.5379249484571
 20
2174.72368729252
 10
701.6861829617993
 20
2174.511867637219
 10
701.6944628513066
 20
2174.499488653334
  0
LWPOLYLINE
  5
B3
330
87
100
AcDbEntity
  8
P-SANR-FIXT
100
AcDbPolyline
 90
       30
 70
   128
 43
0.0
 10
653.7806072636865
 20
2157.060271410511
 10
653.757431105196
 20
2157.317780382335
 10
653.7445710974907
 20
2157.576010173595
 10
653.7420478138393
 20
2157.83454767171
 10
653.7498652909578
 20
2158.092979271836
 10
653.7680110225502
 20
2158.350891538542
 10
653.7964559793169
 20
2158.607871867219
 10
653.8351546553951
 20
2158.86350914416
 10
653.8840451411581
 20
2159.117394404256
 10
653.9430492222582
 20
2159.369121485251
 10
654.0120725047528
 20
2159.618287677512
 10
654.0910045661135
 20
2159.864494368285
 10
654.1797191318806
 20
2160.107347679387
 10
654.2780742776735
 20
2160.346459097325
 10
654.38591265624
 20
2160.581446094838
 10
654.503061749179
 20
2160.811932742859
 10
654.6293341429323
 20
2161.037550311918
 10
654.7645278286061
 20
2161.257937862034
 10
654.9084265251437
 20
2161.472742820141
 10
655.0608000253268
 20
2161.681621544127
 10
655.2214045640603
 20
2161.884239872593
 10
655.3899832083423
 20
2162.080273659437
 10
655.5662662683036
 20
2162.269409292417
 10
655.7499717286535
 20
2162.451344194869
 10
655.9408056998432
 20
2162.625787309758
 10
656.1384628882288
 20
2162.792459565313
 10
656.3426270844729
 20
2162.95109432148
 10
656.5529716694141
 20
2163.10143779649
 10
656.7691601365883
 20
2163.243249472855
 10
656.7817828600131
 20
2163.251152805418
  0
LWPOLYLINE
  5
B4
330
87
100
AcDbEntity
  8
P-SANR-FIXT
100
AcDbPolyline
 90
        4
 70
   128
 43
0.0
 10
701.6944628513066
 20
2174.499488653334
 10
708.2866639380235
 20
2164.177794692691
 10
714.4608342978374
 20
2153.600739254013
 10
718.3505021475633
 20
2146.395373556082
  0
LWPOLYLINE
  5
B5
330
87
100
AcDbEntity
  8
P-SANR-FIXT
100
AcDbPolyline
 90
        3
 70
   128
 43
0.0
 10
659.084845954948
 20
2124.832368526128
 10
656.6951763935096
 20
2136.836507473622
 10
655.8760366437207
 20
2142.027770936781
  0
LWPOLYLINE
  5
B6
330
87
100
AcDbEntity
  8
P-SANR-FIXT
100
AcDbPolyline
 90
        3
 70
   128
 43
0.0
 10
655.8665355320085
 20
2142.087983829762
 10
654.7862807681935
 20
2148.934052632725
 10
653.7806072636864
 20
2157.060271410511
  0
SPLINE
  5
B7
330
87
100
AcDbEntity
  8
P-SANR-FIXT
100
AcDbSpline
210
0.0
220
0.0
230
1.0
 70
     8
 71
     3
 72
     9
 73
     5
 74
     0
 42
0.000000001
 43
0.0000000001
 40
-1.0
 40
-1.0
 40
-1.0
 40
-1.0
 40
-0.5
 40
0.0
 40
0.0
 40
0.0
 40
0.0
 10
656.605373556486
 20
2158.088402259848
 30
0.0
 10
656.7130002559018
 20
2158.262738411595
 30
0.0
 10
656.9533579091207
 20
2158.485384679693
 30
0.0
 10
657.2419026715802
 20
2158.455243147733
 30
0.0
 10
657.3977853587118
 20
2158.376816569139
 30
0.0
  0
SPLINE
  5
B8
330
87
100
AcDbEntity
  8
P-SANR-FIXT
100
AcDbSpline
210
0.0
220
0.0
230
1.0
 70
     8
 71
     3
 72
     9
 73
     5
 74
     0
 42
0.000000001
 43
0.0000000001
 40
-1.0
 40
-1.0
 40
-1.0
 40
-1.0
 40
-0.5
 40
0.0
 40
0.0
 40
0.0
 40
0.0
 10
676.9451232544922
 20
2165.491465722347
 30
0.0
 10
677.1651920142833
 20
2165.706727437401
 30
0.0
 10
677.6506538034683
 20
2166.018584315535
 30
0.0
 10
678.2229968466804
 20
2166.091736910056
 30
0.0
 10
678.5299468604988
 20
2166.068294341496
 30
0.0
  0
SPLINE
  5
B9
330
87
100
AcDbEntity
  8
P-SANR-FIXT
100
AcDbSpline
210
0.0
220
0.0
230
1.0
 70
     8
 71
     3
 72
     9
 73
     5
 74
     0
 42
0.000000001
 43
0.0000000001
 40
-1.0
 40
-1.0
 40
-1.0
 40
-1.0
 40
-0.5
 40
0.0
 40
0.0
 40
0.0
 40
0.0
 10
698.0772847562825
 20
2173.182943494705
 30
0.0
 10
698.1462861895469
 20
2173.343221199282
 30
0.0
 10
698.3479496981376
 20
2173.551783950494
 30
0.0
 10
698.6751886052194
 20
2173.535725935418
 30
0.0
 10
698.8696965584997
 20
2173.471357803993
 30
0.0
  0
SPLINE
  5
BA
330
87
100
AcDbEntity
  8
P-SANR-FIXT
100
AcDbSpline
210
0.0
220
0.0
230
1.0
 70
     8
 71
     3
 72
    23
 73
    19
 74
     0
 42
0.000000001
 43
0.0000000001
 40
-1.0
 40
-1.0
 40
-1.0
 40
-1.0
 40
-0.875
 40
-0.8125
 40
-0.78125
 40
-0.75
 40
-0.71875
 40
-0.6875
 40
-0.625
 40
-0.5625
 40
-0.53125
 40
-0.5
 40
-0.46875
 40
-0.4375
 40
-0.375
 40
-0.3125
 40
-0.25
 40
0.0
 40
0.0
 40
0.0
 40
0.0
 10
698.8696965584996
 20
2173.471357803993
 30
0.0
 10
699.6384494870628
 20
2172.709401538811
 30
0.0
 10
700.8617164983269
 20
2171.530238271452
 30
0.0
 10
702.2930828929998
 20
2170.048645491279
 30
0.0
 10
703.1000045068017
 20
2169.166593296987
 30
0.0
 10
703.6988735920427
 20
2168.489039370521
 30
0.0
 10
704.2819743975379
 20
2167.783859107231
 30
0.0
 10
705.0310323042837
 20
2166.799688145241
 30
0.0
 10
705.9245773554392
 20
2165.507982124275
 30
0.0
 10
706.7838108735863
 20
2164.174045262805
 30
0.0
 10
707.467368280716
 20
2163.106432025613
 30
0.0
 10
707.9853134392457
 20
2162.315165708823
 30
0.0
 10
708.5035990672962
 20
2161.527303736659
 30
0.0
 10
709.1826992166902
 20
2160.465424070419
 30
0.0
 10
710.0171175089577
 20
2159.126681859143
 30
0.0
 10
710.9987305339252
 20
2157.505467795962
 30
0.0
 10
712.9432322045861
 20
2154.254130244234
 30
0.0
 10
714.5099371466986
 20
2151.514509480732
 30
0.0
 10
715.7134204307013
 20
2149.292573561309
 30
0.0
  0
LINE
  5
BB
330
87
100
AcDbEntity
  8
P-SANR-FIXT
100
AcDbLine
 10
715.7134204307005
 20
2149.292573561311
 30
0.0
 11
707.8977827262068
 21
2146.447914075067
 31
0.0
  0
SPLINE
  5
BC
330
87
100
AcDbEntity
  8
P-SANR-FIXT
100
AcDbSpline
210
0.0
220
0.0
230
1.0
 70
     8
 71
     3
 72
     9
 73
     5
 74
     0
 42
0.000000001
 43
0.0000000001
 40
-1.0
 40
-1.0
 40
-1.0
 40
-1.0
 40
-0.5
 40
0.0
 40
0.0
 40
0.0
 40
0.0
 10
707.8977827262074
 20
2146.447914075066
 30
0.0
 10
706.481514594174
 20
2149.697609276844
 30
0.0
 10
703.6130595590889
 20
2156.121665233669
 30
0.0
 10
700.9563302367985
 20
2162.498260881323
 30
0.0
 10
699.7862470844218
 20
2165.713037921363
 30
0.0
  0
SPLINE
  5
BD
330
87
100
AcDbEntity
  8
P-SANR-FIXT
100
AcDbSpline
210
0.0
220
0.0
230
1.0
 70
     8
 71
     3
 72
    21
 73
    17
 74
     0
 42
0.000000001
 43
0.0000000001
 40
-1.0
 40
-1.0
 40
-1.0
 40
-1.0
 40
-0.8333333333333332
 40
-0.75
 40
-0.7083333333333333
 40
-0.6666666666666666
 40
-0.625
 40
-0.5833333333333333
 40
-0.5
 40
-0.4166666666666666
 40
-0.375
 40
-0.3333333333333333
 40
-0.2916666666666666
 40
-0.25
 40
-0.1666666666666666
 40
0.0
 40
0.0
 40
0.0
 40
0.0
 10
699.7862470844218
 20
2165.713037921364
 30
0.0
 10
699.6243227150911
 20
2166.157921469759
 30
0.0
 10
699.38840589502
 20
2166.82036315529
 30
0.0
 10
699.1298561419617
 20
2167.585963634864
 30
0.0
 10
698.9874174852348
 20
2168.021957794254
 30
0.0
 10
698.8838562479441
 20
2168.347376126774
 30
0.0
 10
698.7819582853317
 20
2168.674951055061
 30
0.0
 10
698.6473365572104
 20
2169.11656729115
 30
0.0
 10
698.4853352055439
 20
2169.670099125515
 30
0.0
 10
698.3406521769573
 20
2170.212292299799
 30
0.0
 10
698.2419568065106
 20
2170.631700632328
 30
0.0
 10
698.1790297231233
 20
2170.936411570858
 30
0.0
 10
698.1271332107438
 20
2171.233000887095
 30
0.0
 10
698.070462008869
 20
2171.622586984687
 30
0.0
 10
698.0083575887399
 20
2172.286795979049
 30
0.0
 10
698.026146073717
 20
2172.829874673617
 30
0.0
 10
698.0772847562825
 20
2173.182943494705
 30
0.0
  0
SPLINE
  5
BE
330
87
100
AcDbEntity
  8
P-SANR-FIXT
100
AcDbSpline
210
0.0
220
0.0
230
1.0
 70
     8
 71
     3
 72
    23
 73
    19
 74
     0
 42
0.000000001
 43
0.0000000001
 40
-1.0
 40
-1.0
 40
-1.0
 40
-1.0
 40
-0.875
 40
-0.8125
 40
-0.78125
 40
-0.75
 40
-0.71875
 40
-0.6875
 40
-0.625
 40
-0.5625
 40
-0.53125
 40
-0.5
 40
-0.46875
 40
-0.4375
 40
-0.375
 40
-0.3125
 40
-0.25
 40
0.0
 40
0.0
 40
0.0
 40
0.0
 10
678.5299468604988
 20
2166.068294341496
 30
0.0
 10
679.6216873744439
 20
2165.423895943332
 30
0.0
 10
681.1590889947801
 20
2164.359068323109
 30
0.0
 10
682.7603138452547
 20
2162.939298964797
 30
0.0
 10
683.6220265645149
 20
2162.077189101959
 30
0.0
 10
684.244188796731
 20
2161.408113187634
 30
0.0
 10
684.8354600105515
 20
2160.705906709765
 30
0.0
 10
685.5807303805676
 20
2159.720357197148
 30
0.0
 10
686.4508870135315
 20
2158.420138488158
 30
0.0
 10
687.2727736932364
 20
2157.072608489189
 30
0.0
 10
687.9181689932127
 20
2155.991105380945
 30
0.0
 10
688.4017358695579
 20
2155.187326392751
 30
0.0
 10
688.88066396914
 20
2154.385139451745
 30
0.0
 10
689.5043893218806
 20
2153.303105007818
 30
0.0
 10
690.2636869019938
 20
2151.937021093369
 30
0.0
 10
691.1480306084256
 20
2150.28040389357
 30
0.0
 10
692.8807391577112
 20
2146.951979949907
 30
0.0
 10
694.2455870228557
 20
2144.138889218865
 30
0.0
 10
695.2944256255363
 20
2141.860667238593
 30
0.0
  0
LINE
  5
BF
330
87
100
AcDbEntity
  8
P-SANR-FIXT
100
AcDbLine
 10
695.2944256255359
 20
2141.860667238596
 30
0.0
 11
679.6631502164058
 21
2136.171348266055
 31
0.0
  0
SPLINE
  5
C0
330
87
100
AcDbEntity
  8
P-SANR-FIXT
100
AcDbSpline
210
0.0
220
0.0
230
1.0
 70
     8
 71
     3
 72
    23
 73
    19
 74
     0
 42
0.000000001
 43
0.0000000001
 40
-1.0
 40
-1.0
 40
-1.0
 40
-1.0
 40
-0.75
 40
-0.6875
 40
-0.625
 40
-0.5625
 40
-0.53125
 40
-0.5
 40
-0.46875
 40
-0.4375
 40
-0.375
 40
-0.3125
 40
-0.28125
 40
-0.25
 40
-0.21875
 40
-0.1875
 40
-0.125
 40
0.0
 40
0.0
 40
0.0
 40
0.0
 10
679.6631502164061
 20
2136.171348266053
 30
0.0
 10
679.0021943386845
 20
2138.590748012595
 30
0.0
 10
678.2395085946426
 20
2141.623007831922
 30
0.0
 10
677.4273706795972
 20
2145.286492084988
 30
0.0
 10
677.0399642516922
 20
2147.123979662468
 30
0.0
 10
676.7435181296121
 20
2148.658527730527
 30
0.0
 10
676.5258011363011
 20
2149.88833713215
 30
0.0
 10
676.3770455193082
 20
2150.810697028992
 30
0.0
 10
676.2308200632714
 20
2151.737258252964
 30
0.0
 10
676.0300447486164
 20
2152.980589801425
 30
0.0
 10
675.7934708854596
 20
2154.541156243352
 30
0.0
 10
675.6242850627638
 20
2156.096507462369
 30
0.0
 10
675.5616962728927
 20
2157.330532749641
 30
0.0
 10
675.5632666772007
 20
2158.248515930142
 30
0.0
 10
675.6097968902404
 20
2159.16097599042
 30
0.0
 10
675.7157535923736
 20
2160.375288719254
 30
0.0
 10
676.0297528391284
 20
2162.492142640906
 30
0.0
 10
676.5230128064983
 20
2164.296070634922
 30
0.0
 10
676.9451232544922
 20
2165.491465722347
 30
0.0
  0
SPLINE
  5
C1
330
87
100
AcDbEntity
  8
P-SANR-FIXT
100
AcDbSpline
210
0.0
220
0.0
230
1.0
 70
     8
 71
     3
 72
    21
 73
    17
 74
     0
 42
0.000000001
 43
0.0000000001
 40
-1.0
 40
-1.0
 40
-1.0
 40
-1.0
 40
-0.8333333333333332
 40
-0.75
 40
-0.7083333333333333
 40
-0.6666666666666666
 40
-0.625
 40
-0.5833333333333333
 40
-0.5
 40
-0.4166666666666666
 40
-0.375
 40
-0.3333333333333333
 40
-0.2916666666666666
 40
-0.25
 40
-0.1666666666666666
 40
0.0
 40
0.0
 40
0.0
 40
0.0
 10
657.3977853587118
 20
2158.376816569139
 30
0.0
 10
657.6639081258806
 20
2158.139221472234
 30
0.0
 10
658.026619151902
 20
2157.73463327382
 30
0.0
 10
658.4059897177862
 20
2157.185899712853
 30
0.0
 10
658.6129981749433
 20
2156.851031901284
 30
0.0
 10
658.7638870776601
 20
2156.590472868549
 30
0.0
 10
658.9115465509324
 20
2156.316601997815
 30
0.0
 10
659.1055319903887
 20
2155.931876414027
 30
0.0
 10
659.3432134148124
 20
2155.423531887663
 30
0.0
 10
659.5749165842875
 20
2154.895369440255
 30
0.0
 10
659.755655802331
 20
2154.470538597778
 30
0.0
 10
659.8881585394535
 20
2154.154102896439
 30
0.0
 10
660.0180009012128
 20
2153.838250110949
 30
0.0
 10
660.1891382032938
 20
2153.412701404231
 30
0.0
 10
660.4831961039336
 20
2152.660024833452
 30
0.0
 10
660.7282826424789
 20
2152.000920652503
 30
0.0
 10
660.8902070118094
 20
2151.556037104108
 30
0.0
  0
SPLINE
  5
C2
330
87
100
AcDbEntity
  8
P-SANR-FIXT
100
AcDbSpline
210
0.0
220
0.0
230
1.0
 70
     8
 71
     3
 72
     9
 73
     5
 74
     0
 42
0.000000001
 43
0.0000000001
 40
-1.0
 40
-1.0
 40
-1.0
 40
-1.0
 40
-0.5
 40
0.0
 40
0.0
 40
0.0
 40
0.0
 10
660.8902070118094
 20
2151.556037104108
 30
0.0
 10
662.0602901641859
 20
2148.341260064068
 30
0.0
 10
664.1239141042676
 20
2141.748791711506
 30
0.0
 10
666.0558536372846
 20
2134.983871987999
 30
0.0
 10
667.0597931157346
 20
2131.584101429581
 30
0.0
  0
LINE
  5
C3
330
87
100
AcDbEntity
  8
P-SANR-FIXT
100
AcDbLine
 10
667.0597931157344
 20
2131.584101429583
 30
0.0
 11
659.2441554112404
 21
2128.739441943339
 31
0.0
  0
SPLINE
  5
C4
330
87
100
AcDbEntity
  8
P-SANR-FIXT
100
AcDbSpline
210
0.0
220
0.0
230
1.0
 70
     8
 71
     3
 72
    23
 73
    19
 74
     0
 42
0.000000001
 43
0.0000000001
 40
-1.0
 40
-1.0
 40
-1.0
 40
-1.0
 40
-0.75
 40
-0.6875
 40
-0.625
 40
-0.5625
 40
-0.53125
 40
-0.5
 40
-0.46875
 40
-0.4375
 40
-0.375
 40
-0.3125
 40
-0.28125
 40
-0.25
 40
-0.21875
 40
-0.1875
 40
-0.125
 40
0.0
 40
0.0
 40
0.0
 40
0.0
 10
659.244155411241
 20
2128.739441943336
 30
0.0
 10
658.7378442148158
 20
2131.215127750798
 30
0.0
 10
658.1770155477085
 20
2134.320857537757
 30
0.0
 10
657.5766707539947
 20
2138.061428182876
 30
0.0
 10
657.2865336446024
 20
2139.934318897037
 30
0.0
 10
657.065208234658
 20
2141.49620866832
 30
0.0
 10
656.9028660379861
 20
2142.74617284767
 30
0.0
 10
656.7934679494523
 20
2143.68285771338
 30
0.0
 10
656.6816207755888
 20
2144.621931608785
 30
0.0
 10
656.5190075680694
 20
2145.879153028348
 30
0.0
 10
656.3197805433305
 20
2147.453312607841
 30
0.0
 10
656.1739831388105
 20
2149.017176514924
 30
0.0
 10
656.1151818856671
 20
2150.252580352829
 30
0.0
 10
656.108581881656
 20
2151.16758974789
 30
0.0
 10
656.1318189477336
 20
2152.07157179599
 30
0.0
 10
656.1829845444309
 20
2153.265942193308
 30
0.0
 10
656.3271253354391
 20
2155.320972692944
 30
0.0
 10
656.5062506938115
 20
2157.010565039614
 30
0.0
 10
656.605373556486
 20
2158.088402259848
 30
0.0
  0
LINE
  5
C5
330
87
100
AcDbEntity
  8
P-SANR-FIXT
100
AcDbLine
 10
681.048889000603
 20
2132.818696680475
 30
0.0
 11
696.3879310290935
 21
2138.401651401004
 31
0.0
  0
LINE
  5
C6
330
87
100
AcDbEntity
  8
P-SANR-FIXT
100
AcDbLine
 10
667.0210695412828
 20
1969.983339501635
 30
0.0
 11
681.5270748057769
 21
1969.983339501635
 31
0.0
  0
LINE
  5
C7
330
87
100
AcDbEntity
  8
P-SANR-FIXT
100
AcDbLine
 10
681.5270748057768
 20
2030.016660498381
 30
0.0
 11
667.0210695412968
 21
2030.016660498381
 31
0.0
  0
LINE
  5
C8
330
87
100
AcDbEntity
  8
P-SANR-FIXT
100
AcDbLine
 10
681.5270748057912
 20
1969.983339501635
 30
0.0
 11
681.6541549441763
 21
1970.202196599835
 31
0.0
  0
LINE
  5
C9
330
87
100
AcDbEntity
  8
P-SANR-FIXT
100
AcDbLine
 10
681.6774719319117
 20
1970.242353058108
 30
0.0
 11
683.2787092593159
 21
1973.000000000101
 31
0.0
  0
LINE
  5
CA
330
87
100
AcDbEntity
  8
P-SANR-FIXT
100
AcDbLine
 10
683.2787092593158
 20
2026.99999999989
 30
0.0
 11
681.6774719318971
 21
2029.757646941907
 31
0.0
  0
LINE
  5
CB
330
87
100
AcDbEntity
  8
P-SANR-FIXT
100
AcDbLine
 10
681.6541549441618
 20
2029.797803400181
 30
0.0
 11
681.5270748057768
 21
2030.016660498381
 31
0.0
  0
LINE
  5
CC
330
87
100
AcDbEntity
  8
P-SANR-FIXT
100
AcDbLine
 10
663.2787092593034
 20
1976.446444086184
 30
0.0
 11
666.8711019473661
 21
1970.242335474964
 31
0.0
  0
LINE
  5
CD
330
87
100
AcDbEntity
  8
P-SANR-FIXT
100
AcDbLine
 10
666.894160051824
 20
1970.202513830491
 30
0.0
 11
667.0210695412974
 21
1969.983339501609
 31
0.0
  0
LINE
  5
CE
330
87
100
AcDbEntity
  8
P-SANR-FIXT
100
AcDbLine
 10
667.0210695412971
 20
2030.016660498381
 30
0.0
 11
666.894160051838
 21
2029.797486169524
 31
0.0
  0
LINE
  5
CF
330
87
100
AcDbEntity
  8
P-SANR-FIXT
100
AcDbLine
 10
666.8711019473798
 20
2029.757664525052
 30
0.0
 11
663.2787092593031
 21
2023.553555913807
 31
0.0
  0
LINE
  5
D0
330
87
100
AcDbEntity
  8
P-SANR-FIXT
100
AcDbLine
 10
663.2787092593019
 20
1976.446444086183
 30
0.0
 11
663.2787092593019
 21
2023.553555913805
 31
0.0
  0
LINE
  5
D1
330
87
100
AcDbEntity
  8
P-SANR-FIXT
100
AcDbLine
 10
683.2787092593145
 20
2026.99999999989
 30
0.0
 11
683.2787092593145
 21
2023.382685902083
 31
0.0
  0
LINE
  5
D2
330
87
100
AcDbEntity
  8
P-SANR-FIXT
100
AcDbLine
 10
683.2787092593145
 20
2023.382685902083
 30
0.0
 11
683.2787092593145
 21
1999.999999999994
 31
0.0
  0
LINE
  5
D3
330
87
100
AcDbEntity
  8
P-SANR-FIXT
100
AcDbLine
 10
683.2787092593143
 20
1999.999999999994
 30
0.0
 11
683.2787092593146
 21
1976.617314097906
 31
0.0
  0
LINE
  5
D4
330
87
100
AcDbEntity
  8
P-SANR-FIXT
100
AcDbLine
 10
683.2787092593146
 20
1976.617314097906
 30
0.0
 11
683.2787092593146
 21
1973.0000000001
 31
0.0
  0
SPLINE
  5
D5
330
87
100
AcDbEntity
  8
P-SANR-FIXT
100
AcDbSpline
210
0.0
220
0.0
230
1.0
 70
     8
 71
     3
 72
     9
 73
     5
 74
     0
 42
0.000000001
 43
0.0000000001
 40
0.0
 40
0.0
 40
0.0
 40
0.0
 40
0.5
 40
1.0
 40
1.0
 40
1.0
 40
1.0
 10
681.5270748057757
 20
1969.983339501634
 30
0.0
 10
681.5286484383425
 20
1969.983339501635
 30
0.0
 10
681.604105925723
 20
1970.16036754486
 30
0.0
 10
681.824183857597
 20
1970.665337641077
 30
0.0
 10
681.9703779346573
 20
1970.98814897325
 30
0.0
  0
SPLINE
  5
D6
330
87
100
AcDbEntity
  8
P-SANR-FIXT
100
AcDbSpline
210
0.0
220
0.0
230
1.0
 70
     8
 71
     3
 72
     9
 73
     5
 74
     0
 42
0.000000001
 43
0.0000000001
 40
0.0
 40
0.0
 40
0.0
 40
0.0
 40
0.5
 40
1.0
 40
1.0
 40
1.0
 40
1.0
 10
666.5790024705478
 20
1970.98814897325
 30
0.0
 10
666.7247940408233
 20
1970.665315144358
 30
0.0
 10
666.9442634562211
 20
1970.160343626931
 30
0.0
 10
667.0195054213125
 20
1969.983339501628
 30
0.0
 10
667.0210695412814
 20
1969.983339501634
 30
0.0
  0
SPLINE
  5
D7
330
87
100
AcDbEntity
  8
P-SANR-FIXT
100
AcDbSpline
210
0.0
220
0.0
230
1.0
 70
     8
 71
     3
 72
     9
 73
     5
 74
     0
 42
0.000000001
 43
0.0000000001
 40
0.0
 40
0.0
 40
0.0
 40
0.0
 40
0.5
 40
1.0
 40
1.0
 40
1.0
 40
1.0
 10
667.0210695412956
 20
2030.016660498381
 30
0.0
 10
667.0195054213266
 20
2030.016660498386
 30
0.0
 10
666.9442634562352
 20
2029.839656373082
 30
0.0
 10
666.7247940408373
 20
2029.334684855656
 30
0.0
 10
666.5790024705619
 20
2029.011851026764
 30
0.0
  0
SPLINE
  5
D8
330
87
100
AcDbEntity
  8
P-SANR-FIXT
100
AcDbSpline
210
0.0
220
0.0
230
1.0
 70
     8
 71
     3
 72
     9
 73
     5
 74
     0
 42
0.000000001
 43
0.0000000001
 40
0.0
 40
0.0
 40
0.0
 40
0.0
 40
0.5
 40
1.0
 40
1.0
 40
1.0
 40
1.0
 10
681.970377934643
 20
2029.011851026764
 30
0.0
 10
681.8241838575802
 20
2029.334662358937
 30
0.0
 10
681.6041059257062
 20
2029.839632455154
 30
0.0
 10
681.5286484383352
 20
2030.016660498378
 30
0.0
 10
681.5270748057754
 20
2030.016660498381
 30
0.0
  0
SPLINE
  5
D9
330
87
100
AcDbEntity
  8
P-SANR-FIXT
100
AcDbSpline
210
0.0
220
0.0
230
1.0
 70
     8
 71
     3
 72
     9
 73
     5
 74
     0
 42
0.000000001
 43
0.0000000001
 40
0.0
 40
0.0
 40
0.0
 40
0.0
 40
0.5
 40
1.0
 40
1.0
 40
1.0
 40
1.0
 10
666.5790024705619
 20
2029.011851026764
 30
0.0
 10
665.7092399303104
 20
2027.115229953839
 30
0.0
 10
664.8394773900622
 20
2023.342220506051
 30
0.0
 10
665.7092399303236
 20
2019.609676454382
 30
0.0
 10
666.5790024705818
 20
2017.753520777577
 30
0.0
  0
SPLINE
  5
DA
330
87
100
AcDbEntity
  8
P-SANR-FIXT
100
AcDbSpline
210
0.0
220
0.0
230
1.0
 70
     8
 71
     3
 72
     9
 73
     5
 74
     0
 42
0.000000001
 43
0.0000000001
 40
0.0
 40
0.0
 40
0.0
 40
0.0
 40
0.5
 40
1.0
 40
1.0
 40
1.0
 40
1.0
 10
681.9703779346228
 20
2017.753520777577
 30
0.0
 10
682.3970022650777
 20
2018.679921467345
 30
0.0
 10
683.0416818163144
 20
2020.544516344549
 30
0.0
 10
683.2692231482057
 20
2022.432698217089
 30
0.0
 10
683.2787092593146
 20
2023.382685902193
 30
0.0
  0
SPLINE
  5
DB
330
87
100
AcDbEntity
  8
P-SANR-FIXT
100
AcDbSpline
210
0.0
220
0.0
230
1.0
 70
     8
 71
     3
 72
     9
 73
     5
 74
     0
 42
0.000000001
 43
0.0000000001
 40
0.0
 40
0.0
 40
0.0
 40
0.0
 40
0.5
 40
1.0
 40
1.0
 40
1.0
 40
1.0
 10
683.2787092593146
 20
2023.382685902193
 30
0.0
 10
683.2692231482059
 20
2024.33267358729
 30
0.0
 10
683.0416818163186
 20
2026.220855459814
 30
0.0
 10
682.3970022650915
 20
2028.085450337003
 30
0.0
 10
681.970377934643
 20
2029.011851026764
 30
0.0
  0
SPLINE
  5
DC
330
87
100
AcDbEntity
  8
P-SANR-FIXT
100
AcDbSpline
210
0.0
220
0.0
230
1.0
 70
     8
 71
     3
 72
     9
 73
     5
 74
     0
 42
0.000000001
 43
0.0000000001
 40
0.0
 40
0.0
 40
0.0
 40
0.0
 40
0.5
 40
1.0
 40
1.0
 40
1.0
 40
1.0
 10
666.5790024705818
 20
2017.753520777577
 30
0.0
 10
666.7247940408607
 20
2017.430686948689
 30
0.0
 10
666.9442634562586
 20
2016.635240041017
 30
0.0
 10
667.0195054213365
 20
2015.582790257801
 30
0.0
 10
667.0210695412955
 20
2015.008330249188
 30
0.0
  0
SPLINE
  5
DD
330
87
100
AcDbEntity
  8
P-SANR-FIXT
100
AcDbSpline
210
0.0
220
0.0
230
1.0
 70
     8
 71
     3
 72
     9
 73
     5
 74
     0
 42
0.000000001
 43
0.0000000001
 40
0.0
 40
0.0
 40
0.0
 40
0.0
 40
0.5
 40
1.0
 40
1.0
 40
1.0
 40
1.0
 10
667.0210695412955
 20
2015.008330249188
 30
0.0
 10
667.0195054213365
 20
2014.433870240578
 30
0.0
 10
666.944263456259
 20
2013.204416332057
 30
0.0
 10
666.7247940408627
 20
2011.903997906967
 30
0.0
 10
666.5790024705846
 20
2011.258330249194
 30
0.0
  0
SPLINE
  5
DE
330
87
100
AcDbEntity
  8
P-SANR-FIXT
100
AcDbSpline
210
0.0
220
0.0
230
1.0
 70
     8
 71
     3
 72
     9
 73
     5
 74
     0
 42
0.000000001
 43
0.0000000001
 40
0.0
 40
0.0
 40
0.0
 40
0.0
 40
0.5
 40
1.0
 40
1.0
 40
1.0
 40
1.0
 10
681.97037793462
 20
2011.258330249194
 30
0.0
 10
681.824183857552
 20
2011.903952913542
 30
0.0
 10
681.6041059256765
 20
2013.204327868905
 30
0.0
 10
681.5286484383222
 20
2014.433831275128
 30
0.0
 10
681.5270748057754
 20
2015.008330249188
 30
0.0
  0
SPLINE
  5
DF
330
87
100
AcDbEntity
  8
P-SANR-FIXT
100
AcDbSpline
210
0.0
220
0.0
230
1.0
 70
     8
 71
     3
 72
     9
 73
     5
 74
     0
 42
0.000000001
 43
0.0000000001
 40
0.0
 40
0.0
 40
0.0
 40
0.0
 40
0.5
 40
1.0
 40
1.0
 40
1.0
 40
1.0
 10
681.5270748057754
 20
2015.008330249188
 30
0.0
 10
681.5286484383222
 20
2015.582829223251
 30
0.0
 10
681.6041059256771
 20
2016.635304586254
 30
0.0
 10
681.8241838575538
 20
2017.430709445402
 30
0.0
 10
681.9703779346228
 20
2017.753520777577
 30
0.0
  0
SPLINE
  5
E0
330
87
100
AcDbEntity
  8
P-SANR-FIXT
100
AcDbSpline
210
0.0
220
0.0
230
1.0
 70
     8
 71
     3
 72
     9
 73
     5
 74
     0
 42
0.000000001
 43
0.0000000001
 40
0.0
 40
0.0
 40
0.0
 40
0.0
 40
0.5
 40
1.0
 40
1.0
 40
1.0
 40
1.0
 10
666.5790024705846
 20
2011.258330249194
 30
0.0
 10
665.7092399303293
 20
2007.465088103346
 30
0.0
 10
664.8394773900733
 20
1999.919069207769
 30
0.0
 10
665.7092399303258
 20
1992.45398110443
 30
0.0
 10
666.5790024705792
 20
1988.741669750821
 30
0.0
  0
SPLINE
  5
E1
330
87
100
AcDbEntity
  8
P-SANR-FIXT
100
AcDbSpline
210
0.0
220
0.0
230
1.0
 70
     8
 71
     3
 72
     9
 73
     5
 74
     0
 42
0.000000001
 43
0.0000000001
 40
0.0
 40
0.0
 40
0.0
 40
0.0
 40
0.5
 40
1.0
 40
1.0
 40
1.0
 40
1.0
 10
681.9703779346256
 20
1988.741669750821
 30
0.0
 10
682.3970022650743
 20
1990.594471130347
 30
0.0
 10
683.0416818163046
 20
1994.323660884736
 30
0.0
 10
683.2692231482004
 20
1998.100024629796
 30
0.0
 10
683.2787092593145
 20
1999.999999999994
 30
0.0
  0
SPLINE
  5
E2
330
87
100
AcDbEntity
  8
P-SANR-FIXT
100
AcDbSpline
210
0.0
220
0.0
230
1.0
 70
     8
 71
     3
 72
     9
 73
     5
 74
     0
 42
0.000000001
 43
0.0000000001
 40
0.0
 40
0.0
 40
0.0
 40
0.0
 40
0.5
 40
1.0
 40
1.0
 40
1.0
 40
1.0
 10
683.2787092593145
 20
1999.999999999994
 30
0.0
 10
683.2692231482002
 20
2001.899975370197
 30
0.0
 10
683.0416818163036
 20
2005.676339115266
 30
0.0
 10
682.3970022650705
 20
2009.405528869663
 30
0.0
 10
681.97037793462
 20
2011.258330249194
 30
0.0
  0
SPLINE
  5
E3
330
87
100
AcDbEntity
  8
P-SANR-FIXT
100
AcDbSpline
210
0.0
220
0.0
230
1.0
 70
     8
 71
     3
 72
     9
 73
     5
 74
     0
 42
0.000000001
 43
0.0000000001
 40
0.0
 40
0.0
 40
0.0
 40
0.0
 40
0.5
 40
1.0
 40
1.0
 40
1.0
 40
1.0
 10
666.5790024705792
 20
1988.741669750821
 30
0.0
 10
666.7247940408555
 20
1988.096002093048
 30
0.0
 10
666.9442634562511
 20
1986.79558366796
 30
0.0
 10
667.019505421333
 20
1985.566129759442
 30
0.0
 10
667.0210695412956
 20
1984.991669750832
 30
0.0
  0
SPLINE
  5
E4
330
87
100
AcDbEntity
  8
P-SANR-FIXT
100
AcDbSpline
210
0.0
220
0.0
230
1.0
 70
     8
 71
     3
 72
     9
 73
     5
 74
     0
 42
0.000000001
 43
0.0000000001
 40
0.0
 40
0.0
 40
0.0
 40
0.0
 40
0.5
 40
1.0
 40
1.0
 40
1.0
 40
1.0
 10
667.0210695412956
 20
1984.991669750832
 30
0.0
 10
667.019505421333
 20
1984.417209742218
 30
0.0
 10
666.9442634562501
 20
1983.364759958999
 30
0.0
 10
666.7247940408516
 20
1982.569313051326
 30
0.0
 10
666.5790024705732
 20
1982.246479222437
 30
0.0
  0
SPLINE
  5
E5
330
87
100
AcDbEntity
  8
P-SANR-FIXT
100
AcDbSpline
210
0.0
220
0.0
230
1.0
 70
     8
 71
     3
 72
     9
 73
     5
 74
     0
 42
0.000000001
 43
0.0000000001
 40
0.0
 40
0.0
 40
0.0
 40
0.0
 40
0.5
 40
1.0
 40
1.0
 40
1.0
 40
1.0
 10
681.9703779346315
 20
1982.246479222437
 30
0.0
 10
681.8241838575633
 20
1982.569290554613
 30
0.0
 10
681.6041059256857
 20
1983.364695413763
 30
0.0
 10
681.5286484383259
 20
1984.417170776768
 30
0.0
 10
681.5270748057754
 20
1984.991669750832
 30
0.0
  0
SPLINE
  5
E6
330
87
100
AcDbEntity
  8
P-SANR-FIXT
100
AcDbSpline
210
0.0
220
0.0
230
1.0
 70
     8
 71
     3
 72
     9
 73
     5
 74
     0
 42
0.000000001
 43
0.0000000001
 40
0.0
 40
0.0
 40
0.0
 40
0.0
 40
0.5
 40
1.0
 40
1.0
 40
1.0
 40
1.0
 10
681.5270748057754
 20
1984.991669750832
 30
0.0
 10
681.5286484383259
 20
1985.566168724891
 30
0.0
 10
681.6041059256846
 20
1986.795672131112
 30
0.0
 10
681.8241838575592
 20
1988.096047086473
 30
0.0
 10
681.9703779346256
 20
1988.741669750821
 30
0.0
  0
SPLINE
  5
E7
330
87
100
AcDbEntity
  8
P-SANR-FIXT
100
AcDbSpline
210
0.0
220
0.0
230
1.0
 70
     8
 71
     3
 72
     9
 73
     5
 74
     0
 42
0.000000001
 43
0.0000000001
 40
0.0
 40
0.0
 40
0.0
 40
0.0
 40
0.5
 40
1.0
 40
1.0
 40
1.0
 40
1.0
 10
666.5790024705732
 20
1982.246479222437
 30
0.0
 10
665.7092399303134
 20
1980.349858149513
 30
0.0
 10
664.8394773900495
 20
1976.576848701725
 30
0.0
 10
665.7092399302966
 20
1972.844304650055
 30
0.0
 10
666.5790024705478
 20
1970.98814897325
 30
0.0
  0
SPLINE
  5
E8
330
87
100
AcDbEntity
  8
P-SANR-FIXT
100
AcDbSpline
210
0.0
220
0.0
230
1.0
 70
     8
 71
     3
 72
     9
 73
     5
 74
     0
 42
0.000000001
 43
0.0000000001
 40
0.0
 40
0.0
 40
0.0
 40
0.0
 40
0.5
 40
1.0
 40
1.0
 40
1.0
 40
1.0
 10
681.9703779346573
 20
1970.98814897325
 30
0.0
 10
682.3970022651073
 20
1971.91454966301
 30
0.0
 10
683.0416818163335
 20
1973.779144540197
 30
0.0
 10
683.2692231482123
 20
1975.66732641272
 30
0.0
 10
683.2787092593146
 20
1976.617314097815
 30
0.0
  0
SPLINE
  5
E9
330
87
100
AcDbEntity
  8
P-SANR-FIXT
100
AcDbSpline
210
0.0
220
0.0
230
1.0
 70
     8
 71
     3
 72
     9
 73
     5
 74
     0
 42
0.000000001
 43
0.0000000001
 40
0.0
 40
0.0
 40
0.0
 40
0.0
 40
0.5
 40
1.0
 40
1.0
 40
1.0
 40
1.0
 10
683.2787092593146
 20
1976.617314097815
 30
0.0
 10
683.2692231482119
 20
1977.56730178292
 30
0.0
 10
683.0416818163284
 20
1979.455483655463
 30
0.0
 10
682.3970022650898
 20
1981.320078532668
 30
0.0
 10
681.9703779346315
 20
1982.246479222437
 30
0.0
  0
LINE
  5
EA
330
87
100
AcDbEntity
  8
P-SANR-FIXT
100
AcDbLine
 10
777.530343712947
 20
1969.983339501635
 30
0.0
 11
792.0363489774411
 21
1969.983339501635
 31
0.0
  0
LINE
  5
EB
330
87
100
AcDbEntity
  8
P-SANR-FIXT
100
AcDbLine
 10
792.0363489774413
 20
2030.016660498381
 30
0.0
 11
777.5303437129616
 21
2030.016660498381
 31
0.0
  0
LINE
  5
EC
330
87
100
AcDbEntity
  8
P-SANR-FIXT
100
AcDbLine
 10
775.7787092594222
 20
1973.000000000101
 30
0.0
 11
777.379946586832
 21
1970.2423530581
 31
0.0
  0
LINE
  5
ED
330
87
100
AcDbEntity
  8
P-SANR-FIXT
100
AcDbLine
 10
777.4032635745627
 20
1970.202196599833
 30
0.0
 11
777.5303437129616
 21
1969.98333950161
 31
0.0
  0
LINE
  5
EE
330
87
100
AcDbEntity
  8
P-SANR-FIXT
100
AcDbLine
 10
777.5303437129617
 20
2030.016660498382
 30
0.0
 11
777.403263574577
 21
2029.797803400183
 31
0.0
  0
LINE
  5
EF
330
87
100
AcDbEntity
  8
P-SANR-FIXT
100
AcDbLine
 10
777.3799465868465
 20
2029.757646941916
 30
0.0
 11
775.7787092594225
 21
2026.99999999989
 31
0.0
  0
LINE
  5
F0
330
87
100
AcDbEntity
  8
P-SANR-FIXT
100
AcDbLine
 10
795.7787092594351
 20
2023.553555913807
 30
0.0
 11
792.1863165713639
 21
2029.757664525043
 31
0.0
  0
LINE
  5
F1
330
87
100
AcDbEntity
  8
P-SANR-FIXT
100
AcDbLine
 10
792.1632584669026
 20
2029.79748616952
 30
0.0
 11
792.0363489774413
 21
2030.016660498381
 31
0.0
  0
LINE
  5
F2
330
87
100
AcDbEntity
  8
P-SANR-FIXT
100
AcDbLine
 10
792.0363489774554
 20
1969.983339501635
 30
0.0
 11
792.1632584669164
 21
1970.202513830496
 31
0.0
  0
LINE
  5
F3
330
87
100
AcDbEntity
  8
P-SANR-FIXT
100
AcDbLine
 10
792.1863165713777
 20
1970.242335474973
 30
0.0
 11
795.778709259435
 21
1976.446444086185
 31
0.0
  0
LINE
  5
F4
330
87
100
AcDbEntity
  8
P-SANR-FIXT
100
AcDbLine
 10
795.7787092594336
 20
2023.553555913806
 30
0.0
 11
795.7787092594335
 21
1976.446444086184
 31
0.0
  0
LINE
  5
F5
330
87
100
AcDbEntity
  8
P-SANR-FIXT
100
AcDbLine
 10
775.7787092594209
 20
1973.0000000001
 30
0.0
 11
775.7787092594209
 21
1976.617314097906
 31
0.0
  0
LINE
  5
F6
330
87
100
AcDbEntity
  8
P-SANR-FIXT
100
AcDbLine
 10
775.7787092594209
 20
1976.617314097906
 30
0.0
 11
775.7787092594207
 21
1999.999999999994
 31
0.0
  0
LINE
  5
F7
330
87
100
AcDbEntity
  8
P-SANR-FIXT
100
AcDbLine
 10
775.7787092594207
 20
1999.999999999994
 30
0.0
 11
775.778709259421
 21
2023.382685902083
 31
0.0
  0
LINE
  5
F8
330
87
100
AcDbEntity
  8
P-SANR-FIXT
100
AcDbLine
 10
775.778709259421
 20
2023.382685902083
 30
0.0
 11
775.778709259421
 21
2026.99999999989
 31
0.0
  0
SPLINE
  5
F9
330
87
100
AcDbEntity
  8
P-SANR-FIXT
100
AcDbSpline
210
0.0
220
0.0
230
1.0
 70
     8
 71
     3
 72
     9
 73
     5
 74
     0
 42
0.000000001
 43
0.0000000001
 40
0.0
 40
0.0
 40
0.0
 40
0.0
 40
0.5
 40
1.0
 40
1.0
 40
1.0
 40
1.0
 10
777.0870405840781
 20
1970.988148973251
 30
0.0
 10
777.2332346611436
 20
1970.665337641072
 30
0.0
 10
777.4533125930203
 20
1970.160367544847
 30
0.0
 10
777.5287700803885
 20
1969.983339501629
 30
0.0
 10
777.5303437129454
 20
1969.983339501634
 30
0.0
  0
SPLINE
  5
FA
330
87
100
AcDbEntity
  8
P-SANR-FIXT
100
AcDbSpline
210
0.0
220
0.0
230
1.0
 70
     8
 71
     3
 72
     9
 73
     5
 74
     0
 42
0.000000001
 43
0.0000000001
 40
0.0
 40
0.0
 40
0.0
 40
0.0
 40
0.5
 40
1.0
 40
1.0
 40
1.0
 40
1.0
 10
792.0363489774397
 20
1969.983339501634
 30
0.0
 10
792.0379130974185
 20
1969.983339501636
 30
0.0
 10
792.1131550625221
 20
1970.160343626944
 30
0.0
 10
792.3326244779172
 20
1970.665315144364
 30
0.0
 10
792.4784160481877
 20
1970.988148973251
 30
0.0
  0
SPLINE
  5
FB
330
87
100
AcDbEntity
  8
P-SANR-FIXT
100
AcDbSpline
210
0.0
220
0.0
230
1.0
 70
     8
 71
     3
 72
     9
 73
     5
 74
     0
 42
0.000000001
 43
0.0000000001
 40
0.0
 40
0.0
 40
0.0
 40
0.0
 40
0.5
 40
1.0
 40
1.0
 40
1.0
 40
1.0
 10
777.5303437129601
 20
2030.016660498381
 30
0.0
 10
777.5287700804029
 20
2030.016660498386
 30
0.0
 10
777.4533125930347
 20
2029.839632455167
 30
0.0
 10
777.2332346611579
 20
2029.334662358943
 30
0.0
 10
777.0870405840924
 20
2029.011851026764
 30
0.0
  0
SPLINE
  5
FC
330
87
100
AcDbEntity
  8
P-SANR-FIXT
100
AcDbSpline
210
0.0
220
0.0
230
1.0
 70
     8
 71
     3
 72
     9
 73
     5
 74
     0
 42
0.000000001
 43
0.0000000001
 40
0.0
 40
0.0
 40
0.0
 40
0.0
 40
0.5
 40
1.0
 40
1.0
 40
1.0
 40
1.0
 10
792.4784160481736
 20
2029.011851026764
 30
0.0
 10
792.3326244779008
 20
2029.334684855651
 30
0.0
 10
792.1131550625058
 20
2029.83965637307
 30
0.0
 10
792.0379130974116
 20
2030.016660498379
 30
0.0
 10
792.0363489774398
 20
2030.016660498381
 30
0.0
  0
SPLINE
  5
FD
330
87
100
AcDbEntity
  8
P-SANR-FIXT
100
AcDbSpline
210
0.0
220
0.0
230
1.0
 70
     8
 71
     3
 72
     9
 73
     5
 74
     0
 42
0.000000001
 43
0.0000000001
 40
0.0
 40
0.0
 40
0.0
 40
0.0
 40
0.5
 40
1.0
 40
1.0
 40
1.0
 40
1.0
 10
777.0870405840924
 20
2029.011851026764
 30
0.0
 10
776.660416253644
 20
2028.085450337004
 30
0.0
 10
776.0157367024167
 20
2026.220855459815
 30
0.0
 10
775.7881953705296
 20
2024.33267358729
 30
0.0
 10
775.7787092594209
 20
2023.382685902193
 30
0.0
  0
SPLINE
  5
FE
330
87
100
AcDbEntity
  8
P-SANR-FIXT
100
AcDbSpline
210
0.0
220
0.0
230
1.0
 70
     8
 71
     3
 72
     9
 73
     5
 74
     0
 42
0.000000001
 43
0.0000000001
 40
0.0
 40
0.0
 40
0.0
 40
0.0
 40
0.5
 40
1.0
 40
1.0
 40
1.0
 40
1.0
 10
775.7787092594209
 20
2023.382685902193
 30
0.0
 10
775.7881953705298
 20
2022.432698217089
 30
0.0
 10
776.0157367024206
 20
2020.544516344549
 30
0.0
 10
776.6604162536575
 20
2018.679921467345
 30
0.0
 10
777.0870405841125
 20
2017.753520777578
 30
0.0
  0
SPLINE
  5
FF
330
87
100
AcDbEntity
  8
P-SANR-FIXT
100
AcDbSpline
210
0.0
220
0.0
230
1.0
 70
     8
 71
     3
 72
     9
 73
     5
 74
     0
 42
0.000000001
 43
0.0000000001
 40
0.0
 40
0.0
 40
0.0
 40
0.0
 40
0.5
 40
1.0
 40
1.0
 40
1.0
 40
1.0
 10
792.4784160481534
 20
2017.753520777578
 30
0.0
 10
793.3481785884115
 20
2019.609676454382
 30
0.0
 10
794.2179411286732
 20
2023.342220506051
 30
0.0
 10
793.348178588425
 20
2027.11522995384
 30
0.0
 10
792.4784160481736
 20
2029.011851026764
 30
0.0
  0
SPLINE
  5
100
330
87
100
AcDbEntity
  8
P-SANR-FIXT
100
AcDbSpline
210
0.0
220
0.0
230
1.0
 70
     8
 71
     3
 72
     9
 73
     5
 74
     0
 42
0.000000001
 43
0.0000000001
 40
0.0
 40
0.0
 40
0.0
 40
0.0
 40
0.5
 40
1.0
 40
1.0
 40
1.0
 40
1.0
 10
777.0870405841125
 20
2017.753520777578
 30
0.0
 10
777.2332346611814
 20
2017.430709445402
 30
0.0
 10
777.4533125930582
 20
2016.635304586255
 30
0.0
 10
777.5287700804129
 20
2015.582829223251
 30
0.0
 10
777.5303437129598
 20
2015.008330249189
 30
0.0
  0
SPLINE
  5
101
330
87
100
AcDbEntity
  8
P-SANR-FIXT
100
AcDbSpline
210
0.0
220
0.0
230
1.0
 70
     8
 71
     3
 72
     9
 73
     5
 74
     0
 42
0.000000001
 43
0.0000000001
 40
0.0
 40
0.0
 40
0.0
 40
0.0
 40
0.5
 40
1.0
 40
1.0
 40
1.0
 40
1.0
 10
777.5303437129598
 20
2015.008330249189
 30
0.0
 10
777.5287700804129
 20
2014.433831275129
 30
0.0
 10
777.4533125930587
 20
2013.204327868905
 30
0.0
 10
777.2332346611831
 20
2011.903952913542
 30
0.0
 10
777.0870405841152
 20
2011.258330249194
 30
0.0
  0
SPLINE
  5
102
330
87
100
AcDbEntity
  8
P-SANR-FIXT
100
AcDbSpline
210
0.0
220
0.0
230
1.0
 70
     8
 71
     3
 72
     9
 73
     5
 74
     0
 42
0.000000001
 43
0.0000000001
 40
0.0
 40
0.0
 40
0.0
 40
0.0
 40
0.5
 40
1.0
 40
1.0
 40
1.0
 40
1.0
 10
792.4784160481506
 20
2011.258330249194
 30
0.0
 10
792.3326244778726
 20
2011.903997906968
 30
0.0
 10
792.1131550624762
 20
2013.204416332057
 30
0.0
 10
792.0379130973986
 20
2014.433870240578
 30
0.0
 10
792.0363489774397
 20
2015.008330249189
 30
0.0
  0
SPLINE
  5
103
330
87
100
AcDbEntity
  8
P-SANR-FIXT
100
AcDbSpline
210
0.0
220
0.0
230
1.0
 70
     8
 71
     3
 72
     9
 73
     5
 74
     0
 42
0.000000001
 43
0.0000000001
 40
0.0
 40
0.0
 40
0.0
 40
0.0
 40
0.5
 40
1.0
 40
1.0
 40
1.0
 40
1.0
 10
792.0363489774397
 20
2015.008330249189
 30
0.0
 10
792.0379130973986
 20
2015.582790257802
 30
0.0
 10
792.1131550624766
 20
2016.635240041018
 30
0.0
 10
792.3326244778744
 20
2017.43068694869
 30
0.0
 10
792.4784160481534
 20
2017.753520777578
 30
0.0
  0
SPLINE
  5
104
330
87
100
AcDbEntity
  8
P-SANR-FIXT
100
AcDbSpline
210
0.0
220
0.0
230
1.0
 70
     8
 71
     3
 72
     9
 73
     5
 74
     0
 42
0.000000001
 43
0.0000000001
 40
0.0
 40
0.0
 40
0.0
 40
0.0
 40
0.5
 40
1.0
 40
1.0
 40
1.0
 40
1.0
 10
777.0870405841152
 20
2011.258330249194
 30
0.0
 10
776.6604162536647
 20
2009.405528869664
 30
0.0
 10
776.0157367024317
 20
2005.676339115267
 30
0.0
 10
775.7881953705349
 20
2001.899975370198
 30
0.0
 10
775.7787092594207
 20
1999.999999999995
 30
0.0
  0
SPLINE
  5
105
330
87
100
AcDbEntity
  8
P-SANR-FIXT
100
AcDbSpline
210
0.0
220
0.0
230
1.0
 70
     8
 71
     3
 72
     9
 73
     5
 74
     0
 42
0.000000001
 43
0.0000000001
 40
0.0
 40
0.0
 40
0.0
 40
0.0
 40
0.5
 40
1.0
 40
1.0
 40
1.0
 40
1.0
 10
775.7787092594207
 20
1999.999999999995
 30
0.0
 10
775.7881953705348
 20
1998.100024629797
 30
0.0
 10
776.0157367024305
 20
1994.323660884736
 30
0.0
 10
776.660416253661
 20
1990.594471130347
 30
0.0
 10
777.0870405841097
 20
1988.741669750821
 30
0.0
  0
SPLINE
  5
106
330
87
100
AcDbEntity
  8
P-SANR-FIXT
100
AcDbSpline
210
0.0
220
0.0
230
1.0
 70
     8
 71
     3
 72
     9
 73
     5
 74
     0
 42
0.000000001
 43
0.0000000001
 40
0.0
 40
0.0
 40
0.0
 40
0.0
 40
0.5
 40
1.0
 40
1.0
 40
1.0
 40
1.0
 10
792.4784160481559
 20
1988.741669750821
 30
0.0
 10
793.3481785884094
 20
1992.453981104431
 30
0.0
 10
794.217941128662
 20
1999.919069207769
 30
0.0
 10
793.3481785884058
 20
2007.465088103346
 30
0.0
 10
792.4784160481506
 20
2011.258330249194
 30
0.0
  0
SPLINE
  5
107
330
87
100
AcDbEntity
  8
P-SANR-FIXT
100
AcDbSpline
210
0.0
220
0.0
230
1.0
 70
     8
 71
     3
 72
     9
 73
     5
 74
     0
 42
0.000000001
 43
0.0000000001
 40
0.0
 40
0.0
 40
0.0
 40
0.0
 40
0.5
 40
1.0
 40
1.0
 40
1.0
 40
1.0
 10
777.0870405841097
 20
1988.741669750821
 30
0.0
 10
777.233234661176
 20
1988.096047086473
 30
0.0
 10
777.4533125930505
 20
1986.795672131113
 30
0.0
 10
777.5287700804093
 20
1985.566168724892
 30
0.0
 10
777.5303437129596
 20
1984.991669750832
 30
0.0
  0
SPLINE
  5
108
330
87
100
AcDbEntity
  8
P-SANR-FIXT
100
AcDbSpline
210
0.0
220
0.0
230
1.0
 70
     8
 71
     3
 72
     9
 73
     5
 74
     0
 42
0.000000001
 43
0.0000000001
 40
0.0
 40
0.0
 40
0.0
 40
0.0
 40
0.5
 40
1.0
 40
1.0
 40
1.0
 40
1.0
 10
777.5303437129596
 20
1984.991669750832
 30
0.0
 10
777.5287700804093
 20
1984.417170776769
 30
0.0
 10
777.4533125930495
 20
1983.364695413763
 30
0.0
 10
777.233234661172
 20
1982.569290554613
 30
0.0
 10
777.0870405841037
 20
1982.246479222437
 30
0.0
  0
SPLINE
  5
109
330
87
100
AcDbEntity
  8
P-SANR-FIXT
100
AcDbSpline
210
0.0
220
0.0
230
1.0
 70
     8
 71
     3
 72
     9
 73
     5
 74
     0
 42
0.000000001
 43
0.0000000001
 40
0.0
 40
0.0
 40
0.0
 40
0.0
 40
0.5
 40
1.0
 40
1.0
 40
1.0
 40
1.0
 10
792.4784160481619
 20
1982.246479222437
 30
0.0
 10
792.3326244778837
 20
1982.569313051326
 30
0.0
 10
792.1131550624851
 20
1983.364759959
 30
0.0
 10
792.0379130974022
 20
1984.417209742218
 30
0.0
 10
792.0363489774396
 20
1984.991669750832
 30
0.0
  0
SPLINE
  5
10A
330
87
100
AcDbEntity
  8
P-SANR-FIXT
100
AcDbSpline
210
0.0
220
0.0
230
1.0
 70
     8
 71
     3
 72
     9
 73
     5
 74
     0
 42
0.000000001
 43
0.0000000001
 40
0.0
 40
0.0
 40
0.0
 40
0.0
 40
0.5
 40
1.0
 40
1.0
 40
1.0
 40
1.0
 10
792.0363489774396
 20
1984.991669750832
 30
0.0
 10
792.0379130974022
 20
1985.566129759442
 30
0.0
 10
792.1131550624841
 20
1986.795583667961
 30
0.0
 10
792.3326244778798
 20
1988.096002093048
 30
0.0
 10
792.4784160481559
 20
1988.741669750821
 30
0.0
  0
SPLINE
  5
10B
330
87
100
AcDbEntity
  8
P-SANR-FIXT
100
AcDbSpline
210
0.0
220
0.0
230
1.0
 70
     8
 71
     3
 72
     9
 73
     5
 74
     0
 42
0.000000001
 43
0.0000000001
 40
0.0
 40
0.0
 40
0.0
 40
0.0
 40
0.5
 40
1.0
 40
1.0
 40
1.0
 40
1.0
 10
792.4784160481877
 20
1970.988148973251
 30
0.0
 10
793.348178588439
 20
1972.884770046175
 30
0.0
 10
794.2179411286859
 20
1976.657779493964
 30
0.0
 10
793.3481785884217
 20
1980.390323545633
 30
0.0
 10
792.4784160481619
 20
1982.246479222437
 30
0.0
  0
SPLINE
  5
10C
330
87
100
AcDbEntity
  8
P-SANR-FIXT
100
AcDbSpline
210
0.0
220
0.0
230
1.0
 70
     8
 71
     3
 72
     9
 73
     5
 74
     0
 42
0.000000001
 43
0.0000000001
 40
0.0
 40
0.0
 40
0.0
 40
0.0
 40
0.5
 40
1.0
 40
1.0
 40
1.0
 40
1.0
 10
777.0870405841037
 20
1982.246479222437
 30
0.0
 10
776.6604162536455
 20
1981.320078532669
 30
0.0
 10
776.0157367024068
 20
1979.455483655463
 30
0.0
 10
775.7881953705235
 20
1977.567301782921
 30
0.0
 10
775.7787092594209
 20
1976.617314097816
 30
0.0
  0
SPLINE
  5
10D
330
87
100
AcDbEntity
  8
P-SANR-FIXT
100
AcDbSpline
210
0.0
220
0.0
230
1.0
 70
     8
 71
     3
 72
     9
 73
     5
 74
     0
 42
0.000000001
 43
0.0000000001
 40
0.0
 40
0.0
 40
0.0
 40
0.0
 40
0.5
 40
1.0
 40
1.0
 40
1.0
 40
1.0
 10
775.7787092594209
 20
1976.617314097816
 30
0.0
 10
775.7881953705232
 20
1975.66732641272
 30
0.0
 10
776.0157367024019
 20
1973.779144540197
 30
0.0
 10
776.6604162536281
 20
1971.91454966301
 30
0.0
 10
777.0870405840781
 20
1970.988148973251
 30
0.0
  0
LINE
  5
10E
330
87
100
AcDbEntity
  8
P-SANR-FIXT
100
AcDbLine
 10
768.2141548954206
 20
2072.124152288611
 30
0.0
 11
767.0385745155792
 21
2071.472517443354
 31
0.0
  0
LINE
  5
10F
330
87
100
AcDbEntity
  8
P-SANR-FIXT
100
AcDbLine
 10
785.3025467383956
 20
2066.235407682834
 30
0.0
 11
784.6509118931393
 21
2067.410988062675
 31
0.0
  0
LINE
  5
110
330
87
100
AcDbEntity
  8
P-SANR-FIXT
100
AcDbLine
 10
767.0385745155791
 20
2071.472517443354
 30
0.0
 11
765.6467231479695
 21
2066.618554880273
 31
0.0
  0
LINE
  5
111
330
87
100
AcDbEntity
  8
P-SANR-FIXT
100
AcDbLine
 10
783.9106953707861
 20
2061.381445119754
 30
0.0
 11
785.3025467383957
 21
2066.235407682834
 31
0.0
  0
LINE
  5
112
330
87
100
AcDbEntity
  8
P-SANR-FIXT
100
AcDbLine
 10
784.6509118931378
 20
2067.410988062675
 30
0.0
 11
768.2141548954191
 21
2072.12415228861
 31
0.0
  0
LINE
  5
113
330
87
100
AcDbEntity
  8
P-SANR-FIXT
100
AcDbLine
 10
767.0385745155776
 20
2071.472517443353
 30
0.0
 11
785.3025467383941
 21
2066.235407682833
 31
0.0
  0
LINE
  5
114
330
87
100
AcDbEntity
  8
P-SANR-FIXT
100
AcDbLine
 10
765.6467231479682
 20
2066.618554880273
 30
0.0
 11
783.9106953707847
 21
2061.381445119752
 31
0.0
  0
LINE
  5
115
330
87
100
AcDbEntity
  8
P-SANR-FIXT
100
AcDbLine
 10
828.6787092594094
 20
2020.949999999951
 30
0.0
 11
795.7787092594351
 21
2020.949999999951
 31
0.0
  0
LINE
  5
116
330
87
100
AcDbEntity
  8
P-SANR-FIXT
100
AcDbLine
 10
795.778709259435
 20
1979.050000000042
 30
0.0
 11
828.6787092594094
 21
1979.050000000042
 31
0.0
  0
LINE
  5
117
330
87
100
AcDbEntity
  8
P-SANR-FIXT
100
AcDbLine
 10
829.2787092594094
 20
2020.34999999995
 30
0.0
 11
828.7432911177003
 21
2020.885418141659
 31
0.0
  0
LINE
  5
118
330
87
100
AcDbEntity
  8
P-SANR-FIXT
100
AcDbLine
 10
828.7273446085873
 20
2020.901364650772
 30
0.0
 11
828.6787092594094
 21
2020.949999999951
 31
0.0
  0
LINE
  5
119
330
87
100
AcDbEntity
  8
P-SANR-FIXT
100
AcDbLine
 10
828.6787092594094
 20
1979.050000000043
 30
0.0
 11
828.7273446085873
 21
1979.09863534922
 31
0.0
  0
LINE
  5
11A
330
87
100
AcDbEntity
  8
P-SANR-FIXT
100
AcDbLine
 10
828.7432911177003
 20
1979.114581858333
 30
0.0
 11
829.2787092594094
 21
1979.650000000043
 31
0.0
  0
LINE
  5
11B
330
87
100
AcDbEntity
  8
P-SANR-FIXT
100
AcDbLine
 10
828.6787092594078
 20
1979.050000000041
 30
0.0
 11
828.6787092594078
 21
2020.949999999949
 31
0.0
  0
LINE
  5
11C
330
87
100
AcDbEntity
  8
P-SANR-FIXT
100
AcDbLine
 10
829.2787092594078
 20
2020.349999999949
 30
0.0
 11
829.2787092594078
 21
1979.650000000042
 31
0.0
  0
LINE
  5
11D
330
87
100
AcDbEntity
  8
P-SANR-FIXT
100
AcDbLine
 10
663.2787092593031
 20
2020.94999999995
 30
0.0
 11
629.8787092593379
 21
2020.94999999995
 31
0.0
  0
LINE
  5
11E
330
87
100
AcDbEntity
  8
P-SANR-FIXT
100
AcDbLine
 10
629.8787092593379
 20
1979.050000000042
 30
0.0
 11
663.2787092593034
 21
1979.050000000042
 31
0.0
  0
LINE
  5
11F
330
87
100
AcDbEntity
  8
P-SANR-FIXT
100
AcDbLine
 10
629.8787092593379
 20
2020.94999999995
 30
0.0
 11
629.8300739101599
 21
2020.901364650772
 31
0.0
  0
LINE
  5
120
330
87
100
AcDbEntity
  8
P-SANR-FIXT
100
AcDbLine
 10
629.8141274010472
 20
2020.885418141659
 30
0.0
 11
629.2787092593378
 21
2020.349999999949
 31
0.0
  0
LINE
  5
121
330
87
100
AcDbEntity
  8
P-SANR-FIXT
100
AcDbLine
 10
629.2787092593378
 20
1979.650000000042
 30
0.0
 11
629.8141274010472
 21
1979.114581858333
 31
0.0
  0
LINE
  5
122
330
87
100
AcDbEntity
  8
P-SANR-FIXT
100
AcDbLine
 10
629.8300739101599
 20
1979.09863534922
 30
0.0
 11
629.8787092593379
 21
1979.050000000042
 31
0.0
  0
LINE
  5
123
330
87
100
AcDbEntity
  8
P-SANR-FIXT
100
AcDbLine
 10
629.2787092593365
 20
1979.650000000041
 30
0.0
 11
629.2787092593365
 21
2020.349999999949
 31
0.0
  0
LINE
  5
124
330
87
100
AcDbEntity
  8
P-SANR-FIXT
100
AcDbLine
 10
629.8787092593365
 20
2020.949999999949
 30
0.0
 11
629.8787092593365
 21
1979.050000000041
 31
0.0
  0
LINE
  5
125
330
87
100
AcDbEntity
  8
P-SANR-FIXT
100
AcDbLine
 10
768.9710819878566
 20
2021.978665097603
 30
0.0
 11
776.9629938093828
 21
2049.849773817896
 31
0.0
  0
LINE
  5
126
330
87
100
AcDbEntity
  8
P-SANR-FIXT
100
AcDbLine
 10
779.4367919128935
 20
2051.221022498138
 30
0.0
 11
780.6135506397725
 21
2051.873310511824
 31
0.0
  0
LINE
  5
127
330
87
100
AcDbEntity
  8
P-SANR-FIXT
100
AcDbLine
 10
780.6165524798834
 20
2051.874974458968
 30
0.0
 11
780.6736909646486
 21
2051.90664683826
 31
0.0
  0
LINE
  5
128
330
87
100
AcDbEntity
  8
P-SANR-FIXT
100
AcDbLine
 10
780.6736909646486
 20
2051.90664683826
 30
0.0
 11
783.2371183737468
 21
2060.846380610486
 31
0.0
  0
LINE
  5
129
330
87
100
AcDbEntity
  8
P-SANR-FIXT
100
AcDbLine
 10
765.9344078468572
 20
2065.807853015192
 30
0.0
 11
763.4235758150749
 21
2057.051541121497
 31
0.0
  0
LINE
  5
12A
330
87
100
AcDbEntity
  8
P-SANR-FIXT
100
AcDbLine
 10
783.2371183737468
 20
2060.846380610486
 30
0.0
 11
782.7571813356618
 21
2061.712209946715
 31
0.0
  0
LINE
  5
12B
330
87
100
AcDbEntity
  8
P-SANR-FIXT
100
AcDbLine
 10
766.8002371830858
 20
2066.287790053277
 30
0.0
 11
765.9344078468572
 21
2065.807853015192
 31
0.0
  0
LWPOLYLINE
  5
12C
330
87
100
AcDbEntity
  8
P-SANR-FIXT
100
AcDbPolyline
 90
       41
 70
   128
 43
0.0
 10
779.4367919128933
 20
2051.221022498138
 10
779.3594705215242
 20
2051.241529793156
 10
779.2813909059471
 20
2051.258928653564
 10
779.2026779768912
 20
2051.2731912449
 10
779.1234576582517
 20
2051.28429475006
 10
779.0438566856388
 20
2051.292221405803
 10
778.9640024036284
 20
2051.296958531171
 10
778.8840225620366
 20
2051.298498547775
 10
778.8040451115489
 20
2051.296838991917
 10
778.7241979990247
 20
2051.29198251853
 10
778.6446089628115
 20
2051.283936896938
 10
778.5654053283885
 20
2051.272714998419
 10
778.4867138046753
 20
2051.258334775616
 10
778.4086602813231
 20
2051.240819233818
 10
778.3313696273189
 20
2051.220196394154
 10
778.2549654912209
 20
2051.196499248772
 10
778.1795701033487
 20
2051.169765708046
 10
778.1053040802389
 20
2051.140038539939
 10
778.0322862316861
 20
2051.107365301579
 10
777.960633370672
 20
2051.071798263177
 10
777.8904601264887
 20
2051.033394324409
 10
777.8218787613574
 20
2050.992214923382
 10
777.7549989908327
 20
2050.948325938355
 10
777.6899278082802
 20
2050.901797582341
 10
777.6267693137111
 20
2050.852704290783
 10
777.5656245472434
 20
2050.801124602477
 10
777.50659132746
 20
2050.747141033919
 10
777.4497640949197
 20
2050.690839947304
 10
777.3952337610716
 20
2050.632311412361
 10
777.3430875628179
 20
2050.57164906226
 10
777.2934089229516
 20
2050.50894994382
 10
777.2462773166989
 20
2050.444314362255
 10
777.2017681445754
 20
2050.377845720708
 10
777.1599526117621
 20
2050.309650354826
 10
777.1208976141912
 20
2050.239837362648
 10
777.0846656315277
 20
2050.168518430067
 10
777.0513146272144
 20
2050.095807652162
 10
777.0208979557438
 20
2050.021821350668
 10
776.9934642773019
 20
2049.946677887883
 10
776.9690574799221
 20
2049.870497477318
 10
776.9629938093827
 20
2049.849773817896
  0
LWPOLYLINE
  5
12D
330
87
100
AcDbEntity
  8
P-SANR-FIXT
100
AcDbPolyline
 90
       38
 70
   128
 43
0.0
 10
731.1874609302626
 20
1960.579823178237
 10
730.9603533589839
 20
1960.502270154586
 10
730.7303261557587
 20
1960.433861045646
 10
730.4977473150424
 20
1960.374705291398
 10
730.262988913366
 20
1960.32489752843
 10
730.0264265140929
 20
1960.284517438537
 10
729.7884385665978
 20
1960.25362962125
 10
729.5494058008292
 20
1960.232283490487
 10
729.3097106182209
 20
1960.220513195504
 10
729.069736479933
 20
1960.218337566262
 10
728.8298672933952
 20
1960.225760083303
 10
728.5904867981362
 20
1960.242768872184
 10
728.3519779518837
 20
1960.26933672247
 10
728.1147223179122
 20
1960.305421131269
 10
727.8790994546243
 20
1960.350964371225
 10
727.6454863083379
 20
1960.405893582868
 10
727.4142566102523
 20
1960.470120891178
 10
727.1857802785578
 20
1960.543543546162
 10
726.960422826646
 20
1960.626044087237
 10
726.7385447783665
 20
1960.717490531133
 10
726.5205010912653
 20
1960.817736583049
 10
726.3066405887276
 20
1960.926621870688
 10
726.0973054019371
 20
1961.043972200814
 10
725.8928304225364
 20
1961.169599837935
 10
725.6935427668735
 20
1961.303303804631
 10
725.4997612526851
 20
1961.444870203075
 10
725.3117958890564
 20
1961.59407255723
 10
725.1299473804715
 20
1961.750672175158
 10
724.9545066457525
 20
1961.914418530876
 10
724.7857543526488
 20
1962.085049665144
 10
724.6239604688314
 20
1962.262292604549
 10
724.4693838300003
 20
1962.445863798197
 10
724.3222717258025
 20
1962.635469571337
 10
724.1828595042229
 20
1962.83080659518
 10
724.051370195076
 20
1963.031562372157
 10
723.9280141532072
 20
1963.237415735851
 10
723.8129887219687
 20
1963.448037364792
 10
723.7466893681142
 20
1963.579334628
  0
LWPOLYLINE
  5
12E
330
87
100
AcDbEntity
  8
P-SANR-FIXT
100
AcDbPolyline
 90
       25
 70
   128
 43
0.0
 10
772.3510275025319
 20
1978.029616379462
 10
772.3410956826297
 20
1977.99718994708
 10
772.2616944375991
 20
1977.770721930139
 10
772.1733003998838
 20
1977.547610266379
 10
772.0760549810874
 20
1977.328211886866
 10
771.9701137531351
 20
1977.112877782207
 10
771.8556461993926
 20
1976.901952441032
 10
771.7328354435274
 20
1976.695773298892
 10
771.60187795655
 20
1976.494670198433
 10
771.4629832425043
 20
1976.298964861716
 10
771.3163735033027
 20
1976.108970375531
 10
771.1622832832533
 20
1975.924990690525
 10
771.0009590938374
 20
1975.747320134948
 10
770.8326590193441
 20
1975.576242943789
 10
770.6576523039902
 20
1975.412032804057
 10
770.4762189211876
 20
1975.254952416948
 10
770.2886491256451
 20
1975.105253077571
 10
770.095242989023
 20
1974.963174272937
 10
769.8963099198817
 20
1974.828943298822
 10
769.6921681686953
 20
1974.702774896153
 10
769.4831443187179
 20
1974.584870907458
 10
769.2695727635197
 20
1974.475419953968
 10
769.0517951720301
 20
1974.37459713386
 10
768.8301599419381
 20
1974.282563742139
 10
768.6925704100636
 20
1974.23056666178
  0
LWPOLYLINE
  5
12F
330
87
100
AcDbEntity
  8
P-SANR-FIXT
100
AcDbPolyline
 90
        4
 70
   128
 43
0.0
 10
768.6925704100636
 20
1974.23056666178
 10
768.6775703664377
 20
1974.225107092388
 10
768.6325942324292
 20
1974.208737118356
 10
768.5577139602587
 20
1974.181482928153
  0
LWPOLYLINE
  5
130
330
87
100
AcDbEntity
  8
P-SANR-FIXT
100
AcDbPolyline
 90
        5
 70
   128
 43
0.0
 10
731.3289470618335
 20
1960.631319918691
 10
731.2841509147586
 20
1960.615015454546
 10
731.2230200478477
 20
1960.592765638595
 10
731.1918323811864
 20
1960.581414256254
 10
731.1874609302625
 20
1960.579823178237
  0
LWPOLYLINE
  5
131
330
87
100
AcDbEntity
  8
P-SANR-FIXT
100
AcDbPolyline
 90
       80
 70
   128
 43
0.0
 10
731.1874609302625
 20
1960.579823178237
 10
731.2024609738887
 20
1960.585282747629
 10
731.247437107897
 20
1960.601652721662
 10
731.3223173800674
 20
1960.628906911865
 10
731.4269819979383
 20
1960.667001717351
 10
731.5612635204482
 20
1960.715876194556
 10
731.7249471258064
 20
1960.775452154744
 10
731.9177709551612
 20
1960.845634289087
 10
732.1394265315197
 20
1960.926310321141
 10
732.3895592532436
 20
1961.017351186464
 10
732.6677689613366
 20
1961.118611239094
 10
732.9736105796146
 20
1961.229928484547
 10
733.3065948267305
 20
1961.351124838977
 10
733.6661889989223
 20
1961.48200641407
 10
734.0518178222234
 20
1961.622363827227
 10
734.4628643727799
 20
1961.771972536527
 10
734.8986710637957
 20
1961.930593199951
 10
735.3585406975329
 20
1962.097972058274
 10
735.8417375806777
 20
1962.273841341028
 10
736.3474887012931
 20
1962.45791969488
 10
736.8749849654744
 20
1962.649912633728
 10
737.4233824917252
 20
1962.849513009828
 10
737.9918039609888
 20
1963.056401505158
 10
738.5793400201714
 20
1963.270247142259
 10
739.1850507369122
 20
1963.490707813729
 10
739.8079671032763
 20
1963.717430829522
 10
740.4470925859587
 20
1963.95005348118
 10
741.1014047205273
 20
1964.188203622082
 10
741.7698567471451
 20
1964.431500262806
 10
742.4513792851658
 20
1964.679554180627
 10
743.1448820439117
 20
1964.931968542192
 10
743.8492555669085
 20
1965.188339538368
 10
744.5633730067777
 20
1965.448257030251
 10
745.2860919279522
 20
1965.711305205299
 10
746.0162561343302
 20
1965.977063242547
 10
746.7526975189417
 20
1966.245105985828
 10
747.4942379326702
 20
1966.51500462393
 10
748.2396910690403
 20
1966.786327376609
 10
748.9878643620557
 20
1967.05864018534
 10
749.7375608940494
 20
1967.331507407719
 10
750.4875813104968
 20
1967.604492514397
 10
751.2367257387275
 20
1967.877158787439
 10
751.9837957074651
 20
1968.149070018974
 10
752.7275960641263
 20
1968.419791209035
 10
753.4669368868092
 20
1968.68888926147
 10
754.2006353879151
 20
1968.955933676798
 10
754.9275178063565
 20
1969.220497240922
 10
755.6464212853236
 20
1969.482156708577
 10
756.3561957326079
 20
1969.740493480431
 10
757.0557056605046
 20
1969.995094272759
 10
757.7438320023498
 20
1970.245551778605
 10
758.4194739027886
 20
1970.491465319388
 10
759.08155047891
 20
1970.732441485901
 10
759.7290025494274
 20
1970.968094767683
 10
760.3607943291437
 20
1971.198048169754
 10
760.9759150859864
 20
1971.421933815724
 10
761.5733807579637
 20
1971.63939353632
 10
762.1522355274525
 20
1971.850079442377
 10
762.7115533503046
 20
1972.053654481389
 10
763.2504394373177
 20
1972.249792976722
 10
763.7680316857088
 20
1972.438181148624
 10
764.2635020582946
 20
1972.618517616206
 10
764.7360579081736
 20
1972.79051387959
 10
765.1849432467924
 20
1972.953894781445
 10
765.6094399533664
 20
1973.108398947183
 10
766.0088689237194
 20
1973.253779203095
 10
766.3825911567059
 20
1973.389802971786
 10
766.7300087764763
 20
1973.516252644241
 10
767.0505659889508
 20
1973.632925927962
 10
767.3437499709713
 20
1973.739636170581
 10
767.6090916907092
 20
1973.836212658474
 10
767.8461666580162
 20
1973.922500889863
 10
768.0545956035175
 20
1973.998362821985
 10
768.2340450853634
 20
1974.063677091932
 10
768.3842280226627
 20
1974.118339210804
 10
768.5049041547537
 20
1974.162261730871
 10
768.5958804255676
 20
1974.195374385472
 10
768.6570112924784
 20
1974.217624201422
 10
768.6881989591398
 20
1974.228975583763
 10
768.6925704100636
 20
1974.23056666178
  0
LWPOLYLINE
  5
132
330
87
100
AcDbEntity
  8
P-SANR-FIXT
100
AcDbPolyline
 90
        3
 70
   128
 43
0.0
 10
723.7466893681153
 20
1963.579334627998
 10
717.2662214641099
 20
1973.678064091111
 10
714.703777640234
 20
1978.046183024355
  0
LINE
  5
133
330
87
100
AcDbEntity
  8
P-SANR-FIXT
100
AcDbLine
 10
690.1310032727444
 20
2030.614251460363
 30
0.0
 11
688.314638511622
 21
2035.814691387205
 31
0.0
  0
LINE
  5
134
330
87
100
AcDbEntity
  8
P-SANR-FIXT
100
AcDbLine
 10
753.1750166835665
 20
2059.421938425042
 30
0.0
 11
753.8415004495641
 21
2057.721585103609
 31
0.0
  0
LINE
  5
135
330
87
100
AcDbEntity
  8
P-SANR-FIXT
100
AcDbLine
 10
753.0959051870934
 20
2060.202267979326
 30
0.0
 11
753.2560189446344
 21
2061.110318221539
 31
0.0
  0
LINE
  5
136
330
87
100
AcDbEntity
  8
P-SANR-FIXT
100
AcDbLine
 10
687.1673175660177
 20
2037.055998098415
 30
0.0
 11
687.8736552649159
 21
2036.463310395782
 31
0.0
  0
LINE
  5
137
330
87
100
AcDbEntity
  8
P-SANR-FIXT
100
AcDbLine
 10
753.1432311140689
 20
2062.39948902402
 30
0.0
 11
750.8988341133239
 21
2068.565919103859
 31
0.0
  0
LINE
  5
138
330
87
100
AcDbEntity
  8
P-SANR-FIXT
100
AcDbLine
 10
684.1806580375239
 20
2044.282488927736
 30
0.0
 11
686.4250550382689
 21
2038.116058847898
 31
0.0
  0
LINE
  5
139
330
87
100
AcDbEntity
  8
P-SANR-FIXT
100
AcDbLine
 10
750.7860462827578
 20
2069.85508990634
 30
0.0
 11
751.0743463708937
 21
2071.490120954779
 31
0.0
  0
LINE
  5
13A
330
87
100
AcDbEntity
  8
P-SANR-FIXT
100
AcDbLine
 10
682.1665671299193
 20
2046.409740401678
 30
0.0
 11
683.4383955097758
 21
2045.342549677219
 31
0.0
  0
LINE
  5
13B
330
87
100
AcDbEntity
  8
P-SANR-FIXT
100
AcDbLine
 10
750.9615585403281
 20
2072.779291757261
 30
0.0
 11
745.7867503287807
 21
2086.996960468495
 31
0.0
  0
LINE
  5
13C
330
87
100
AcDbEntity
  8
P-SANR-FIXT
100
AcDbLine
 10
676.2494963906235
 20
2061.687469862396
 30
0.0
 11
681.4243046021707
 21
2047.469801151161
 31
0.0
  0
LINE
  5
13D
330
87
100
AcDbEntity
  8
P-SANR-FIXT
100
AcDbLine
 10
745.7867503287807
 20
2086.996960468495
 30
0.0
 11
744.9469727025581
 21
2087.38855520675
 31
0.0
  0
LINE
  5
13E
330
87
100
AcDbEntity
  8
P-SANR-FIXT
100
AcDbLine
 10
676.6581214593273
 20
2062.563769150125
 30
0.0
 11
676.2494963906235
 21
2061.687469862396
 31
0.0
  0
LWPOLYLINE
  5
13F
330
87
100
AcDbEntity
  8
P-SANR-FIXT
100
AcDbPolyline
 90
       15
 70
   128
 43
0.0
 10
688.3146385116215
 20
2035.814691387207
 10
688.2953310504064
 20
2035.86900921134
 10
688.2738668994794
 20
2035.922511494489
 10
688.2502803969033
 20
2035.975112644414
 10
688.2246092760503
 20
2036.026728510495
 10
688.1968946052381
 20
2036.077276518359
 10
688.1671807220274
 20
2036.126675801974
 10
688.1355151622931
 20
2036.174847333025
 10
688.1019485841754
 20
2036.22171404734
 10
688.0665346870389
 20
2036.267200968172
 10
688.0293301255647
 20
2036.311235326152
 10
687.9903944191145
 20
2036.3537466757
 10
687.9497898565127
 20
2036.394667007725
 10
687.9075813963975
 20
2036.433930858427
 10
687.8736552649159
 20
2036.463310395782
  0
LWPOLYLINE
  5
140
330
87
100
AcDbEntity
  8
P-SANR-FIXT
100
AcDbPolyline
 90
       15
 70
   128
 43
0.0
 10
753.0959051870934
 20
2060.202267979326
 10
753.0870322044751
 20
2060.145307692664
 10
753.0804441232353
 20
2060.088038143489
 10
753.0761514828984
 20
2060.030550950862
 10
753.0741611507732
 20
2059.972938082028
 10
753.0744763109668
 20
2059.915291705288
 10
753.07709645929
 20
2059.857704042548
 10
753.0820174040642
 20
2059.800267221782
 10
753.0892312728277
 20
2059.743073129651
 10
753.0987265249295
 20
2059.686213264503
 10
753.1104879699916
 20
2059.629778589991
 10
753.1244967922108
 20
2059.573859389557
 10
753.14073058046
 20
2059.518545121992
 10
753.1591633641411
 20
2059.463924278325
 10
753.1750166835657
 20
2059.421938425043
  0
LWPOLYLINE
  5
141
330
87
100
AcDbEntity
  8
P-SANR-FIXT
100
AcDbPolyline
 90
       15
 70
   128
 43
0.0
 10
687.1673175660177
 20
2037.055998098415
 10
687.092018951742
 20
2037.12179160437
 10
687.019411606823
 20
2037.190543623989
 10
686.9496116875244
 20
2037.262144168705
 10
686.8827308588266
 20
2037.336478692921
 10
686.8188761157892
 20
2037.413428277256
 10
686.7581496123785
 20
2037.492869818791
 10
686.7006484980463
 20
2037.574676228004
 10
686.6464647623089
 20
2037.658716632092
 10
686.5956850875851
 20
2037.744856584336
 10
686.5483907105222
 20
2037.83295827919
 10
686.5046572920341
 20
2037.922880772733
 10
686.4645547962615
 20
2038.014480208161
 10
686.4281473786427
 20
2038.107610045915
 10
686.4250550382693
 20
2038.116058847898
  0
LWPOLYLINE
  5
142
330
87
100
AcDbEntity
  8
P-SANR-FIXT
100
AcDbPolyline
 90
       15
 70
   128
 43
0.0
 10
753.1432311140685
 20
2062.39948902402
 10
753.1755448739233
 20
2062.30486086932
 10
753.2040486693152
 20
2062.20901620131
 10
753.2286969002519
 20
2062.112108351012
 10
753.2494501348217
 20
2062.014292350313
 10
753.266275172277
 20
2061.915724683949
 10
753.2791450961464
 20
2061.81656303916
 10
753.2880393172977
 20
2061.716966053422
 10
753.292943606874
 20
2061.617093060669
 10
753.2938501190584
 20
2061.517103836382
 10
753.2907574036245
 20
2061.417158341992
 10
753.2836704082575
 20
2061.317416468967
 10
753.2726004706382
 20
2061.218037783029
 10
753.2575653003052
 20
2061.119181268874
 10
753.2560189446344
 20
2061.110318221539
  0
LWPOLYLINE
  5
143
330
87
100
AcDbEntity
  8
P-SANR-FIXT
100
AcDbPolyline
 90
       15
 70
   128
 43
0.0
 10
684.1806580375243
 20
2044.282488927736
 10
684.1445860083289
 20
2044.375749184263
 10
684.104813417345
 20
2044.467492346102
 10
684.0614038922334
 20
2044.557571643764
 10
684.0144268789743
 20
2044.645842969591
 10
683.9639575307677
 20
2044.732165108289
 10
683.9100765878046
 20
2044.816399962851
 10
683.8528702480996
 20
2044.89841277548
 10
683.7924300295926
 20
2044.97807234317
 10
683.7288526237405
 20
2045.055251227607
 10
683.6622397408299
 20
2045.129825959039
 10
683.5926979472634
 20
2045.201677233804
 10
683.5203384950763
 20
2045.270690105189
 10
683.4452771439558
 20
2045.336754167324
 10
683.4383955097758
 20
2045.342549677219
  0
LWPOLYLINE
  5
144
330
87
100
AcDbEntity
  8
P-SANR-FIXT
100
AcDbPolyline
 90
       15
 70
   128
 43
0.0
 10
750.7860462827578
 20
2069.85508990634
 10
750.7706554481434
 20
2069.756288140427
 10
750.7592279413905
 20
2069.656949936159
 10
750.7517820440719
 20
2069.557234213472
 10
750.7483296680353
 20
2069.457300496251
 10
750.7488763363458
 20
2069.357308657127
 10
750.7534211744506
 20
2069.25741866171
 10
750.7619569115782
 20
2069.157790312685
 10
750.7744698923701
 20
2069.058582994157
 10
750.7909400987264
 20
2068.959955416673
 10
750.8113411818306
 20
2068.862065363318
 10
750.8356405043014
 20
2068.765069437294
 10
750.8637991924065
 20
2068.669122811392
 10
750.8957721982516
 20
2068.574378979746
 10
750.8988341133236
 20
2068.565919103859
  0
LWPOLYLINE
  5
145
330
87
100
AcDbEntity
  8
P-SANR-FIXT
100
AcDbPolyline
 90
       15
 70
   128
 43
0.0
 10
682.1665671299193
 20
2046.409740401678
 10
682.0912685156435
 20
2046.475533907633
 10
682.0186611707246
 20
2046.544285927252
 10
681.9488612514259
 20
2046.615886471968
 10
681.8819804227282
 20
2046.690220996185
 10
681.8181256796905
 20
2046.76717058052
 10
681.75739917628
 20
2046.846612122054
 10
681.6998980619477
 20
2046.928418531267
 10
681.6457143262105
 20
2047.012458935355
 10
681.5949346514868
 20
2047.0985988876
 10
681.5476402744235
 20
2047.186700582453
 10
681.5039068559357
 20
2047.276623075997
 10
681.4638043601631
 20
2047.368222511424
 10
681.4273969425443
 20
2047.461352349178
 10
681.4243046021707
 20
2047.469801151161
  0
LWPOLYLINE
  5
146
330
87
100
AcDbEntity
  8
P-SANR-FIXT
100
AcDbPolyline
 90
       15
 70
   128
 43
0.0
 10
750.9615585403279
 20
2072.779291757261
 10
750.9938723001827
 20
2072.684663602561
 10
751.0223760955746
 20
2072.588818934551
 10
751.0470243265111
 20
2072.491911084252
 10
751.0677775610812
 20
2072.394095083554
 10
751.0846025985363
 20
2072.295527417189
 10
751.0974725224058
 20
2072.1963657724
 10
751.1063667435571
 20
2072.096768786663
 10
751.1112710331334
 20
2071.99689579391
 10
751.1121775453177
 20
2071.896906569623
 10
751.1090848298838
 20
2071.796961075233
 10
751.1019978345169
 20
2071.697219202208
 10
751.0909278968977
 20
2071.597840516269
 10
751.0758927265645
 20
2071.498984002114
 10
751.0743463708937
 20
2071.490120954779
  0
LINE
  5
147
330
87
100
AcDbEntity
  8
P-SANR-FIXT
100
AcDbLine
 10
766.0674325618701
 20
2052.974025730871
 30
0.0
 11
761.2099002042643
 21
2036.033797225532
 31
0.0
  0
SPLINE
  5
148
330
87
100
AcDbEntity
  8
P-SANR-FIXT
100
AcDbSpline
210
0.0
220
0.0
230
1.0
 70
     8
 71
     3
 72
    27
 73
    23
 74
     0
 42
0.000000001
 43
0.0000000001
 40
0.0
 40
0.0
 40
0.0
 40
0.0
 40
0.0625
 40
0.09375
 40
0.125
 40
0.15625
 40
0.1875
 40
0.21875
 40
0.25
 40
0.28125
 40
0.3125
 40
0.34375
 40
0.375
 40
0.40625
 40
0.4375
 40
0.5
 40
0.5625
 40
0.59375
 40
0.625
 40
0.65625
 40
0.6875
 40
0.7168744586788219
 40
0.7168744586788219
 40
0.7168744586788219
 40
0.7168744586788219
 10
761.2099002042644
 20
2036.033797225532
 30
0.0
 10
761.2718203446607
 20
2035.683085017403
 30
0.0
 10
761.3896669531697
 20
2035.1345226943
 30
0.0
 10
761.5741446958252
 20
2034.363815380316
 30
0.0
 10
761.7228461864187
 20
2033.768652043606
 30
0.0
 10
761.871058019737
 20
2033.153232680372
 30
0.0
 10
762.0152370899914
 20
2032.519869903576
 30
0.0
 10
762.1606121306699
 20
2031.875461854018
 30
0.0
 10
762.3153981681634
 20
2031.226893973893
 30
0.0
 10
762.4757773288266
 20
2030.574026843256
 30
0.0
 10
762.6331855476684
 20
2029.913596954721
 30
0.0
 10
762.7927752757962
 20
2029.249097282658
 30
0.0
 10
762.9587618468391
 20
2028.582695547815
 30
0.0
 10
763.128160285311
 20
2027.914310367837
 30
0.0
 10
763.3514046674705
 20
2027.019200886636
 30
0.0
 10
763.6405782886186
 20
2025.898943883169
 30
0.0
 10
763.9367042018927
 20
2024.77900855239
 30
0.0
 10
764.1741776636745
 20
2023.885133703376
 30
0.0
 10
764.3588091091185
 20
2023.218500635472
 30
0.0
 10
764.544037540472
 20
2022.55420866526
 30
0.0
 10
764.7228909757774
 20
2021.905510409915
 30
0.0
 10
764.8420539962285
 20
2021.480751151892
 30
0.0
 10
764.90081607497
 20
2021.276368697767
 30
0.0
  0
ARC
  5
149
330
87
100
AcDbEntity
  8
P-SANR-FIXT
100
AcDbCircle
 10
946.3503460911542
 20
2163.808854685731
 30
0.0
 40
211.6418405118691
100
AcDbArc
 50
210.3877987305232
 51
210.78170028624
  0
LINE
  5
14A
330
87
100
AcDbEntity
  8
P-SANR-FIXT
100
AcDbLine
 10
764.523889627201
 20
2055.497228416832
 30
0.0
 11
779.436791912892
 21
2051.221022498138
 31
0.0
  0
LINE
  5
14B
330
87
100
AcDbEntity
  8
P-SANR-FIXT
100
AcDbLine
 10
763.8613051909417
 20
2057.020932101747
 30
0.0
 11
763.783563062222
 21
2056.749813079155
 31
0.0
  0
LINE
  5
14C
330
87
100
AcDbEntity
  8
P-SANR-FIXT
100
AcDbLine
 10
780.6736909646473
 20
2051.906646838259
 30
0.0
 11
763.783563062222
 21
2056.749813079155
 31
0.0
  0
LINE
  5
14D
330
87
100
AcDbEntity
  8
P-SANR-FIXT
100
AcDbLine
 10
783.2371183737453
 20
2060.846380610485
 30
0.0
 11
765.9344078468556
 21
2065.807853015191
 31
0.0
  0
SPLINE
  5
14E
330
87
100
AcDbEntity
  8
P-SANR-FIXT
100
AcDbSpline
210
0.0
220
0.0
230
1.0
 70
     8
 71
     3
 72
    12
 73
     8
 74
     0
 42
0.000000001
 43
0.0000000001
 40
-1.0
 40
-1.0
 40
-1.0
 40
-1.0
 40
-0.5714285714285714
 40
-0.4285714285714286
 40
-0.2857142857142857
 40
-0.1428571428571428
 40
0.0
 40
0.0
 40
0.0
 40
0.0
 10
764.523889627201
 20
2055.497228416832
 30
0.0
 10
764.9798802846504
 20
2055.365063539247
 30
0.0
 10
765.5181352008595
 20
2055.007662185692
 30
0.0
 10
765.9434108895328
 20
2054.346913091673
 30
0.0
 10
766.1046448677937
 20
2053.904985258987
 30
0.0
 10
766.1566554844849
 20
2053.433837273452
 30
0.0
 10
766.1102298840811
 20
2053.127514487296
 30
0.0
 10
766.0674325618701
 20
2052.974025730871
 30
0.0
  0
LINE
  5
14F
330
87
100
AcDbEntity
  8
P-SANR-FIXT
100
AcDbLine
 10
770.4544939901179
 20
1980.579585218329
 30
0.0
 11
723.7466893681139
 21
1963.579334627998
 31
0.0
  0
SPLINE
  5
150
330
87
100
AcDbEntity
  8
P-SANR-FIXT
100
AcDbSpline
210
0.0
220
0.0
230
1.0
 70
     8
 71
     3
 72
     9
 73
     5
 74
     0
 42
0.000000001
 43
0.0000000001
 40
-1.0
 40
-1.0
 40
-1.0
 40
-1.0
 40
-0.5
 40
0.0
 40
0.0
 40
0.0
 40
0.0
 10
761.2099002042644
 20
2036.033797225532
 30
0.0
 10
760.1005706134765
 20
2039.697749921154
 30
0.0
 10
757.743090444142
 20
2046.977738336578
 30
0.0
 10
755.1079682992899
 20
2054.161892800357
 30
0.0
 10
753.7209967329845
 20
2057.730011544336
 30
0.0
  0
LINE
  5
151
330
87
100
AcDbEntity
  8
P-SANR-FIXT
100
AcDbLine
 10
745.7867503287793
 20
2086.996960468495
 30
0.0
 11
676.249496390622
 21
2061.687469862395
 31
0.0
  0
LINE
  5
152
330
87
100
AcDbEntity
  8
P-SANR-FIXT
100
AcDbLine
 10
763.8613051909417
 20
2057.020932101747
 30
0.0
 11
753.7209967329845
 21
2057.730011544336
 31
0.0
  0
LINE
  5
153
330
87
100
AcDbEntity
  8
P-SANR-FIXT
100
AcDbLine
 10
775.7787092594222
 20
2024.149999999996
 30
0.0
 11
774.2787092593738
 21
2024.149999999996
 31
0.0
  0
LINE
  5
154
330
87
100
AcDbEntity
  8
P-SANR-FIXT
100
AcDbLine
 10
774.2787092593738
 20
1975.849999999995
 30
0.0
 11
775.7787092594222
 21
1975.849999999995
 31
0.0
  0
LINE
  5
155
330
87
100
AcDbEntity
  8
P-SANR-FIXT
100
AcDbLine
 10
774.2787092593738
 20
2024.149999999996
 30
0.0
 11
774.2428620020445
 21
2024.087910728989
 31
0.0
  0
LINE
  5
156
330
87
100
AcDbEntity
  8
P-SANR-FIXT
100
AcDbLine
 10
774.2357276158683
 20
2024.075553609651
 30
0.0
 11
773.4126838555893
 21
2022.649999999996
 31
0.0
  0
LINE
  5
157
330
87
100
AcDbEntity
  8
P-SANR-FIXT
100
AcDbLine
 10
773.4126838555893
 20
1977.349999999996
 30
0.0
 11
774.2357276158683
 21
1975.92444639034
 31
0.0
  0
LINE
  5
158
330
87
100
AcDbEntity
  8
P-SANR-FIXT
100
AcDbLine
 10
774.2428620020445
 20
1975.912089271002
 30
0.0
 11
774.2787092593738
 21
1975.849999999996
 31
0.0
  0
LINE
  5
159
330
87
100
AcDbEntity
  8
P-SANR-FIXT
100
AcDbLine
 10
772.2868508306695
 20
2021.999999999996
 30
0.0
 11
768.8472075664108
 21
2021.999999999996
 31
0.0
  0
LINE
  5
15A
330
87
100
AcDbEntity
  8
P-SANR-FIXT
100
AcDbLine
 10
686.2754109252553
 20
1977.999999999996
 30
0.0
 11
714.7999013883519
 21
1977.999999999996
 31
0.0
  0
LINE
  5
15B
330
87
100
AcDbEntity
  8
P-SANR-FIXT
100
AcDbLine
 10
772.2740476746641
 20
1977.999999999996
 30
0.0
 11
772.2868508306695
 21
1977.999999999996
 31
0.0
  0
LINE
  5
15C
330
87
100
AcDbEntity
  8
P-SANR-FIXT
100
AcDbLine
 10
685.1423130445696
 20
2022.654194366428
 30
0.0
 11
684.3216909028797
 21
2024.075553609651
 31
0.0
  0
LINE
  5
15D
330
87
100
AcDbEntity
  8
P-SANR-FIXT
100
AcDbLine
 10
684.3145565187519
 20
2024.087910725441
 30
0.0
 11
684.2787092593738
 21
2024.149999999996
 31
0.0
  0
LINE
  5
15E
330
87
100
AcDbEntity
  8
P-SANR-FIXT
100
AcDbLine
 10
684.2787092593738
 20
1975.849999999996
 30
0.0
 11
684.3145565187519
 21
1975.912089274551
 31
0.0
  0
LINE
  5
15F
330
87
100
AcDbEntity
  8
P-SANR-FIXT
100
AcDbLine
 10
684.3216909028797
 20
1975.92444639034
 30
0.0
 11
685.1423130445696
 21
1977.345805633564
 31
0.0
  0
LINE
  5
160
330
87
100
AcDbEntity
  8
P-SANR-FIXT
100
AcDbLine
 10
684.2787092593738
 20
2024.149999999996
 30
0.0
 11
683.2787092593159
 21
2024.149999999996
 31
0.0
  0
LINE
  5
161
330
87
100
AcDbEntity
  8
P-SANR-FIXT
100
AcDbLine
 10
683.2787092593159
 20
1975.849999999996
 30
0.0
 11
684.2787092593738
 21
1975.849999999996
 31
0.0
  0
LWPOLYLINE
  5
162
330
87
100
AcDbEntity
  8
P-SANR-FIXT
100
AcDbPolyline
 90
       28
 70
   128
 43
0.0
 10
773.4126838555893
 20
1977.349999999996
 10
773.3857902420306
 20
1977.394501382397
 10
773.3571385598414
 20
1977.43789171074
 10
773.3267746456016
 20
1977.480101569753
 10
773.2947470750965
 20
1977.521063432667
 10
773.2611070856066
 20
1977.56071176924
 10
773.225908493939
 20
1977.598983150592
 10
773.189207610332
 20
1977.635816350675
 10
773.1510631483697
 20
1977.671152444226
 10
773.1115361310549
 20
1977.704934901036
 10
773.0706897931829
 20
1977.737109676379
 10
773.0285894801808
 20
1977.767625297477
 10
772.9853025435686
 20
1977.796432945847
 10
772.9408982332111
 20
1977.823486535397
 10
772.895447586532
 20
1977.848742786156
 10
772.8490233148705
 20
1977.872161293508
 10
772.8016996871581
 20
1977.893704592838
 10
772.7535524111041
 20
1977.913338219463
 10
772.7046585120789
 20
1977.931030763769
 10
772.6550962098908
 20
1977.946753921458
 10
772.604944793651
 20
1977.960482538833
 10
772.5542844949269
 20
1977.972194653035
 10
772.5031963593894
 20
1977.981871527179
 10
772.4517621171572
 20
1977.989497680331
 10
772.4000640520459
 20
1977.995060912272
 10
772.348184869931
 20
1977.998552323018
 10
772.2962075664375
 20
1977.999966327058
 10
772.2868508306695
 20
1977.999999999996
  0
LWPOLYLINE
  5
163
330
87
100
AcDbEntity
  8
P-SANR-FIXT
100
AcDbPolyline
 90
       28
 70
   128
 43
0.0
 10
772.2868508306695
 20
2021.999999999996
 10
772.3388369651122
 20
2022.001039861336
 10
772.3907399328295
 20
2022.004157781802
 10
772.4424767001452
 20
2022.009348773386
 10
772.4939644992681
 20
2022.016604531607
 10
772.5451209607032
 20
2022.025913448802
 10
772.5958642450249
 20
2022.037260632688
 10
772.6461131738029
 20
2022.050627930191
 10
772.6957873594705
 20
2022.065993956488
 10
772.7448073339273
 20
2022.083334129214
 10
772.7930946756709
 20
2022.102620707792
 10
772.8405721352554
 20
2022.12382283781
 10
772.8871637588735
 20
2022.146906600383
 10
772.9327950098666
 20
2022.171835066414
 10
772.9773928879667
 20
2022.198568355678
 10
773.0208860460833
 20
2022.227063700613
 10
773.0632049044408
 20
2022.257275514746
 10
773.1042817618936
 20
2022.289155465619
 10
773.1440509042324
 20
2022.322652552112
 10
773.1824487093132
 20
2022.357713186032
 10
773.219413748839
 20
2022.394281277844
 10
773.2548868866317
 20
2022.432298326402
 10
773.2888113732382
 20
2022.471703512538
 10
773.3211329367169
 20
2022.512433796359
 10
773.3517998694609
 20
2022.554424018101
 10
773.3807631109198
 20
2022.597607002367
 10
773.407976326086
 20
2022.641913665593
 10
773.4126838555893
 20
2022.649999999996
  0
LWPOLYLINE
  5
164
330
87
100
AcDbEntity
  8
P-SANR-FIXT
100
AcDbPolyline
 90
       28
 70
   128
 43
0.0
 10
686.2754109252553
 20
1977.999999999996
 10
686.2230893309706
 20
1977.998953428564
 10
686.1708514400758
 20
1977.995815388558
 10
686.1187808220521
 20
1977.990590900173
 10
686.066960778781
 20
1977.983288321476
 10
686.0154742112773
 20
1977.973919335036
 10
685.9644034870657
 20
1977.962498929231
 10
685.9138303084105
 20
1977.949045374275
 10
685.8638355816094
 20
1977.933580192986
 10
685.8144992875597
 20
1977.916128126355
 10
685.765900353808
 20
1977.896717093966
 10
685.7181165282805
 20
1977.875378149329
 10
685.6712242549055
 20
1977.852145430204
 10
685.6252985513165
 20
1977.827056103985
 10
685.5804128888426
 20
1977.800150308243
 10
685.5366390749686
 20
1977.771471086511
 10
685.494047138459
 20
1977.741064319425
 10
685.4527052173258
 20
1977.708978651328
 10
685.4126794498244
 20
1977.675265412442
 10
685.3740338686441
 20
1977.639978536759
 10
685.3368302984709
 20
1977.603174475752
 10
685.3011282570805
 20
1977.564912108068
 10
685.2669848601236
 20
1977.525252645333
 10
685.2344547297512
 20
1977.484259534226
 10
685.2035899072328
 20
1977.441998354981
 10
685.1744397697005
 20
1977.39853671647
 10
685.1470509511557
 20
1977.353944148043
 10
685.1423130445696
 20
1977.345805633564
  0
LWPOLYLINE
  5
165
330
87
100
AcDbEntity
  8
P-SANR-FIXT
100
AcDbPolyline
 90
       20
 70
   128
 43
0.0
 10
685.1423130445696
 20
2022.654194366428
 10
685.169380199159
 20
2022.609405822327
 10
685.1982167669698
 20
2022.565735501775
 10
685.2287766156442
 20
2022.523253267968
 10
685.2610108559442
 20
2022.482027083418
 10
685.2948679199612
 20
2022.442122901227
 10
685.3302936436156
 20
2022.403604559572
 10
685.3672313533062
 20
2022.366533679585
 10
685.4056219565771
 20
2022.330969566764
 10
685.4454040366531
 20
2022.296969116104
 10
685.486513950692
 20
2022.264586721073
 10
685.5288859316011
 20
2022.233874186595
 10
685.57245219325
 20
2022.204880646173
 10
685.6171430389134
 20
2022.177652483287
 10
685.6628869727721
 20
2022.152233257191
 10
685.7096108142899
 20
2022.128663633221
 10
685.7572398152878
 20
2022.10698131775
 10
685.8056977795241
 20
2022.087220997857
 10
685.8549071845937
 20
2022.069414285837
 10
685.8901693419087
 20
2022.05800079356
  0
LINE
  5
166
330
87
100
AcDbEntity
  8
P-SANR-FIXT
100
AcDbLine
 10
690.1911166408608
 20
2030.876249563032
 30
0.0
 11
685.8901693419085
 21
2022.05800079356
 31
0.0
  0
LINE
  5
167
330
87
100
AcDbEntity
  8
P-SANR-FIXT
100
AcDbLine
 10
683.2787092593146
 20
1975.854277591177
 30
0.0
 11
683.2787092593146
 21
1977.383217423353
 31
0.0
  0
LINE
  5
168
330
87
100
AcDbEntity
  8
P-SANR-FIXT
100
AcDbLine
 10
683.2787092593145
 20
1998.433293511346
 30
0.0
 11
683.2787092593145
 21
2001.566706488625
 31
0.0
  0
LINE
  5
169
330
87
100
AcDbEntity
  8
P-SANR-FIXT
100
AcDbLine
 10
683.2787092593146
 20
2022.616782576653
 30
0.0
 11
683.2787092593146
 21
2024.145722408802
 31
0.0
  0
LINE
  5
16A
330
87
100
AcDbEntity
  8
P-SANR-FIXT
100
AcDbLine
 10
775.7787092594209
 20
2024.145722408815
 30
0.0
 11
775.7787092594209
 21
2022.616782576617
 31
0.0
  0
LINE
  5
16B
330
87
100
AcDbEntity
  8
P-SANR-FIXT
100
AcDbLine
 10
775.7787092594207
 20
2001.566706488631
 30
0.0
 11
775.7787092594207
 21
1998.433293511352
 31
0.0
  0
LINE
  5
16C
330
87
100
AcDbEntity
  8
P-SANR-FIXT
100
AcDbLine
 10
775.7787092594209
 20
1977.383217423325
 30
0.0
 11
775.7787092594209
 21
1975.854277591188
 31
0.0
  0
LINE
  5
16D
330
87
100
AcDbEntity
  8
P-SANR-FIXT
100
AcDbLine
 10
774.2787092593724
 20
2024.149999999995
 30
0.0
 11
774.2787092593724
 21
1975.849999999995
 31
0.0
  0
SPLINE
  5
16E
330
87
100
AcDbEntity
  8
P-SANR-FIXT
100
AcDbSpline
210
0.0
220
0.0
230
1.0
 70
     8
 71
     3
 72
    28
 73
    24
 74
     0
 42
0.000000001
 43
0.0000000001
 40
0.3980504566783651
 40
0.3980504566783651
 40
0.3980504566783651
 40
0.3980504566783651
 40
0.4166666666666666
 40
0.4444444444444445
 40
0.4583333333333333
 40
0.4722222222222223
 40
0.5
 40
0.5277777777777778
 40
0.5555555555555556
 40
0.5833333333333334
 40
0.6111111111111112
 40
0.6388888888888889
 40
0.6527777777777777
 40
0.6666666666666666
 40
0.6805555555555556
 40
0.6944444444444445
 40
0.7222222222222223
 40
0.75
 40
0.7777777777777778
 40
0.8055555555555555
 40
0.8333333333333332
 40
0.8888888888888889
 40
1.0
 40
1.0
 40
1.0
 40
1.0
 10
702.6920691269908
 20
2012.765700178636
 30
0.0
 10
702.4288183090643
 20
2012.741798201388
 30
0.0
 10
701.7732376619871
 20
2012.697082940823
 30
0.0
 10
700.9333407280117
 20
2012.699271008838
 30
0.0
 10
700.1643878070575
 20
2012.757735604096
 30
0.0
 10
699.385641045954
 20
2012.845034681896
 30
0.0
 10
698.4123803551585
 20
2013.009839351163
 30
0.0
 10
697.2705852836939
 20
2013.291441246024
 30
0.0
 10
696.1946731893598
 20
2013.643360634472
 30
0.0
 10
695.1848883649539
 20
2014.083318877421
 30
0.0
 10
694.2159777185497
 20
2014.604202044473
 30
0.0
 10
693.4537120254169
 20
2015.07301586136
 30
0.0
 10
692.8723551039929
 20
2015.455760024601
 30
0.0
 10
692.4514371530611
 20
2015.741145387157
 30
0.0
 10
692.0460569405414
 20
2016.029432591224
 30
0.0
 10
691.5253600855718
 20
2016.424676597265
 30
0.0
 10
690.9102743206891
 20
2016.927734327742
 30
0.0
 10
690.2252824730472
 20
2017.529426500014
 30
0.0
 10
689.5879661463803
 20
2018.108226453407
 30
0.0
 10
688.9977114252456
 20
2018.663743383416
 30
0.0
 10
688.2783926209047
 20
2019.378105601454
 30
0.0
 10
687.1936665718008
 20
2020.507468120297
 30
0.0
 10
686.5629476102581
 20
2021.211545875785
 30
0.0
 10
686.2754109252538
 20
2021.531554849546
 30
0.0
  0
LINE
  5
16F
330
87
100
AcDbEntity
  8
P-SANR-FIXT
100
AcDbLine
 10
684.2787092593724
 20
2024.149999999995
 30
0.0
 11
684.2787092593724
 21
1975.849999999995
 31
0.0
  0
SPLINE
  5
170
330
87
100
AcDbEntity
  8
P-SANR-FIXT
100
AcDbSpline
210
0.0
220
0.0
230
1.0
 70
     8
 71
     3
 72
     9
 73
     5
 74
     0
 42
0.000000001
 43
0.0000000001
 40
-1.0
 40
-1.0
 40
-1.0
 40
-1.0
 40
-0.5
 40
0.0
 40
0.0
 40
0.0
 40
0.0
 10
686.2754109252539
 20
2021.531554849546
 30
0.0
 10
686.1450148092567
 20
2021.698973562608
 30
0.0
 10
685.9484971446062
 20
2021.955067087978
 30
0.0
 10
685.8866114423936
 20
2022.050706018518
 30
0.0
 10
685.8901693419072
 20
2022.05800079356
 30
0.0
  0
ENDBLK
  5
172
330
87
100
AcDbEntity
  8
0
100
AcDbBlockEnd
  0
BLOCK
  5
241
330
174
100
AcDbEntity
  8
0
100
AcDbBlockBegin
  2
Automatic flow rate regulator valve_Caleffi_121 DN15 - 1 1_4__-V1-Est - Idraulica
 70
     0
 10
0.0
 20
0.0
 30
0.0
  3
Automatic flow rate regulator valve_Caleffi_121 DN15 - 1 1_4__-V1-Est - Idraulica
  1

  0
LINE
  5
175
330
174
100
AcDbEntity
  8
M-PIPE
100
AcDbLine
 10
688.4349765898022
 20
1725.250666260522
 30
0.0
 11
686.5901902293231
 21
1724.841949321464
 31
0.0
1001
REVIT
1002
{
1070
     3
1000
923097
1002
}
  0
LWPOLYLINE
  5
176
330
174
100
AcDbEntity
  8
M-PIPE
100
AcDbPolyline
 90
        4
 70
   128
 43
0.0
 10
683.889609226072
 20
1724.136981478192
 10
681.4166950361046
 20
1723.375313320264
 10
679.0274207181767
 20
1722.527858139545
 10
678.5249216385866
 20
1722.335019895261
1001
REVIT
1002
{
1070
     3
1000
923097
1002
}
  0
LWPOLYLINE
  5
177
330
174
100
AcDbEntity
  8
M-PIPE
100
AcDbPolyline
 90
        4
 70
   128
 43
0.0
 10
678.5249216385901
 20
1662.975513253966
 10
680.8951335061242
 20
1662.110628949856
 10
683.3507608226641
 20
1661.329848594137
 10
683.8896092260694
 20
1661.173551671037
1001
REVIT
1002
{
1070
     3
1000
923097
1002
}
  0
LINE
  5
178
330
174
100
AcDbEntity
  8
M-PIPE
100
AcDbLine
 10
686.5901902293278
 20
1660.468583827763
 30
0.0
 11
688.4349765898071
 21
1660.059866888706
 31
0.0
1001
REVIT
1002
{
1070
     3
1000
923097
1002
}
  0
ELLIPSE
  5
179
330
174
100
AcDbEntity
  8
M-PIPE
100
AcDbEllipse
 10
694.3617423796569
 20
1692.655266574614
 30
0.0
 11
0.0000000000007392
 21
33.20000000000005
 31
0.0
210
0.0
220
0.0
230
1.0
 40
0.9396926207859133
 41
4.712388980384718
 42
6.457718232379052
1001
REVIT
1002
{
1070
     3
1000
923097
1002
}
  0
ELLIPSE
  5
17A
330
174
100
AcDbEntity
  8
M-PIPE
100
AcDbEllipse
 10
766.1542457051674
 20
1435.63649692927
 30
0.0
 11
-82.26463647909726
 21
288.5004845489211
 31
0.0
210
0.0
220
0.0
230
0.9999999999999998
 40
0.3303660895492905
 41
6.268322533308618
 42
6.313560025996041
1001
REVIT
1002
{
1070
     3
1000
923097
1002
}
  0
ELLIPSE
  5
17B
330
174
100
AcDbEntity
  8
M-PIPE
100
AcDbEllipse
 10
693.3356819496879
 20
1692.655266574614
 30
0.0
 11
0.0
 21
32.97744693864733
 31
0.0
210
0.0
220
0.0
230
1.0
 40
0.9396926207859074
 41
6.02138591937993
 42
6.544984694979284
1001
REVIT
1002
{
1070
     3
1000
923097
1002
}
  0
ELLIPSE
  5
17C
330
174
100
AcDbEntity
  8
M-PIPE
100
AcDbEllipse
 10
636.724795950675
 20
1435.636496929267
 30
0.0
 11
82.26463647908351
 21
288.5004845489249
 31
0.0
210
0.0
220
0.0
230
1.0
 40
0.3303660895492804
 41
0.1729877240759607
 42
0.2182252167633755
1001
REVIT
1002
{
1070
     3
1000
923097
1002
}
  0
ELLIPSE
  5
17D
330
174
100
AcDbEntity
  8
M-PIPE
100
AcDbEllipse
 10
636.7247959506617
 20
1949.674036219959
 30
0.0
 11
-82.26463647909474
 21
288.5004845489214
 31
0.0
210
0.0
220
0.0
230
0.9999999999999998
 40
0.3303660895492916
 41
2.923367436826444
 42
2.968604929513856
1001
REVIT
1002
{
1070
     3
1000
923097
1002
}
  0
ELLIPSE
  5
17E
330
174
100
AcDbEntity
  8
M-PIPE
100
AcDbEllipse
 10
693.3356819496879
 20
1692.655266574614
 30
0.0
 11
0.0
 21
32.9774469386466
 31
0.0
210
0.0
220
0.0
230
1.0
 40
0.9396926207859262
 41
2.879793265790114
 42
3.403392041389462
1001
REVIT
1002
{
1070
     3
1000
923097
1002
}
  0
ELLIPSE
  5
17F
330
174
100
AcDbEntity
  8
M-PIPE
100
AcDbEllipse
 10
766.1542457051551
 20
1949.67403621996
 30
0.0
 11
82.26463647908808
 21
288.5004845489236
 31
0.0
210
0.0
220
0.0
230
0.9999999999999998
 40
0.3303660895492782
 41
3.111217934773395
 42
3.156455427460801
1001
REVIT
1002
{
1070
     3
1000
923097
1002
}
  0
ELLIPSE
  5
180
330
174
100
AcDbEntity
  8
M-PIPE
100
AcDbEllipse
 10
694.3617423796569
 20
1692.655266574614
 30
0.0
 11
0.0
 21
33.19999999999984
 31
0.0
210
0.0
220
0.0
230
1.0
 40
0.9396926207859209
 41
2.967059728390366
 42
4.712388980384685
1001
REVIT
1002
{
1070
     3
1000
923097
1002
}
  0
ELLIPSE
  5
181
330
174
100
AcDbEntity
  8
M-PIPE
100
AcDbEllipse
 10
688.7184100147832
 20
1692.655266574613
 30
0.0
 11
0.0
 21
31.59999999999952
 31
0.0
210
0.0
220
0.0
230
1.0
 40
0.9396926207859197
 41
4.712388980384699
 42
6.021385919379911
1001
REVIT
1002
{
1070
     3
1000
923097
1002
}
  0
LINE
  5
182
330
174
100
AcDbEntity
  8
M-PIPE
100
AcDbLine
 10
696.4038569737319
 20
1723.178522685343
 30
0.0
 11
696.3825036157338
 21
1723.093716425085
 31
0.0
1001
REVIT
1002
{
1070
     3
1000
923097
1002
}
  0
LINE
  5
183
330
174
100
AcDbEntity
  8
M-PIPE
100
AcDbLine
 10
681.0543164138313
 20
1723.093716425086
 30
0.0
 11
681.0329630558332
 21
1723.178522685343
 31
0.0
1001
REVIT
1002
{
1070
     3
1000
923097
1002
}
  0
ELLIPSE
  5
184
330
174
100
AcDbEntity
  8
M-PIPE
100
AcDbEllipse
 10
688.7184100147838
 20
1692.655266574613
 30
0.0
 11
0.0
 21
31.60000000000018
 31
0.0
210
0.0
220
0.0
230
0.9999999999999998
 40
0.9396926207859067
 41
0.2617993877997271
 42
0.4887340612386775
1001
REVIT
1002
{
1070
     3
1000
923097
1002
}
  0
ELLIPSE
  5
185
330
174
100
AcDbEntity
  8
M-PIPE
100
AcDbEllipse
 10
688.7184100147832
 20
1692.655266574613
 30
0.0
 11
0.0
 21
31.59999999999963
 31
0.0
210
0.0
220
0.0
230
1.0
 40
0.9396926207859156
 41
2.653551520545875
 42
2.879793265790105
1001
REVIT
1002
{
1070
     3
1000
923097
1002
}
  0
LINE
  5
186
330
174
100
AcDbEntity
  8
M-PIPE
100
AcDbLine
 10
681.032963055834
 20
1662.132010463883
 30
0.0
 11
681.0543164138515
 21
1662.216816724218
 31
0.0
1001
REVIT
1002
{
1070
     3
1000
923097
1002
}
  0
LINE
  5
187
330
174
100
AcDbEntity
  8
M-PIPE
100
AcDbLine
 10
696.3825036157154
 20
1662.216816724218
 30
0.0
 11
696.4038569737327
 21
1662.132010463883
 31
0.0
1001
REVIT
1002
{
1070
     3
1000
923097
1002
}
  0
ELLIPSE
  5
188
330
174
100
AcDbEntity
  8
M-PIPE
100
AcDbEllipse
 10
688.7184100147838
 20
1692.655266574613
 30
0.0
 11
0.0
 21
31.59999999999991
 31
0.0
210
0.0
220
0.0
230
1.0
 40
0.9396926207859156
 41
3.403392041389498
 42
4.712388980384692
1001
REVIT
1002
{
1070
     3
1000
923097
1002
}
  0
LINE
  5
189
330
174
100
AcDbEntity
  8
M-PIPE
100
AcDbLine
 10
685.3152256430886
 20
1724.509034257726
 30
0.0
 11
685.450179287264
 21
1723.973057018373
 31
0.0
1001
REVIT
1002
{
1070
     3
1000
923097
1002
}
  0
LINE
  5
18A
330
174
100
AcDbEntity
  8
M-PIPE
100
AcDbLine
 10
685.4501792872846
 20
1661.337476130934
 30
0.0
 11
685.3152256430892
 21
1660.801498891501
 31
0.0
1001
REVIT
1002
{
1070
     3
1000
923097
1002
}
  0
LINE
  5
18B
330
174
100
AcDbEntity
  8
M-PIPE
100
AcDbLine
 10
710.7787092592945
 20
1729.155266574631
 30
0.0
 11
709.4106286859987
 21
1729.155266574631
 31
0.0
1001
REVIT
1002
{
1070
     3
1000
923097
1002
}
  0
LINE
  5
18C
330
174
100
AcDbEntity
  8
M-PIPE
100
AcDbLine
 10
709.4106286860013
 20
1656.155266574639
 30
0.0
 11
710.7787092592976
 21
1656.155266574639
 31
0.0
1001
REVIT
1002
{
1070
     3
1000
923097
1002
}
  0
LWPOLYLINE
  5
18D
330
174
100
AcDbEntity
  8
M-PIPE
100
AcDbPolyline
 90
        9
 70
   128
 43
0.0
 10
708.6209296030112
 20
1726.471807180522
 10
705.8691395509031
 20
1726.718105850517
 10
703.09739472396
 20
1726.847734932967
 10
700.3181450188398
 20
1726.859355640062
 10
697.5439372840376
 20
1726.752847766266
 10
694.7872532146443
 20
1726.529311875597
 10
692.0603486562521
 20
1726.191049299097
 10
689.3750977761369
 20
1725.741520479934
 10
688.3854239369137
 20
1725.546026888542
1001
REVIT
1002
{
1070
     3
1000
923097
1002
}
  0
LWPOLYLINE
  5
18E
330
174
100
AcDbEntity
  8
M-PIPE
100
AcDbPolyline
 90
        9
 70
   128
 43
0.0
 10
688.3854239369159
 20
1659.764506260727
 10
691.0521794883093
 20
1659.274542722813
 10
693.7648943959499
 20
1658.894268077298
 10
696.5118754119905
 20
1658.627560686268
 10
699.2809913478417
 20
1658.477160697606
 10
702.0598262281417
 20
1658.444620560511
 10
704.8358385677332
 20
1658.53027684361
 10
707.5965233608195
 20
1658.733244111279
 10
708.6209296030135
 20
1658.838725968749
1001
REVIT
1002
{
1070
     3
1000
923097
1002
}
  0
ELLIPSE
  5
18F
330
174
100
AcDbEntity
  8
M-PIPE
100
AcDbEllipse
 10
710.7787092592948
 20
1692.655266574634
 30
0.0
 11
0.0
 21
36.49999999999568
 31
0.0
210
0.0
220
0.0
230
1.0
 40
0.9396926207859086
 41
4.712388980384691
 42
6.283185307179597
1001
REVIT
1002
{
1070
     3
1000
923097
1002
}
  0
ELLIPSE
  5
190
330
174
100
AcDbEntity
  8
M-PIPE
100
AcDbEllipse
 10
709.410628685999
 20
1692.655266574634
 30
0.0
 11
0.0
 21
36.4999999999956
 31
0.0
210
0.0
220
0.0
230
0.9999999999999998
 40
0.9396926207859122
 41
5.995503207762009
 42
6.570867406597169
1001
REVIT
1002
{
1070
     3
1000
923097
1002
}
  0
LINE
  5
191
330
174
100
AcDbEntity
  8
M-PIPE
100
AcDbLine
 10
719.1422335517422
 20
1727.655266574618
 30
0.0
 11
715.0379918318275
 21
1727.655266574618
 31
0.0
1001
REVIT
1002
{
1070
     3
1000
923097
1002
}
  0
LINE
  5
192
330
174
100
AcDbEntity
  8
M-PIPE
100
AcDbLine
 10
721.6813090273202
 20
1724.726913174096
 30
0.0
 11
725.7855507472349
 21
1724.726913174096
 31
0.0
1001
REVIT
1002
{
1070
     3
1000
923097
1002
}
  0
ELLIPSE
  5
193
330
174
100
AcDbEntity
  8
M-PIPE
100
AcDbEllipse
 10
709.410628685999
 20
1692.655266574634
 30
0.0
 11
0.0
 21
36.49999999999565
 31
0.0
210
0.0
220
0.0
230
1.0
 40
0.9396926207859102
 41
5.21010504436588
 42
5.785469243198392
1001
REVIT
1002
{
1070
     3
1000
923097
1002
}
  0
LINE
  5
194
330
174
100
AcDbEntity
  8
M-PIPE
100
AcDbLine
 10
739.5481183319662
 20
1710.081094658227
 30
0.0
 11
735.4438766120518
 21
1710.081094658226
 31
0.0
1001
REVIT
1002
{
1070
     3
1000
923097
1002
}
  0
LINE
  5
195
330
174
100
AcDbEntity
  8
M-PIPE
100
AcDbLine
 10
738.1956286936023
 20
1703.011424163183
 30
0.0
 11
742.2998704135168
 21
1703.011424163183
 31
0.0
1001
REVIT
1002
{
1070
     3
1000
923097
1002
}
  0
ELLIPSE
  5
196
330
174
100
AcDbEntity
  8
M-PIPE
100
AcDbEllipse
 10
709.4106286859987
 20
1692.655266574634
 30
0.0
 11
0.0
 21
36.49999999999551
 31
0.0
210
0.0
220
0.0
230
0.9999999999999998
 40
0.9396926207859159
 41
4.712388980384697
 42
5.000071079799449
1001
REVIT
1002
{
1070
     3
1000
923097
1002
}
  0
ELLIPSE
  5
197
330
174
100
AcDbEntity
  8
M-PIPE
100
AcDbEllipse
 10
710.7787092592948
 20
1692.655266574634
 30
0.0
 11
0.0
 21
36.49999999999546
 31
0.0
210
0.0
220
0.0
230
1.0
 40
0.9396926207859145
 41
3.141592653589828
 42
4.712388980384691
1001
REVIT
1002
{
1070
     3
1000
923097
1002
}
  0
ELLIPSE
  5
198
330
174
100
AcDbEntity
  8
M-PIPE
100
AcDbEllipse
 10
709.4106286859987
 20
1692.655266574634
 30
0.0
 11
0.0
 21
36.49999999999546
 31
0.0
210
0.0
220
0.0
230
1.0
 40
0.9396926207859145
 41
4.424706880969919
 42
4.712388980384691
1001
REVIT
1002
{
1070
     3
1000
923097
1002
}
  0
LINE
  5
199
330
174
100
AcDbEntity
  8
M-PIPE
100
AcDbLine
 10
742.2998704135165
 20
1682.299108986085
 30
0.0
 11
738.1956286936022
 21
1682.299108986085
 31
0.0
1001
REVIT
1002
{
1070
     3
1000
923097
1002
}
  0
LINE
  5
19A
330
174
100
AcDbEntity
  8
M-PIPE
100
AcDbLine
 10
735.443876612016
 20
1675.229438490971
 30
0.0
 11
739.5481183319303
 21
1675.229438490972
 31
0.0
1001
REVIT
1002
{
1070
     3
1000
923097
1002
}
  0
ELLIPSE
  5
19B
330
174
100
AcDbEntity
  8
M-PIPE
100
AcDbEllipse
 10
709.4106286859986
 20
1692.655266574634
 30
0.0
 11
0.0
 21
36.49999999999567
 31
0.0
210
0.0
220
0.0
230
1.0
 40
0.9396926207859083
 41
3.639308717573262
 42
4.214672916401186
1001
REVIT
1002
{
1070
     3
1000
923097
1002
}
  0
LINE
  5
19C
330
174
100
AcDbEntity
  8
M-PIPE
100
AcDbLine
 10
725.7855507473
 20
1660.583619975211
 30
0.0
 11
721.6813090273858
 21
1660.583619975211
 31
0.0
1001
REVIT
1002
{
1070
     3
1000
923097
1002
}
  0
LINE
  5
19D
330
174
100
AcDbEntity
  8
M-PIPE
100
AcDbLine
 10
715.0379918317258
 20
1657.655266574618
 30
0.0
 11
719.1422335516401
 21
1657.655266574618
 31
0.0
1001
REVIT
1002
{
1070
     3
1000
923097
1002
}
  0
ELLIPSE
  5
19E
330
174
100
AcDbEntity
  8
M-PIPE
100
AcDbEllipse
 10
709.4106286859986
 20
1692.655266574634
 30
0.0
 11
0.0
 21
36.49999999999565
 31
0.0
210
0.0
220
0.0
230
1.0
 40
0.9396926207859085
 41
2.853910554175447
 42
3.42927475300411
1001
REVIT
1002
{
1070
     3
1000
923097
1002
}
  0
LINE
  5
19F
330
174
100
AcDbEntity
  8
M-PIPE
100
AcDbLine
 10
738.1956286936027
 20
1692.655266574635
 30
0.0
 11
738.1956286936027
 21
1703.011424163181
 31
0.0
1001
REVIT
1002
{
1070
     3
1000
923097
1002
}
  0
ELLIPSE
  5
1A0
330
174
100
AcDbEntity
  8
M-PIPE
100
AcDbEllipse
 10
705.3063869660842
 20
1692.655266574635
 30
0.0
 11
0.0
 21
36.49999999999554
 31
0.0
210
0.0
220
0.0
230
1.0
 40
0.9396926207859122
 41
5.000071079799448
 42
5.210105044365871
1001
REVIT
1002
{
1070
     3
1000
923097
1002
}
  0
LINE
  5
1A1
330
174
100
AcDbEntity
  8
M-PIPE
100
AcDbLine
 10
735.4438766120521
 20
1710.081094658226
 30
0.0
 11
721.6813090273198
 21
1724.726913174096
 31
0.0
1001
REVIT
1002
{
1070
     3
1000
923097
1002
}
  0
ELLIPSE
  5
1A2
330
174
100
AcDbEntity
  8
M-PIPE
100
AcDbEllipse
 10
705.3063869660842
 20
1692.655266574635
 30
0.0
 11
0.0
 21
36.49999999999548
 31
0.0
210
0.0
220
0.0
230
1.0
 40
0.9396926207859122
 41
5.785469243198382
 42
5.995503207762022
1001
REVIT
1002
{
1070
     3
1000
923097
1002
}
  0
LINE
  5
1A3
330
174
100
AcDbEntity
  8
M-PIPE
100
AcDbLine
 10
715.0379918318297
 20
1727.655266574618
 30
0.0
 11
695.574782100339
 21
1727.655266574618
 31
0.0
1001
REVIT
1002
{
1070
     3
1000
923097
1002
}
  0
ELLIPSE
  5
1A4
330
174
100
AcDbEntity
  8
M-PIPE
100
AcDbEllipse
 10
705.3063869660842
 20
1692.655266574635
 30
0.0
 11
0.0
 21
36.49999999999531
 31
0.0
210
0.0
220
0.0
230
1.0
 40
0.9396926207859172
 41
0.2876820994175655
 42
0.4177165670497125
1001
REVIT
1002
{
1070
     3
1000
923097
1002
}
  0
ELLIPSE
  5
1A5
330
174
100
AcDbEntity
  8
M-PIPE
100
AcDbEllipse
 10
705.3063869660842
 20
1692.655266574635
 30
0.0
 11
0.0
 21
36.49999999999562
 31
0.0
210
0.0
220
0.0
230
1.0
 40
0.9396926207859063
 41
2.728887336092977
 42
2.853910554175451
1001
REVIT
1002
{
1070
     3
1000
923097
1002
}
  0
LINE
  5
1A6
330
174
100
AcDbEntity
  8
M-PIPE
100
AcDbLine
 10
695.5747821004448
 20
1657.655266574618
 30
0.0
 11
715.037991831724
 21
1657.655266574618
 31
0.0
1001
REVIT
1002
{
1070
     3
1000
923097
1002
}
  0
ELLIPSE
  5
1A7
330
174
100
AcDbEntity
  8
M-PIPE
100
AcDbEllipse
 10
705.3063869660842
 20
1692.655266574635
 30
0.0
 11
0.0
 21
36.49999999999606
 31
0.0
210
0.0
220
0.0
230
1.0
 40
0.9396926207858962
 41
3.429274753004147
 42
3.639308717573262
1001
REVIT
1002
{
1070
     3
1000
923097
1002
}
  0
LINE
  5
1A8
330
174
100
AcDbEntity
  8
M-PIPE
100
AcDbLine
 10
721.6813090273882
 20
1660.583619975212
 30
0.0
 11
735.4438766120148
 21
1675.229438490969
 31
0.0
1001
REVIT
1002
{
1070
     3
1000
923097
1002
}
  0
ELLIPSE
  5
1A9
330
174
100
AcDbEntity
  8
M-PIPE
100
AcDbEllipse
 10
705.3063869660842
 20
1692.655266574635
 30
0.0
 11
0.0
 21
36.49999999999586
 31
0.0
210
0.0
220
0.0
230
1.0
 40
0.9396926207859046
 41
4.214672916401219
 42
4.424706880969911
1001
REVIT
1002
{
1070
     3
1000
923097
1002
}
  0
LINE
  5
1AA
330
174
100
AcDbEntity
  8
M-PIPE
100
AcDbLine
 10
738.1956286936026
 20
1682.299108986087
 30
0.0
 11
738.1956286936027
 21
1692.655266574634
 31
0.0
1001
REVIT
1002
{
1070
     3
1000
923097
1002
}
  0
ELLIPSE
  5
1AB
330
174
100
AcDbEntity
  8
M-PIPE
100
AcDbEllipse
 10
705.3063869660843
 20
1692.655266574635
 30
0.0
 11
0.0
 21
33.99999999999887
 31
0.0
210
0.0
220
0.0
230
1.0
 40
0.9396926207859129
 41
4.712388980384685
 42
6.195918844579879
1001
REVIT
1002
{
1070
     3
1000
923097
1002
}
  0
ELLIPSE
  5
1AC
330
174
100
AcDbEntity
  8
M-PIPE
100
AcDbEllipse
 10
705.3063869660843
 20
1692.655266574635
 30
0.0
 11
0.0
 21
33.99999999999909
 31
0.0
210
0.0
220
0.0
230
1.0
 40
0.9396926207859054
 41
3.228859116189516
 42
4.712388980384685
1001
REVIT
1002
{
1070
     3
1000
923097
1002
}
  0
ELLIPSE
  5
1AD
330
174
100
AcDbEntity
  8
M-PIPE
100
AcDbEllipse
 10
694.3617423796633
 20
1692.655266574634
 30
0.0
 11
0.0
 21
33.49999999999683
 31
0.0
210
0.0
220
0.0
230
1.0
 40
0.939692620785911
 41
4.712388980384698
 42
6.647460048874343
1001
REVIT
1002
{
1070
     3
1000
923097
1002
}
  0
ELLIPSE
  5
1AE
330
174
100
AcDbEntity
  8
M-PIPE
100
AcDbEllipse
 10
694.3617423796633
 20
1692.655266574634
 30
0.0
 11
0.0
 21
33.49999999999682
 31
0.0
210
0.0
220
0.0
230
1.0
 40
0.9396926207859134
 41
2.777317911895072
 42
4.712388980384691
1001
REVIT
1002
{
1070
     3
1000
923097
1002
}
  0
LINE
  5
1AF
330
174
100
AcDbEntity
  8
M-PIPE
100
AcDbLine
 10
725.7855507472344
 20
1724.726913174096
 30
0.0
 11
739.5481183319666
 21
1710.081094658226
 31
0.0
1001
REVIT
1002
{
1070
     3
1000
923097
1002
}
  0
LINE
  5
1B0
330
174
100
AcDbEntity
  8
M-PIPE
100
AcDbLine
 10
742.2998704135173
 20
1703.011424163181
 30
0.0
 11
742.2998704135172
 21
1682.299108986088
 31
0.0
1001
REVIT
1002
{
1070
     3
1000
923097
1002
}
  0
LINE
  5
1B1
330
174
100
AcDbEntity
  8
M-PIPE
100
AcDbLine
 10
739.548118331929
 20
1675.229438490969
 30
0.0
 11
725.785550747303
 21
1660.583619975213
 31
0.0
1001
REVIT
1002
{
1070
     3
1000
923097
1002
}
  0
LWPOLYLINE
  5
1B2
330
174
100
AcDbEntity
  8
P-SANR-FIXT
100
AcDbPolyline
 90
       22
 70
   128
 43
0.0
 10
661.6783926970547
 20
1711.573651897702
 10
660.9691707332881
 20
1710.86395319272
 10
660.2884933974867
 20
1710.126059091467
 10
659.6373257842692
 20
1709.361241121537
 10
659.016576880202
 20
1708.570798030908
 10
658.4271001774446
 20
1707.756053044715
 10
657.8696943877723
 20
1706.918351336958
 10
657.3451042260274
 20
1706.059057710078
 10
656.8540212354495
 20
1705.179554472303
 10
656.3970846307872
 20
1704.281239500427
 10
655.9748821385452
 20
1703.365524474036
 10
655.5879508170009
 20
1702.4338332663
 10
655.2367778417064
 20
1701.487600475948
 10
654.9218012449702
 20
1700.528270085048
 10
654.6434106002853
 20
1699.557294227538
 10
654.4019476447996
 20
1698.576132054029
 10
654.1977068347176
 20
1697.586248679118
 10
654.0309358299784
 20
1696.589114198326
 10
653.9018359057187
 20
1695.58620276261
 10
653.8105622888987
 20
1694.578991699235
 10
653.7572244191046
 20
1693.568960668585
 10
653.7417088763777
 20
1692.655266574655
  0
LWPOLYLINE
  5
1B3
330
174
100
AcDbEntity
  8
P-SANR-FIXT
100
AcDbPolyline
 90
       22
 70
   128
 43
0.0
 10
653.7417088763777
 20
1692.655266574655
 10
653.7607179448985
 20
1691.643961395253
 10
653.8177224185443
 20
1690.634138073661
 10
653.9126540631594
 20
1689.627277675039
 10
654.0453990271725
 20
1688.624859670465
 10
654.2157976497803
 20
1687.628361117775
 10
654.423644192793
 20
1686.639255815335
 10
654.6686864967313
 20
1685.659013418903
 10
654.950625562212
 20
1684.689098511089
 10
655.2691150583139
 20
1683.730969612099
 10
655.6237607605211
 20
1682.786078119667
 10
656.0141199220204
 20
1681.855867165169
 10
656.4397005836255
 20
1680.941770372105
 10
656.8999608294189
 20
1680.045210502394
 10
657.3943079973755
 20
1679.167597975389
 10
657.9220978567207
 20
1678.310329244218
 10
658.4826337665994
 20
1677.474785014094
 10
659.0751658337254
 20
1676.66232828778
 10
659.6988900899908
 20
1675.874302224342
 10
660.352947714459
 20
1675.112027799052
 10
661.036424327635
 20
1674.376801254599
 10
661.6783926970551
 20
1673.736881251609
  0
LWPOLYLINE
  5
1B4
330
174
100
AcDbEntity
  8
P-SANR-FIXT
100
AcDbPolyline
 90
       10
 70
   128
 43
0.0
 10
677.8622239490239
 20
1721.996562375315
 10
675.6137246058282
 20
1720.998962252251
 10
673.4701962351676
 20
1719.938981838668
 10
671.4364488066921
 20
1718.825998239316
 10
669.5161258240556
 20
1717.669523689531
 10
667.7117125263359
 20
1716.479065334803
 10
666.0245621738281
 20
1715.263990516875
 10
664.4549389399243
 20
1714.033399770565
 10
663.0020756812467
 20
1712.796009398007
 10
661.678392697075
 20
1711.573651897722
  0
LWPOLYLINE
  5
1B5
330
174
100
AcDbEntity
  8
P-SANR-FIXT
100
AcDbPolyline
 90
       10
 70
   128
 43
0.0
 10
661.6783926970755
 20
1673.736881251589
 10
663.0174807514348
 20
1672.500858383801
 10
664.4716250920571
 20
1671.263497176136
 10
666.0425432596374
 20
1670.033029313884
 10
667.7309913777856
 20
1668.818175942391
 10
669.5366935412258
 20
1667.628041201597
 10
671.4582841997582
 20
1666.471994685643
 10
673.4932654406379
 20
1665.35954434376
 10
675.637980894862
 20
1664.300201692946
 10
677.8622239490246
 20
1663.313970773996
  0
SPLINE
  5
1B6
330
174
100
AcDbEntity
  8
P-SANR-FIXT
100
AcDbSpline
210
0.0
220
0.0
230
1.0
 70
     8
 71
     3
 72
     9
 73
     5
 74
     0
 42
0.000000001
 43
0.0000000001
 40
-1.0
 40
-1.0
 40
-1.0
 40
-1.0
 40
-0.5
 40
0.0
 40
0.0
 40
0.0
 40
0.0
 10
698.8696965584278
 20
1704.665215941975
 30
0.0
 10
698.6751886051473
 20
1704.896201760292
 30
0.0
 10
698.3479496980658
 20
1705.371753957686
 30
0.0
 10
698.1462861894751
 20
1705.871079966133
 30
0.0
 10
698.077284756211
 20
1706.125797276341
 30
0.0
  0
SPLINE
  5
1B7
330
174
100
AcDbEntity
  8
P-SANR-FIXT
100
AcDbSpline
210
0.0
220
0.0
230
1.0
 70
     8
 71
     3
 72
     9
 73
     5
 74
     0
 42
0.000000001
 43
0.0000000001
 40
-1.0
 40
-1.0
 40
-1.0
 40
-1.0
 40
-0.5
 40
0.0
 40
0.0
 40
0.0
 40
0.0
 10
678.5299468604266
 20
1718.135746643698
 30
0.0
 10
678.2229968466083
 20
1718.112015151761
 30
0.0
 10
677.650653803396
 20
1718.08824134066
 30
0.0
 10
677.1651920142115
 20
1718.112015151761
 30
0.0
 10
676.9451232544207
 20
1718.135746643698
 30
0.0
  0
SPLINE
  5
1B8
330
174
100
AcDbEntity
  8
P-SANR-FIXT
100
AcDbSpline
210
0.0
220
0.0
230
1.0
 70
     8
 71
     3
 72
     8
 73
     4
 74
     0
 42
0.000000001
 43
0.0000000001
 40
-0.5
 40
-0.5
 40
-0.5
 40
-0.5
 40
-0.25
 40
-0.25
 40
-0.25
 40
-0.25
 10
656.9654046863592
 20
1705.377697410449
 30
0.0
 10
656.8992918843993
 20
1705.255837634718
 30
0.0
 10
656.8392972241979
 20
1705.137108365547
 30
0.0
 10
656.7808242033438
 20
1705.019148491333
 30
0.0
  0
SPLINE
  5
1B9
330
174
100
AcDbEntity
  8
P-SANR-FIXT
100
AcDbSpline
210
0.0
220
0.0
230
1.0
 70
     8
 71
     3
 72
     9
 73
     5
 74
     0
 42
0.000000001
 43
0.0000000001
 40
-1.0
 40
-1.0
 40
-1.0
 40
-1.0
 40
-0.5
 40
-0.25
 40
-0.25
 40
-0.25
 40
-0.25
 10
656.6053735564146
 20
1680.645317207342
 30
0.0
 10
656.7130002558306
 20
1680.414331389022
 30
0.0
 10
656.8932684957445
 20
1680.057667240972
 30
0.0
 10
657.1006419846066
 20
1679.687630324206
 30
0.0
 10
657.1727236162955
 20
1679.56290996544
 30
0.0
  0
SPLINE
  5
1BA
330
174
100
AcDbEntity
  8
P-SANR-FIXT
100
AcDbSpline
210
0.0
220
0.0
230
1.0
 70
     8
 71
     3
 72
     9
 73
     5
 74
     0
 42
0.000000001
 43
0.0000000001
 40
-1.0
 40
-1.0
 40
-1.0
 40
-1.0
 40
-0.5
 40
0.0
 40
0.0
 40
0.0
 40
0.0
 10
676.9451232544209
 20
1667.174786505611
 30
0.0
 10
677.165192014212
 20
1667.198517997548
 30
0.0
 10
677.6506538033968
 20
1667.222291808649
 30
0.0
 10
678.2229968466091
 20
1667.198517997548
 30
0.0
 10
678.5299468604274
 20
1667.174786505611
 30
0.0
  0
SPLINE
  5
1BB
330
174
100
AcDbEntity
  8
P-SANR-FIXT
100
AcDbSpline
210
0.0
220
0.0
230
1.0
 70
     8
 71
     3
 72
     9
 73
     5
 74
     0
 42
0.000000001
 43
0.0000000001
 40
-1.0
 40
-1.0
 40
-1.0
 40
-1.0
 40
-0.5
 40
0.0
 40
0.0
 40
0.0
 40
0.0
 10
698.0772847562112
 20
1679.184735872969
 30
0.0
 10
698.1462861894754
 20
1679.439453183176
 30
0.0
 10
698.3479496980661
 20
1679.938779191623
 30
0.0
 10
698.6751886051479
 20
1680.414331389017
 30
0.0
 10
698.8696965584282
 20
1680.645317207335
 30
0.0
  0
SPLINE
  5
1BC
330
174
100
AcDbEntity
  8
P-SANR-FIXT
100
AcDbSpline
210
0.0
220
0.0
230
1.0
 70
     8
 71
     3
 72
    23
 73
    19
 74
     0
 42
0.000000001
 43
0.0000000001
 40
-1.0
 40
-1.0
 40
-1.0
 40
-1.0
 40
-0.875
 40
-0.8125
 40
-0.78125
 40
-0.75
 40
-0.71875
 40
-0.6875
 40
-0.625
 40
-0.5625
 40
-0.53125
 40
-0.5
 40
-0.46875
 40
-0.4375
 40
-0.375
 40
-0.3125
 40
-0.25
 40
0.0
 40
0.0
 40
0.0
 40
0.0
 10
676.9451232544207
 20
1718.135746643698
 30
0.0
 10
676.5230128064266
 20
1718.203914883039
 30
0.0
 10
676.0297528390569
 20
1718.441726801491
 30
0.0
 10
675.715753592302
 20
1718.821363627126
 30
0.0
 10
675.6097968901688
 20
1719.051305606748
 30
0.0
 10
675.563266677129
 20
1719.228106263243
 30
0.0
 10
675.5616962728211
 20
1719.400188341376
 30
0.0
 10
675.6242850626921
 20
1719.614563407493
 30
0.0
 10
675.7934708853881
 20
1719.858642648921
 30
0.0
 10
676.030044748545
 20
1720.08434376208
 30
0.0
 10
676.2308200631998
 20
1720.267825611309
 30
0.0
 10
676.3770455192366
 20
1720.41370171783
 30
0.0
 10
676.5258011362297
 20
1720.563494045699
 30
0.0
 10
676.7435181295404
 20
1720.756265406556
 30
0.0
 10
677.0399642516204
 20
1720.990762973971
 30
0.0
 10
677.4273706795256
 20
1721.262948116819
 30
0.0
 10
678.2395085945712
 20
1721.806001740619
 30
0.0
 10
679.0021943386129
 20
1722.239030262684
 30
0.0
 10
679.6631502163344
 20
1722.548216892618
 30
0.0
  0
ELLIPSE
  5
1BD
330
174
100
AcDbEntity
  8
P-SANR-FIXT
100
AcDbEllipse
 10
687.4787879208988
 20
1692.655266574655
 30
0.0
 11
0.0
 21
31.02845079977478
 31
0.0
210
0.0
220
0.0
230
1.0
 40
0.9396926207859099
 41
6.011815189188457
 42
6.554555425170708
  0
SPLINE
  5
1BE
330
174
100
AcDbEntity
  8
P-SANR-FIXT
100
AcDbSpline
210
0.0
220
0.0
230
1.0
 70
     8
 71
     3
 72
    23
 73
    19
 74
     0
 42
0.000000001
 43
0.0000000001
 40
-1.0
 40
-1.0
 40
-1.0
 40
-1.0
 40
-0.75
 40
-0.6875
 40
-0.625
 40
-0.5625
 40
-0.53125
 40
-0.5
 40
-0.46875
 40
-0.4375
 40
-0.375
 40
-0.3125
 40
-0.28125
 40
-0.25
 40
-0.21875
 40
-0.1875
 40
-0.125
 40
0.0
 40
0.0
 40
0.0
 40
0.0
 10
695.2944256254646
 20
1722.548216892618
 30
0.0
 10
694.2455870227842
 20
1722.239030262684
 30
0.0
 10
692.8807391576395
 20
1721.806001740619
 30
0.0
 10
691.1480306083539
 20
1721.262948116819
 30
0.0
 10
690.2636869019221
 20
1720.990762973971
 30
0.0
 10
689.504389321809
 20
1720.756265406556
 30
0.0
 10
688.8806639690681
 20
1720.563494045699
 30
0.0
 10
688.4017358694862
 20
1720.41370171783
 30
0.0
 10
687.9181689931407
 20
1720.267825611309
 30
0.0
 10
687.2727736931644
 20
1720.08434376208
 30
0.0
 10
686.4508870134597
 20
1719.858642648921
 30
0.0
 10
685.5807303804956
 20
1719.614563407493
 30
0.0
 10
684.8354600104795
 20
1719.400188341376
 30
0.0
 10
684.244188796659
 20
1719.228106263243
 30
0.0
 10
683.6220265644429
 20
1719.051305606748
 30
0.0
 10
682.7603138451829
 20
1718.821363627127
 30
0.0
 10
681.159088994708
 20
1718.441726801491
 30
0.0
 10
679.6216873743718
 20
1718.203914883039
 30
0.0
 10
678.5299468604266
 20
1718.135746643698
 30
0.0
  0
SPLINE
  5
1BF
330
174
100
AcDbEntity
  8
P-SANR-FIXT
100
AcDbSpline
210
0.0
220
0.0
230
1.0
 70
     8
 71
     3
 72
    21
 73
    17
 74
     0
 42
0.000000001
 43
0.0000000001
 40
-1.0
 40
-1.0
 40
-1.0
 40
-1.0
 40
-0.8333333333333332
 40
-0.75
 40
-0.7083333333333333
 40
-0.6666666666666666
 40
-0.625
 40
-0.5833333333333333
 40
-0.5
 40
-0.4166666666666666
 40
-0.375
 40
-0.3333333333333333
 40
-0.2916666666666666
 40
-0.25
 40
-0.1666666666666666
 40
0.0
 40
0.0
 40
0.0
 40
0.0
 10
698.077284756211
 20
1706.125797276341
 30
0.0
 10
698.0261460736454
 20
1706.485146718031
 30
0.0
 10
698.0083575886681
 20
1706.999051088901
 30
0.0
 10
698.0704620087976
 20
1707.540188935424
 30
0.0
 10
698.1271332106721
 20
1707.830976117449
 30
0.0
 10
698.1790297230515
 20
1708.040494575861
 30
0.0
 10
698.2419568064389
 20
1708.237237383738
 30
0.0
 10
698.3406521768857
 20
1708.480014840213
 30
0.0
 10
698.4853352054719
 20
1708.754506910494
 30
0.0
 10
698.6473365571387
 20
1709.004726698144
 30
0.0
 10
698.7819582852599
 20
1709.199293095724
 30
0.0
 10
698.8838562478723
 20
1709.345730307295
 30
0.0
 10
698.9874174851629
 20
1709.491021607302
 30
0.0
 10
699.1298561418901
 20
1709.677788230847
 30
0.0
 10
699.3884058949483
 20
1709.989660236604
 30
0.0
 10
699.6243227150194
 20
1710.229798529704
 30
0.0
 10
699.7862470843501
 20
1710.377697410437
 30
0.0
  0
SPLINE
  5
1C0
330
174
100
AcDbEntity
  8
P-SANR-FIXT
100
AcDbSpline
210
0.0
220
0.0
230
1.0
 70
     8
 71
     3
 72
     9
 73
     5
 74
     0
 42
0.000000001
 43
0.0000000001
 40
-1.0
 40
-1.0
 40
-1.0
 40
-1.0
 40
-0.5
 40
0.0
 40
0.0
 40
0.0
 40
0.0
 10
699.7862470843501
 20
1710.377697410437
 30
0.0
 10
700.9563302367268
 20
1711.41079223186
 30
0.0
 10
703.6130595590172
 20
1713.197067569771
 30
0.0
 10
706.4815145941024
 20
1714.360293155176
 30
0.0
 10
707.8977827261358
 20
1714.804672403881
 30
0.0
  0
ELLIPSE
  5
1C1
330
174
100
AcDbEntity
  8
P-SANR-FIXT
100
AcDbEllipse
 10
687.4787879208988
 20
1692.655266574655
 30
0.0
 11
0.0
 21
31.02845079977488
 31
0.0
210
0.0
220
0.0
230
1.0
 40
0.939692620785912
 41
4.964617637992258
 42
5.507357873970827
  0
SPLINE
  5
1C2
330
174
100
AcDbEntity
  8
P-SANR-FIXT
100
AcDbSpline
210
0.0
220
0.0
230
1.0
 70
     8
 71
     3
 72
    23
 73
    19
 74
     0
 42
0.000000001
 43
0.0000000001
 40
-1.0
 40
-1.0
 40
-1.0
 40
-1.0
 40
-0.75
 40
-0.6875
 40
-0.625
 40
-0.5625
 40
-0.53125
 40
-0.5
 40
-0.46875
 40
-0.4375
 40
-0.375
 40
-0.3125
 40
-0.28125
 40
-0.25
 40
-0.21875
 40
-0.1875
 40
-0.125
 40
0.0
 40
0.0
 40
0.0
 40
0.0
 10
715.7134204306297
 20
1700.398811063332
 30
0.0
 10
714.5099371466268
 20
1700.422955074849
 30
0.0
 10
712.9432322045147
 20
1700.48391862015
 30
0.0
 10
710.9987305338537
 20
1700.636593051094
 30
0.0
 10
710.017117508886
 20
1700.729490416266
 30
0.0
 10
709.1826992166184
 20
1700.825524738111
 30
0.0
 10
708.5035990672247
 20
1700.916228721714
 30
0.0
 10
707.9853134391741
 20
1700.993476860736
 30
0.0
 10
707.4673682806444
 20
1701.075986574803
 30
0.0
 10
706.7838108735146
 20
1701.18912764767
 30
0.0
 10
705.9245773553676
 20
1701.345990695889
 30
0.0
 10
705.0310323042119
 20
1701.54696017177
 30
0.0
 10
704.2819743974662
 20
1701.754354012487
 30
0.0
 10
703.6988735919709
 20
1701.94149586877
 30
0.0
 10
703.1000045067299
 20
1702.161230686084
 30
0.0
 10
702.2930828929282
 20
1702.492164177676
 30
0.0
 10
700.8617164982549
 20
1703.184885802789
 30
0.0
 10
699.6384494869911
 20
1704.001713764883
 30
0.0
 10
698.8696965584278
 20
1704.665215941975
 30
0.0
  0
SPLINE
  5
1C3
330
174
100
AcDbEntity
  8
P-SANR-FIXT
100
AcDbSpline
210
0.0
220
0.0
230
1.0
 70
     8
 71
     3
 72
    23
 73
    19
 74
     0
 42
0.000000001
 43
0.0000000001
 40
-1.0
 40
-1.0
 40
-1.0
 40
-1.0
 40
-0.875
 40
-0.8125
 40
-0.78125
 40
-0.75
 40
-0.71875
 40
-0.6875
 40
-0.625
 40
-0.5625
 40
-0.53125
 40
-0.5
 40
-0.46875
 40
-0.4375
 40
-0.375
 40
-0.3125
 40
-0.25
 40
0.0
 40
0.0
 40
0.0
 40
0.0
 10
698.8696965584282
 20
1680.645317207335
 30
0.0
 10
699.6384494869912
 20
1681.308819384426
 30
0.0
 10
700.8617164982553
 20
1682.12564734652
 30
0.0
 10
702.2930828929283
 20
1682.818368971634
 30
0.0
 10
703.1000045067302
 20
1683.149302463226
 30
0.0
 10
703.6988735919711
 20
1683.369037280539
 30
0.0
 10
704.2819743974664
 20
1683.556179136823
 30
0.0
 10
705.031032304212
 20
1683.76357297754
 30
0.0
 10
705.9245773553676
 20
1683.964542453421
 30
0.0
 10
706.7838108735148
 20
1684.121405501639
 30
0.0
 10
707.4673682806444
 20
1684.234546574507
 30
0.0
 10
707.9853134391741
 20
1684.317056288574
 30
0.0
 10
708.5035990672247
 20
1684.394304427596
 30
0.0
 10
709.1826992166186
 20
1684.485008411199
 30
0.0
 10
710.0171175088861
 20
1684.581042733043
 30
0.0
 10
710.9987305338537
 20
1684.673940098216
 30
0.0
 10
712.9432322045146
 20
1684.82661452916
 30
0.0
 10
714.5099371466268
 20
1684.88757807446
 30
0.0
 10
715.7134204306297
 20
1684.911722085978
 30
0.0
  0
ELLIPSE
  5
1C4
330
174
100
AcDbEntity
  8
P-SANR-FIXT
100
AcDbEllipse
 10
687.4787879208988
 20
1692.655266574655
 30
0.0
 11
0.0
 21
31.02845079977478
 31
0.0
210
0.0
220
0.0
230
0.9999999999999998
 40
0.9396926207859078
 41
3.917420086798576
 42
4.46016032277714
  0
SPLINE
  5
1C5
330
174
100
AcDbEntity
  8
P-SANR-FIXT
100
AcDbSpline
210
0.0
220
0.0
230
1.0
 70
     8
 71
     3
 72
     9
 73
     5
 74
     0
 42
0.000000001
 43
0.0000000001
 40
-1.0
 40
-1.0
 40
-1.0
 40
-1.0
 40
-0.5
 40
0.0
 40
0.0
 40
0.0
 40
0.0
 10
707.8977827261362
 20
1670.505860745429
 30
0.0
 10
706.4815145941026
 20
1670.950239994134
 30
0.0
 10
703.6130595590175
 20
1672.113465579538
 30
0.0
 10
700.9563302367271
 20
1673.899740917449
 30
0.0
 10
699.7862470843505
 20
1674.932835738872
 30
0.0
  0
SPLINE
  5
1C6
330
174
100
AcDbEntity
  8
P-SANR-FIXT
100
AcDbSpline
210
0.0
220
0.0
230
1.0
 70
     8
 71
     3
 72
    21
 73
    17
 74
     0
 42
0.000000001
 43
0.0000000001
 40
-1.0
 40
-1.0
 40
-1.0
 40
-1.0
 40
-0.8333333333333332
 40
-0.75
 40
-0.7083333333333333
 40
-0.6666666666666666
 40
-0.625
 40
-0.5833333333333333
 40
-0.5
 40
-0.4166666666666666
 40
-0.375
 40
-0.3333333333333333
 40
-0.2916666666666666
 40
-0.25
 40
-0.1666666666666666
 40
0.0
 40
0.0
 40
0.0
 40
0.0
 10
699.7862470843505
 20
1674.932835738872
 30
0.0
 10
699.6243227150196
 20
1675.080734619605
 30
0.0
 10
699.3884058949484
 20
1675.320872912705
 30
0.0
 10
699.1298561418903
 20
1675.632744918462
 30
0.0
 10
698.9874174851633
 20
1675.819511542008
 30
0.0
 10
698.8838562478726
 20
1675.964802842014
 30
0.0
 10
698.7819582852601
 20
1676.111240053586
 30
0.0
 10
698.6473365571389
 20
1676.305806451165
 30
0.0
 10
698.4853352054724
 20
1676.556026238814
 30
0.0
 10
698.3406521768861
 20
1676.830518309096
 30
0.0
 10
698.2419568064391
 20
1677.073295765571
 30
0.0
 10
698.1790297230517
 20
1677.270038573448
 30
0.0
 10
698.1271332106723
 20
1677.47955703186
 30
0.0
 10
698.0704620087976
 20
1677.770344213884
 30
0.0
 10
698.0083575886684
 20
1678.311482060408
 30
0.0
 10
698.0261460736455
 20
1678.825386431277
 30
0.0
 10
698.0772847562112
 20
1679.184735872969
 30
0.0
  0
SPLINE
  5
1C7
330
174
100
AcDbEntity
  8
P-SANR-FIXT
100
AcDbSpline
210
0.0
220
0.0
230
1.0
 70
     8
 71
     3
 72
    23
 73
    19
 74
     0
 42
0.000000001
 43
0.0000000001
 40
-1.0
 40
-1.0
 40
-1.0
 40
-1.0
 40
-0.875
 40
-0.8125
 40
-0.78125
 40
-0.75
 40
-0.71875
 40
-0.6875
 40
-0.625
 40
-0.5625
 40
-0.53125
 40
-0.5
 40
-0.46875
 40
-0.4375
 40
-0.375
 40
-0.3125
 40
-0.25
 40
0.0
 40
0.0
 40
0.0
 40
0.0
 10
678.5299468604274
 20
1667.174786505611
 30
0.0
 10
679.6216873743726
 20
1667.10661826627
 30
0.0
 10
681.159088994709
 20
1666.868806347818
 30
0.0
 10
682.7603138451835
 20
1666.489169522182
 30
0.0
 10
683.6220265644434
 20
1666.259227542561
 30
0.0
 10
684.2441887966596
 20
1666.082426886066
 30
0.0
 10
684.8354600104802
 20
1665.910344807933
 30
0.0
 10
685.5807303804963
 20
1665.695969741816
 30
0.0
 10
686.4508870134601
 20
1665.451890500388
 30
0.0
 10
687.2727736931651
 20
1665.226189387229
 30
0.0
 10
687.9181689931413
 20
1665.042707538
 30
0.0
 10
688.4017358694864
 20
1664.896831431479
 30
0.0
 10
688.8806639690685
 20
1664.74703910361
 30
0.0
 10
689.5043893218093
 20
1664.554267742753
 30
0.0
 10
690.2636869019224
 20
1664.319770175338
 30
0.0
 10
691.1480306083543
 20
1664.047585032491
 30
0.0
 10
692.8807391576398
 20
1663.50453140869
 30
0.0
 10
694.2455870227844
 20
1663.071502886625
 30
0.0
 10
695.2944256254649
 20
1662.762316256691
 30
0.0
  0
ELLIPSE
  5
1C8
330
174
100
AcDbEntity
  8
P-SANR-FIXT
100
AcDbEllipse
 10
687.4787879208988
 20
1692.655266574655
 30
0.0
 11
0.0
 21
31.02845079977468
 31
0.0
210
0.0
220
0.0
230
1.0
 40
0.9396926207859127
 41
2.870222535598683
 42
3.412962771580937
  0
SPLINE
  5
1C9
330
174
100
AcDbEntity
  8
P-SANR-FIXT
100
AcDbSpline
210
0.0
220
0.0
230
1.0
 70
     8
 71
     3
 72
    23
 73
    19
 74
     0
 42
0.000000001
 43
0.0000000001
 40
-1.0
 40
-1.0
 40
-1.0
 40
-1.0
 40
-0.75
 40
-0.6875
 40
-0.625
 40
-0.5625
 40
-0.53125
 40
-0.5
 40
-0.46875
 40
-0.4375
 40
-0.375
 40
-0.3125
 40
-0.28125
 40
-0.25
 40
-0.21875
 40
-0.1875
 40
-0.125
 40
0.0
 40
0.0
 40
0.0
 40
0.0
 10
679.6631502163347
 20
1662.762316256691
 30
0.0
 10
679.0021943386131
 20
1663.071502886624
 30
0.0
 10
678.2395085945713
 20
1663.50453140869
 30
0.0
 10
677.4273706795258
 20
1664.047585032491
 30
0.0
 10
677.039964251621
 20
1664.319770175338
 30
0.0
 10
676.7435181295407
 20
1664.554267742753
 30
0.0
 10
676.5258011362298
 20
1664.74703910361
 30
0.0
 10
676.3770455192368
 20
1664.896831431479
 30
0.0
 10
676.2308200632002
 20
1665.042707538
 30
0.0
 10
676.0300447485451
 20
1665.226189387229
 30
0.0
 10
675.7934708853882
 20
1665.451890500388
 30
0.0
 10
675.6242850626924
 20
1665.695969741816
 30
0.0
 10
675.5616962728214
 20
1665.910344807933
 30
0.0
 10
675.5632666771295
 20
1666.082426886066
 30
0.0
 10
675.6097968901691
 20
1666.259227542561
 30
0.0
 10
675.7157535923023
 20
1666.489169522182
 30
0.0
 10
676.0297528390572
 20
1666.868806347818
 30
0.0
 10
676.5230128064269
 20
1667.10661826627
 30
0.0
 10
676.9451232544209
 20
1667.174786505611
 30
0.0
  0
ELLIPSE
  5
1CA
330
174
100
AcDbEntity
  8
P-SANR-FIXT
100
AcDbEllipse
 10
688.7184100147764
 20
1692.655266574655
 30
0.0
 11
0.0000000000018294
 21
31.53381379959251
 31
0.0
210
0.0
220
0.0
230
1.0
 40
0.9396926207859063
 41
4.712388980384744
 42
6.675884388878371
  0
ELLIPSE
  5
1CB
330
174
100
AcDbEntity
  8
P-SANR-FIXT
100
AcDbEllipse
 10
688.7184100147764
 20
1692.655266574655
 30
0.0
 11
0.0
 21
31.53381379959233
 31
0.0
210
0.0
220
0.0
230
1.0
 40
0.9396926207859131
 41
2.748893571891069
 42
4.712388980384692
  0
ELLIPSE
  5
1CC
330
174
100
AcDbEntity
  8
P-SANR-FIXT
100
AcDbEllipse
 10
687.4787879208995
 20
1728.10012824621
 30
0.0
 11
0.0
 21
10.00000000000002
 31
0.0
210
0.0
220
0.0
230
1.0
 40
0.939692620785911
 41
2.159389081876631
 42
2.706576649650601
  0
ELLIPSE
  5
1CD
330
174
100
AcDbEntity
  8
P-SANR-FIXT
100
AcDbEllipse
 10
687.4787879209001
 20
1657.210404903098
 30
0.0
 11
0.0
 21
9.999999999999928
 31
0.0
210
0.0
220
0.0
230
1.0
 40
0.9396926207859376
 41
0.4350519522223328
 42
0.9822035717131399
  0
ELLIPSE
  5
1CE
330
174
100
AcDbEntity
  8
P-SANR-FIXT
100
AcDbEllipse
 10
716.3237341650648
 20
1710.377697410438
 30
0.0
 11
0.0
 21
10.00000000000013
 31
0.0
210
0.0
220
0.0
230
1.0
 40
0.9396926207859072
 41
1.112191530688557
 42
1.570796326794898
  0
ELLIPSE
  5
1CF
330
174
100
AcDbEntity
  8
P-SANR-FIXT
100
AcDbEllipse
 10
716.3237341650648
 20
1710.377697410438
 30
0.0
 11
0.0
 21
10.00000000000023
 31
0.0
210
0.0
220
0.0
230
1.0
 40
0.9396926207858896
 41
1.570796326794898
 42
3.076598674094977
  0
ELLIPSE
  5
1D0
330
174
100
AcDbEntity
  8
P-SANR-FIXT
100
AcDbEllipse
 10
716.323734165065
 20
1674.932835738872
 30
0.0
 11
0.0
 21
10.00000000000032
 31
0.0
210
0.0
220
0.0
230
1.0
 40
0.9396926207858829
 41
0.0649939794948367
 42
1.570796326794875
  0
ELLIPSE
  5
1D1
330
174
100
AcDbEntity
  8
P-SANR-FIXT
100
AcDbEllipse
 10
716.323734165065
 20
1674.932835738872
 30
0.0
 11
0.0
 21
9.99999999999977
 31
0.0
210
0.0
220
0.0
230
0.9999999999999998
 40
0.9396926207859323
 41
1.570796326794898
 42
2.029401122901274
  0
LINE
  5
1D2
330
174
100
AcDbEntity
  8
P-SANR-FIXT
100
AcDbLine
 10
673.0273949715709
 20
1719.655266574577
 30
0.0
 11
666.579002470451
 21
1719.655266574577
 31
0.0
  0
LINE
  5
1D3
330
174
100
AcDbEntity
  8
P-SANR-FIXT
100
AcDbLine
 10
666.5790024705145
 20
1665.655266574615
 30
0.0
 11
673.027394970136
 21
1665.655266574615
 31
0.0
  0
LINE
  5
1D4
330
174
100
AcDbEntity
  8
P-SANR-FIXT
100
AcDbLine
 10
665.2744009047462
 20
1719.655407758619
 30
0.0
 11
663.2787092592315
 21
1716.208822488466
 31
0.0
  0
LINE
  5
1D5
330
174
100
AcDbEntity
  8
P-SANR-FIXT
100
AcDbLine
 10
663.2787092592317
 20
1669.101710660844
 30
0.0
 11
665.2744009048149
 21
1665.655125390573
 31
0.0
  0
LINE
  5
1D6
330
174
100
AcDbEntity
  8
P-SANR-FIXT
100
AcDbLine
 10
663.2787092592301
 20
1712.99080619667
 30
0.0
 11
663.2787092592301
 21
1716.208822488465
 31
0.0
  0
LINE
  5
1D7
330
174
100
AcDbEntity
  8
P-SANR-FIXT
100
AcDbLine
 10
663.2787092592304
 20
1669.101710660843
 30
0.0
 11
663.2787092592304
 21
1672.319726952928
 31
0.0
  0
SPLINE
  5
1D8
330
174
100
AcDbEntity
  8
P-SANR-FIXT
100
AcDbSpline
210
0.0
220
0.0
230
1.0
 70
     8
 71
     3
 72
     9
 73
     5
 74
     0
 42
0.000000001
 43
0.0000000001
 40
0.4971548179426745
 40
0.4971548179426745
 40
0.4971548179426745
 40
0.4971548179426745
 40
0.5
 40
1.0
 40
1.0
 40
1.0
 40
1.0
 10
665.274400904745
 20
1719.655266574576
 30
0.0
 10
665.2743727416219
 20
1719.655266574576
 30
0.0
 10
665.2718840272854
 20
1719.655266574577
 30
0.0
 10
665.7092399298297
 20
1719.655266574391
 30
0.0
 10
666.5790024704498
 20
1719.655266574576
 30
0.0
  0
SPLINE
  5
1D9
330
174
100
AcDbEntity
  8
P-SANR-FIXT
100
AcDbSpline
210
0.0
220
0.0
230
1.0
 70
     8
 71
     3
 72
     9
 73
     5
 74
     0
 42
0.000000001
 43
0.0000000001
 40
0.0
 40
0.0
 40
0.0
 40
0.0
 40
0.5
 40
1.0
 40
1.0
 40
1.0
 40
1.0
 10
666.5790024704498
 20
1719.655266574576
 30
0.0
 10
666.7247940407194
 20
1719.655266574576
 30
0.0
 10
666.9442634561179
 20
1719.487560529821
 30
0.0
 10
667.0195054212355
 20
1718.982121743565
 30
0.0
 10
667.0210695412239
 20
1718.650457102953
 30
0.0
  0
SPLINE
  5
1DA
330
174
100
AcDbEntity
  8
P-SANR-FIXT
100
AcDbSpline
210
0.0
220
0.0
230
1.0
 70
     8
 71
     3
 72
     9
 73
     5
 74
     0
 42
0.000000001
 43
0.0000000001
 40
0.0
 40
0.0
 40
0.0
 40
0.0
 40
0.5
 40
1.0
 40
1.0
 40
1.0
 40
1.0
 10
667.0210695412239
 20
1718.650457102953
 30
0.0
 10
667.0195054212355
 20
1718.318792462343
 30
0.0
 10
666.9442634561191
 20
1717.50677353791
 30
0.0
 10
666.7247940407234
 20
1716.464431168611
 30
0.0
 10
666.5790024704557
 20
1715.905266574576
 30
0.0
  0
SPLINE
  5
1DB
330
174
100
AcDbEntity
  8
P-SANR-FIXT
100
AcDbSpline
210
0.0
220
0.0
230
1.0
 70
     8
 71
     3
 72
     8
 73
     4
 74
     0
 42
0.000000001
 43
0.0000000001
 40
0.0
 40
0.0
 40
0.0
 40
0.0
 40
0.0163016345034326
 40
0.0163016345034326
 40
0.0163016345034326
 40
0.0163016345034326
 10
666.5790024704557
 20
1715.905266574576
 30
0.0
 10
666.5506453683839
 20
1715.798163399355
 30
0.0
 10
666.5227505334256
 20
1715.691078849583
 30
0.0
 10
666.4953179655806
 20
1715.584012925258
 30
0.0
  0
SPLINE
  5
1DC
330
174
100
AcDbEntity
  8
P-SANR-FIXT
100
AcDbSpline
210
0.0
220
0.0
230
1.0
 70
     8
 71
     3
 72
     8
 73
     4
 74
     0
 42
0.000000001
 43
0.0000000001
 40
0.9834146515269914
 40
0.9834146515269914
 40
0.9834146515269914
 40
0.9834146515269914
 40
1.0
 40
1.0
 40
1.0
 40
1.0
 10
666.4938860748354
 20
1669.72525140027
 30
0.0
 10
666.5217797089809
 20
1669.618570512313
 30
0.0
 10
666.5501518408725
 20
1669.511908903762
 30
0.0
 10
666.5790024705104
 20
1669.405266574615
 30
0.0
  0
SPLINE
  5
1DD
330
174
100
AcDbEntity
  8
P-SANR-FIXT
100
AcDbSpline
210
0.0
220
0.0
230
1.0
 70
     8
 71
     3
 72
     9
 73
     5
 74
     0
 42
0.000000001
 43
0.0000000001
 40
0.0
 40
0.0
 40
0.0
 40
0.0
 40
0.5
 40
1.0
 40
1.0
 40
1.0
 40
1.0
 10
666.5790024705104
 20
1669.405266574615
 30
0.0
 10
666.7247940407894
 20
1668.846101980579
 30
0.0
 10
666.9442634561873
 20
1667.803759611275
 30
0.0
 10
667.0195054212651
 20
1666.991740686838
 30
0.0
 10
667.0210695412241
 20
1666.660076046228
 30
0.0
  0
SPLINE
  5
1DE
330
174
100
AcDbEntity
  8
P-SANR-FIXT
100
AcDbSpline
210
0.0
220
0.0
230
1.0
 70
     8
 71
     3
 72
     9
 73
     5
 74
     0
 42
0.000000001
 43
0.0000000001
 40
0.0
 40
0.0
 40
0.0
 40
0.0
 40
0.5
 40
1.0
 40
1.0
 40
1.0
 40
1.0
 10
667.0210695412241
 20
1666.660076046228
 30
0.0
 10
667.0195054212651
 20
1666.328411405618
 30
0.0
 10
666.9442634561877
 20
1665.822972619367
 30
0.0
 10
666.7247940407913
 20
1665.655266574615
 30
0.0
 10
666.5790024705132
 20
1665.655266574615
 30
0.0
  0
SPLINE
  5
1DF
330
174
100
AcDbEntity
  8
P-SANR-FIXT
100
AcDbSpline
210
0.0
220
0.0
230
1.0
 70
    24
 71
     3
 72
     8
 73
     4
 74
     0
 42
0.000000001
 43
0.0000000001
 40
0.0
 40
0.0
 40
0.0
 40
0.0
 40
0.5
 40
0.5
 40
0.5
 40
0.5
 10
666.5790024705132
 20
1665.655266574615
 30
0.0
 10
665.709239930258
 20
1665.655266574615
 30
0.0
 10
665.27435866013
 20
1665.655266574615
 30
0.0
 10
665.2743586601291
 20
1665.655266574615
 30
0.0
  0
LINE
  5
1E0
330
174
100
AcDbEntity
  8
P-SANR-FIXT
100
AcDbLine
 10
792.4784160481435
 20
1719.655266574578
 30
0.0
 11
777.0870405839816
 21
1719.655266574578
 31
0.0
  0
LINE
  5
1E1
330
174
100
AcDbEntity
  8
P-SANR-FIXT
100
AcDbLine
 10
777.0870405840454
 20
1665.655266574616
 30
0.0
 11
792.4784160480807
 21
1665.655266574616
 31
0.0
  0
LINE
  5
1E2
330
174
100
AcDbEntity
  8
P-SANR-FIXT
100
AcDbLine
 10
795.7787092593632
 20
1716.208822488467
 30
0.0
 11
793.7830176138484
 21
1719.65540775862
 31
0.0
  0
LINE
  5
1E3
330
174
100
AcDbEntity
  8
P-SANR-FIXT
100
AcDbLine
 10
793.7830176137802
 20
1665.655125390574
 30
0.0
 11
795.7787092593634
 21
1669.101710660845
 31
0.0
  0
LINE
  5
1E4
330
174
100
AcDbEntity
  8
P-SANR-FIXT
100
AcDbLine
 10
795.7787092593619
 20
1716.208822488466
 30
0.0
 11
795.778709259362
 21
1692.655266574655
 31
0.0
  0
LINE
  5
1E5
330
174
100
AcDbEntity
  8
P-SANR-FIXT
100
AcDbLine
 10
795.778709259362
 20
1692.655266574655
 30
0.0
 11
795.7787092593621
 21
1669.101710660844
 31
0.0
  0
LINE
  5
1E6
330
174
100
AcDbEntity
  8
P-SANR-FIXT
100
AcDbLine
 10
775.7787092593494
 20
1702.159367483767
 30
0.0
 11
775.7787092593493
 21
1706.155266574603
 31
0.0
  0
LINE
  5
1E7
330
174
100
AcDbEntity
  8
P-SANR-FIXT
100
AcDbLine
 10
775.7787092593493
 20
1706.155266574602
 30
0.0
 11
775.7787092593491
 21
1719.655266574549
 31
0.0
  0
LINE
  5
1E8
330
174
100
AcDbEntity
  8
P-SANR-FIXT
100
AcDbLine
 10
775.7787092593491
 20
1719.655266574549
 30
0.0
 11
775.7787092593491
 21
1719.606462955332
 31
0.0
  0
LINE
  5
1E9
330
174
100
AcDbEntity
  8
P-SANR-FIXT
100
AcDbLine
 10
775.7787092593494
 20
1665.704070193931
 30
0.0
 11
775.7787092593494
 21
1665.65526657476
 31
0.0
  0
LINE
  5
1EA
330
174
100
AcDbEntity
  8
P-SANR-FIXT
100
AcDbLine
 10
775.7787092593494
 20
1665.65526657476
 30
0.0
 11
775.7787092593495
 21
1679.155266574707
 31
0.0
  0
LINE
  5
1EB
330
174
100
AcDbEntity
  8
P-SANR-FIXT
100
AcDbLine
 10
775.7787092593495
 20
1679.155266574707
 30
0.0
 11
775.7787092593494
 21
1683.151165665543
 31
0.0
  0
SPLINE
  5
1EC
330
174
100
AcDbEntity
  8
P-SANR-FIXT
100
AcDbSpline
210
0.0
220
0.0
230
1.0
 70
    24
 71
     3
 72
     8
 73
     4
 74
     0
 42
0.000000001
 43
0.0000000001
 40
0.8147924918283944
 40
0.8147924918283944
 40
0.8147924918283944
 40
0.8147924918283944
 40
0.8795849836582313
 40
0.8795849836582313
 40
0.8795849836582313
 40
0.8795849836582313
 10
775.832176455026
 20
1719.655266574577
 30
0.0
 10
775.8209358335253
 20
1719.655266574577
 30
0.0
 10
775.8137234825512
 20
1719.655266574577
 30
0.0
 10
775.8081495625053
 20
1719.655266574577
 30
0.0
  0
SPLINE
  5
1ED
330
174
100
AcDbEntity
  8
P-SANR-FIXT
100
AcDbSpline
210
0.0
220
0.0
230
1.0
 70
    24
 71
     3
 72
     9
 73
     5
 74
     0
 42
0.000000001
 43
0.0000000001
 40
0.0
 40
0.0
 40
0.0
 40
0.0
 40
0.5
 40
1.0
 40
1.0
 40
1.0
 40
1.0
 10
775.7787092593491
 20
1719.655266574577
 30
0.0
 10
775.7881953704294
 20
1719.655266574577
 30
0.0
 10
776.0157367022814
 20
1719.655266574577
 30
0.0
 10
776.6604162535168
 20
1719.655266574577
 30
0.0
 10
777.0870405839803
 20
1719.655266574577
 30
0.0
  0
SPLINE
  5
1EE
330
174
100
AcDbEntity
  8
P-SANR-FIXT
100
AcDbSpline
210
0.0
220
0.0
230
1.0
 70
    24
 71
     3
 72
     9
 73
     5
 74
     0
 42
0.000000001
 43
0.0000000001
 40
0.0
 40
0.0
 40
0.0
 40
0.0
 40
0.5
 40
0.5028451820573221
 40
0.5028451820573221
 40
0.5028451820573221
 40
0.5028451820573221
 10
792.4784160481422
 20
1719.655266574577
 30
0.0
 10
793.3481785884008
 20
1719.655266574577
 30
0.0
 10
793.7855344913043
 20
1719.655266574577
 30
0.0
 10
793.7830457769701
 20
1719.655266574577
 30
0.0
 10
793.783017613847
 20
1719.655266574577
 30
0.0
  0
SPLINE
  5
1EF
330
174
100
AcDbEntity
  8
P-SANR-FIXT
100
AcDbSpline
210
0.0
220
0.0
230
1.0
 70
     8
 71
     3
 72
     9
 73
     5
 74
     0
 42
0.000000001
 43
0.0000000001
 40
0.0
 40
0.0
 40
0.0
 40
0.0
 40
0.5
 40
1.0
 40
1.0
 40
1.0
 40
1.0
 10
777.0870405839803
 20
1719.655266574577
 30
0.0
 10
777.2332346610398
 20
1719.655266574577
 30
0.0
 10
777.4533125929173
 20
1719.487583986017
 30
0.0
 10
777.5287700803117
 20
1718.982144240278
 30
0.0
 10
777.5303437128882
 20
1718.650457102954
 30
0.0
  0
SPLINE
  5
1F0
330
174
100
AcDbEntity
  8
P-SANR-FIXT
100
AcDbSpline
210
0.0
220
0.0
230
1.0
 70
     8
 71
     3
 72
     9
 73
     5
 74
     0
 42
0.000000001
 43
0.0000000001
 40
0.0
 40
0.0
 40
0.0
 40
0.0
 40
0.5
 40
1.0
 40
1.0
 40
1.0
 40
1.0
 10
777.5303437128882
 20
1718.650457102954
 30
0.0
 10
777.5287700803119
 20
1718.318769965631
 30
0.0
 10
777.4533125929184
 20
1717.506708654671
 30
0.0
 10
777.2332346610438
 20
1716.464392203162
 30
0.0
 10
777.0870405839864
 20
1715.905266574577
 30
0.0
  0
SPLINE
  5
1F1
330
174
100
AcDbEntity
  8
P-SANR-FIXT
100
AcDbSpline
210
0.0
220
0.0
230
1.0
 70
     8
 71
     3
 72
     9
 73
     5
 74
     0
 42
0.000000001
 43
0.0000000001
 40
0.0
 40
0.0
 40
0.0
 40
0.0
 40
0.5
 40
1.0
 40
1.0
 40
1.0
 40
1.0
 10
792.4784160481363
 20
1715.905266574577
 30
0.0
 10
792.3326244778685
 20
1716.464431168611
 30
0.0
 10
792.1131550624729
 20
1717.506773537911
 30
0.0
 10
792.0379130973565
 20
1718.318792462344
 30
0.0
 10
792.0363489773681
 20
1718.650457102953
 30
0.0
  0
SPLINE
  5
1F2
330
174
100
AcDbEntity
  8
P-SANR-FIXT
100
AcDbSpline
210
0.0
220
0.0
230
1.0
 70
     8
 71
     3
 72
     9
 73
     5
 74
     0
 42
0.000000001
 43
0.0000000001
 40
0.0
 40
0.0
 40
0.0
 40
0.0
 40
0.5
 40
1.0
 40
1.0
 40
1.0
 40
1.0
 10
792.0363489773681
 20
1718.650457102953
 30
0.0
 10
792.0379130973565
 20
1718.982121743565
 30
0.0
 10
792.1131550624741
 20
1719.487560529822
 30
0.0
 10
792.3326244778726
 20
1719.655266574577
 30
0.0
 10
792.4784160481422
 20
1719.655266574577
 30
0.0
  0
SPLINE
  5
1F3
330
174
100
AcDbEntity
  8
P-SANR-FIXT
100
AcDbSpline
210
0.0
220
0.0
230
1.0
 70
     8
 71
     3
 72
     9
 73
     5
 74
     0
 42
0.000000001
 43
0.0000000001
 40
0.0
 40
0.0
 40
0.0
 40
0.0
 40
0.5
 40
1.0
 40
1.0
 40
1.0
 40
1.0
 10
777.0870405839864
 20
1715.905266574577
 30
0.0
 10
776.6604162535323
 20
1714.300693511747
 30
0.0
 10
776.0157367023053
 20
1711.071120448927
 30
0.0
 10
775.7881953704408
 20
1707.800693511786
 30
0.0
 10
775.7787092593491
 20
1706.155266574636
 30
0.0
  0
SPLINE
  5
1F4
330
174
100
AcDbEntity
  8
P-SANR-FIXT
100
AcDbSpline
210
0.0
220
0.0
230
1.0
 70
     8
 71
     3
 72
     8
 73
     4
 74
     0
 42
0.000000001
 43
0.0000000001
 40
0.0
 40
0.0
 40
0.0
 40
0.0
 40
0.4065776661209713
 40
0.4065776661209713
 40
0.4065776661209713
 40
0.4065776661209713
 10
775.7787092593491
 20
1706.155266574636
 30
0.0
 10
775.7864229411658
 20
1704.817278886864
 30
0.0
 10
775.863091822602
 20
1703.48604456507
 30
0.0
 10
776.0087159036576
 20
1702.161563609255
 30
0.0
  0
SPLINE
  5
1F5
330
174
100
AcDbEntity
  8
P-SANR-FIXT
100
AcDbSpline
210
0.0
220
0.0
230
1.0
 70
     8
 71
     3
 72
     9
 73
     5
 74
     0
 42
0.000000001
 43
0.0000000001
 40
0.0
 40
0.0
 40
0.0
 40
0.0
 40
0.5
 40
1.0
 40
1.0
 40
1.0
 40
1.0
 10
792.4784160481108
 20
1696.405266574596
 30
0.0
 10
793.3481785883716
 20
1699.620222513579
 30
0.0
 10
794.2179411286365
 20
1706.085178452559
 30
0.0
 10
793.3481785883885
 20
1712.620222513566
 30
0.0
 10
792.4784160481363
 20
1715.905266574577
 30
0.0
  0
SPLINE
  5
1F6
330
174
100
AcDbEntity
  8
P-SANR-FIXT
100
AcDbSpline
210
0.0
220
0.0
230
1.0
 70
     8
 71
     3
 72
     9
 73
     5
 74
     0
 42
0.000000001
 43
0.0000000001
 40
0.0
 40
0.0
 40
0.0
 40
0.0
 40
0.5
 40
1.0
 40
1.0
 40
1.0
 40
1.0
 10
792.4784160481019
 20
1688.905266574596
 30
0.0
 10
792.3326244778293
 20
1689.46443116863
 30
0.0
 10
792.113155062434
 20
1690.67447958268
 30
0.0
 10
792.03791309734
 20
1691.99193729336
 30
0.0
 10
792.0363489773682
 20
1692.655266574576
 30
0.0
  0
SPLINE
  5
1F7
330
174
100
AcDbEntity
  8
P-SANR-FIXT
100
AcDbSpline
210
0.0
220
0.0
230
1.0
 70
     8
 71
     3
 72
     9
 73
     5
 74
     0
 42
0.000000001
 43
0.0000000001
 40
0.0
 40
0.0
 40
0.0
 40
0.0
 40
0.5
 40
1.0
 40
1.0
 40
1.0
 40
1.0
 10
792.0363489773682
 20
1692.655266574576
 30
0.0
 10
792.0379130973401
 20
1693.3185958558
 30
0.0
 10
792.113155062436
 20
1694.636053566495
 30
0.0
 10
792.3326244778352
 20
1695.846101980558
 30
0.0
 10
792.4784160481108
 20
1696.405266574596
 30
0.0
  0
SPLINE
  5
1F8
330
174
100
AcDbEntity
  8
P-SANR-FIXT
100
AcDbSpline
210
0.0
220
0.0
230
1.0
 70
     8
 71
     3
 72
     8
 73
     4
 74
     0
 42
0.000000001
 43
0.0000000001
 40
0.593422333872077
 40
0.593422333872077
 40
0.593422333872077
 40
0.593422333872077
 40
1.0
 40
1.0
 40
1.0
 40
1.0
 10
776.0087159036908
 20
1683.148969540056
 30
0.0
 10
775.8630918226268
 20
1681.824488584231
 30
0.0
 10
775.7864229411798
 20
1680.493254262427
 30
0.0
 10
775.7787092593494
 20
1679.155266574644
 30
0.0
  0
SPLINE
  5
1F9
330
174
100
AcDbEntity
  8
P-SANR-FIXT
100
AcDbSpline
210
0.0
220
0.0
230
1.0
 70
     8
 71
     3
 72
     9
 73
     5
 74
     0
 42
0.000000001
 43
0.0000000001
 40
0.0
 40
0.0
 40
0.0
 40
0.0
 40
0.5
 40
1.0
 40
1.0
 40
1.0
 40
1.0
 10
775.7787092593494
 20
1679.155266574644
 30
0.0
 10
775.7881953704583
 20
1677.509839637479
 30
0.0
 10
776.0157367023492
 20
1674.239412700309
 30
0.0
 10
776.6604162535863
 20
1671.009839637459
 30
0.0
 10
777.0870405840412
 20
1669.405266574615
 30
0.0
  0
SPLINE
  5
1FA
330
174
100
AcDbEntity
  8
P-SANR-FIXT
100
AcDbSpline
210
0.0
220
0.0
230
1.0
 70
     8
 71
     3
 72
     9
 73
     5
 74
     0
 42
0.000000001
 43
0.0000000001
 40
0.0
 40
0.0
 40
0.0
 40
0.0
 40
0.5
 40
1.0
 40
1.0
 40
1.0
 40
1.0
 10
792.478416048082
 20
1669.405266574615
 30
0.0
 10
793.3481785883402
 20
1672.620222513598
 30
0.0
 10
794.2179411286018
 20
1679.085178452578
 30
0.0
 10
793.3481785883535
 20
1685.620222513585
 30
0.0
 10
792.4784160481019
 20
1688.905266574596
 30
0.0
  0
SPLINE
  5
1FB
330
174
100
AcDbEntity
  8
P-SANR-FIXT
100
AcDbSpline
210
0.0
220
0.0
230
1.0
 70
     8
 71
     3
 72
     9
 73
     5
 74
     0
 42
0.000000001
 43
0.0000000001
 40
0.0
 40
0.0
 40
0.0
 40
0.0
 40
0.5
 40
1.0
 40
1.0
 40
1.0
 40
1.0
 10
777.0870405840412
 20
1669.405266574615
 30
0.0
 10
777.2332346611102
 20
1668.846140946029
 30
0.0
 10
777.4533125929869
 20
1667.803824494515
 30
0.0
 10
777.5287700803417
 20
1666.991763183552
 30
0.0
 10
777.5303437128884
 20
1666.660076046229
 30
0.0
  0
SPLINE
  5
1FC
330
174
100
AcDbEntity
  8
P-SANR-FIXT
100
AcDbSpline
210
0.0
220
0.0
230
1.0
 70
     8
 71
     3
 72
     9
 73
     5
 74
     0
 42
0.000000001
 43
0.0000000001
 40
0.0
 40
0.0
 40
0.0
 40
0.0
 40
0.5
 40
1.0
 40
1.0
 40
1.0
 40
1.0
 10
777.5303437128884
 20
1666.660076046229
 30
0.0
 10
777.5287700803417
 20
1666.328388908906
 30
0.0
 10
777.4533125929873
 20
1665.822949163173
 30
0.0
 10
777.2332346611118
 20
1665.655266574615
 30
0.0
 10
777.0870405840439
 20
1665.655266574615
 30
0.0
  0
SPLINE
  5
1FD
330
174
100
AcDbEntity
  8
P-SANR-FIXT
100
AcDbSpline
210
0.0
220
0.0
230
1.0
 70
     8
 71
     3
 72
     9
 73
     5
 74
     0
 42
0.000000001
 43
0.0000000001
 40
0.0
 40
0.0
 40
0.0
 40
0.0
 40
0.5
 40
1.0
 40
1.0
 40
1.0
 40
1.0
 10
792.4784160480792
 20
1665.655266574615
 30
0.0
 10
792.3326244778012
 20
1665.655266574615
 30
0.0
 10
792.1131550624048
 20
1665.822972619368
 30
0.0
 10
792.0379130973273
 20
1666.328411405619
 30
0.0
 10
792.0363489773684
 20
1666.660076046229
 30
0.0
  0
SPLINE
  5
1FE
330
174
100
AcDbEntity
  8
P-SANR-FIXT
100
AcDbSpline
210
0.0
220
0.0
230
1.0
 70
     8
 71
     3
 72
     9
 73
     5
 74
     0
 42
0.000000001
 43
0.0000000001
 40
0.0
 40
0.0
 40
0.0
 40
0.0
 40
0.5
 40
1.0
 40
1.0
 40
1.0
 40
1.0
 10
792.0363489773684
 20
1666.660076046229
 30
0.0
 10
792.0379130973273
 20
1666.991740686839
 30
0.0
 10
792.1131550624053
 20
1667.803759611276
 30
0.0
 10
792.3326244778031
 20
1668.846101980579
 30
0.0
 10
792.478416048082
 20
1669.405266574615
 30
0.0
  0
SPLINE
  5
1FF
330
174
100
AcDbEntity
  8
P-SANR-FIXT
100
AcDbSpline
210
0.0
220
0.0
230
1.0
 70
    24
 71
     3
 72
     9
 73
     5
 74
     0
 42
0.000000001
 43
0.0000000001
 40
0.0
 40
0.0
 40
0.0
 40
0.0
 40
0.5
 40
1.0
 40
1.0
 40
1.0
 40
1.0
 10
777.0870405840439
 20
1665.655266574615
 30
0.0
 10
776.6604162535934
 20
1665.655266574615
 30
0.0
 10
776.0157367023603
 20
1665.655266574615
 30
0.0
 10
775.7881953704636
 20
1665.655266574615
 30
0.0
 10
775.7787092593494
 20
1665.655266574615
 30
0.0
  0
SPLINE
  5
200
330
174
100
AcDbEntity
  8
P-SANR-FIXT
100
AcDbSpline
210
0.0
220
0.0
230
1.0
 70
    24
 71
     3
 72
     8
 73
     4
 74
     0
 42
0.000000001
 43
0.0000000001
 40
0.1204150163092235
 40
0.1204150163092235
 40
0.1204150163092235
 40
0.1204150163092235
 40
0.1852075081550926
 40
0.1852075081550926
 40
0.1852075081550926
 40
0.1852075081550926
 10
775.8037081131118
 20
1665.655266574615
 30
0.0
 10
775.811446386232
 20
1665.655266574615
 30
0.0
 10
775.8193136553463
 20
1665.655266574615
 30
0.0
 10
775.8281406037452
 20
1665.655266574615
 30
0.0
  0
SPLINE
  5
201
330
174
100
AcDbEntity
  8
P-SANR-FIXT
100
AcDbSpline
210
0.0
220
0.0
230
1.0
 70
    24
 71
     3
 72
     8
 73
     4
 74
     0
 42
0.000000001
 43
0.0000000001
 40
0.5
 40
0.5
 40
0.5
 40
0.5
 40
1.0
 40
1.0
 40
1.0
 40
1.0
 10
793.7830598584635
 20
1665.655266574615
 30
0.0
 10
793.7830598584626
 20
1665.655266574615
 30
0.0
 10
793.3481785883345
 20
1665.655266574615
 30
0.0
 10
792.4784160480792
 20
1665.655266574615
 30
0.0
  0
LINE
  5
202
330
174
100
AcDbEntity
  8
P-SANR-FIXT
100
AcDbLine
 10
776.1705606269157
 20
1702.155266574649
 30
0.0
 11
774.7787092593063
 21
1702.155266574649
 31
0.0
  0
LINE
  5
203
330
174
100
AcDbEntity
  8
P-SANR-FIXT
100
AcDbLine
 10
774.7787092593063
 20
1683.155266574661
 30
0.0
 11
776.1705606269158
 21
1683.155266574661
 31
0.0
  0
ELLIPSE
  5
204
330
174
100
AcDbEntity
  8
P-SANR-FIXT
100
AcDbEllipse
 10
776.4325333942069
 20
1692.655266574655
 30
0.0
 11
0.0
 21
8.549574516060602
 31
0.0
210
0.0
220
0.0
230
1.0
 40
0.9612616959382812
 41
4.712388980384685
 42
7.853981633974484
  0
ELLIPSE
  5
205
330
174
100
AcDbEntity
  8
P-SANR-FIXT
100
AcDbEllipse
 10
776.4325333942069
 20
1692.655266574655
 30
0.0
 11
0.0
 21
8.549574516060374
 31
0.0
210
0.0
220
0.0
230
1.0
 40
0.9612616959383332
 41
1.570796326794898
 42
4.712388980384685
  0
ELLIPSE
  5
206
330
174
100
AcDbEntity
  8
P-SANR-FIXT
100
AcDbEllipse
 10
776.1705606269144
 20
1692.655266574655
 30
0.0
 11
0.0
 21
9.499999999994086
 31
0.0
210
0.0
220
0.0
230
0.9999999999999998
 40
0.961261695938303
 41
4.712388980384685
 42
7.853981633974484
  0
ELLIPSE
  5
207
330
174
100
AcDbEntity
  8
P-SANR-FIXT
100
AcDbEllipse
 10
776.1705606269144
 20
1692.655266574655
 30
0.0
 11
0.0
 21
9.499999999994086
 31
0.0
210
0.0
220
0.0
230
0.9999999999999998
 40
0.9612616959383149
 41
1.570796326794898
 42
4.712388980384685
  0
ELLIPSE
  5
208
330
174
100
AcDbEntity
  8
P-SANR-FIXT
100
AcDbEllipse
 10
774.7787092593048
 20
1692.655266574655
 30
0.0
 11
0.0
 21
9.499999999994086
 31
0.0
210
0.0
220
0.0
230
0.9999999999999998
 40
0.9612616959383149
 41
0.0000000000000016
 42
1.570796326794898
  0
ELLIPSE
  5
209
330
174
100
AcDbEntity
  8
P-SANR-FIXT
100
AcDbEllipse
 10
774.7787092593048
 20
1692.655266574655
 30
0.0
 11
0.0
 21
9.499999999994086
 31
0.0
210
0.0
220
0.0
230
0.9999999999999998
 40
0.9612616959383149
 41
1.570796326794898
 42
3.141592653589788
  0
LINE
  5
20A
330
174
100
AcDbEntity
  8
P-SANR-FIXT
100
AcDbLine
 10
828.6787092593376
 20
1713.60526657461
 30
0.0
 11
795.7787092593632
 21
1713.60526657461
 31
0.0
  0
LINE
  5
20B
330
174
100
AcDbEntity
  8
P-SANR-FIXT
100
AcDbLine
 10
795.7787092593634
 20
1671.705266574702
 30
0.0
 11
828.6787092593378
 21
1671.705266574702
 31
0.0
  0
LINE
  5
20C
330
174
100
AcDbEntity
  8
P-SANR-FIXT
100
AcDbLine
 10
829.2787092593377
 20
1713.00526657461
 30
0.0
 11
828.6787092593376
 21
1713.60526657461
 31
0.0
  0
LINE
  5
20D
330
174
100
AcDbEntity
  8
P-SANR-FIXT
100
AcDbLine
 10
828.6787092593378
 20
1671.705266574702
 30
0.0
 11
828.7273446085158
 21
1671.75390192388
 31
0.0
  0
LINE
  5
20E
330
174
100
AcDbEntity
  8
P-SANR-FIXT
100
AcDbLine
 10
828.7432911176285
 20
1671.769848432993
 30
0.0
 11
829.2787092593378
 21
1672.305266574702
 31
0.0
  0
LINE
  5
20F
330
174
100
AcDbEntity
  8
P-SANR-FIXT
100
AcDbLine
 10
828.6787092593364
 20
1692.655266574655
 30
0.0
 11
828.6787092593362
 21
1713.605266574609
 31
0.0
  0
LINE
  5
210
330
174
100
AcDbEntity
  8
P-SANR-FIXT
100
AcDbLine
 10
828.6787092593366
 20
1671.705266574701
 30
0.0
 11
828.6787092593364
 21
1692.655266574655
 31
0.0
  0
LINE
  5
211
330
174
100
AcDbEntity
  8
P-SANR-FIXT
100
AcDbLine
 10
829.2787092593362
 20
1713.005266574609
 30
0.0
 11
829.2787092593362
 21
1692.655266574655
 31
0.0
  0
LINE
  5
212
330
174
100
AcDbEntity
  8
P-SANR-FIXT
100
AcDbLine
 10
829.2787092593362
 20
1692.655266574655
 30
0.0
 11
829.2787092593364
 21
1672.305266574701
 31
0.0
  0
LINE
  5
213
330
174
100
AcDbEntity
  8
P-SANR-FIXT
100
AcDbLine
 10
663.2787092592315
 20
1713.605266574609
 30
0.0
 11
629.8787092592659
 21
1713.605266574609
 31
0.0
  0
LINE
  5
214
330
174
100
AcDbEntity
  8
P-SANR-FIXT
100
AcDbLine
 10
629.8787092592663
 20
1671.705266574701
 30
0.0
 11
663.2787092592316
 21
1671.705266574701
 31
0.0
  0
LINE
  5
215
330
174
100
AcDbEntity
  8
P-SANR-FIXT
100
AcDbLine
 10
629.8787092592659
 20
1713.605266574609
 30
0.0
 11
629.8300739100881
 21
1713.556631225431
 31
0.0
  0
LINE
  5
216
330
174
100
AcDbEntity
  8
P-SANR-FIXT
100
AcDbLine
 10
629.8141274009751
 20
1713.540684716318
 30
0.0
 11
629.2787092592661
 21
1713.005266574609
 31
0.0
  0
LINE
  5
217
330
174
100
AcDbEntity
  8
P-SANR-FIXT
100
AcDbLine
 10
629.2787092592663
 20
1672.305266574701
 30
0.0
 11
629.8141274009755
 21
1671.769848432992
 31
0.0
  0
LINE
  5
218
330
174
100
AcDbEntity
  8
P-SANR-FIXT
100
AcDbLine
 10
629.8300739100887
 20
1671.753901923879
 30
0.0
 11
629.8787092592663
 21
1671.705266574701
 31
0.0
  0
LINE
  5
219
330
174
100
AcDbEntity
  8
P-SANR-FIXT
100
AcDbLine
 10
629.278709259265
 20
1692.655266574654
 30
0.0
 11
629.2787092592649
 21
1713.005266574608
 31
0.0
  0
LINE
  5
21A
330
174
100
AcDbEntity
  8
P-SANR-FIXT
100
AcDbLine
 10
629.2787092592651
 20
1672.3052665747
 30
0.0
 11
629.278709259265
 21
1692.655266574654
 31
0.0
  0
LINE
  5
21B
330
174
100
AcDbEntity
  8
P-SANR-FIXT
100
AcDbLine
 10
629.8787092592648
 20
1713.605266574608
 30
0.0
 11
629.8787092592649
 21
1692.655266574654
 31
0.0
  0
LINE
  5
21C
330
174
100
AcDbEntity
  8
P-SANR-FIXT
100
AcDbLine
 10
629.8787092592649
 20
1692.655266574654
 30
0.0
 11
629.878709259265
 21
1671.7052665747
 31
0.0
  0
LINE
  5
21D
330
174
100
AcDbEntity
  8
P-SANR-FIXT
100
AcDbLine
 10
765.5940671913352
 20
1698.655266574656
 30
0.0
 11
763.7433556591656
 21
1698.655266574656
 31
0.0
  0
LINE
  5
21E
330
174
100
AcDbEntity
  8
P-SANR-FIXT
100
AcDbLine
 10
763.7433878397642
 20
1686.655266574655
 30
0.0
 11
765.5938046433044
 21
1686.655266574655
 31
0.0
  0
LWPOLYLINE
  5
21F
330
174
100
AcDbEntity
  8
P-SANR-FIXT
100
AcDbPolyline
 90
       16
 70
   128
 43
0.0
 10
761.2951263343277
 20
1714.652621978952
 10
760.2873485343368
 20
1715.456117765005
 10
758.623554610881
 20
1716.675258493535
 10
756.8438274630369
 20
1717.87063340297
 10
754.9493302718437
 20
1719.033070208913
 10
752.9423294407813
 20
1720.153236360966
 10
750.8262236555554
 20
1721.221769728333
 10
748.6055554919178
 20
1722.229415136126
 10
746.2860043700144
 20
1723.16716435078
 10
743.8743600236957
 20
1724.026396851625
 10
741.3784760841181
 20
1724.799018525212
 10
738.807203857425
 20
1725.477595294358
 10
736.1703068911087
 20
1726.055478657357
 10
733.4783574542188
 20
1726.526920173637
 10
730.7426165818675
 20
1726.887172095246
 10
729.0552241331695
 20
1727.03678469047
  0
LWPOLYLINE
  5
220
330
174
100
AcDbEntity
  8
P-SANR-FIXT
100
AcDbPolyline
 90
       17
 70
   128
 43
0.0
 10
729.0260848304103
 20
1658.264707443635
 10
729.4377226475248
 20
1658.292880199437
 10
732.1900777033842
 20
1658.599235457739
 10
734.9041654311353
 20
1659.018651194574
 10
737.5684451941123
 20
1659.546883038405
 10
740.1720033043038
 20
1660.178643923812
 10
742.7046800273195
 20
1660.907697272537
 10
745.1571811074178
 20
1661.72696526623
 10
747.5211719221597
 20
1662.628649523087
 10
749.7893528912269
 20
1663.60436127886
 10
751.955515294763
 20
1664.64525806393
 10
754.0145771813437
 20
1665.742183859489
 10
755.9625995444867
 20
1666.885809800259
 10
757.7967834026075
 20
1668.066772657527
 10
759.5154488172316
 20
1669.275808570753
 10
761.1179972188679
 20
1670.503879783156
 10
761.3029279336625
 20
1670.657909293303
  0
LINE
  5
221
330
174
100
AcDbEntity
  8
P-SANR-FIXT
100
AcDbLine
 10
716.1929315711776
 20
1729.655266574656
 30
0.0
 11
711.0181233596303
 21
1729.655266574656
 31
0.0
  0
LINE
  5
222
330
174
100
AcDbEntity
  8
P-SANR-FIXT
100
AcDbLine
 10
711.0181233596303
 20
1655.655266574655
 30
0.0
 11
716.1929315711778
 21
1655.655266574655
 31
0.0
  0
LWPOLYLINE
  5
223
330
174
100
AcDbEntity
  8
P-SANR-FIXT
100
AcDbPolyline
 90
       32
 70
   128
 43
0.0
 10
753.2939995620322
 20
1692.655266574656
 10
753.26742892759
 20
1694.068867596481
 10
753.1877565619597
 20
1695.480259761501
 10
753.0551010438967
 20
1696.887237136322
 10
752.8696598902755
 20
1698.287599633582
 10
752.6317093847313
 20
1699.679155933058
 10
752.3416043381567
 20
1701.059726400721
 10
751.9997777813768
 20
1702.427146005368
 10
751.6067405903034
 20
1703.779267232809
 10
751.1630810437757
 20
1705.113962997862
 10
750.6694643140932
 20
1706.42912955481
 10
750.1266318899409
 20
1707.722689407341
 10
749.5354009309843
 20
1708.992594219374
 10
748.8966635528471
 20
1710.236827728491
 10
748.2113860404962
 20
1711.45340866402
 10
747.480607987233
 20
1712.640393671945
 10
746.705441355542
 20
1713.795880248913
 10
745.8870694549841
 20
1714.918009687492
 10
745.0267458311806
 20
1716.004970034514
 10
744.1257930587227
 20
1717.054999063812
 10
743.1856014296382
 20
1718.066387263837
 10
742.2076275278556
 20
1719.037480839568
 10
741.1933926790451
 20
1719.966684726696
 10
740.1444812642954
 20
1720.852465614386
 10
739.0625388854264
 20
1721.693354970895
 10
737.9492703693923
 20
1722.487952064045
 10
736.806437599286
 20
1723.234926966081
 10
735.6358571599738
 20
1723.933023529736
 10
734.439397787442
 20
1724.581062319654
 10
733.2189776125577
 20
1725.177943480594
 10
731.9765611921557
 20
1725.722649521315
 10
730.8867882639605
 20
1726.147022649737
  0
LWPOLYLINE
  5
224
330
174
100
AcDbEntity
  8
P-SANR-FIXT
100
AcDbPolyline
 90
       33
 70
   128
 43
0.0
 10
730.8867882639605
 20
1659.167251738338
 10
731.6377125317132
 20
1659.449927718075
 10
732.8857235483203
 20
1659.980387856568
 10
734.1122761178478
 20
1660.563283279031
 10
735.3153936896043
 20
1661.197619188665
 10
736.4931453004539
 20
1661.882317690704
 10
737.6436486019967
 20
1662.616220549629
 10
738.7650726736168
 20
1663.398092036798
 10
739.8556406277926
 20
1664.226621846736
 10
740.9136320164208
 20
1665.100428062833
 10
741.9373850487009
 20
1666.01806015584
 10
742.925298632316
 20
1666.978002001267
 10
743.8758342503074
 20
1667.978674904504
 10
744.7875176862217
 20
1669.018440625003
 10
745.6589406098514
 20
1670.095604393228
 10
746.488762035319
 20
1671.208417916133
 10
747.2757096623918
 20
1672.355082368755
 10
748.0185811108874
 20
1673.533751370953
 10
748.7162450568644
 20
1674.742533949543
 10
749.36764227809
 20
1675.979497486921
 10
749.971786615062
 20
1677.242670657901
 10
750.527765852695
 20
1678.530046356866
 10
751.0347425267045
 20
1679.839584617464
 10
751.4919546577224
 20
1681.169215527094
 10
751.8987164153426
 20
1682.516842138245
 10
752.2544187135443
 20
1683.880343378527
 10
752.5585297383624
 20
1685.257576960869
 10
752.8105954082036
 20
1686.64638229502
 10
753.0102397668753
 20
1688.044583401106
 10
753.1571653091612
 20
1689.449991825587
 10
753.2511532386628
 20
1690.860409559689
 10
753.2920636575816
 20
1692.273631959996
 10
753.2939995620322
 20
1692.655266574655
  0
LWPOLYLINE
  5
225
330
174
100
AcDbEntity
  8
P-SANR-FIXT
100
AcDbPolyline
 90
       41
 70
   128
 43
0.0
 10
751.1123269882915
 20
1692.655266574656
 10
751.0846288730471
 20
1694.128851597761
 10
751.0015758687394
 20
1695.600131802455
 10
750.8632919624239
 20
1697.066805447256
 10
750.6699836751957
 20
1698.526576943503
 10
750.4219398764263
 20
1699.977159929251
 10
750.1195315241236
 20
1701.416280340362
 10
749.7632113317774
 20
1702.841679478214
 10
749.3535133620247
 20
1704.251117073734
 10
748.8910525473971
 20
1705.642374347775
 10
748.3765241382111
 20
1707.013257068273
 10
747.8107030773787
 20
1708.36159860494
 10
747.1944433014802
 20
1709.685262982686
 10
746.5286769669069
 20
1710.982147935256
 10
745.8144135991903
 20
1712.250187960902
 10
745.0527391628172
 20
1713.487357382038
 10
744.2448150478938
 20
1714.691673410957
 10
743.3918769689666
 20
1715.86119922352
 10
742.4952337701686
 20
1716.994047042472
 10
741.5562661296631
 20
1718.088381231478
 10
740.576425155157
 20
1719.142421400186
 10
739.557230861074
 20
1720.154445519524
 10
738.5002705169186
 20
1721.122793045044
 10
737.4071968554578
 20
1722.045868044441
 10
736.2797261286853
 20
1722.922142323346
 10
735.1196359991998
 20
1723.750158541258
 10
733.9287632546877
 20
1724.528533306946
 10
732.7090013337261
 20
1725.255960240063
 10
731.4622976521808
 20
1725.931212982919
 10
730.190650721095
 20
1726.553148143752
 10
728.8961070491855
 20
1727.120708150266
 10
727.5807578258641
 20
1727.632923989976
 10
726.2467353840394
 20
1728.088917812082
 10
724.8962094457881
 20
1728.48790536433
 10
723.5313831581628
 20
1728.82919823772
 10
722.1544889308288
 20
1729.112205892071
 10
720.7677840917185
 20
1729.336437436487
 10
719.3735463812632
 20
1729.501503140579
 10
717.9740693098601
 20
1729.607115655043
 10
716.5716574068201
 20
1729.653090923641
 10
716.1929315711778
 20
1729.655266574656
  0
LWPOLYLINE
  5
226
330
174
100
AcDbEntity
  8
P-SANR-FIXT
100
AcDbPolyline
 90
       41
 70
   128
 43
0.0
 10
716.1929315711778
 20
1655.655266574655
 10
717.5957397427957
 20
1655.685127181736
 10
718.9962363576954
 20
1655.774656926421
 10
720.3921147375065
 20
1655.923699746867
 10
721.7810779258126
 20
1656.131996096787
 10
723.1608434632532
 20
1656.399183771601
 10
724.5291480622674
 20
1656.724799047321
 10
725.8837521523638
 20
1657.108278115311
 10
727.2224442702403
 20
1657.548958792352
 10
728.5430452730455
 20
1658.046082482558
 10
729.8434123573994
 20
1658.598796365563
 10
731.1214428712637
 20
1659.206155784201
 10
732.3750779102176
 20
1659.867126804496
 10
733.602305693954
 20
1660.580588921187
 10
734.8011647227508
 20
1661.345337883109
 10
735.969746717144
 20
1662.160088614433
 10
737.1061993469953
 20
1663.023478209909
 10
738.2087287585085
 20
1663.934068984706
 10
739.2756019095473
 20
1664.890351562128
 10
740.3051487248033
 20
1665.890747985155
 10
741.2957640830284
 20
1666.933614840482
 10
742.2459096487351
 20
1668.017246386241
 10
743.1541155605128
 20
1669.13987767693
 10
744.0189819875492
 20
1670.299687681168
 10
744.8391805650857
 20
1671.494802389646
 10
745.6134557185118
 20
1672.72329791215
 10
746.3406258846575
 20
1673.983203563693
 10
747.0195846376317
 20
1675.27250494066
 10
747.6493017253611
 20
1676.589146988485
 10
748.228824021815
 20
1677.931037062756
 10
748.7572763988358
 20
1679.296047985749
 10
749.2338625205127
 20
1680.682021100435
 10
749.6578655621872
 20
1682.086769323797
 10
750.0286488554622
 20
1683.508080201048
 10
750.3456564599972
 20
1684.943718962031
 10
750.6084136624227
 20
1686.391431580669
 10
750.8165274023743
 20
1687.848947837997
 10
750.9696866254329
 20
1689.31398438889
 10
751.0676625626403
 20
1690.784247832288
 10
751.1103089362363
 20
1692.257437784409
 10
751.1123269882915
 20
1692.655266574655
  0
SPLINE
  5
227
330
174
100
AcDbEntity
  8
P-SANR-FIXT
100
AcDbSpline
210
0.0
220
0.0
230
1.0
 70
     8
 71
     3
 72
    22
 73
    18
 74
     0
 42
0.000000001
 43
0.0000000001
 40
0.4841875786366053
 40
0.4841875786366053
 40
0.4841875786366053
 40
0.4841875786366053
 40
0.5
 40
0.5625
 40
0.59375
 40
0.625
 40
0.65625
 40
0.6875
 40
0.71875
 40
0.75
 40
0.78125
 40
0.8125
 40
0.84375
 40
0.875
 40
0.90625
 40
0.9375
 40
1.0
 40
1.0
 40
1.0
 40
1.0
 10
763.742614802125
 20
1698.655263595241
 30
0.0
 10
763.7129381844499
 20
1698.65525890646
 30
0.0
 10
763.5663010850061
 20
1698.65082990315
 30
0.0
 10
763.3641537859946
 20
1698.614251161465
 30
0.0
 10
763.1415315361941
 20
1698.532385425491
 30
0.0
 10
762.9726414677035
 20
1698.44961772564
 30
0.0
 10
762.8070975865304
 20
1698.345816434417
 30
0.0
 10
762.6478500429134
 20
1698.22177396131
 30
0.0
 10
762.4907672329152
 20
1698.075848682079
 30
0.0
 10
762.3307977815059
 20
1697.904457442439
 30
0.0
 10
762.1763111107431
 20
1697.709305380958
 30
0.0
 10
762.0310465002305
 20
1697.491746864065
 30
0.0
 10
761.8869473523568
 20
1697.245837033752
 30
0.0
 10
761.7388658565417
 20
1696.964399805149
 30
0.0
 10
761.5902319845954
 20
1696.644140129739
 30
0.0
 10
761.4054198024438
 20
1696.169870943228
 30
0.0
 10
761.286681552246
 20
1695.758238985551
 30
0.0
 10
761.2236739167501
 20
1695.459492728767
 30
0.0
  0
SPLINE
  5
228
330
174
100
AcDbEntity
  8
P-SANR-FIXT
100
AcDbSpline
210
0.0
220
0.0
230
1.0
 70
     8
 71
     3
 72
    22
 73
    18
 74
     0
 42
0.000000001
 43
0.0000000001
 40
0.0
 40
0.0
 40
0.0
 40
0.0
 40
0.0625
 40
0.09375
 40
0.125
 40
0.15625
 40
0.1875
 40
0.21875
 40
0.25
 40
0.28125
 40
0.3125
 40
0.34375
 40
0.375
 40
0.40625
 40
0.4375
 40
0.5
 40
0.5178552585527696
 40
0.5178552585527696
 40
0.5178552585527696
 40
0.5178552585527696
 10
761.2099002041929
 20
1689.909078358932
 30
0.0
 10
761.271820344589
 20
1689.605667654853
 30
0.0
 10
761.3896669530982
 20
1689.187443192014
 30
0.0
 10
761.5741446957535
 20
1688.705453546764
 30
0.0
 10
761.7228461863471
 20
1688.379931067742
 30
0.0
 10
761.8710580196654
 20
1688.093865106312
 30
0.0
 10
762.0152370899197
 20
1687.843910826365
 30
0.0
 10
762.1606121305984
 20
1687.622737181953
 30
0.0
 10
762.3153981680919
 20
1687.424249880626
 30
0.0
 10
762.4757773287551
 20
1687.249839800075
 30
0.0
 10
762.6331855475967
 20
1687.10125094606
 30
0.0
 10
762.7927752757245
 20
1686.974788560345
 30
0.0
 10
762.9587618467675
 20
1686.868744837533
 30
0.0
 10
763.1281602852393
 20
1686.78392845252
 30
0.0
 10
763.3514046673989
 20
1686.699614968101
 30
0.0
 10
763.5579537666301
 20
1686.660445666356
 30
0.0
 10
763.7089665467437
 20
1686.655275990002
 30
0.0
 10
763.7426077019735
 20
1686.655270418845
 30
0.0
  0
ELLIPSE
  5
229
330
174
100
AcDbEntity
  8
P-SANR-FIXT
100
AcDbEllipse
 10
772.0223357011308
 20
1692.655266574655
 30
0.0
 11
0.0
 21
9.000000000000104
 31
0.0
210
0.0
220
0.0
230
1.0
 40
0.9612616959383061
 41
0.0138843526030652
 42
1.253940254059777
  0
LWPOLYLINE
  5
22A
330
174
100
AcDbEntity
  8
P-SANR-FIXT
100
AcDbPolyline
 90
        3
 70
   128
 43
0.0
 10
763.8804918699681
 20
1695.459492728767
 10
763.5385246090126
 20
1694.075161699869
 10
763.4235758150018
 20
1692.655266574655
  0
LWPOLYLINE
  5
22B
330
174
100
AcDbEntity
  8
P-SANR-FIXT
100
AcDbPolyline
 90
        3
 70
   128
 43
0.0
 10
763.4235758150018
 20
1692.655266574655
 10
763.5336684072736
 20
1691.265503061806
 10
763.8613051908699
 20
1689.909078358932
  0
ELLIPSE
  5
22C
330
174
100
AcDbEntity
  8
P-SANR-FIXT
100
AcDbEllipse
 10
772.0223357011308
 20
1692.655266574655
 30
0.0
 11
0.0
 21
8.999999999999992
 31
0.0
210
0.0
220
0.0
230
1.0
 40
0.9612616959383061
 41
1.880873388482023
 42
3.127614880262956
  0
SPLINE
  5
22D
330
174
100
AcDbEntity
  8
P-SANR-FIXT
100
AcDbSpline
210
0.0
220
0.0
230
1.0
 70
     8
 71
     3
 72
     9
 73
     5
 74
     0
 42
0.000000001
 43
0.0000000001
 40
-1.0
 40
-1.0
 40
-1.0
 40
-1.0
 40
-0.5
 40
0.0
 40
0.0
 40
0.0
 40
0.0
 10
753.841500449491
 20
1692.655266574655
 30
0.0
 10
753.8414851816449
 20
1693.123579992132
 30
0.0
 10
753.8205266021531
 20
1694.059264435295
 30
0.0
 10
753.7577119350619
 20
1694.993064094873
 30
0.0
 10
753.7158405796165
 20
1695.459492728767
 30
0.0
  0
SPLINE
  5
22E
330
174
100
AcDbEntity
  8
P-SANR-FIXT
100
AcDbSpline
210
0.0
220
0.0
230
1.0
 70
     8
 71
     3
 72
     9
 73
     5
 74
     0
 42
0.000000001
 43
0.0000000001
 40
-1.0
 40
-1.0
 40
-1.0
 40
-1.0
 40
-0.5
 40
0.0
 40
0.0
 40
0.0
 40
0.0
 10
753.7209967329129
 20
1689.909078358932
 30
0.0
 10
753.7611505980044
 20
1690.365891412002
 30
0.0
 10
753.8213884158588
 20
1691.280402501027
 30
0.0
 10
753.8414864090565
 20
1692.196683555818
 30
0.0
 10
753.841500449491
 20
1692.655266574655
 30
0.0
  0
ELLIPSE
  5
22F
330
174
100
AcDbEntity
  8
P-SANR-FIXT
100
AcDbEllipse
 10
711.0181233596291
 20
1692.655266574655
 30
0.0
 11
0.0
 21
36.9999999999998
 31
0.0
210
0.0
220
0.0
230
1.0
 40
0.9396926207859102
 41
4.712388980384703
 42
6.611449065129261
  0
ELLIPSE
  5
230
330
174
100
AcDbEntity
  8
P-SANR-FIXT
100
AcDbEllipse
 10
711.0181233596291
 20
1692.655266574655
 30
0.0
 11
0.0
 21
37.0
 31
0.0
210
0.0
220
0.0
230
1.0
 40
0.9396926207859046
 41
2.813328895646749
 42
4.712388980384691
  0
LINE
  5
231
330
174
100
AcDbEntity
  8
P-SANR-FIXT
100
AcDbLine
 10
763.86130519087
 20
1689.909078358932
 30
0.0
 11
753.7209967329129
 21
1689.909078358932
 31
0.0
  0
LINE
  5
232
330
174
100
AcDbEntity
  8
P-SANR-FIXT
100
AcDbLine
 10
753.7158405796165
 20
1695.459492728767
 30
0.0
 11
763.8804918699681
 21
1695.459492728767
 31
0.0
  0
LINE
  5
233
330
174
100
AcDbEntity
  8
P-SANR-FIXT
100
AcDbLine
 10
775.7787092593503
 20
1716.805266574656
 30
0.0
 11
774.278709259302
 21
1716.805266574656
 31
0.0
  0
LINE
  5
234
330
174
100
AcDbEntity
  8
P-SANR-FIXT
100
AcDbLine
 10
774.2787092593023
 20
1668.505266574655
 30
0.0
 11
775.7787092593507
 21
1668.505266574655
 31
0.0
  0
LINE
  5
235
330
174
100
AcDbEntity
  8
P-SANR-FIXT
100
AcDbLine
 10
774.278709259302
 20
1716.805266574656
 30
0.0
 11
774.2428620019726
 21
1716.743177303649
 31
0.0
  0
LINE
  5
236
330
174
100
AcDbEntity
  8
P-SANR-FIXT
100
AcDbLine
 10
774.2357276157962
 20
1716.730820184311
 30
0.0
 11
773.4126838555174
 21
1715.305266574655
 31
0.0
  0
LINE
  5
237
330
174
100
AcDbEntity
  8
P-SANR-FIXT
100
AcDbLine
 10
773.4126838555178
 20
1670.005266574656
 30
0.0
 11
774.2357276157966
 21
1668.579712965
 31
0.0
  0
LINE
  5
238
330
174
100
AcDbEntity
  8
P-SANR-FIXT
100
AcDbLine
 10
774.242862001973
 20
1668.567355845662
 30
0.0
 11
774.2787092593023
 21
1668.505266574656
 31
0.0
  0
LINE
  5
239
330
174
100
AcDbEntity
  8
P-SANR-FIXT
100
AcDbLine
 10
772.2868508305978
 20
1714.655266574656
 30
0.0
 11
760.262802711874
 21
1714.655266574656
 31
0.0
  0
LINE
  5
23A
330
174
100
AcDbEntity
  8
P-SANR-FIXT
100
AcDbLine
 10
760.2528824620506
 20
1670.655266574655
 30
0.0
 11
772.286850830598
 21
1670.655266574655
 31
0.0
  0
LWPOLYLINE
  5
23B
330
174
100
AcDbEntity
  8
P-SANR-FIXT
100
AcDbPolyline
 90
       28
 70
   128
 43
0.0
 10
772.2868508305978
 20
1714.655266574655
 10
772.3388369650404
 20
1714.656306435996
 10
772.3907399327576
 20
1714.659424356462
 10
772.4424767000733
 20
1714.664615348046
 10
772.4939644991962
 20
1714.671871106267
 10
772.5451209606314
 20
1714.681180023462
 10
772.5958642449531
 20
1714.692527207348
 10
772.6461131737311
 20
1714.705894504851
 10
772.6957873593987
 20
1714.721260531148
 10
772.7448073338554
 20
1714.738600703874
 10
772.793094675599
 20
1714.757887282452
 10
772.8405721351834
 20
1714.779089412469
 10
772.8871637588016
 20
1714.802173175042
 10
772.9327950097947
 20
1714.827101641074
 10
772.977392887895
 20
1714.853834930338
 10
773.0208860460114
 20
1714.882330275273
 10
773.0632049043689
 20
1714.912542089406
 10
773.1042817618217
 20
1714.944422040279
 10
773.1440509041606
 20
1714.977919126772
 10
773.1824487092414
 20
1715.012979760692
 10
773.2194137487671
 20
1715.049547852504
 10
773.2548868865599
 20
1715.087564901062
 10
773.2888113731664
 20
1715.126970087197
 10
773.3211329366451
 20
1715.167700371019
 10
773.3517998693891
 20
1715.209690592761
 10
773.3807631108479
 20
1715.252873577027
 10
773.4079763260141
 20
1715.297180240253
 10
773.4126838555174
 20
1715.305266574655
  0
LWPOLYLINE
  5
23C
330
174
100
AcDbEntity
  8
P-SANR-FIXT
100
AcDbPolyline
 90
       28
 70
   128
 43
0.0
 10
773.4126838555178
 20
1670.005266574656
 10
773.3857902419589
 20
1670.049767957057
 10
773.3571385597699
 20
1670.093158285399
 10
773.3267746455301
 20
1670.135368144413
 10
773.2947470750247
 20
1670.176330007327
 10
773.261107085535
 20
1670.2159783439
 10
773.2259084938675
 20
1670.254249725251
 10
773.1892076102604
 20
1670.291082925334
 10
773.1510631482982
 20
1670.326419018886
 10
773.1115361309833
 20
1670.360201475696
 10
773.0706897931113
 20
1670.392376251038
 10
773.0285894801092
 20
1670.422891872136
 10
772.9853025434972
 20
1670.451699520507
 10
772.9408982331396
 20
1670.478753110057
 10
772.8954475864605
 20
1670.504009360816
 10
772.849023314799
 20
1670.527427868168
 10
772.8016996870867
 20
1670.548971167498
 10
772.7535524110325
 20
1670.568604794123
 10
772.7046585120072
 20
1670.586297338429
 10
772.6550962098195
 20
1670.602020496118
 10
772.6049447935795
 20
1670.615749113494
 10
772.5542844948554
 20
1670.627461227695
 10
772.5031963593179
 20
1670.637138101839
 10
772.4517621170855
 20
1670.644764254991
 10
772.4000640519742
 20
1670.650327486932
 10
772.3481848698597
 20
1670.653818897678
 10
772.2962075663659
 20
1670.655232901718
 10
772.286850830598
 20
1670.655266574655
  0
LINE
  5
23D
330
174
100
AcDbEntity
  8
P-SANR-FIXT
100
AcDbLine
 10
775.7787092593491
 20
1707.522993866482
 30
0.0
 11
775.7787092593491
 21
1704.806420240536
 31
0.0
  0
LINE
  5
23E
330
174
100
AcDbEntity
  8
P-SANR-FIXT
100
AcDbLine
 10
775.7787092593494
 20
1680.504112908472
 30
0.0
 11
775.7787092593494
 21
1677.787539283016
 31
0.0
  0
LINE
  5
23F
330
174
100
AcDbEntity
  8
P-SANR-FIXT
100
AcDbLine
 10
774.2787092593007
 20
1716.805266574655
 30
0.0
 11
774.2787092593008
 21
1702.124629340495
 31
0.0
  0
LINE
  5
240
330
174
100
AcDbEntity
  8
P-SANR-FIXT
100
AcDbLine
 10
774.2787092593008
 20
1683.185903808815
 30
0.0
 11
774.2787092593009
 21
1668.505266574655
 31
0.0
  0
ENDBLK
  5
242
330
174
100
AcDbEntity
  8
0
100
AcDbBlockEnd
  0
BLOCK
  5
2D2
330
244
100
AcDbEntity
  8
0
100
AcDbBlockBegin
  2
Automatic flow rate regulator valve_Caleffi_121 DN15 - 1 1_4__-V2-Est - Idraulica
 70
     0
 10
0.0
 20
0.0
 30
0.0
  3
Automatic flow rate regulator valve_Caleffi_121 DN15 - 1 1_4__-V2-Est - Idraulica
  1

  0
LINE
  5
245
330
244
100
AcDbEntity
  8
M-PIPE
100
AcDbLine
 10
1143.924869398236
 20
2120.373573815518
 30
0.0
 11
1144.150620947882
 21
2123.232127951435
 31
0.0
1001
REVIT
1002
{
1070
     3
1000
923097
1002
}
  0
LINE
  5
246
330
244
100
AcDbEntity
  8
M-PIPE
100
AcDbLine
 10
1210.303838488004
 20
2120.373573815515
 30
0.0
 11
1210.078086938358
 21
2123.232127951433
 31
0.0
1001
REVIT
1002
{
1070
     3
1000
923097
1002
}
  0
ELLIPSE
  5
247
330
244
100
AcDbEntity
  8
M-PIPE
100
AcDbEllipse
 10
1177.114353943118
 20
2120.08780464777
 30
0.0
 11
33.19999999999992
 21
0.0
 31
0.0
210
0.0
220
0.0
230
1.0
 40
0.3420201433256513
 41
3.116423335088675
 42
4.712388980384676
1001
REVIT
1002
{
1070
     3
1000
923097
1002
}
  0
ELLIPSE
  5
248
330
244
100
AcDbEntity
  8
M-PIPE
100
AcDbEllipse
 10
1434.133123588463
 20
2124.196001755318
 30
0.0
 11
236.1572155968437
 21
185.0128901497034
 31
0.0
210
0.0
220
0.0
230
1.0
 40
0.9076733711902388
 41
2.399156183309993
 42
2.444393675997408
1001
REVIT
1002
{
1070
     3
1000
923097
1002
}
  0
ELLIPSE
  5
249
330
244
100
AcDbEntity
  8
M-PIPE
100
AcDbEllipse
 10
1177.114353943118
 20
2122.906882510105
 30
0.0
 11
32.97744693864693
 21
0.0
 31
0.0
210
0.0
220
0.0
230
1.0
 40
0.3420201433256556
 41
2.879793265790056
 42
3.403392041389407
1001
REVIT
1002
{
1070
     3
1000
923097
1002
}
  0
ELLIPSE
  5
24A
330
244
100
AcDbEntity
  8
M-PIPE
100
AcDbEllipse
 10
1434.133123588464
 20
2077.087534607233
 30
0.0
 11
-236.1572155968462
 21
185.0128901496993
 31
0.0
210
0.0
220
0.0
230
1.0
 40
0.90767337119025
 41
0.5105023395578339
 42
0.5390740273873613
1001
REVIT
1002
{
1070
     3
1000
923097
1002
}
  0
ELLIPSE
  5
24B
330
244
100
AcDbEntity
  8
M-PIPE
100
AcDbEllipse
 10
920.0955842977721
 20
2077.087534607244
 30
0.0
 11
236.1572155968484
 21
185.012890149696
 31
0.0
210
0.0
220
0.0
230
1.0
 40
0.9076733711902452
 41
5.744111279792195
 42
5.77268296762215
1001
REVIT
1002
{
1070
     3
1000
923097
1002
}
  0
ELLIPSE
  5
24C
330
244
100
AcDbEntity
  8
M-PIPE
100
AcDbEllipse
 10
1177.114353943118
 20
2122.906882510105
 30
0.0
 11
32.9774469386471
 21
0.0
 31
0.0
210
0.0
220
0.0
230
1.0
 40
0.3420201433256503
 41
6.021385919379839
 42
6.544984694979169
1001
REVIT
1002
{
1070
     3
1000
923097
1002
}
  0
ELLIPSE
  5
24D
330
244
100
AcDbEntity
  8
M-PIPE
100
AcDbEllipse
 10
920.0955842977725
 20
2124.19600175533
 30
0.0
 11
-236.1572155968425
 21
185.0128901497038
 31
0.0
210
0.0
220
0.0
230
1.0
 40
0.9076733711902477
 41
3.83879163118212
 42
3.884029123869533
1001
REVIT
1002
{
1070
     3
1000
923097
1002
}
  0
ELLIPSE
  5
24E
330
244
100
AcDbEntity
  8
M-PIPE
100
AcDbEllipse
 10
1177.114353943118
 20
2120.08780464777
 30
0.0
 11
-33.20000000000005
 21
0.0000000000009383
 31
0.0
210
0.0
220
0.0
230
1.0
 40
0.342020143325649
 41
1.570796326794894
 42
3.166761972090868
1001
REVIT
1002
{
1070
     3
1000
923097
1002
}
  0
LINE
  5
24F
330
244
100
AcDbEntity
  8
M-PIPE
100
AcDbLine
 10
1146.675904092646
 20
2132.803230947363
 30
0.0
 11
1146.591097832388
 21
2132.79545896065
 31
0.0
1001
REVIT
1002
{
1070
     3
1000
923097
1002
}
  0
ELLIPSE
  5
250
330
244
100
AcDbEntity
  8
M-PIPE
100
AcDbEllipse
 10
1177.114353943118
 20
2135.592732890737
 30
0.0
 11
-31.59999999999991
 21
0.0000000000009422
 31
0.0
210
0.0
220
0.0
230
1.0
 40
0.3420201433256436
 41
0.261799387799696
 42
1.570796326794894
1001
REVIT
1002
{
1070
     3
1000
923097
1002
}
  0
ELLIPSE
  5
251
330
244
100
AcDbEntity
  8
M-PIPE
100
AcDbEllipse
 10
1177.114353943118
 20
2135.592732890739
 30
0.0
 11
31.59999999999975
 21
0.0
 31
0.0
210
0.0
220
0.0
230
1.0
 40
0.3420201433256448
 41
4.712388980384676
 42
6.021385919379803
1001
REVIT
1002
{
1070
     3
1000
923097
1002
}
  0
LINE
  5
252
330
244
100
AcDbEntity
  8
M-PIPE
100
AcDbLine
 10
1207.637610053848
 20
2132.795458960648
 30
0.0
 11
1207.552803793514
 21
2132.803230947368
 31
0.0
1001
REVIT
1002
{
1070
     3
1000
923097
1002
}
  0
LINE
  5
253
330
244
100
AcDbEntity
  8
M-PIPE
100
AcDbLine
 10
1145.795296504851
 20
2125.777086873927
 30
0.0
 11
1145.260586260006
 21
2125.826089870941
 31
0.0
1001
REVIT
1002
{
1070
     3
1000
923097
1002
}
  0
LINE
  5
254
330
244
100
AcDbEntity
  8
M-PIPE
100
AcDbLine
 10
1208.96812162623
 20
2125.82608987094
 30
0.0
 11
1208.433411381385
 21
2125.777086873926
 31
0.0
1001
REVIT
1002
{
1070
     3
1000
923097
1002
}
  0
LINE
  5
255
330
244
100
AcDbEntity
  8
M-PIPE
100
AcDbLine
 10
1140.614353943103
 20
2078.741329333153
 30
0.0
 11
1140.614353943103
 21
2074.982558850029
 31
0.0
1001
REVIT
1002
{
1070
     3
1000
923097
1002
}
  0
LINE
  5
256
330
244
100
AcDbEntity
  8
M-PIPE
100
AcDbLine
 10
1213.614353943094
 20
2074.982558850027
 30
0.0
 11
1213.614353943094
 21
2078.741329333153
 31
0.0
1001
REVIT
1002
{
1070
     3
1000
923097
1002
}
  0
LINE
  5
257
330
244
100
AcDbEntity
  8
M-PIPE
100
AcDbLine
 10
1143.117565019626
 20
2089.85782443008
 30
0.0
 11
1143.624950217317
 21
2120.37596308157
 31
0.0
1001
REVIT
1002
{
1070
     3
1000
923097
1002
}
  0
LINE
  5
258
330
244
100
AcDbEntity
  8
M-PIPE
100
AcDbLine
 10
1211.111142866571
 20
2089.857824430069
 30
0.0
 11
1210.603757668882
 21
2120.375963081559
 31
0.0
1001
REVIT
1002
{
1070
     3
1000
923097
1002
}
  0
ELLIPSE
  5
259
330
244
100
AcDbEntity
  8
M-PIPE
100
AcDbEllipse
 10
1177.114353943097
 20
2074.982558850027
 30
0.0
 11
-36.49999999999546
 21
0.0000000000003426
 31
0.0
210
0.0
220
0.0
230
1.0
 40
0.3420201433256536
 41
0.0
 42
1.570796326794888
1001
REVIT
1002
{
1070
     3
1000
923097
1002
}
  0
ELLIPSE
  5
25A
330
244
100
AcDbEntity
  8
M-PIPE
100
AcDbEllipse
 10
1177.114353943097
 20
2078.741329333152
 30
0.0
 11
36.49999999999568
 21
0.0
 31
0.0
210
0.0
220
0.0
230
1.0
 40
0.3420201433256639
 41
4.424706880967525
 42
4.712388980384671
1001
REVIT
1002
{
1070
     3
1000
923097
1002
}
  0
LINE
  5
25B
330
244
100
AcDbEntity
  8
M-PIPE
100
AcDbLine
 10
1166.758196354469
 20
2066.770624316758
 30
0.0
 11
1166.758196354469
 21
2078.046935766208
 31
0.0
1001
REVIT
1002
{
1070
     3
1000
923097
1002
}
  0
LINE
  5
25C
330
244
100
AcDbEntity
  8
M-PIPE
100
AcDbLine
 10
1159.688525859556
 20
2079.048491615955
 30
0.0
 11
1159.688525859555
 21
2067.772180166504
 31
0.0
1001
REVIT
1002
{
1070
     3
1000
923097
1002
}
  0
ELLIPSE
  5
25D
330
244
100
AcDbEntity
  8
M-PIPE
100
AcDbEllipse
 10
1177.114353943097
 20
2078.741329333151
 30
0.0
 11
36.49999999999591
 21
0.0
 31
0.0
210
0.0
220
0.0
230
1.0
 40
0.3420201433256556
 41
3.639308717569254
 42
4.214672916405159
1001
REVIT
1002
{
1070
     3
1000
923097
1002
}
  0
LINE
  5
25E
330
244
100
AcDbEntity
  8
M-PIPE
100
AcDbLine
 10
1145.042707343607
 20
2072.781345114451
 30
0.0
 11
1145.042707343608
 21
2084.057656563901
 31
0.0
1001
REVIT
1002
{
1070
     3
1000
923097
1002
}
  0
LINE
  5
25F
330
244
100
AcDbEntity
  8
M-PIPE
100
AcDbLine
 10
1142.114353943113
 20
2086.475626279832
 30
0.0
 11
1142.114353943113
 21
2075.199314830381
 31
0.0
1001
REVIT
1002
{
1070
     3
1000
923097
1002
}
  0
ELLIPSE
  5
260
330
244
100
AcDbEntity
  8
M-PIPE
100
AcDbEllipse
 10
1177.114353943097
 20
2078.741329333151
 30
0.0
 11
36.49999999999592
 21
0.0
 31
0.0
210
0.0
220
0.0
230
1.0
 40
0.3420201433256557
 41
2.853910554172179
 42
3.429274753007326
1001
REVIT
1002
{
1070
     3
1000
923097
1002
}
  0
ELLIPSE
  5
261
330
244
100
AcDbEntity
  8
M-PIPE
100
AcDbEllipse
 10
1177.114353943097
 20
2074.982558850027
 30
0.0
 11
-36.49999999999568
 21
0.0000000000003426
 31
0.0
210
0.0
220
0.0
230
1.0
 40
0.3420201433256514
 41
1.570796326794888
 42
3.141592653589779
1001
REVIT
1002
{
1070
     3
1000
923097
1002
}
  0
ELLIPSE
  5
262
330
244
100
AcDbEntity
  8
M-PIPE
100
AcDbEllipse
 10
1177.114353943097
 20
2078.741329333153
 30
0.0
 11
36.49999999999523
 21
0.0
 31
0.0
210
0.0
220
0.0
230
1.0
 40
0.3420201433256568
 41
5.995503207765194
 42
6.570867406593863
1001
REVIT
1002
{
1070
     3
1000
923097
1002
}
  0
LINE
  5
263
330
244
100
AcDbEntity
  8
M-PIPE
100
AcDbLine
 10
1212.114353943113
 20
2075.199314830419
 30
0.0
 11
1212.114353943113
 21
2086.475626279867
 31
0.0
1001
REVIT
1002
{
1070
     3
1000
923097
1002
}
  0
LINE
  5
264
330
244
100
AcDbEntity
  8
M-PIPE
100
AcDbLine
 10
1209.186000542548
 20
2084.057656563876
 30
0.0
 11
1209.186000542548
 21
2072.781345114427
 31
0.0
1001
REVIT
1002
{
1070
     3
1000
923097
1002
}
  0
ELLIPSE
  5
265
330
244
100
AcDbEntity
  8
M-PIPE
100
AcDbEllipse
 10
1177.114353943097
 20
2078.741329333153
 30
0.0
 11
36.49999999999534
 21
0.0
 31
0.0
210
0.0
220
0.0
230
1.0
 40
0.3420201433256657
 41
5.210105044366435
 42
5.785469243197729
1001
REVIT
1002
{
1070
     3
1000
923097
1002
}
  0
LINE
  5
266
330
244
100
AcDbEntity
  8
M-PIPE
100
AcDbLine
 10
1194.540182026707
 20
2067.772180166517
 30
0.0
 11
1194.540182026708
 21
2079.048491615967
 31
0.0
1001
REVIT
1002
{
1070
     3
1000
923097
1002
}
  0
LINE
  5
267
330
244
100
AcDbEntity
  8
M-PIPE
100
AcDbLine
 10
1187.470511531725
 20
2078.046935766207
 30
0.0
 11
1187.470511531724
 21
2066.770624316758
 31
0.0
1001
REVIT
1002
{
1070
     3
1000
923097
1002
}
  0
ELLIPSE
  5
268
330
244
100
AcDbEntity
  8
M-PIPE
100
AcDbEllipse
 10
1177.114353943097
 20
2078.741329333152
 30
0.0
 11
36.4999999999957
 21
0.0
 31
0.0
210
0.0
220
0.0
230
1.0
 40
0.3420201433256631
 41
4.712388980384671
 42
5.000071079801789
1001
REVIT
1002
{
1070
     3
1000
923097
1002
}
  0
ELLIPSE
  5
269
330
244
100
AcDbEntity
  8
M-PIPE
100
AcDbEllipse
 10
1177.114353943097
 20
2090.017640782601
 30
0.0
 11
36.49999999999548
 21
0.0
 31
0.0
210
0.0
220
0.0
230
1.0
 40
0.3420201433256669
 41
2.779352090989086
 42
2.853910554172188
1001
REVIT
1002
{
1070
     3
1000
923097
1002
}
  0
LINE
  5
26A
330
244
100
AcDbEntity
  8
M-PIPE
100
AcDbLine
 10
1142.114353943114
 20
2093.559655285373
 30
0.0
 11
1142.114353943114
 21
2086.475626279831
 31
0.0
1001
REVIT
1002
{
1070
     3
1000
923097
1002
}
  0
ELLIPSE
  5
26B
330
244
100
AcDbEntity
  8
M-PIPE
100
AcDbEllipse
 10
1177.114353943097
 20
2090.017640782601
 30
0.0
 11
36.49999999999571
 21
0.0
 31
0.0
210
0.0
220
0.0
230
1.0
 40
0.3420201433256566
 41
3.429274753007291
 42
3.639308717569259
1001
REVIT
1002
{
1070
     3
1000
923097
1002
}
  0
LINE
  5
26C
330
244
100
AcDbEntity
  8
M-PIPE
100
AcDbLine
 10
1145.042707343606
 20
2084.057656563902
 30
0.0
 11
1159.688525859558
 21
2079.048491615954
 31
0.0
1001
REVIT
1002
{
1070
     3
1000
923097
1002
}
  0
ELLIPSE
  5
26D
330
244
100
AcDbEntity
  8
M-PIPE
100
AcDbEllipse
 10
1177.114353943097
 20
2090.017640782601
 30
0.0
 11
36.49999999999558
 21
0.0
 31
0.0
210
0.0
220
0.0
230
1.0
 40
0.3420201433256509
 41
4.214672916405143
 42
4.424706880967536
1001
REVIT
1002
{
1070
     3
1000
923097
1002
}
  0
LINE
  5
26E
330
244
100
AcDbEntity
  8
M-PIPE
100
AcDbLine
 10
1166.758196354467
 20
2078.046935766208
 30
0.0
 11
1177.114353943097
 21
2078.046935766208
 31
0.0
1001
REVIT
1002
{
1070
     3
1000
923097
1002
}
  0
LINE
  5
26F
330
244
100
AcDbEntity
  8
M-PIPE
100
AcDbLine
 10
1177.114353943097
 20
2078.046935766208
 30
0.0
 11
1187.470511531726
 21
2078.046935766208
 31
0.0
1001
REVIT
1002
{
1070
     3
1000
923097
1002
}
  0
ELLIPSE
  5
270
330
244
100
AcDbEntity
  8
M-PIPE
100
AcDbEllipse
 10
1177.114353943097
 20
2090.017640782601
 30
0.0
 11
36.49999999999558
 21
0.0
 31
0.0
210
0.0
220
0.0
230
1.0
 40
0.3420201433256565
 41
5.000071079801806
 42
5.210105044366457
1001
REVIT
1002
{
1070
     3
1000
923097
1002
}
  0
LINE
  5
271
330
244
100
AcDbEntity
  8
M-PIPE
100
AcDbLine
 10
1194.540182026708
 20
2079.048491615967
 30
0.0
 11
1209.186000542548
 21
2084.057656563876
 31
0.0
1001
REVIT
1002
{
1070
     3
1000
923097
1002
}
  0
ELLIPSE
  5
272
330
244
100
AcDbEntity
  8
M-PIPE
100
AcDbEllipse
 10
1177.114353943097
 20
2090.017640782601
 30
0.0
 11
36.49999999999538
 21
0.0
 31
0.0
210
0.0
220
0.0
230
1.0
 40
0.3420201433256506
 41
5.785469243197751
 42
5.995503207765224
1001
REVIT
1002
{
1070
     3
1000
923097
1002
}
  0
LINE
  5
273
330
244
100
AcDbEntity
  8
M-PIPE
100
AcDbLine
 10
1212.114353943114
 20
2086.475626279868
 30
0.0
 11
1212.114353943114
 21
2093.559655285334
 31
0.0
1001
REVIT
1002
{
1070
     3
1000
923097
1002
}
  0
ELLIPSE
  5
274
330
244
100
AcDbEntity
  8
M-PIPE
100
AcDbEllipse
 10
1177.114353943097
 20
2090.017640782601
 30
0.0
 11
36.49999999999558
 21
0.0
 31
0.0
210
0.0
220
0.0
230
1.0
 40
0.3420201433256527
 41
0.2876820994143152
 42
0.3639017062949322
1001
REVIT
1002
{
1070
     3
1000
923097
1002
}
  0
ELLIPSE
  5
275
330
244
100
AcDbEntity
  8
M-PIPE
100
AcDbEllipse
 10
1177.114353943097
 20
2090.017640782601
 30
0.0
 11
-33.99999999999887
 21
0.0000000000005154
 31
0.0
210
0.0
220
0.0
230
1.0
 40
0.3420201433256573
 41
0.0000000000000069
 42
1.570796326794896
1001
REVIT
1002
{
1070
     3
1000
923097
1002
}
  0
ELLIPSE
  5
276
330
244
100
AcDbEntity
  8
M-PIPE
100
AcDbEllipse
 10
1177.114353943097
 20
2090.017640782601
 30
0.0
 11
-33.99999999999887
 21
0.0000000000005154
 31
0.0
210
0.0
220
0.0
230
1.0
 40
0.3420201433256573
 41
1.570796326794896
 42
3.141592653589793
1001
REVIT
1002
{
1070
     3
1000
923097
1002
}
  0
ELLIPSE
  5
277
330
244
100
AcDbEntity
  8
M-PIPE
100
AcDbEllipse
 10
1177.114353943098
 20
2120.08780464775
 30
0.0
 11
-33.49999999999682
 21
0.0000000000005153
 31
0.0
210
0.0
220
0.0
230
1.0
 40
0.3420201433256534
 41
6.123580228796429
 42
7.853981633974483
1001
REVIT
1002
{
1070
     3
1000
923097
1002
}
  0
ELLIPSE
  5
278
330
244
100
AcDbEntity
  8
M-PIPE
100
AcDbEllipse
 10
1177.114353943098
 20
2120.08780464775
 30
0.0
 11
33.4999999999968
 21
0.0
 31
0.0
210
0.0
220
0.0
230
1.0
 40
0.3420201433256606
 41
4.712388980384683
 42
6.442790385550922
1001
REVIT
1002
{
1070
     3
1000
923097
1002
}
  0
LINE
  5
279
330
244
100
AcDbEntity
  8
M-PIPE
100
AcDbLine
 10
1159.688525859559
 20
2067.772180166504
 30
0.0
 11
1145.042707343606
 21
2072.781345114452
 31
0.0
1001
REVIT
1002
{
1070
     3
1000
923097
1002
}
  0
LINE
  5
27A
330
244
100
AcDbEntity
  8
M-PIPE
100
AcDbLine
 10
1209.186000542548
 20
2072.781345114427
 30
0.0
 11
1194.540182026708
 21
2067.772180166517
 31
0.0
1001
REVIT
1002
{
1070
     3
1000
923097
1002
}
  0
LINE
  5
27B
330
244
100
AcDbEntity
  8
M-PIPE
100
AcDbLine
 10
1187.470511531727
 20
2066.770624316758
 30
0.0
 11
1166.758196354466
 21
2066.770624316758
 31
0.0
1001
REVIT
1002
{
1070
     3
1000
923097
1002
}
  0
LWPOLYLINE
  5
27C
330
244
100
AcDbEntity
  8
P-SANR-FIXT
100
AcDbPolyline
 90
       39
 70
   128
 43
0.0
 10
1151.720644873511
 20
2166.536757947308
 10
1152.014803561724
 20
2167.458624655627
 10
1152.388484264827
 20
2168.31203019343
 10
1152.823487643677
 20
2169.091411280825
 10
1153.303877558326
 20
2169.797540824603
 10
1153.817158963738
 20
2170.435292003483
 10
1154.354377463515
 20
2171.011611260379
 10
1154.909618604686
 20
2171.534046898588
 10
1155.479300261385
 20
2172.009850455217
 10
1156.0614892727
 20
2172.44552107161
 10
1156.655340367323
 20
2172.846639302036
 10
1157.260676550804
 20
2173.217866334765
 10
1157.877694221861
 20
2173.563024859596
 10
1158.506765452246
 20
2173.885211321828
 10
1159.148310757975
 20
2174.186912332758
 10
1159.802720703284
 20
2174.47011215811
 10
1160.470310230534
 20
2174.736386203304
 10
1161.151294344132
 20
2174.986979584804
 10
1161.845777386283
 20
2175.222871835992
 10
1162.553750731554
 20
2175.444829554663
 10
1163.275095517018
 20
2175.653448948187
 10
1164.009588232168
 20
2175.849190099726
 10
1164.7569077938
 20
2176.032404538235
 10
1165.516643255428
 20
2176.203357432648
 10
1166.288301640414
 20
2176.362245486162
 10
1167.071315605363
 20
2176.509211394743
 10
1167.865050777823
 20
2176.644355557738
 10
1168.668812697825
 20
2176.767745585359
 10
1169.4818533448
 20
2176.879424033135
 10
1170.303377262013
 20
2176.979414702387
 10
1171.132547307708
 20
2177.067727773744
 10
1171.968490070785
 20
2177.144363983861
 10
1172.810300992411
 20
2177.209318010437
 10
1173.657049235503
 20
2177.262581194895
 10
1174.507782342975
 20
2177.304143703466
 10
1175.361530723871
 20
2177.333996204345
 10
1176.217312004472
 20
2177.352131119591
 10
1177.074135279614
 20
2177.358543494662
 10
1177.114353943078
 20
2177.358556405352
  0
LWPOLYLINE
  5
27D
330
244
100
AcDbEntity
  8
P-SANR-FIXT
100
AcDbPolyline
 90
       39
 70
   128
 43
0.0
 10
1202.508063012645
 20
2166.536757947308
 10
1202.213904324433
 20
2167.458624655627
 10
1201.84022362133
 20
2168.31203019343
 10
1201.40522024248
 20
2169.091411280825
 10
1200.92483032783
 20
2169.797540824603
 10
1200.411548922419
 20
2170.435292003483
 10
1199.874330422642
 20
2171.011611260379
 10
1199.31908928147
 20
2171.534046898588
 10
1198.749407624772
 20
2172.009850455217
 10
1198.167218613456
 20
2172.44552107161
 10
1197.573367518834
 20
2172.846639302036
 10
1196.968031335353
 20
2173.217866334765
 10
1196.351013664296
 20
2173.563024859596
 10
1195.72194243391
 20
2173.885211321828
 10
1195.080397128182
 20
2174.186912332758
 10
1194.425987182873
 20
2174.47011215811
 10
1193.758397655623
 20
2174.736386203304
 10
1193.077413542024
 20
2174.986979584804
 10
1192.382930499874
 20
2175.222871835992
 10
1191.674957154603
 20
2175.444829554663
 10
1190.953612369139
 20
2175.653448948187
 10
1190.219119653988
 20
2175.849190099726
 10
1189.471800092356
 20
2176.032404538235
 10
1188.712064630729
 20
2176.203357432648
 10
1187.940406245743
 20
2176.362245486162
 10
1187.157392280794
 20
2176.509211394743
 10
1186.363657108333
 20
2176.644355557738
 10
1185.559895188331
 20
2176.767745585359
 10
1184.746854541357
 20
2176.879424033135
 10
1183.925330624143
 20
2176.979414702387
 10
1183.096160578448
 20
2177.067727773744
 10
1182.260217815372
 20
2177.144363983861
 10
1181.418406893746
 20
2177.209318010437
 10
1180.571658650654
 20
2177.262581194895
 10
1179.720925543182
 20
2177.304143703466
 10
1178.867177162286
 20
2177.333996204345
 10
1178.011395881685
 20
2177.35213111959
 10
1177.154572606542
 20
2177.358543494662
 10
1177.114353943078
 20
2177.358556405352
  0
LINE
  5
27E
330
244
100
AcDbEntity
  8
P-SANR-FIXT
100
AcDbLine
 10
1145.617701869678
 20
2136.1161825034
 30
0.0
 11
1146.04594560307
 21
2138.99856660234
 31
0.0
  0
LINE
  5
27F
330
244
100
AcDbEntity
  8
P-SANR-FIXT
100
AcDbLine
 10
1146.064242123605
 20
2139.121715164114
 30
0.0
 11
1146.12946156647
 21
2139.560688277784
 31
0.0
  0
LINE
  5
280
330
244
100
AcDbEntity
  8
P-SANR-FIXT
100
AcDbLine
 10
1151.255189272536
 20
2164.725617452203
 30
0.0
 11
1151.594578960014
 21
2166.046221190402
 31
0.0
  0
LINE
  5
281
330
244
100
AcDbEntity
  8
P-SANR-FIXT
100
AcDbLine
 10
1151.595769365103
 20
2166.050853191512
 30
0.0
 11
1151.720644873511
 21
2166.536757947308
 31
0.0
  0
LINE
  5
282
330
244
100
AcDbEntity
  8
P-SANR-FIXT
100
AcDbLine
 10
1202.97351861362
 20
2164.725617452203
 30
0.0
 11
1202.634128959228
 21
2166.04622106166
 31
0.0
  0
LINE
  5
283
330
244
100
AcDbEntity
  8
P-SANR-FIXT
100
AcDbLine
 10
1202.632938521054
 20
2166.050853191512
 30
0.0
 11
1202.508063012644
 21
2166.536757947313
 31
0.0
  0
LINE
  5
284
330
244
100
AcDbEntity
  8
P-SANR-FIXT
100
AcDbLine
 10
1208.611006016478
 20
2136.116182503405
 30
0.0
 11
1208.182762283087
 21
2138.99856660234
 31
0.0
  0
LINE
  5
285
330
244
100
AcDbEntity
  8
P-SANR-FIXT
100
AcDbLine
 10
1208.164465762552
 20
2139.121715164114
 30
0.0
 11
1208.099246319686
 21
2139.560688277789
 31
0.0
  0
SPLINE
  5
286
330
244
100
AcDbEntity
  8
P-SANR-FIXT
100
AcDbSpline
210
0.0
220
0.0
230
1.0
 70
     8
 71
     3
 72
     9
 73
     5
 74
     0
 42
0.000000001
 43
0.0000000001
 40
-1.0
 40
-1.0
 40
-1.0
 40
-1.0
 40
-0.5
 40
0.0
 40
0.0
 40
0.0
 40
0.0
 10
1151.633873874033
 20
2166.050853191511
 30
0.0
 10
1151.65760536597
 20
2166.074295760072
 30
0.0
 10
1151.681379177071
 20
2166.001143165551
 30
0.0
 10
1151.65760536597
 20
2165.689286287417
 30
0.0
 10
1151.633873874033
 20
2165.474024572362
 30
0.0
  0
SPLINE
  5
287
330
244
100
AcDbEntity
  8
P-SANR-FIXT
100
AcDbSpline
210
0.0
220
0.0
230
1.0
 70
     8
 71
     3
 72
     9
 73
     5
 74
     0
 42
0.000000001
 43
0.0000000001
 40
-1.0
 40
-1.0
 40
-1.0
 40
-1.0
 40
-0.5
 40
0.0
 40
0.0
 40
0.0
 40
0.0
 10
1163.643823241382
 20
2158.359375419155
 30
0.0
 10
1163.898540551592
 20
2158.437801997749
 30
0.0
 10
1164.397866560045
 20
2158.467943529708
 30
0.0
 10
1164.873418757444
 20
2158.245297261611
 30
0.0
 10
1165.104404575764
 20
2158.070961109864
 30
0.0
  0
SPLINE
  5
288
330
244
100
AcDbEntity
  8
P-SANR-FIXT
100
AcDbSpline
210
0.0
220
0.0
230
1.0
 70
     8
 71
     3
 72
     9
 73
     5
 74
     0
 42
0.000000001
 43
0.0000000001
 40
-1.0
 40
-1.0
 40
-1.0
 40
-1.0
 40
-0.5
 40
0.0
 40
0.0
 40
0.0
 40
0.0
 10
1189.124303310389
 20
2158.070961109864
 30
0.0
 10
1189.35528912871
 20
2158.245297261611
 30
0.0
 10
1189.830841326109
 20
2158.467943529708
 30
0.0
 10
1190.330167334561
 20
2158.437801997749
 30
0.0
 10
1190.584884644772
 20
2158.359375419155
 30
0.0
  0
SPLINE
  5
289
330
244
100
AcDbEntity
  8
P-SANR-FIXT
100
AcDbSpline
210
0.0
220
0.0
230
1.0
 70
     8
 71
     3
 72
     9
 73
     5
 74
     0
 42
0.000000001
 43
0.0000000001
 40
-1.0
 40
-1.0
 40
-1.0
 40
-1.0
 40
-0.5
 40
0.0
 40
0.0
 40
0.0
 40
0.0
 10
1202.59483401212
 20
2165.474024572362
 30
0.0
 10
1202.571102520183
 20
2165.689286287417
 30
0.0
 10
1202.547328709083
 20
2166.001143165551
 30
0.0
 10
1202.571102520183
 20
2166.074295760072
 30
0.0
 10
1202.59483401212
 20
2166.050853191512
 30
0.0
  0
SPLINE
  5
28A
330
244
100
AcDbEntity
  8
P-SANR-FIXT
100
AcDbSpline
210
0.0
220
0.0
230
1.0
 70
     8
 71
     3
 72
    23
 73
    19
 74
     0
 42
0.000000001
 43
0.0000000001
 40
-1.0
 40
-1.0
 40
-1.0
 40
-1.0
 40
-0.875
 40
-0.8125
 40
-0.78125
 40
-0.75
 40
-0.71875
 40
-0.6875
 40
-0.625
 40
-0.5625
 40
-0.53125
 40
-0.5
 40
-0.46875
 40
-0.4375
 40
-0.375
 40
-0.3125
 40
-0.25
 40
0.0
 40
0.0
 40
0.0
 40
0.0
 10
1165.104404575764
 20
2158.070961109864
 30
0.0
 10
1165.767906752854
 20
2156.993123889629
 30
0.0
 10
1166.584734714946
 20
2155.303531542959
 30
0.0
 10
1167.277456340058
 20
2153.248501043325
 30
0.0
 10
1167.608389831649
 20
2152.054130646006
 30
0.0
 10
1167.828124648962
 20
2151.150148597906
 30
0.0
 10
1168.015266505245
 20
2150.235139202845
 30
0.0
 10
1168.222660345962
 20
2148.99973536494
 30
0.0
 10
1168.423629821843
 20
2147.435871457856
 30
0.0
 10
1168.580492870062
 20
2145.861711878364
 30
0.0
 10
1168.69363394293
 20
2144.6044904588
 30
0.0
 10
1168.776143656996
 20
2143.665416563396
 30
0.0
 10
1168.853391796018
 20
2142.728731697685
 30
0.0
 10
1168.944095779621
 20
2141.478767518336
 30
0.0
 10
1169.040130101466
 20
2139.916877747054
 30
0.0
 10
1169.133027466638
 20
2138.043987032892
 30
0.0
 10
1169.285701897582
 20
2134.303416387772
 30
0.0
 10
1169.346665442883
 20
2131.197686600813
 30
0.0
 10
1169.3708094544
 20
2128.722000793352
 30
0.0
  0
ELLIPSE
  5
28B
330
244
100
AcDbEntity
  8
P-SANR-FIXT
100
AcDbEllipse
 10
1177.114353943077
 20
2138.998566602341
 30
0.0
 11
31.02845079977479
 21
0.0
 31
0.0
210
0.0
220
0.0
230
0.9999999999999998
 40
0.34202014332567
 41
3.917420086798538
 42
4.46016032277711
  0
SPLINE
  5
28C
330
244
100
AcDbEntity
  8
P-SANR-FIXT
100
AcDbSpline
210
0.0
220
0.0
230
1.0
 70
     8
 71
     3
 72
     9
 73
     5
 74
     0
 42
0.000000001
 43
0.0000000001
 40
-1.0
 40
-1.0
 40
-1.0
 40
-1.0
 40
-0.5
 40
0.0
 40
0.0
 40
0.0
 40
0.0
 10
1154.96494811385
 20
2131.566660279597
 30
0.0
 10
1155.409327362556
 20
2134.966430838014
 30
0.0
 10
1156.57255294796
 20
2141.731350561522
 30
0.0
 10
1158.358828285871
 20
2148.323818914084
 30
0.0
 10
1159.391923107294
 20
2151.538595954123
 30
0.0
  0
SPLINE
  5
28D
330
244
100
AcDbEntity
  8
P-SANR-FIXT
100
AcDbSpline
210
0.0
220
0.0
230
1.0
 70
     8
 71
     3
 72
    21
 73
    17
 74
     0
 42
0.000000001
 43
0.0000000001
 40
-1.0
 40
-1.0
 40
-1.0
 40
-1.0
 40
-0.8333333333333332
 40
-0.75
 40
-0.7083333333333333
 40
-0.6666666666666666
 40
-0.625
 40
-0.5833333333333333
 40
-0.5
 40
-0.4166666666666666
 40
-0.375
 40
-0.3333333333333333
 40
-0.2916666666666666
 40
-0.25
 40
-0.1666666666666666
 40
0.0
 40
0.0
 40
0.0
 40
0.0
 10
1159.391923107294
 20
2151.538595954123
 30
0.0
 10
1159.539821988027
 20
2151.983479502519
 30
0.0
 10
1159.779960281127
 20
2152.642583683467
 30
0.0
 10
1160.091832286884
 20
2153.395260254247
 30
0.0
 10
1160.278598910429
 20
2153.820808960965
 30
0.0
 10
1160.423890210435
 20
2154.136661746455
 30
0.0
 10
1160.570327422007
 20
2154.453097447794
 30
0.0
 10
1160.764893819586
 20
2154.877928290271
 30
0.0
 10
1161.015113607235
 20
2155.406090737679
 30
0.0
 10
1161.289605677517
 20
2155.914435264043
 30
0.0
 10
1161.532383133991
 20
2156.299160847831
 30
0.0
 10
1161.729125941867
 20
2156.573031718565
 30
0.0
 10
1161.938644400279
 20
2156.8335907513
 30
0.0
 10
1162.229431582303
 20
2157.168458562868
 30
0.0
 10
1162.770569428825
 20
2157.717192123836
 30
0.0
 10
1163.284473799692
 20
2158.121780322249
 30
0.0
 10
1163.643823241382
 20
2158.359375419155
 30
0.0
  0
SPLINE
  5
28E
330
244
100
AcDbEntity
  8
P-SANR-FIXT
100
AcDbSpline
210
0.0
220
0.0
230
1.0
 70
     8
 71
     3
 72
    23
 73
    19
 74
     0
 42
0.000000001
 43
0.0000000001
 40
-1.0
 40
-1.0
 40
-1.0
 40
-1.0
 40
-0.875
 40
-0.8125
 40
-0.78125
 40
-0.75
 40
-0.71875
 40
-0.6875
 40
-0.625
 40
-0.5625
 40
-0.53125
 40
-0.5
 40
-0.46875
 40
-0.4375
 40
-0.375
 40
-0.3125
 40
-0.25
 40
0.0
 40
0.0
 40
0.0
 40
0.0
 10
1151.633873874033
 20
2165.474024572362
 30
0.0
 10
1151.565705634692
 20
2164.278629484938
 30
0.0
 10
1151.327893716241
 20
2162.474701490922
 30
0.0
 10
1150.948256890605
 20
2160.35784756927
 30
0.0
 10
1150.718314910983
 20
2159.143534840435
 30
0.0
 10
1150.541514254489
 20
2158.231074780158
 30
0.0
 10
1150.369432176355
 20
2157.313091599656
 30
0.0
 10
1150.155057110239
 20
2156.079066312384
 30
0.0
 10
1149.91097786881
 20
2154.523715093368
 30
0.0
 10
1149.685276755652
 20
2152.963148651441
 30
0.0
 10
1149.501794906422
 20
2151.71981710298
 30
0.0
 10
1149.355918799902
 20
2150.793255879008
 30
0.0
 10
1149.206126472032
 20
2149.870895982166
 30
0.0
 10
1149.013355111176
 20
2148.641086580543
 30
0.0
 10
1148.77885754376
 20
2147.106538512483
 30
0.0
 10
1148.506672400912
 20
2145.269050935004
 30
0.0
 10
1147.963618777113
 20
2141.605566681938
 30
0.0
 10
1147.530590255047
 20
2138.57330686261
 30
0.0
 10
1147.221403625114
 20
2136.153907116068
 30
0.0
  0
ELLIPSE
  5
28F
330
244
100
AcDbEntity
  8
P-SANR-FIXT
100
AcDbEllipse
 10
1177.114353943077
 20
2138.998566602341
 30
0.0
 11
31.02845079977494
 21
0.0
 31
0.0
210
0.0
220
0.0
230
1.0
 40
0.3420201433256586
 41
2.870222535598659
 42
3.412962771580918
  0
SPLINE
  5
290
330
244
100
AcDbEntity
  8
P-SANR-FIXT
100
AcDbSpline
210
0.0
220
0.0
230
1.0
 70
     8
 71
     3
 72
    23
 73
    19
 74
     0
 42
0.000000001
 43
0.0000000001
 40
-1.0
 40
-1.0
 40
-1.0
 40
-1.0
 40
-0.75
 40
-0.6875
 40
-0.625
 40
-0.5625
 40
-0.53125
 40
-0.5
 40
-0.46875
 40
-0.4375
 40
-0.375
 40
-0.3125
 40
-0.28125
 40
-0.25
 40
-0.21875
 40
-0.1875
 40
-0.125
 40
-0.0006791229064373
 40
-0.0006791229064373
 40
-0.0006791229064373
 40
-0.0006791229064373
 10
1147.221403625114
 20
2141.843226088609
 30
0.0
 10
1147.530590255047
 20
2144.12144806888
 30
0.0
 10
1147.963618777113
 20
2146.934538799923
 30
0.0
 10
1148.506672400913
 20
2150.262962743586
 30
0.0
 10
1148.778857543761
 20
2151.919579943385
 30
0.0
 10
1149.013355111176
 20
2153.285663857833
 30
0.0
 10
1149.206126472033
 20
2154.367698301761
 30
0.0
 10
1149.355918799902
 20
2155.169885242767
 30
0.0
 10
1149.501794906423
 20
2155.973664230961
 30
0.0
 10
1149.685276755652
 20
2157.055167339205
 30
0.0
 10
1149.910977868811
 20
2158.402697338175
 30
0.0
 10
1150.155057110239
 20
2159.702916047164
 30
0.0
 10
1150.369432176355
 20
2160.688465559781
 30
0.0
 10
1150.541514254489
 20
2161.390672037649
 30
0.0
 10
1150.718314910983
 20
2162.059747951975
 30
0.0
 10
1150.948256890605
 20
2162.921857814813
 30
0.0
 10
1151.326715110232
 20
2164.337219411327
 30
0.0
 10
1151.563981781376
 20
2165.398739210246
 30
0.0
 10
1151.632754808869
 20
2166.040344375086
 30
0.0
  0
SPLINE
  5
291
330
244
100
AcDbEntity
  8
P-SANR-FIXT
100
AcDbSpline
210
0.0
220
0.0
230
1.0
 70
     8
 71
     3
 72
    23
 73
    19
 74
     0
 42
0.000000001
 43
0.0000000001
 40
-0.9993208770935376
 40
-0.9993208770935376
 40
-0.9993208770935376
 40
-0.9993208770935376
 40
-0.875
 40
-0.8125
 40
-0.78125
 40
-0.75
 40
-0.71875
 40
-0.6875
 40
-0.625
 40
-0.5625
 40
-0.53125
 40
-0.5
 40
-0.46875
 40
-0.4375
 40
-0.375
 40
-0.3125
 40
-0.25
 40
0.0
 40
0.0
 40
0.0
 40
0.0
 10
1202.595953077285
 20
2166.040344375085
 30
0.0
 10
1202.664726104779
 20
2165.398739210246
 30
0.0
 10
1202.901992775922
 20
2164.337219411327
 30
0.0
 10
1203.280450995549
 20
2162.921857814813
 30
0.0
 10
1203.510392975171
 20
2162.059747951974
 30
0.0
 10
1203.687193631665
 20
2161.390672037649
 30
0.0
 10
1203.859275709799
 20
2160.688465559781
 30
0.0
 10
1204.073650775915
 20
2159.702916047163
 30
0.0
 10
1204.317730017344
 20
2158.402697338174
 30
0.0
 10
1204.543431130502
 20
2157.055167339205
 30
0.0
 10
1204.726912979732
 20
2155.973664230961
 30
0.0
 10
1204.872789086252
 20
2155.169885242766
 30
0.0
 10
1205.022581414121
 20
2154.367698301761
 30
0.0
 10
1205.215352774978
 20
2153.285663857833
 30
0.0
 10
1205.449850342393
 20
2151.919579943385
 30
0.0
 10
1205.722035485242
 20
2150.262962743586
 30
0.0
 10
1206.265089109041
 20
2146.934538799923
 30
0.0
 10
1206.698117631107
 20
2144.12144806888
 30
0.0
 10
1207.00730426104
 20
2141.843226088609
 30
0.0
  0
ELLIPSE
  5
292
330
244
100
AcDbEntity
  8
P-SANR-FIXT
100
AcDbEllipse
 10
1177.114353943077
 20
2138.998566602341
 30
0.0
 11
31.02845079977484
 21
0.0
 31
0.0
210
0.0
220
0.0
230
1.0
 40
0.3420201433256597
 41
6.011815189188446
 42
6.554555425170719
  0
SPLINE
  5
293
330
244
100
AcDbEntity
  8
P-SANR-FIXT
100
AcDbSpline
210
0.0
220
0.0
230
1.0
 70
     8
 71
     3
 72
    23
 73
    19
 74
     0
 42
0.000000001
 43
0.0000000001
 40
-1.0
 40
-1.0
 40
-1.0
 40
-1.0
 40
-0.75
 40
-0.6875
 40
-0.625
 40
-0.5625
 40
-0.53125
 40
-0.5
 40
-0.46875
 40
-0.4375
 40
-0.375
 40
-0.3125
 40
-0.28125
 40
-0.25
 40
-0.21875
 40
-0.1875
 40
-0.125
 40
0.0
 40
0.0
 40
0.0
 40
0.0
 10
1207.00730426104
 20
2136.153907116068
 30
0.0
 10
1206.698117631107
 20
2138.57330686261
 30
0.0
 10
1206.265089109041
 20
2141.605566681938
 30
0.0
 10
1205.722035485241
 20
2145.269050935004
 30
0.0
 10
1205.449850342393
 20
2147.106538512483
 30
0.0
 10
1205.215352774978
 20
2148.641086580543
 30
0.0
 10
1205.022581414121
 20
2149.870895982166
 30
0.0
 10
1204.872789086252
 20
2150.793255879008
 30
0.0
 10
1204.726912979732
 20
2151.71981710298
 30
0.0
 10
1204.543431130502
 20
2152.963148651441
 30
0.0
 10
1204.317730017344
 20
2154.523715093368
 30
0.0
 10
1204.073650775915
 20
2156.079066312384
 30
0.0
 10
1203.859275709799
 20
2157.313091599657
 30
0.0
 10
1203.687193631665
 20
2158.231074780158
 30
0.0
 10
1203.51039297517
 20
2159.143534840435
 30
0.0
 10
1203.280450995549
 20
2160.35784756927
 30
0.0
 10
1202.900814169913
 20
2162.474701490922
 30
0.0
 10
1202.663002251462
 20
2164.278629484938
 30
0.0
 10
1202.59483401212
 20
2165.474024572362
 30
0.0
  0
SPLINE
  5
294
330
244
100
AcDbEntity
  8
P-SANR-FIXT
100
AcDbSpline
210
0.0
220
0.0
230
1.0
 70
     8
 71
     3
 72
    21
 73
    17
 74
     0
 42
0.000000001
 43
0.0000000001
 40
-1.0
 40
-1.0
 40
-1.0
 40
-1.0
 40
-0.8333333333333332
 40
-0.75
 40
-0.7083333333333333
 40
-0.6666666666666666
 40
-0.625
 40
-0.5833333333333333
 40
-0.5
 40
-0.4166666666666666
 40
-0.375
 40
-0.3333333333333333
 40
-0.2916666666666666
 40
-0.25
 40
-0.1666666666666666
 40
0.0
 40
0.0
 40
0.0
 40
0.0
 10
1190.584884644772
 20
2158.359375419155
 30
0.0
 10
1190.944234086462
 20
2158.121780322249
 30
0.0
 10
1191.458138457329
 20
2157.717192123836
 30
0.0
 10
1191.99927630385
 20
2157.168458562868
 30
0.0
 10
1192.290063485875
 20
2156.8335907513
 30
0.0
 10
1192.499581944286
 20
2156.573031718565
 30
0.0
 10
1192.696324752163
 20
2156.299160847831
 30
0.0
 10
1192.939102208637
 20
2155.914435264043
 30
0.0
 10
1193.213594278918
 20
2155.406090737679
 30
0.0
 10
1193.463814066568
 20
2154.877928290271
 30
0.0
 10
1193.658380464147
 20
2154.453097447793
 30
0.0
 10
1193.804817675719
 20
2154.136661746454
 30
0.0
 10
1193.950108975725
 20
2153.820808960965
 30
0.0
 10
1194.136875599269
 20
2153.395260254247
 30
0.0
 10
1194.448747605027
 20
2152.642583683467
 30
0.0
 10
1194.688885898127
 20
2151.983479502519
 30
0.0
 10
1194.836784778859
 20
2151.538595954123
 30
0.0
  0
SPLINE
  5
295
330
244
100
AcDbEntity
  8
P-SANR-FIXT
100
AcDbSpline
210
0.0
220
0.0
230
1.0
 70
     8
 71
     3
 72
     9
 73
     5
 74
     0
 42
0.000000001
 43
0.0000000001
 40
-1.0
 40
-1.0
 40
-1.0
 40
-1.0
 40
-0.5
 40
0.0
 40
0.0
 40
0.0
 40
0.0
 10
1194.836784778859
 20
2151.538595954123
 30
0.0
 10
1195.869879600283
 20
2148.323818914084
 30
0.0
 10
1197.656154938193
 20
2141.731350561522
 30
0.0
 10
1198.819380523598
 20
2134.966430838014
 30
0.0
 10
1199.263759772303
 20
2131.566660279597
 30
0.0
  0
ELLIPSE
  5
296
330
244
100
AcDbEntity
  8
P-SANR-FIXT
100
AcDbEllipse
 10
1177.114353943077
 20
2138.998566602341
 30
0.0
 11
31.02845079977488
 21
0.0
 31
0.0
210
0.0
220
0.0
230
1.0
 40
0.3420201433256496
 41
4.964617637992246
 42
5.507357873970828
  0
SPLINE
  5
297
330
244
100
AcDbEntity
  8
P-SANR-FIXT
100
AcDbSpline
210
0.0
220
0.0
230
1.0
 70
     8
 71
     3
 72
    23
 73
    19
 74
     0
 42
0.000000001
 43
0.0000000001
 40
-1.0
 40
-1.0
 40
-1.0
 40
-1.0
 40
-0.75
 40
-0.6875
 40
-0.625
 40
-0.5625
 40
-0.53125
 40
-0.5
 40
-0.46875
 40
-0.4375
 40
-0.375
 40
-0.3125
 40
-0.28125
 40
-0.25
 40
-0.21875
 40
-0.1875
 40
-0.125
 40
0.0
 40
0.0
 40
0.0
 40
0.0
 10
1184.857898431754
 20
2128.722000793352
 30
0.0
 10
1184.882042443271
 20
2131.197686600813
 30
0.0
 10
1184.943005988571
 20
2134.303416387772
 30
0.0
 10
1185.095680419515
 20
2138.043987032892
 30
0.0
 10
1185.188577784688
 20
2139.916877747053
 30
0.0
 10
1185.284612106533
 20
2141.478767518336
 30
0.0
 10
1185.375316090135
 20
2142.728731697685
 30
0.0
 10
1185.452564229158
 20
2143.665416563396
 30
0.0
 10
1185.535073943224
 20
2144.6044904588
 30
0.0
 10
1185.648215016092
 20
2145.861711878363
 30
0.0
 10
1185.805078064311
 20
2147.435871457856
 30
0.0
 10
1186.006047540191
 20
2148.999735364939
 30
0.0
 10
1186.213441380908
 20
2150.235139202845
 30
0.0
 10
1186.400583237191
 20
2151.150148597906
 30
0.0
 10
1186.620318054504
 20
2152.054130646006
 30
0.0
 10
1186.951251546096
 20
2153.248501043324
 30
0.0
 10
1187.643973171208
 20
2155.303531542959
 30
0.0
 10
1188.4608011333
 20
2156.993123889629
 30
0.0
 10
1189.124303310389
 20
2158.070961109864
 30
0.0
  0
ELLIPSE
  5
298
330
244
100
AcDbEntity
  8
P-SANR-FIXT
100
AcDbEllipse
 10
1177.114353943077
 20
2135.592732890755
 30
0.0
 11
31.53381379959239
 21
0.0
 31
0.0
210
0.0
220
0.0
230
1.0
 40
0.3420201433256647
 41
3.063052837250044
 42
3.612831551628238
  0
ELLIPSE
  5
299
330
244
100
AcDbEntity
  8
P-SANR-FIXT
100
AcDbEllipse
 10
1177.114353943077
 20
2135.592732890755
 30
0.0
 11
31.53381379959235
 21
0.0
 31
0.0
210
0.0
220
0.0
230
0.9999999999999998
 40
0.3420201433256716
 41
5.811946409141133
 42
6.361725123519333
  0
ELLIPSE
  5
29A
330
244
100
AcDbEntity
  8
P-SANR-FIXT
100
AcDbEllipse
 10
1141.669492271521
 20
2138.998566602339
 30
0.0
 11
10.00000000000003
 21
0.0
 31
0.0
210
0.0
220
0.0
230
1.0
 40
0.3420201433256773
 41
0.8879524938331789
 42
0.9822035717131234
  0
ELLIPSE
  5
29B
330
244
100
AcDbEntity
  8
P-SANR-FIXT
100
AcDbEllipse
 10
1212.559215614633
 20
2138.998566602339
 30
0.0
 11
10.00000000000014
 21
0.0
 31
0.0
210
0.0
220
0.0
230
1.0
 40
0.342020143325668
 41
2.159389081876657
 42
2.253668270527134
  0
ELLIPSE
  5
29C
330
244
100
AcDbEntity
  8
P-SANR-FIXT
100
AcDbEllipse
 10
1159.391923107294
 20
2128.499864760454
 30
0.0
 11
9.999999999999838
 21
0.0
 31
0.0
210
0.0
220
0.0
230
1.0
 40
0.3420201433256695
 41
0.064993979494781
 42
1.570796326794873
  0
ELLIPSE
  5
29D
330
244
100
AcDbEntity
  8
P-SANR-FIXT
100
AcDbEllipse
 10
1159.391923107294
 20
2128.499864760454
 30
0.0
 11
10.0
 21
0.0
 31
0.0
210
0.0
220
0.0
230
1.0
 40
0.3420201433256807
 41
1.570796326794873
 42
2.029401122901311
  0
ELLIPSE
  5
29E
330
244
100
AcDbEntity
  8
P-SANR-FIXT
100
AcDbEllipse
 10
1194.836784778859
 20
2128.499864760454
 30
0.0
 11
9.999999999999824
 21
0.0
 31
0.0
210
0.0
220
0.0
230
1.0
 40
0.3420201433256709
 41
1.112191530688472
 42
1.570796326794873
  0
ELLIPSE
  5
29F
330
244
100
AcDbEntity
  8
P-SANR-FIXT
100
AcDbEllipse
 10
1194.836784778859
 20
2128.499864760454
 30
0.0
 11
10.0
 21
0.0
 31
0.0
210
0.0
220
0.0
230
1.0
 40
0.3420201433256807
 41
1.570796326794873
 42
3.076598674095014
  0
ARC
  5
2A0
330
244
100
AcDbEntity
  8
P-SANR-FIXT
100
AcDbCircle
 10
1177.114353943077
 20
1999.98255885001
 30
0.0
 40
23.55355591381112
100
AcDbArc
 50
90.0
 51
269.9999999999997
  0
ARC
  5
2A1
330
244
100
AcDbEntity
  8
P-SANR-FIXT
100
AcDbCircle
 10
1177.114353943077
 20
1999.98255885001
 30
0.0
 40
23.55355591381085
100
AcDbArc
 50
269.9999999999993
 51
89.99999999999863
  0
ARC
  5
2A2
330
244
100
AcDbEntity
  8
P-SANR-FIXT
100
AcDbCircle
 10
1177.114353943077
 20
1999.98255885001
 30
0.0
 40
26.99999999989449
100
AcDbArc
 50
239.867695938096
 51
240.0000000000007
  0
ARC
  5
2A3
330
244
100
AcDbEntity
  8
P-SANR-FIXT
100
AcDbCircle
 10
1177.114353943077
 20
1999.98255885001
 30
0.0
 40
26.9999999998945
100
AcDbArc
 50
179.8710310134614
 51
180.0000000000011
  0
ARC
  5
2A4
330
244
100
AcDbEntity
  8
P-SANR-FIXT
100
AcDbCircle
 10
1177.114353943077
 20
1999.98255885001
 30
0.0
 40
26.99999999989466
100
AcDbArc
 50
119.8742020841787
 51
120.0000000000013
  0
ARC
  5
2A5
330
244
100
AcDbEntity
  8
P-SANR-FIXT
100
AcDbCircle
 10
1177.114353943077
 20
1999.98255885001
 30
0.0
 40
26.99999999989441
100
AcDbArc
 50
59.8676959377977
 51
60.00000000000044
  0
ARC
  5
2A6
330
244
100
AcDbEntity
  8
P-SANR-FIXT
100
AcDbCircle
 10
1177.114353943077
 20
1999.98255885001
 30
0.0
 40
26.9999999998945
100
AcDbArc
 50
359.8710310135137
 51
0.0
  0
ARC
  5
2A7
330
244
100
AcDbEntity
  8
P-SANR-FIXT
100
AcDbCircle
 10
1177.114353943077
 20
1999.98255885001
 30
0.0
 40
26.99999999989452
100
AcDbArc
 50
299.8742020844629
 51
299.9999999999996
  0
SPLINE
  5
2A8
330
244
100
AcDbEntity
  8
P-SANR-FIXT
100
AcDbSpline
210
0.0
220
0.0
230
1.0
 70
     8
 71
     3
 72
     9
 73
     5
 74
     0
 42
0.000000001
 43
0.0000000001
 40
0.0
 40
0.0
 40
0.0
 40
0.0
 40
0.5
 40
1.0
 40
1.0
 40
1.0
 40
1.0
 10
1180.864353943136
 20
1970.970707823266
 30
0.0
 10
1180.305189349093
 20
1970.647873994374
 30
0.0
 10
1179.095140935019
 20
1970.142902476947
 30
0.0
 10
1177.777683224308
 20
1969.965898351644
 30
0.0
 10
1177.114353943077
 20
1969.965898351649
 30
0.0
  0
SPLINE
  5
2A9
330
244
100
AcDbEntity
  8
P-SANR-FIXT
100
AcDbSpline
210
0.0
220
0.0
230
1.0
 70
     8
 71
     3
 72
     9
 73
     5
 74
     0
 42
0.000000001
 43
0.0000000001
 40
0.0
 40
0.0
 40
0.0
 40
0.0
 40
0.5
 40
1.0
 40
1.0
 40
1.0
 40
1.0
 10
1177.114353943077
 20
1969.965898351649
 30
0.0
 10
1176.451024661868
 20
1969.965898351654
 30
0.0
 10
1175.133566951202
 20
1970.142902476967
 30
0.0
 10
1173.923518537164
 20
1970.647873994383
 30
0.0
 10
1173.364353943136
 20
1970.970707823266
 30
0.0
  0
SPLINE
  5
2AA
330
244
100
AcDbEntity
  8
P-SANR-FIXT
100
AcDbSpline
210
0.0
220
0.0
230
1.0
 70
    24
 71
     3
 72
     9
 73
     5
 74
     0
 42
0.000000001
 43
0.0000000001
 40
0.0
 40
0.0
 40
0.0
 40
0.0
 40
0.5
 40
1.0
 40
1.0
 40
1.0
 40
1.0
 10
1173.364353943136
 20
1970.970707823266
 30
0.0
 10
1170.079309882126
 20
1972.86732889619
 30
0.0
 10
1163.544265821119
 20
1976.640338343978
 30
0.0
 10
1157.079309882139
 20
1980.372882395647
 30
0.0
 10
1153.864353943155
 20
1982.229038072452
 30
0.0
  0
SPLINE
  5
2AB
330
244
100
AcDbEntity
  8
P-SANR-FIXT
100
AcDbSpline
210
0.0
220
0.0
230
1.0
 70
     8
 71
     3
 72
     9
 73
     5
 74
     0
 42
0.000000001
 43
0.0000000001
 40
0.0
 40
0.0
 40
0.0
 40
0.0
 40
0.5
 40
1.0
 40
1.0
 40
1.0
 40
1.0
 10
1153.864353943155
 20
1982.229038072452
 30
0.0
 10
1153.30518934912
 20
1982.55187190134
 30
0.0
 10
1152.262846979819
 20
1983.34731880901
 30
0.0
 10
1151.450828055385
 20
1984.399768592221
 30
0.0
 10
1151.119163414775
 20
1984.97422860083
 30
0.0
  0
SPLINE
  5
2AC
330
244
100
AcDbEntity
  8
P-SANR-FIXT
100
AcDbSpline
210
0.0
220
0.0
230
1.0
 70
     8
 71
     3
 72
     9
 73
     5
 74
     0
 42
0.000000001
 43
0.0000000001
 40
0.0
 40
0.0
 40
0.0
 40
0.0
 40
0.5
 40
1.0
 40
1.0
 40
1.0
 40
1.0
 10
1151.119163414775
 20
1984.97422860083
 30
0.0
 10
1150.787498774165
 20
1985.548688609441
 30
0.0
 10
1150.28205998791
 20
1986.778142517963
 30
0.0
 10
1150.114353943155
 20
1988.078560943058
 30
0.0
 10
1150.114353943155
 20
1988.724228600836
 30
0.0
  0
SPLINE
  5
2AD
330
244
100
AcDbEntity
  8
P-SANR-FIXT
100
AcDbSpline
210
0.0
220
0.0
230
1.0
 70
    24
 71
     3
 72
     9
 73
     5
 74
     0
 42
0.000000001
 43
0.0000000001
 40
0.0
 40
0.0
 40
0.0
 40
0.0
 40
0.5
 40
1.0
 40
1.0
 40
1.0
 40
1.0
 10
1150.114353943155
 20
1988.724228600836
 30
0.0
 10
1150.114353943155
 20
1992.517470746684
 30
0.0
 10
1150.114353943155
 20
2000.063489642261
 30
0.0
 10
1150.114353943155
 20
2007.5285777456
 30
0.0
 10
1150.114353943155
 20
2011.240889099209
 30
0.0
  0
SPLINE
  5
2AE
330
244
100
AcDbEntity
  8
P-SANR-FIXT
100
AcDbSpline
210
0.0
220
0.0
230
1.0
 70
     8
 71
     3
 72
     9
 73
     5
 74
     0
 42
0.000000001
 43
0.0000000001
 40
0.0
 40
0.0
 40
0.0
 40
0.0
 40
0.5
 40
1.0
 40
1.0
 40
1.0
 40
1.0
 10
1150.114353943155
 20
2011.240889099209
 30
0.0
 10
1150.114353943155
 20
2011.886556756987
 30
0.0
 10
1150.28205998791
 20
2013.186975182085
 30
0.0
 10
1150.787498774167
 20
2014.416429090609
 30
0.0
 10
1151.119163414778
 20
2014.99088909922
 30
0.0
  0
SPLINE
  5
2AF
330
244
100
AcDbEntity
  8
P-SANR-FIXT
100
AcDbSpline
210
0.0
220
0.0
230
1.0
 70
     8
 71
     3
 72
     9
 73
     5
 74
     0
 42
0.000000001
 43
0.0000000001
 40
0.0
 40
0.0
 40
0.0
 40
0.0
 40
0.5
 40
1.0
 40
1.0
 40
1.0
 40
1.0
 10
1151.119163414778
 20
2014.99088909922
 30
0.0
 10
1151.450828055388
 20
2015.565349107828
 30
0.0
 10
1152.262846979821
 20
2016.617798891037
 30
0.0
 10
1153.305189349121
 20
2017.413245798705
 30
0.0
 10
1153.864353943155
 20
2017.736079627592
 30
0.0
  0
SPLINE
  5
2B0
330
244
100
AcDbEntity
  8
P-SANR-FIXT
100
AcDbSpline
210
0.0
220
0.0
230
1.0
 70
    24
 71
     3
 72
     9
 73
     5
 74
     0
 42
0.000000001
 43
0.0000000001
 40
0.0
 40
0.0
 40
0.0
 40
0.0
 40
0.5
 40
1.0
 40
1.0
 40
1.0
 40
1.0
 10
1153.864353943155
 20
2017.736079627592
 30
0.0
 10
1157.149398004166
 20
2019.632700700517
 30
0.0
 10
1163.684442065173
 20
2023.405710148305
 30
0.0
 10
1170.149398004153
 20
2027.138254199975
 30
0.0
 10
1173.364353943136
 20
2028.994409876779
 30
0.0
  0
SPLINE
  5
2B1
330
244
100
AcDbEntity
  8
P-SANR-FIXT
100
AcDbSpline
210
0.0
220
0.0
230
1.0
 70
     8
 71
     3
 72
     9
 73
     5
 74
     0
 42
0.000000001
 43
0.0000000001
 40
0.0
 40
0.0
 40
0.0
 40
0.0
 40
0.5
 40
1.0
 40
1.0
 40
1.0
 40
1.0
 10
1173.364353943136
 20
2028.994409876779
 30
0.0
 10
1173.923518537164
 20
2029.317243705662
 30
0.0
 10
1175.133566951201
 20
2029.822215223078
 30
0.0
 10
1176.451024661868
 20
2029.999219348391
 30
0.0
 10
1177.114353943077
 20
2029.999219348396
 30
0.0
  0
SPLINE
  5
2B2
330
244
100
AcDbEntity
  8
P-SANR-FIXT
100
AcDbSpline
210
0.0
220
0.0
230
1.0
 70
     8
 71
     3
 72
     9
 73
     5
 74
     0
 42
0.000000001
 43
0.0000000001
 40
0.0
 40
0.0
 40
0.0
 40
0.0
 40
0.5
 40
1.0
 40
1.0
 40
1.0
 40
1.0
 10
1177.114353943077
 20
2029.999219348396
 30
0.0
 10
1177.777683224308
 20
2029.999219348401
 30
0.0
 10
1179.095140935019
 20
2029.822215223098
 30
0.0
 10
1180.305189349093
 20
2029.317243705671
 30
0.0
 10
1180.864353943136
 20
2028.994409876779
 30
0.0
  0
SPLINE
  5
2B3
330
244
100
AcDbEntity
  8
P-SANR-FIXT
100
AcDbSpline
210
0.0
220
0.0
230
1.0
 70
    24
 71
     3
 72
     9
 73
     5
 74
     0
 42
0.000000001
 43
0.0000000001
 40
0.0
 40
0.0
 40
0.0
 40
0.0
 40
0.5
 40
1.0
 40
1.0
 40
1.0
 40
1.0
 10
1180.864353943136
 20
2028.994409876779
 30
0.0
 10
1184.149398004146
 20
2027.097788803855
 30
0.0
 10
1190.684442065154
 20
2023.324779356066
 30
0.0
 10
1197.149398004134
 20
2019.592235304397
 30
0.0
 10
1200.364353943117
 20
2017.736079627593
 30
0.0
  0
SPLINE
  5
2B4
330
244
100
AcDbEntity
  8
P-SANR-FIXT
100
AcDbSpline
210
0.0
220
0.0
230
1.0
 70
     8
 71
     3
 72
     9
 73
     5
 74
     0
 42
0.000000001
 43
0.0000000001
 40
0.0
 40
0.0
 40
0.0
 40
0.0
 40
0.5
 40
1.0
 40
1.0
 40
1.0
 40
1.0
 10
1200.364353943117
 20
2017.736079627593
 30
0.0
 10
1200.923518537152
 20
2017.413245798705
 30
0.0
 10
1201.965860906456
 20
2016.617798891033
 30
0.0
 10
1202.777879830893
 20
2015.565349107816
 30
0.0
 10
1203.109544471503
 20
2014.990889099204
 30
0.0
  0
SPLINE
  5
2B5
330
244
100
AcDbEntity
  8
P-SANR-FIXT
100
AcDbSpline
210
0.0
220
0.0
230
1.0
 70
     8
 71
     3
 72
     9
 73
     5
 74
     0
 42
0.000000001
 43
0.0000000001
 40
0.0
 40
0.0
 40
0.0
 40
0.0
 40
0.5
 40
1.0
 40
1.0
 40
1.0
 40
1.0
 10
1203.109544471503
 20
2014.990889099204
 30
0.0
 10
1203.441209112113
 20
2014.416429090593
 30
0.0
 10
1203.946647898364
 20
2013.186975182073
 30
0.0
 10
1204.114353943117
 20
2011.886556756983
 30
0.0
 10
1204.114353943117
 20
2011.24088909921
 30
0.0
  0
SPLINE
  5
2B6
330
244
100
AcDbEntity
  8
P-SANR-FIXT
100
AcDbSpline
210
0.0
220
0.0
230
1.0
 70
    24
 71
     3
 72
     9
 73
     5
 74
     0
 42
0.000000001
 43
0.0000000001
 40
0.0
 40
0.0
 40
0.0
 40
0.0
 40
0.5
 40
1.0
 40
1.0
 40
1.0
 40
1.0
 10
1204.114353943117
 20
2011.24088909921
 30
0.0
 10
1204.114353943117
 20
2007.447646953361
 30
0.0
 10
1204.114353943117
 20
1999.901628057784
 30
0.0
 10
1204.114353943117
 20
1992.436539954446
 30
0.0
 10
1204.114353943117
 20
1988.724228600836
 30
0.0
  0
SPLINE
  5
2B7
330
244
100
AcDbEntity
  8
P-SANR-FIXT
100
AcDbSpline
210
0.0
220
0.0
230
1.0
 70
     8
 71
     3
 72
     9
 73
     5
 74
     0
 42
0.000000001
 43
0.0000000001
 40
0.0
 40
0.0
 40
0.0
 40
0.0
 40
0.5
 40
1.0
 40
1.0
 40
1.0
 40
1.0
 10
1204.114353943117
 20
1988.724228600836
 30
0.0
 10
1204.114353943117
 20
1988.078560943063
 30
0.0
 10
1203.946647898365
 20
1986.778142517976
 30
0.0
 10
1203.441209112115
 20
1985.548688609457
 30
0.0
 10
1203.109544471507
 20
1984.974228600848
 30
0.0
  0
SPLINE
  5
2B8
330
244
100
AcDbEntity
  8
P-SANR-FIXT
100
AcDbSpline
210
0.0
220
0.0
230
1.0
 70
     8
 71
     3
 72
     9
 73
     5
 74
     0
 42
0.000000001
 43
0.0000000001
 40
0.0
 40
0.0
 40
0.0
 40
0.0
 40
0.5
 40
1.0
 40
1.0
 40
1.0
 40
1.0
 10
1203.109544471507
 20
1984.974228600848
 30
0.0
 10
1202.777879830896
 20
1984.399768592234
 30
0.0
 10
1201.965860906459
 20
1983.347318809015
 30
0.0
 10
1200.923518537154
 20
1982.551871901341
 30
0.0
 10
1200.364353943117
 20
1982.229038072453
 30
0.0
  0
SPLINE
  5
2B9
330
244
100
AcDbEntity
  8
P-SANR-FIXT
100
AcDbSpline
210
0.0
220
0.0
230
1.0
 70
    24
 71
     3
 72
     9
 73
     5
 74
     0
 42
0.000000001
 43
0.0000000001
 40
0.0
 40
0.0
 40
0.0
 40
0.0
 40
0.5
 40
1.0
 40
1.0
 40
1.0
 40
1.0
 10
1200.364353943117
 20
1982.229038072453
 30
0.0
 10
1197.079309882107
 20
1980.332416999529
 30
0.0
 10
1190.5442658211
 20
1976.55940755174
 30
0.0
 10
1184.07930988212
 20
1972.826863500071
 30
0.0
 10
1180.864353943136
 20
1970.970707823266
 30
0.0
  0
ARC
  5
2BA
330
244
100
AcDbEntity
  8
P-SANR-FIXT
100
AcDbCircle
 10
1177.114353943077
 20
1999.982558850011
 30
0.0
 40
20.34999999995375
100
AcDbArc
 50
90.0
 51
269.9999999999997
  0
ARC
  5
2BB
330
244
100
AcDbEntity
  8
P-SANR-FIXT
100
AcDbCircle
 10
1177.114353943077
 20
1999.982558850011
 30
0.0
 40
20.34999999995375
100
AcDbArc
 50
269.9999999999997
 51
89.99999999999936
  0
ARC
  5
2BC
330
244
100
AcDbEntity
  8
P-SANR-FIXT
100
AcDbCircle
 10
1177.114353943077
 20
1999.982558850011
 30
0.0
 40
20.94999999995366
100
AcDbArc
 50
90.00000000000062
 51
269.9999999999997
  0
ARC
  5
2BD
330
244
100
AcDbEntity
  8
P-SANR-FIXT
100
AcDbCircle
 10
1177.114353943077
 20
1999.982558850011
 30
0.0
 40
20.94999999995366
100
AcDbArc
 50
270.0000000000002
 51
90.0
  0
LWPOLYLINE
  5
2BE
330
244
100
AcDbEntity
  8
P-SANR-FIXT
100
AcDbPolyline
 90
       40
 70
   128
 43
0.0
 10
1151.256736552978
 20
1971.821552405709
 10
1151.374224594683
 20
1971.137980324798
 10
1151.634329429304
 20
1970.239095683818
 10
1151.975951274005
 20
1969.401457346642
 10
1152.381972956891
 20
1968.632041517747
 10
1152.836897855954
 20
1967.931468486508
 10
1153.328253256711
 20
1967.296025797999
 10
1153.846894122124
 20
1966.719644636591
 10
1154.386638884558
 20
1966.195405887304
 10
1154.943634993053
 20
1965.71649961245
 10
1155.515706454056
 20
1965.276737668351
 10
1156.101800783891
 20
1964.870763288616
 10
1156.701567200454
 20
1964.49408167619
 10
1157.315056114429
 20
1964.142998520779
 10
1157.942515453933
 20
1963.814520019572
 10
1158.584258297455
 20
1963.506244191139
 10
1159.24058040758
 20
1963.216258295397
 10
1159.911711461554
 20
1962.943048538106
 10
1160.597788412602
 20
1962.68542363935
 10
1161.298843028923
 20
1962.442451617302
 10
1162.014798281433
 20
1962.213408217709
 10
1162.745470079396
 20
1961.997735174939
 10
1163.490572092944
 20
1961.79500656714
 10
1164.249722227024
 20
1961.604901736171
 10
1165.022449853523
 20
1961.427183486058
 10
1165.808203260272
 20
1961.261680506774
 10
1166.606357001726
 20
1961.10827317494
 10
1167.416218979497
 20
1960.966882054832
 10
1168.237037170509
 20
1960.837458563299
 10
1169.068005975421
 20
1960.719977374878
 10
1169.908272192538
 20
1960.614430232961
 10
1170.756940640876
 20
1960.520820903814
 10
1171.613079465715
 20
1960.439161066318
 10
1172.475725164209
 20
1960.369466974526
 10
1173.343887369713
 20
1960.31175676539
 10
1174.216553432788
 20
1960.266048311977
 10
1175.092692835293
 20
1960.232357545162
 10
1175.971261472144
 20
1960.210697185198
 10
1176.851205833486
 20
1960.201075839914
 10
1177.114353943079
 20
1960.200537752969
  0
LWPOLYLINE
  5
2BF
330
244
100
AcDbEntity
  8
P-SANR-FIXT
100
AcDbPolyline
 90
       40
 70
   128
 43
0.0
 10
1202.972281112322
 20
1971.823354771041
 10
1202.854483291474
 20
1971.137980324797
 10
1202.594378456854
 20
1970.239095683818
 10
1202.252756612152
 20
1969.401457346642
 10
1201.846734929266
 20
1968.632041517747
 10
1201.391810030203
 20
1967.931468486508
 10
1200.900454629446
 20
1967.296025797999
 10
1200.381813764033
 20
1966.719644636591
 10
1199.8420690016
 20
1966.195405887304
 10
1199.285072893104
 20
1965.71649961245
 10
1198.713001432102
 20
1965.276737668351
 10
1198.126907102267
 20
1964.870763288616
 10
1197.527140685704
 20
1964.49408167619
 10
1196.913651771729
 20
1964.142998520779
 10
1196.286192432225
 20
1963.814520019572
 10
1195.644449588702
 20
1963.506244191139
 10
1194.988127478578
 20
1963.216258295397
 10
1194.316996424604
 20
1962.943048538106
 10
1193.630919473555
 20
1962.68542363935
 10
1192.929864857235
 20
1962.442451617302
 10
1192.213909604725
 20
1962.213408217709
 10
1191.483237806761
 20
1961.997735174939
 10
1190.738135793214
 20
1961.79500656714
 10
1189.978985659133
 20
1961.604901736171
 10
1189.206258032634
 20
1961.427183486058
 10
1188.420504625886
 20
1961.261680506774
 10
1187.622350884432
 20
1961.10827317494
 10
1186.81248890666
 20
1960.966882054832
 10
1185.991670715648
 20
1960.837458563299
 10
1185.160701910736
 20
1960.719977374878
 10
1184.32043569362
 20
1960.614430232961
 10
1183.471767245281
 20
1960.520820903814
 10
1182.615628420442
 20
1960.439161066318
 10
1181.752982721948
 20
1960.369466974526
 10
1180.884820516444
 20
1960.31175676539
 10
1180.01215445337
 20
1960.266048311977
 10
1179.136015050864
 20
1960.232357545162
 10
1178.257446414013
 20
1960.210697185198
 10
1177.377502052672
 20
1960.201075839914
 10
1177.114353943079
 20
1960.200537752969
  0
LWPOLYLINE
  5
2C0
330
244
100
AcDbEntity
  8
P-SANR-FIXT
100
AcDbPolyline
 90
        4
 70
   128
 43
0.0
 10
1142.633088692841
 20
2046.739060725526
 10
1143.51599664231
 20
2016.359764779023
 10
1147.946990833705
 20
1985.958440096286
 10
1151.296498012371
 20
1971.633127091969
  0
LWPOLYLINE
  5
2C1
330
244
100
AcDbEntity
  8
P-SANR-FIXT
100
AcDbPolyline
 90
        4
 70
   128
 43
0.0
 10
1211.595619193317
 20
2046.739060725526
 10
1210.712711243846
 20
2016.359764779013
 10
1206.281717052449
 20
1985.958440096276
 10
1202.932209873784
 20
1971.63312709196
  0
LINE
  5
2C2
330
244
100
AcDbEntity
  8
P-SANR-FIXT
100
AcDbLine
 10
1142.734467662412
 20
2046.538349887715
 30
0.0
 11
1143.185202839814
 21
2045.821115791275
 31
0.0
  0
LINE
  5
2C3
330
244
100
AcDbEntity
  8
P-SANR-FIXT
100
AcDbLine
 10
1211.043505046343
 20
2045.821115791275
 30
0.0
 11
1211.494240223744
 21
2046.538349887715
 31
0.0
  0
LINE
  5
2C4
330
244
100
AcDbEntity
  8
P-SANR-FIXT
100
AcDbLine
 10
1141.614353943078
 20
2055.786669610739
 30
0.0
 11
1141.614353943078
 21
2050.240332785974
 31
0.0
  0
LINE
  5
2C5
330
244
100
AcDbEntity
  8
P-SANR-FIXT
100
AcDbLine
 10
1212.614353943079
 20
2050.240332785974
 30
0.0
 11
1212.614353943079
 21
2055.786669610739
 31
0.0
  0
LINE
  5
2C6
330
244
100
AcDbEntity
  8
P-SANR-FIXT
100
AcDbLine
 10
1141.267960161093
 20
2056.297315102209
 30
0.0
 11
1142.079551827958
 21
2055.005866719551
 31
0.0
  0
LINE
  5
2C7
330
244
100
AcDbEntity
  8
P-SANR-FIXT
100
AcDbLine
 10
1212.149156058199
 20
2055.005866719551
 30
0.0
 11
1212.960747725064
 21
2056.297315102209
 31
0.0
  0
LINE
  5
2C8
330
244
100
AcDbEntity
  8
P-SANR-FIXT
100
AcDbLine
 10
1140.114353943078
 20
2074.324774015461
 30
0.0
 11
1140.114353943078
 21
2060.107105304227
 31
0.0
  0
LINE
  5
2C9
330
244
100
AcDbEntity
  8
P-SANR-FIXT
100
AcDbLine
 10
1214.114353943079
 20
2060.107105304227
 30
0.0
 11
1214.114353943078
 21
2074.324774015461
 31
0.0
  0
LWPOLYLINE
  5
2CA
330
244
100
AcDbEntity
  8
P-SANR-FIXT
100
AcDbPolyline
 90
        7
 70
   128
 43
0.0
 10
1141.614353943079
 20
2050.240332785974
 10
1141.657692158463
 20
2049.498432532335
 10
1141.785872881928
 20
2048.767815759624
 10
1141.993904100889
 20
2048.057950301859
 10
1142.274900130734
 20
2047.375348850766
 10
1142.621514728775
 20
2046.723366405879
 10
1142.734467662412
 20
2046.538349887715
  0
LWPOLYLINE
  5
2CB
330
244
100
AcDbEntity
  8
P-SANR-FIXT
100
AcDbPolyline
 90
        7
 70
   128
 43
0.0
 10
1212.614353943078
 20
2050.240332785974
 10
1212.571015727694
 20
2049.498432532335
 10
1212.44283500423
 20
2048.767815759624
 10
1212.234803785268
 20
2048.057950301859
 10
1211.953807755423
 20
2047.375348850766
 10
1211.607193157382
 20
2046.723366405879
 10
1211.494240223744
 20
2046.538349887715
  0
LWPOLYLINE
  5
2CC
330
244
100
AcDbEntity
  8
P-SANR-FIXT
100
AcDbPolyline
 90
        7
 70
   128
 43
0.0
 10
1140.114353943078
 20
2060.107105304227
 10
1140.158891998472
 20
2059.344689313872
 10
1140.290670322474
 20
2058.593589625249
 10
1140.504691147108
 20
2057.863306840669
 10
1140.79405920567
 20
2057.160386315227
 10
1141.151414862013
 20
2056.488215554642
 10
1141.267960161093
 20
2056.297315102209
  0
LWPOLYLINE
  5
2CD
330
244
100
AcDbEntity
  8
P-SANR-FIXT
100
AcDbPolyline
 90
        7
 70
   128
 43
0.0
 10
1214.114353943078
 20
2060.107105304227
 10
1214.069815887685
 20
2059.344689313872
 10
1213.938037563683
 20
2058.593589625249
 10
1213.724016739049
 20
2057.863306840669
 10
1213.434648680487
 20
2057.160386315227
 10
1213.077293024144
 20
2056.488215554642
 10
1212.960747725064
 20
2056.297315102209
  0
ELLIPSE
  5
2CE
330
244
100
AcDbEntity
  8
P-SANR-FIXT
100
AcDbEllipse
 10
1177.114353943077
 20
1972.427806917313
 30
0.0
 11
25.92219672528927
 21
0.0
 31
0.0
210
0.0
220
0.0
230
1.0
 40
0.342020143325671
 41
3.220132469929546
 42
4.712388980384683
  0
ELLIPSE
  5
2CF
330
244
100
AcDbEntity
  8
P-SANR-FIXT
100
AcDbEllipse
 10
1177.114353943077
 20
1972.427806917313
 30
0.0
 11
25.922196725289
 21
0.0
 31
0.0
210
0.0
220
0.0
230
1.0
 40
0.3420201433256771
 41
4.712388980384683
 42
6.204645490839846
  0
ELLIPSE
  5
2D0
330
244
100
AcDbEntity
  8
P-SANR-FIXT
100
AcDbEllipse
 10
1177.114353943077
 20
2074.32477401546
 30
0.0
 11
36.99999999999977
 21
0.0
 31
0.0
210
0.0
220
0.0
230
0.9999999999999998
 40
0.342020143325673
 41
2.979925086997733
 42
4.712388980384683
  0
ELLIPSE
  5
2D1
330
244
100
AcDbEntity
  8
P-SANR-FIXT
100
AcDbEllipse
 10
1177.114353943077
 20
2074.32477401546
 30
0.0
 11
36.99999999999999
 21
0.0
 31
0.0
210
0.0
220
0.0
230
1.0
 40
0.3420201433256649
 41
4.712388980384683
 42
6.44485287376342
  0
ENDBLK
  5
2D3
330
244
100
AcDbEntity
  8
0
100
AcDbBlockEnd
  0
ENDSEC
  0
SECTION
  2
ENTITIES
  0
INSERT
  5
173
330
71
100
AcDbEntity
  8
P-SANR-FIXT
100
AcDbBlockReference
  2
Automatic flow rate regulator valve_Caleffi_121 DN15 - 1 1_4__-937400-Est - Idraulica
 10
0.0
 20
0.0
 30
0.0
1001
REVIT
1002
{
1070
     1
1000
863131
1002
}
1002
{
1070
     5
1000
937400
1002
}
1002
{
1070
     2
1000
-2001160
1002
}
  0
INSERT
  5
243
330
71
100
AcDbEntity
  8
P-SANR-FIXT
100
AcDbBlockReference
  2
Automatic flow rate regulator valve_Caleffi_121 DN15 - 1 1_4__-V1-Est - Idraulica
 10
0.0
 20
0.0
 30
0.0
1001
REVIT
1002
{
1070
     1
1000
863152
1002
}
1002
{
1070
     5
1000
937400
1002
}
1002
{
1070
     2
1000
-2001160
1002
}
  0
INSERT
  5
2D4
330
71
100
AcDbEntity
  8
P-SANR-FIXT
100
AcDbBlockReference
  2
Automatic flow rate regulator valve_Caleffi_121 DN15 - 1 1_4__-V2-Est - Idraulica
 10
0.0
 20
0.0
 30
0.0
1001
REVIT
1002
{
1070
     1
1000
863172
1002
}
1002
{
1070
     5
1000
937400
1002
}
1002
{
1070
     2
1000
-2001160
1002
}
  0
ENDSEC
  0
SECTION
  2
OBJECTS
  0
DICTIONARY
  5
C
330
0
100
AcDbDictionary
281
     1
  3
ACAD_CIP_PREVIOUS_PRODUCT_INFO
350
7A
  3
ACAD_COLOR
350
63
  3
ACAD_DETAILVIEWSTYLE
350
6B
  3
ACAD_GROUP
350
D
  3
ACAD_IMAGE_VARS
350
7B
  3
ACAD_LAYOUT
350
62
  3
ACAD_MATERIAL
350
10
  3
ACAD_MLEADERSTYLE
350
66
  3
ACAD_MLINESTYLE
350
5F
  3
ACAD_PLOTSETTINGS
350
61
  3
ACAD_PLOTSTYLENAME
350
E
  3
ACAD_SCALELIST
350
42
  3
ACAD_SECTIONVIEWSTYLE
350
68
  3
ACAD_TABLESTYLE
350
64
  3
ACAD_VISUALSTYLE
350
29
  3
ACDB_RECOMPOSE_DATA
350
2DF
  3
AcDbVariableDictionary
350
7C
  3
REVIT_DICTIONARY
350
2D6
  0
DICTIONARY
  5
2DB
330
71
100
AcDbDictionary
280
     1
281
     1
  3
ACAD_SORTENTS
360
2DC
  0
XRECORD
  5
7A
102
{ACAD_REACTORS
330
C
102
}
330
C
100
AcDbXrecord
280
     1
300
RVT
300
2013
300
RVT2013
  0
DICTIONARY
  5
63
102
{ACAD_REACTORS
330
C
102
}
330
C
100
AcDbDictionary
281
     1
  0
DICTIONARY
  5
6B
102
{ACAD_REACTORS
330
C
102
}
330
C
100
AcDbDictionary
281
     1
  3
Imperial24
350
6C
  0
DICTIONARY
  5
D
102
{ACAD_REACTORS
330
C
102
}
330
C
100
AcDbDictionary
281
     1
  0
RASTERVARIABLES
  5
7B
102
{ACAD_REACTORS
330
C
102
}
330
C
100
AcDbRasterVariables
 90
        0
 70
     0
 71
     1
 72
     1
  0
DICTIONARY
  5
62
102
{ACAD_REACTORS
330
C
102
}
330
C
100
AcDbDictionary
281
     1
  3
Layout1
350
70
  3
Layout2
350
78
  3
Model
350
74
  0
DICTIONARY
  5
10
102
{ACAD_REACTORS
330
C
102
}
330
C
100
AcDbDictionary
281
     1
  3
ByBlock
350
19
  3
ByLayer
350
11
  3
Global
350
21
  0
DICTIONARY
  5
66
102
{ACAD_REACTORS
330
C
102
}
330
C
100
AcDbDictionary
281
     1
  3
Standard
350
67
  0
DICTIONARY
  5
5F
102
{ACAD_REACTORS
330
C
102
}
330
C
100
AcDbDictionary
281
     1
  3
Standard
350
60
  0
DICTIONARY
  5
61
102
{ACAD_REACTORS
330
C
102
}
330
C
100
AcDbDictionary
281
     1
  0
ACDBDICTIONARYWDFLT
  5
E
102
{ACAD_REACTORS
330
C
102
}
330
C
100
AcDbDictionary
281
     1
  3
Normal
350
F
100
AcDbDictionaryWithDefault
340
F
  0
DICTIONARY
  5
42
102
{ACAD_REACTORS
330
C
102
}
330
C
100
AcDbDictionary
281
     1
  3
A0
350
43
  3
A1
350
44
  3
A2
350
45
  3
A3
350
46
  3
A4
350
47
  3
A5
350
48
  3
A6
350
49
  3
A7
350
4A
  3
A8
350
4B
  3
A9
350
4C
  3
B0
350
4D
  3
B1
350
4E
  3
B2
350
4F
  3
B3
350
50
  3
B4
350
51
  3
B5
350
52
  3
B6
350
53
  0
DICTIONARY
  5
68
102
{ACAD_REACTORS
330
C
102
}
330
C
100
AcDbDictionary
281
     1
  3
Imperial24
350
6A
  0
DICTIONARY
  5
64
102
{ACAD_REACTORS
330
C
102
}
330
C
100
AcDbDictionary
281
     1
  3
Standard
350
65
  0
DICTIONARY
  5
29
102
{ACAD_REACTORS
330
C
102
}
330
C
100
AcDbDictionary
281
     1
  3
2dWireframe
350
2F
  3
Basic
350
2E
  3
Brighten
350
35
  3
ColorChange
350
39
  3
Conceptual
350
32
  3
Dim
350
34
  3
EdgeColorOff
350
41
  3
Facepattern
350
38
  3
Flat
350
2A
  3
FlatWithEdges
350
2B
  3
Gouraud
350
2C
  3
GouraudWithEdges
350
2D
  3
Hidden
350
31
  3
JitterOff
350
3F
  3
Linepattern
350
37
  3
OverhangOff
350
40
  3
Realistic
350
33
  3
Shaded
350
3E
  3
Shaded with edges
350
3D
  3
Shades of Gray
350
3A
  3
Sketchy
350
3B
  3
Thicken
350
36
  3
Wireframe
350
30
  3
X-Ray
350
3C
  0
XRECORD
  5
2DF
102
{ACAD_REACTORS
330
C
102
}
330
C
100
AcDbXrecord
280
     1
 90
        1
330
65
  0
DICTIONARY
  5
7C
102
{ACAD_REACTORS
330
C
102
}
330
C
100
AcDbDictionary
281
     1
  3
CANNOSCALE
350
81
  3
CMLEADERSTYLE
350
7E
  3
CTABLESTYLE
350
7D
  3
CVIEWDETAILSTYLE
350
7F
  3
CVIEWSECTIONSTYLE
350
80
  0
DICTIONARY
  5
2D6
102
{ACAD_REACTORS
330
C
102
}
330
C
100
AcDbDictionary
281
     1
  3
DRAWING_TOOL
350
2DA
  3
REVIT_CATEGORY_MAPPING
350
2D8
  3
REVIT_SUB_CATEGORY_MAPPING
350
2D9
  3
REVIT_TYPE_MAPPING
350
2D7
  0
SORTENTSTABLE
  5
2DC
102
{ACAD_REACTORS
330
2DB
102
}
330
2DB
100
AcDbSortentsTable
330
71
  0
ACDBDETAILVIEWSTYLE
  5
6C
102
{ACAD_REACTORS
330
6B
102
}
330
6B
100
AcDbModelDocViewStyle
 70
     0
  3
Imperial24
290
     1
100
AcDbDetailViewStyle
 70
     0
 71
     0
 90
        3
 71
     1
340
55
 62
   256
 40
0.24
340
0
 62
   256
 40
0.24
300

 40
0.36
280
     3
 71
     2
340
5D
 90
       25
 62
   256
 71
     3
340
55
 62
   256
 40
0.24
 90
        1
 40
0.75
 90
        1
300
%<\AcVar ViewType \f "%tc1">% %<\AcVar ViewDetailId>%\PSCALA %<\AcVar ViewScale \f "%sn">%
 71
     4
340
5D
 90
       25
 62
   256
340
5D
 90
       25
 62
   256
280
     0
  0
LAYOUT
  5
70
102
{ACAD_REACTORS
330
62
102
}
330
62
100
AcDbPlotSettings
  1

  2

  4

  6

 40
0.0
 41
0.0
 42
0.0
 43
0.0
 44
0.0
 45
0.0
 46
0.0
 47
0.0
 48
0.0
 49
0.0
140
0.0
141
0.0
142
1.0
143
1.0
 70
   688
 72
     0
 73
     0
 74
     5
  7

 75
    16
147
1.0
 76
     0
 77
     2
 78
   300
148
0.0
149
0.0
100
AcDbLayout
  1
Layout1
 70
     1
 71
     1
 10
0.0
 20
0.0
 11
12.0
 21
9.0
 12
0.0
 22
0.0
 32
0.0
 14
0.0
 24
0.0
 34
0.0
 15
0.0
 25
0.0
 35
0.0
146
0.0
 13
0.0
 23
0.0
 33
0.0
 16
1.0
 26
0.0
 36
0.0
 17
0.0
 27
1.0
 37
0.0
 76
     0
330
6D
  0
LAYOUT
  5
78
102
{ACAD_REACTORS
330
62
102
}
330
62
100
AcDbPlotSettings
  1

  2

  4

  6

 40
0.0
 41
0.0
 42
0.0
 43
0.0
 44
0.0
 45
0.0
 46
0.0
 47
0.0
 48
0.0
 49
0.0
140
0.0
141
0.0
142
1.0
143
1.0
 70
   688
 72
     0
 73
     0
 74
     5
  7

 75
    16
147
1.0
 76
     0
 77
     2
 78
   300
148
0.0
149
0.0
100
AcDbLayout
  1
Layout2
 70
     1
 71
     2
 10
0.0
 20
0.0
 11
12.0
 21
9.0
 12
0.0
 22
0.0
 32
0.0
 14
0.0
 24
0.0
 34
0.0
 15
0.0
 25
0.0
 35
0.0
146
0.0
 13
0.0
 23
0.0
 33
0.0
 16
1.0
 26
0.0
 36
0.0
 17
0.0
 27
1.0
 37
0.0
 76
     0
330
75
  0
LAYOUT
  5
74
102
{ACAD_REACTORS
330
62
102
}
330
62
100
AcDbPlotSettings
  1

  2

  4

  6

 40
0.0
 41
0.0
 42
0.0
 43
0.0
 44
0.0
 45
0.0
 46
0.0
 47
0.0
 48
0.0
 49
0.0
140
0.0
141
0.0
142
1.0
143
1.0
 70
  1712
 72
     0
 73
     0
 74
     0
  7

 75
     0
147
1.0
 76
     0
 77
     2
 78
   300
148
0.0
149
0.0
100
AcDbLayout
  1
Model
 70
     1
 71
     0
 10
0.0
 20
0.0
 11
12.0
 21
9.0
 12
0.0
 22
0.0
 32
0.0
 14
0.0
 24
0.0
 34
0.0
 15
0.0
 25
0.0
 35
0.0
146
0.0
 13
0.0
 23
0.0
 33
0.0
 16
1.0
 26
0.0
 36
0.0
 17
0.0
 27
1.0
 37
0.0
 76
     0
330
71
  0
MATERIAL
  5
19
102
{ACAD_XDICTIONARY
360
1A
102
}
102
{ACAD_REACTORS
330
10
102
}
330
10
100
AcDbMaterial
  1
ByBlock
 72
     0
 43
0.0208333333333333
 43
0.0
 43
0.0
 43
0.0
 43
0.0
 43
0.0208333333333333
 43
0.0
 43
0.0
 43
0.0
 43
0.0
 43
1.0
 43
0.0
 43
0.0
 43
0.0
 43
0.0
 43
1.0
 77
     0
 47
0.0208333333333333
 47
0.0
 47
0.0
 47
0.0
 47
0.0
 47
0.0208333333333333
 47
0.0
 47
0.0
 47
0.0
 47
0.0
 47
1.0
 47
0.0
 47
0.0
 47
0.0
 47
0.0
 47
1.0
171
     0
 49
0.0208333333333333
 49
0.0
 49
0.0
 49
0.0
 49
0.0
 49
0.0208333333333333
 49
0.0
 49
0.0
 49
0.0
 49
0.0
 49
1.0
 49
0.0
 49
0.0
 49
0.0
 49
0.0
 49
1.0
175
     0
142
0.0208333333333333
142
0.0
142
0.0
142
0.0
142
0.0
142
0.0208333333333333
142
0.0
142
0.0
142
0.0
142
0.0
142
1.0
142
0.0
142
0.0
142
0.0
142
0.0
142
1.0
179
     0
144
0.0208333333333333
144
0.0
144
0.0
144
0.0
144
0.0
144
0.0208333333333333
144
0.0
144
0.0
144
0.0
144
0.0
144
1.0
144
0.0
144
0.0
144
0.0
144
0.0
144
1.0
147
0.0208333333333333
147
0.0
147
0.0
147
0.0
147
0.0
147
0.0208333333333333
147
0.0
147
0.0
147
0.0
147
0.0
147
1.0
147
0.0
147
0.0
147
0.0
147
0.0
147
1.0
  0
MATERIAL
  5
11
102
{ACAD_XDICTIONARY
360
12
102
}
102
{ACAD_REACTORS
330
10
102
}
330
10
100
AcDbMaterial
  1
ByLayer
 72
     0
 43
0.0208333333333333
 43
0.0
 43
0.0
 43
0.0
 43
0.0
 43
0.0208333333333333
 43
0.0
 43
0.0
 43
0.0
 43
0.0
 43
1.0
 43
0.0
 43
0.0
 43
0.0
 43
0.0
 43
1.0
 77
     0
 47
0.0208333333333333
 47
0.0
 47
0.0
 47
0.0
 47
0.0
 47
0.0208333333333333
 47
0.0
 47
0.0
 47
0.0
 47
0.0
 47
1.0
 47
0.0
 47
0.0
 47
0.0
 47
0.0
 47
1.0
171
     0
 49
0.0208333333333333
 49
0.0
 49
0.0
 49
0.0
 49
0.0
 49
0.0208333333333333
 49
0.0
 49
0.0
 49
0.0
 49
0.0
 49
1.0
 49
0.0
 49
0.0
 49
0.0
 49
0.0
 49
1.0
175
     0
142
0.0208333333333333
142
0.0
142
0.0
142
0.0
142
0.0
142
0.0208333333333333
142
0.0
142
0.0
142
0.0
142
0.0
142
1.0
142
0.0
142
0.0
142
0.0
142
0.0
142
1.0
179
     0
144
0.0208333333333333
144
0.0
144
0.0
144
0.0
144
0.0
144
0.0208333333333333
144
0.0
144
0.0
144
0.0
144
0.0
144
1.0
144
0.0
144
0.0
144
0.0
144
0.0
144
1.0
147
0.0208333333333333
147
0.0
147
0.0
147
0.0
147
0.0
147
0.0208333333333333
147
0.0
147
0.0
147
0.0
147
0.0
147
1.0
147
0.0
147
0.0
147
0.0
147
0.0
147
1.0
  0
MATERIAL
  5
21
102
{ACAD_XDICTIONARY
360
22
102
}
102
{ACAD_REACTORS
330
10
102
}
330
10
100
AcDbMaterial
  1
Global
 72
     0
 43
0.0208333333333333
 43
0.0
 43
0.0
 43
0.0
 43
0.0
 43
0.0208333333333333
 43
0.0
 43
0.0
 43
0.0
 43
0.0
 43
1.0
 43
0.0
 43
0.0
 43
0.0
 43
0.0
 43
1.0
 77
     0
 47
0.0208333333333333
 47
0.0
 47
0.0
 47
0.0
 47
0.0
 47
0.0208333333333333
 47
0.0
 47
0.0
 47
0.0
 47
0.0
 47
1.0
 47
0.0
 47
0.0
 47
0.0
 47
0.0
 47
1.0
171
     0
 49
0.0208333333333333
 49
0.0
 49
0.0
 49
0.0
 49
0.0
 49
0.0208333333333333
 49
0.0
 49
0.0
 49
0.0
 49
0.0
 49
1.0
 49
0.0
 49
0.0
 49
0.0
 49
0.0
 49
1.0
175
     0
142
0.0208333333333333
142
0.0
142
0.0
142
0.0
142
0.0
142
0.0208333333333333
142
0.0
142
0.0
142
0.0
142
0.0
142
1.0
142
0.0
142
0.0
142
0.0
142
0.0
142
1.0
179
     0
144
0.0208333333333333
144
0.0
144
0.0
144
0.0
144
0.0
144
0.0208333333333333
144
0.0
144
0.0
144
0.0
144
0.0
144
1.0
144
0.0
144
0.0
144
0.0
144
0.0
144
1.0
147
0.0208333333333333
147
0.0
147
0.0
147
0.0
147
0.0
147
0.0208333333333333
147
0.0
147
0.0
147
0.0
147
0.0
147
1.0
147
0.0
147
0.0
147
0.0
147
0.0
147
1.0
  0
MLEADERSTYLE
  5
67
102
{ACAD_REACTORS
330
66
102
}
330
66
100
AcDbMLeaderStyle
179
     2
170
     2
171
     1
172
     0
 90
        2
 40
0.0
 41
0.0
173
     1
 91
-1056964608
340
5B
 92
       -2
290
     1
 42
0.09
291
     1
 43
0.36
  3
Standard
 44
0.18
300

342
55
174
     1
178
     6
175
     1
176
     0
 93
-1056964608
 45
0.18
292
     0
297
     0
 46
0.18
 94
-1056964608
 47
1.0
 49
1.0
140
1.0
293
     1
141
0.0
294
     1
177
     0
142
1.0
295
     1
296
     0
143
0.125
271
     0
272
     9
273
     9
298
     1
  0
MLINESTYLE
  5
60
102
{ACAD_REACTORS
330
5F
102
}
330
5F
100
AcDbMlineStyle
  2
STANDARD
 70
     0
  3

 62
   256
 51
90.0
 52
90.0
 71
     2
 49
0.5
 62
   256
  6
BYLAYER
 49
-0.5
 62
   256
  6
BYLAYER
  0
ACDBPLACEHOLDER
  5
F
102
{ACAD_REACTORS
330
E
102
}
330
E
  0
SCALE
  5
43
102
{ACAD_REACTORS
330
42
102
}
330
42
100
AcDbScale
 70
     0
300
1:1
140
1.0
141
1.0
290
     1
  0
SCALE
  5
44
102
{ACAD_REACTORS
330
42
102
}
330
42
100
AcDbScale
 70
     0
300
1/128" = 1'-0"
140
0.0078125
141
12.0
290
     0
  0
SCALE
  5
45
102
{ACAD_REACTORS
330
42
102
}
330
42
100
AcDbScale
 70
     0
300
1/64" = 1'-0"
140
0.015625
141
12.0
290
     0
  0
SCALE
  5
46
102
{ACAD_REACTORS
330
42
102
}
330
42
100
AcDbScale
 70
     0
300
1/32" = 1'-0"
140
0.03125
141
12.0
290
     0
  0
SCALE
  5
47
102
{ACAD_REACTORS
330
42
102
}
330
42
100
AcDbScale
 70
     0
300
1/16" = 1'-0"
140
0.0625
141
12.0
290
     0
  0
SCALE
  5
48
102
{ACAD_REACTORS
330
42
102
}
330
42
100
AcDbScale
 70
     0
300
3/32" = 1'-0"
140
0.09375
141
12.0
290
     0
  0
SCALE
  5
49
102
{ACAD_REACTORS
330
42
102
}
330
42
100
AcDbScale
 70
     0
300
1/8" = 1'-0"
140
0.125
141
12.0
290
     0
  0
SCALE
  5
4A
102
{ACAD_REACTORS
330
42
102
}
330
42
100
AcDbScale
 70
     0
300
3/16" = 1'-0"
140
0.1875
141
12.0
290
     0
  0
SCALE
  5
4B
102
{ACAD_REACTORS
330
42
102
}
330
42
100
AcDbScale
 70
     0
300
1/4" = 1'-0"
140
0.25
141
12.0
290
     0
  0
SCALE
  5
4C
102
{ACAD_REACTORS
330
42
102
}
330
42
100
AcDbScale
 70
     0
300
3/8" = 1'-0"
140
0.375
141
12.0
290
     0
  0
SCALE
  5
4D
102
{ACAD_REACTORS
330
42
102
}
330
42
100
AcDbScale
 70
     0
300
1/2" = 1'-0"
140
0.5
141
12.0
290
     0
  0
SCALE
  5
4E
102
{ACAD_REACTORS
330
42
102
}
330
42
100
AcDbScale
 70
     0
300
3/4" = 1'-0"
140
0.75
141
12.0
290
     0
  0
SCALE
  5
4F
102
{ACAD_REACTORS
330
42
102
}
330
42
100
AcDbScale
 70
     0
300
1" = 1'-0"
140
1.0
141
12.0
290
     0
  0
SCALE
  5
50
102
{ACAD_REACTORS
330
42
102
}
330
42
100
AcDbScale
 70
     0
300
1-1/2" = 1'-0"
140
1.5
141
12.0
290
     0
  0
SCALE
  5
51
102
{ACAD_REACTORS
330
42
102
}
330
42
100
AcDbScale
 70
     0
300
3" = 1'-0"
140
3.0
141
12.0
290
     0
  0
SCALE
  5
52
102
{ACAD_REACTORS
330
42
102
}
330
42
100
AcDbScale
 70
     0
300
6" = 1'-0"
140
6.0
141
12.0
290
     0
  0
SCALE
  5
53
102
{ACAD_REACTORS
330
42
102
}
330
42
100
AcDbScale
 70
     0
300
1'-0" = 1'-0"
140
12.0
141
12.0
290
     0
  0
ACDBSECTIONVIEWSTYLE
  5
6A
102
{ACAD_REACTORS
330
68
102
}
330
68
100
AcDbModelDocViewStyle
 70
     0
  3
Imperial24
290
     1
100
AcDbSectionViewStyle
 70
     0
 71
     0
 90
       78
 71
     1
340
55
 62
   256
 40
0.24
340
0
340
0
 62
   256
 40
0.24
300
I, O, Q, S, X, Z
 40
0.48
 90
        3
 40
0.18
 90
        1
 71
     2
340
69
 90
       25
 62
   256
340
5D
 90
       50
 62
   256
 40
0.24
 40
0.0
 40
0.24
 71
     3
340
55
 62
   256
 40
0.24
 90
        1
 40
0.75
 90
        1
300
%<\AcVar ViewType \f "%tc1">% %<\AcVar ViewSectionStartId>%-%<\AcVar ViewSectionEndId>%\PSCALA %<\AcVar ViewScale \f "%sn">%
 71
     4
 62
   256
 62
   257
300
ANSI31
 40
1.0
 90
        0
290
     0
290
     0
 90
        6
 40
0.0
 40
1.570796326794896
 40
0.2617993877991494
 40
1.308996938995747
 40
-0.2617993877991494
 40
1.832595714594046
  0
TABLESTYLE
  5
65
102
{ACAD_XDICTIONARY
360
2DD
102
}
102
{ACAD_REACTORS
330
64
102
}
330
64
100
AcDbTableStyle
280
     0
  3
Standard
 70
     0
 71
     0
 40
0.06
 41
0.06
280
     0
281
     0
  7
Standard
140
0.18
170
     2
 62
     0
 63
     7
283
     0
 90
      512
 91
        0
  1

274
    -2
284
     1
 64
     0
275
    -2
285
     1
 65
     0
276
    -2
286
     1
 66
     0
277
    -2
287
     1
 67
     0
278
    -2
288
     1
 68
     0
279
    -2
289
     1
 69
     0
  7
Standard
140
0.25
170
     5
 62
     0
 63
     7
283
     0
 90
      512
 91
        0
  1

274
    -2
284
     1
 64
     0
275
    -2
285
     1
 65
     0
276
    -2
286
     1
 66
     0
277
    -2
287
     1
 67
     0
278
    -2
288
     1
 68
     0
279
    -2
289
     1
 69
     0
  7
Standard
140
0.18
170
     5
 62
     0
 63
     7
283
     0
 90
      512
 91
        0
  1

274
    -2
284
     1
 64
     0
275
    -2
285
     1
 65
     0
276
    -2
286
     1
 66
     0
277
    -2
287
     1
 67
     0
278
    -2
288
     1
 68
     0
279
    -2
289
     1
 69
     0
  0
VISUALSTYLE
  5
2F
102
{ACAD_REACTORS
330
29
102
}
330
29
100
AcDbVisualStyle
  2
2dWireframe
 70
     4
177
     3
291
     0
 70
    58
 90
        0
176
     1
 90
        2
176
     1
 90
        0
176
     1
 90
        0
176
     1
 40
0.6
176
     1
 40
30.0
176
     1
 62
     7
420
 16777215
176
     1
 90
        1
176
     1
 90
        4
176
     1
 62
     7
176
     1
 62
   257
176
     1
 90
        1
176
     1
 90
        1
176
     1
 40
1.0
176
     1
 90
        0
176
     1
 62
   257
176
     1
 40
1.0
176
     1
 90
        1
176
     1
 90
        6
176
     1
 90
        2
176
     1
 62
     7
176
     1
 90
        5
176
     1
 90
        0
176
     1
 90
        0
176
     1
290
     0
176
     1
 90
        1
176
     1
 40
0.0
176
     1
 90
        0
176
     1
290
     1
176
     1
290
     1
176
     1
290
     0
176
     1
290
     0
176
     1
290
     0
176
     1
290
     0
176
     1
290
     0
176
     1
290
     0
176
     1
290
     0
176
     1
 90
       50
176
     1
 40
0.0
176
     1
 40
1.0
176
     1
 90
        0
176
     1
 62
    18
420
        0
176
     1
 90
       50
176
     1
 90
        3
176
     1
 62
     5
420
      255
176
     1
290
     0
176
     1
 90
       50
176
     1
 90
       50
176
     1
 90
       50
176
     1
290
     0
176
     1
 90
       50
176
     1
 62
   256
176
     0
 40
1.0
176
     0
 90
        2
176
     1
  1
strokes_ogs.tif
176
     1
290
     0
176
     1
 40
1.0
176
     1
 40
1.0
176
     1
  0
VISUALSTYLE
  5
2E
102
{ACAD_REACTORS
330
29
102
}
330
29
100
AcDbVisualStyle
  2
Basic
 70
     7
177
     3
291
     1
 70
    58
 90
        1
176
     1
 90
        0
176
     1
 90
        1
176
     1
 90
        0
176
     1
 40
0.6
176
     1
 40
30.0
176
     1
 62
     7
420
 16777215
176
     1
 90
        0
176
     1
 90
        4
176
     1
 62
     7
176
     1
 62
   257
176
     1
 90
        1
176
     1
 90
        1
176
     1
 40
1.0
176
     1
 90
        8
176
     1
 62
     7
176
     1
 40
1.0
176
     1
 90
        1
176
     1
 90
        6
176
     1
 90
        2
176
     1
 62
     7
176
     1
 90
        5
176
     1
 90
        0
176
     1
 90
        0
176
     1
290
     0
176
     1
 90
        1
176
     1
 40
0.0
176
     1
 90
        0
176
     1
290
     0
176
     1
290
     1
176
     1
290
     1
176
     1
290
     0
176
     1
290
     0
176
     1
290
     0
176
     1
290
     0
176
     1
290
     0
176
     1
290
     0
176
     1
 90
       50
176
     1
 40
0.0
176
     1
 40
1.0
176
     1
 90
        0
176
     1
 62
    18
420
        0
176
     1
 90
       50
176
     1
 90
        3
176
     1
 62
     5
420
      255
176
     1
290
     0
176
     1
 90
       50
176
     1
 90
       50
176
     1
 90
       50
176
     1
290
     0
176
     1
 90
       50
176
     1
 62
   256
176
     0
 40
1.0
176
     0
 90
        2
176
     1
  1
strokes_ogs.tif
176
     1
290
     0
176
     1
 40
1.0
176
     1
 40
1.0
176
     1
  0
VISUALSTYLE
  5
35
102
{ACAD_REACTORS
330
29
102
}
330
29
100
AcDbVisualStyle
  2
Brighten
 70
    12
177
     3
291
     1
 70
    58
 90
        2
176
     1
 90
        2
176
     1
 90
        0
176
     1
 90
        0
176
     1
 40
0.6
176
     1
 40
30.0
176
     1
 62
     7
420
 16777215
176
     1
 90
        1
176
     1
 90
        4
176
     1
 62
     7
176
     1
 62
   257
176
     1
 90
        1
176
     1
 90
        1
176
     1
 40
1.0
176
     1
 90
        8
176
     1
 62
     7
176
     1
 40
1.0
176
     1
 90
        1
176
     1
 90
        6
176
     1
 90
        2
176
     1
 62
     7
176
     1
 90
        5
176
     1
 90
        0
176
     1
 90
        0
176
     1
290
     0
176
     1
 90
        1
176
     1
 40
50.0
176
     1
 90
        0
176
     1
290
     0
176
     1
290
     1
176
     1
290
     1
176
     1
290
     0
176
     1
290
     0
176
     1
290
     0
176
     1
290
     0
176
     1
290
     0
176
     1
290
     0
176
     1
 90
       50
176
     1
 40
0.0
176
     1
 40
1.0
176
     1
 90
        0
176
     1
 62
    18
420
        0
176
     1
 90
       50
176
     1
 90
        3
176
     1
 62
     5
420
      255
176
     1
290
     0
176
     1
 90
       50
176
     1
 90
       50
176
     1
 90
       50
176
     1
290
     0
176
     1
 90
       50
176
     1
 62
   256
176
     0
 40
1.0
176
     0
 90
        2
176
     1
  1
strokes_ogs.tif
176
     1
290
     0
176
     1
 40
1.0
176
     1
 40
1.0
176
     1
  0
VISUALSTYLE
  5
39
102
{ACAD_REACTORS
330
29
102
}
330
29
100
AcDbVisualStyle
  2
ColorChange
 70
    16
177
     3
291
     1
 70
    58
 90
        2
176
     1
 90
        2
176
     1
 90
        3
176
     1
 90
        0
176
     1
 40
0.6
176
     1
 40
30.0
176
     1
 62
     8
420
  8421504
176
     1
 90
        1
176
     1
 90
        4
176
     1
 62
     7
176
     1
 62
   257
176
     1
 90
        1
176
     1
 90
        1
176
     1
 40
1.0
176
     1
 90
        8
176
     1
 62
     8
420
  8421504
176
     1
 40
1.0
176
     1
 90
        1
176
     1
 90
        6
176
     1
 90
        2
176
     1
 62
     7
176
     1
 90
        5
176
     1
 90
        0
176
     1
 90
        0
176
     1
290
     0
176
     1
 90
        1
176
     1
 40
0.0
176
     1
 90
        0
176
     1
290
     0
176
     1
290
     1
176
     1
290
     1
176
     1
290
     0
176
     1
290
     0
176
     1
290
     0
176
     1
290
     0
176
     1
290
     0
176
     1
290
     0
176
     1
 90
       50
176
     1
 40
0.0
176
     1
 40
1.0
176
     1
 90
        0
176
     1
 62
    18
420
        0
176
     1
 90
       50
176
     1
 90
        3
176
     1
 62
     5
420
      255
176
     1
290
     0
176
     1
 90
       50
176
     1
 90
       50
176
     1
 90
       50
176
     1
290
     0
176
     1
 90
       50
176
     1
 62
   256
176
     0
 40
1.0
176
     0
 90
        2
176
     1
  1
strokes_ogs.tif
176
     1
290
     0
176
     1
 40
1.0
176
     1
 40
1.0
176
     1
  0
VISUALSTYLE
  5
32
102
{ACAD_REACTORS
330
29
102
}
330
29
100
AcDbVisualStyle
  2
Conceptual
 70
     9
177
     3
291
     0
 70
    58
 90
        3
176
     1
 90
        2
176
     1
 90
        0
176
     1
 90
        0
176
     1
 40
0.6
176
     1
 40
30.0
176
     1
 62
     7
420
 16777215
176
     1
 90
        2
176
     1
 90
        2
176
     1
 62
     7
176
     1
 62
   257
176
     1
 90
        1
176
     1
 90
        1
176
     1
 40
179.0
176
     1
 90
        8
176
     1
 62
     7
176
     1
 40
1.0
176
     1
 90
        1
176
     1
 90
        6
176
     1
 90
        2
176
     1
 62
     7
176
     1
 90
        3
176
     1
 90
        0
176
     1
 90
        0
176
     1
290
     0
176
     1
 90
        1
176
     1
 40
0.0
176
     1
 90
        0
176
     1
290
     0
176
     1
290
     1
176
     1
290
     1
176
     1
290
     0
176
     1
290
     0
176
     1
290
     0
176
     1
290
     0
176
     1
290
     0
176
     1
290
     0
176
     1
 90
       50
176
     1
 40
0.0
176
     1
 40
1.0
176
     1
 90
        0
176
     1
 62
    18
420
        0
176
     1
 90
       50
176
     1
 90
        3
176
     1
 62
     5
420
      255
176
     1
290
     0
176
     1
 90
       50
176
     1
 90
       50
176
     1
 90
       50
176
     1
290
     0
176
     1
 90
       50
176
     1
 62
   256
176
     0
 40
1.0
176
     0
 90
        2
176
     1
  1
strokes_ogs.tif
176
     1
290
     0
176
     1
 40
1.0
176
     1
 40
1.0
176
     1
  0
VISUALSTYLE
  5
34
102
{ACAD_REACTORS
330
29
102
}
330
29
100
AcDbVisualStyle
  2
Dim
 70
    11
177
     3
291
     1
 70
    58
 90
        2
176
     1
 90
        2
176
     1
 90
        0
176
     1
 90
        0
176
     1
 40
0.6
176
     1
 40
30.0
176
     1
 62
     7
420
 16777215
176
     1
 90
        1
176
     1
 90
        4
176
     1
 62
     7
176
     1
 62
   257
176
     1
 90
        1
176
     1
 90
        1
176
     1
 40
1.0
176
     1
 90
        8
176
     1
 62
     7
176
     1
 40
1.0
176
     1
 90
        1
176
     1
 90
        6
176
     1
 90
        2
176
     1
 62
     7
176
     1
 90
        5
176
     1
 90
        0
176
     1
 90
        0
176
     1
290
     0
176
     1
 90
        1
176
     1
 40
-50.0
176
     1
 90
        0
176
     1
290
     0
176
     1
290
     1
176
     1
290
     1
176
     1
290
     0
176
     1
290
     0
176
     1
290
     0
176
     1
290
     0
176
     1
290
     0
176
     1
290
     0
176
     1
 90
       50
176
     1
 40
0.0
176
     1
 40
1.0
176
     1
 90
        0
176
     1
 62
    18
420
        0
176
     1
 90
       50
176
     1
 90
        3
176
     1
 62
     5
420
      255
176
     1
290
     0
176
     1
 90
       50
176
     1
 90
       50
176
     1
 90
       50
176
     1
290
     0
176
     1
 90
       50
176
     1
 62
   256
176
     0
 40
1.0
176
     0
 90
        2
176
     1
  1
strokes_ogs.tif
176
     1
290
     0
176
     1
 40
1.0
176
     1
 40
1.0
176
     1
  0
VISUALSTYLE
  5
41
102
{ACAD_REACTORS
330
29
102
}
330
29
100
AcDbVisualStyle
  2
EdgeColorOff
 70
    22
177
     3
291
     1
 70
    58
 90
        2
176
     0
 90
        2
176
     0
 90
        0
176
     0
 90
        0
176
     0
 40
0.6
176
     0
 40
30.0
176
     0
 62
     7
420
 16777215
176
     0
 90
        1
176
     0
 90
        4
176
     0
 62
     7
176
     0
 62
   257
176
     0
 90
        1
176
     0
 90
        1
176
     0
 40
1.0
176
     0
 90
        8
176
     2
 62
     7
176
     0
 40
1.0
176
     0
 90
        1
176
     0
 90
        6
176
     0
 90
        2
176
     0
 62
     7
176
     0
 90
        5
176
     0
 90
        0
176
     0
 90
        0
176
     0
290
     0
176
     0
 90
        1
176
     0
 40
0.0
176
     0
 90
        0
176
     0
290
     0
176
     0
290
     1
176
     0
290
     1
176
     0
290
     0
176
     0
290
     0
176
     0
290
     0
176
     0
290
     0
176
     0
290
     0
176
     0
290
     0
176
     0
 90
       50
176
     0
 40
0.0
176
     0
 40
1.0
176
     0
 90
        0
176
     0
 62
    18
420
        0
176
     0
 90
       50
176
     0
 90
        3
176
     0
 62
     5
420
      255
176
     0
290
     0
176
     0
 90
       50
176
     0
 90
       50
176
     0
 90
       50
176
     0
290
     0
176
     0
 90
       50
176
     0
 62
   256
176
     0
 40
1.0
176
     0
 90
        2
176
     0
  1
strokes_ogs.tif
176
     0
290
     0
176
     0
 40
1.0
176
     0
 40
1.0
176
     0
  0
VISUALSTYLE
  5
38
102
{ACAD_REACTORS
330
29
102
}
330
29
100
AcDbVisualStyle
  2
Facepattern
 70
    15
177
     3
291
     1
 70
    58
 90
        2
176
     1
 90
        2
176
     1
 90
        0
176
     1
 90
        0
176
     1
 40
0.6
176
     1
 40
30.0
176
     1
 62
     7
420
 16777215
176
     1
 90
        1
176
     1
 90
        4
176
     1
 62
     7
176
     1
 62
   257
176
     1
 90
        1
176
     1
 90
        1
176
     1
 40
1.0
176
     1
 90
        8
176
     1
 62
     7
176
     1
 40
1.0
176
     1
 90
        1
176
     1
 90
        6
176
     1
 90
        2
176
     1
 62
     7
176
     1
 90
        5
176
     1
 90
        0
176
     1
 90
        0
176
     1
290
     0
176
     1
 90
        1
176
     1
 40
0.0
176
     1
 90
        0
176
     1
290
     0
176
     1
290
     1
176
     1
290
     1
176
     1
290
     0
176
     1
290
     0
176
     1
290
     0
176
     1
290
     0
176
     1
290
     0
176
     1
290
     0
176
     1
 90
       50
176
     1
 40
0.0
176
     1
 40
1.0
176
     1
 90
        0
176
     1
 62
    18
420
        0
176
     1
 90
       50
176
     1
 90
        3
176
     1
 62
     5
420
      255
176
     1
290
     0
176
     1
 90
       50
176
     1
 90
       50
176
     1
 90
       50
176
     1
290
     0
176
     1
 90
       50
176
     1
 62
   256
176
     0
 40
1.0
176
     0
 90
        2
176
     1
  1
strokes_ogs.tif
176
     1
290
     0
176
     1
 40
1.0
176
     1
 40
1.0
176
     1
  0
VISUALSTYLE
  5
2A
102
{ACAD_REACTORS
330
29
102
}
330
29
100
AcDbVisualStyle
  2
Flat
 70
     0
177
     3
291
     1
 70
    58
 90
        2
176
     1
 90
        1
176
     1
 90
        1
176
     1
 90
        2
176
     1
 40
0.6
176
     1
 40
30.0
176
     1
 62
     7
420
 16777215
176
     1
 90
        0
176
     1
 90
        0
176
     1
 62
     7
176
     1
 62
   257
176
     1
 90
        1
176
     1
 90
        1
176
     1
 40
1.0
176
     1
 90
        8
176
     1
 62
     7
176
     1
 40
1.0
176
     1
 90
        1
176
     1
 90
        6
176
     1
 90
        2
176
     1
 62
     7
176
     1
 90
        5
176
     1
 90
        0
176
     1
 90
        0
176
     1
290
     0
176
     1
 90
       13
176
     1
 40
0.0
176
     1
 90
        0
176
     1
290
     0
176
     1
290
     1
176
     1
290
     1
176
     1
290
     0
176
     1
290
     0
176
     1
290
     0
176
     1
290
     0
176
     1
290
     0
176
     1
290
     0
176
     1
 90
       50
176
     1
 40
0.0
176
     1
 40
1.0
176
     1
 90
        0
176
     1
 62
    18
420
        0
176
     1
 90
       50
176
     1
 90
        3
176
     1
 62
     5
420
      255
176
     1
290
     0
176
     1
 90
       50
176
     1
 90
       50
176
     1
 90
       50
176
     1
290
     0
176
     1
 90
       50
176
     1
 62
   256
176
     0
 40
1.0
176
     0
 90
        2
176
     1
  1
strokes_ogs.tif
176
     1
290
     0
176
     1
 40
1.0
176
     1
 40
1.0
176
     1
  0
VISUALSTYLE
  5
2B
102
{ACAD_REACTORS
330
29
102
}
330
29
100
AcDbVisualStyle
  2
FlatWithEdges
 70
     1
177
     3
291
     1
 70
    58
 90
        2
176
     1
 90
        1
176
     1
 90
        1
176
     1
 90
        2
176
     1
 40
0.6
176
     1
 40
30.0
176
     1
 62
     7
420
 16777215
176
     1
 90
        1
176
     1
 90
        0
176
     1
 62
     7
176
     1
 62
   257
176
     1
 90
        1
176
     1
 90
        1
176
     1
 40
1.0
176
     1
 90
        0
176
     1
 62
   257
176
     1
 40
1.0
176
     1
 90
        1
176
     1
 90
        6
176
     1
 90
        2
176
     1
 62
     7
176
     1
 90
        5
176
     1
 90
        0
176
     1
 90
        0
176
     1
290
     0
176
     1
 90
       13
176
     1
 40
0.0
176
     1
 90
        0
176
     1
290
     0
176
     1
290
     1
176
     1
290
     1
176
     1
290
     0
176
     1
290
     0
176
     1
290
     0
176
     1
290
     0
176
     1
290
     0
176
     1
290
     0
176
     1
 90
       50
176
     1
 40
0.0
176
     1
 40
1.0
176
     1
 90
        0
176
     1
 62
    18
420
        0
176
     1
 90
       50
176
     1
 90
        3
176
     1
 62
     5
420
      255
176
     1
290
     0
176
     1
 90
       50
176
     1
 90
       50
176
     1
 90
       50
176
     1
290
     0
176
     1
 90
       50
176
     1
 62
   256
176
     0
 40
1.0
176
     0
 90
        2
176
     1
  1
strokes_ogs.tif
176
     1
290
     0
176
     1
 40
1.0
176
     1
 40
1.0
176
     1
  0
VISUALSTYLE
  5
2C
102
{ACAD_REACTORS
330
29
102
}
330
29
100
AcDbVisualStyle
  2
Gouraud
 70
     2
177
     3
291
     1
 70
    58
 90
        2
176
     1
 90
        2
176
     1
 90
        1
176
     1
 90
        2
176
     1
 40
0.6
176
     1
 40
30.0
176
     1
 62
     7
420
 16777215
176
     1
 90
        0
176
     1
 90
        0
176
     1
 62
     7
176
     1
 62
   257
176
     1
 90
        1
176
     1
 90
        1
176
     1
 40
1.0
176
     1
 90
        0
176
     1
 62
     7
176
     1
 40
1.0
176
     1
 90
        1
176
     1
 90
        6
176
     1
 90
        2
176
     1
 62
     7
176
     1
 90
        5
176
     1
 90
        0
176
     1
 90
        0
176
     1
290
     0
176
     1
 90
       13
176
     1
 40
0.0
176
     1
 90
        0
176
     1
290
     0
176
     1
290
     1
176
     1
290
     1
176
     1
290
     0
176
     1
290
     0
176
     1
290
     0
176
     1
290
     0
176
     1
290
     0
176
     1
290
     0
176
     1
 90
       50
176
     1
 40
0.0
176
     1
 40
1.0
176
     1
 90
        0
176
     1
 62
    18
420
        0
176
     1
 90
       50
176
     1
 90
        3
176
     1
 62
     5
420
      255
176
     1
290
     0
176
     1
 90
       50
176
     1
 90
       50
176
     1
 90
       50
176
     1
290
     0
176
     1
 90
       50
176
     1
 62
   256
176
     0
 40
1.0
176
     0
 90
        2
176
     1
  1
strokes_ogs.tif
176
     1
290
     0
176
     1
 40
1.0
176
     1
 40
1.0
176
     1
  0
VISUALSTYLE
  5
2D
102
{ACAD_REACTORS
330
29
102
}
330
29
100
AcDbVisualStyle
  2
GouraudWithEdges
 70
     3
177
     3
291
     1
 70
    58
 90
        2
176
     1
 90
        2
176
     1
 90
        1
176
     1
 90
        2
176
     1
 40
0.6
176
     1
 40
30.0
176
     1
 62
     7
420
 16777215
176
     1
 90
        1
176
     1
 90
        0
176
     1
 62
     7
176
     1
 62
   257
176
     1
 90
        1
176
     1
 90
        1
176
     1
 40
1.0
176
     1
 90
        0
176
     1
 62
   257
176
     1
 40
1.0
176
     1
 90
        1
176
     1
 90
        6
176
     1
 90
        2
176
     1
 62
     7
176
     1
 90
        5
176
     1
 90
        0
176
     1
 90
        0
176
     1
290
     0
176
     1
 90
       13
176
     1
 40
0.0
176
     1
 90
        0
176
     1
290
     0
176
     1
290
     1
176
     1
290
     1
176
     1
290
     0
176
     1
290
     0
176
     1
290
     0
176
     1
290
     0
176
     1
290
     0
176
     1
290
     0
176
     1
 90
       50
176
     1
 40
0.0
176
     1
 40
1.0
176
     1
 90
        0
176
     1
 62
    18
420
        0
176
     1
 90
       50
176
     1
 90
        3
176
     1
 62
     5
420
      255
176
     1
290
     0
176
     1
 90
       50
176
     1
 90
       50
176
     1
 90
       50
176
     1
290
     0
176
     1
 90
       50
176
     1
 62
   256
176
     0
 40
1.0
176
     0
 90
        2
176
     1
  1
strokes_ogs.tif
176
     1
290
     0
176
     1
 40
1.0
176
     1
 40
1.0
176
     1
  0
VISUALSTYLE
  5
31
102
{ACAD_REACTORS
330
29
102
}
330
29
100
AcDbVisualStyle
  2
Hidden
 70
     6
177
     3
291
     0
 70
    58
 90
        1
176
     1
 90
        2
176
     1
 90
        2
176
     1
 90
        0
176
     1
 40
0.6
176
     1
 40
30.0
176
     1
 62
     7
420
 16777215
176
     1
 90
        2
176
     1
 90
        2
176
     1
 62
     7
176
     1
 62
   257
176
     1
 90
        2
176
     1
 90
        1
176
     1
 40
40.0
176
     1
 90
        0
176
     1
 62
   257
176
     1
 40
1.0
176
     1
 90
        1
176
     1
 90
        6
176
     1
 90
        2
176
     1
 62
     7
176
     1
 90
        3
176
     1
 90
        0
176
     1
 90
        0
176
     1
290
     0
176
     1
 90
        1
176
     1
 40
0.0
176
     1
 90
        0
176
     1
290
     0
176
     1
290
     1
176
     1
290
     1
176
     1
290
     0
176
     1
290
     0
176
     1
290
     0
176
     1
290
     0
176
     1
290
     0
176
     1
290
     0
176
     1
 90
       50
176
     1
 40
0.0
176
     1
 40
1.0
176
     1
 90
        0
176
     1
 62
    18
420
        0
176
     1
 90
       50
176
     1
 90
        3
176
     1
 62
     5
420
      255
176
     1
290
     0
176
     1
 90
       50
176
     1
 90
       50
176
     1
 90
       50
176
     1
290
     0
176
     1
 90
       50
176
     1
 62
   256
176
     0
 40
1.0
176
     0
 90
        2
176
     1
  1
strokes_ogs.tif
176
     1
290
     0
176
     1
 40
1.0
176
     1
 40
1.0
176
     1
  0
VISUALSTYLE
  5
3F
102
{ACAD_REACTORS
330
29
102
}
330
29
100
AcDbVisualStyle
  2
JitterOff
 70
    20
177
     3
291
     1
 70
    58
 90
        2
176
     0
 90
        2
176
     0
 90
        0
176
     0
 90
        0
176
     0
 40
0.6
176
     0
 40
30.0
176
     0
 62
     7
420
 16777215
176
     0
 90
        1
176
     0
 90
        4
176
     0
 62
     7
176
     0
 62
   257
176
     0
 90
        1
176
     0
 90
        1
176
     0
 40
1.0
176
     0
 90
       10
176
     2
 62
     7
176
     0
 40
1.0
176
     0
 90
        1
176
     0
 90
        6
176
     0
 90
        2
176
     0
 62
     7
176
     0
 90
        5
176
     0
 90
        0
176
     0
 90
        0
176
     0
290
     0
176
     0
 90
        1
176
     0
 40
0.0
176
     0
 90
        0
176
     0
290
     0
176
     0
290
     1
176
     0
290
     1
176
     0
290
     0
176
     0
290
     0
176
     0
290
     0
176
     0
290
     0
176
     0
290
     0
176
     0
290
     0
176
     0
 90
       50
176
     0
 40
0.0
176
     0
 40
1.0
176
     0
 90
        0
176
     0
 62
    18
420
        0
176
     0
 90
       50
176
     0
 90
        3
176
     0
 62
     5
420
      255
176
     0
290
     0
176
     0
 90
       50
176
     0
 90
       50
176
     0
 90
       50
176
     0
290
     0
176
     0
 90
       50
176
     0
 62
   256
176
     0
 40
1.0
176
     0
 90
        2
176
     0
  1
strokes_ogs.tif
176
     0
290
     0
176
     0
 40
1.0
176
     0
 40
1.0
176
     0
  0
VISUALSTYLE
  5
37
102
{ACAD_REACTORS
330
29
102
}
330
29
100
AcDbVisualStyle
  2
Linepattern
 70
    14
177
     3
291
     1
 70
    58
 90
        2
176
     1
 90
        2
176
     1
 90
        0
176
     1
 90
        0
176
     1
 40
0.6
176
     1
 40
30.0
176
     1
 62
     7
420
 16777215
176
     1
 90
        1
176
     1
 90
        4
176
     1
 62
     7
176
     1
 62
   257
176
     1
 90
        7
176
     1
 90
        7
176
     1
 40
1.0
176
     1
 90
        8
176
     1
 62
     7
176
     1
 40
1.0
176
     1
 90
        1
176
     1
 90
        6
176
     1
 90
        2
176
     1
 62
     7
176
     1
 90
        5
176
     1
 90
        0
176
     1
 90
        0
176
     1
290
     0
176
     1
 90
        1
176
     1
 40
0.0
176
     1
 90
        0
176
     1
290
     0
176
     1
290
     1
176
     1
290
     1
176
     1
290
     0
176
     1
290
     0
176
     1
290
     0
176
     1
290
     0
176
     1
290
     0
176
     1
290
     0
176
     1
 90
       50
176
     1
 40
0.0
176
     1
 40
1.0
176
     1
 90
        0
176
     1
 62
    18
420
        0
176
     1
 90
       50
176
     1
 90
        3
176
     1
 62
     5
420
      255
176
     1
290
     0
176
     1
 90
       50
176
     1
 90
       50
176
     1
 90
       50
176
     1
290
     0
176
     1
 90
       50
176
     1
 62
   256
176
     0
 40
1.0
176
     0
 90
        2
176
     1
  1
strokes_ogs.tif
176
     1
290
     0
176
     1
 40
1.0
176
     1
 40
1.0
176
     1
  0
VISUALSTYLE
  5
40
102
{ACAD_REACTORS
330
29
102
}
330
29
100
AcDbVisualStyle
  2
OverhangOff
 70
    21
177
     3
291
     1
 70
    58
 90
        2
176
     0
 90
        2
176
     0
 90
        0
176
     0
 90
        0
176
     0
 40
0.6
176
     0
 40
30.0
176
     0
 62
     7
420
 16777215
176
     0
 90
        1
176
     0
 90
        4
176
     0
 62
     7
176
     0
 62
   257
176
     0
 90
        1
176
     0
 90
        1
176
     0
 40
1.0
176
     0
 90
        9
176
     2
 62
     7
176
     0
 40
1.0
176
     0
 90
        1
176
     0
 90
        6
176
     0
 90
        2
176
     0
 62
     7
176
     0
 90
        5
176
     0
 90
        0
176
     0
 90
        0
176
     0
290
     0
176
     0
 90
        1
176
     0
 40
0.0
176
     0
 90
        0
176
     0
290
     0
176
     0
290
     1
176
     0
290
     1
176
     0
290
     0
176
     0
290
     0
176
     0
290
     0
176
     0
290
     0
176
     0
290
     0
176
     0
290
     0
176
     0
 90
       50
176
     0
 40
0.0
176
     0
 40
1.0
176
     0
 90
        0
176
     0
 62
    18
420
        0
176
     0
 90
       50
176
     0
 90
        3
176
     0
 62
     5
420
      255
176
     0
290
     0
176
     0
 90
       50
176
     0
 90
       50
176
     0
 90
       50
176
     0
290
     0
176
     0
 90
       50
176
     0
 62
   256
176
     0
 40
1.0
176
     0
 90
        2
176
     0
  1
strokes_ogs.tif
176
     0
290
     0
176
     0
 40
1.0
176
     0
 40
1.0
176
     0
  0
VISUALSTYLE
  5
33
102
{ACAD_REACTORS
330
29
102
}
330
29
100
AcDbVisualStyle
  2
Realistic
 70
     8
177
     3
291
     0
 70
    58
 90
        2
176
     1
 90
        3
176
     1
 90
        0
176
     1
 90
        2
176
     1
 40
0.6
176
     1
 40
30.0
176
     1
 62
     7
420
 16777215
176
     1
 90
        0
176
     1
 90
        0
176
     1
 62
     7
176
     1
 62
   257
176
     1
 90
        1
176
     1
 90
        1
176
     1
 40
1.0
176
     1
 90
        8
176
     1
 62
   257
176
     1
 40
1.0
176
     1
 90
        1
176
     1
 90
        6
176
     1
 90
        2
176
     1
 62
     7
176
     1
 90
        3
176
     1
 90
        0
176
     1
 90
        0
176
     1
290
     0
176
     1
 90
       13
176
     1
 40
0.0
176
     1
 90
        0
176
     1
290
     0
176
     1
290
     1
176
     1
290
     1
176
     1
290
     0
176
     1
290
     0
176
     1
290
     0
176
     1
290
     0
176
     1
290
     0
176
     1
290
     0
176
     1
 90
       50
176
     1
 40
0.0
176
     1
 40
1.0
176
     1
 90
        0
176
     1
 62
    18
420
        0
176
     1
 90
       50
176
     1
 90
        3
176
     1
 62
     5
420
      255
176
     1
290
     0
176
     1
 90
       50
176
     1
 90
       50
176
     1
 90
       50
176
     1
290
     0
176
     1
 90
       50
176
     1
 62
   256
176
     0
 40
1.0
176
     0
 90
        2
176
     1
  1
strokes_ogs.tif
176
     1
290
     0
176
     1
 40
1.0
176
     1
 40
1.0
176
     1
  0
VISUALSTYLE
  5
3E
102
{ACAD_REACTORS
330
29
102
}
330
29
100
AcDbVisualStyle
  2
Shaded
 70
    27
177
     3
291
     0
 70
    58
 90
        2
176
     1
 90
        2
176
     1
 90
        1
176
     1
 90
        2
176
     1
 40
0.6
176
     1
 40
30.0
176
     1
 62
     7
420
 16777215
176
     1
 90
        0
176
     1
 90
        4
176
     1
 62
     7
176
     1
 62
   257
176
     1
 90
        1
176
     1
 90
        1
176
     1
 40
1.0
176
     1
 90
        8
176
     1
 62
   257
176
     1
 40
1.0
176
     1
 90
        1
176
     1
 90
        6
176
     1
 90
        2
176
     1
 62
     8
420
  7895160
176
     1
 90
        3
176
     1
 90
        0
176
     1
 90
        0
176
     1
290
     0
176
     1
 90
        5
176
     1
 40
0.0
176
     1
 90
        0
176
     1
290
     0
176
     1
290
     1
176
     1
290
     1
176
     1
290
     0
176
     1
290
     0
176
     1
290
     0
176
     1
290
     0
176
     1
290
     0
176
     1
290
     0
176
     1
 90
       50
176
     1
 40
0.0
176
     1
 40
1.0
176
     1
 90
        0
176
     1
 62
    18
420
        0
176
     1
 90
       50
176
     1
 90
        3
176
     1
 62
     5
420
      255
176
     1
290
     0
176
     1
 90
       50
176
     1
 90
       50
176
     1
 90
       50
176
     1
290
     0
176
     1
 90
       50
176
     1
 62
   256
176
     0
 40
1.0
176
     0
 90
        2
176
     1
  1
strokes_ogs.tif
176
     1
290
     0
176
     1
 40
1.0
176
     1
 40
1.0
176
     1
  0
VISUALSTYLE
  5
3D
102
{ACAD_REACTORS
330
29
102
}
330
29
100
AcDbVisualStyle
  2
Shaded with edges
 70
    26
177
     3
291
     0
 70
    58
 90
        2
176
     1
 90
        2
176
     1
 90
        1
176
     1
 90
        2
176
     1
 40
0.6
176
     1
 40
30.0
176
     1
 62
     7
420
 16777215
176
     1
 90
        1
176
     1
 90
       10
176
     1
 62
     7
176
     1
 62
   257
176
     1
 90
        2
176
     1
 90
        1
176
     1
 40
1.0
176
     1
 90
        8
176
     1
 62
   257
176
     1
 40
1.0
176
     1
 90
        1
176
     1
 90
        6
176
     1
 90
        2
176
     1
 62
     7
176
     1
 90
        3
176
     1
 90
        0
176
     1
 90
        0
176
     1
290
     0
176
     1
 90
        5
176
     1
 40
0.0
176
     1
 90
        0
176
     1
290
     0
176
     1
290
     1
176
     1
290
     1
176
     1
290
     0
176
     1
290
     0
176
     1
290
     0
176
     1
290
     0
176
     1
290
     0
176
     1
290
     0
176
     1
 90
       50
176
     1
 40
0.0
176
     1
 40
1.0
176
     1
 90
        0
176
     1
 62
    18
420
        0
176
     1
 90
       50
176
     1
 90
        3
176
     1
 62
     5
420
      255
176
     1
290
     0
176
     1
 90
       50
176
     1
 90
       50
176
     1
 90
       50
176
     1
290
     0
176
     1
 90
       50
176
     1
 62
   256
176
     0
 40
1.0
176
     0
 90
        2
176
     1
  1
strokes_ogs.tif
176
     1
290
     0
176
     1
 40
1.0
176
     1
 40
1.0
176
     1
  0
VISUALSTYLE
  5
3A
102
{ACAD_REACTORS
330
29
102
}
330
29
100
AcDbVisualStyle
  2
Shades of Gray
 70
    23
177
     3
291
     0
 70
    58
 90
        2
176
     1
 90
        2
176
     1
 90
        3
176
     1
 90
        0
176
     1
 40
0.6
176
     1
 40
30.0
176
     1
 62
     7
420
 16777215
176
     1
 90
        2
176
     1
 90
        2
176
     1
 62
     7
176
     1
 62
     7
176
     1
 90
        1
176
     1
 90
        1
176
     1
 40
40.0
176
     1
 90
        8
176
     1
 62
     7
176
     1
 40
1.0
176
     1
 90
        1
176
     1
 90
        6
176
     1
 90
        2
176
     1
 62
     7
176
     1
 90
        3
176
     1
 90
        0
176
     1
 90
        0
176
     1
290
     0
176
     1
 90
        1
176
     1
 40
0.0
176
     1
 90
        0
176
     1
290
     0
176
     1
290
     1
176
     1
290
     1
176
     1
290
     0
176
     1
290
     0
176
     1
290
     0
176
     1
290
     0
176
     1
290
     0
176
     1
290
     0
176
     1
 90
       50
176
     1
 40
0.0
176
     1
 40
1.0
176
     1
 90
        0
176
     1
 62
    18
420
        0
176
     1
 90
       50
176
     1
 90
        3
176
     1
 62
     5
420
      255
176
     1
290
     0
176
     1
 90
       50
176
     1
 90
       50
176
     1
 90
       50
176
     1
290
     0
176
     1
 90
       50
176
     1
 62
   256
176
     0
 40
1.0
176
     0
 90
        2
176
     1
  1
strokes_ogs.tif
176
     1
290
     0
176
     1
 40
1.0
176
     1
 40
1.0
176
     1
  0
VISUALSTYLE
  5
3B
102
{ACAD_REACTORS
330
29
102
}
330
29
100
AcDbVisualStyle
  2
Sketchy
 70
    24
177
     3
291
     0
 70
    58
 90
        1
176
     1
 90
        2
176
     1
 90
        2
176
     1
 90
        0
176
     1
 40
0.6
176
     1
 40
30.0
176
     1
 62
     7
420
 16777215
176
     1
 90
        2
176
     1
 90
        2
176
     1
 62
     7
176
     1
 62
     7
176
     1
 90
        1
176
     1
 90
        1
176
     1
 40
40.0
176
     1
 90
       11
176
     1
 62
     7
176
     1
 40
1.0
176
     1
 90
        1
176
     1
 90
        6
176
     1
 90
        2
176
     1
 62
     7
176
     1
 90
        6
176
     1
 90
        0
176
     1
 90
        0
176
     1
290
     0
176
     1
 90
        1
176
     1
 40
0.0
176
     1
 90
        0
176
     1
290
     0
176
     1
290
     1
176
     1
290
     1
176
     1
290
     0
176
     1
290
     0
176
     1
290
     0
176
     1
290
     0
176
     1
290
     0
176
     1
290
     0
176
     1
 90
       50
176
     1
 40
0.0
176
     1
 40
1.0
176
     1
 90
        0
176
     1
 62
    18
420
        0
176
     1
 90
       50
176
     1
 90
        3
176
     1
 62
     5
420
      255
176
     1
290
     0
176
     1
 90
       50
176
     1
 90
       50
176
     1
 90
       50
176
     1
290
     0
176
     1
 90
       50
176
     1
 62
   256
176
     0
 40
1.0
176
     0
 90
        2
176
     1
  1
strokes_ogs.tif
176
     1
290
     0
176
     1
 40
1.0
176
     1
 40
1.0
176
     1
  0
VISUALSTYLE
  5
36
102
{ACAD_REACTORS
330
29
102
}
330
29
100
AcDbVisualStyle
  2
Thicken
 70
    13
177
     3
291
     1
 70
    58
 90
        2
176
     1
 90
        2
176
     1
 90
        0
176
     1
 90
        0
176
     1
 40
0.6
176
     1
 40
30.0
176
     1
 62
     7
420
 16777215
176
     1
 90
        1
176
     1
 90
        4
176
     1
 62
     7
176
     1
 62
   257
176
     1
 90
        1
176
     1
 90
        1
176
     1
 40
1.0
176
     1
 90
       12
176
     1
 62
     7
176
     1
 40
1.0
176
     1
 90
        1
176
     1
 90
        6
176
     1
 90
        2
176
     1
 62
     7
176
     1
 90
        5
176
     1
 90
        0
176
     1
 90
        0
176
     1
290
     0
176
     1
 90
        1
176
     1
 40
0.0
176
     1
 90
        0
176
     1
290
     0
176
     1
290
     1
176
     1
290
     1
176
     1
290
     0
176
     1
290
     0
176
     1
290
     0
176
     1
290
     0
176
     1
290
     0
176
     1
290
     0
176
     1
 90
       50
176
     1
 40
0.0
176
     1
 40
1.0
176
     1
 90
        0
176
     1
 62
    18
420
        0
176
     1
 90
       50
176
     1
 90
        3
176
     1
 62
     5
420
      255
176
     1
290
     0
176
     1
 90
       50
176
     1
 90
       50
176
     1
 90
       50
176
     1
290
     0
176
     1
 90
       50
176
     1
 62
   256
176
     0
 40
1.0
176
     0
 90
        2
176
     1
  1
strokes_ogs.tif
176
     1
290
     0
176
     1
 40
1.0
176
     1
 40
1.0
176
     1
  0
VISUALSTYLE
  5
30
102
{ACAD_REACTORS
330
29
102
}
330
29
100
AcDbVisualStyle
  2
Wireframe
 70
     5
177
     3
291
     0
 70
    58
 90
        0
176
     1
 90
        2
176
     1
 90
        0
176
     1
 90
        0
176
     1
 40
0.6
176
     1
 40
30.0
176
     1
 62
     7
420
 16777215
176
     1
 90
        1
176
     1
 90
        4
176
     1
 62
     7
176
     1
 62
   257
176
     1
 90
        1
176
     1
 90
        1
176
     1
 40
1.0
176
     1
 90
        0
176
     1
 62
   257
176
     1
 40
1.0
176
     1
 90
        1
176
     1
 90
        6
176
     1
 90
        2
176
     1
 62
     7
176
     1
 90
        3
176
     1
 90
        0
176
     1
 90
        0
176
     1
290
     0
176
     1
 90
        1
176
     1
 40
0.0
176
     1
 90
        0
176
     1
290
     0
176
     1
290
     1
176
     1
290
     1
176
     1
290
     0
176
     1
290
     0
176
     1
290
     0
176
     1
290
     0
176
     1
290
     0
176
     1
290
     0
176
     1
 90
       50
176
     1
 40
0.0
176
     1
 40
1.0
176
     1
 90
        0
176
     1
 62
    18
420
        0
176
     1
 90
       50
176
     1
 90
        3
176
     1
 62
     5
420
      255
176
     1
290
     0
176
     1
 90
       50
176
     1
 90
       50
176
     1
 90
       50
176
     1
290
     0
176
     1
 90
       50
176
     1
 62
   256
176
     0
 40
1.0
176
     0
 90
        2
176
     1
  1
strokes_ogs.tif
176
     1
290
     0
176
     1
 40
1.0
176
     1
 40
1.0
176
     1
  0
VISUALSTYLE
  5
3C
102
{ACAD_REACTORS
330
29
102
}
330
29
100
AcDbVisualStyle
  2
X-Ray
 70
    25
177
     3
291
     0
 70
    58
 90
        2
176
     1
 90
        2
176
     1
 90
        1
176
     1
 90
        1
176
     1
 40
0.5
176
     1
 40
30.0
176
     1
 62
     7
420
 16777215
176
     1
 90
        1
176
     1
 90
        0
176
     1
 62
     7
176
     1
 62
   257
176
     1
 90
        1
176
     1
 90
        1
176
     1
 40
1.0
176
     1
 90
        8
176
     1
 62
     7
176
     1
 40
1.0
176
     1
 90
        1
176
     1
 90
        6
176
     1
 90
        2
176
     1
 62
     7
176
     1
 90
        3
176
     1
 90
        0
176
     1
 90
        0
176
     1
290
     0
176
     1
 90
       13
176
     1
 40
0.0
176
     1
 90
        0
176
     1
290
     0
176
     1
290
     1
176
     1
290
     1
176
     1
290
     0
176
     1
290
     0
176
     1
290
     0
176
     1
290
     0
176
     1
290
     0
176
     1
290
     0
176
     1
 90
       50
176
     1
 40
0.0
176
     1
 40
1.0
176
     1
 90
        0
176
     1
 62
    18
420
        0
176
     1
 90
       50
176
     1
 90
        3
176
     1
 62
     5
420
      255
176
     1
290
     0
176
     1
 90
       50
176
     1
 90
       50
176
     1
 90
       50
176
     1
290
     0
176
     1
 90
       50
176
     1
 62
   256
176
     0
 40
1.0
176
     0
 90
        2
176
     1
  1
strokes_ogs.tif
176
     1
290
     0
176
     1
 40
1.0
176
     1
 40
1.0
176
     1
  0
DICTIONARYVAR
  5
81
102
{ACAD_REACTORS
330
7C
102
}
330
7C
100
DictionaryVariables
280
     0
  1
1:1
  0
DICTIONARYVAR
  5
7E
102
{ACAD_REACTORS
330
7C
102
}
330
7C
100
DictionaryVariables
280
     0
  1
STANDARD
  0
DICTIONARYVAR
  5
7D
102
{ACAD_REACTORS
330
7C
102
}
330
7C
100
DictionaryVariables
280
     0
  1
STANDARD
  0
DICTIONARYVAR
  5
7F
102
{ACAD_REACTORS
330
7C
102
}
330
7C
100
DictionaryVariables
280
     0
  1
Imperial24
  0
DICTIONARYVAR
  5
80
102
{ACAD_REACTORS
330
7C
102
}
330
7C
100
DictionaryVariables
280
     0
  1
Imperial24
  0
XRECORD
  5
2DA
102
{ACAD_REACTORS
330
2D6
102
}
330
2D6
100
AcDbXrecord
280
     1
  1
BUILDING_ID
  1
Progetto per messa in tavola DXF, DWG
  1
FLOOR_ID
  1
694395
  0
XRECORD
  5
2D8
102
{ACAD_REACTORS
330
2D6
102
}
330
2D6
100
AcDbXrecord
280
     1
  1
-2001160
  1
Apparecchi idraulici
  0
XRECORD
  5
2D9
102
{ACAD_REACTORS
330
2D6
102
}
330
2D6
100
AcDbXrecord
280
     1
  1
923097
  1
Handle
  0
XRECORD
  5
2D7
102
{ACAD_REACTORS
330
2D6
102
}
330
2D6
100
AcDbXrecord
280
     1
  1
937400
  1
Automatic flow rate regulator valve_Caleffi_121 DN15 : 1 1/4''
  0
DICTIONARY
  5
1A
330
19
100
AcDbDictionary
280
     1
281
     1
  3
BUMPTILE
360
1C
  3
DIFFUSETILE
360
1B
  3
OPACITYTILE
360
1F
  3
REFLECTIONTILE
360
1E
  3
REFRACTIONTILE
360
20
  3
SPECULARTILE
360
1D
  0
DICTIONARY
  5
12
330
11
100
AcDbDictionary
280
     1
281
     1
  3
BUMPTILE
360
14
  3
DIFFUSETILE
360
13
  3
OPACITYTILE
360
17
  3
REFLECTIONTILE
360
16
  3
REFRACTIONTILE
360
18
  3
SPECULARTILE
360
15
  0
DICTIONARY
  5
22
330
21
100
AcDbDictionary
280
     1
281
     1
  3
BUMPTILE
360
24
  3
DIFFUSETILE
360
23
  3
OPACITYTILE
360
27
  3
REFLECTIONTILE
360
26
  3
REFRACTIONTILE
360
28
  3
SPECULARTILE
360
25
  0
DICTIONARY
  5
2DD
330
65
100
AcDbDictionary
280
     1
281
     1
  3
ACAD_ROUNDTRIP_2008_TABLESTYLE_CELLSTYLEMAP
360
2DE
  0
XRECORD
  5
1C
102
{ACAD_REACTORS
330
1A
102
}
330
1A
100
AcDbXrecord
280
     1
270
     1
271
     1
  0
XRECORD
  5
1B
102
{ACAD_REACTORS
330
1A
102
}
330
1A
100
AcDbXrecord
280
     1
270
     1
271
     1
  0
XRECORD
  5
1F
102
{ACAD_REACTORS
330
1A
102
}
330
1A
100
AcDbXrecord
280
     1
270
     1
271
     1
  0
XRECORD
  5
1E
102
{ACAD_REACTORS
330
1A
102
}
330
1A
100
AcDbXrecord
280
     1
270
     1
271
     1
  0
XRECORD
  5
20
102
{ACAD_REACTORS
330
1A
102
}
330
1A
100
AcDbXrecord
280
     1
270
     1
271
     1
  0
XRECORD
  5
1D
102
{ACAD_REACTORS
330
1A
102
}
330
1A
100
AcDbXrecord
280
     1
270
     1
271
     1
  0
XRECORD
  5
14
102
{ACAD_REACTORS
330
12
102
}
330
12
100
AcDbXrecord
280
     1
270
     1
271
     1
  0
XRECORD
  5
13
102
{ACAD_REACTORS
330
12
102
}
330
12
100
AcDbXrecord
280
     1
270
     1
271
     1
  0
XRECORD
  5
17
102
{ACAD_REACTORS
330
12
102
}
330
12
100
AcDbXrecord
280
     1
270
     1
271
     1
  0
XRECORD
  5
16
102
{ACAD_REACTORS
330
12
102
}
330
12
100
AcDbXrecord
280
     1
270
     1
271
     1
  0
XRECORD
  5
18
102
{ACAD_REACTORS
330
12
102
}
330
12
100
AcDbXrecord
280
     1
270
     1
271
     1
  0
XRECORD
  5
15
102
{ACAD_REACTORS
330
12
102
}
330
12
100
AcDbXrecord
280
     1
270
     1
271
     1
  0
XRECORD
  5
24
102
{ACAD_REACTORS
330
22
102
}
330
22
100
AcDbXrecord
280
     1
270
     1
271
     1
  0
XRECORD
  5
23
102
{ACAD_REACTORS
330
22
102
}
330
22
100
AcDbXrecord
280
     1
270
     1
271
     1
  0
XRECORD
  5
27
102
{ACAD_REACTORS
330
22
102
}
330
22
100
AcDbXrecord
280
     1
270
     1
271
     1
  0
XRECORD
  5
26
102
{ACAD_REACTORS
330
22
102
}
330
22
100
AcDbXrecord
280
     1
270
     1
271
     1
  0
XRECORD
  5
28
102
{ACAD_REACTORS
330
22
102
}
330
22
100
AcDbXrecord
280
     1
270
     1
271
     1
  0
XRECORD
  5
25
102
{ACAD_REACTORS
330
22
102
}
330
22
100
AcDbXrecord
280
     1
270
     1
271
     1
  0
CELLSTYLEMAP
  5
2DE
102
{ACAD_REACTORS
330
2DD
102
}
330
2DD
100
AcDbCellStyleMap
 90
        3
300
CELLSTYLE
  1
TABLEFORMAT_BEGIN
 90
        5
170
     1
 91
        0
 92
    32768
 62
   257
 93
        1
300
CONTENTFORMAT
  1
CONTENTFORMAT_BEGIN
 90
        0
 91
        0
 92
      512
 93
        0
300

 40
0.0
140
1.0
 94
        5
 62
     0
340
55
144
0.25
309
CONTENTFORMAT_END
171
     0
 94
        0
309
TABLEFORMAT_END
  1
CELLSTYLE_BEGIN
 90
        1
 91
        1
300
_TITLE
309
CELLSTYLE_END
300
CELLSTYLE
  1
TABLEFORMAT_BEGIN
 90
        5
170
     1
 91
        0
 92
        0
 62
   257
 93
        1
300
CONTENTFORMAT
  1
CONTENTFORMAT_BEGIN
 90
        0
 91
        0
 92
      512
 93
        0
300

 40
0.0
140
1.0
 94
        5
 62
     0
340
55
144
0.18
309
CONTENTFORMAT_END
171
     0
 94
        0
309
TABLEFORMAT_END
  1
CELLSTYLE_BEGIN
 90
        2
 91
        1
300
_HEADER
309
CELLSTYLE_END
300
CELLSTYLE
  1
TABLEFORMAT_BEGIN
 90
        5
170
     1
 91
        0
 92
        0
 62
   257
 93
        1
300
CONTENTFORMAT
  1
CONTENTFORMAT_BEGIN
 90
        0
 91
        0
 92
      512
 93
        0
300

 40
0.0
140
1.0
 94
        2
 62
     0
340
55
144
0.18
309
CONTENTFORMAT_END
171
     0
 94
        0
309
TABLEFORMAT_END
  1
CELLSTYLE_BEGIN
 90
        3
 91
        2
300
_DATA
309
CELLSTYLE_END
  0
ENDSEC
  0
EOF
