  0
SECTION
  2
HEADER
  9
$ACADVER
  1
AC1027
  9
$ACADMAINTVER
 70
    20
  9
$DWGCODEPAGE
  3
ANSI_1252
  9
$REQUIREDVERSIONS
160
                 0
  9
$INSBASE
 10
0.0
 20
0.0
 30
0.0
  9
$EXTMIN
 10
661.6148455245309
 20
1662.655266564655
 30
-0.00000001
  9
$EXTMAX
 10
1207.114353953079
 20
2113.61411387171
 30
0.00000001
  9
$LIMMIN
 10
0.0
 20
0.0
  9
$LIMMAX
 10
12.0
 20
9.0
  9
$ORTHOMODE
 70
     0
  9
$REGENMODE
 70
     1
  9
$FILLMODE
 70
     1
  9
$QTEXTMODE
 70
     0
  9
$MIRRTEXT
 70
     0
  9
$LTSCALE
 40
1.0
  9
$ATTMODE
 70
     1
  9
$TEXTSIZE
 40
0.2
  9
$TRACEWID
 40
0.05
  9
$TEXTSTYLE
  7
Standard
  9
$CLAYER
  8
0
  9
$CELTYPE
  6
ByLayer
  9
$CECOLOR
 62
   256
  9
$CELTSCALE
 40
1.0
  9
$DISPSILH
 70
     0
  9
$DIMSCALE
 40
1.0
  9
$DIMASZ
 40
0.18
  9
$DIMEXO
 40
0.0625
  9
$DIMDLI
 40
0.38
  9
$DIMRND
 40
0.0
  9
$DIMDLE
 40
0.0
  9
$DIMEXE
 40
0.18
  9
$DIMTP
 40
0.0
  9
$DIMTM
 40
0.0
  9
$DIMTXT
 40
0.18
  9
$DIMCEN
 40
0.09
  9
$DIMTSZ
 40
0.0
  9
$DIMTOL
 70
     0
  9
$DIMLIM
 70
     0
  9
$DIMTIH
 70
     1
  9
$DIMTOH
 70
     1
  9
$DIMSE1
 70
     0
  9
$DIMSE2
 70
     0
  9
$DIMTAD
 70
     0
  9
$DIMZIN
 70
     0
  9
$DIMBLK
  1

  9
$DIMASO
 70
     1
  9
$DIMSHO
 70
     1
  9
$DIMPOST
  1

  9
$DIMAPOST
  1

  9
$DIMALT
 70
     0
  9
$DIMALTD
 70
     2
  9
$DIMALTF
 40
25.4
  9
$DIMLFAC
 40
1.0
  9
$DIMTOFL
 70
     0
  9
$DIMTVP
 40
0.0
  9
$DIMTIX
 70
     0
  9
$DIMSOXD
 70
     0
  9
$DIMSAH
 70
     0
  9
$DIMBLK1
  1

  9
$DIMBLK2
  1

  9
$DIMSTYLE
  2
Standard
  9
$DIMCLRD
 70
     0
  9
$DIMCLRE
 70
     0
  9
$DIMCLRT
 70
     0
  9
$DIMTFAC
 40
1.0
  9
$DIMGAP
 40
0.09
  9
$DIMJUST
 70
     0
  9
$DIMSD1
 70
     0
  9
$DIMSD2
 70
     0
  9
$DIMTOLJ
 70
     1
  9
$DIMTZIN
 70
     0
  9
$DIMALTZ
 70
     0
  9
$DIMALTTZ
 70
     0
  9
$DIMUPT
 70
     0
  9
$DIMDEC
 70
     4
  9
$DIMTDEC
 70
     4
  9
$DIMALTU
 70
     2
  9
$DIMALTTD
 70
     2
  9
$DIMTXSTY
  7
Standard
  9
$DIMAUNIT
 70
     0
  9
$DIMADEC
 70
     0
  9
$DIMALTRND
 40
0.0
  9
$DIMAZIN
 70
     0
  9
$DIMDSEP
 70
    46
  9
$DIMATFIT
 70
     3
  9
$DIMFRAC
 70
     0
  9
$DIMLDRBLK
  1

  9
$DIMLUNIT
 70
     2
  9
$DIMLWD
 70
    -2
  9
$DIMLWE
 70
    -2
  9
$DIMTMOVE
 70
     0
  9
$DIMFXL
 40
1.0
  9
$DIMFXLON
 70
     0
  9
$DIMJOGANG
 40
0.7853981633974483
  9
$DIMTFILL
 70
     0
  9
$DIMTFILLCLR
 70
     0
  9
$DIMARCSYM
 70
     0
  9
$DIMLTYPE
  6

  9
$DIMLTEX1
  6

  9
$DIMLTEX2
  6

  9
$DIMTXTDIRECTION
 70
     0
  9
$LUNITS
 70
     2
  9
$LUPREC
 70
     4
  9
$SKETCHINC
 40
0.1
  9
$FILLETRAD
 40
0.0
  9
$AUNITS
 70
     0
  9
$AUPREC
 70
     0
  9
$MENU
  1
.
  9
$ELEVATION
 40
0.0
  9
$PELEVATION
 40
0.0
  9
$THICKNESS
 40
0.0
  9
$LIMCHECK
 70
     0
  9
$CHAMFERA
 40
0.0
  9
$CHAMFERB
 40
0.0
  9
$CHAMFERC
 40
0.0
  9
$CHAMFERD
 40
0.0
  9
$SKPOLY
 70
     0
  9
$TDCREATE
 40
2457571.585103553
  9
$TDUCREATE
 40
2457571.501770220
  9
$TDUPDATE
 40
2457571.585103553
  9
$TDUUPDATE
 40
2457571.501770220
  9
$TDINDWG
 40
0.0000199653
  9
$TDUSRTIMER
 40
0.0000199653
  9
$USRTIMER
 70
     1
  9
$ANGBASE
 50
0.0
  9
$ANGDIR
 70
     0
  9
$PDMODE
 70
     0
  9
$PDSIZE
 40
0.0
  9
$PLINEWID
 40
0.0
  9
$SPLFRAME
 70
     0
  9
$SPLINETYPE
 70
     6
  9
$SPLINESEGS
 70
     8
  9
$HANDSEED
  5
3DE
  9
$SURFTAB1
 70
     6
  9
$SURFTAB2
 70
     6
  9
$SURFTYPE
 70
     6
  9
$SURFU
 70
     6
  9
$SURFV
 70
     6
  9
$UCSBASE
  2

  9
$UCSNAME
  2

  9
$UCSORG
 10
0.0
 20
0.0
 30
0.0
  9
$UCSXDIR
 10
1.0
 20
0.0
 30
0.0
  9
$UCSYDIR
 10
0.0
 20
1.0
 30
0.0
  9
$UCSORTHOREF
  2

  9
$UCSORTHOVIEW
 70
     0
  9
$UCSORGTOP
 10
0.0
 20
0.0
 30
0.0
  9
$UCSORGBOTTOM
 10
0.0
 20
0.0
 30
0.0
  9
$UCSORGLEFT
 10
0.0
 20
0.0
 30
0.0
  9
$UCSORGRIGHT
 10
0.0
 20
0.0
 30
0.0
  9
$UCSORGFRONT
 10
0.0
 20
0.0
 30
0.0
  9
$UCSORGBACK
 10
0.0
 20
0.0
 30
0.0
  9
$PUCSBASE
  2

  9
$PUCSNAME
  2

  9
$PUCSORG
 10
0.0
 20
0.0
 30
0.0
  9
$PUCSXDIR
 10
1.0
 20
0.0
 30
0.0
  9
$PUCSYDIR
 10
0.0
 20
1.0
 30
0.0
  9
$PUCSORTHOREF
  2

  9
$PUCSORTHOVIEW
 70
     0
  9
$PUCSORGTOP
 10
0.0
 20
0.0
 30
0.0
  9
$PUCSORGBOTTOM
 10
0.0
 20
0.0
 30
0.0
  9
$PUCSORGLEFT
 10
0.0
 20
0.0
 30
0.0
  9
$PUCSORGRIGHT
 10
0.0
 20
0.0
 30
0.0
  9
$PUCSORGFRONT
 10
0.0
 20
0.0
 30
0.0
  9
$PUCSORGBACK
 10
0.0
 20
0.0
 30
0.0
  9
$USERI1
 70
     0
  9
$USERI2
 70
     0
  9
$USERI3
 70
     0
  9
$USERI4
 70
     0
  9
$USERI5
 70
     0
  9
$USERR1
 40
0.0
  9
$USERR2
 40
0.0
  9
$USERR3
 40
0.0
  9
$USERR4
 40
0.0
  9
$USERR5
 40
0.0
  9
$WORLDVIEW
 70
     1
  9
$SHADEDGE
 70
     3
  9
$SHADEDIF
 70
    70
  9
$TILEMODE
 70
     1
  9
$MAXACTVP
 70
    64
  9
$PINSBASE
 10
0.0
 20
0.0
 30
0.0
  9
$PLIMCHECK
 70
     0
  9
$PEXTMIN
 10
1.000000000000000E+20
 20
1.000000000000000E+20
 30
1.000000000000000E+20
  9
$PEXTMAX
 10
-1.000000000000000E+20
 20
-1.000000000000000E+20
 30
-1.000000000000000E+20
  9
$PLIMMIN
 10
0.0
 20
0.0
  9
$PLIMMAX
 10
12.0
 20
9.0
  9
$UNITMODE
 70
     0
  9
$VISRETAIN
 70
     1
  9
$PLINEGEN
 70
     0
  9
$PSLTSCALE
 70
     1
  9
$TREEDEPTH
 70
  3020
  9
$CMLSTYLE
  2
Standard
  9
$CMLJUST
 70
     0
  9
$CMLSCALE
 40
1.0
  9
$PROXYGRAPHICS
 70
     1
  9
$MEASUREMENT
 70
     1
  9
$CELWEIGHT
370
    -1
  9
$ENDCAPS
280
     0
  9
$JOINSTYLE
280
     0
  9
$LWDISPLAY
290
     0
  9
$INSUNITS
 70
     4
  9
$HYPERLINKBASE
  1

  9
$STYLESHEET
  1

  9
$XEDIT
290
     1
  9
$CEPSNTYPE
380
     0
  9
$PSTYLEMODE
290
     1
  9
$FINGERPRINTGUID
  2
{BF012383-9EE0-404E-B290-15B0A0D49FFA}
  9
$VERSIONGUID
  2
{B59D4BD9-ACF7-42F8-8625-47125D6F61EE}
  9
$EXTNAMES
290
     1
  9
$PSVPSCALE
 40
0.0
  9
$OLESTARTUP
290
     0
  9
$SORTENTS
280
   127
  9
$INDEXCTL
280
     0
  9
$HIDETEXT
280
     1
  9
$XCLIPFRAME
280
     2
  9
$HALOGAP
280
     0
  9
$OBSCOLOR
 70
   257
  9
$OBSLTYPE
280
     0
  9
$INTERSECTIONDISPLAY
280
     0
  9
$INTERSECTIONCOLOR
 70
   257
  9
$DIMASSOC
280
     2
  9
$PROJECTNAME
  1

  9
$CAMERADISPLAY
290
     0
  9
$LENSLENGTH
 40
50.0
  9
$CAMERAHEIGHT
 40
0.0
  9
$STEPSPERSEC
 40
2.0
  9
$STEPSIZE
 40
6.0
  9
$3DDWFPREC
 40
2.0
  9
$PSOLWIDTH
 40
0.25
  9
$PSOLHEIGHT
 40
4.0
  9
$LOFTANG1
 40
1.570796326794896
  9
$LOFTANG2
 40
1.570796326794896
  9
$LOFTMAG1
 40
0.0
  9
$LOFTMAG2
 40
0.0
  9
$LOFTPARAM
 70
     7
  9
$LOFTNORMALS
280
     1
  9
$LATITUDE
 40
37.795
  9
$LONGITUDE
 40
-122.394
  9
$NORTHDIRECTION
 40
0.0
  9
$TIMEZONE
 70
 -8000
  9
$LIGHTGLYPHDISPLAY
280
     1
  9
$TILEMODELIGHTSYNCH
280
     1
  9
$CMATERIAL
347
11
  9
$SOLIDHIST
280
     0
  9
$SHOWHIST
280
     1
  9
$DWFFRAME
280
     2
  9
$DGNFRAME
280
     0
  9
$REALWORLDSCALE
290
     1
  9
$INTERFERECOLOR
 62
     1
  9
$INTERFEREOBJVS
345
33
  9
$INTERFEREVPVS
346
30
  9
$CSHADOW
280
     0
  9
$SHADOWPLANELOCATION
 40
0.0
  0
ENDSEC
  0
SECTION
  2
CLASSES
  0
CLASS
  1
ACDBDICTIONARYWDFLT
  2
AcDbDictionaryWithDefault
  3
ObjectDBX Classes
 90
        0
 91
        1
280
     0
281
     0
  0
CLASS
  1
MATERIAL
  2
AcDbMaterial
  3
ObjectDBX Classes
 90
     1153
 91
        3
280
     0
281
     0
  0
CLASS
  1
VISUALSTYLE
  2
AcDbVisualStyle
  3
ObjectDBX Classes
 90
     4095
 91
       24
280
     0
281
     0
  0
CLASS
  1
SCALE
  2
AcDbScale
  3
ObjectDBX Classes
 90
     1153
 91
       17
280
     0
281
     0
  0
CLASS
  1
TABLESTYLE
  2
AcDbTableStyle
  3
ObjectDBX Classes
 90
     4095
 91
        1
280
     0
281
     0
  0
CLASS
  1
MLEADERSTYLE
  2
AcDbMLeaderStyle
  3
ACDB_MLEADERSTYLE_CLASS
 90
     4095
 91
        1
280
     0
281
     0
  0
CLASS
  1
ACDBSECTIONVIEWSTYLE
  2
AcDbSectionViewStyle
  3
ObjectDBX Classes
 90
     1025
 91
        1
280
     0
281
     0
  0
CLASS
  1
ACDBDETAILVIEWSTYLE
  2
AcDbDetailViewStyle
  3
ObjectDBX Classes
 90
     1025
 91
        1
280
     0
281
     0
  0
CLASS
  1
RASTERVARIABLES
  2
AcDbRasterVariables
  3
ISM
 90
        0
 91
        1
280
     0
281
     0
  0
CLASS
  1
DICTIONARYVAR
  2
AcDbDictionaryVar
  3
ObjectDBX Classes
 90
        0
 91
        5
280
     0
281
     0
  0
CLASS
  1
CELLSTYLEMAP
  2
AcDbCellStyleMap
  3
ObjectDBX Classes
 90
     1152
 91
        2
280
     0
281
     0
  0
CLASS
  1
SORTENTSTABLE
  2
AcDbSortentsTable
  3
ObjectDBX Classes
 90
        0
 91
        1
280
     0
281
     0
  0
ENDSEC
  0
SECTION
  2
TABLES
  0
TABLE
  2
VPORT
  5
8
330
0
100
AcDbSymbolTable
 70
     1
  0
VPORT
  5
57
330
8
100
AcDbSymbolTableRecord
100
AcDbViewportTableRecord
  2
*Active
 70
     0
 10
0.0
 20
0.0
 11
1.0
 21
1.0
 12
934.3645997388048
 22
1888.134690218182
 13
0.0
 23
0.0
 14
1.0
 24
1.0
 15
0.0
 25
0.0
 16
0.0
 26
0.0
 36
1.0
 17
0.0
 27
0.0
 37
0.0
 40
450.958847307055
 41
1.209643655260455
 42
50.0
 43
0.0
 44
0.0
 50
0.0
 51
0.0
 71
     0
 72
  1000
 73
     1
 74
     1
 75
     0
 76
     0
 77
     0
 78
     0
281
     0
 65
     1
110
0.0
120
0.0
130
0.0
111
1.0
121
0.0
131
0.0
112
0.0
122
1.0
132
0.0
 79
     0
146
0.0
 60
     3
 61
     5
292
     1
282
     1
141
0.0
142
0.0
 63
   250
421
  3355443
  0
ENDTAB
  0
TABLE
  2
LTYPE
  5
5
330
0
100
AcDbSymbolTable
 70
     3
  0
LTYPE
  5
5B
330
5
100
AcDbSymbolTableRecord
100
AcDbLinetypeTableRecord
  2
ByBlock
 70
     0
  3

 72
    65
 73
     0
 40
0.0
  0
LTYPE
  5
5C
330
5
100
AcDbSymbolTableRecord
100
AcDbLinetypeTableRecord
  2
ByLayer
 70
     0
  3

 72
    65
 73
     0
 40
0.0
  0
LTYPE
  5
5D
330
5
100
AcDbSymbolTableRecord
100
AcDbLinetypeTableRecord
  2
Continuous
 70
     0
  3
Solid line
 72
    65
 73
     0
 40
0.0
  0
LTYPE
  5
69
330
5
100
AcDbSymbolTableRecord
100
AcDbLinetypeTableRecord
  2
PHANTOM2
 70
     0
  3
___ _ _ ___ _ _ ___ _ _ ___ _ _
 72
    65
 73
     6
 40
1.25
 49
0.625
 74
     0
 49
-0.125
 74
     0
 49
0.125
 74
     0
 49
-0.125
 74
     0
 49
0.125
 74
     0
 49
-0.125
 74
     0
  0
LTYPE
  5
86
330
5
100
AcDbSymbolTableRecord
100
AcDbLinetypeTableRecord
  2
Nascosto 1_5 mm
 70
     0
  3

 72
    65
 73
     2
 40
2.2
 49
1.5
 74
     0
 49
-0.7000000000000001
 74
     0
  0
ENDTAB
  0
TABLE
  2
LAYER
  5
2
330
0
100
AcDbSymbolTable
 70
     4
  0
LAYER
  5
54
330
2
100
AcDbSymbolTableRecord
100
AcDbLayerTableRecord
  2
0
 70
     0
 62
     7
  6
Continuous
370
    -3
390
F
347
21
348
0
  0
LAYER
  5
85
330
2
100
AcDbSymbolTableRecord
100
AcDbLayerTableRecord
  2
P-SANR-FIXT
 70
     0
 62
     6
  6
Continuous
370
    18
390
F
347
21
348
0
  0
LAYER
  5
88
330
2
100
AcDbSymbolTableRecord
100
AcDbLayerTableRecord
  2
M-PIPE
 70
     0
 62
     3
  6
Continuous
370
    18
390
F
347
21
348
0
  0
ENDTAB
  0
TABLE
  2
STYLE
  5
3
330
0
100
AcDbSymbolTable
 70
     2
  0
STYLE
  5
55
330
3
100
AcDbSymbolTableRecord
100
AcDbTextStyleTableRecord
  2
Standard
 70
     0
 40
0.0
 41
1.0
 50
0.0
 71
     0
 42
0.2
  3
txt
  4

  0
STYLE
  5
5A
330
3
100
AcDbSymbolTableRecord
100
AcDbTextStyleTableRecord
  2
Annotative
 70
     0
 40
0.0
 41
1.0
 50
0.0
 71
     0
 42
0.2
  3
txt
  4

1001
AcadAnnotative
1000
AnnotativeData
1002
{
1070
     1
1070
     1
1002
}
  0
ENDTAB
  0
TABLE
  2
VIEW
  5
6
330
0
100
AcDbSymbolTable
 70
     0
  0
ENDTAB
  0
TABLE
  2
UCS
  5
7
330
0
100
AcDbSymbolTable
 70
     0
  0
ENDTAB
  0
TABLE
  2
APPID
  5
9
330
0
100
AcDbSymbolTable
 70
     3
  0
APPID
  5
56
330
9
100
AcDbSymbolTableRecord
100
AcDbRegAppTableRecord
  2
ACAD
 70
     0
  0
APPID
  5
5E
330
9
100
AcDbSymbolTableRecord
100
AcDbRegAppTableRecord
  2
AcadAnnotative
 70
     0
  0
APPID
  5
79
330
9
100
AcDbSymbolTableRecord
100
AcDbRegAppTableRecord
  2
REVIT
 70
     0
  0
ENDTAB
  0
TABLE
  2
DIMSTYLE
  5
A
330
0
100
AcDbSymbolTable
 70
     2
100
AcDbDimStyleTable
 71
     0
  0
DIMSTYLE
105
58
330
A
100
AcDbSymbolTableRecord
100
AcDbDimStyleTableRecord
  2
Standard
 70
     0
340
55
  0
DIMSTYLE
105
59
330
A
100
AcDbSymbolTableRecord
100
AcDbDimStyleTableRecord
  2
Annotative
 70
     0
340
55
1001
AcadAnnotative
1000
AnnotativeData
1002
{
1070
     1
1070
     1
1002
}
  0
ENDTAB
  0
TABLE
  2
BLOCK_RECORD
  5
1
330
0
100
AcDbSymbolTable
 70
     4
  0
BLOCK_RECORD
  5
71
102
{ACAD_XDICTIONARY
360
3D9
102
}
330
1
100
AcDbSymbolTableRecord
100
AcDbBlockTableRecord
  2
*Model_Space
340
74
 70
     0
280
     1
281
     0
  0
BLOCK_RECORD
  5
6D
330
1
100
AcDbSymbolTableRecord
100
AcDbBlockTableRecord
  2
*Paper_Space
340
70
 70
     0
280
     1
281
     0
  0
BLOCK_RECORD
  5
75
330
1
100
AcDbSymbolTableRecord
100
AcDbBlockTableRecord
  2
*Paper_Space0
340
78
 70
     0
280
     1
281
     0
  0
BLOCK_RECORD
  5
87
330
1
100
AcDbSymbolTableRecord
100
AcDbBlockTableRecord
  2
Automatic flow rate regulator valve_Caleffi_121 DN15 - 3_4___Pressure gauge H-961210-Est - Idraulica
340
0
102
{BLKREFS
331
1C8
102
}
 70
     0
280
     1
281
     0
  0
BLOCK_RECORD
  5
1C9
330
1
100
AcDbSymbolTableRecord
100
AcDbBlockTableRecord
  2
Automatic flow rate regulator valve_Caleffi_121 DN15 - 3_4___Pressure gauge H-V1-Est - Idraulica
340
0
102
{BLKREFS
331
2E3
102
}
 70
     0
280
     1
281
     0
  0
BLOCK_RECORD
  5
2E4
330
1
100
AcDbSymbolTableRecord
100
AcDbBlockTableRecord
  2
Automatic flow rate regulator valve_Caleffi_121 DN15 - 3_4___Pressure gauge H-V2-Est - Idraulica
340
0
102
{BLKREFS
331
3D2
102
}
 70
     0
280
     1
281
     0
  0
ENDTAB
  0
ENDSEC
  0
SECTION
  2
BLOCKS
  0
BLOCK
  5
72
330
71
100
AcDbEntity
  8
0
100
AcDbBlockBegin
  2
*Model_Space
 70
     0
 10
0.0
 20
0.0
 30
0.0
  3
*Model_Space
  1

  0
ENDBLK
  5
73
330
71
100
AcDbEntity
  8
0
100
AcDbBlockEnd
  0
BLOCK
  5
6E
330
6D
100
AcDbEntity
 67
     1
  8
0
100
AcDbBlockBegin
  2
*Paper_Space
 70
     0
 10
0.0
 20
0.0
 30
0.0
  3
*Paper_Space
  1

  0
ENDBLK
  5
6F
330
6D
100
AcDbEntity
 67
     1
  8
0
100
AcDbBlockEnd
  0
BLOCK
  5
76
330
75
100
AcDbEntity
 67
     1
  8
0
100
AcDbBlockBegin
  2
*Paper_Space0
 70
     0
 10
0.0
 20
0.0
 30
0.0
  3
*Paper_Space0
  1

  0
ENDBLK
  5
77
330
75
100
AcDbEntity
 67
     1
  8
0
100
AcDbBlockEnd
  0
BLOCK
  5
1C6
330
87
100
AcDbEntity
  8
0
100
AcDbBlockBegin
  2
Automatic flow rate regulator valve_Caleffi_121 DN15 - 3_4___Pressure gauge H-961210-Est - Idraulica
 70
     0
 10
0.0
 20
0.0
 30
0.0
  3
Automatic flow rate regulator valve_Caleffi_121 DN15 - 3_4___Pressure gauge H-961210-Est - Idraulica
  1

  0
ARC
  5
89
330
87
100
AcDbEntity
  8
M-PIPE
100
AcDbCircle
 10
784.7278012627464
 20
2085.511775133178
 30
0.0
 40
3.999999999999942
100
AcDbArc
 50
163.9999999999989
 51
343.9999999999985
1001
REVIT
1002
{
1070
     3
1000
923236
1002
}
  0
ARC
  5
8A
330
87
100
AcDbEntity
  8
M-PIPE
100
AcDbCircle
 10
784.7278012627464
 20
2085.511775133178
 30
0.0
 40
3.999999999999974
100
AcDbArc
 50
343.9999999999967
 51
163.9999999999971
1001
REVIT
1002
{
1070
     3
1000
923236
1002
}
  0
ARC
  5
8B
330
87
100
AcDbEntity
  8
M-PIPE
100
AcDbCircle
 10
784.7278012627466
 20
2085.511775133178
 30
0.0
 40
24.50000000000004
100
AcDbArc
 50
163.9999999999997
 51
343.9999999999983
1001
REVIT
1002
{
1070
     3
1000
923236
1002
}
  0
ARC
  5
8C
330
87
100
AcDbEntity
  8
M-PIPE
100
AcDbCircle
 10
784.7278012627466
 20
2085.511775133178
 30
0.0
 40
24.49999999999989
100
AcDbArc
 50
343.9999999999994
 51
163.9999999999998
1001
REVIT
1002
{
1070
     3
1000
923236
1002
}
  0
LINE
  5
8D
330
87
100
AcDbEntity
  8
M-PIPE
100
AcDbLine
 10
780.3639640874175
 20
2046.711557026739
 30
0.0
 11
782.0177882223244
 21
2052.479127202385
 31
0.0
1001
REVIT
1002
{
1070
     3
1000
923236
1002
}
  0
LINE
  5
8E
330
87
100
AcDbEntity
  8
M-PIPE
100
AcDbLine
 10
769.5213861751467
 20
2056.062412828001
 30
0.0
 11
767.8675620402398
 21
2050.294842652354
 31
0.0
1001
REVIT
1002
{
1070
     3
1000
923236
1002
}
  0
LINE
  5
8F
330
87
100
AcDbEntity
  8
M-PIPE
100
AcDbLine
 10
782.498419070314
 20
2052.34130852447
 30
0.0
 11
769.0407553271776
 21
2056.200231505908
 31
0.0
1001
REVIT
1002
{
1070
     3
1000
923236
1002
}
  0
LINE
  5
90
330
87
100
AcDbEntity
  8
M-PIPE
100
AcDbLine
 10
784.9908914033622
 20
2061.033592539615
 30
0.0
 11
782.498419070314
 21
2052.34130852447
 31
0.0
1001
REVIT
1002
{
1070
     3
1000
923236
1002
}
  0
LINE
  5
91
330
87
100
AcDbEntity
  8
M-PIPE
100
AcDbLine
 10
769.0407553271776
 20
2056.200231505908
 30
0.0
 11
771.5332276602173
 21
2064.892515521024
 31
0.0
1001
REVIT
1002
{
1070
     3
1000
923236
1002
}
  0
LINE
  5
92
330
87
100
AcDbEntity
  8
M-PIPE
100
AcDbLine
 10
698.8951975437836
 20
2069.11594015722
 30
0.0
 11
697.5480544797021
 21
2074.747049343052
 31
0.0
1001
REVIT
1002
{
1070
     3
1000
923097
1002
}
  0
LWPOLYLINE
  5
93
330
87
100
AcDbEntity
  8
M-PIPE
100
AcDbPolyline
 90
        3
 70
   128
 43
0.0
 10
697.4331170697843
 20
2075.227492082982
 10
696.5686836462753
 20
2078.84085663308
 10
696.029484683392
 20
2081.375128132031
1001
REVIT
1002
{
1070
     3
1000
923097
1002
}
  0
LWPOLYLINE
  5
94
330
87
100
AcDbEntity
  8
M-PIPE
100
AcDbPolyline
 90
        3
 70
   128
 43
0.0
 10
735.4965747564009
 20
2095.739974151708
 10
740.0578839555241
 20
2086.841596447444
 10
741.1813654791501
 20
2084.506846606874
1001
REVIT
1002
{
1070
     3
1000
923097
1002
}
  0
ELLIPSE
  5
95
330
87
100
AcDbEntity
  8
M-PIPE
100
AcDbEllipse
 10
672.9918711521303
 20
2034.651152049726
 30
0.0
 11
-85.50488143095234
 21
234.922730984692
 31
0.0
210
0.0
220
0.0
230
1.0
 40
0.2588190451024886
 41
4.81668554190321
 42
4.857000131822782
1001
REVIT
1002
{
1070
     3
1000
923097
1002
}
  0
LINE
  5
96
330
87
100
AcDbEntity
  8
M-PIPE
100
AcDbLine
 10
724.5622437922214
 20
2081.118425424345
 30
0.0
 11
713.7389099441792
 21
2077.179054068132
 31
0.0
1001
REVIT
1002
{
1070
     3
1000
923097
1002
}
  0
SPLINE
  5
97
330
87
100
AcDbEntity
  8
M-PIPE
100
AcDbSpline
210
0.0
220
0.0
230
1.0
 70
     8
 71
     3
 72
     9
 73
     5
 74
     0
 42
0.000000001
 43
0.0000000001
 40
-1.0
 40
-1.0
 40
-1.0
 40
-1.0
 40
-0.5
 40
-0.0013573148950645
 40
-0.0013573148950645
 40
-0.0013573148950645
 40
-0.0013573148950645
 10
713.738909944179
 20
2077.179054068134
 30
0.0
 10
713.2099773525336
 20
2078.76464065775
 30
0.0
 10
712.1631435256773
 20
2081.930535415605
 30
0.0
 10
711.1354746511182
 20
2085.094484536322
 30
0.0
 10
710.6271168197094
 20
2086.67382385264
 30
0.0
1001
REVIT
1002
{
1070
     3
1000
923097
1002
}
  0
LINE
  5
98
330
87
100
AcDbEntity
  8
M-PIPE
100
AcDbLine
 10
698.895197543782
 20
2069.115940157219
 30
0.0
 11
741.1813654791485
 21
2084.506846606873
 31
0.0
1001
REVIT
1002
{
1070
     3
1000
923097
1002
}
  0
LINE
  5
99
330
87
100
AcDbEntity
  8
M-PIPE
100
AcDbLine
 10
710.6229656467951
 20
2086.686720817041
 30
0.0
 11
709.6727494485922
 21
2086.340870404777
 31
0.0
1001
REVIT
1002
{
1070
     3
1000
923097
1002
}
  0
LINE
  5
9A
330
87
100
AcDbEntity
  8
M-PIPE
100
AcDbLine
 10
709.2540182062951
 20
2086.188464696423
 30
0.0
 11
706.8221724742685
 21
2085.303345235639
 31
0.0
1001
REVIT
1002
{
1070
     3
1000
923097
1002
}
  0
LINE
  5
9B
330
87
100
AcDbEntity
  8
M-PIPE
100
AcDbLine
 10
706.6261132228756
 20
2085.231985503979
 30
0.0
 11
705.4704080288249
 21
2084.811343213758
 31
0.0
1001
REVIT
1002
{
1070
     3
1000
923097
1002
}
  0
LINE
  5
9C
330
87
100
AcDbEntity
  8
M-PIPE
100
AcDbLine
 10
705.3810109024766
 20
2084.778805320738
 30
0.0
 11
704.1906461703202
 21
2084.345547990313
 31
0.0
1001
REVIT
1002
{
1070
     3
1000
923097
1002
}
  0
LINE
  5
9D
330
87
100
AcDbEntity
  8
M-PIPE
100
AcDbLine
 10
704.1790213024151
 20
2084.341316884419
 30
0.0
 11
703.0612950403223
 21
2083.934497794959
 31
0.0
1001
REVIT
1002
{
1070
     3
1000
923097
1002
}
  0
LINE
  5
9E
330
87
100
AcDbEntity
  8
M-PIPE
100
AcDbLine
 10
702.9515341453888
 20
2083.894548096317
 30
0.0
 11
701.0090978252869
 21
2083.187559093843
 31
0.0
1001
REVIT
1002
{
1070
     3
1000
923097
1002
}
  0
LINE
  5
9F
330
87
100
AcDbEntity
  8
M-PIPE
100
AcDbLine
 10
700.7257586845045
 20
2083.084432080395
 30
0.0
 11
699.7495997919472
 21
2082.72913929959
 31
0.0
1001
REVIT
1002
{
1070
     3
1000
923097
1002
}
  0
LINE
  5
A0
330
87
100
AcDbEntity
  8
M-PIPE
100
AcDbLine
 10
699.2676417806265
 20
2082.553720929304
 30
0.0
 11
698.8792246050246
 21
2082.412348638906
 31
0.0
1001
REVIT
1002
{
1070
     3
1000
923097
1002
}
  0
LINE
  5
A1
330
87
100
AcDbEntity
  8
M-PIPE
100
AcDbLine
 10
698.5251813099116
 20
2082.283487417844
 30
0.0
 11
698.122247281723
 21
2082.13683142521
 31
0.0
1001
REVIT
1002
{
1070
     3
1000
923097
1002
}
  0
LINE
  5
A2
330
87
100
AcDbEntity
  8
M-PIPE
100
AcDbLine
 10
697.4818623335464
 20
2081.903750365602
 30
0.0
 11
696.9578784574405
 21
2081.713035831464
 31
0.0
1001
REVIT
1002
{
1070
     3
1000
923097
1002
}
  0
LINE
  5
A3
330
87
100
AcDbEntity
  8
M-PIPE
100
AcDbLine
 10
696.9212907638741
 20
2081.699719000065
 30
0.0
 11
696.5508110884465
 21
2081.564875425809
 31
0.0
1001
REVIT
1002
{
1070
     3
1000
923097
1002
}
  0
LINE
  5
A4
330
87
100
AcDbEntity
  8
M-PIPE
100
AcDbLine
 10
696.5327317771044
 20
2081.558295094625
 30
0.0
 11
696.2611918123672
 21
2081.459462630046
 31
0.0
1001
REVIT
1002
{
1070
     3
1000
923097
1002
}
  0
LINE
  5
A5
330
87
100
AcDbEntity
  8
M-PIPE
100
AcDbLine
 10
696.254264696638
 20
2081.456941366112
 30
0.0
 11
696.0886135594598
 21
2081.396649282907
 31
0.0
1001
REVIT
1002
{
1070
     3
1000
923097
1002
}
  0
LINE
  5
A6
330
87
100
AcDbEntity
  8
M-PIPE
100
AcDbLine
 10
696.0815057152231
 20
2081.394062239175
 30
0.0
 11
696.0294846833901
 21
2081.375128132032
 31
0.0
1001
REVIT
1002
{
1070
     3
1000
923097
1002
}
  0
LINE
  5
A7
330
87
100
AcDbEntity
  8
M-PIPE
100
AcDbLine
 10
735.4965747563992
 20
2095.739974151708
 30
0.0
 11
735.4442808033069
 21
2095.72094070935
 31
0.0
1001
REVIT
1002
{
1070
     3
1000
923097
1002
}
  0
LINE
  5
A8
330
87
100
AcDbEntity
  8
M-PIPE
100
AcDbLine
 10
735.4433338110173
 20
2095.720596032344
 30
0.0
 11
735.2714411292936
 21
2095.658032212709
 31
0.0
1001
REVIT
1002
{
1070
     3
1000
923097
1002
}
  0
LINE
  5
A9
330
87
100
AcDbEntity
  8
M-PIPE
100
AcDbLine
 10
735.2708722674184
 20
2095.657825163919
 30
0.0
 11
734.9913345850246
 21
2095.556081768171
 31
0.0
1001
REVIT
1002
{
1070
     3
1000
923097
1002
}
  0
LINE
  5
AA
330
87
100
AcDbEntity
  8
M-PIPE
100
AcDbLine
 10
734.981660058571
 20
2095.552560528512
 30
0.0
 11
734.6016782944973
 21
2095.414258476825
 31
0.0
1001
REVIT
1002
{
1070
     3
1000
923097
1002
}
  0
LINE
  5
AB
330
87
100
AcDbEntity
  8
M-PIPE
100
AcDbLine
 10
734.5743414875439
 20
2095.404308692794
 30
0.0
 11
734.0504365095226
 21
2095.21362287521
 31
0.0
1001
REVIT
1002
{
1070
     3
1000
923097
1002
}
  0
LINE
  5
AC
330
87
100
AcDbEntity
  8
M-PIPE
100
AcDbLine
 10
733.6429299612484
 20
2095.06530262137
 30
0.0
 11
733.4110433019623
 21
2094.980902779667
 31
0.0
1001
REVIT
1002
{
1070
     3
1000
923097
1002
}
  0
LINE
  5
AD
330
87
100
AcDbEntity
  8
M-PIPE
100
AcDbLine
 10
732.9880638376387
 20
2094.826950844947
 30
0.0
 11
732.6568519030066
 21
2094.706399559507
 31
0.0
1001
REVIT
1002
{
1070
     3
1000
923097
1002
}
  0
LINE
  5
AE
330
87
100
AcDbEntity
  8
M-PIPE
100
AcDbLine
 10
732.2419049306489
 20
2094.55537121277
 30
0.0
 11
731.7911942735531
 21
2094.39132594932
 31
0.0
1001
REVIT
1002
{
1070
     3
1000
923097
1002
}
  0
LINE
  5
AF
330
87
100
AcDbEntity
  8
M-PIPE
100
AcDbLine
 10
731.4084078869289
 20
2094.252003098507
 30
0.0
 11
730.8208905766857
 21
2094.038164285462
 31
0.0
1001
REVIT
1002
{
1070
     3
1000
923097
1002
}
  0
LINE
  5
B0
330
87
100
AcDbEntity
  8
M-PIPE
100
AcDbLine
 10
730.4919902457727
 20
2093.91845435497
 30
0.0
 11
729.7549838098103
 21
2093.650205949817
 31
0.0
1001
REVIT
1002
{
1070
     3
1000
923097
1002
}
  0
LINE
  5
B1
330
87
100
AcDbEntity
  8
M-PIPE
100
AcDbLine
 10
729.4975090261349
 20
2093.556492792485
 30
0.0
 11
728.6044263195409
 21
2093.231437270546
 31
0.0
1001
REVIT
1002
{
1070
     3
1000
923097
1002
}
  0
LINE
  5
B2
330
87
100
AcDbEntity
  8
M-PIPE
100
AcDbLine
 10
728.4870550605611
 20
2093.188717625919
 30
0.0
 11
727.3781379032814
 21
2092.785104788403
 31
0.0
1001
REVIT
1002
{
1070
     3
1000
923097
1002
}
  0
LINE
  5
B3
330
87
100
AcDbEntity
  8
M-PIPE
100
AcDbLine
 10
727.295824679345
 20
2092.755145225003
 30
0.0
 11
726.1002904923396
 21
2092.320006366886
 31
0.0
1001
REVIT
1002
{
1070
     3
1000
923097
1002
}
  0
LINE
  5
B4
330
87
100
AcDbEntity
  8
M-PIPE
100
AcDbLine
 10
726.0826982338118
 20
2092.313603308428
 30
0.0
 11
724.8499687616934
 21
2091.864926473674
 31
0.0
1001
REVIT
1002
{
1070
     3
1000
923097
1002
}
  0
LINE
  5
B5
330
87
100
AcDbEntity
  8
M-PIPE
100
AcDbLine
 10
724.728644024008
 20
2091.820767880477
 30
0.0
 11
720.8377852230752
 21
2090.404611091205
 31
0.0
1001
REVIT
1002
{
1070
     3
1000
923097
1002
}
  0
LINE
  5
B6
330
87
100
AcDbEntity
  8
M-PIPE
100
AcDbLine
 10
714.6853225322111
 20
2077.523520079513
 30
0.0
 11
711.2697575358984
 21
2086.907707781562
 31
0.0
1001
REVIT
1002
{
1070
     3
1000
923097
1002
}
  0
LINE
  5
B7
330
87
100
AcDbEntity
  8
M-PIPE
100
AcDbLine
 10
720.1955772635207
 20
2090.156440478843
 30
0.0
 11
723.6111422598334
 21
2080.772252776793
 31
0.0
1001
REVIT
1002
{
1070
     3
1000
923097
1002
}
  0
LINE
  5
B8
330
87
100
AcDbEntity
  8
M-PIPE
100
AcDbLine
 10
754.5166999753909
 20
2059.563533798141
 30
0.0
 11
753.490639545414
 21
2062.382611660499
 31
0.0
1001
REVIT
1002
{
1070
     3
1000
923097
1002
}
  0
LINE
  5
B9
330
87
100
AcDbEntity
  8
M-PIPE
100
AcDbLine
 10
703.6869306438185
 20
2044.25554406426
 30
0.0
 11
704.7129910737955
 21
2041.436466201902
 31
0.0
1001
REVIT
1002
{
1070
     3
1000
923097
1002
}
  0
LINE
  5
BA
330
87
100
AcDbEntity
  8
M-PIPE
100
AcDbLine
 10
748.1619594144705
 20
2069.713528995481
 30
0.0
 11
747.5933803931546
 21
2069.813784817604
 31
0.0
1001
REVIT
1002
{
1070
     3
1000
923097
1002
}
  0
LINE
  5
BB
330
87
100
AcDbEntity
  8
M-PIPE
100
AcDbLine
 10
703.4278272162168
 20
2053.738838081299
 30
0.0
 11
703.0567136167418
 21
2053.296562115864
 31
0.0
1001
REVIT
1002
{
1070
     3
1000
923097
1002
}
  0
LWPOLYLINE
  5
BC
330
87
100
AcDbEntity
  8
M-PIPE
100
AcDbPolyline
 90
        3
 70
   128
 43
0.0
 10
703.4278272162173
 20
2053.738838081297
 10
700.4851000860895
 20
2063.29535546031
 10
698.8951975437927
 20
2069.115940157197
1001
REVIT
1002
{
1070
     3
1000
923097
1002
}
  0
LWPOLYLINE
  5
BD
330
87
100
AcDbEntity
  8
M-PIPE
100
AcDbPolyline
 90
        3
 70
   128
 43
0.0
 10
741.1813654791593
 20
2084.506846606851
 10
745.2911085698632
 20
2075.391108616641
 10
747.5933803931553
 20
2069.813784817603
1001
REVIT
1002
{
1070
     3
1000
923097
1002
}
  0
LINE
  5
BE
330
87
100
AcDbEntity
  8
M-PIPE
100
AcDbLine
 10
704.7129910737939
 20
2041.436466201902
 30
0.0
 11
704.8033195466153
 21
2041.469343077315
 31
0.0
1001
REVIT
1002
{
1070
     3
1000
923097
1002
}
  0
LINE
  5
BF
330
87
100
AcDbEntity
  8
M-PIPE
100
AcDbLine
 10
704.8049571578475
 20
2041.469939119059
 30
0.0
 11
705.0665126195712
 21
2041.565137521736
 31
0.0
1001
REVIT
1002
{
1070
     3
1000
923097
1002
}
  0
LINE
  5
C0
330
87
100
AcDbEntity
  8
M-PIPE
100
AcDbLine
 10
705.1707794499488
 20
2041.603087544415
 30
0.0
 11
705.5019051042153
 21
2041.72360742637
 31
0.0
1001
REVIT
1002
{
1070
     3
1000
923097
1002
}
  0
LINE
  5
C1
330
87
100
AcDbEntity
  8
M-PIPE
100
AcDbLine
 10
705.6779004160183
 20
2041.787664481236
 30
0.0
 11
706.2006892333654
 21
2041.977944049558
 31
0.0
1001
REVIT
1002
{
1070
     3
1000
923097
1002
}
  0
LINE
  5
C2
330
87
100
AcDbEntity
  8
M-PIPE
100
AcDbLine
 10
706.3499258385321
 20
2042.032261731701
 30
0.0
 11
707.0321872199363
 21
2042.280584566522
 31
0.0
1001
REVIT
1002
{
1070
     3
1000
923097
1002
}
  0
LINE
  5
C3
330
87
100
AcDbEntity
  8
M-PIPE
100
AcDbLine
 10
707.1816989652634
 20
2042.335002391494
 30
0.0
 11
708.0373480701438
 21
2042.646433196647
 31
0.0
1001
REVIT
1002
{
1070
     3
1000
923097
1002
}
  0
LINE
  5
C4
330
87
100
AcDbEntity
  8
M-PIPE
100
AcDbLine
 10
708.2932840379541
 20
2042.739586270808
 30
0.0
 11
709.208284550373
 21
2043.072619221667
 31
0.0
1001
REVIT
1002
{
1070
     3
1000
923097
1002
}
  0
LINE
  5
C5
330
87
100
AcDbEntity
  8
M-PIPE
100
AcDbLine
 10
709.4688220824448
 20
2043.16744712825
 30
0.0
 11
710.5357751307735
 21
2043.555786279202
 31
0.0
1001
REVIT
1002
{
1070
     3
1000
923097
1002
}
  0
LINE
  5
C6
330
87
100
AcDbEntity
  8
M-PIPE
100
AcDbLine
 10
710.6793268457013
 20
2043.608034830513
 30
0.0
 11
712.0065753783119
 21
2044.091113789857
 31
0.0
1001
REVIT
1002
{
1070
     3
1000
923097
1002
}
  0
LINE
  5
C7
330
87
100
AcDbEntity
  8
M-PIPE
100
AcDbLine
 10
712.0091371216242
 20
2044.092046188171
 30
0.0
 11
713.4423847517186
 21
2044.613705663858
 31
0.0
1001
REVIT
1002
{
1070
     3
1000
923097
1002
}
  0
LINE
  5
C8
330
87
100
AcDbEntity
  8
M-PIPE
100
AcDbLine
 10
713.6059606600063
 20
2044.673242425517
 30
0.0
 11
715.0212878241721
 21
2045.188379385022
 31
0.0
1001
REVIT
1002
{
1070
     3
1000
923097
1002
}
  0
LINE
  5
C9
330
87
100
AcDbEntity
  8
M-PIPE
100
AcDbLine
 10
715.3265093917191
 20
2045.299470950465
 30
0.0
 11
716.6036623152841
 21
2045.764316599249
 31
0.0
1001
REVIT
1002
{
1070
     3
1000
923097
1002
}
  0
LINE
  5
CA
330
87
100
AcDbEntity
  8
M-PIPE
100
AcDbLine
 10
717.1574427924166
 20
2045.965876209243
 30
0.0
 11
719.084504823879
 21
2046.667269428279
 31
0.0
1001
REVIT
1002
{
1070
     3
1000
923097
1002
}
  0
LINE
  5
CB
330
87
100
AcDbEntity
  8
M-PIPE
100
AcDbLine
 10
720.0853183911042
 20
2047.031535776799
 30
0.0
 11
721.0926495308869
 21
2047.39817432773
 31
0.0
1001
REVIT
1002
{
1070
     3
1000
923097
1002
}
  0
LINE
  5
CC
330
87
100
AcDbEntity
  8
M-PIPE
100
AcDbLine
 10
721.7440624152589
 20
2047.635269227859
 30
0.0
 11
723.1661705086889
 21
2048.152874243776
 31
0.0
1001
REVIT
1002
{
1070
     3
1000
923097
1002
}
  0
LINE
  5
CD
330
87
100
AcDbEntity
  8
M-PIPE
100
AcDbLine
 10
723.8016230516381
 20
2048.384160054698
 30
0.0
 11
725.2888343058394
 21
2048.925460683293
 31
0.0
1001
REVIT
1002
{
1070
     3
1000
923097
1002
}
  0
LINE
  5
CE
330
87
100
AcDbEntity
  8
M-PIPE
100
AcDbLine
 10
725.7193372450712
 20
2049.082150938938
 30
0.0
 11
727.4440173269832
 21
2049.709883152385
 31
0.0
1001
REVIT
1002
{
1070
     3
1000
923097
1002
}
  0
LINE
  5
CF
330
87
100
AcDbEntity
  8
M-PIPE
100
AcDbLine
 10
727.6610685424353
 20
2049.788883334121
 30
0.0
 11
731.5686225067475
 21
2051.211116665919
 31
0.0
1001
REVIT
1002
{
1070
     3
1000
923097
1002
}
  0
LINE
  5
D0
330
87
100
AcDbEntity
  8
M-PIPE
100
AcDbLine
 10
731.7856737222176
 20
2051.290116847662
 30
0.0
 11
733.5103538041117
 21
2051.917849061104
 31
0.0
1001
REVIT
1002
{
1070
     3
1000
923097
1002
}
  0
LINE
  5
D1
330
87
100
AcDbEntity
  8
M-PIPE
100
AcDbLine
 10
733.9408567433613
 20
2052.074539316754
 30
0.0
 11
735.4280679975446
 21
2052.615839945343
 31
0.0
1001
REVIT
1002
{
1070
     3
1000
923097
1002
}
  0
LINE
  5
D2
330
87
100
AcDbEntity
  8
M-PIPE
100
AcDbLine
 10
736.0635205405118
 20
2052.847125756271
 30
0.0
 11
737.3099417413393
 21
2053.300785972731
 31
0.0
1001
REVIT
1002
{
1070
     3
1000
923097
1002
}
  0
LINE
  5
D3
330
87
100
AcDbEntity
  8
M-PIPE
100
AcDbLine
 10
738.1370415183139
 20
2053.601825672318
 30
0.0
 11
739.1443726580786
 21
2053.968464223242
 31
0.0
1001
REVIT
1002
{
1070
     3
1000
923097
1002
}
  0
LINE
  5
D4
330
87
100
AcDbEntity
  8
M-PIPE
100
AcDbLine
 10
740.1451862253219
 20
2054.332730571768
 30
0.0
 11
743.9031816574814
 21
2055.700529049583
 31
0.0
1001
REVIT
1002
{
1070
     3
1000
923097
1002
}
  0
LINE
  5
D5
330
87
100
AcDbEntity
  8
M-PIPE
100
AcDbLine
 10
744.2517883255041
 20
2055.82741150021
 30
0.0
 11
745.6237303891937
 21
2056.32675757453
 31
0.0
1001
REVIT
1002
{
1070
     3
1000
923097
1002
}
  0
LINE
  5
D6
330
87
100
AcDbEntity
  8
M-PIPE
100
AcDbLine
 10
745.7873062974642
 20
2056.386294336184
 30
0.0
 11
748.6457451634468
 21
2057.426680999871
 31
0.0
1001
REVIT
1002
{
1070
     3
1000
923097
1002
}
  0
LINE
  5
D7
330
87
100
AcDbEntity
  8
M-PIPE
100
AcDbLine
 10
748.6939159184279
 20
2057.444213720846
 30
0.0
 11
749.7608689667382
 21
2057.832552871791
 31
0.0
1001
REVIT
1002
{
1070
     3
1000
923097
1002
}
  0
LINE
  5
D8
330
87
100
AcDbEntity
  8
M-PIPE
100
AcDbLine
 10
750.0214064988285
 20
2057.927380778381
 30
0.0
 11
750.8471667962413
 21
2058.227932947278
 31
0.0
1001
REVIT
1002
{
1070
     3
1000
923097
1002
}
  0
LINE
  5
D9
330
87
100
AcDbEntity
  8
M-PIPE
100
AcDbLine
 10
751.1923429790575
 20
2058.3535668034
 30
0.0
 11
752.0163702447199
 21
2058.653488200326
 31
0.0
1001
REVIT
1002
{
1070
     3
1000
923097
1002
}
  0
LINE
  5
DA
330
87
100
AcDbEntity
  8
M-PIPE
100
AcDbLine
 10
752.1975038292648
 20
2058.719415433526
 30
0.0
 11
752.8797652106598
 21
2058.967738268343
 31
0.0
1001
REVIT
1002
{
1070
     3
1000
923097
1002
}
  0
LINE
  5
DB
330
87
100
AcDbEntity
  8
M-PIPE
100
AcDbLine
 10
753.0290018158352
 20
2059.02205595049
 30
0.0
 11
753.5517906331696
 21
2059.212335518807
 31
0.0
1001
REVIT
1002
{
1070
     3
1000
923097
1002
}
  0
LINE
  5
DC
330
87
100
AcDbEntity
  8
M-PIPE
100
AcDbLine
 10
753.7277859449655
 20
2059.276392573671
 30
0.0
 11
754.0589115992395
 21
2059.396912455629
 31
0.0
1001
REVIT
1002
{
1070
     3
1000
923097
1002
}
  0
LINE
  5
DD
330
87
100
AcDbEntity
  8
M-PIPE
100
AcDbLine
 10
754.1631784296105
 20
2059.434862478305
 30
0.0
 11
754.394758877437
 21
2059.519150868152
 31
0.0
1001
REVIT
1002
{
1070
     3
1000
923097
1002
}
  0
LINE
  5
DE
330
87
100
AcDbEntity
  8
M-PIPE
100
AcDbLine
 10
754.4247338913483
 20
2059.530060880987
 30
0.0
 11
754.5166999753892
 21
2059.56353379814
 31
0.0
1001
REVIT
1002
{
1070
     3
1000
923097
1002
}
  0
LINE
  5
DF
330
87
100
AcDbEntity
  8
M-PIPE
100
AcDbLine
 10
753.4906395454123
 20
2062.382611660499
 30
0.0
 11
703.6869306438168
 21
2044.255544064259
 31
0.0
1001
REVIT
1002
{
1070
     3
1000
923097
1002
}
  0
LINE
  5
E0
330
87
100
AcDbEntity
  8
M-PIPE
100
AcDbLine
 10
710.1280413565731
 20
2046.599916639316
 30
0.0
 11
707.459052092234
 21
2053.932904375854
 31
0.0
1001
REVIT
1002
{
1070
     3
1000
923097
1002
}
  0
LINE
  5
E1
330
87
100
AcDbEntity
  8
M-PIPE
100
AcDbLine
 10
703.3671729314245
 20
2052.443582159105
 30
0.0
 11
706.0361621957635
 21
2045.110594422567
 31
0.0
1001
REVIT
1002
{
1070
     3
1000
923097
1002
}
  0
LINE
  5
E2
330
87
100
AcDbEntity
  8
M-PIPE
100
AcDbLine
 10
751.1414079934873
 20
2061.527561302198
 30
0.0
 11
748.4724187291482
 21
2068.860549038737
 31
0.0
1001
REVIT
1002
{
1070
     3
1000
923097
1002
}
  0
LINE
  5
E3
330
87
100
AcDbEntity
  8
M-PIPE
100
AcDbLine
 10
744.3805395682951
 20
2067.371226821972
 30
0.0
 11
747.0495288326342
 21
2060.038239085434
 31
0.0
1001
REVIT
1002
{
1070
     3
1000
923097
1002
}
  0
LINE
  5
E4
330
87
100
AcDbEntity
  8
M-PIPE
100
AcDbLine
 10
732.6806642554737
 20
2054.808400079145
 30
0.0
 11
730.0116749911346
 21
2062.141387815684
 31
0.0
1001
REVIT
1002
{
1070
     3
1000
923097
1002
}
  0
LINE
  5
E5
330
87
100
AcDbEntity
  8
M-PIPE
100
AcDbLine
 10
721.8279166694461
 20
2059.162743382161
 30
0.0
 11
724.4969059337852
 21
2051.829755645622
 31
0.0
1001
REVIT
1002
{
1070
     3
1000
923097
1002
}
  0
SPLINE
  5
E6
330
87
100
AcDbEntity
  8
M-PIPE
100
AcDbSpline
210
0.0
220
0.0
230
1.0
 70
    24
 71
     3
 72
     9
 73
     5
 74
     0
 42
0.000000001
 43
0.0000000001
 40
-1.0
 40
-1.0
 40
-1.0
 40
-1.0
 40
-0.5
 40
0.0
 40
0.0
 40
0.0
 40
0.0
 10
703.0567136167401
 20
2053.296562115862
 30
0.0
 10
703.0584900607642
 20
2053.291681376019
 30
0.0
 10
703.1120097239026
 20
2053.144637310049
 30
0.0
 10
703.2654629372208
 20
2052.723028071515
 30
0.0
 10
703.3671729314249
 20
2052.443582159106
 30
0.0
1001
REVIT
1002
{
1070
     3
1000
923097
1002
}
  0
LINE
  5
E7
330
87
100
AcDbEntity
  8
M-PIPE
100
AcDbLine
 10
707.4590520922349
 20
2053.932904375855
 30
0.0
 11
703.3671729314249
 21
2052.443582159106
 31
0.0
1001
REVIT
1002
{
1070
     3
1000
923097
1002
}
  0
SPLINE
  5
E8
330
87
100
AcDbEntity
  8
M-PIPE
100
AcDbSpline
210
0.0
220
0.0
230
1.0
 70
     8
 71
     3
 72
     9
 73
     5
 74
     0
 42
0.000000001
 43
0.0000000001
 40
-1.0
 40
-1.0
 40
-1.0
 40
-1.0
 40
-0.5
 40
0.0
 40
0.0
 40
0.0
 40
0.0
 10
707.4590520922348
 20
2053.932904375855
 30
0.0
 10
709.6121049979536
 20
2055.360501714901
 30
0.0
 10
714.1599686665406
 20
2057.659738888333
 30
0.0
 10
719.1913480494271
 20
2058.847061052439
 30
0.0
 10
721.8279166694453
 20
2059.16274338216
 30
0.0
1001
REVIT
1002
{
1070
     3
1000
923097
1002
}
  0
LINE
  5
E9
330
87
100
AcDbEntity
  8
M-PIPE
100
AcDbLine
 10
730.0116749911374
 20
2062.141387815685
 30
0.0
 11
721.8279166694454
 21
2059.16274338216
 31
0.0
1001
REVIT
1002
{
1070
     3
1000
923097
1002
}
  0
SPLINE
  5
EA
330
87
100
AcDbEntity
  8
M-PIPE
100
AcDbSpline
210
0.0
220
0.0
230
1.0
 70
     8
 71
     3
 72
     9
 73
     5
 74
     0
 42
0.000000001
 43
0.0000000001
 40
-1.0
 40
-1.0
 40
-1.0
 40
-1.0
 40
-0.5
 40
0.0
 40
0.0
 40
0.0
 40
0.0
 10
730.0116749911373
 20
2062.141387815685
 30
0.0
 10
732.1647278968488
 20
2063.568985154724
 30
0.0
 10
736.7125915654197
 20
2065.868222328145
 30
0.0
 10
741.7439709482863
 20
2067.055544492248
 30
0.0
 10
744.3805395682935
 20
2067.371226821972
 30
0.0
1001
REVIT
1002
{
1070
     3
1000
923097
1002
}
  0
LINE
  5
EB
330
87
100
AcDbEntity
  8
M-PIPE
100
AcDbLine
 10
748.4724187291488
 20
2068.860549038737
 30
0.0
 11
744.3805395682936
 21
2067.371226821972
 31
0.0
1001
REVIT
1002
{
1070
     3
1000
923097
1002
}
  0
SPLINE
  5
EC
330
87
100
AcDbEntity
  8
M-PIPE
100
AcDbSpline
210
0.0
220
0.0
230
1.0
 70
    24
 71
     3
 72
     9
 73
     5
 74
     0
 42
0.000000001
 43
0.0000000001
 40
-1.0
 40
-1.0
 40
-1.0
 40
-1.0
 40
-0.5
 40
0.0
 40
0.0
 40
0.0
 40
0.0
 10
748.4724187291488
 20
2068.860549038737
 30
0.0
 10
748.3707087349462
 20
2069.139994951142
 30
0.0
 10
748.2172555216302
 20
2069.56160418967
 30
0.0
 10
748.1637358584928
 20
2069.708648255637
 30
0.0
 10
748.1619594144688
 20
2069.713528995481
 30
0.0
1001
REVIT
1002
{
1070
     3
1000
923097
1002
}
  0
LINE
  5
ED
330
87
100
AcDbEntity
  8
M-PIPE
100
AcDbLine
 10
747.5933803931536
 20
2069.813784817602
 30
0.0
 11
703.4278272162157
 21
2053.738838081296
 31
0.0
1001
REVIT
1002
{
1070
     3
1000
923097
1002
}
  0
LINE
  5
EE
330
87
100
AcDbEntity
  8
M-PIPE
100
AcDbLine
 10
741.1813654791575
 20
2084.506846606851
 30
0.0
 11
698.8951975437911
 21
2069.115940157196
 31
0.0
1001
REVIT
1002
{
1070
     3
1000
923097
1002
}
  0
LWPOLYLINE
  5
EF
330
87
100
AcDbEntity
  8
P-SANR-FIXT
100
AcDbPolyline
 90
        5
 70
   128
 43
0.0
 10
708.0381224959245
 20
2109.781559307115
 10
711.7494057181712
 20
2111.037295690499
 10
715.5079363715746
 20
2112.143615873678
 10
719.3077016088663
 20
2113.098749980363
 10
721.1663802164305
 20
2113.50765888373
  0
LWPOLYLINE
  5
F0
330
87
100
AcDbEntity
  8
P-SANR-FIXT
100
AcDbPolyline
 90
        5
 70
   128
 43
0.0
 10
695.5862029809905
 20
2104.197235782777
 10
699.0770392276298
 20
2105.976156612783
 10
702.6362210371703
 20
2107.61405827861
 10
706.2580544779688
 20
2109.108320486991
 10
708.0381224959245
 20
2109.781559307115
  0
LWPOLYLINE
  5
F1
330
87
100
AcDbEntity
  8
P-SANR-FIXT
100
AcDbPolyline
 90
       32
 70
   128
 43
0.0
 10
721.1663802164305
 20
2113.50765888373
 10
721.3628864987489
 20
2113.544806534537
 10
721.5607211068235
 20
2113.574066315792
 10
721.7595675474837
 20
2113.595391418087
 10
721.9591077088426
 20
2113.608747725808
 10
722.1590223692087
 20
2113.61411387171
 10
722.3589917077714
 20
2113.611481271106
 10
722.5586958162467
 20
2113.600854135594
 10
722.7578152106624
 20
2113.582249466326
 10
722.9560313424642
 20
2113.555697026802
 10
723.1530271081247
 20
2113.521239295261
 10
723.3484873564426
 20
2113.478931396725
 10
723.5420993927167
 20
2113.428841014804
 10
723.7335534789901
 20
2113.371048283425
 10
723.9225433295668
 20
2113.30564565863
 10
724.1087666010011
 20
2113.232737770665
 10
724.2919253757847
 20
2113.152441256601
 10
724.471726638949
 20
2113.064884573729
 10
724.647882746829
 20
2112.970207794064
 10
724.82011188723
 20
2112.868562380258
 10
724.9881385302676
 20
2112.760110943288
 10
725.1516938691566
 20
2112.645026982321
 10
725.310516250245
 20
2112.523494607143
 10
725.4643515916029
 20
2112.395708243628
 10
725.612953789501
 20
2112.261872322699
 10
725.7560851121227
 20
2112.122200953279
 10
725.8935165798845
 20
2111.976917579763
 10
726.0250283317557
 20
2111.826254624559
 10
726.1504099769873
 20
2111.670453116254
 10
726.2694609316936
 20
2111.509762304025
 10
726.3819907397433
 20
2111.344439258894
 10
726.4357059471282
 20
2111.260199334091
  0
LWPOLYLINE
  5
F2
330
87
100
AcDbEntity
  8
P-SANR-FIXT
100
AcDbPolyline
 90
       32
 70
   128
 43
0.0
 10
692.994304437786
 20
2099.088524592545
 10
692.9702679648963
 20
2099.287061528459
 10
692.9541900784999
 20
2099.486400858547
 10
692.9460964997852
 20
2099.686223682406
 10
692.9460001767519
 20
2099.886210326142
 10
692.9539012634956
 20
2100.086040853789
 10
692.9697871199635
 20
2100.285395579128
 10
692.9936323321738
 20
2100.483955577129
 10
693.025398752874
 20
2100.681403194149
 10
693.0650355625673
 20
2100.877422556123
 10
693.1124793508135
 20
2101.071700073885
 10
693.1676542176723
 20
2101.263924944852
 10
693.2304718951265
 20
2101.453789650236
 10
693.3008318882928
 20
2101.640990447009
 10
693.3786216361916
 20
2101.825227853832
 10
693.46371669182
 20
2102.006207130156
 10
693.5559809212423
 20
2102.183638747745
 10
693.655266721373
 20
2102.357238853861
 10
693.7614152561119
 20
2102.526729725367
 10
693.874256710447
 20
2102.691840213025
 10
693.9936105621234
 20
2102.852306175276
 10
694.1192858704387
 20
2103.007870900811
 10
694.251081581709
 20
2103.158285519256
 10
694.3887868509114
 20
2103.303309399307
 10
694.5321813789904
 20
2103.442710533693
 10
694.6810357652906
 20
2103.576265910336
 10
694.8351118745478
 20
2103.703761869124
 10
694.9941632178551
 20
2103.824994443721
 10
695.1579353469919
 20
2103.939769687868
 10
695.3261662614879
 20
2104.04790398566
 10
695.4985868277677
 20
2104.149224345286
 10
695.5862029809905
 20
2104.197235782777
  0
LWPOLYLINE
  5
F3
330
87
100
AcDbEntity
  8
P-SANR-FIXT
100
AcDbPolyline
 90
        3
 70
   128
 43
0.0
 10
726.435705947127
 20
2111.260199334092
 10
732.7115448555905
 20
2100.734503123963
 10
735.5012111933511
 20
2095.727235645876
  0
LWPOLYLINE
  5
F4
330
87
100
AcDbEntity
  8
P-SANR-FIXT
100
AcDbPolyline
 90
        3
 70
   128
 43
0.0
 10
696.0341211203458
 20
2081.362389626199
 10
693.8499423113768
 20
2093.420822262464
 10
692.994304437786
 20
2099.088524592547
  0
LINE
  5
F5
330
87
100
AcDbEntity
  8
P-SANR-FIXT
100
AcDbLine
 10
735.4403792597397
 20
2095.705094632748
 30
0.0
 11
735.4288068711476
 21
2095.700882627761
 31
0.0
  0
LINE
  5
F6
330
87
100
AcDbEntity
  8
P-SANR-FIXT
100
AcDbLine
 10
735.2582585080097
 20
2095.638808100076
 30
0.0
 11
735.2039400324531
 21
2095.619037791803
 31
0.0
  0
LINE
  5
F7
330
87
100
AcDbEntity
  8
P-SANR-FIXT
100
AcDbLine
 10
734.6477804842759
 20
2095.416612270764
 30
0.0
 11
734.1764254690813
 21
2095.24505307546
 31
0.0
  0
LINE
  5
F8
330
87
100
AcDbEntity
  8
P-SANR-FIXT
100
AcDbLine
 10
733.6079913388481
 20
2095.038159971915
 30
0.0
 11
732.9482327085064
 21
2094.798027468669
 31
0.0
  0
LINE
  5
F9
330
87
100
AcDbEntity
  8
P-SANR-FIXT
100
AcDbLine
 10
732.5932792400593
 20
2094.668834971606
 30
0.0
 11
732.2026400093408
 21
2094.526653919287
 31
0.0
  0
LINE
  5
FA
330
87
100
AcDbEntity
  8
P-SANR-FIXT
100
AcDbLine
 10
731.3744519036149
 20
2094.22521810043
 30
0.0
 11
730.7731715250404
 21
2094.00636994018
 31
0.0
  0
LINE
  5
FB
330
87
100
AcDbEntity
  8
P-SANR-FIXT
100
AcDbLine
 10
730.4664290681635
 20
2093.894724816292
 30
0.0
 11
729.7213896690081
 21
2093.623552651644
 31
0.0
  0
LINE
  5
FC
330
87
100
AcDbEntity
  8
P-SANR-FIXT
100
AcDbLine
 10
729.4809270062329
 20
2093.536031399941
 30
0.0
 11
728.473328173197
 21
2093.169295416635
 31
0.0
  0
LINE
  5
FD
330
87
100
AcDbEntity
  8
P-SANR-FIXT
100
AcDbLine
 10
728.4199721760414
 20
2093.14987542185
 30
0.0
 11
727.3667529047525
 21
2092.766534956945
 31
0.0
  0
LINE
  5
FE
330
87
100
AcDbEntity
  8
P-SANR-FIXT
100
AcDbLine
 10
727.2889375840698
 20
2092.738212496447
 30
0.0
 11
726.0967827155452
 21
2092.304303609669
 31
0.0
  0
LINE
  5
FF
330
87
100
AcDbEntity
  8
P-SANR-FIXT
100
AcDbLine
 10
726.0784151151771
 20
2092.29761834986
 30
0.0
 11
724.8520199762711
 21
2091.851247023849
 31
0.0
  0
LINE
  5
100
330
87
100
AcDbEntity
  8
P-SANR-FIXT
100
AcDbLine
 10
724.7265081296015
 20
2091.805564447614
 30
0.0
 11
723.5565849064709
 21
2091.379747218017
 31
0.0
  0
LINE
  5
101
330
87
100
AcDbEntity
  8
P-SANR-FIXT
100
AcDbLine
 10
723.3193669041468
 20
2091.29340692614
 30
0.0
 11
722.2172999319681
 21
2090.892287352099
 31
0.0
  0
LINE
  5
102
330
87
100
AcDbEntity
  8
P-SANR-FIXT
100
AcDbLine
 10
721.8656669323896
 20
2090.764303406866
 30
0.0
 11
710.6274769375586
 21
2086.673936761719
 31
0.0
  0
LINE
  5
103
330
87
100
AcDbEntity
  8
P-SANR-FIXT
100
AcDbLine
 10
710.6192055432636
 20
2086.670926220401
 30
0.0
 11
709.6696653813041
 21
2086.325321865206
 31
0.0
  0
LINE
  5
104
330
87
100
AcDbEntity
  8
P-SANR-FIXT
100
AcDbLine
 10
709.2404570130191
 20
2086.169102794853
 30
0.0
 11
708.2159654095469
 21
2085.796218345933
 31
0.0
  0
LINE
  5
105
330
87
100
AcDbEntity
  8
P-SANR-FIXT
100
AcDbLine
 10
707.9003302266731
 20
2085.68133653448
 30
0.0
 11
706.8088241840921
 21
2085.284060824459
 31
0.0
  0
LINE
  5
106
330
87
100
AcDbEntity
  8
P-SANR-FIXT
100
AcDbLine
 10
706.6058337777461
 20
2085.210178358707
 30
0.0
 11
705.4569171985167
 21
2084.792006922214
 31
0.0
  0
LINE
  5
107
330
87
100
AcDbEntity
  8
P-SANR-FIXT
100
AcDbLine
 10
705.3636626840191
 20
2084.758065054725
 30
0.0
 11
704.1795258062969
 21
2084.327074477937
 31
0.0
  0
LINE
  5
108
330
87
100
AcDbEntity
  8
P-SANR-FIXT
100
AcDbLine
 10
704.1685794089413
 20
2084.323090315128
 30
0.0
 11
703.0542022670601
 21
2083.917490205736
 31
0.0
  0
LINE
  5
109
330
87
100
AcDbEntity
  8
P-SANR-FIXT
100
AcDbLine
 10
702.9517538462545
 20
2083.880202030015
 30
0.0
 11
702.0006351911371
 21
2083.534023150297
 31
0.0
  0
LINE
  5
10A
330
87
100
AcDbEntity
  8
P-SANR-FIXT
100
AcDbLine
 10
701.8139426446857
 20
2083.46607262043
 30
0.0
 11
701.0239092226832
 21
2083.178523970745
 31
0.0
  0
LINE
  5
10B
330
87
100
AcDbEntity
  8
P-SANR-FIXT
100
AcDbLine
 10
700.7621607886534
 20
2083.083255331892
 30
0.0
 11
700.1248291630839
 21
2082.851285590828
 31
0.0
  0
LINE
  5
10C
330
87
100
AcDbEntity
  8
P-SANR-FIXT
100
AcDbLine
 10
699.3047547535638
 20
2082.55280291588
 30
0.0
 11
698.5657030684657
 21
2082.28381010092
 31
0.0
  0
LINE
  5
10D
330
87
100
AcDbEntity
  8
P-SANR-FIXT
100
AcDbLine
 10
698.1849487839581
 20
2082.14522687479
 30
0.0
 11
697.9104503934826
 21
2082.045317631303
 31
0.0
  0
LINE
  5
10E
330
87
100
AcDbEntity
  8
P-SANR-FIXT
100
AcDbLine
 10
697.5362477937324
 20
2081.909119023409
 30
0.0
 11
697.3448734883112
 21
2081.839464472632
 31
0.0
  0
LINE
  5
10F
330
87
100
AcDbEntity
  8
P-SANR-FIXT
100
AcDbLine
 10
696.8753318009303
 20
2081.668565274678
 30
0.0
 11
696.5793605405389
 21
2081.560840545698
 31
0.0
  0
SPLINE
  5
110
330
87
100
AcDbEntity
  8
P-SANR-FIXT
100
AcDbSpline
210
0.0
220
0.0
230
1.0
 70
     8
 71
     3
 72
    23
 73
    19
 74
     0
 42
0.000000001
 43
0.0000000001
 40
0.0
 40
0.0
 40
0.0
 40
0.0
 40
0.0833333333333333
 40
0.125
 40
0.1666666666666666
 40
0.25
 40
0.2916666666666666
 40
0.3333333333333333
 40
0.4166666666666666
 40
0.5
 40
0.5833333333333333
 40
0.6666666666666666
 40
0.7083333333333333
 40
0.75
 40
0.8333333333333332
 40
0.875
 40
0.9166666666666666
 40
1.0
 40
1.0
 40
1.0
 40
1.0
 10
696.9113490109966
 20
2100.514212223489
 30
0.0
 10
696.8297566209862
 20
2100.7221123514
 30
0.0
 10
696.7125017873163
 20
2101.008445061003
 30
0.0
 10
696.5594518825379
 20
2101.337149938336
 30
0.0
 10
696.4069282993463
 20
2101.628526604315
 30
0.0
 10
696.2440869720385
 20
2101.867908974652
 30
0.0
 10
696.0668753863188
 20
2102.043992757873
 30
0.0
 10
695.8871800923756
 20
2102.173341599257
 30
0.0
 10
695.6439459904232
 20
2102.242564561064
 30
0.0
 10
695.3272551799263
 20
2102.19056972342
 30
0.0
 10
694.9999225563296
 20
2102.009661732449
 30
0.0
 10
694.7285411156123
 20
2101.754251133206
 30
0.0
 10
694.5321544874017
 20
2101.490049470927
 30
0.0
 10
694.3409327165264
 20
2101.18265624322
 30
0.0
 10
694.1810748829342
 20
2100.827571642109
 30
0.0
 10
694.0781158028751
 20
2100.441903683046
 30
0.0
 10
694.0059870908537
 20
2100.028999732684
 30
0.0
 10
693.9912379316383
 20
2099.691577271006
 30
0.0
 10
693.999951742824
 20
2099.454550277751
 30
0.0
  0
SPLINE
  5
111
330
87
100
AcDbEntity
  8
P-SANR-FIXT
100
AcDbSpline
210
0.0
220
0.0
230
1.0
 70
     8
 71
     3
 72
    23
 73
    19
 74
     0
 42
0.000000001
 43
0.0000000001
 40
0.0
 40
0.0
 40
0.0
 40
0.0
 40
0.0833333333333333
 40
0.125
 40
0.1666666666666666
 40
0.25
 40
0.2916666666666666
 40
0.3333333333333333
 40
0.4166666666666666
 40
0.5
 40
0.5833333333333333
 40
0.6666666666666666
 40
0.7083333333333333
 40
0.75
 40
0.8333333333333332
 40
0.875
 40
0.9166666666666666
 40
1.0
 40
1.0
 40
1.0
 40
1.0
 10
712.6264024606276
 20
2106.234023909058
 30
0.0
 10
712.4779430139961
 20
2106.417586418706
 30
0.0
 10
712.2411699846732
 20
2106.660418062637
 30
0.0
 10
711.893397661402
 20
2106.918249775694
 30
0.0
 10
711.5270199577994
 20
2107.131789907369
 30
0.0
 10
711.1092871370449
 20
2107.278399361123
 30
0.0
 10
710.6637959506367
 20
2107.356837355233
 30
0.0
 10
710.2247061464817
 20
2107.391774315968
 30
0.0
 10
709.6548469621649
 20
2107.342115470029
 30
0.0
 10
708.9873061571095
 20
2107.162421677674
 30
0.0
 10
708.367809655802
 20
2106.875174731688
 30
0.0
 10
707.9060086674279
 20
2106.550457085076
 30
0.0
 10
707.5923239831182
 20
2106.24356242184
 30
0.0
 10
707.30080923356
 20
2105.899665535186
 30
0.0
 10
707.0734346729689
 20
2105.520006855133
 30
0.0
 10
706.928909382087
 20
2105.119210032579
 30
0.0
 10
706.8267814395187
 20
2104.695387255247
 30
0.0
 10
706.8002507049921
 20
2104.353676650842
 30
0.0
 10
706.8036079242818
 20
2104.11470001758
 30
0.0
  0
SPLINE
  5
112
330
87
100
AcDbEntity
  8
P-SANR-FIXT
100
AcDbSpline
210
0.0
220
0.0
230
1.0
 70
     8
 71
     3
 72
    23
 73
    19
 74
     0
 42
0.000000001
 43
0.0000000001
 40
0.0
 40
0.0
 40
0.0
 40
0.0
 40
0.0833333333333333
 40
0.125
 40
0.1666666666666666
 40
0.25
 40
0.2916666666666666
 40
0.3333333333333333
 40
0.4166666666666666
 40
0.5
 40
0.5833333333333333
 40
0.6666666666666666
 40
0.7083333333333333
 40
0.75
 40
0.8333333333333332
 40
0.875
 40
0.9166666666666666
 40
1.0
 40
1.0
 40
1.0
 40
1.0
 10
725.4300586420854
 20
2110.894173648887
 30
0.0
 10
725.2868292758064
 20
2111.079639752106
 30
0.0
 10
725.0615693112091
 20
2111.326661808903
 30
0.0
 10
724.7432997436686
 20
2111.595231646875
 30
0.0
 10
724.4179570980142
 20
2111.823707318204
 30
0.0
 10
724.0670807770456
 20
2111.994650547848
 30
0.0
 10
723.721479121685
 20
2112.109445357974
 30
0.0
 10
723.3994923389071
 20
2112.187004332833
 30
0.0
 10
723.0221664405775
 20
2112.207421872098
 30
0.0
 10
722.6509814772571
 20
2112.135592784886
 30
0.0
 10
722.3786696639717
 20
2111.974710731132
 30
0.0
 10
722.2385919025579
 20
2111.767090762806
 30
0.0
 10
722.1832337524607
 20
2111.554219268745
 30
0.0
 10
722.1593663548673
 20
2111.307738051487
 30
0.0
 10
722.1872718046208
 20
2111.020993696602
 30
0.0
 10
722.2576129621118
 20
2110.698401865598
 30
0.0
 10
722.3518810467127
 20
2110.346061396283
 30
0.0
 10
722.4468196363212
 20
2110.04856201024
 30
0.0
 10
722.5186613739122
 20
2109.834511703147
 30
0.0
  0
SPLINE
  5
113
330
87
100
AcDbEntity
  8
P-SANR-FIXT
100
AcDbSpline
210
0.0
220
0.0
230
1.0
 70
     8
 71
     3
 72
     9
 73
     5
 74
     0
 42
0.000000001
 43
0.0000000001
 40
0.0
 40
0.0
 40
0.0
 40
0.0
 40
0.5
 40
1.0
 40
1.0
 40
1.0
 40
1.0
 10
732.6866763213203
 20
2099.544744257095
 30
0.0
 10
731.5820833460175
 20
2101.517250139138
 30
0.0
 10
729.2412144660397
 20
2105.371558761952
 30
0.0
 10
726.7044634050383
 20
2109.069023152213
 30
0.0
 10
725.4300586420854
 20
2110.894173648887
 30
0.0
  0
LINE
  5
114
330
87
100
AcDbEntity
  8
P-SANR-FIXT
100
AcDbLine
 10
727.4889613339524
 20
2097.652930715495
 30
0.0
 11
732.6866763213193
 21
2099.544744257096
 31
0.0
  0
SPLINE
  5
115
330
87
100
AcDbEntity
  8
P-SANR-FIXT
100
AcDbSpline
210
0.0
220
0.0
230
1.0
 70
     8
 71
     3
 72
     9
 73
     5
 74
     0
 42
0.000000001
 43
0.0000000001
 40
0.0
 40
0.0
 40
0.0
 40
0.0
 40
0.5
 40
1.0
 40
1.0
 40
1.0
 40
1.0
 10
722.5186613739122
 20
2109.834511703147
 30
0.0
 10
723.2121926722905
 20
2107.797940555494
 30
0.0
 10
724.8121426728252
 20
2103.759508463794
 30
0.0
 10
726.5955722296624
 20
2099.702308519947
 30
0.0
 10
727.4889613339535
 20
2097.652930715494
 30
0.0
  0
SPLINE
  5
116
330
87
100
AcDbEntity
  8
P-SANR-FIXT
100
AcDbSpline
210
0.0
220
0.0
230
1.0
 70
     8
 71
     3
 72
     9
 73
     5
 74
     0
 42
0.000000001
 43
0.0000000001
 40
0.0
 40
0.0
 40
0.0
 40
0.0
 40
0.5
 40
1.0
 40
1.0
 40
1.0
 40
1.0
 10
719.4092194899582
 20
2094.712145183724
 30
0.0
 10
718.4348516161089
 20
2096.732049126451
 30
0.0
 10
716.3648317384412
 20
2100.684938724087
 30
0.0
 10
713.9429450257434
 20
2104.424210318109
 30
0.0
 10
712.6264024606276
 20
2106.234023909058
 30
0.0
  0
LINE
  5
117
330
87
100
AcDbEntity
  8
P-SANR-FIXT
100
AcDbLine
 10
709.0137895152243
 20
2090.928518100525
 30
0.0
 11
719.4092194899575
 21
2094.712145183726
 31
0.0
  0
SPLINE
  5
118
330
87
100
AcDbEntity
  8
P-SANR-FIXT
100
AcDbSpline
210
0.0
220
0.0
230
1.0
 70
     8
 71
     3
 72
     9
 73
     5
 74
     0
 42
0.000000001
 43
0.0000000001
 40
0.0
 40
0.0
 40
0.0
 40
0.0
 40
0.5
 40
1.0
 40
1.0
 40
1.0
 40
1.0
 10
706.8036079242818
 20
2104.11470001758
 30
0.0
 10
706.9584035602489
 20
2101.882045124671
 30
0.0
 10
707.5066881520129
 20
2097.460838127771
 30
0.0
 10
708.4618293833991
 20
2093.102165888069
 30
0.0
 10
709.0137895152246
 20
2090.928518100523
 30
0.0
  0
SPLINE
  5
119
330
87
100
AcDbEntity
  8
P-SANR-FIXT
100
AcDbSpline
210
0.0
220
0.0
230
1.0
 70
     8
 71
     3
 72
     9
 73
     5
 74
     0
 42
0.000000001
 43
0.0000000001
 40
0.0
 40
0.0
 40
0.0
 40
0.0
 40
0.5
 40
1.0
 40
1.0
 40
1.0
 40
1.0
 10
700.9340476712297
 20
2087.987732568754
 30
0.0
 10
700.3011087698458
 20
2090.131906494574
 30
0.0
 10
699.0593772176291
 20
2094.386268388064
 30
0.0
 10
697.6891559137014
 20
2098.508314887286
 30
0.0
 10
696.9113490109966
 20
2100.514212223489
 30
0.0
  0
LINE
  5
11A
330
87
100
AcDbEntity
  8
P-SANR-FIXT
100
AcDbLine
 10
695.7363326838628
 20
2086.095919027155
 30
0.0
 11
700.9340476712293
 21
2087.987732568756
 31
0.0
  0
SPLINE
  5
11B
330
87
100
AcDbEntity
  8
P-SANR-FIXT
100
AcDbSpline
210
0.0
220
0.0
230
1.0
 70
     8
 71
     3
 72
     9
 73
     5
 74
     0
 42
0.000000001
 43
0.0000000001
 40
0.0
 40
0.0
 40
0.0
 40
0.0
 40
0.5
 40
1.0
 40
1.0
 40
1.0
 40
1.0
 10
693.999951742824
 20
2099.454550277751
 30
0.0
 10
694.1968851809543
 20
2097.237232290567
 30
0.0
 10
694.6303054244151
 20
2092.774218089906
 30
0.0
 10
695.314597653491
 20
2088.316964875383
 30
0.0
 10
695.7363326838629
 20
2086.095919027153
 30
0.0
  0
LINE
  5
11C
330
87
100
AcDbEntity
  8
P-SANR-FIXT
100
AcDbLine
 10
701.5964458833381
 20
2039.76578833873
 30
0.0
 11
708.9583113107661
 21
2019.539229311808
 31
0.0
  0
LINE
  5
11D
330
87
100
AcDbEntity
  8
P-SANR-FIXT
100
AcDbLine
 10
762.6626278732139
 20
2047.416096239028
 30
0.0
 11
757.9780031304935
 21
2060.28699693827
 31
0.0
  0
LINE
  5
11E
330
87
100
AcDbEntity
  8
P-SANR-FIXT
100
AcDbLine
 10
757.9780031304919
 20
2060.286996938269
 30
0.0
 11
701.5964458833364
 21
2039.765788338729
 31
0.0
  0
LINE
  5
11F
330
87
100
AcDbEntity
  8
P-SANR-FIXT
100
AcDbLine
 10
708.9583113107644
 20
2019.539229311806
 30
0.0
 11
764.8330022572621
 21
2039.875953665155
 31
0.0
  0
LINE
  5
120
330
87
100
AcDbEntity
  8
P-SANR-FIXT
100
AcDbLine
 10
689.5342889409934
 20
1979.643593539444
 30
0.0
 11
702.0430487548788
 21
1979.643593539444
 31
0.0
  0
LINE
  5
121
330
87
100
AcDbEntity
  8
P-SANR-FIXT
100
AcDbLine
 10
702.0430487548791
 20
2020.356406460547
 30
0.0
 11
689.5342889409928
 21
2020.356406460547
 31
0.0
  0
LINE
  5
122
330
87
100
AcDbEntity
  8
P-SANR-FIXT
100
AcDbLine
 10
702.0430487548788
 20
1979.643593539444
 30
0.0
 11
702.1440065856709
 21
1979.818457631798
 31
0.0
  0
LINE
  5
123
330
87
100
AcDbEntity
  8
P-SANR-FIXT
100
AcDbLine
 10
702.1723564713505
 20
1979.867561074184
 30
0.0
 11
703.1148455246038
 21
1981.499999999996
 31
0.0
  0
LINE
  5
124
330
87
100
AcDbEntity
  8
P-SANR-FIXT
100
AcDbLine
 10
703.1148455246038
 20
2018.499999999996
 30
0.0
 11
702.1723564713511
 21
2020.132438925807
 31
0.0
  0
LINE
  5
125
330
87
100
AcDbEntity
  8
P-SANR-FIXT
100
AcDbLine
 10
702.1440065856713
 20
2020.181542368193
 30
0.0
 11
702.0430487548791
 21
2020.356406460547
 31
0.0
  0
LINE
  5
126
330
87
100
AcDbEntity
  8
P-SANR-FIXT
100
AcDbLine
 10
687.1148455246038
 20
1983.834192462669
 30
0.0
 11
689.4049812245214
 21
1979.867561074184
 31
0.0
  0
LINE
  5
127
330
87
100
AcDbEntity
  8
P-SANR-FIXT
100
AcDbLine
 10
689.4333552103453
 20
1979.818415889124
 30
0.0
 11
689.5342889409934
 21
1979.643593539444
 31
0.0
  0
LINE
  5
128
330
87
100
AcDbEntity
  8
P-SANR-FIXT
100
AcDbLine
 10
689.5342889409928
 20
2020.356406460547
 30
0.0
 11
689.4333552103448
 21
2020.181584110867
 31
0.0
  0
LINE
  5
129
330
87
100
AcDbEntity
  8
P-SANR-FIXT
100
AcDbLine
 10
689.404981224521
 20
2020.132438925807
 30
0.0
 11
687.1148455246038
 21
2016.165807537323
 31
0.0
  0
LINE
  5
12A
330
87
100
AcDbEntity
  8
P-SANR-FIXT
100
AcDbLine
 10
687.1148455246022
 20
1983.834192462668
 30
0.0
 11
687.1148455246022
 21
2016.165807537322
 31
0.0
  0
LINE
  5
12B
330
87
100
AcDbEntity
  8
P-SANR-FIXT
100
AcDbLine
 10
703.114845524602
 20
2018.499999999995
 30
0.0
 11
703.114845524602
 21
2016.021469970008
 31
0.0
  0
LINE
  5
12C
330
87
100
AcDbEntity
  8
P-SANR-FIXT
100
AcDbLine
 10
703.114845524602
 20
2016.021469970008
 30
0.0
 11
703.1148455246019
 21
1999.999999999994
 31
0.0
  0
LINE
  5
12D
330
87
100
AcDbEntity
  8
P-SANR-FIXT
100
AcDbLine
 10
703.1148455246019
 20
1999.999999999995
 30
0.0
 11
703.114845524602
 21
1983.978530029983
 31
0.0
  0
LINE
  5
12E
330
87
100
AcDbEntity
  8
P-SANR-FIXT
100
AcDbLine
 10
703.114845524602
 20
1983.978530029983
 30
0.0
 11
703.114845524602
 21
1981.499999999995
 31
0.0
  0
SPLINE
  5
12F
330
87
100
AcDbEntity
  8
P-SANR-FIXT
100
AcDbSpline
210
0.0
220
0.0
230
1.0
 70
     8
 71
     3
 72
    10
 73
     6
 74
     0
 42
0.000000001
 43
0.0000000001
 40
0.0
 40
0.0
 40
0.0
 40
0.0
 40
0.4
 40
0.7
 40
1.0
 40
1.0
 40
1.0
 40
1.0
 10
702.3904174306274
 20
2006.928203230271
 30
0.0
 10
702.2074167106893
 20
2007.825000873123
 30
0.0
 10
702.0097808457741
 20
2009.415480845574
 30
0.0
 10
702.0585241737769
 20
2011.361627586659
 30
0.0
 10
702.2533719617449
 20
2012.221763188813
 30
0.0
 10
702.3904174306331
 20
2012.557368354869
 30
0.0
  0
SPLINE
  5
130
330
87
100
AcDbEntity
  8
P-SANR-FIXT
100
AcDbSpline
210
0.0
220
0.0
230
1.0
 70
     8
 71
     3
 72
    10
 73
     6
 74
     0
 42
0.000000001
 43
0.0000000001
 40
0.0
 40
0.0
 40
0.0
 40
0.0
 40
0.4
 40
0.7
 40
1.0
 40
1.0
 40
1.0
 40
1.0
 10
689.1869202652356
 20
2012.557368354869
 30
0.0
 10
689.3696475570866
 20
2012.109894800128
 30
0.0
 10
689.5674386909708
 20
2011.027776283853
 30
0.0
 10
689.5190373040382
 20
2008.958318811412
 30
0.0
 10
689.3241708051947
 20
2007.60080146241
 30
0.0
 10
689.1869202652412
 20
2006.928203230271
 30
0.0
  0
SPLINE
  5
131
330
87
100
AcDbEntity
  8
P-SANR-FIXT
100
AcDbSpline
210
0.0
220
0.0
230
1.0
 70
     8
 71
     3
 72
     9
 73
     5
 74
     0
 42
0.000000001
 43
0.0000000001
 40
0.0
 40
0.0
 40
0.0
 40
0.0
 40
0.5
 40
1.0
 40
1.0
 40
1.0
 40
1.0
 10
689.1869202652413
 20
2006.928203230271
 30
0.0
 10
688.7039999894486
 20
2004.58195027186
 30
0.0
 10
688.2210797136558
 20
1999.92629623669
 30
0.0
 10
688.7039999894486
 20
1995.344345964825
 30
0.0
 10
689.1869202652415
 20
1993.071796769719
 30
0.0
  0
SPLINE
  5
132
330
87
100
AcDbEntity
  8
P-SANR-FIXT
100
AcDbSpline
210
0.0
220
0.0
230
1.0
 70
     8
 71
     3
 72
     9
 73
     5
 74
     0
 42
0.000000001
 43
0.0000000001
 40
0.0
 40
0.0
 40
0.0
 40
0.0
 40
0.5
 40
1.0
 40
1.0
 40
1.0
 40
1.0
 10
702.3904174306271
 20
1993.071796769719
 30
0.0
 10
702.6276066733524
 20
1994.21459630857
 30
0.0
 10
702.9855339317402
 20
1996.5120963858
 30
0.0
 10
703.1105587360023
 20
1998.833398462087
 30
0.0
 10
703.1148455246019
 20
1999.999999999995
 30
0.0
  0
SPLINE
  5
133
330
87
100
AcDbEntity
  8
P-SANR-FIXT
100
AcDbSpline
210
0.0
220
0.0
230
1.0
 70
     8
 71
     3
 72
     9
 73
     5
 74
     0
 42
0.000000001
 43
0.0000000001
 40
0.0
 40
0.0
 40
0.0
 40
0.0
 40
0.5
 40
1.0
 40
1.0
 40
1.0
 40
1.0
 10
703.1148455246019
 20
1999.999999999995
 30
0.0
 10
703.1105587360023
 20
2001.166601537903
 30
0.0
 10
702.9855339317402
 20
2003.487903614189
 30
0.0
 10
702.6276066733526
 20
2005.785403691419
 30
0.0
 10
702.3904174306274
 20
2006.928203230271
 30
0.0
  0
SPLINE
  5
134
330
87
100
AcDbEntity
  8
P-SANR-FIXT
100
AcDbSpline
210
0.0
220
0.0
230
1.0
 70
     8
 71
     3
 72
    10
 73
     6
 74
     0
 42
0.000000001
 43
0.0000000001
 40
0.0
 40
0.0
 40
0.0
 40
0.0
 40
0.4
 40
0.7
 40
1.0
 40
1.0
 40
1.0
 40
1.0
 10
689.1869202652415
 20
1993.071796769719
 30
0.0
 10
689.3699209851794
 20
1992.174999126866
 30
0.0
 10
689.5675568500948
 20
1990.584519154415
 30
0.0
 10
689.5188135220922
 20
1988.63837241333
 30
0.0
 10
689.3239657341241
 20
1987.778236811176
 30
0.0
 10
689.1869202652359
 20
1987.44263164512
 30
0.0
  0
SPLINE
  5
135
330
87
100
AcDbEntity
  8
P-SANR-FIXT
100
AcDbSpline
210
0.0
220
0.0
230
1.0
 70
     8
 71
     3
 72
    10
 73
     6
 74
     0
 42
0.000000001
 43
0.0000000001
 40
0.0
 40
0.0
 40
0.0
 40
0.0
 40
0.4
 40
0.7
 40
1.0
 40
1.0
 40
1.0
 40
1.0
 10
702.390417430633
 20
1987.44263164512
 30
0.0
 10
702.207690138782
 20
1987.890105199861
 30
0.0
 10
702.0098990048977
 20
1988.972223716135
 30
0.0
 10
702.0583003918304
 20
1991.041681188577
 30
0.0
 10
702.2531668906736
 20
1992.399198537579
 30
0.0
 10
702.3904174306271
 20
1993.071796769719
 30
0.0
  0
SPLINE
  5
136
330
87
100
AcDbEntity
  8
P-SANR-FIXT
100
AcDbSpline
210
0.0
220
0.0
230
1.0
 70
     8
 71
     3
 72
     9
 73
     5
 74
     0
 42
0.000000001
 43
0.0000000001
 40
0.0
 40
0.0
 40
0.0
 40
0.0
 40
0.5
 40
1.0
 40
1.0
 40
1.0
 40
1.0
 10
689.1869202652359
 20
1987.44263164512
 30
0.0
 10
688.703999989439
 20
1986.269505165915
 30
0.0
 10
688.2210797136385
 20
1983.94167814833
 30
0.0
 10
688.7039999894251
 20
1981.650703012397
 30
0.0
 10
689.1869202652152
 20
1980.514428414844
 30
0.0
  0
SPLINE
  5
137
330
87
100
AcDbEntity
  8
P-SANR-FIXT
100
AcDbSpline
210
0.0
220
0.0
230
1.0
 70
     8
 71
     3
 72
     9
 73
     5
 74
     0
 42
0.000000001
 43
0.0000000001
 40
0.0
 40
0.0
 40
0.0
 40
0.0
 40
0.5
 40
1.0
 40
1.0
 40
1.0
 40
1.0
 10
702.3904174306537
 20
1980.514428414844
 30
0.0
 10
702.6276066733787
 20
1981.085828184265
 30
0.0
 10
702.9855339317617
 20
1982.234578222872
 30
0.0
 10
703.110558736011
 20
1983.395229261007
 30
0.0
 10
703.114845524602
 20
1983.978530029957
 30
0.0
  0
SPLINE
  5
138
330
87
100
AcDbEntity
  8
P-SANR-FIXT
100
AcDbSpline
210
0.0
220
0.0
230
1.0
 70
     8
 71
     3
 72
     9
 73
     5
 74
     0
 42
0.000000001
 43
0.0000000001
 40
0.0
 40
0.0
 40
0.0
 40
0.0
 40
0.5
 40
1.0
 40
1.0
 40
1.0
 40
1.0
 10
703.114845524602
 20
1983.978530029957
 30
0.0
 10
703.1105587360107
 20
1984.561830798915
 30
0.0
 10
702.9855339317578
 20
1985.722481837067
 30
0.0
 10
702.6276066733646
 20
1986.87123187569
 30
0.0
 10
702.390417430633
 20
1987.44263164512
 30
0.0
  0
SPLINE
  5
139
330
87
100
AcDbEntity
  8
P-SANR-FIXT
100
AcDbSpline
210
0.0
220
0.0
230
1.0
 70
     8
 71
     3
 72
     9
 73
     5
 74
     0
 42
0.000000001
 43
0.0000000001
 40
0.0
 40
0.0
 40
0.0
 40
0.0
 40
0.5
 40
1.0
 40
1.0
 40
1.0
 40
1.0
 10
689.1869202652152
 20
1980.514428414844
 30
0.0
 10
689.3017042163348
 20
1980.234004593109
 30
0.0
 10
689.4743829467504
 20
1979.796323082092
 30
0.0
 10
689.533283333519
 20
1979.643593539438
 30
0.0
 10
689.5342889409917
 20
1979.643593539443
 30
0.0
  0
SPLINE
  5
13A
330
87
100
AcDbEntity
  8
P-SANR-FIXT
100
AcDbSpline
210
0.0
220
0.0
230
1.0
 70
     8
 71
     3
 72
     9
 73
     5
 74
     0
 42
0.000000001
 43
0.0000000001
 40
0.0
 40
0.0
 40
0.0
 40
0.0
 40
0.5
 40
1.0
 40
1.0
 40
1.0
 40
1.0
 10
702.0430487548771
 20
1979.643593539443
 30
0.0
 10
702.0440543623497
 20
1979.643593539438
 30
0.0
 10
702.1029547491183
 20
1979.796323082092
 30
0.0
 10
702.275633479534
 20
1980.234004593109
 30
0.0
 10
702.3904174306537
 20
1980.514428414844
 30
0.0
  0
SPLINE
  5
13B
330
87
100
AcDbEntity
  8
P-SANR-FIXT
100
AcDbSpline
210
0.0
220
0.0
230
1.0
 70
     8
 71
     3
 72
     9
 73
     5
 74
     0
 42
0.000000001
 43
0.0000000001
 40
0.0
 40
0.0
 40
0.0
 40
0.0
 40
0.5
 40
1.0
 40
1.0
 40
1.0
 40
1.0
 10
689.5342889409914
 20
2020.356406460546
 30
0.0
 10
689.5332833335186
 20
2020.356406460551
 30
0.0
 10
689.47438294675
 20
2020.203676917897
 30
0.0
 10
689.3017042163344
 20
2019.76599540688
 30
0.0
 10
689.1869202652149
 20
2019.485571585144
 30
0.0
  0
SPLINE
  5
13C
330
87
100
AcDbEntity
  8
P-SANR-FIXT
100
AcDbSpline
210
0.0
220
0.0
230
1.0
 70
     8
 71
     3
 72
     9
 73
     5
 74
     0
 42
0.000000001
 43
0.0000000001
 40
0.0
 40
0.0
 40
0.0
 40
0.0
 40
0.5
 40
1.0
 40
1.0
 40
1.0
 40
1.0
 10
702.3904174306541
 20
2019.485571585144
 30
0.0
 10
702.2756334795344
 20
2019.76599540688
 30
0.0
 10
702.1029547491188
 20
2020.203676917897
 30
0.0
 10
702.04405436235
 20
2020.356406460551
 30
0.0
 10
702.0430487548775
 20
2020.356406460546
 30
0.0
  0
SPLINE
  5
13D
330
87
100
AcDbEntity
  8
P-SANR-FIXT
100
AcDbSpline
210
0.0
220
0.0
230
1.0
 70
     8
 71
     3
 72
     9
 73
     5
 74
     0
 42
0.000000001
 43
0.0000000001
 40
0.0
 40
0.0
 40
0.0
 40
0.0
 40
0.5
 40
1.0
 40
1.0
 40
1.0
 40
1.0
 10
689.1869202652149
 20
2019.485571585144
 30
0.0
 10
688.7039999894248
 20
2018.312445105939
 30
0.0
 10
688.2210797136383
 20
2015.984618088355
 30
0.0
 10
688.7039999894388
 20
2013.693642952422
 30
0.0
 10
689.1869202652356
 20
2012.557368354869
 30
0.0
  0
SPLINE
  5
13E
330
87
100
AcDbEntity
  8
P-SANR-FIXT
100
AcDbSpline
210
0.0
220
0.0
230
1.0
 70
     8
 71
     3
 72
     9
 73
     5
 74
     0
 42
0.000000001
 43
0.0000000001
 40
0.0
 40
0.0
 40
0.0
 40
0.0
 40
0.5
 40
1.0
 40
1.0
 40
1.0
 40
1.0
 10
702.3904174306331
 20
2012.557368354869
 30
0.0
 10
702.6276066733649
 20
2013.128768124298
 30
0.0
 10
702.9855339317582
 20
2014.277518162922
 30
0.0
 10
703.1105587360108
 20
2015.438169201074
 30
0.0
 10
703.114845524602
 20
2016.021469970033
 30
0.0
  0
SPLINE
  5
13F
330
87
100
AcDbEntity
  8
P-SANR-FIXT
100
AcDbSpline
210
0.0
220
0.0
230
1.0
 70
     8
 71
     3
 72
     9
 73
     5
 74
     0
 42
0.000000001
 43
0.0000000001
 40
0.0
 40
0.0
 40
0.0
 40
0.0
 40
0.5
 40
1.0
 40
1.0
 40
1.0
 40
1.0
 10
703.114845524602
 20
2016.021469970033
 30
0.0
 10
703.1105587360111
 20
2016.604770738982
 30
0.0
 10
702.9855339317622
 20
2017.765421777117
 30
0.0
 10
702.6276066733792
 20
2018.914171815724
 30
0.0
 10
702.3904174306541
 20
2019.485571585144
 30
0.0
  0
LINE
  5
140
330
87
100
AcDbEntity
  8
P-SANR-FIXT
100
AcDbLine
 10
781.1866422943253
 20
1979.643593539444
 30
0.0
 11
793.6954021082105
 21
1979.643593539444
 31
0.0
  0
LINE
  5
141
330
87
100
AcDbEntity
  8
P-SANR-FIXT
100
AcDbLine
 10
793.6954021082112
 20
2020.356406460547
 30
0.0
 11
781.1866422943247
 21
2020.356406460547
 31
0.0
  0
LINE
  5
142
330
87
100
AcDbEntity
  8
P-SANR-FIXT
100
AcDbLine
 10
780.1148455246002
 20
1981.499999999996
 30
0.0
 11
781.0573345778536
 21
1979.867561074184
 31
0.0
  0
LINE
  5
143
330
87
100
AcDbEntity
  8
P-SANR-FIXT
100
AcDbLine
 10
781.085684463533
 20
1979.818457631798
 30
0.0
 11
781.1866422943253
 21
1979.643593539444
 31
0.0
  0
LINE
  5
144
330
87
100
AcDbEntity
  8
P-SANR-FIXT
100
AcDbLine
 10
781.1866422943247
 20
2020.356406460547
 30
0.0
 11
781.0856844635326
 21
2020.181542368193
 31
0.0
  0
LINE
  5
145
330
87
100
AcDbEntity
  8
P-SANR-FIXT
100
AcDbLine
 10
781.057334577853
 20
2020.132438925807
 30
0.0
 11
780.1148455246002
 21
2018.499999999996
 31
0.0
  0
LINE
  5
146
330
87
100
AcDbEntity
  8
P-SANR-FIXT
100
AcDbLine
 10
796.1148455246001
 20
2016.165807537323
 30
0.0
 11
793.8247098246829
 21
2020.132438925807
 31
0.0
  0
LINE
  5
147
330
87
100
AcDbEntity
  8
P-SANR-FIXT
100
AcDbLine
 10
793.796335838859
 20
2020.181584110867
 30
0.0
 11
793.6954021082112
 21
2020.356406460547
 31
0.0
  0
LINE
  5
148
330
87
100
AcDbEntity
  8
P-SANR-FIXT
100
AcDbLine
 10
793.6954021082105
 20
1979.643593539444
 30
0.0
 11
793.7963358388588
 21
1979.818415889124
 31
0.0
  0
LINE
  5
149
330
87
100
AcDbEntity
  8
P-SANR-FIXT
100
AcDbLine
 10
793.8247098246825
 20
1979.867561074184
 30
0.0
 11
796.1148455246001
 21
1983.834192462669
 31
0.0
  0
LINE
  5
14A
330
87
100
AcDbEntity
  8
P-SANR-FIXT
100
AcDbLine
 10
796.1148455245985
 20
2016.165807537322
 30
0.0
 11
796.1148455245985
 21
1983.834192462668
 31
0.0
  0
LINE
  5
14B
330
87
100
AcDbEntity
  8
P-SANR-FIXT
100
AcDbLine
 10
780.1148455245985
 20
1981.499999999995
 30
0.0
 11
780.1148455245985
 21
1983.978530029983
 31
0.0
  0
LINE
  5
14C
330
87
100
AcDbEntity
  8
P-SANR-FIXT
100
AcDbLine
 10
780.1148455245985
 20
1983.978530029983
 30
0.0
 11
780.1148455245983
 21
1999.999999999994
 31
0.0
  0
LINE
  5
14D
330
87
100
AcDbEntity
  8
P-SANR-FIXT
100
AcDbLine
 10
780.1148455245983
 20
1999.999999999994
 30
0.0
 11
780.1148455245985
 21
2016.021469970008
 31
0.0
  0
LINE
  5
14E
330
87
100
AcDbEntity
  8
P-SANR-FIXT
100
AcDbLine
 10
780.1148455245985
 20
2016.021469970008
 30
0.0
 11
780.1148455245985
 21
2018.499999999995
 31
0.0
  0
SPLINE
  5
14F
330
87
100
AcDbEntity
  8
P-SANR-FIXT
100
AcDbSpline
210
0.0
220
0.0
230
1.0
 70
     8
 71
     3
 72
    10
 73
     6
 74
     0
 42
0.000000001
 43
0.0000000001
 40
0.0
 40
0.0
 40
0.0
 40
0.0
 40
0.4
 40
0.7
 40
1.0
 40
1.0
 40
1.0
 40
1.0
 10
780.8392736185674
 20
2012.557368354869
 30
0.0
 10
781.0222743385069
 20
2012.108969533443
 30
0.0
 10
781.2199102034249
 20
2011.026584272348
 30
0.0
 10
781.1711668754262
 20
2008.956276915895
 30
0.0
 10
780.9763190874601
 20
2007.599413562383
 30
0.0
 10
780.8392736185731
 20
2006.928203230271
 30
0.0
  0
SPLINE
  5
150
330
87
100
AcDbEntity
  8
P-SANR-FIXT
100
AcDbSpline
210
0.0
220
0.0
230
1.0
 70
     8
 71
     3
 72
    10
 73
     6
 74
     0
 42
0.000000001
 43
0.0000000001
 40
0.0
 40
0.0
 40
0.0
 40
0.0
 40
0.4
 40
0.7
 40
1.0
 40
1.0
 40
1.0
 40
1.0
 10
794.042770783959
 20
2006.928203230271
 30
0.0
 10
793.8600434921096
 20
2007.823150339753
 30
0.0
 10
793.6622523582281
 20
2009.414129053765
 30
0.0
 10
793.7106537451649
 20
2011.359978202602
 30
0.0
 10
793.9055202440104
 20
2012.221069238799
 30
0.0
 10
794.0427707839648
 20
2012.557368354869
 30
0.0
  0
SPLINE
  5
151
330
87
100
AcDbEntity
  8
P-SANR-FIXT
100
AcDbSpline
210
0.0
220
0.0
230
1.0
 70
     8
 71
     3
 72
     9
 73
     5
 74
     0
 42
0.000000001
 43
0.0000000001
 40
0.0
 40
0.0
 40
0.0
 40
0.0
 40
0.5
 40
1.0
 40
1.0
 40
1.0
 40
1.0
 10
780.8392736185731
 20
2006.928203230271
 30
0.0
 10
780.6020843758477
 20
2005.785403691419
 30
0.0
 10
780.24415711746
 20
2003.487903614189
 30
0.0
 10
780.119132313198
 20
2001.166601537903
 30
0.0
 10
780.1148455245983
 20
1999.999999999995
 30
0.0
  0
SPLINE
  5
152
330
87
100
AcDbEntity
  8
P-SANR-FIXT
100
AcDbSpline
210
0.0
220
0.0
230
1.0
 70
     8
 71
     3
 72
     9
 73
     5
 74
     0
 42
0.000000001
 43
0.0000000001
 40
0.0
 40
0.0
 40
0.0
 40
0.0
 40
0.5
 40
1.0
 40
1.0
 40
1.0
 40
1.0
 10
780.1148455245983
 20
1999.999999999995
 30
0.0
 10
780.119132313198
 20
1998.833398462087
 30
0.0
 10
780.24415711746
 20
1996.5120963858
 30
0.0
 10
780.6020843758477
 20
1994.21459630857
 30
0.0
 10
780.8392736185732
 20
1993.071796769719
 30
0.0
  0
SPLINE
  5
153
330
87
100
AcDbEntity
  8
P-SANR-FIXT
100
AcDbSpline
210
0.0
220
0.0
230
1.0
 70
     8
 71
     3
 72
     9
 73
     5
 74
     0
 42
0.000000001
 43
0.0000000001
 40
0.0
 40
0.0
 40
0.0
 40
0.0
 40
0.5
 40
1.0
 40
1.0
 40
1.0
 40
1.0
 10
794.0427707839589
 20
1993.071796769719
 30
0.0
 10
794.5256910597517
 20
1995.344345964825
 30
0.0
 10
795.0086113355445
 20
1999.92629623669
 30
0.0
 10
794.5256910597517
 20
2004.58195027186
 30
0.0
 10
794.042770783959
 20
2006.928203230271
 30
0.0
  0
SPLINE
  5
154
330
87
100
AcDbEntity
  8
P-SANR-FIXT
100
AcDbSpline
210
0.0
220
0.0
230
1.0
 70
     8
 71
     3
 72
    10
 73
     6
 74
     0
 42
0.000000001
 43
0.0000000001
 40
0.0
 40
0.0
 40
0.0
 40
0.0
 40
0.4
 40
0.7
 40
1.0
 40
1.0
 40
1.0
 40
1.0
 10
780.8392736185732
 20
1993.071796769719
 30
0.0
 10
781.0222743385112
 20
1992.174999126866
 30
0.0
 10
781.2199102034266
 20
1990.584519154415
 30
0.0
 10
781.1711668754241
 20
1988.638372413331
 30
0.0
 10
780.9763190874559
 20
1987.778236811176
 30
0.0
 10
780.8392736185677
 20
1987.44263164512
 30
0.0
  0
SPLINE
  5
155
330
87
100
AcDbEntity
  8
P-SANR-FIXT
100
AcDbSpline
210
0.0
220
0.0
230
1.0
 70
     8
 71
     3
 72
    10
 73
     6
 74
     0
 42
0.000000001
 43
0.0000000001
 40
0.0
 40
0.0
 40
0.0
 40
0.0
 40
0.4
 40
0.7
 40
1.0
 40
1.0
 40
1.0
 40
1.0
 10
794.0427707839646
 20
1987.44263164512
 30
0.0
 10
793.8600434921137
 20
1987.890105199861
 30
0.0
 10
793.6622523582294
 20
1988.972223716136
 30
0.0
 10
793.7106537451621
 20
1991.041681188578
 30
0.0
 10
793.9055202440053
 20
1992.399198537579
 30
0.0
 10
794.0427707839589
 20
1993.071796769719
 30
0.0
  0
SPLINE
  5
156
330
87
100
AcDbEntity
  8
P-SANR-FIXT
100
AcDbSpline
210
0.0
220
0.0
230
1.0
 70
     8
 71
     3
 72
     9
 73
     5
 74
     0
 42
0.000000001
 43
0.0000000001
 40
0.0
 40
0.0
 40
0.0
 40
0.0
 40
0.5
 40
1.0
 40
1.0
 40
1.0
 40
1.0
 10
780.8392736185677
 20
1987.44263164512
 30
0.0
 10
780.6020843758361
 20
1986.87123187569
 30
0.0
 10
780.2441571174427
 20
1985.722481837067
 30
0.0
 10
780.1191323131897
 20
1984.561830798915
 30
0.0
 10
780.1148455245985
 20
1983.978530029957
 30
0.0
  0
SPLINE
  5
157
330
87
100
AcDbEntity
  8
P-SANR-FIXT
100
AcDbSpline
210
0.0
220
0.0
230
1.0
 70
     8
 71
     3
 72
     9
 73
     5
 74
     0
 42
0.000000001
 43
0.0000000001
 40
0.0
 40
0.0
 40
0.0
 40
0.0
 40
0.5
 40
1.0
 40
1.0
 40
1.0
 40
1.0
 10
780.1148455245985
 20
1983.978530029957
 30
0.0
 10
780.1191323131896
 20
1983.395229261007
 30
0.0
 10
780.2441571174386
 20
1982.234578222872
 30
0.0
 10
780.6020843758219
 20
1981.085828184265
 30
0.0
 10
780.8392736185469
 20
1980.514428414844
 30
0.0
  0
SPLINE
  5
158
330
87
100
AcDbEntity
  8
P-SANR-FIXT
100
AcDbSpline
210
0.0
220
0.0
230
1.0
 70
     8
 71
     3
 72
     9
 73
     5
 74
     0
 42
0.000000001
 43
0.0000000001
 40
0.0
 40
0.0
 40
0.0
 40
0.0
 40
0.5
 40
1.0
 40
1.0
 40
1.0
 40
1.0
 10
794.0427707839854
 20
1980.514428414844
 30
0.0
 10
794.5256910597755
 20
1981.650703012398
 30
0.0
 10
795.0086113355621
 20
1983.94167814833
 30
0.0
 10
794.5256910597615
 20
1986.269505165915
 30
0.0
 10
794.0427707839646
 20
1987.44263164512
 30
0.0
  0
SPLINE
  5
159
330
87
100
AcDbEntity
  8
P-SANR-FIXT
100
AcDbSpline
210
0.0
220
0.0
230
1.0
 70
     8
 71
     3
 72
     9
 73
     5
 74
     0
 42
0.000000001
 43
0.0000000001
 40
0.0
 40
0.0
 40
0.0
 40
0.0
 40
0.5
 40
1.0
 40
1.0
 40
1.0
 40
1.0
 10
780.8392736185469
 20
1980.514428414844
 30
0.0
 10
780.9540575696664
 20
1980.234004593109
 30
0.0
 10
781.1267363000823
 20
1979.796323082092
 30
0.0
 10
781.1856366868509
 20
1979.643593539438
 30
0.0
 10
781.1866422943235
 20
1979.643593539443
 30
0.0
  0
SPLINE
  5
15A
330
87
100
AcDbEntity
  8
P-SANR-FIXT
100
AcDbSpline
210
0.0
220
0.0
230
1.0
 70
     8
 71
     3
 72
     9
 73
     5
 74
     0
 42
0.000000001
 43
0.0000000001
 40
0.0
 40
0.0
 40
0.0
 40
0.0
 40
0.5
 40
1.0
 40
1.0
 40
1.0
 40
1.0
 10
793.6954021082089
 20
1979.643593539443
 30
0.0
 10
793.6964077156815
 20
1979.643593539438
 30
0.0
 10
793.7553081024502
 20
1979.796323082092
 30
0.0
 10
793.9279868328658
 20
1980.234004593109
 30
0.0
 10
794.0427707839854
 20
1980.514428414844
 30
0.0
  0
SPLINE
  5
15B
330
87
100
AcDbEntity
  8
P-SANR-FIXT
100
AcDbSpline
210
0.0
220
0.0
230
1.0
 70
     8
 71
     3
 72
     9
 73
     5
 74
     0
 42
0.000000001
 43
0.0000000001
 40
0.0
 40
0.0
 40
0.0
 40
0.0
 40
0.5
 40
1.0
 40
1.0
 40
1.0
 40
1.0
 10
781.1866422943231
 20
2020.356406460546
 30
0.0
 10
781.1856366868505
 20
2020.356406460551
 30
0.0
 10
781.1267363000817
 20
2020.203676917897
 30
0.0
 10
780.9540575696661
 20
2019.76599540688
 30
0.0
 10
780.8392736185465
 20
2019.485571585144
 30
0.0
  0
SPLINE
  5
15C
330
87
100
AcDbEntity
  8
P-SANR-FIXT
100
AcDbSpline
210
0.0
220
0.0
230
1.0
 70
     8
 71
     3
 72
     9
 73
     5
 74
     0
 42
0.000000001
 43
0.0000000001
 40
0.0
 40
0.0
 40
0.0
 40
0.0
 40
0.5
 40
1.0
 40
1.0
 40
1.0
 40
1.0
 10
794.0427707839858
 20
2019.485571585144
 30
0.0
 10
793.9279868328663
 20
2019.76599540688
 30
0.0
 10
793.7553081024504
 20
2020.203676917897
 30
0.0
 10
793.6964077156818
 20
2020.356406460551
 30
0.0
 10
793.6954021082093
 20
2020.356406460546
 30
0.0
  0
SPLINE
  5
15D
330
87
100
AcDbEntity
  8
P-SANR-FIXT
100
AcDbSpline
210
0.0
220
0.0
230
1.0
 70
     8
 71
     3
 72
     9
 73
     5
 74
     0
 42
0.000000001
 43
0.0000000001
 40
0.0
 40
0.0
 40
0.0
 40
0.0
 40
0.5
 40
1.0
 40
1.0
 40
1.0
 40
1.0
 10
794.0427707839648
 20
2012.557368354869
 30
0.0
 10
794.5256910597619
 20
2013.730494834074
 30
0.0
 10
795.0086113355625
 20
2016.058321851659
 30
0.0
 10
794.5256910597757
 20
2018.349296987592
 30
0.0
 10
794.0427707839858
 20
2019.485571585144
 30
0.0
  0
SPLINE
  5
15E
330
87
100
AcDbEntity
  8
P-SANR-FIXT
100
AcDbSpline
210
0.0
220
0.0
230
1.0
 70
     8
 71
     3
 72
     9
 73
     5
 74
     0
 42
0.000000001
 43
0.0000000001
 40
0.0
 40
0.0
 40
0.0
 40
0.0
 40
0.5
 40
1.0
 40
1.0
 40
1.0
 40
1.0
 10
780.8392736185465
 20
2019.485571585144
 30
0.0
 10
780.6020843758213
 20
2018.914171815724
 30
0.0
 10
780.2441571174384
 20
2017.765421777117
 30
0.0
 10
780.1191323131894
 20
2016.604770738982
 30
0.0
 10
780.1148455245985
 20
2016.021469970033
 30
0.0
  0
SPLINE
  5
15F
330
87
100
AcDbEntity
  8
P-SANR-FIXT
100
AcDbSpline
210
0.0
220
0.0
230
1.0
 70
     8
 71
     3
 72
     9
 73
     5
 74
     0
 42
0.000000001
 43
0.0000000001
 40
0.0
 40
0.0
 40
0.0
 40
0.0
 40
0.5
 40
1.0
 40
1.0
 40
1.0
 40
1.0
 10
780.1148455245985
 20
2016.021469970033
 30
0.0
 10
780.1191323131896
 20
2015.438169201074
 30
0.0
 10
780.2441571174422
 20
2014.277518162922
 30
0.0
 10
780.6020843758355
 20
2013.128768124298
 30
0.0
 10
780.8392736185675
 20
2012.557368354869
 30
0.0
  0
LINE
  5
160
330
87
100
AcDbEntity
  8
P-SANR-FIXT
100
AcDbLine
 10
821.6148455246001
 20
2011.950000000026
 30
0.0
 11
820.3786478961935
 21
2013.186197628432
 31
0.0
  0
LINE
  5
161
330
87
100
AcDbEntity
  8
P-SANR-FIXT
100
AcDbLine
 10
820.3631734920209
 20
2013.201672032605
 30
0.0
 11
820.3148455246001
 21
2013.250000000026
 31
0.0
  0
LINE
  5
162
330
87
100
AcDbEntity
  8
P-SANR-FIXT
100
AcDbLine
 10
820.3148455246001
 20
1986.749999999966
 30
0.0
 11
820.3631734920209
 21
1986.798327967386
 31
0.0
  0
LINE
  5
163
330
87
100
AcDbEntity
  8
P-SANR-FIXT
100
AcDbLine
 10
820.3786478961935
 20
1986.813802371559
 30
0.0
 11
821.6148455246001
 21
1988.049999999966
 31
0.0
  0
LINE
  5
164
330
87
100
AcDbEntity
  8
P-SANR-FIXT
100
AcDbLine
 10
820.3148455246001
 20
2013.250000000026
 30
0.0
 11
796.1148455246001
 21
2013.250000000026
 31
0.0
  0
LINE
  5
165
330
87
100
AcDbEntity
  8
P-SANR-FIXT
100
AcDbLine
 10
796.1148455246001
 20
1986.749999999966
 30
0.0
 11
820.3148455246001
 21
1986.749999999966
 31
0.0
  0
LINE
  5
166
330
87
100
AcDbEntity
  8
P-SANR-FIXT
100
AcDbLine
 10
821.6148455245983
 20
2011.950000000025
 30
0.0
 11
821.6148455245983
 21
1988.049999999965
 31
0.0
  0
LINE
  5
167
330
87
100
AcDbEntity
  8
P-SANR-FIXT
100
AcDbLine
 10
820.3148455245981
 20
2013.250000000025
 30
0.0
 11
820.3148455245981
 21
1986.749999999965
 31
0.0
  0
LINE
  5
168
330
87
100
AcDbEntity
  8
P-SANR-FIXT
100
AcDbLine
 10
687.1148455246036
 20
2013.250000000026
 30
0.0
 11
662.914845524604
 21
2013.250000000026
 31
0.0
  0
LINE
  5
169
330
87
100
AcDbEntity
  8
P-SANR-FIXT
100
AcDbLine
 10
662.914845524604
 20
1986.749999999965
 30
0.0
 11
687.1148455246036
 21
1986.749999999965
 31
0.0
  0
LINE
  5
16A
330
87
100
AcDbEntity
  8
P-SANR-FIXT
100
AcDbLine
 10
662.914845524604
 20
2013.250000000026
 30
0.0
 11
662.8665175571833
 21
2013.201672032606
 31
0.0
  0
LINE
  5
16B
330
87
100
AcDbEntity
  8
P-SANR-FIXT
100
AcDbLine
 10
662.8510431530104
 20
2013.186197628433
 30
0.0
 11
661.6148455246042
 21
2011.950000000027
 31
0.0
  0
LINE
  5
16C
330
87
100
AcDbEntity
  8
P-SANR-FIXT
100
AcDbLine
 10
661.6148455246042
 20
1988.049999999965
 30
0.0
 11
662.8510431530104
 21
1986.813802371558
 31
0.0
  0
LINE
  5
16D
330
87
100
AcDbEntity
  8
P-SANR-FIXT
100
AcDbLine
 10
662.8665175571833
 20
1986.798327967386
 30
0.0
 11
662.914845524604
 21
1986.749999999965
 31
0.0
  0
LINE
  5
16E
330
87
100
AcDbEntity
  8
P-SANR-FIXT
100
AcDbLine
 10
661.6148455246027
 20
1988.049999999964
 30
0.0
 11
661.6148455246027
 21
2011.950000000026
 31
0.0
  0
LINE
  5
16F
330
87
100
AcDbEntity
  8
P-SANR-FIXT
100
AcDbLine
 10
662.9148455246025
 20
2013.250000000025
 30
0.0
 11
662.9148455246025
 21
1986.749999999964
 31
0.0
  0
LINE
  5
170
330
87
100
AcDbEntity
  8
P-SANR-FIXT
100
AcDbLine
 10
762.2422128046903
 20
2025.431256268708
 30
0.0
 11
763.337901848736
 21
2025.335395898604
 31
0.0
  0
LINE
  5
171
330
87
100
AcDbEntity
  8
P-SANR-FIXT
100
AcDbLine
 10
766.0493377342311
 20
2034.791296569228
 30
0.0
 11
766.2255971714988
 21
2036.805951156053
 31
0.0
  0
ARC
  5
172
330
87
100
AcDbEntity
  8
P-SANR-FIXT
100
AcDbCircle
 10
762.7731685067629
 20
2059.327632978571
 30
0.0
 40
11.9186052687514
100
AcDbArc
 50
268.5797557446554
 51
281.1172244834108
  0
LINE
  5
173
330
87
100
AcDbEntity
  8
P-SANR-FIXT
100
AcDbLine
 10
713.0822328116895
 20
2021.05123027505
 30
0.0
 11
710.0641931929626
 21
2014.863332050735
 31
0.0
  0
LINE
  5
174
330
87
100
AcDbEntity
  8
P-SANR-FIXT
100
AcDbLine
 10
769.6725084625398
 20
2014.86965044296
 30
0.0
 11
774.9347751119334
 21
2033.221355163398
 31
0.0
  0
LWPOLYLINE
  5
175
330
87
100
AcDbEntity
  8
P-SANR-FIXT
100
AcDbPolyline
 90
       28
 70
   128
 43
0.0
 10
776.373454712611
 20
2034.610671904316
 10
776.2962387759206
 20
2034.589771047079
 10
776.2199204151088
 20
2034.565799094401
 10
776.144621723272
 20
2034.538794396294
 10
776.0704631622549
 20
2034.508800154513
 10
775.9975633699346
 20
2034.475864353447
 10
775.9260389704283
 20
2034.440039683353
 10
775.856004387517
 20
2034.401383456058
 10
775.7875716615941
 20
2034.359957513282
 10
775.7208502704224
 20
2034.315828127695
 10
775.6559469539947
 20
2034.2690658969
 10
775.5929655437722
 20
2034.219745630492
 10
775.5320067965757
 20
2034.167946230376
 10
775.4731682333969
 20
2034.113750564541
 10
775.4165439833855
 20
2034.057245334493
 10
775.3622246332622
 20
2033.998520936545
 10
775.3102970823997
 20
2033.937671317207
 10
775.260844403802
 20
2033.874793822889
 10
775.2139457112056
 20
2033.809989044169
 10
775.1696760325143
 20
2033.743360654869
 10
775.1281061897698
 20
2033.675015246198
 10
775.0893026858534
 20
2033.605062156231
 10
775.0533275980934
 20
2033.533613294988
 10
775.0202384789558
 20
2033.460782965407
 10
774.9900882639725
 20
2033.386687680479
 10
774.9629251870564
 20
2033.311445976852
 10
774.9387927033356
 20
2033.235178225203
 10
774.9347751119336
 20
2033.221355163398
  0
LINE
  5
176
330
87
100
AcDbEntity
  8
P-SANR-FIXT
100
AcDbLine
 10
776.373454712611
 20
2034.610671904316
 30
0.0
 11
778.6142567076468
 21
2035.169366590506
 31
0.0
  0
LWPOLYLINE
  5
177
330
87
100
AcDbEntity
  8
P-SANR-FIXT
100
AcDbPolyline
 90
       28
 70
   128
 43
0.0
 10
780.052936308324
 20
2036.558683331423
 10
780.0293533859965
 20
2036.482243861994
 10
780.0027325640036
 20
2036.406808601349
 10
779.9731164299815
 20
2036.332498229813
 10
779.9405523634267
 20
2036.25943162813
 10
779.9050924598991
 20
2036.187725687274
 10
779.8667934476802
 20
2036.117495121455
 10
779.8257165970195
 20
2036.048852284597
 10
779.7819276221154
 20
2035.981906990595
 10
779.7354965759866
 20
2035.916766337638
 10
779.6864977384019
 20
2035.853534536877
 10
779.6350094970493
 20
2035.792312745703
 10
779.5811142221311
 20
2035.733198905921
 10
779.5248981345904
 20
2035.676287587067
 10
779.466451168175
 20
2035.621669835109
 10
779.405866825563
 20
2035.569433026798
 10
779.3432420287789
 20
2035.519660729886
 10
779.2786769641379
 20
2035.472432569429
 10
779.2122749219706
 20
2035.42782410041
 10
779.1441421313796
 20
2035.385906686864
 10
779.0743875902953
 20
2035.346747387709
 10
779.0031228911033
 20
2035.310408849472
 10
778.9304620421201
 20
2035.27694920606
 10
778.8565212852037
 20
2035.246421985767
 10
778.7814189097924
 20
2035.218876025632
 10
778.7052750636656
 20
2035.194355393316
 10
778.6282115607337
 20
2035.1728993166
 10
778.6142567076468
 20
2035.169366590506
  0
LINE
  5
178
330
87
100
AcDbEntity
  8
P-SANR-FIXT
100
AcDbLine
 10
780.052936308324
 20
2036.558683331423
 30
0.0
 11
782.4910312633349
 21
2045.061330892983
 31
0.0
  0
LINE
  5
179
330
87
100
AcDbEntity
  8
P-SANR-FIXT
100
AcDbLine
 10
765.1892201526877
 20
2050.022545394232
 30
0.0
 11
764.4780298946192
 21
2047.542330215925
 31
0.0
  0
LINE
  5
17A
330
87
100
AcDbEntity
  8
P-SANR-FIXT
100
AcDbLine
 10
782.4910312633347
 20
2045.061330892983
 30
0.0
 11
781.8054069232133
 21
2046.298229944738
 31
0.0
  0
LINE
  5
17B
330
87
100
AcDbEntity
  8
P-SANR-FIXT
100
AcDbLine
 10
766.4261192044428
 20
2050.708169734353
 30
0.0
 11
765.1892201526877
 21
2050.022545394232
 31
0.0
  0
LINE
  5
17C
330
87
100
AcDbEntity
  8
P-SANR-FIXT
100
AcDbLine
 10
766.4261192044412
 20
2050.708169734352
 30
0.0
 11
781.8054069232117
 21
2046.298229944738
 31
0.0
  0
LINE
  5
17D
330
87
100
AcDbEntity
  8
P-SANR-FIXT
100
AcDbLine
 10
782.4910312633329
 20
2045.061330892982
 30
0.0
 11
765.1892201526859
 21
2050.022545394231
 31
0.0
  0
LINE
  5
17E
330
87
100
AcDbEntity
  8
P-SANR-FIXT
100
AcDbLine
 10
756.9909696777427
 20
1984.056130257544
 30
0.0
 11
759.032874464727
 21
1985.099999999995
 31
0.0
  0
LINE
  5
17F
330
87
100
AcDbEntity
  8
P-SANR-FIXT
100
AcDbLine
 10
741.0686530422565
 20
1979.644312045884
 30
0.0
 11
751.352813953027
 21
1982.00400939759
 31
0.0
  0
LWPOLYLINE
  5
180
330
87
100
AcDbEntity
  8
P-SANR-FIXT
100
AcDbPolyline
 90
       36
 70
   128
 43
0.0
 10
741.0686530422565
 20
1979.644312045884
 10
740.8793967328577
 20
1979.579684526175
 10
740.6877073968368
 20
1979.522676935391
 10
740.4938916962396
 20
1979.473380473518
 10
740.2982596948426
 20
1979.431874004378
 10
740.101124362115
 20
1979.398223929468
 10
739.902801072536
 20
1979.372484081729
 10
739.7036071010622
 20
1979.354695639426
 10
739.5038611155552
 20
1979.344887060274
 10
739.3038826669821
 20
1979.343074035905
 10
739.1039916782004
 20
1979.349259466772
 10
738.9045079321513
 20
1979.363433457507
 10
738.705750560274
 20
1979.385573332745
 10
738.5080375319646
 20
1979.415643673411
 10
738.3116851458914
 20
1979.453596373374
 10
738.1170075239859
 20
1979.49937071641
 10
737.9243161089147
 20
1979.552893473335
 10
737.7339191658356
 20
1979.614079019156
 10
737.5461212892425
 20
1979.68282947005
 10
737.3612229156765
 20
1979.759034839964
 10
737.1795198430921
 20
1979.842573216561
 10
737.001302757644
 20
1979.933310956259
 10
736.8268567686519
 20
1980.031102898032
 10
736.6564609524845
 20
1980.135792595633
 10
736.4903879060988
 20
1980.247212567879
 10
736.328903310942
 20
1980.365184566582
 10
736.1722655079179
 20
1980.489519861712
 10
736.0207250840972
 20
1980.620019543318
 10
735.8745244718313
 20
1980.756474839749
 10
735.7338975609117
 20
1980.89866745164
 10
735.5990693243971
 20
1981.046369901144
 10
735.4702554587044
 20
1981.19934589585
 10
735.3476620385396
 20
1981.357350706801
 10
735.2314851872232
 20
1981.520131560003
 10
735.1219107629341
 20
1981.687428040817
 10
735.1039599400023
 20
1981.716286308761
  0
LWPOLYLINE
  5
181
330
87
100
AcDbEntity
  8
P-SANR-FIXT
100
AcDbPolyline
 90
        6
 70
   128
 43
0.0
 10
741.1922818917637
 20
1979.689309267202
 10
741.1796555056802
 20
1979.684713638501
 10
741.1228017671311
 20
1979.664020569962
 10
741.0861124819525
 20
1979.650666762241
 10
741.0696463451734
 20
1979.64467357858
 10
741.0686530422562
 20
1979.644312045884
  0
LWPOLYLINE
  5
182
330
87
100
AcDbEntity
  8
P-SANR-FIXT
100
AcDbPolyline
 90
       63
 70
   128
 43
0.0
 10
741.0686530422562
 20
1979.644312045884
 10
741.0787785821457
 20
1979.64799744101
 10
741.1091390031101
 20
1979.659047730541
 10
741.1596857349527
 20
1979.677445236371
 10
741.2303379136853
 20
1979.703160526416
 10
741.3209825108934
 20
1979.736152461697
 10
741.4314745145577
 20
1979.776368262155
 10
741.5616371610432
 20
1979.823743591088
 10
741.7112622178818
 20
1979.878202658079
 10
741.8801103169009
 20
1979.939658340234
 10
742.0679113371612
 20
1980.008012321573
 10
742.2743648370924
 20
1980.083155250309
 10
742.4991405351351
 20
1980.164966913783
 10
742.7418788381229
 20
1980.253316430786
 10
743.002191416552
 20
1980.348062460939
 10
743.2796618258272
 20
1980.449053430805
 10
743.5738461724842
 20
1980.556127776376
 10
743.8842738243246
 20
1980.669114201539
 10
744.2104481633263
 20
1980.787831952117
 10
744.551847380127
 20
1980.912091105034
 10
744.9079253088078
 20
1981.041692872153
 10
745.2781123006421
 20
1981.176429918293
 10
745.661816135412
 20
1981.316086692923
 10
746.0584229688342
 20
1981.460439774995
 10
746.4672983145804
 20
1981.609258230372
 10
746.8877880593192
 20
1981.762303981271
 10
747.3192195091589
 20
1981.919332187139
 10
747.7609024658134
 20
1982.080091636344
 10
748.2121303307728
 20
1982.244325148061
 10
748.6721812357104
 20
1982.411769983706
 10
749.1403191973167
 20
1982.58215826726
 10
749.6157952947172
 20
1982.755217413819
 10
750.0978488675857
 20
1982.930670565665
 10
750.5857087330386
 20
1983.108237035183
 10
751.078594419362
 20
1983.287632753901
 10
751.5757174146012
 20
1983.468570726937
 10
752.0762824280109
 20
1983.650761492133
 10
752.5794886623514
 20
1983.83391358313
 10
753.0845310949927
 20
1984.017733995653
 10
753.590601765779
 20
1984.201928656254
 10
754.0968910695932
 20
1984.38620289277
 10
754.6025890515517
 20
1984.570261905732
 10
755.1068867027602
 20
1984.753811239982
 10
755.6089772545541
 20
1984.936557255741
 10
756.1080574691573
 20
1985.118207598368
 10
756.6033289246917
 20
1985.298471666064
 10
757.0939992924809
 20
1985.477061074776
 10
757.5792836046064
 20
1985.653690119546
 10
758.0584055096913
 20
1985.828076231582
 10
758.5305985148941
 20
1985.999940430304
 10
758.9951072121363
 20
1986.169007769658
 10
759.4511884865916
 20
1986.335007777966
 10
759.8981127055135
 20
1986.497674890626
 10
760.3351648854903
 20
1986.656748874959
 10
760.7616458362665
 20
1986.811975246523
 10
761.1768732792991
 20
1986.963105676237
 10
761.5801829392561
 20
1987.109898387654
 10
761.9709296067163
 20
1987.252118543748
 10
762.3484881703671
 20
1987.389538622609
 10
762.7122546170475
 20
1987.521938781426
 10
763.061646998043
 20
1987.649107208187
 10
763.3961063600763
 20
1987.770840460539
 10
763.4976988507859
 20
1987.807817103183
  0
LINE
  5
183
330
87
100
AcDbEntity
  8
P-SANR-FIXT
100
AcDbLine
 10
735.1039599400031
 20
1981.71628630876
 30
0.0
 11
733.0609920103626
 21
1985.099999999994
 31
0.0
  0
LINE
  5
184
330
87
100
AcDbEntity
  8
P-SANR-FIXT
100
AcDbLine
 10
780.1148455246002
 20
2016.849999999997
 30
0.0
 11
779.1148455246019
 21
2016.849999999997
 31
0.0
  0
LINE
  5
185
330
87
100
AcDbEntity
  8
P-SANR-FIXT
100
AcDbLine
 10
779.1148455246019
 20
1983.149999999995
 30
0.0
 11
780.1148455246002
 21
1983.149999999995
 31
0.0
  0
LINE
  5
186
330
87
100
AcDbEntity
  8
P-SANR-FIXT
100
AcDbLine
 10
779.1148455246019
 20
2016.849999999996
 30
0.0
 11
779.0774299407762
 21
2016.785194307815
 31
0.0
  0
LINE
  5
187
330
87
100
AcDbEntity
  8
P-SANR-FIXT
100
AcDbLine
 10
779.0680008505208
 20
2016.768862644423
 30
0.0
 11
778.5663627688717
 21
2015.899999999996
 31
0.0
  0
LINE
  5
188
330
87
100
AcDbEntity
  8
P-SANR-FIXT
100
AcDbLine
 10
778.5663627688717
 20
1984.099999999996
 30
0.0
 11
779.0680008505208
 21
1983.231137355568
 31
0.0
  0
LINE
  5
189
330
87
100
AcDbEntity
  8
P-SANR-FIXT
100
AcDbLine
 10
779.0774299407761
 20
1983.214805692177
 30
0.0
 11
779.1148455246019
 21
1983.149999999996
 31
0.0
  0
LINE
  5
18A
330
87
100
AcDbEntity
  8
P-SANR-FIXT
100
AcDbLine
 10
776.834311961303
 20
2014.899999999996
 30
0.0
 11
769.5812750997007
 21
2014.899999999996
 31
0.0
  0
LINE
  5
18B
330
87
100
AcDbEntity
  8
P-SANR-FIXT
100
AcDbLine
 10
710.1461672667133
 20
2014.899999999996
 30
0.0
 11
706.3953790879009
 21
2014.899999999996
 31
0.0
  0
LINE
  5
18C
330
87
100
AcDbEntity
  8
P-SANR-FIXT
100
AcDbLine
 10
706.3953790879009
 20
1985.099999999995
 30
0.0
 11
733.060992010362
 21
1985.099999999995
 31
0.0
  0
LINE
  5
18D
330
87
100
AcDbEntity
  8
P-SANR-FIXT
100
AcDbLine
 10
759.032874464727
 20
1985.099999999995
 30
0.0
 11
776.834311961303
 21
1985.099999999995
 31
0.0
  0
LINE
  5
18E
330
87
100
AcDbEntity
  8
P-SANR-FIXT
100
AcDbLine
 10
704.663328280332
 20
2015.899999999996
 30
0.0
 11
704.1616901986835
 21
2016.768862644422
 31
0.0
  0
LINE
  5
18F
330
87
100
AcDbEntity
  8
P-SANR-FIXT
100
AcDbLine
 10
704.1522611084281
 20
2016.785194307814
 30
0.0
 11
704.1148455246019
 21
2016.849999999996
 31
0.0
  0
LINE
  5
190
330
87
100
AcDbEntity
  8
P-SANR-FIXT
100
AcDbLine
 10
704.1148455246019
 20
1983.149999999995
 30
0.0
 11
704.1522611084282
 21
1983.214805692177
 31
0.0
  0
LINE
  5
191
330
87
100
AcDbEntity
  8
P-SANR-FIXT
100
AcDbLine
 10
704.1616901986836
 20
1983.231137355569
 30
0.0
 11
704.663328280332
 21
1984.099999999995
 31
0.0
  0
LINE
  5
192
330
87
100
AcDbEntity
  8
P-SANR-FIXT
100
AcDbLine
 10
704.1148455246019
 20
2016.849999999996
 30
0.0
 11
703.1148455246038
 21
2016.849999999996
 31
0.0
  0
LINE
  5
193
330
87
100
AcDbEntity
  8
P-SANR-FIXT
100
AcDbLine
 10
703.1148455246038
 20
1983.149999999995
 30
0.0
 11
704.1148455246019
 21
1983.149999999995
 31
0.0
  0
LWPOLYLINE
  5
194
330
87
100
AcDbEntity
  8
P-SANR-FIXT
100
AcDbPolyline
 90
       28
 70
   128
 43
0.0
 10
778.5663627688717
 20
1984.099999999996
 10
778.5249879787812
 20
1984.168463665229
 10
778.4809084677212
 20
1984.235218016524
 10
778.434194753506
 20
1984.30015626116
 10
778.3849215681136
 20
1984.363174511798
 10
778.3331677381291
 20
1984.42417195268
 10
778.2790160586406
 20
1984.483051000912
 10
778.2225531607833
 20
1984.539717462578
 10
778.1638693731495
 20
1984.594080683428
 10
778.1030585772803
 20
1984.646053693904
 10
778.040218057477
 20
1984.695553348277
 10
777.9754483451663
 20
1984.742500457659
 10
777.9088530580708
 20
1984.78681991669
 10
777.8405387344435
 20
1984.82844082369
 10
777.7706146626295
 20
1984.867296594087
 10
777.6991927062275
 20
1984.903325066937
 10
777.6263871251316
 20
1984.936468604368
 10
777.5523143927403
 20
1984.966674183792
 10
777.4770930096248
 20
1984.993893482723
 10
777.4008433139511
 20
1985.018082956092
 10
777.3236872889668
 20
1985.0392039059
 10
777.2457483678526
 20
1985.057222543133
 10
777.1671512362566
 20
1985.072110041816
 10
777.0880216328223
 20
1985.083842585126
 10
777.0084861480357
 20
1985.092401403498
 10
776.9286720217052
 20
1985.097772804646
 10
776.8487069394073
 20
1985.099948195476
 10
776.834311961303
 20
1985.099999999996
  0
LWPOLYLINE
  5
195
330
87
100
AcDbEntity
  8
P-SANR-FIXT
100
AcDbPolyline
 90
       28
 70
   128
 43
0.0
 10
776.834311961303
 20
2014.899999999996
 10
776.914290629676
 20
2014.901599786674
 10
776.9941413492412
 20
2014.90639658739
 10
777.0737363758806
 20
2014.914382728288
 10
777.1529483745314
 20
2014.925545433245
 10
777.231650622893
 20
2014.939866844313
 10
777.3097172141572
 20
2014.957324050292
 10
777.3870232584311
 20
2014.977889123374
 10
777.4634450825351
 20
2015.001529163831
 10
777.538860427853
 20
2015.02820635264
 10
777.6131486459203
 20
2015.05787801199
 10
777.6861908914349
 20
2015.090496673556
 10
777.7578703123858
 20
2015.126010154437
 10
777.8280722369904
 20
2015.16436164064
 10
777.8966843571446
 20
2015.205489777969
 10
777.963596908093
 20
2015.249328770177
 10
778.0287028440276
 20
2015.295808484227
 10
778.0918980093398
 20
2015.344854562494
 10
778.1530813052458
 20
2015.396388541714
 10
778.2121548515239
 20
2015.450327978514
 10
778.269024143102
 20
2015.506586581301
 10
778.3235982012446
 20
2015.565074348313
 10
778.3757897191009
 20
2015.625697711599
 10
778.4255152013756
 20
2015.688359686709
 10
778.472695097905
 20
2015.752960027851
 10
778.5172539309188
 20
2015.819395388259
 10
778.5591204157895
 20
2015.88755948553
 10
778.5663627688717
 20
2015.899999999996
  0
LWPOLYLINE
  5
196
330
87
100
AcDbEntity
  8
P-SANR-FIXT
100
AcDbPolyline
 90
       28
 70
   128
 43
0.0
 10
706.3953790879009
 20
1985.099999999995
 10
706.3154004195276
 20
1985.098400213318
 10
706.2355496999627
 20
1985.0936034126
 10
706.1559546733231
 20
1985.085617271703
 10
706.0767426746723
 20
1985.074454566747
 10
705.9980404263109
 20
1985.060133155678
 10
705.9199738350465
 20
1985.042675949699
 10
705.8426677907727
 20
1985.022110876617
 10
705.7662459666686
 20
1984.998470836161
 10
705.6908306213507
 20
1984.971793647352
 10
705.6165424032834
 20
1984.942121988001
 10
705.5435001577689
 20
1984.909503326436
 10
705.4718207368178
 20
1984.873989845554
 10
705.4016188122133
 20
1984.835638359351
 10
705.3330066920591
 20
1984.794510222022
 10
705.266094141111
 20
1984.750671229815
 10
705.2009882051761
 20
1984.704191515764
 10
705.137793039864
 20
1984.655145437497
 10
705.076609743958
 20
1984.603611458277
 10
705.0175361976799
 20
1984.549672021477
 10
704.9606669061018
 20
1984.49341341869
 10
704.9060928479591
 20
1984.434925651678
 10
704.8539013301031
 20
1984.374302288393
 10
704.8041758478282
 20
1984.311640313282
 10
704.756995951299
 20
1984.247039972141
 10
704.7124371182851
 20
1984.180604611731
 10
704.6705706334143
 20
1984.112440514461
 10
704.663328280332
 20
1984.099999999995
  0
LWPOLYLINE
  5
197
330
87
100
AcDbEntity
  8
P-SANR-FIXT
100
AcDbPolyline
 90
       28
 70
   128
 43
0.0
 10
704.663328280332
 20
2015.899999999996
 10
704.7047030704225
 20
2015.831536334763
 10
704.7487825814824
 20
2015.764781983468
 10
704.7954962956977
 20
2015.699843738832
 10
704.8447694810904
 20
2015.636825488194
 10
704.8965233110747
 20
2015.575828047312
 10
704.9506749905633
 20
2015.51694899908
 10
705.0071378884203
 20
2015.460282537413
 10
705.0658216760544
 20
2015.405919316564
 10
705.1266324719236
 20
2015.353946306088
 10
705.1894729917267
 20
2015.304446651715
 10
705.2542427040375
 20
2015.257499542333
 10
705.3208379911329
 20
2015.213180083302
 10
705.3891523147601
 20
2015.171559176301
 10
705.4590763865742
 20
2015.132703405904
 10
705.5304983429762
 20
2015.096674933055
 10
705.6033039240722
 20
2015.063531395623
 10
705.6773766564633
 20
2015.0333258162
 10
705.7525980395791
 20
2015.006106517268
 10
705.8288477352526
 20
2014.9819170439
 10
705.9060037602368
 20
2014.960796094092
 10
705.9839426813511
 20
2014.942777456859
 10
706.0625398129474
 20
2014.927889958176
 10
706.1416694163814
 20
2014.916157414865
 10
706.2212049011683
 20
2014.907598596494
 10
706.3010190274986
 20
2014.902227195346
 10
706.3809841097966
 20
2014.900051804516
 10
706.3953790879009
 20
2014.899999999996
  0
LINE
  5
198
330
87
100
AcDbEntity
  8
P-SANR-FIXT
100
AcDbLine
 10
704.7167521248781
 20
2041.437835112517
 30
0.0
 11
704.4155237456962
 21
2040.791848768707
 31
0.0
  0
LINE
  5
199
330
87
100
AcDbEntity
  8
P-SANR-FIXT
100
AcDbLine
 10
755.1589252681353
 20
2059.260936508293
 30
0.0
 11
754.5129389243258
 21
2059.562164887475
 31
0.0
  0
LINE
  5
19A
330
87
100
AcDbEntity
  8
P-SANR-FIXT
100
AcDbLine
 10
705.0701652571025
 20
2041.566466973045
 30
0.0
 11
705.1745115245586
 21
2041.604445908456
 31
0.0
  0
LINE
  5
19B
330
87
100
AcDbEntity
  8
P-SANR-FIXT
100
AcDbLine
 10
705.5054466580644
 20
2041.724896446524
 30
0.0
 11
705.6816040996031
 21
2041.789012511789
 31
0.0
  0
LINE
  5
19C
330
87
100
AcDbEntity
  8
P-SANR-FIXT
100
AcDbLine
 10
706.1130998125941
 20
2041.946064107531
 30
0.0
 11
706.2182908852417
 21
2041.984350526886
 31
0.0
  0
LINE
  5
19D
330
87
100
AcDbEntity
  8
P-SANR-FIXT
100
AcDbLine
 10
708.0524641346419
 20
2042.651934994155
 30
0.0
 11
708.3662442157336
 21
2042.766141603778
 31
0.0
  0
LINE
  5
19E
330
87
100
AcDbEntity
  8
P-SANR-FIXT
100
AcDbLine
 10
709.4572375282048
 20
2043.163230695301
 30
0.0
 11
710.5417994314847
 21
2043.557978945314
 31
0.0
  0
LINE
  5
19F
330
87
100
AcDbEntity
  8
P-SANR-FIXT
100
AcDbLine
 10
710.6733272972771
 20
2043.605851173439
 30
0.0
 11
712.0064506498975
 21
2044.091068392398
 31
0.0
  0
LINE
  5
1A0
330
87
100
AcDbEntity
  8
P-SANR-FIXT
100
AcDbLine
 10
712.0092348430395
 20
2044.092081755828
 30
0.0
 11
713.4364388136138
 21
2044.611541519344
 31
0.0
  0
LINE
  5
1A1
330
87
100
AcDbEntity
  8
P-SANR-FIXT
100
AcDbLine
 10
713.6106595824396
 20
2044.674952693387
 30
0.0
 11
714.9685504420065
 21
2045.169184547651
 31
0.0
  0
LINE
  5
1A2
330
87
100
AcDbEntity
  8
P-SANR-FIXT
100
AcDbLine
 10
715.0140054786942
 20
2045.185728828003
 30
0.0
 11
716.5929253814035
 21
2045.76040867488
 31
0.0
  0
LINE
  5
1A3
330
87
100
AcDbEntity
  8
P-SANR-FIXT
100
AcDbLine
 10
717.1657988247383
 20
2045.968917556256
 30
0.0
 11
718.2991374568699
 21
2046.381419083695
 31
0.0
  0
LINE
  5
1A4
330
87
100
AcDbEntity
  8
P-SANR-FIXT
100
AcDbLine
 10
719.0924565713514
 20
2046.670163627641
 30
0.0
 11
720.0762474228575
 21
2047.028234214332
 31
0.0
  0
LINE
  5
1A5
330
87
100
AcDbEntity
  8
P-SANR-FIXT
100
AcDbLine
 10
721.0991960514907
 20
2047.400557066339
 30
0.0
 11
721.7400443273435
 21
2047.63380676343
 31
0.0
  0
LINE
  5
1A6
330
87
100
AcDbEntity
  8
P-SANR-FIXT
100
AcDbLine
 10
721.9128656996084
 20
2047.696708598779
 30
0.0
 11
723.1707447660103
 21
2048.154539137256
 31
0.0
  0
LINE
  5
1A7
330
87
100
AcDbEntity
  8
P-SANR-FIXT
100
AcDbLine
 10
723.7972214475812
 20
2048.38255800181
 30
0.0
 11
725.2913369783571
 21
2048.926371581567
 31
0.0
  0
LINE
  5
1A8
330
87
100
AcDbEntity
  8
P-SANR-FIXT
100
AcDbLine
 10
725.7172359217551
 20
2049.08138611977
 30
0.0
 11
727.4448337013466
 21
2049.710180288325
 31
0.0
  0
LINE
  5
1A9
330
87
100
AcDbEntity
  8
P-SANR-FIXT
100
AcDbLine
 10
727.6605986826415
 20
2049.788712319113
 30
0.0
 11
731.5690923665409
 21
2051.21128768087
 31
0.0
  0
LINE
  5
1AA
330
87
100
AcDbEntity
  8
P-SANR-FIXT
100
AcDbLine
 10
731.7848573478535
 20
2051.289819711665
 30
0.0
 11
733.5124551274271
 21
2051.918613880214
 31
0.0
  0
LINE
  5
1AB
330
87
100
AcDbEntity
  8
P-SANR-FIXT
100
AcDbLine
 10
733.9383540708431
 20
2052.073628418423
 30
0.0
 11
736.05894628319
 21
2052.845460862734
 31
0.0
  0
LINE
  5
1AC
330
87
100
AcDbEntity
  8
P-SANR-FIXT
100
AcDbLine
 10
737.3168253495739
 20
2053.303291401205
 30
0.0
 11
738.1304949977095
 21
2053.599442933652
 31
0.0
  0
LINE
  5
1AD
330
87
100
AcDbEntity
  8
P-SANR-FIXT
100
AcDbLine
 10
739.1534436263246
 20
2053.971765785651
 30
0.0
 11
740.1372344778488
 21
2054.329836372349
 31
0.0
  0
LINE
  5
1AE
330
87
100
AcDbEntity
  8
P-SANR-FIXT
100
AcDbLine
 10
740.9305535923124
 20
2054.618580916288
 30
0.0
 11
742.0638922244619
 21
2055.031082443735
 31
0.0
  0
LINE
  5
1AF
330
87
100
AcDbEntity
  8
P-SANR-FIXT
100
AcDbLine
 10
742.6367656677785
 20
2055.239591325104
 30
0.0
 11
743.895805208749
 21
2055.697844241781
 31
0.0
  0
LINE
  5
1B0
330
87
100
AcDbEntity
  8
P-SANR-FIXT
100
AcDbLine
 10
744.2611406071755
 20
2055.830815452332
 30
0.0
 11
747.2204562061608
 21
2056.907918244162
 31
0.0
  0
LINE
  5
1B1
330
87
100
AcDbEntity
  8
P-SANR-FIXT
100
AcDbLine
 10
747.223240399284
 20
2056.908931607586
 30
0.0
 11
748.5563637519064
 21
2057.394148826545
 31
0.0
  0
LINE
  5
1B2
330
87
100
AcDbEntity
  8
P-SANR-FIXT
100
AcDbLine
 10
748.6437427520675
 20
2057.425952181703
 30
0.0
 11
749.7724535209786
 21
2057.836769304683
 31
0.0
  0
LINE
  5
1B3
330
87
100
AcDbEntity
  8
P-SANR-FIXT
100
AcDbLine
 10
750.0101696318822
 20
2057.923290893257
 30
0.0
 11
750.8634468334496
 21
2058.233858396206
 31
0.0
  0
LINE
  5
1B4
330
87
100
AcDbEntity
  8
P-SANR-FIXT
100
AcDbLine
 10
752.0157555922195
 20
2058.653264485083
 30
0.0
 11
752.1801814551356
 21
2058.713110604927
 31
0.0
  0
LINE
  5
1B5
330
87
100
AcDbEntity
  8
P-SANR-FIXT
100
AcDbLine
 10
753.5480869496049
 20
2059.210987488203
 30
0.0
 11
753.7242443911327
 21
2059.275103553464
 31
0.0
  0
LINE
  5
1B6
330
87
100
AcDbEntity
  8
P-SANR-FIXT
100
AcDbLine
 10
754.0551795246515
 20
2059.395554091538
 30
0.0
 11
754.1595257920951
 21
2059.433533026944
 31
0.0
  0
LINE
  5
1B7
330
87
100
AcDbEntity
  8
P-SANR-FIXT
100
AcDbLine
 10
751.3528139530254
 20
1982.00400939759
 30
0.0
 11
756.9909696777409
 21
1984.056130257544
 31
0.0
  0
SPLINE
  5
1B8
330
87
100
AcDbEntity
  8
P-SANR-FIXT
100
AcDbSpline
210
0.0
220
0.0
230
1.0
 70
     8
 71
     3
 72
    16
 73
    12
 74
     0
 42
0.000000001
 43
0.0000000001
 40
-1.0
 40
-1.0
 40
-1.0
 40
-1.0
 40
-0.8333333333333332
 40
-0.75
 40
-0.6666666666666666
 40
-0.5833333333333333
 40
-0.5
 40
-0.4166666666666666
 40
-0.3333333333333333
 40
-0.1666666666666666
 40
0.0
 40
0.0
 40
0.0
 40
0.0
 10
759.0328744647252
 20
1985.099999999995
 30
0.0
 10
759.0283686238247
 20
1985.099999999995
 30
0.0
 10
759.089935278106
 20
1985.154179110855
 30
0.0
 10
759.3106452881855
 20
1985.319625403084
 30
0.0
 10
759.541547751716
 20
1985.486005672813
 30
0.0
 10
759.8535826227427
 20
1985.69239681698
 30
0.0
 10
760.2434890943694
 20
1985.935486193157
 30
0.0
 10
760.6899318138817
 20
1986.208695055157
 30
0.0
 10
761.3297776972212
 20
1986.601642996516
 30
0.0
 10
762.218231282979
 20
1987.133140137082
 30
0.0
 10
763.052260311505
 20
1987.58256509836
 30
0.0
 10
763.4976988507842
 20
1987.807817103181
 30
0.0
  0
LINE
  5
1B9
330
87
100
AcDbEntity
  8
P-SANR-FIXT
100
AcDbLine
 10
763.4976988507843
 20
1987.807817103181
 30
0.0
 11
741.0686530422548
 21
1979.644312045883
 31
0.0
  0
SPLINE
  5
1BA
330
87
100
AcDbEntity
  8
P-SANR-FIXT
100
AcDbSpline
210
0.0
220
0.0
230
1.0
 70
     8
 71
     3
 72
    16
 73
    12
 74
     0
 42
0.000000001
 43
0.0000000001
 40
-1.0
 40
-1.0
 40
-1.0
 40
-1.0
 40
-0.9166666666666666
 40
-0.8333333333333332
 40
-0.75
 40
-0.7083333333333333
 40
-0.6666666666666666
 40
-0.5833333333333333
 40
-0.5
 40
-0.3333333333333333
 40
0.0
 40
0.0
 40
0.0
 40
0.0
 10
763.4976988507842
 20
1987.807817103181
 30
0.0
 10
763.6688410905877
 20
1987.872333749836
 30
0.0
 10
763.9877347744024
 20
1988.014870958187
 30
0.0
 10
764.3954334002748
 20
1988.269072909167
 30
0.0
 10
764.6774877864739
 20
1988.526250694817
 30
0.0
 10
764.8675715753618
 20
1988.755252803621
 30
0.0
 10
765.0334238651474
 20
1988.992126514301
 30
0.0
 10
765.1929462791043
 20
1989.313335347183
 30
0.0
 10
765.3558266725213
 20
1989.866317546603
 30
0.0
 10
765.3991514847062
 20
1990.916234381692
 30
0.0
 10
765.0604561560792
 20
1991.871316592908
 30
0.0
 10
764.6828205022631
 20
1992.482111116933
 30
0.0
  0
SPLINE
  5
1BB
330
87
100
AcDbEntity
  8
P-SANR-FIXT
100
AcDbSpline
210
0.0
220
0.0
230
1.0
 70
     8
 71
     3
 72
    48
 73
    44
 74
     0
 42
0.000000001
 43
0.0000000001
 40
-0.7556523191274689
 40
-0.7556523191274689
 40
-0.7556523191274689
 40
-0.7556523191274689
 40
-0.75
 40
-0.7222222222222223
 40
-0.6944444444444445
 40
-0.6805555555555556
 40
-0.6666666666666666
 40
-0.6527777777777777
 40
-0.6388888888888889
 40
-0.6111111111111112
 40
-0.5833333333333334
 40
-0.5694444444444445
 40
-0.5555555555555556
 40
-0.5416666666666668
 40
-0.5277777777777778
 40
-0.5
 40
-0.4722222222222223
 40
-0.4583333333333333
 40
-0.4444444444444445
 40
-0.4305555555555556
 40
-0.4166666666666666
 40
-0.3888888888888888
 40
-0.3611111111111111
 40
-0.3472222222222222
 40
-0.3333333333333333
 40
-0.3194444444444444
 40
-0.3055555555555556
 40
-0.2777777777777778
 40
-0.25
 40
-0.2361111111111111
 40
-0.2291666666666666
 40
-0.2222222222222222
 40
-0.2152777777777778
 40
-0.2083333333333333
 40
-0.1944444444444444
 40
-0.1666666666666666
 40
-0.1388888888888889
 40
-0.125
 40
-0.1111111111111111
 40
-0.0972222222222222
 40
-0.0833333333333333
 40
-0.0555555555555556
 40
0.0
 40
0.0
 40
0.0
 40
0.0
 10
723.0795153465514
 20
2010.691047694752
 30
0.0
 10
723.1347098076948
 20
2010.636241386712
 30
0.0
 10
723.4636458495544
 20
2010.310504630455
 30
0.0
 10
724.087964163705
 20
2009.696374399965
 30
0.0
 10
724.8172610028889
 20
2008.963626807495
 30
0.0
 10
725.4005201315777
 20
2008.352934358228
 30
0.0
 10
725.8317639807923
 20
2007.879962393713
 30
0.0
 10
726.2648724139311
 20
2007.39723935311
 30
0.0
 10
726.8554957618167
 20
2006.747781254794
 30
0.0
 10
727.6029732772969
 20
2005.918121560757
 30
0.0
 10
728.3409689841012
 20
2005.055445797135
 30
0.0
 10
728.913050615876
 20
2004.338964183528
 30
0.0
 10
729.3259308248648
 20
2003.784988303579
 30
0.0
 10
729.7339997227892
 20
2003.219125824946
 30
0.0
 10
730.2842573396183
 20
2002.456594460892
 30
0.0
 10
730.9612479141762
 20
2001.482342285431
 30
0.0
 10
731.5898553515966
 20
2000.475939391144
 30
0.0
 10
732.0429394476112
 20
1999.648606129348
 30
0.0
 10
732.3497091924521
 20
1999.016696831485
 30
0.0
 10
732.6296132635669
 20
1998.37227184561
 30
0.0
 10
732.9804339722791
 20
1997.499950547497
 30
0.0
 10
733.3660253029393
 20
1996.394080032632
 30
0.0
 10
733.6732442627376
 20
1995.291621960894
 30
0.0
 10
733.8648802162322
 20
1994.425314431522
 30
0.0
 10
733.9820323186572
 20
1993.788199253621
 30
0.0
 10
734.0631665845827
 20
1993.161151420291
 30
0.0
 10
734.1210417160832
 20
1992.335374475701
 30
0.0
 10
734.1195073000258
 20
1991.334445388473
 30
0.0
 10
734.0594592157506
 20
1990.39519171592
 30
0.0
 10
734.0089426320815
 20
1989.779592179612
 30
0.0
 10
733.9803216461846
 20
1989.4408291087
 30
0.0
 10
733.9609311382302
 20
1989.19361601429
 30
0.0
 10
733.9395906090142
 20
1988.953084336114
 30
0.0
 10
733.9030007160399
 20
1988.640856757656
 30
0.0
 10
733.8240037010479
 20
1988.117373517555
 30
0.0
 10
733.6792007275123
 20
1987.43654467142
 30
0.0
 10
733.5274459925051
 20
1986.849499539745
 30
0.0
 10
733.4217365584975
 20
1986.43872163742
 30
0.0
 10
733.3576713553334
 20
1986.160650863614
 30
0.0
 10
733.3052661185529
 20
1985.913447528983
 30
0.0
 10
733.2392719721203
 20
1985.626103626454
 30
0.0
 10
733.1414523117195
 20
1985.235849336558
 30
0.0
 10
733.0855650575678
 20
1985.099999999995
 30
0.0
 10
733.0609920103604
 20
1985.099999999995
 30
0.0
  0
SPLINE
  5
1BC
330
87
100
AcDbEntity
  8
P-SANR-FIXT
100
AcDbSpline
210
0.0
220
0.0
230
1.0
 70
     8
 71
     3
 72
    34
 73
    30
 74
     0
 42
0.000000001
 43
0.0000000001
 40
-1.0
 40
-1.0
 40
-1.0
 40
-1.0
 40
-0.9444444444444444
 40
-0.8888888888888889
 40
-0.8333333333333332
 40
-0.7777777777777778
 40
-0.7222222222222223
 40
-0.6944444444444445
 40
-0.6666666666666666
 40
-0.6388888888888889
 40
-0.6111111111111112
 40
-0.5833333333333334
 40
-0.5694444444444445
 40
-0.5555555555555556
 40
-0.5416666666666668
 40
-0.5277777777777778
 40
-0.5
 40
-0.4722222222222223
 40
-0.4444444444444445
 40
-0.4166666666666666
 40
-0.3888888888888888
 40
-0.3611111111111111
 40
-0.3333333333333333
 40
-0.3055555555555556
 40
-0.2777777777777778
 40
-0.25
 40
-0.2222222222222222
 40
-0.1666666666666666
 40
-0.1564419186591586
 40
-0.1564419186591586
 40
-0.1564419186591586
 40
-0.1564419186591586
 10
764.6828205022631
 20
1992.482111116933
 30
0.0
 10
764.3849988718528
 20
1992.930846883609
 30
0.0
 10
763.830662011224
 20
1993.87089694911
 30
0.0
 10
763.1368645759472
 20
1995.396115692486
 30
0.0
 10
762.5394090310611
 20
1997.036355898764
 30
0.0
 10
762.0983172094661
 20
1998.75323617964
 30
0.0
 10
761.924576088387
 20
2000.235713965242
 30
0.0
 10
761.8723788750544
 20
2001.431369566864
 30
0.0
 10
761.871555322457
 20
2002.317376926089
 30
0.0
 10
761.9197059795525
 20
2003.191296153438
 30
0.0
 10
762.0181959454164
 20
2004.055434161119
 30
0.0
 10
762.1266047428076
 20
2004.761183357581
 30
0.0
 10
762.2231602362893
 20
2005.314939402173
 30
0.0
 10
762.297211459463
 20
2005.724159500097
 30
0.0
 10
762.3768346441435
 20
2006.126815429749
 30
0.0
 10
762.4959216395796
 20
2006.654952427266
 30
0.0
 10
762.6611974260648
 20
2007.29852692658
 30
0.0
 10
762.8755124287424
 20
2008.043384560837
 30
0.0
 10
763.087598754091
 20
2008.760819334781
 30
0.0
 10
763.3034883702034
 20
2009.4470989679
 30
0.0
 10
763.532316998793
 20
2010.099262235725
 30
0.0
 10
763.7607604702548
 20
2010.717588034776
 30
0.0
 10
763.9771772971041
 20
2011.301778471289
 30
0.0
 10
764.1856551546958
 20
2011.849151402387
 30
0.0
 10
764.3928273679764
 20
2012.356576197554
 30
0.0
 10
764.5890932018167
 20
2012.823182122529
 30
0.0
 10
764.8235507717883
 20
2013.388936411552
 30
0.0
 10
764.9973208200007
 20
2013.790960818353
 30
0.0
 10
765.1023822224824
 20
2014.028513254668
 30
0.0
 10
765.118274571492
 20
2014.064336383167
 30
0.0
  0
LINE
  5
1BD
330
87
100
AcDbEntity
  8
P-SANR-FIXT
100
AcDbLine
 10
758.636543771777
 20
2035.961056038257
 30
0.0
 11
718.200387057949
 21
2021.2434986063
 31
0.0
  0
LINE
  5
1BE
330
87
100
AcDbEntity
  8
P-SANR-FIXT
100
AcDbLine
 10
780.1148455245987
 20
2016.325686597262
 30
0.0
 11
780.1148455245987
 21
2015.752893920867
 31
0.0
  0
LINE
  5
1BF
330
87
100
AcDbEntity
  8
P-SANR-FIXT
100
AcDbLine
 10
780.1148455245987
 20
2000.570234660962
 30
0.0
 11
780.1148455245987
 21
1999.429765338899
 31
0.0
  0
LINE
  5
1C0
330
87
100
AcDbEntity
  8
P-SANR-FIXT
100
AcDbLine
 10
780.1148455245987
 20
1984.247106078993
 30
0.0
 11
780.1148455245987
 21
1983.674313402718
 31
0.0
  0
LINE
  5
1C1
330
87
100
AcDbEntity
  8
P-SANR-FIXT
100
AcDbLine
 10
779.1148455246002
 20
2016.849999999995
 30
0.0
 11
779.1148455246002
 21
1983.149999999995
 31
0.0
  0
LINE
  5
1C2
330
87
100
AcDbEntity
  8
P-SANR-FIXT
100
AcDbLine
 10
704.1148455246003
 20
2016.849999999995
 30
0.0
 11
704.1148455246003
 21
1983.149999999995
 31
0.0
  0
LINE
  5
1C3
330
87
100
AcDbEntity
  8
P-SANR-FIXT
100
AcDbLine
 10
703.114845524602
 20
2016.325686597245
 30
0.0
 11
703.114845524602
 21
2015.752893920883
 31
0.0
  0
LINE
  5
1C4
330
87
100
AcDbEntity
  8
P-SANR-FIXT
100
AcDbLine
 10
703.114845524602
 20
2000.570234660959
 30
0.0
 11
703.114845524602
 21
1999.429765338896
 31
0.0
  0
LINE
  5
1C5
330
87
100
AcDbEntity
  8
P-SANR-FIXT
100
AcDbLine
 10
703.114845524602
 20
1984.247106079009
 30
0.0
 11
703.114845524602
 21
1983.674313402701
 31
0.0
  0
ENDBLK
  5
1C7
330
87
100
AcDbEntity
  8
0
100
AcDbBlockEnd
  0
BLOCK
  5
2E1
330
1C9
100
AcDbEntity
  8
0
100
AcDbBlockBegin
  2
Automatic flow rate regulator valve_Caleffi_121 DN15 - 3_4___Pressure gauge H-V1-Est - Idraulica
 70
     0
 10
0.0
 20
0.0
 30
0.0
  3
Automatic flow rate regulator valve_Caleffi_121 DN15 - 3_4___Pressure gauge H-V1-Est - Idraulica
  1

  0
LINE
  5
1CA
330
1C9
100
AcDbEntity
  8
M-PIPE
100
AcDbLine
 10
780.7278012626763
 20
1674.655266574673
 30
0.0
 11
780.7278012626763
 21
1672.655266574673
 31
0.0
1001
REVIT
1002
{
1070
     3
1000
923236
1002
}
  0
LINE
  5
1CB
330
1C9
100
AcDbEntity
  8
M-PIPE
100
AcDbLine
 10
788.7278012626763
 20
1672.655266574673
 30
0.0
 11
788.7278012626763
 21
1674.655266574673
 31
0.0
1001
REVIT
1002
{
1070
     3
1000
923236
1002
}
  0
LINE
  5
1CC
330
1C9
100
AcDbEntity
  8
M-PIPE
100
AcDbLine
 10
780.8827544789218
 20
1672.655266574673
 30
0.0
 11
780.7278012626751
 21
1672.655266574673
 31
0.0
1001
REVIT
1002
{
1070
     3
1000
923236
1002
}
  0
LINE
  5
1CD
330
1C9
100
AcDbEntity
  8
M-PIPE
100
AcDbLine
 10
788.7271920433006
 20
1672.655266574673
 30
0.0
 11
780.8827544789218
 21
1672.655266574673
 31
0.0
1001
REVIT
1002
{
1070
     3
1000
923236
1002
}
  0
LINE
  5
1CE
330
1C9
100
AcDbEntity
  8
M-PIPE
100
AcDbLine
 10
760.2278012626763
 20
1702.655266574673
 30
0.0
 11
760.2278012626763
 21
1674.655266574673
 31
0.0
1001
REVIT
1002
{
1070
     3
1000
923236
1002
}
  0
LINE
  5
1CF
330
1C9
100
AcDbEntity
  8
M-PIPE
100
AcDbLine
 10
809.2278012626765
 20
1674.655266574673
 30
0.0
 11
809.2278012626765
 21
1702.655266574673
 31
0.0
1001
REVIT
1002
{
1070
     3
1000
923236
1002
}
  0
LINE
  5
1D0
330
1C9
100
AcDbEntity
  8
M-PIPE
100
AcDbLine
 10
761.1768897121863
 20
1674.655266574673
 30
0.0
 11
760.227801262675
 21
1674.655266574673
 31
0.0
1001
REVIT
1002
{
1070
     3
1000
923236
1002
}
  0
LINE
  5
1D1
330
1C9
100
AcDbEntity
  8
M-PIPE
100
AcDbLine
 10
809.2240697940066
 20
1674.655266574673
 30
0.0
 11
761.1768897121863
 21
1674.655266574673
 31
0.0
1001
REVIT
1002
{
1070
     3
1000
923236
1002
}
  0
LINE
  5
1D2
330
1C9
100
AcDbEntity
  8
M-PIPE
100
AcDbLine
 10
761.1768897121862
 20
1702.655266574673
 30
0.0
 11
809.2240697940066
 21
1702.655266574673
 31
0.0
1001
REVIT
1002
{
1070
     3
1000
923236
1002
}
  0
LINE
  5
1D3
330
1C9
100
AcDbEntity
  8
M-PIPE
100
AcDbLine
 10
760.227801262675
 20
1702.655266574673
 30
0.0
 11
761.1768897121863
 21
1702.655266574673
 31
0.0
1001
REVIT
1002
{
1070
     3
1000
923236
1002
}
  0
LINE
  5
1D4
330
1C9
100
AcDbEntity
  8
M-PIPE
100
AcDbLine
 10
714.5471971013122
 20
1714.383212287462
 30
0.0
 11
712.6558929523087
 21
1713.798682023598
 31
0.0
1001
REVIT
1002
{
1070
     3
1000
923097
1002
}
  0
LWPOLYLINE
  5
1D5
330
1C9
100
AcDbEntity
  8
M-PIPE
100
AcDbPolyline
 90
        3
 70
   128
 43
0.0
 10
712.1665249827712
 20
1713.624577286645
 10
710.8323640546307
 20
1713.14991659795
 10
709.2522069889318
 20
1712.511921870634
1001
REVIT
1002
{
1070
     3
1000
923097
1002
}
  0
LINE
  5
1D6
330
1C9
100
AcDbEntity
  8
M-PIPE
100
AcDbLine
 10
709.0828651324212
 20
1712.44354941962
 30
0.0
 11
707.8674752696695
 21
1711.901092076203
 31
0.0
1001
REVIT
1002
{
1070
     3
1000
923097
1002
}
  0
LINE
  5
1D7
330
1C9
100
AcDbEntity
  8
M-PIPE
100
AcDbLine
 10
707.8674752696717
 20
1673.409441073027
 30
0.0
 11
709.0855150895413
 21
1672.874305288205
 31
0.0
1001
REVIT
1002
{
1070
     3
1000
923097
1002
}
  0
LWPOLYLINE
  5
1D8
330
1C9
100
AcDbEntity
  8
M-PIPE
100
AcDbPolyline
 90
        4
 70
   128
 43
0.0
 10
709.2447498132501
 20
1672.804346820958
 10
709.5600668574701
 20
1672.665814868904
 10
711.3306628468792
 20
1671.9747231289
 10
712.1665249822948
 20
1671.688266419035
1001
REVIT
1002
{
1070
     3
1000
923097
1002
}
  0
LWPOLYLINE
  5
1D9
330
1C9
100
AcDbEntity
  8
M-PIPE
100
AcDbPolyline
 90
        3
 70
   128
 43
0.0
 10
712.7571266053193
 20
1671.485862469144
 10
713.1736413658662
 20
1671.343119494123
 10
714.5471971013155
 20
1670.927320861768
1001
REVIT
1002
{
1070
     3
1000
923097
1002
}
  0
ELLIPSE
  5
1DA
330
1C9
100
AcDbEntity
  8
M-PIPE
100
AcDbEllipse
 10
720.0382815113936
 20
1692.655266574615
 30
0.0
 11
0.0
 21
22.50000000000046
 31
0.0
210
0.0
220
0.0
230
1.0
 40
0.9396926207859058
 41
4.712388980384695
 42
6.518804756198838
1001
REVIT
1002
{
1070
     3
1000
923097
1002
}
  0
ELLIPSE
  5
1DB
330
1C9
100
AcDbEntity
  8
M-PIPE
100
AcDbEllipse
 10
783.1126949157444
 20
1473.969922269025
 30
0.0
 11
-68.55373994149113
 21
240.416636325015
 31
0.0
210
0.0
220
0.0
230
1.0
 40
0.3303660895493446
 41
0.0103713125452989
 42
0.0506859024648805
1001
REVIT
1002
{
1070
     3
1000
923097
1002
}
  0
ELLIPSE
  5
1DC
330
1C9
100
AcDbEntity
  8
M-PIPE
100
AcDbEllipse
 10
719.1832311530882
 20
1692.655266574615
 30
0.0
 11
0.0
 21
22.25100234637491
 31
0.0
210
0.0
220
0.0
230
1.0
 40
0.9396926207859207
 41
6.023002737595972
 42
6.54660151319466
1001
REVIT
1002
{
1070
     3
1000
923097
1002
}
  0
SPLINE
  5
1DD
330
1C9
100
AcDbEntity
  8
M-PIPE
100
AcDbSpline
210
0.0
220
0.0
230
1.0
 70
     8
 71
     3
 72
     9
 73
     5
 74
     0
 42
0.000000001
 43
0.0000000001
 40
-1.0
 40
-1.0
 40
-1.0
 40
-1.0
 40
-0.5
 40
0.0
 40
0.0
 40
0.0
 40
0.0
 10
724.562243792149
 20
1714.157367534455
 30
0.0
 10
723.9482342508733
 20
1713.988423194811
 30
0.0
 10
722.7134816147396
 20
1713.618082663732
 30
0.0
 10
721.4652618714421
 20
1713.182838429071
 30
0.0
 10
720.8377852230023
 20
1712.948990385845
 30
0.0
1001
REVIT
1002
{
1070
     3
1000
923097
1002
}
  0
ELLIPSE
  5
1DE
330
1C9
100
AcDbEntity
  8
M-PIPE
100
AcDbEllipse
 10
672.9918711520565
 20
1911.321988430555
 30
0.0
 11
-68.5537399414994
 21
240.416636325069
 31
0.0
210
0.0
220
0.0
230
0.9999999999999998
 40
0.3303660895493474
 41
2.903056253178416
 42
2.943370843097985
1001
REVIT
1002
{
1070
     3
1000
923097
1002
}
  0
ELLIPSE
  5
1DF
330
1C9
100
AcDbEntity
  8
M-PIPE
100
AcDbEllipse
 10
719.1832311530882
 20
1692.655266574615
 30
0.0
 11
0.0
 21
22.25100234637503
 31
0.0
210
0.0
220
0.0
230
1.0
 40
0.9396926207859149
 41
2.878176447574742
 42
3.401775223173422
1001
REVIT
1002
{
1070
     3
1000
923097
1002
}
  0
SPLINE
  5
1E0
330
1C9
100
AcDbEntity
  8
M-PIPE
100
AcDbSpline
210
0.0
220
0.0
230
1.0
 70
     8
 71
     3
 72
     9
 73
     5
 74
     0
 42
0.000000001
 43
0.0000000001
 40
-1.0
 40
-1.0
 40
-1.0
 40
-1.0
 40
-0.5
 40
0.0
 40
0.0
 40
0.0
 40
0.0
 10
713.7389099441076
 20
1671.17178806448
 30
0.0
 10
713.2099773524624
 20
1671.340732404124
 30
0.0
 10
712.1617207112531
 20
1671.711072935203
 30
0.0
 10
711.1326811542063
 20
1672.146317169864
 30
0.0
 10
710.6229656467236
 20
1672.380165213089
 30
0.0
1001
REVIT
1002
{
1070
     3
1000
923097
1002
}
  0
ELLIPSE
  5
1E1
330
1C9
100
AcDbEntity
  8
M-PIPE
100
AcDbEllipse
 10
720.0382815113936
 20
1692.655266574615
 30
0.0
 11
0.0
 21
22.50000000000034
 31
0.0
210
0.0
220
0.0
230
1.0
 40
0.9396926207859088
 41
2.905973204570564
 42
4.712388980384685
1001
REVIT
1002
{
1070
     3
1000
923097
1002
}
  0
ELLIPSE
  5
1E2
330
1C9
100
AcDbEntity
  8
M-PIPE
100
AcDbEllipse
 10
715.7630297198227
 20
1692.655266574615
 30
0.0
 11
0.0
 21
20.99999999999997
 31
0.0
210
0.0
220
0.0
230
1.0
 40
0.9396926207859063
 41
5.975258280587013
 42
6.023099054039049
1001
REVIT
1002
{
1070
     3
1000
923097
1002
}
  0
ELLIPSE
  5
1E3
330
1C9
100
AcDbEntity
  8
M-PIPE
100
AcDbEllipse
 10
715.7630297198227
 20
1692.655266574615
 30
0.0
 11
0.0
 21
21.00000000000015
 31
0.0
210
0.0
220
0.0
230
1.0
 40
0.9396926207858987
 41
5.417426733942722
 42
5.968970997625802
1001
REVIT
1002
{
1070
     3
1000
923097
1002
}
  0
ELLIPSE
  5
1E4
330
1C9
100
AcDbEntity
  8
M-PIPE
100
AcDbEllipse
 10
715.7630297198227
 20
1692.655266574615
 30
0.0
 11
0.0
 21
20.99999999999997
 31
0.0
210
0.0
220
0.0
230
1.0
 40
0.9396926207859047
 41
5.337350653112459
 42
5.367744017211883
1001
REVIT
1002
{
1070
     3
1000
923097
1002
}
  0
ELLIPSE
  5
1E5
330
1C9
100
AcDbEntity
  8
M-PIPE
100
AcDbEllipse
 10
715.7630297198227
 20
1692.655266574615
 30
0.0
 11
0.0
 21
20.99999999999991
 31
0.0
210
0.0
220
0.0
230
1.0
 40
0.9396926207859122
 41
5.294926790897755
 42
5.326786315243421
1001
REVIT
1002
{
1070
     3
1000
923097
1002
}
  0
ELLIPSE
  5
1E6
330
1C9
100
AcDbEntity
  8
M-PIPE
100
AcDbEllipse
 10
715.7630297198227
 20
1692.655266574615
 30
0.0
 11
0.0
 21
20.99999999999999
 31
0.0
210
0.0
220
0.0
230
1.0
 40
0.9396926207859154
 41
5.212453003426231
 42
5.257470843980444
1001
REVIT
1002
{
1070
     3
1000
923097
1002
}
  0
ELLIPSE
  5
1E7
330
1C9
100
AcDbEntity
  8
M-PIPE
100
AcDbEllipse
 10
715.7630297198227
 20
1692.655266574615
 30
0.0
 11
0.0
 21
20.99999999999966
 31
0.0
210
0.0
220
0.0
230
1.0
 40
0.9396926207859303
 41
4.712388980384695
 42
5.178135034684139
1001
REVIT
1002
{
1070
     3
1000
923097
1002
}
  0
LINE
  5
1E8
330
1C9
100
AcDbEntity
  8
M-PIPE
100
AcDbLine
 10
720.8377852230023
 20
1712.948990385845
 30
0.0
 11
720.8338953119896
 21
1712.93354134941
 31
0.0
1001
REVIT
1002
{
1070
     3
1000
923097
1002
}
  0
LINE
  5
1E9
330
1C9
100
AcDbEntity
  8
M-PIPE
100
AcDbLine
 10
710.62708463715
 20
1712.914009095804
 30
0.0
 11
710.622965646723
 21
1712.93036793614
 31
0.0
1001
REVIT
1002
{
1070
     3
1000
923097
1002
}
  0
ELLIPSE
  5
1EA
330
1C9
100
AcDbEntity
  8
M-PIPE
100
AcDbEllipse
 10
715.7630297198233
 20
1692.655266574615
 30
0.0
 11
0.0
 21
21.00000000000024
 31
0.0
210
0.0
220
0.0
230
1.0
 40
0.9396926207859122
 41
0.3925360694500375
 42
0.4116349749889626
1001
REVIT
1002
{
1070
     3
1000
923097
1002
}
  0
ELLIPSE
  5
1EB
330
1C9
100
AcDbEntity
  8
M-PIPE
100
AcDbEllipse
 10
715.7630297198233
 20
1692.655266574615
 30
0.0
 11
0.0
 21
21.00000000000038
 31
0.0
210
0.0
220
0.0
230
1.0
 40
0.939692620785909
 41
0.3140212109887226
 42
0.3728188600589253
1001
REVIT
1002
{
1070
     3
1000
923097
1002
}
  0
ELLIPSE
  5
1EC
330
1C9
100
AcDbEntity
  8
M-PIPE
100
AcDbEllipse
 10
715.7630297198233
 20
1692.655266574615
 30
0.0
 11
0.0
 21
21.00000000000008
 31
0.0
210
0.0
220
0.0
230
1.0
 40
0.9396926207859239
 41
0.2635125224581694
 42
0.2957550430034914
1001
REVIT
1002
{
1070
     3
1000
923097
1002
}
  0
ELLIPSE
  5
1ED
330
1C9
100
AcDbEntity
  8
M-PIPE
100
AcDbEllipse
 10
715.7630297198227
 20
1692.655266574615
 30
0.0
 11
0.0
 21
20.99999999999986
 31
0.0
210
0.0
220
0.0
230
1.0
 40
0.9396926207859202
 41
2.846268853890445
 42
2.878080131131655
1001
REVIT
1002
{
1070
     3
1000
923097
1002
}
  0
ELLIPSE
  5
1EE
330
1C9
100
AcDbEntity
  8
M-PIPE
100
AcDbEllipse
 10
715.7630297198227
 20
1692.655266574615
 30
0.0
 11
0.0
 21
20.99999999999991
 31
0.0
210
0.0
220
0.0
230
1.0
 40
0.939692620785912
 41
2.769660920152661
 42
2.827844732280921
1001
REVIT
1002
{
1070
     3
1000
923097
1002
}
  0
ELLIPSE
  5
1EF
330
1C9
100
AcDbEntity
  8
M-PIPE
100
AcDbEllipse
 10
715.7630297198227
 20
1692.655266574615
 30
0.0
 11
0.0
 21
20.99999999999981
 31
0.0
210
0.0
220
0.0
230
1.0
 40
0.9396926207859221
 41
2.729957678600991
 42
2.749698145438484
1001
REVIT
1002
{
1070
     3
1000
923097
1002
}
  0
LINE
  5
1F0
330
1C9
100
AcDbEntity
  8
M-PIPE
100
AcDbLine
 10
710.6229656467236
 20
1672.380165213089
 30
0.0
 11
710.6270846371693
 21
1672.396524053501
 31
0.0
1001
REVIT
1002
{
1070
     3
1000
923097
1002
}
  0
LINE
  5
1F1
330
1C9
100
AcDbEntity
  8
M-PIPE
100
AcDbLine
 10
720.8338953119714
 20
1672.376991799895
 30
0.0
 11
720.837785223003
 21
1672.361542763385
 31
0.0
1001
REVIT
1002
{
1070
     3
1000
923097
1002
}
  0
ELLIPSE
  5
1F2
330
1C9
100
AcDbEntity
  8
M-PIPE
100
AcDbEllipse
 10
715.7630297198233
 20
1692.655266574615
 30
0.0
 11
0.0
 21
21.00000000000045
 31
0.0
210
0.0
220
0.0
230
1.0
 40
0.9396926207859053
 41
4.246436138069983
 42
4.712388980384695
1001
REVIT
1002
{
1070
     3
1000
923097
1002
}
  0
ELLIPSE
  5
1F3
330
1C9
100
AcDbEntity
  8
M-PIPE
100
AcDbEllipse
 10
715.7630297198233
 20
1692.655266574615
 30
0.0
 11
0.0
 21
21.00000000000013
 31
0.0
210
0.0
220
0.0
230
0.9999999999999998
 40
0.9396926207859086
 41
4.167339934774945
 42
4.202668396185792
1001
REVIT
1002
{
1070
     3
1000
923097
1002
}
  0
ELLIPSE
  5
1F4
330
1C9
100
AcDbEntity
  8
M-PIPE
100
AcDbEllipse
 10
715.7630297198233
 20
1692.655266574615
 30
0.0
 11
0.0
 21
20.99999999999993
 31
0.0
210
0.0
220
0.0
230
0.9999999999999998
 40
0.9396926207859237
 41
4.098324624249452
 42
4.129851169871661
1001
REVIT
1002
{
1070
     3
1000
923097
1002
}
  0
ELLIPSE
  5
1F5
330
1C9
100
AcDbEntity
  8
M-PIPE
100
AcDbEllipse
 10
715.7630297198233
 20
1692.655266574615
 30
0.0
 11
0.0
 21
21.0000000000002
 31
0.0
210
0.0
220
0.0
230
1.0
 40
0.9396926207859117
 41
4.047110179592225
 42
4.087796678496543
1001
REVIT
1002
{
1070
     3
1000
923097
1002
}
  0
ELLIPSE
  5
1F6
330
1C9
100
AcDbEntity
  8
M-PIPE
100
AcDbEllipse
 10
715.7630297198233
 20
1692.655266574615
 30
0.0
 11
0.0
 21
21.0000000000002
 31
0.0
210
0.0
220
0.0
230
1.0
 40
0.9396926207859165
 41
3.456083711775534
 42
4.008071472418773
1001
REVIT
1002
{
1070
     3
1000
923097
1002
}
  0
ELLIPSE
  5
1F7
330
1C9
100
AcDbEntity
  8
M-PIPE
100
AcDbEllipse
 10
715.7630297198233
 20
1692.655266574615
 30
0.0
 11
0.0
 21
20.99999999999996
 31
0.0
210
0.0
220
0.0
230
1.0
 40
0.9396926207859298
 41
3.401678906730372
 42
3.449764282879759
1001
REVIT
1002
{
1070
     3
1000
923097
1002
}
  0
LINE
  5
1F8
330
1C9
100
AcDbEntity
  8
M-PIPE
100
AcDbLine
 10
713.738909944107
 20
1714.13874508475
 30
0.0
 11
713.8874712396021
 21
1713.548724166673
 31
0.0
1001
REVIT
1002
{
1070
     3
1000
923097
1002
}
  0
LINE
  5
1F9
330
1C9
100
AcDbEntity
  8
M-PIPE
100
AcDbLine
 10
713.8874712396223
 20
1671.761808982634
 30
0.0
 11
713.7389099441076
 21
1671.17178806448
 31
0.0
1001
REVIT
1002
{
1070
     3
1000
923097
1002
}
  0
LINE
  5
1FA
330
1C9
100
AcDbEntity
  8
M-PIPE
100
AcDbLine
 10
729.6148455245201
 20
1719.155266574605
 30
0.0
 11
728.5887850945431
 21
1719.155266574605
 31
0.0
1001
REVIT
1002
{
1070
     3
1000
923097
1002
}
  0
LINE
  5
1FB
330
1C9
100
AcDbEntity
  8
M-PIPE
100
AcDbLine
 10
728.5887850945451
 20
1666.155266574667
 30
0.0
 11
729.6148455245222
 21
1666.155266574667
 31
0.0
1001
REVIT
1002
{
1070
     3
1000
923097
1002
}
  0
LINE
  5
1FC
330
1C9
100
AcDbEntity
  8
M-PIPE
100
AcDbLine
 10
728.5887850945431
 20
1718.22748773531
 30
0.0
 11
725.9197958302041
 21
1718.22748773531
 31
0.0
1001
REVIT
1002
{
1070
     3
1000
923097
1002
}
  0
LINE
  5
1FD
330
1C9
100
AcDbEntity
  8
M-PIPE
100
AcDbLine
 10
725.9197958302061
 20
1667.083045413962
 30
0.0
 11
728.5887850945451
 21
1667.083045413962
 31
0.0
1001
REVIT
1002
{
1070
     3
1000
923097
1002
}
  0
LWPOLYLINE
  5
1FE
330
1C9
100
AcDbEntity
  8
M-PIPE
100
AcDbPolyline
 90
        6
 70
   128
 43
0.0
 10
723.6685919996094
 20
1716.073368677741
 10
721.5703372913083
 20
1715.841470051349
 10
719.5028222262703
 20
1715.523616175915
 10
717.4753606848069
 20
1715.123279607182
 10
715.4967481787013
 20
1714.644789868556
 10
714.5331401290783
 20
1714.379183675839
1001
REVIT
1002
{
1070
     3
1000
923097
1002
}
  0
LWPOLYLINE
  5
1FF
330
1C9
100
AcDbEntity
  8
M-PIPE
100
AcDbPolyline
 90
        6
 70
   128
 43
0.0
 10
714.5331401290798
 20
1670.931349473432
 10
716.4843634258488
 20
1670.415836224954
 10
718.4885852400229
 20
1669.976026427094
 10
720.537308032117
 20
1669.616647986398
 10
722.6214618849129
 20
1669.341608596036
 10
723.6685919996111
 20
1669.23716447153
1001
REVIT
1002
{
1070
     3
1000
923097
1002
}
  0
ELLIPSE
  5
200
330
1C9
100
AcDbEntity
  8
M-PIPE
100
AcDbEllipse
 10
729.61484552452
 20
1692.655266574635
 30
0.0
 11
0.0
 21
26.49999999996908
 31
0.0
210
0.0
220
0.0
230
1.0
 40
0.9396926207859117
 41
4.712388980384685
 42
4.790928796724427
1001
REVIT
1002
{
1070
     3
1000
923097
1002
}
  0
ELLIPSE
  5
201
330
1C9
100
AcDbEntity
  8
M-PIPE
100
AcDbEllipse
 10
729.61484552452
 20
1692.655266574635
 30
0.0
 11
0.0
 21
26.49999999996919
 31
0.0
210
0.0
220
0.0
230
1.0
 40
0.939692620785911
 41
4.799675138059368
 42
4.878211383629942
1001
REVIT
1002
{
1070
     3
1000
923097
1002
}
  0
ELLIPSE
  5
202
330
1C9
100
AcDbEntity
  8
M-PIPE
100
AcDbEllipse
 10
729.61484552452
 20
1692.655266574635
 30
0.0
 11
0.0
 21
26.499999999969
 31
0.0
210
0.0
220
0.0
230
1.0
 40
0.9396926207859189
 41
4.886997326392936
 42
4.948008429403914
1001
REVIT
1002
{
1070
     3
1000
923097
1002
}
  0
ELLIPSE
  5
203
330
1C9
100
AcDbEntity
  8
M-PIPE
100
AcDbEllipse
 10
729.61484552452
 20
1692.655266574635
 30
0.0
 11
0.0
 21
26.499999999969
 31
0.0
210
0.0
220
0.0
230
1.0
 40
0.9396926207859161
 41
4.974338072851811
 42
5.026548245743661
1001
REVIT
1002
{
1070
     3
1000
923097
1002
}
  0
ELLIPSE
  5
204
330
1C9
100
AcDbEntity
  8
M-PIPE
100
AcDbEllipse
 10
729.61484552452
 20
1692.655266574635
 30
0.0
 11
0.0
 21
26.49999999996901
 31
0.0
210
0.0
220
0.0
230
1.0
 40
0.9396926207859195
 41
5.061679632521414
 42
5.149003217657324
1001
REVIT
1002
{
1070
     3
1000
923097
1002
}
  0
ELLIPSE
  5
205
330
1C9
100
AcDbEntity
  8
M-PIPE
100
AcDbEllipse
 10
729.61484552452
 20
1692.655266574635
 30
0.0
 11
0.0
 21
26.49999999996922
 31
0.0
210
0.0
220
0.0
230
1.0
 40
0.9396926207859054
 41
5.164349464800442
 42
5.236288051672358
1001
REVIT
1002
{
1070
     3
1000
923097
1002
}
  0
ELLIPSE
  5
206
330
1C9
100
AcDbEntity
  8
M-PIPE
100
AcDbEllipse
 10
729.61484552452
 20
1692.655266574635
 30
0.0
 11
0.0
 21
26.49999999996876
 31
0.0
210
0.0
220
0.0
230
1.0
 40
0.9396926207859264
 41
5.262167694762904
 42
5.323510104577361
1001
REVIT
1002
{
1070
     3
1000
923097
1002
}
  0
ELLIPSE
  5
207
330
1C9
100
AcDbEntity
  8
M-PIPE
100
AcDbEllipse
 10
729.61484552452
 20
1692.655266574635
 30
0.0
 11
0.0
 21
26.49999999996895
 31
0.0
210
0.0
220
0.0
230
0.9999999999999998
 40
0.9396926207859191
 41
5.340707511102648
 42
5.410640281130561
1001
REVIT
1002
{
1070
     3
1000
923097
1002
}
  0
ELLIPSE
  5
208
330
1C9
100
AcDbEntity
  8
M-PIPE
100
AcDbEllipse
 10
729.61484552452
 20
1692.655266574635
 30
0.0
 11
0.0
 21
26.499999999969
 31
0.0
210
0.0
220
0.0
230
1.0
 40
0.9396926207859147
 41
5.413329048390702
 42
5.81194640914112
1001
REVIT
1002
{
1070
     3
1000
923097
1002
}
  0
ELLIPSE
  5
209
330
1C9
100
AcDbEntity
  8
M-PIPE
100
AcDbEllipse
 10
729.61484552452
 20
1692.655266574635
 30
0.0
 11
0.0
 21
26.49999999996896
 31
0.0
210
0.0
220
0.0
230
0.9999999999999998
 40
0.9396926207859173
 41
5.846571069907362
 42
6.021236214712851
1001
REVIT
1002
{
1070
     3
1000
923097
1002
}
  0
ELLIPSE
  5
20A
330
1C9
100
AcDbEntity
  8
M-PIPE
100
AcDbEllipse
 10
729.61484552452
 20
1692.655266574635
 30
0.0
 11
0.0
 21
26.49999999996929
 31
0.0
210
0.0
220
0.0
230
1.0
 40
0.9396926207859076
 41
6.047565858160361
 42
6.108576961171706
1001
REVIT
1002
{
1070
     3
1000
923097
1002
}
  0
ELLIPSE
  5
20B
330
1C9
100
AcDbEntity
  8
M-PIPE
100
AcDbEllipse
 10
729.61484552452
 20
1692.655266574635
 30
0.0
 11
0.0
 21
26.49999999996902
 31
0.0
210
0.0
220
0.0
230
1.0
 40
0.9396926207859202
 41
6.126105674500103
 42
6.204645490839846
1001
REVIT
1002
{
1070
     3
1000
923097
1002
}
  0
ELLIPSE
  5
20C
330
1C9
100
AcDbEntity
  8
M-PIPE
100
AcDbEllipse
 10
729.61484552452
 20
1692.655266574635
 30
0.0
 11
0.0
 21
26.49999999996937
 31
0.0
210
0.0
220
0.0
230
1.0
 40
0.9396926207859038
 41
3.220132469929537
 42
3.298672286269282
1001
REVIT
1002
{
1070
     3
1000
923097
1002
}
  0
ELLIPSE
  5
20D
330
1C9
100
AcDbEntity
  8
M-PIPE
100
AcDbEllipse
 10
729.61484552452
 20
1692.655266574635
 30
0.0
 11
0.0
 21
26.49999999996927
 31
0.0
210
0.0
220
0.0
230
0.9999999999999998
 40
0.939692620785907
 41
3.316200999597679
 42
3.377212102609027
1001
REVIT
1002
{
1070
     3
1000
923097
1002
}
  0
ELLIPSE
  5
20E
330
1C9
100
AcDbEntity
  8
M-PIPE
100
AcDbEllipse
 10
729.61484552452
 20
1692.655266574635
 30
0.0
 11
0.0
 21
26.49999999996904
 31
0.0
210
0.0
220
0.0
230
0.9999999999999998
 40
0.9396926207859165
 41
3.403541746056528
 42
3.578206890862012
1001
REVIT
1002
{
1070
     3
1000
923097
1002
}
  0
ELLIPSE
  5
20F
330
1C9
100
AcDbEntity
  8
M-PIPE
100
AcDbEllipse
 10
729.61484552452
 20
1692.655266574635
 30
0.0
 11
0.0
 21
26.49999999996918
 31
0.0
210
0.0
220
0.0
230
1.0
 40
0.9396926207859086
 41
3.612831551628259
 42
4.011448912378651
1001
REVIT
1002
{
1070
     3
1000
923097
1002
}
  0
ELLIPSE
  5
210
330
1C9
100
AcDbEntity
  8
M-PIPE
100
AcDbEllipse
 10
729.61484552452
 20
1692.655266574635
 30
0.0
 11
0.0
 21
26.49999999996908
 31
0.0
210
0.0
220
0.0
230
1.0
 40
0.939692620785917
 41
4.014137679640693
 42
4.084070449666716
1001
REVIT
1002
{
1070
     3
1000
923097
1002
}
  0
ELLIPSE
  5
211
330
1C9
100
AcDbEntity
  8
M-PIPE
100
AcDbEllipse
 10
729.61484552452
 20
1692.655266574635
 30
0.0
 11
0.0
 21
26.49999999996902
 31
0.0
210
0.0
220
0.0
230
0.9999999999999998
 40
0.9396926207859189
 41
4.101267856193794
 42
4.260428495968893
1001
REVIT
1002
{
1070
     3
1000
923097
1002
}
  0
ELLIPSE
  5
212
330
1C9
100
AcDbEntity
  8
M-PIPE
100
AcDbEllipse
 10
729.61484552452
 20
1692.655266574635
 30
0.0
 11
0.0
 21
26.49999999996912
 31
0.0
210
0.0
220
0.0
230
1.0
 40
0.9396926207859122
 41
4.275774743113672
 42
4.363098328249522
1001
REVIT
1002
{
1070
     3
1000
923097
1002
}
  0
ELLIPSE
  5
213
330
1C9
100
AcDbEntity
  8
M-PIPE
100
AcDbEllipse
 10
729.61484552452
 20
1692.655266574635
 30
0.0
 11
0.0
 21
26.49999999996914
 31
0.0
210
0.0
220
0.0
230
0.9999999999999998
 40
0.9396926207859122
 41
4.398229715025693
 42
4.537780634377924
1001
REVIT
1002
{
1070
     3
1000
923097
1002
}
  0
ELLIPSE
  5
214
330
1C9
100
AcDbEntity
  8
M-PIPE
100
AcDbEllipse
 10
729.61484552452
 20
1692.655266574635
 30
0.0
 11
0.0
 21
26.49999999996909
 31
0.0
210
0.0
220
0.0
230
1.0
 40
0.9396926207859108
 41
4.555309347705185
 42
4.625102822711474
1001
REVIT
1002
{
1070
     3
1000
923097
1002
}
  0
ELLIPSE
  5
215
330
1C9
100
AcDbEntity
  8
M-PIPE
100
AcDbEllipse
 10
729.61484552452
 20
1692.655266574635
 30
0.0
 11
0.0
 21
26.49999999996893
 31
0.0
210
0.0
220
0.0
230
0.9999999999999998
 40
0.9396926207859189
 41
4.633849164044933
 42
4.712388980384676
1001
REVIT
1002
{
1070
     3
1000
923097
1002
}
  0
ELLIPSE
  5
216
330
1C9
100
AcDbEntity
  8
M-PIPE
100
AcDbEllipse
 10
728.5887850945429
 20
1692.655266574635
 30
0.0
 11
0.0
 21
26.49999999996904
 31
0.0
210
0.0
220
0.0
230
1.0
 40
0.9396926207859149
 41
4.712388980384685
 42
6.897665783060984
1001
REVIT
1002
{
1070
     3
1000
923097
1002
}
  0
ELLIPSE
  5
217
330
1C9
100
AcDbEntity
  8
M-PIPE
100
AcDbEllipse
 10
728.5887850945429
 20
1692.655266574635
 30
0.0
 11
0.0
 21
26.49999999996931
 31
0.0
210
0.0
220
0.0
230
1.0
 40
0.9396926207859122
 41
3.185072806023799
 42
4.712388980384685
1001
REVIT
1002
{
1070
     3
1000
923097
1002
}
  0
ELLIPSE
  5
218
330
1C9
100
AcDbEntity
  8
M-PIPE
100
AcDbEllipse
 10
728.5887850945429
 20
1692.655266574635
 30
0.0
 11
0.0
 21
26.49999999996932
 31
0.0
210
0.0
220
0.0
230
1.0
 40
0.9396926207859058
 41
2.527097051799331
 42
3.176499238629689
1001
REVIT
1002
{
1070
     3
1000
923097
1002
}
  0
LINE
  5
219
330
1C9
100
AcDbEntity
  8
M-PIPE
100
AcDbLine
 10
732.6806642553288
 20
1717.854015340371
 30
0.0
 11
747.049528832612
 21
1709.025737190537
 31
0.0
1001
REVIT
1002
{
1070
     3
1000
923097
1002
}
  0
LINE
  5
21A
330
1C9
100
AcDbEntity
  8
M-PIPE
100
AcDbLine
 10
751.1414079934169
 20
1701.483544724412
 30
0.0
 11
751.1414079934163
 21
1683.826988424858
 31
0.0
1001
REVIT
1002
{
1070
     3
1000
923097
1002
}
  0
LINE
  5
21B
330
1C9
100
AcDbEntity
  8
M-PIPE
100
AcDbLine
 10
747.049528832561
 20
1676.284795958668
 30
0.0
 11
732.6806642554053
 21
1667.456517808914
 31
0.0
1001
REVIT
1002
{
1070
     3
1000
923097
1002
}
  0
ELLIPSE
  5
21C
330
1C9
100
AcDbEntity
  8
M-PIPE
100
AcDbEllipse
 10
728.5887850945429
 20
1692.655266574635
 30
0.0
 11
0.0
 21
25.57222116067396
 31
0.0
210
0.0
220
0.0
230
1.0
 40
0.9396926207859202
 41
6.112069549434881
 42
6.283185307178852
1001
REVIT
1002
{
1070
     3
1000
923097
1002
}
  0
LINE
  5
21D
330
1C9
100
AcDbEntity
  8
M-PIPE
100
AcDbLine
 10
730.011674990991
 20
1717.854015340371
 30
0.0
 11
732.68066425533
 21
1717.854015340371
 31
0.0
1001
REVIT
1002
{
1070
     3
1000
923097
1002
}
  0
ELLIPSE
  5
21E
330
1C9
100
AcDbEntity
  8
M-PIPE
100
AcDbEllipse
 10
728.5887850945429
 20
1692.655266574635
 30
0.0
 11
0.0
 21
25.57222116067415
 31
0.0
210
0.0
220
0.0
230
1.0
 40
0.9396926207859145
 41
5.06487199823592
 42
5.407103513727651
1001
REVIT
1002
{
1070
     3
1000
923097
1002
}
  0
LINE
  5
21F
330
1C9
100
AcDbEntity
  8
M-PIPE
100
AcDbLine
 10
747.0495288326112
 20
1709.025737190539
 30
0.0
 11
744.3805395682722
 21
1709.025737190539
 31
0.0
1001
REVIT
1002
{
1070
     3
1000
923097
1002
}
  0
LINE
  5
220
330
1C9
100
AcDbEntity
  8
M-PIPE
100
AcDbLine
 10
748.4724187290772
 20
1701.483544724413
 30
0.0
 11
751.1414079934162
 21
1701.483544724413
 31
0.0
1001
REVIT
1002
{
1070
     3
1000
923097
1002
}
  0
ELLIPSE
  5
221
330
1C9
100
AcDbEntity
  8
M-PIPE
100
AcDbEllipse
 10
728.5887850945429
 20
1692.655266574635
 30
0.0
 11
0.0
 21
25.57222116067443
 31
0.0
210
0.0
220
0.0
230
1.0
 40
0.9396926207859031
 41
4.017674447038404
 42
4.359905962533388
1001
REVIT
1002
{
1070
     3
1000
923097
1002
}
  0
LINE
  5
222
330
1C9
100
AcDbEntity
  8
M-PIPE
100
AcDbLine
 10
751.1414079934156
 20
1683.826988424856
 30
0.0
 11
748.4724187290765
 21
1683.826988424856
 31
0.0
1001
REVIT
1002
{
1070
     3
1000
923097
1002
}
  0
LINE
  5
223
330
1C9
100
AcDbEntity
  8
M-PIPE
100
AcDbLine
 10
744.3805395682237
 20
1676.28479595867
 30
0.0
 11
747.0495288325628
 21
1676.28479595867
 31
0.0
1001
REVIT
1002
{
1070
     3
1000
923097
1002
}
  0
ELLIPSE
  5
224
330
1C9
100
AcDbEntity
  8
M-PIPE
100
AcDbEllipse
 10
728.5887850945429
 20
1692.655266574635
 30
0.0
 11
0.0
 21
25.57222116067431
 31
0.0
210
0.0
220
0.0
230
1.0
 40
0.9396926207859046
 41
3.141592653590478
 42
3.312708411337734
1001
REVIT
1002
{
1070
     3
1000
923097
1002
}
  0
LINE
  5
225
330
1C9
100
AcDbEntity
  8
M-PIPE
100
AcDbLine
 10
732.6806642554024
 20
1667.456517808913
 30
0.0
 11
730.0116749910634
 21
1667.456517808913
 31
0.0
1001
REVIT
1002
{
1070
     3
1000
923097
1002
}
  0
SPLINE
  5
226
330
1C9
100
AcDbEntity
  8
M-PIPE
100
AcDbSpline
210
0.0
220
0.0
230
1.0
 70
     8
 71
     3
 72
     9
 73
     5
 74
     0
 42
0.000000001
 43
0.0000000001
 40
-1.0
 40
-1.0
 40
-1.0
 40
-1.0
 40
-0.5
 40
0.0
 40
0.0
 40
0.0
 40
0.0
 10
748.1619594143973
 20
1692.655266574635
 30
0.0
 10
748.1637358584214
 20
1694.141338110918
 30
0.0
 10
748.217255521559
 20
1697.09878933883
 30
0.0
 10
748.370708734875
 20
1700.026856877436
 30
0.0
 10
748.4724187290777
 20
1701.483544724412
 30
0.0
1001
REVIT
1002
{
1070
     3
1000
923097
1002
}
  0
ELLIPSE
  5
227
330
1C9
100
AcDbEntity
  8
M-PIPE
100
AcDbEllipse
 10
725.9197958302038
 20
1692.655266574635
 30
0.0
 11
0.0
 21
25.57222116067412
 31
0.0
210
0.0
220
0.0
230
1.0
 40
0.9396926207859152
 41
5.064871998235931
 42
5.407103513727661
1001
REVIT
1002
{
1070
     3
1000
923097
1002
}
  0
SPLINE
  5
228
330
1C9
100
AcDbEntity
  8
M-PIPE
100
AcDbSpline
210
0.0
220
0.0
230
1.0
 70
     8
 71
     3
 72
     9
 73
     5
 74
     0
 42
0.000000001
 43
0.0000000001
 40
-1.0
 40
-1.0
 40
-1.0
 40
-1.0
 40
-0.5
 40
0.0
 40
0.0
 40
0.0
 40
0.0
 10
744.3805395682728
 20
1709.025737190537
 30
0.0
 10
741.8135634729309
 20
1710.47573794295
 30
0.0
 10
736.8517766147085
 20
1713.397118387
 30
0.0
 10
732.2343204214089
 20
1716.361256709506
 30
0.0
 10
730.0116749909898
 20
1717.854015340371
 30
0.0
1001
REVIT
1002
{
1070
     3
1000
923097
1002
}
  0
ELLIPSE
  5
229
330
1C9
100
AcDbEntity
  8
M-PIPE
100
AcDbEllipse
 10
725.9197958302038
 20
1692.655266574635
 30
0.0
 11
0.0
 21
25.57222116067415
 31
0.0
210
0.0
220
0.0
230
1.0
 40
0.9396926207859175
 41
6.112069549434875
 42
6.454301064922856
1001
REVIT
1002
{
1070
     3
1000
923097
1002
}
  0
SPLINE
  5
22A
330
1C9
100
AcDbEntity
  8
M-PIPE
100
AcDbSpline
210
0.0
220
0.0
230
1.0
 70
     8
 71
     3
 72
     8
 73
     4
 74
     0
 42
0.000000001
 43
0.0000000001
 40
-1.0
 40
-1.0
 40
-1.0
 40
-1.0
 40
-0.6784763839784168
 40
-0.6784763839784168
 40
-0.6784763839784168
 40
-0.6784763839784168
 10
721.8279166694521
 20
1717.854015340378
 30
0.0
 10
720.1772297966146
 20
1716.921596370076
 30
0.0
 10
718.5621389449362
 20
1715.984757199944
 30
0.0
 10
716.9826441144167
 20
1715.043497829984
 30
0.0
1001
REVIT
1002
{
1070
     3
1000
923097
1002
}
  0
SPLINE
  5
22B
330
1C9
100
AcDbEntity
  8
M-PIPE
100
AcDbSpline
210
0.0
220
0.0
230
1.0
 70
     8
 71
     3
 72
     8
 73
     4
 74
     0
 42
0.000000001
 43
0.0000000001
 40
-0.3248984106245014
 40
-0.3248984106245014
 40
-0.3248984106245014
 40
-0.3248984106245014
 40
0.0
 40
0.0
 40
0.0
 40
0.0
 10
716.8413332173189
 20
1670.352946814825
 30
0.0
 10
718.452488277063
 20
1669.391983957438
 30
0.0
 10
720.1146827610814
 20
1668.426507622131
 30
0.0
 10
721.8279166693739
 20
1667.456517808907
 30
0.0
1001
REVIT
1002
{
1070
     3
1000
923097
1002
}
  0
ELLIPSE
  5
22C
330
1C9
100
AcDbEntity
  8
M-PIPE
100
AcDbEllipse
 10
725.9197958302038
 20
1692.655266574635
 30
0.0
 11
0.0
 21
25.572221160674
 31
0.0
210
0.0
220
0.0
230
0.9999999999999998
 40
0.9396926207859142
 41
2.97047689584323
 42
3.312708411337725
1001
REVIT
1002
{
1070
     3
1000
923097
1002
}
  0
SPLINE
  5
22D
330
1C9
100
AcDbEntity
  8
M-PIPE
100
AcDbSpline
210
0.0
220
0.0
230
1.0
 70
     8
 71
     3
 72
     9
 73
     5
 74
     0
 42
0.000000001
 43
0.0000000001
 40
-1.0
 40
-1.0
 40
-1.0
 40
-1.0
 40
-0.5
 40
0.0
 40
0.0
 40
0.0
 40
0.0
 10
730.0116749910661
 20
1667.456517808914
 30
0.0
 10
732.1647278967774
 20
1668.906518561312
 30
0.0
 10
736.7125915653485
 20
1671.827899005337
 30
0.0
 10
741.7439709482149
 20
1674.792037327815
 30
0.0
 10
744.380539568222
 20
1676.284795958668
 30
0.0
1001
REVIT
1002
{
1070
     3
1000
923097
1002
}
  0
ELLIPSE
  5
22E
330
1C9
100
AcDbEntity
  8
M-PIPE
100
AcDbEllipse
 10
725.9197958302038
 20
1692.655266574635
 30
0.0
 11
0.0
 21
25.57222116067443
 31
0.0
210
0.0
220
0.0
230
1.0
 40
0.9396926207859003
 41
4.017674447038424
 42
4.359905962533387
1001
REVIT
1002
{
1070
     3
1000
923097
1002
}
  0
SPLINE
  5
22F
330
1C9
100
AcDbEntity
  8
M-PIPE
100
AcDbSpline
210
0.0
220
0.0
230
1.0
 70
     8
 71
     3
 72
     9
 73
     5
 74
     0
 42
0.000000001
 43
0.0000000001
 40
-1.0
 40
-1.0
 40
-1.0
 40
-1.0
 40
-0.5
 40
0.0
 40
0.0
 40
0.0
 40
0.0
 10
748.4724187290772
 20
1683.826988424857
 30
0.0
 10
748.3707087348745
 20
1685.283676271833
 30
0.0
 10
748.2172555215587
 20
1688.211743810439
 30
0.0
 10
748.1637358584212
 20
1691.169195038352
 30
0.0
 10
748.1619594143973
 20
1692.655266574635
 30
0.0
1001
REVIT
1002
{
1070
     3
1000
923097
1002
}
  0
ELLIPSE
  5
230
330
1C9
100
AcDbEntity
  8
M-PIPE
100
AcDbEllipse
 10
725.5106038046129
 20
1692.655266574635
 30
0.0
 11
0.0
 21
23.50000000000007
 31
0.0
210
0.0
220
0.0
230
1.0
 40
0.9396926207859145
 41
4.712388980384695
 42
6.44026493985909
1001
REVIT
1002
{
1070
     3
1000
923097
1002
}
  0
ELLIPSE
  5
231
330
1C9
100
AcDbEntity
  8
M-PIPE
100
AcDbEllipse
 10
725.5106038046129
 20
1692.655266574635
 30
0.0
 11
0.0
 21
23.5
 31
0.0
210
0.0
220
0.0
230
1.0
 40
0.9396926207859179
 41
3.05808166034688
 42
4.712388980384685
1001
REVIT
1002
{
1070
     3
1000
923097
1002
}
  0
ELLIPSE
  5
232
330
1C9
100
AcDbEntity
  8
M-PIPE
100
AcDbEllipse
 10
720.0382815114027
 20
1692.655266574635
 30
0.0
 11
0.0
 21
22.49999999999978
 31
0.0
210
0.0
220
0.0
230
0.9999999999999998
 40
0.939692620785928
 41
4.712388980384695
 42
6.518804756198839
1001
REVIT
1002
{
1070
     3
1000
923097
1002
}
  0
ELLIPSE
  5
233
330
1C9
100
AcDbEntity
  8
M-PIPE
100
AcDbEllipse
 10
720.0382815114027
 20
1692.655266574635
 30
0.0
 11
0.0
 21
22.50000000000046
 31
0.0
210
0.0
220
0.0
230
1.0
 40
0.9396926207859058
 41
2.905973204570566
 42
4.712388980384685
1001
REVIT
1002
{
1070
     3
1000
923097
1002
}
  0
LWPOLYLINE
  5
234
330
1C9
100
AcDbEntity
  8
P-SANR-FIXT
100
AcDbPolyline
 90
       11
 70
   128
 43
0.0
 10
694.0156226971788
 20
1698.888000025552
 10
693.7930634791664
 20
1698.221069403766
 10
693.5959710820301
 20
1697.545977888365
 10
693.4245795533636
 20
1696.863733705287
 10
693.2790908463577
 20
1696.175348401743
 10
693.1596752504762
 20
1695.481836273336
 10
693.0664717583803
 20
1694.784213838792
 10
692.9995883677066
 20
1694.083499353212
 10
692.9591023168288
 20
1693.380712351418
 10
692.9450602540955
 20
1692.676873213417
 10
692.9450477916851
 20
1692.655266574656
  0
LWPOLYLINE
  5
235
330
1C9
100
AcDbEntity
  8
P-SANR-FIXT
100
AcDbPolyline
 90
        8
 70
   128
 43
0.0
 10
699.9912707544824
 20
1707.130854880075
 10
699.4432955486428
 20
1706.696124567277
 10
698.9132221421117
 20
1706.239393899234
 10
698.4018307286843
 20
1705.761494304446
 10
697.9098604570241
 20
1705.263281400478
 10
697.4380096743084
 20
1704.745632529381
 10
696.9869363226779
 20
1704.209444462493
 10
696.7959310968209
 20
1703.968812120491
  0
LWPOLYLINE
  5
236
330
1C9
100
AcDbEntity
  8
P-SANR-FIXT
100
AcDbPolyline
 90
        8
 70
   128
 43
0.0
 10
696.7965887765181
 20
1681.340877631199
 10
697.2383903945415
 20
1680.796877631508
 10
697.7012442789174
 20
1680.271019573205
 10
698.1845099794679
 20
1679.764208038253
 10
698.6875068543773
 20
1679.277329127434
 10
699.2095136165179
 20
1678.811248240773
 10
699.7497680192809
 20
1678.366807686105
 10
699.9912707544828
 20
1678.179678269236
  0
LWPOLYLINE
  5
237
330
1C9
100
AcDbEntity
  8
P-SANR-FIXT
100
AcDbPolyline
 90
       11
 70
   128
 43
0.0
 10
692.9450477916851
 20
1692.655266574655
 10
692.9582778733123
 20
1691.951411290412
 10
692.9979528921866
 20
1691.24857681792
 10
693.0640271368095
 20
1690.547783556427
 10
693.1564243097965
 20
1689.850051073062
 10
693.2750373606851
 20
1689.156397668863
 10
693.4197282522086
 20
1688.467839922908
 10
693.5903276605341
 20
1687.785392206625
 10
693.7866346103207
 20
1687.110066159827
 10
694.0084160459707
 20
1686.442870119437
 10
694.0160516687592
 20
1686.421324956513
  0
LWPOLYLINE
  5
238
330
1C9
100
AcDbEntity
  8
P-SANR-FIXT
100
AcDbPolyline
 90
        5
 70
   128
 43
0.0
 10
707.580385230733
 20
1711.762554942054
 10
705.8022620960041
 20
1710.853872596862
 10
704.1286248359677
 20
1709.90917702888
 10
702.562227873812
 20
1708.937705518404
 10
701.3546548150493
 20
1708.118253137027
  0
LINE
  5
239
330
1C9
100
AcDbEntity
  8
P-SANR-FIXT
100
AcDbLine
 10
701.1046846025644
 20
1707.948624736983
 30
0.0
 11
699.991270754482
 21
1707.130854880074
 31
0.0
  0
LINE
  5
23A
330
1C9
100
AcDbEntity
  8
P-SANR-FIXT
100
AcDbLine
 10
699.9912707544827
 20
1678.179678269237
 30
0.0
 11
701.0599067857111
 21
1677.400924235847
 31
0.0
  0
LWPOLYLINE
  5
23B
330
1C9
100
AcDbEntity
  8
P-SANR-FIXT
100
AcDbPolyline
 90
        5
 70
   128
 43
0.0
 10
701.3591420774116
 20
1677.182860570076
 10
702.8363609474419
 20
1676.196282101161
 10
704.4222259194336
 20
1675.228952771164
 10
706.1149199907768
 20
1674.290061932811
 10
707.5803852307337
 20
1673.547978207257
  0
ELLIPSE
  5
23C
330
1C9
100
AcDbEntity
  8
P-SANR-FIXT
100
AcDbEllipse
 10
714.2115045025198
 20
1716.454268778981
 30
0.0
 11
0.0
 21
6.999999999999943
 31
0.0
210
0.0
220
0.0
230
1.0
 40
0.9396926207859257
 41
2.230482378417288
 42
2.77378176039365
  0
ELLIPSE
  5
23D
330
1C9
100
AcDbEntity
  8
P-SANR-FIXT
100
AcDbEllipse
 10
714.21150450252
 20
1668.856264370329
 30
0.0
 11
0.0
 21
6.999999999999958
 31
0.0
210
0.0
220
0.0
230
1.0
 40
0.9396926207859021
 41
0.367872270530925
 42
0.9111102751725031
  0
ELLIPSE
  5
23E
330
1C9
100
AcDbEntity
  8
P-SANR-FIXT
100
AcDbEllipse
 10
733.5790773148284
 20
1704.554767676818
 30
0.0
 11
0.0
 21
6.999999999999834
 31
0.0
210
0.0
220
0.0
230
1.0
 40
0.9396926207859209
 41
1.183284827220649
 42
3.005505377565795
  0
ELLIPSE
  5
23F
330
1C9
100
AcDbEntity
  8
P-SANR-FIXT
100
AcDbEllipse
 10
733.5790773148286
 20
1680.755765472493
 30
0.0
 11
0.0
 21
6.999999999999775
 31
0.0
210
0.0
220
0.0
230
1.0
 40
0.9396926207859449
 41
0.136087276024047
 42
1.958307826369179
  0
ELLIPSE
  5
240
330
1C9
100
AcDbEntity
  8
P-SANR-FIXT
100
AcDbEllipse
 10
715.7676661567753
 20
1692.655266574655
 30
0.0
 11
0.0
 21
20.99999999999859
 31
0.0
210
0.0
220
0.0
230
1.0
 40
0.9396926207859053
 41
0.3367135104562386
 42
0.4278235980212953
  0
ELLIPSE
  5
241
330
1C9
100
AcDbEntity
  8
P-SANR-FIXT
100
AcDbEllipse
 10
715.7676661567753
 20
1692.655266574655
 30
0.0
 11
0.0
 21
20.99999999999832
 31
0.0
210
0.0
220
0.0
230
1.0
 40
0.9396926207859168
 41
0.2952735425539865
 42
0.32297345537486
  0
ELLIPSE
  5
242
330
1C9
100
AcDbEntity
  8
P-SANR-FIXT
100
AcDbEllipse
 10
715.7676661567753
 20
1692.655266574655
 30
0.0
 11
0.0
 21
20.99999999999829
 31
0.0
210
0.0
220
0.0
230
1.0
 40
0.9396926207859166
 41
6.023159916806861
 42
6.546704398183508
  0
ELLIPSE
  5
243
330
1C9
100
AcDbEntity
  8
P-SANR-FIXT
100
AcDbEllipse
 10
715.7676661567753
 20
1692.655266574655
 30
0.0
 11
0.0
 21
20.99999999999836
 31
0.0
210
0.0
220
0.0
230
1.0
 40
0.9396926207859086
 41
5.969026041820618
 42
5.975314000642318
  0
ELLIPSE
  5
244
330
1C9
100
AcDbEntity
  8
P-SANR-FIXT
100
AcDbEllipse
 10
715.7676661567753
 20
1692.655266574655
 30
0.0
 11
0.0
 21
20.9999999999984
 31
0.0
210
0.0
220
0.0
230
1.0
 40
0.9396926207859078
 41
5.876749356863268
 42
5.890486225480867
  0
ELLIPSE
  5
245
330
1C9
100
AcDbEntity
  8
P-SANR-FIXT
100
AcDbEllipse
 10
715.7676661567753
 20
1692.655266574655
 30
0.0
 11
0.0
 21
20.99999999999843
 31
0.0
210
0.0
220
0.0
230
1.0
 40
0.9396926207859074
 41
5.733406592801379
 42
5.803865560952905
  0
ELLIPSE
  5
246
330
1C9
100
AcDbEntity
  8
P-SANR-FIXT
100
AcDbEllipse
 10
715.7676661567753
 20
1692.655266574655
 30
0.0
 11
0.0
 21
20.99999999999855
 31
0.0
210
0.0
220
0.0
230
1.0
 40
0.939692620785898
 41
5.65860106062064
 42
5.731215686475431
  0
ELLIPSE
  5
247
330
1C9
100
AcDbEntity
  8
P-SANR-FIXT
100
AcDbEllipse
 10
715.7676661567753
 20
1692.655266574655
 30
0.0
 11
0.0
 21
20.99999999999853
 31
0.0
210
0.0
220
0.0
230
1.0
 40
0.9396926207859081
 41
5.586034318248747
 42
5.654866776461638
  0
ELLIPSE
  5
248
330
1C9
100
AcDbEntity
  8
P-SANR-FIXT
100
AcDbEllipse
 10
715.7676661567753
 20
1692.655266574655
 30
0.0
 11
0.0
 21
20.99999999999854
 31
0.0
210
0.0
220
0.0
230
0.9999999999999998
 40
0.9396926207859049
 41
5.513833527175891
 42
5.58365143882304
  0
ELLIPSE
  5
249
330
1C9
100
AcDbEntity
  8
P-SANR-FIXT
100
AcDbEllipse
 10
715.7676661567753
 20
1692.655266574655
 30
0.0
 11
0.0
 21
20.99999999999856
 31
0.0
210
0.0
220
0.0
230
1.0
 40
0.9396926207859012
 41
5.44299039645922
 42
5.497787143782148
  0
ELLIPSE
  5
24A
330
1C9
100
AcDbEntity
  8
P-SANR-FIXT
100
AcDbEllipse
 10
715.7676661567753
 20
1692.655266574655
 30
0.0
 11
0.0
 21
20.99999999999856
 31
0.0
210
0.0
220
0.0
230
0.9999999999999998
 40
0.9396926207858996
 41
5.371568696827915
 42
5.419247327442398
  0
ELLIPSE
  5
24B
330
1C9
100
AcDbEntity
  8
P-SANR-FIXT
100
AcDbEllipse
 10
715.7676661567753
 20
1692.655266574655
 30
0.0
 11
0.0
 21
20.99999999999856
 31
0.0
210
0.0
220
0.0
230
1.0
 40
0.9396926207859063
 41
5.300021733768065
 42
5.340707511102662
  0
ELLIPSE
  5
24C
330
1C9
100
AcDbEntity
  8
P-SANR-FIXT
100
AcDbEllipse
 10
715.7676661567753
 20
1692.655266574655
 30
0.0
 11
0.0
 21
20.99999999999847
 31
0.0
210
0.0
220
0.0
230
1.0
 40
0.9396926207859097
 41
5.155596842441395
 42
5.228111011702044
  0
ELLIPSE
  5
24D
330
1C9
100
AcDbEntity
  8
P-SANR-FIXT
100
AcDbEllipse
 10
715.7676661567753
 20
1692.655266574655
 30
0.0
 11
0.0
 21
20.99999999999845
 31
0.0
210
0.0
220
0.0
230
1.0
 40
0.9396926207859067
 41
5.082534422736348
 42
5.105088062083423
  0
ELLIPSE
  5
24E
330
1C9
100
AcDbEntity
  8
P-SANR-FIXT
100
AcDbEllipse
 10
715.7676661567753
 20
1692.655266574655
 30
0.0
 11
0.0
 21
20.99999999999844
 31
0.0
210
0.0
220
0.0
230
1.0
 40
0.9396926207859092
 41
5.026548245743674
 42
5.066241449276309
  0
ELLIPSE
  5
24F
330
1C9
100
AcDbEntity
  8
P-SANR-FIXT
100
AcDbEllipse
 10
715.7676661567753
 20
1692.655266574655
 30
0.0
 11
0.0
 21
20.99999999999838
 31
0.0
210
0.0
220
0.0
230
1.0
 40
0.9396926207859122
 41
4.948008429403924
 42
5.009144482585792
  0
ELLIPSE
  5
250
330
1C9
100
AcDbEntity
  8
P-SANR-FIXT
100
AcDbEllipse
 10
715.7676661567753
 20
1692.655266574655
 30
0.0
 11
0.0
 21
20.99999999999833
 31
0.0
210
0.0
220
0.0
230
1.0
 40
0.9396926207859193
 41
4.869468613064189
 42
4.935432053395422
  0
ELLIPSE
  5
251
330
1C9
100
AcDbEntity
  8
P-SANR-FIXT
100
AcDbEllipse
 10
715.7676661567753
 20
1692.655266574655
 30
0.0
 11
0.0
 21
20.99999999999816
 31
0.0
210
0.0
220
0.0
230
1.0
 40
0.9396926207859211
 41
4.79092879672444
 42
4.86140062034179
  0
ELLIPSE
  5
252
330
1C9
100
AcDbEntity
  8
P-SANR-FIXT
100
AcDbEllipse
 10
715.7676661567753
 20
1692.655266574655
 30
0.0
 11
0.0
 21
20.99999999999865
 31
0.0
210
0.0
220
0.0
230
1.0
 40
0.9396926207858976
 41
4.712388980384695
 42
4.787052476391339
  0
ELLIPSE
  5
253
330
1C9
100
AcDbEntity
  8
P-SANR-FIXT
100
AcDbEllipse
 10
715.7676661567753
 20
1692.655266574655
 30
0.0
 11
0.0000000000008546
 21
20.99999999999864
 31
0.0
210
0.0
220
0.0
230
1.0
 40
0.9396926207859001
 41
4.563657602667808
 42
4.712388980384732
  0
ELLIPSE
  5
254
330
1C9
100
AcDbEntity
  8
P-SANR-FIXT
100
AcDbEllipse
 10
715.7676661567753
 20
1692.655266574655
 30
0.0
 11
0.0
 21
20.99999999999845
 31
0.0
210
0.0
220
0.0
230
0.9999999999999998
 40
0.9396926207859081
 41
4.489694549658304
 42
4.555309347705213
  0
ELLIPSE
  5
255
330
1C9
100
AcDbEntity
  8
P-SANR-FIXT
100
AcDbEllipse
 10
715.7676661567753
 20
1692.655266574655
 30
0.0
 11
0.0
 21
20.99999999999833
 31
0.0
210
0.0
220
0.0
230
1.0
 40
0.939692620785909
 41
4.41600322579476
 42
4.476769531365456
  0
ELLIPSE
  5
256
330
1C9
100
AcDbEntity
  8
P-SANR-FIXT
100
AcDbEllipse
 10
715.7676661567753
 20
1692.655266574655
 30
0.0
 11
0.0
 21
20.99999999999873
 31
0.0
210
0.0
220
0.0
230
1.0
 40
0.9396926207858919
 41
4.342587296331499
 42
4.398229715025712
  0
ELLIPSE
  5
257
330
1C9
100
AcDbEntity
  8
P-SANR-FIXT
100
AcDbEllipse
 10
715.7676661567753
 20
1692.655266574655
 30
0.0
 11
0.0
 21
20.99999999999825
 31
0.0
210
0.0
220
0.0
230
1.0
 40
0.9396926207859136
 41
4.196766903058571
 42
4.269451736678661
  0
ELLIPSE
  5
258
330
1C9
100
AcDbEntity
  8
P-SANR-FIXT
100
AcDbEllipse
 10
715.7676661567753
 20
1692.655266574655
 30
0.0
 11
0.0
 21
20.99999999999857
 31
0.0
210
0.0
220
0.0
230
1.0
 40
0.9396926207858985
 41
4.084070449666747
 42
4.124576565710252
  0
ELLIPSE
  5
259
330
1C9
100
AcDbEntity
  8
P-SANR-FIXT
100
AcDbEllipse
 10
715.7676661567753
 20
1692.655266574655
 30
0.0
 11
0.0
 21
20.99999999999866
 31
0.0
210
0.0
220
0.0
230
1.0
 40
0.939692620785903
 41
4.005530633326992
 42
4.052699000396971
  0
ELLIPSE
  5
25A
330
1C9
100
AcDbEntity
  8
P-SANR-FIXT
100
AcDbEllipse
 10
715.7676661567753
 20
1692.655266574655
 30
0.0
 11
0.0
 21
20.99999999999862
 31
0.0
210
0.0
220
0.0
230
1.0
 40
0.9396926207859003
 41
3.909903109649791
 42
3.980954101502841
  0
ELLIPSE
  5
25B
330
1C9
100
AcDbEntity
  8
P-SANR-FIXT
100
AcDbEllipse
 10
715.7676661567753
 20
1692.655266574655
 30
0.0
 11
0.0
 21
20.99999999999854
 31
0.0
210
0.0
220
0.0
230
1.0
 40
0.9396926207859007
 41
3.841126521946331
 42
3.848451000647507
  0
ELLIPSE
  5
25C
330
1C9
100
AcDbEntity
  8
P-SANR-FIXT
100
AcDbEllipse
 10
715.7676661567753
 20
1692.655266574655
 30
0.0
 11
0.0
 21
20.99999999999862
 31
0.0
210
0.0
220
0.0
230
1.0
 40
0.9396926207859028
 41
3.769911184307756
 42
3.837598002744887
  0
ELLIPSE
  5
25D
330
1C9
100
AcDbEntity
  8
P-SANR-FIXT
100
AcDbEllipse
 10
715.7676661567753
 20
1692.655266574655
 30
0.0
 11
0.0
 21
20.99999999999856
 31
0.0
210
0.0
220
0.0
230
1.0
 40
0.9396926207859056
 41
3.692463378799877
 42
3.765045576333815
  0
ELLIPSE
  5
25E
330
1C9
100
AcDbEntity
  8
P-SANR-FIXT
100
AcDbEllipse
 10
715.7676661567753
 20
1692.655266574655
 30
0.0
 11
0.0
 21
20.99999999999852
 31
0.0
210
0.0
220
0.0
230
1.0
 40
0.9396926207859076
 41
3.619983006505014
 42
3.691371367968011
  0
ELLIPSE
  5
25F
330
1C9
100
AcDbEntity
  8
P-SANR-FIXT
100
AcDbEllipse
 10
715.7676661567753
 20
1692.655266574655
 30
0.0
 11
0.0
 21
20.99999999999842
 31
0.0
210
0.0
220
0.0
230
1.0
 40
0.939692620785917
 41
3.600974309073019
 42
3.612831551628273
  0
ELLIPSE
  5
260
330
1C9
100
AcDbEntity
  8
P-SANR-FIXT
100
AcDbEllipse
 10
715.7676661567753
 20
1692.655266574655
 30
0.0
 11
0.0
 21
20.9999999999984
 31
0.0
210
0.0
220
0.0
230
1.0
 40
0.9396926207859195
 41
3.534291735288517
 42
3.547338854822681
  0
ELLIPSE
  5
261
330
1C9
100
AcDbEntity
  8
P-SANR-FIXT
100
AcDbEllipse
 10
715.7676661567753
 20
1692.655266574655
 30
0.0
 11
0.0
 21
20.99999999999823
 31
0.0
210
0.0
220
0.0
230
1.0
 40
0.9396926207859197
 41
3.449463960127048
 42
3.455751918948774
  0
ELLIPSE
  5
262
330
1C9
100
AcDbEntity
  8
P-SANR-FIXT
100
AcDbEllipse
 10
715.7676661567753
 20
1692.655266574655
 30
0.0
 11
0.0
 21
20.99999999999854
 31
0.0
210
0.0
220
0.0
230
0.9999999999999998
 40
0.9396926207859124
 41
2.878073562586871
 42
3.401618043962557
  0
ELLIPSE
  5
263
330
1C9
100
AcDbEntity
  8
P-SANR-FIXT
100
AcDbEllipse
 10
715.7676661567753
 20
1692.655266574655
 30
0.0
 11
0.0
 21
20.99999999999831
 31
0.0
210
0.0
220
0.0
230
1.0
 40
0.9396926207859202
 41
2.818396031997902
 42
2.846571677455765
  0
ELLIPSE
  5
264
330
1C9
100
AcDbEntity
  8
P-SANR-FIXT
100
AcDbEllipse
 10
715.7676661567753
 20
1692.655266574655
 30
0.0
 11
0.0
 21
20.99999999999846
 31
0.0
210
0.0
220
0.0
230
1.0
 40
0.9396926207859081
 41
2.738554352425323
 42
2.804476250363498
  0
ELLIPSE
  5
265
330
1C9
100
AcDbEntity
  8
P-SANR-FIXT
100
AcDbEllipse
 10
715.7676661567753
 20
1692.655266574655
 30
0.0
 11
0.0
 21
20.99999999999823
 31
0.0
210
0.0
220
0.0
230
0.9999999999999998
 40
0.9396926207859243
 41
2.713769055568527
 42
2.731689138431756
  0
SPLINE
  5
266
330
1C9
100
AcDbEntity
  8
P-SANR-FIXT
100
AcDbSpline
210
0.0
220
0.0
230
1.0
 70
     8
 71
     3
 72
    23
 73
    19
 74
     0
 42
0.000000001
 43
0.0000000001
 40
0.0
 40
0.0
 40
0.0
 40
0.0
 40
0.0833333333333333
 40
0.125
 40
0.1666666666666666
 40
0.25
 40
0.2916666666666666
 40
0.3333333333333333
 40
0.4166666666666666
 40
0.5
 40
0.5833333333333333
 40
0.6666666666666666
 40
0.7083333333333333
 40
0.75
 40
0.8333333333333332
 40
0.875
 40
0.9166666666666666
 40
1.0
 40
1.0
 40
1.0
 40
1.0
 10
722.5186613738405
 20
1704.099419798906
 30
0.0
 10
722.4475291445352
 20
1704.014039736527
 30
0.0
 10
722.3533004403166
 20
1703.860101318064
 30
0.0
 10
722.2592560469987
 20
1703.602698524767
 30
0.0
 10
722.1888025797039
 20
1703.314701084179
 30
0.0
 10
722.1596742519683
 20
1702.960411867157
 30
0.0
 10
722.1822417283434
 20
1702.569375650779
 30
0.0
 10
722.2367524771549
 20
1702.178681466969
 30
0.0
 10
722.3785849471775
 20
1701.659029303969
 30
0.0
 10
722.6546058201503
 20
1701.04582048455
 30
0.0
 10
723.0216425725983
 20
1700.473496143505
 30
0.0
 10
723.3937075858011
 20
1700.041839517801
 30
0.0
 10
723.7139740260161
 20
1699.738986205665
 30
0.0
 10
724.0580469590703
 20
1699.451302104284
 30
0.0
 10
724.4087491461674
 20
1699.211492214622
 30
0.0
 10
724.7355229628541
 20
1699.028400718512
 30
0.0
 10
725.0561863051708
 20
1698.870871092821
 30
0.0
 10
725.2843757942256
 20
1698.781762658328
 30
0.0
 10
725.4300586420139
 20
1698.733103326956
 30
0.0
  0
SPLINE
  5
267
330
1C9
100
AcDbEntity
  8
P-SANR-FIXT
100
AcDbSpline
210
0.0
220
0.0
230
1.0
 70
     8
 71
     3
 72
    23
 73
    19
 74
     0
 42
0.000000001
 43
0.0000000001
 40
0.0
 40
0.0
 40
0.0
 40
0.0
 40
0.0833333333333333
 40
0.125
 40
0.1666666666666666
 40
0.25
 40
0.2916666666666666
 40
0.3333333333333333
 40
0.4166666666666666
 40
0.5
 40
0.5833333333333333
 40
0.6666666666666666
 40
0.7083333333333333
 40
0.75
 40
0.8333333333333332
 40
0.875
 40
0.9166666666666666
 40
1.0
 40
1.0
 40
1.0
 40
1.0
 10
706.80360792421
 20
1710.177256551206
 30
0.0
 10
706.7993427515256
 20
1710.139386588142
 30
0.0
 10
706.8246322429601
 20
1710.073027876756
 30
0.0
 10
706.9253102681349
 20
1709.971516366863
 30
0.0
 10
707.0687109212513
 20
1709.865335760538
 30
0.0
 10
707.2944740869623
 20
1709.749806435516
 30
0.0
 10
707.5853211640259
 20
1709.646347017101
 30
0.0
 10
707.8992264230492
 20
1709.558922653469
 30
0.0
 10
708.3676839754363
 20
1709.476536208133
 30
0.0
 10
708.9945548429673
 20
1709.443054819533
 30
0.0
 10
709.6537554731261
 20
1709.476859788244
 30
0.0
 10
710.2162400339855
 20
1709.557533205184
 30
0.0
 10
710.6538045302994
 20
1709.644181570831
 30
0.0
 10
711.0981704420366
 20
1709.747004653962
 30
0.0
 10
711.5163893561323
 20
1709.862367039263
 30
0.0
 10
711.8847293836418
 20
1709.968843281161
 30
0.0
 10
712.2353919565053
 20
1710.071078026009
 30
0.0
 10
712.4753630208714
 20
1710.138470543424
 30
0.0
 10
712.6264024605559
 20
1710.177256551206
 30
0.0
  0
SPLINE
  5
268
330
1C9
100
AcDbEntity
  8
P-SANR-FIXT
100
AcDbSpline
210
0.0
220
0.0
230
1.0
 70
     8
 71
     3
 72
    23
 73
    19
 74
     0
 42
0.000000001
 43
0.0000000001
 40
0.076743435183039
 40
0.076743435183039
 40
0.076743435183039
 40
0.076743435183039
 40
0.0833333333333333
 40
0.125
 40
0.1666666666666666
 40
0.25
 40
0.2916666666666666
 40
0.3333333333333333
 40
0.4166666666666666
 40
0.5
 40
0.5833333333333333
 40
0.6666666666666666
 40
0.7083333333333333
 40
0.75
 40
0.8333333333333332
 40
0.875
 40
0.9166666666666666
 40
0.9602621185890443
 40
0.9602621185890443
 40
0.9602621185890443
 40
0.9602621185890443
 10
694.0204033138201
 20
1698.893724547994
 30
0.0
 10
694.0223008766962
 20
1698.899210808848
 30
0.0
 10
694.0370063244873
 20
1698.939974928972
 30
0.0
 10
694.0754081858809
 20
1699.024084416681
 30
0.0
 10
694.177773780973
 20
1699.205901251373
 30
0.0
 10
694.336680447357
 20
1699.44466114079
 30
0.0
 10
694.5276379923026
 20
1699.732237944784
 30
0.0
 10
694.724440234281
 20
1700.035507740548
 30
0.0
 10
695.0003644674842
 20
1700.472773645263
 30
0.0
 10
695.330879630679
 20
1701.052500301886
 30
0.0
 10
695.6428950630559
 20
1701.658632483962
 30
0.0
 10
695.8836579816551
 20
1702.170953597368
 30
0.0
 10
696.0628927122966
 20
1702.560473483312
 30
0.0
 10
696.2396244298877
 20
1702.950906528056
 30
0.0
 10
696.4024826550059
 20
1703.30653339927
 30
0.0
 10
696.5561447729062
 20
1703.595038786418
 30
0.0
 10
696.6730487202716
 20
1703.796143352557
 30
0.0
 10
696.7547791065411
 20
1703.902703479512
 30
0.0
 10
696.7967317841786
 20
1703.955412015488
 30
0.0
  0
SPLINE
  5
269
330
1C9
100
AcDbEntity
  8
P-SANR-FIXT
100
AcDbSpline
210
0.0
220
0.0
230
1.0
 70
     8
 71
     3
 72
    23
 73
    19
 74
     0
 42
0.000000001
 43
0.0000000001
 40
0.040171583327236
 40
0.040171583327236
 40
0.040171583327236
 40
0.040171583327236
 40
0.0833333333333333
 40
0.125
 40
0.1666666666666666
 40
0.25
 40
0.2916666666666666
 40
0.3333333333333333
 40
0.4166666666666666
 40
0.5
 40
0.5833333333333333
 40
0.6666666666666666
 40
0.7083333333333333
 40
0.75
 40
0.8333333333333332
 40
0.875
 40
0.9166666666666666
 40
0.9240652237341507
 40
0.9240652237341507
 40
0.9240652237341507
 40
0.9240652237341507
 10
696.7954773967534
 20
1681.346626134283
 30
0.0
 10
696.7546464583357
 20
1681.399476288654
 30
0.0
 10
696.6756122451857
 20
1681.512473497831
 30
0.0
 10
696.5594518826036
 20
1681.707834624454
 30
0.0
 10
696.4069282985477
 20
1681.995832065604
 30
0.0
 10
696.2440869765065
 20
1682.350121279206
 30
0.0
 10
696.0668753784848
 20
1682.741157503573
 30
0.0
 10
695.887180134339
 20
1683.131851655044
 30
0.0
 10
695.6439456508478
 20
1683.651504065806
 30
0.0
 10
695.3272564195273
 20
1684.264711859754
 30
0.0
 10
694.9999179370714
 20
1684.837040005368
 30
0.0
 10
694.7285547099043
 20
1685.26868480373
 30
0.0
 10
694.5321309413128
 20
1685.571562233734
 30
0.0
 10
694.3410603981949
 20
1685.859148132269
 30
0.0
 10
694.1802752947515
 20
1686.099560163629
 30
0.0
 10
694.079483161563
 20
1686.28124450834
 30
0.0
 10
694.0354415561507
 20
1686.370103250091
 30
0.0
 10
694.0249141872287
 20
1686.408988622306
 30
0.0
 10
694.0235732260211
 20
1686.414681885167
 30
0.0
  0
SPLINE
  5
26A
330
1C9
100
AcDbEntity
  8
P-SANR-FIXT
100
AcDbSpline
210
0.0
220
0.0
230
1.0
 70
     8
 71
     3
 72
    23
 73
    19
 74
     0
 42
0.000000001
 43
0.0000000001
 40
0.0
 40
0.0
 40
0.0
 40
0.0
 40
0.0833333333333333
 40
0.125
 40
0.1666666666666666
 40
0.25
 40
0.2916666666666666
 40
0.3333333333333333
 40
0.4166666666666666
 40
0.5
 40
0.5833333333333333
 40
0.6666666666666666
 40
0.7083333333333333
 40
0.75
 40
0.8333333333333332
 40
0.875
 40
0.9166666666666666
 40
1.0
 40
1.0
 40
1.0
 40
1.0
 10
712.6264024605561
 20
1675.133276598104
 30
0.0
 10
712.4779430139246
 20
1675.171146561168
 30
0.0
 10
712.2411699846017
 20
1675.237505272554
 30
0.0
 10
711.8933976613305
 20
1675.339016782447
 30
0.0
 10
711.527019957728
 20
1675.445197388772
 30
0.0
 10
711.1092871369735
 20
1675.560726713793
 30
0.0
 10
710.6637959505652
 20
1675.664186132209
 30
0.0
 10
710.2247061464102
 20
1675.751610495841
 30
0.0
 10
709.6548469620934
 20
1675.833996941177
 30
0.0
 10
708.9873061570381
 20
1675.867478329777
 30
0.0
 10
708.3678096557305
 20
1675.833673361066
 30
0.0
 10
707.9060086673565
 20
1675.752999944126
 30
0.0
 10
707.5923239830467
 20
1675.666351578479
 30
0.0
 10
707.3008092334886
 20
1675.563528495348
 30
0.0
 10
707.0734346728974
 20
1675.448166110047
 30
0.0
 10
706.9289093820154
 20
1675.34168986815
 30
0.0
 10
706.8267814394474
 20
1675.239455123301
 30
0.0
 10
706.8002507049207
 20
1675.172062605887
 30
0.0
 10
706.8036079242103
 20
1675.133276598104
 30
0.0
  0
SPLINE
  5
26B
330
1C9
100
AcDbEntity
  8
P-SANR-FIXT
100
AcDbSpline
210
0.0
220
0.0
230
1.0
 70
     8
 71
     3
 72
    23
 73
    19
 74
     0
 42
0.000000001
 43
0.0000000001
 40
0.0
 40
0.0
 40
0.0
 40
0.0
 40
0.0833333333333333
 40
0.125
 40
0.1666666666666666
 40
0.25
 40
0.2916666666666666
 40
0.3333333333333333
 40
0.4166666666666666
 40
0.5
 40
0.5833333333333333
 40
0.6666666666666666
 40
0.7083333333333333
 40
0.75
 40
0.8333333333333332
 40
0.875
 40
0.9166666666666666
 40
1.0
 40
1.0
 40
1.0
 40
1.0
 10
725.4300586420137
 20
1686.577429822355
 30
0.0
 10
725.2868292757348
 20
1686.52991972304
 30
0.0
 10
725.0615693111376
 20
1686.442340015963
 30
0.0
 10
724.7432997435969
 20
1686.286448732559
 30
0.0
 10
724.4179570979427
 20
1686.104631898296
 30
0.0
 10
724.0670807769739
 20
1685.865872006295
 30
0.0
 10
723.7214791216133
 20
1685.578295208333
 30
0.0
 10
723.3994923388356
 20
1685.275025388156
 30
0.0
 10
723.022166440506
 20
1684.83775967049
 30
0.0
 10
722.6509814771855
 20
1684.258032239672
 30
0.0
 10
722.3786696639002
 20
1683.651902929916
 30
0.0
 10
722.2385919024863
 20
1683.139572887273
 30
0.0
 10
722.183233752389
 20
1682.750071209489
 30
0.0
 10
722.1593663547958
 20
1682.359564024977
 30
0.0
 10
722.1872718045493
 20
1682.004391750014
 30
0.0
 10
722.2576129620401
 20
1681.714824012007
 30
0.0
 10
722.351881046641
 20
1681.455059641467
 30
0.0
 10
722.4468196362496
 20
1681.29855868956
 30
0.0
 10
722.5186613738405
 20
1681.211113350405
 30
0.0
  0
SPLINE
  5
26C
330
1C9
100
AcDbEntity
  8
P-SANR-FIXT
100
AcDbSpline
210
0.0
220
0.0
230
1.0
 70
     8
 71
     3
 72
     9
 73
     5
 74
     0
 42
0.000000001
 43
0.0000000001
 40
0.0
 40
0.0
 40
0.0
 40
0.0
 40
0.5
 40
1.0
 40
1.0
 40
1.0
 40
1.0
 10
709.013789515153
 20
1712.164187144102
 30
0.0
 10
708.4618293833275
 20
1711.874401313589
 30
0.0
 10
707.5066881519412
 20
1711.199087686535
 30
0.0
 10
706.9584035601771
 20
1710.482367926938
 30
0.0
 10
706.80360792421
 20
1710.177256551206
 30
0.0
  0
ELLIPSE
  5
26D
330
1C9
100
AcDbEntity
  8
P-SANR-FIXT
100
AcDbEllipse
 10
714.2115045025193
 20
1692.655266574655
 30
0.0
 11
0.0
 21
20.27789883964993
 31
0.0
210
0.0
220
0.0
230
1.0
 40
0.9396926207858943
 41
6.006909637137304
 42
6.559460977221873
  0
SPLINE
  5
26E
330
1C9
100
AcDbEntity
  8
P-SANR-FIXT
100
AcDbSpline
210
0.0
220
0.0
230
1.0
 70
     8
 71
     3
 72
     9
 73
     5
 74
     0
 42
0.000000001
 43
0.0000000001
 40
0.0
 40
0.0
 40
0.0
 40
0.0
 40
0.5
 40
1.0
 40
1.0
 40
1.0
 40
1.0
 10
712.6264024605559
 20
1710.177256551206
 30
0.0
 10
713.9429450256718
 20
1710.482367926938
 30
0.0
 10
716.3648317383697
 20
1711.199087686535
 30
0.0
 10
718.4348516160374
 20
1711.87440131359
 30
0.0
 10
719.4092194898866
 20
1712.164187144103
 30
0.0
  0
SPLINE
  5
26F
330
1C9
100
AcDbEntity
  8
P-SANR-FIXT
100
AcDbSpline
210
0.0
220
0.0
230
1.0
 70
     8
 71
     3
 72
     9
 73
     5
 74
     0
 42
0.000000001
 43
0.0000000001
 40
0.0
 40
0.0
 40
0.0
 40
0.0
 40
0.5
 40
1.0
 40
1.0
 40
1.0
 40
1.0
 10
727.4889613338817
 20
1707.199966902901
 30
0.0
 10
726.5955722295907
 20
1706.860427447247
 30
0.0
 10
724.8121426727534
 20
1706.009031774618
 30
0.0
 10
723.2121926722189
 20
1704.78731136744
 30
0.0
 10
722.5186613738405
 20
1704.099419798906
 30
0.0
  0
ELLIPSE
  5
270
330
1C9
100
AcDbEntity
  8
P-SANR-FIXT
100
AcDbEllipse
 10
714.2115045025193
 20
1692.655266574655
 30
0.0
 11
0.0
 21
20.27789883964972
 31
0.0
210
0.0
220
0.0
230
1.0
 40
0.939692620785914
 41
4.959712085940707
 42
5.512263426025289
  0
SPLINE
  5
271
330
1C9
100
AcDbEntity
  8
P-SANR-FIXT
100
AcDbSpline
210
0.0
220
0.0
230
1.0
 70
     8
 71
     3
 72
     9
 73
     5
 74
     0
 42
0.000000001
 43
0.0000000001
 40
0.0
 40
0.0
 40
0.0
 40
0.0
 40
0.5
 40
1.0
 40
1.0
 40
1.0
 40
1.0
 10
725.4300586420139
 20
1698.733103326956
 30
0.0
 10
726.7044634049668
 20
1698.350323134154
 30
0.0
 10
729.2412144659683
 20
1697.845322486573
 30
0.0
 10
731.582083345946
 20
1697.669240440999
 30
0.0
 10
732.6866763212489
 20
1697.619486815857
 30
0.0
  0
SPLINE
  5
272
330
1C9
100
AcDbEntity
  8
P-SANR-FIXT
100
AcDbSpline
210
0.0
220
0.0
230
1.0
 70
     8
 71
     3
 72
     9
 73
     5
 74
     0
 42
0.000000001
 43
0.0000000001
 40
0.0
 40
0.0
 40
0.0
 40
0.0
 40
0.5
 40
1.0
 40
1.0
 40
1.0
 40
1.0
 10
732.6866763212487
 20
1687.691046333453
 30
0.0
 10
731.582083345946
 20
1687.641292708311
 30
0.0
 10
729.2412144659681
 20
1687.465210662738
 30
0.0
 10
726.7044634049666
 20
1686.960210015157
 30
0.0
 10
725.4300586420137
 20
1686.577429822355
 30
0.0
  0
ELLIPSE
  5
273
330
1C9
100
AcDbEntity
  8
P-SANR-FIXT
100
AcDbEllipse
 10
714.2115045025195
 20
1692.655266574655
 30
0.0
 11
0.0
 21
20.27789883964974
 31
0.0
210
0.0
220
0.0
230
1.0
 40
0.9396926207859026
 41
3.912514534744098
 42
4.465065874828684
  0
SPLINE
  5
274
330
1C9
100
AcDbEntity
  8
P-SANR-FIXT
100
AcDbSpline
210
0.0
220
0.0
230
1.0
 70
     8
 71
     3
 72
     9
 73
     5
 74
     0
 42
0.000000001
 43
0.0000000001
 40
0.0
 40
0.0
 40
0.0
 40
0.0
 40
0.5
 40
1.0
 40
1.0
 40
1.0
 40
1.0
 10
722.5186613738405
 20
1681.211113350405
 30
0.0
 10
723.212192672219
 20
1680.523221781871
 30
0.0
 10
724.8121426727538
 20
1679.301501374693
 30
0.0
 10
726.5955722295908
 20
1678.450105702064
 30
0.0
 10
727.488961333882
 20
1678.110566246409
 30
0.0
  0
SPLINE
  5
275
330
1C9
100
AcDbEntity
  8
P-SANR-FIXT
100
AcDbSpline
210
0.0
220
0.0
230
1.0
 70
     8
 71
     3
 72
     9
 73
     5
 74
     0
 42
0.000000001
 43
0.0000000001
 40
0.0
 40
0.0
 40
0.0
 40
0.0
 40
0.5
 40
1.0
 40
1.0
 40
1.0
 40
1.0
 10
719.4092194898868
 20
1673.146346005208
 30
0.0
 10
718.4348516160375
 20
1673.436131835721
 30
0.0
 10
716.36483173837
 20
1674.111445462775
 30
0.0
 10
713.942945025672
 20
1674.828165222372
 30
0.0
 10
712.6264024605561
 20
1675.133276598104
 30
0.0
  0
ELLIPSE
  5
276
330
1C9
100
AcDbEntity
  8
P-SANR-FIXT
100
AcDbEllipse
 10
714.2115045025195
 20
1692.655266574655
 30
0.0
 11
0.0
 21
20.27789883964993
 31
0.0
210
0.0
220
0.0
230
1.0
 40
0.9396926207858903
 41
2.865316983547504
 42
3.417868323632069
  0
SPLINE
  5
277
330
1C9
100
AcDbEntity
  8
P-SANR-FIXT
100
AcDbSpline
210
0.0
220
0.0
230
1.0
 70
     8
 71
     3
 72
     9
 73
     5
 74
     0
 42
0.000000001
 43
0.0000000001
 40
0.0
 40
0.0
 40
0.0
 40
0.0
 40
0.5
 40
1.0
 40
1.0
 40
1.0
 40
1.0
 10
706.8036079242103
 20
1675.133276598104
 30
0.0
 10
706.9584035601775
 20
1674.828165222372
 30
0.0
 10
707.5066881519415
 20
1674.111445462775
 30
0.0
 10
708.4618293833277
 20
1673.436131835721
 30
0.0
 10
709.0137895151533
 20
1673.146346005208
 30
0.0
  0
LINE
  5
278
330
1C9
100
AcDbEntity
  8
P-SANR-FIXT
100
AcDbLine
 10
737.1490899342718
 20
1722.655266574656
 30
0.0
 11
729.7872245068439
 21
1722.655266574656
 31
0.0
  0
LINE
  5
279
330
1C9
100
AcDbEntity
  8
P-SANR-FIXT
100
AcDbLine
 10
729.787224506844
 20
1662.655266574655
 30
0.0
 11
737.149089934272
 21
1662.655266574655
 31
0.0
  0
ELLIPSE
  5
27A
330
1C9
100
AcDbEntity
  8
P-SANR-FIXT
100
AcDbEllipse
 10
729.7872245068425
 20
1692.655266574655
 30
0.0
 11
0.0
 21
30.00000000000026
 31
0.0
210
0.0
220
0.0
230
1.0
 40
0.939692620785917
 41
4.712388980384685
 42
7.148861883270266
  0
ELLIPSE
  5
27B
330
1C9
100
AcDbEntity
  8
P-SANR-FIXT
100
AcDbEllipse
 10
729.7872245068425
 20
1692.655266574655
 30
0.0
 11
0.0
 21
30.00000000000068
 31
0.0
210
0.0
220
0.0
230
1.0
 40
0.939692620785901
 41
2.275956717103712
 42
4.712388980384685
  0
ELLIPSE
  5
27C
330
1C9
100
AcDbEntity
  8
P-SANR-FIXT
100
AcDbEllipse
 10
737.1490899342705
 20
1692.655266574655
 30
0.0
 11
0.0
 21
30.00000000000046
 31
0.0
210
0.0
220
0.0
230
1.0
 40
0.9396926207859106
 41
5.052473223901925
 42
6.283185307179588
  0
ELLIPSE
  5
27D
330
1C9
100
AcDbEntity
  8
P-SANR-FIXT
100
AcDbEllipse
 10
737.1490899342705
 20
1692.655266574655
 30
0.0
 11
0.0000000000008545
 21
30.00000000000068
 31
0.0
210
0.0
220
0.0
230
1.0
 40
0.939692620785901
 41
3.141592653589821
 42
4.101673272345514
  0
LINE
  5
27E
330
1C9
100
AcDbEntity
  8
P-SANR-FIXT
100
AcDbLine
 10
689.1869202651711
 20
1674.155266574595
 30
0.0
 11
702.3904174305572
 21
1674.155266574596
 31
0.0
  0
LINE
  5
27F
330
1C9
100
AcDbEntity
  8
P-SANR-FIXT
100
AcDbLine
 10
702.3904174306213
 20
1711.155266574596
 30
0.0
 11
689.1869202651068
 21
1711.155266574596
 31
0.0
  0
LINE
  5
280
330
1C9
100
AcDbEntity
  8
P-SANR-FIXT
100
AcDbLine
 10
688.4625902125728
 20
1711.155436387301
 30
0.0
 11
687.1148455245316
 21
1708.821074111982
 31
0.0
  0
LINE
  5
281
330
1C9
100
AcDbEntity
  8
P-SANR-FIXT
100
AcDbLine
 10
687.1148455245318
 20
1676.489459037328
 30
0.0
 11
688.4625902126418
 21
1674.15509676189
 31
0.0
  0
LINE
  5
282
330
1C9
100
AcDbEntity
  8
P-SANR-FIXT
100
AcDbLine
 10
687.1148455245305
 20
1692.655266574655
 30
0.0
 11
687.1148455245304
 21
1708.821074111981
 31
0.0
  0
LINE
  5
283
330
1C9
100
AcDbEntity
  8
P-SANR-FIXT
100
AcDbLine
 10
687.1148455245307
 20
1676.489459037328
 30
0.0
 11
687.1148455245305
 21
1692.655266574655
 31
0.0
  0
LINE
  5
284
330
1C9
100
AcDbEntity
  8
P-SANR-FIXT
100
AcDbLine
 10
703.1148455245303
 20
1711.155266574655
 30
0.0
 11
703.1148455245303
 21
1709.260633924588
 31
0.0
  0
LINE
  5
285
330
1C9
100
AcDbEntity
  8
P-SANR-FIXT
100
AcDbLine
 10
703.1148455245305
 20
1676.065524657337
 30
0.0
 11
703.1148455245305
 21
1674.155266574655
 31
0.0
  0
SPLINE
  5
286
330
1C9
100
AcDbEntity
  8
P-SANR-FIXT
100
AcDbSpline
210
0.0
220
0.0
230
1.0
 70
     8
 71
     3
 72
    10
 73
     6
 74
     0
 42
0.000000001
 43
0.0000000001
 40
0.0
 40
0.0
 40
0.0
 40
0.0
 40
0.4
 40
0.7
 40
0.85344687357448
 40
0.85344687357448
 40
0.85344687357448
 40
0.85344687357448
 10
702.390417430556
 20
1674.155266574595
 30
0.0
 10
702.2074167106181
 20
1674.155266574595
 30
0.0
 10
702.0097808457027
 20
1674.48683337808
 30
0.0
 10
702.0513806865942
 20
1675.568130659618
 30
0.0
 10
702.1680666902008
 20
1676.319685444115
 30
0.0
 10
702.2181465580289
 20
1676.590099010527
 30
0.0
  0
SPLINE
  5
287
330
1C9
100
AcDbEntity
  8
P-SANR-FIXT
100
AcDbSpline
210
0.0
220
0.0
230
1.0
 70
     8
 71
     3
 72
    10
 73
     6
 74
     0
 42
0.000000001
 43
0.0000000001
 40
0.0
 40
0.0
 40
0.0
 40
0.0
 40
0.4
 40
0.7
 40
1.0
 40
1.0
 40
1.0
 40
1.0
 10
689.1869202651641
 20
1677.405266574595
 30
0.0
 10
689.3696475570151
 20
1676.63021964274
 30
0.0
 10
689.5674386908994
 20
1675.417877081787
 30
0.0
 10
689.5190373039667
 20
1674.365805850811
 30
0.0
 10
689.3241708051235
 20
1674.155266574595
 30
0.0
 10
689.1869202651698
 20
1674.155266574595
 30
0.0
  0
SPLINE
  5
288
330
1C9
100
AcDbEntity
  8
P-SANR-FIXT
100
AcDbSpline
210
0.0
220
0.0
230
1.0
 70
    24
 71
     3
 72
     8
 73
     4
 74
     0
 42
0.000000001
 43
0.0000000001
 40
0.0
 40
0.0
 40
0.0
 40
0.0
 40
0.5
 40
0.5
 40
0.5
 40
0.5
 10
689.1869202651698
 20
1674.155266574595
 30
0.0
 10
688.7039999893771
 20
1674.155266574595
 30
0.0
 10
688.4625398514808
 20
1674.155266574595
 30
0.0
 10
688.4625398514808
 20
1674.155266574595
 30
0.0
  0
SPLINE
  5
289
330
1C9
100
AcDbEntity
  8
P-SANR-FIXT
100
AcDbSpline
210
0.0
220
0.0
230
1.0
 70
    24
 71
     3
 72
     9
 73
     5
 74
     0
 42
0.000000001
 43
0.0000000001
 40
0.0
 40
0.0
 40
0.0
 40
0.0
 40
0.5
 40
1.0
 40
1.0
 40
1.0
 40
1.0
 10
703.1148455245305
 20
1674.155266574595
 30
0.0
 10
703.110558735931
 20
1674.155266574595
 30
0.0
 10
702.9855339316688
 20
1674.155266574595
 30
0.0
 10
702.6276066732812
 20
1674.155266574595
 30
0.0
 10
702.390417430556
 20
1674.155266574595
 30
0.0
  0
SPLINE
  5
28A
330
1C9
100
AcDbEntity
  8
P-SANR-FIXT
100
AcDbSpline
210
0.0
220
0.0
230
1.0
 70
    24
 71
     3
 72
     9
 73
     5
 74
     0
 42
0.000000001
 43
0.0000000001
 40
0.4958309748410441
 40
0.4958309748410441
 40
0.4958309748410441
 40
0.4958309748410441
 40
0.5
 40
1.0
 40
1.0
 40
1.0
 40
1.0
 10
688.4625902125716
 20
1711.155266574596
 30
0.0
 10
688.462556638465
 20
1711.155266574596
 30
0.0
 10
688.4605265446325
 20
1711.155266574596
 30
0.0
 10
688.703999989218
 20
1711.155266574596
 30
0.0
 10
689.1869202651055
 20
1711.155266574596
 30
0.0
  0
SPLINE
  5
28B
330
1C9
100
AcDbEntity
  8
P-SANR-FIXT
100
AcDbSpline
210
0.0
220
0.0
230
1.0
 70
    24
 71
     3
 72
     9
 73
     5
 74
     0
 42
0.000000001
 43
0.0000000001
 40
0.0
 40
0.0
 40
0.0
 40
0.0
 40
0.5
 40
1.0
 40
1.0
 40
1.0
 40
1.0
 10
702.39041743062
 20
1711.155266574596
 30
0.0
 10
702.6276066733578
 20
1711.155266574596
 30
0.0
 10
702.9855339317474
 20
1711.155266574596
 30
0.0
 10
703.1105587359649
 20
1711.155266574596
 30
0.0
 10
703.1148455245303
 20
1711.155266574596
 30
0.0
  0
SPLINE
  5
28C
330
1C9
100
AcDbEntity
  8
P-SANR-FIXT
100
AcDbSpline
210
0.0
220
0.0
230
1.0
 70
     8
 71
     3
 72
    10
 73
     6
 74
     0
 42
0.000000001
 43
0.0000000001
 40
0.0
 40
0.0
 40
0.0
 40
0.0
 40
0.4
 40
0.7
 40
1.0
 40
1.0
 40
1.0
 40
1.0
 10
689.1869202651055
 20
1711.155266574596
 30
0.0
 10
689.3699209850445
 20
1711.155266574596
 30
0.0
 10
689.5675568499617
 20
1710.823699771111
 30
0.0
 10
689.5188135219632
 20
1709.556723096852
 30
0.0
 10
689.3239657339977
 20
1708.486551773487
 30
0.0
 10
689.1869202651109
 20
1707.905266574596
 30
0.0
  0
SPLINE
  5
28D
330
1C9
100
AcDbEntity
  8
P-SANR-FIXT
100
AcDbSpline
210
0.0
220
0.0
230
1.0
 70
     8
 71
     3
 72
    10
 73
     6
 74
     0
 42
0.000000001
 43
0.0000000001
 40
0.1414175816051822
 40
0.1414175816051822
 40
0.1414175816051822
 40
0.1414175816051822
 40
0.4
 40
0.7
 40
1.0
 40
1.0
 40
1.0
 40
1.0
 10
702.2230112476125
 20
1708.693221839946
 30
0.0
 10
702.1372280845114
 20
1709.15073764594
 30
0.0
 10
702.0167438119711
 20
1710.041437436565
 30
0.0
 10
702.0583003918205
 20
1710.94472729838
 30
0.0
 10
702.2531668906658
 20
1711.155266574596
 30
0.0
 10
702.39041743062
 20
1711.155266574596
 30
0.0
  0
SPLINE
  5
28E
330
1C9
100
AcDbEntity
  8
P-SANR-FIXT
100
AcDbSpline
210
0.0
220
0.0
230
1.0
 70
     8
 71
     3
 72
     9
 73
     5
 74
     0
 42
0.000000001
 43
0.0000000001
 40
0.0
 40
0.0
 40
0.0
 40
0.0
 40
0.5
 40
1.0
 40
1.0
 40
1.0
 40
1.0
 10
689.1869202651109
 20
1707.905266574596
 30
0.0
 10
688.7039999893195
 20
1705.873351908907
 30
0.0
 10
688.2210797135317
 20
1701.841437243219
 30
0.0
 10
688.7039999893334
 20
1697.873351908907
 30
0.0
 10
689.1869202651319
 20
1695.905266574595
 30
0.0
  0
SPLINE
  5
28F
330
1C9
100
AcDbEntity
  8
P-SANR-FIXT
100
AcDbSpline
210
0.0
220
0.0
230
1.0
 70
     8
 71
     3
 72
     9
 73
     5
 74
     0
 42
0.000000001
 43
0.0000000001
 40
0.0
 40
0.0
 40
0.0
 40
0.0
 40
0.5
 40
1.0
 40
1.0
 40
1.0
 40
1.0
 10
689.1869202651319
 20
1695.905266574595
 30
0.0
 10
689.3017042162492
 20
1695.419558267715
 30
0.0
 10
689.4743829466646
 20
1694.369456935382
 30
0.0
 10
689.5332833334411
 20
1693.228882944981
 30
0.0
 10
689.5342889409197
 20
1692.655266574655
 30
0.0
  0
SPLINE
  5
290
330
1C9
100
AcDbEntity
  8
P-SANR-FIXT
100
AcDbSpline
210
0.0
220
0.0
230
1.0
 70
     8
 71
     3
 72
     9
 73
     5
 74
     0
 42
0.000000001
 43
0.0000000001
 40
0.0
 40
0.0
 40
0.0
 40
0.0
 40
0.5
 40
1.0
 40
1.0
 40
1.0
 40
1.0
 10
689.5342889409197
 20
1692.655266574655
 30
0.0
 10
689.533283333447
 20
1692.081650204308
 30
0.0
 10
689.4743829466783
 20
1690.941076213864
 30
0.0
 10
689.3017042162628
 20
1689.890974881492
 30
0.0
 10
689.1869202651433
 20
1689.405266574595
 30
0.0
  0
SPLINE
  5
291
330
1C9
100
AcDbEntity
  8
P-SANR-FIXT
100
AcDbSpline
210
0.0
220
0.0
230
1.0
 70
     8
 71
     3
 72
     9
 73
     5
 74
     0
 42
0.000000001
 43
0.0000000001
 40
0.0
 40
0.0
 40
0.0
 40
0.0
 40
0.5
 40
1.0
 40
1.0
 40
1.0
 40
1.0
 10
689.1869202651433
 20
1689.405266574595
 30
0.0
 10
688.7039999893532
 20
1687.373351908907
 30
0.0
 10
688.2210797135668
 20
1683.341437243219
 30
0.0
 10
688.7039999893673
 20
1679.373351908907
 30
0.0
 10
689.1869202651641
 20
1677.405266574595
 30
0.0
  0
LINE
  5
292
330
1C9
100
AcDbEntity
  8
P-SANR-FIXT
100
AcDbLine
 10
788.7271920433021
 20
1674.155266574596
 30
0.0
 11
794.0427707838891
 21
1674.155266574596
 31
0.0
  0
LINE
  5
293
330
1C9
100
AcDbEntity
  8
P-SANR-FIXT
100
AcDbLine
 10
794.042770783953
 20
1711.155266574597
 30
0.0
 11
780.8392736184385
 21
1711.155266574597
 31
0.0
  0
LINE
  5
294
330
1C9
100
AcDbEntity
  8
P-SANR-FIXT
100
AcDbLine
 10
796.1148455245282
 20
1708.821074111983
 30
0.0
 11
794.7671008364867
 21
1711.155436387302
 31
0.0
  0
LINE
  5
295
330
1C9
100
AcDbEntity
  8
P-SANR-FIXT
100
AcDbLine
 10
794.7671008364185
 20
1674.155096761891
 30
0.0
 11
795.0558740124683
 21
1674.655266574673
 31
0.0
  0
LINE
  5
296
330
1C9
100
AcDbEntity
  8
P-SANR-FIXT
100
AcDbLine
 10
796.1148455245267
 20
1708.821074111982
 30
0.0
 11
796.1148455245269
 21
1702.663834387744
 31
0.0
  0
LINE
  5
297
330
1C9
100
AcDbEntity
  8
P-SANR-FIXT
100
AcDbLine
 10
780.1148455245269
 20
1702.664650654719
 30
0.0
 11
780.1148455245268
 21
1711.155266574655
 31
0.0
  0
LINE
  5
298
330
1C9
100
AcDbEntity
  8
P-SANR-FIXT
100
AcDbLine
 10
780.114845524527
 20
1674.155266574655
 30
0.0
 11
780.114845524527
 21
1674.639194560553
 31
0.0
  0
SPLINE
  5
299
330
1C9
100
AcDbEntity
  8
P-SANR-FIXT
100
AcDbSpline
210
0.0
220
0.0
230
1.0
 70
     8
 71
     3
 72
     8
 73
     4
 74
     0
 42
0.000000001
 43
0.0000000001
 40
0.0
 40
0.0
 40
0.0
 40
0.0
 40
0.3716111005307994
 40
0.3716111005307994
 40
0.3716111005307994
 40
0.3716111005307994
 10
794.0427707838876
 20
1674.155266574596
 30
0.0
 10
793.8730120588347
 20
1674.155266574596
 30
0.0
 10
793.7634141537411
 20
1674.318499988533
 30
0.0
 10
793.7187433857896
 20
1674.638721564904
 30
0.0
  0
SPLINE
  5
29A
330
1C9
100
AcDbEntity
  8
P-SANR-FIXT
100
AcDbSpline
210
0.0
220
0.0
230
1.0
 70
    24
 71
     3
 72
     9
 73
     5
 74
     0
 42
0.000000001
 43
0.0000000001
 40
0.1032455001718717
 40
0.1032455001718717
 40
0.1032455001718717
 40
0.1032455001718717
 40
0.5
 40
1.0
 40
1.0
 40
1.0
 40
1.0
 10
780.6997892507693
 20
1674.155266574596
 30
0.0
 10
780.5306582728986
 20
1674.155266574596
 30
0.0
 10
780.2312488689389
 20
1674.155266574596
 30
0.0
 10
780.1191323131267
 20
1674.155266574596
 30
0.0
 10
780.114845524527
 20
1674.155266574596
 30
0.0
  0
SPLINE
  5
29B
330
1C9
100
AcDbEntity
  8
P-SANR-FIXT
100
AcDbSpline
210
0.0
220
0.0
230
1.0
 70
    24
 71
     3
 72
     8
 73
     4
 74
     0
 42
0.000000001
 43
0.0000000001
 40
0.5
 40
0.5
 40
0.5
 40
0.5
 40
1.0
 40
1.0
 40
1.0
 40
1.0
 10
794.7671511975767
 20
1674.155266574596
 30
0.0
 10
794.7671511975767
 20
1674.155266574596
 30
0.0
 10
794.5256910596804
 20
1674.155266574596
 30
0.0
 10
794.0427707838876
 20
1674.155266574596
 30
0.0
  0
SPLINE
  5
29C
330
1C9
100
AcDbEntity
  8
P-SANR-FIXT
100
AcDbSpline
210
0.0
220
0.0
230
1.0
 70
    24
 71
     3
 72
     9
 73
     5
 74
     0
 42
0.000000001
 43
0.0000000001
 40
0.0
 40
0.0
 40
0.0
 40
0.0
 40
0.5
 40
1.0
 40
1.0
 40
1.0
 40
1.0
 10
780.1148455245268
 20
1711.155266574596
 30
0.0
 10
780.1191323130923
 20
1711.155266574596
 30
0.0
 10
780.2441571173095
 20
1711.155266574596
 30
0.0
 10
780.6020843756991
 20
1711.155266574596
 30
0.0
 10
780.8392736184371
 20
1711.155266574596
 30
0.0
  0
SPLINE
  5
29D
330
1C9
100
AcDbEntity
  8
P-SANR-FIXT
100
AcDbSpline
210
0.0
220
0.0
230
1.0
 70
    24
 71
     3
 72
     9
 73
     5
 74
     0
 42
0.000000001
 43
0.0000000001
 40
0.0
 40
0.0
 40
0.0
 40
0.0
 40
0.5
 40
0.5041690251589531
 40
0.5041690251589531
 40
0.5041690251589531
 40
0.5041690251589531
 10
794.0427707839517
 20
1711.155266574596
 30
0.0
 10
794.5256910597473
 20
1711.155266574596
 30
0.0
 10
794.7691645044248
 20
1711.155266574596
 30
0.0
 10
794.7671344105919
 20
1711.155266574596
 30
0.0
 10
794.7671008364854
 20
1711.155266574596
 30
0.0
  0
SPLINE
  5
29E
330
1C9
100
AcDbEntity
  8
P-SANR-FIXT
100
AcDbSpline
210
0.0
220
0.0
230
1.0
 70
     8
 71
     3
 72
    10
 73
     6
 74
     0
 42
0.000000001
 43
0.0000000001
 40
0.0
 40
0.0
 40
0.0
 40
0.0
 40
0.4
 40
0.7
 40
1.0
 40
1.0
 40
1.0
 40
1.0
 10
780.8392736184371
 20
1711.155266574596
 30
0.0
 10
781.0222743383761
 20
1711.155266574596
 30
0.0
 10
781.2199102032935
 20
1710.823699771112
 30
0.0
 10
781.1711668752949
 20
1709.556723096852
 30
0.0
 10
780.9763190873296
 20
1708.486551773488
 30
0.0
 10
780.8392736184426
 20
1707.905266574596
 30
0.0
  0
SPLINE
  5
29F
330
1C9
100
AcDbEntity
  8
P-SANR-FIXT
100
AcDbSpline
210
0.0
220
0.0
230
1.0
 70
     8
 71
     3
 72
    10
 73
     6
 74
     0
 42
0.000000001
 43
0.0000000001
 40
0.0
 40
0.0
 40
0.0
 40
0.0
 40
0.4
 40
0.7
 40
1.0
 40
1.0
 40
1.0
 40
1.0
 10
794.0427707839461
 20
1707.905266574596
 30
0.0
 10
793.860043492097
 20
1708.680313506452
 30
0.0
 10
793.6622523582159
 20
1709.892656067404
 30
0.0
 10
793.7106537451524
 20
1710.944727298381
 30
0.0
 10
793.9055202439975
 20
1711.155266574596
 30
0.0
 10
794.0427707839517
 20
1711.155266574596
 30
0.0
  0
SPLINE
  5
2A0
330
1C9
100
AcDbEntity
  8
P-SANR-FIXT
100
AcDbSpline
210
0.0
220
0.0
230
1.0
 70
     8
 71
     3
 72
     9
 73
     5
 74
     0
 42
0.000000001
 43
0.0000000001
 40
0.0
 40
0.0
 40
0.0
 40
0.0
 40
0.5
 40
0.8756408579658408
 40
0.8756408579658408
 40
0.8756408579658408
 40
0.8756408579658408
 10
780.8392736184426
 20
1707.905266574596
 30
0.0
 10
780.6020843757112
 20
1706.915573142526
 30
0.0
 10
780.2886686440904
 20
1705.173316278586
 30
0.0
 10
780.1538301500246
 20
1703.415254356387
 30
0.0
 10
780.1288497790738
 20
1702.658155363934
 30
0.0
  0
SPLINE
  5
2A1
330
1C9
100
AcDbEntity
  8
P-SANR-FIXT
100
AcDbSpline
210
0.0
220
0.0
230
1.0
 70
     8
 71
     3
 72
     8
 73
     4
 74
     0
 42
0.000000001
 43
0.0000000001
 40
0.5689278572653227
 40
0.5689278572653227
 40
0.5689278572653227
 40
0.5689278572653227
 40
1.0
 40
1.0
 40
1.0
 40
1.0
 10
794.7533849287996
 20
1702.685438632188
 30
0.0
 10
794.6959891216748
 20
1704.413520309542
 30
0.0
 10
794.4591177400569
 20
1706.153462957012
 30
0.0
 10
794.0427707839461
 20
1707.905266574596
 30
0.0
  0
LINE
  5
2A2
330
1C9
100
AcDbEntity
  8
P-SANR-FIXT
100
AcDbLine
 10
821.614845524528
 20
1704.605266574686
 30
0.0
 11
820.3786478961214
 21
1705.841464203093
 31
0.0
  0
LINE
  5
2A3
330
1C9
100
AcDbEntity
  8
P-SANR-FIXT
100
AcDbLine
 10
820.3631734919486
 20
1705.856938607265
 30
0.0
 11
820.3148455245278
 21
1705.905266574686
 31
0.0
  0
LINE
  5
2A4
330
1C9
100
AcDbEntity
  8
P-SANR-FIXT
100
AcDbLine
 10
820.3148455245283
 20
1679.405266574626
 30
0.0
 11
820.363173491949
 21
1679.453594542047
 31
0.0
  0
LINE
  5
2A5
330
1C9
100
AcDbEntity
  8
P-SANR-FIXT
100
AcDbLine
 10
820.3786478961218
 20
1679.469068946219
 30
0.0
 11
821.6148455245283
 21
1680.705266574626
 31
0.0
  0
LINE
  5
2A6
330
1C9
100
AcDbEntity
  8
P-SANR-FIXT
100
AcDbLine
 10
820.3148455245278
 20
1705.905266574686
 30
0.0
 11
796.1148455245282
 21
1705.905266574686
 31
0.0
  0
LINE
  5
2A7
330
1C9
100
AcDbEntity
  8
P-SANR-FIXT
100
AcDbLine
 10
809.2240697940081
 20
1679.405266574625
 30
0.0
 11
820.3148455245283
 21
1679.405266574626
 31
0.0
  0
LINE
  5
2A8
330
1C9
100
AcDbEntity
  8
P-SANR-FIXT
100
AcDbLine
 10
821.6148455245265
 20
1704.605266574686
 30
0.0
 11
821.6148455245267
 21
1692.655266574656
 31
0.0
  0
LINE
  5
2A9
330
1C9
100
AcDbEntity
  8
P-SANR-FIXT
100
AcDbLine
 10
821.6148455245267
 20
1692.655266574656
 30
0.0
 11
821.6148455245267
 21
1680.705266574626
 31
0.0
  0
LINE
  5
2AA
330
1C9
100
AcDbEntity
  8
P-SANR-FIXT
100
AcDbLine
 10
820.3148455245266
 20
1705.905266574686
 30
0.0
 11
820.3148455245267
 21
1692.655266574656
 31
0.0
  0
LINE
  5
2AB
330
1C9
100
AcDbEntity
  8
P-SANR-FIXT
100
AcDbLine
 10
820.3148455245267
 20
1692.655266574656
 30
0.0
 11
820.3148455245267
 21
1679.405266574625
 31
0.0
  0
LINE
  5
2AC
330
1C9
100
AcDbEntity
  8
P-SANR-FIXT
100
AcDbLine
 10
687.1148455245316
 20
1705.905266574686
 30
0.0
 11
662.9148455245321
 21
1705.905266574686
 31
0.0
  0
LINE
  5
2AD
330
1C9
100
AcDbEntity
  8
P-SANR-FIXT
100
AcDbLine
 10
662.9148455245324
 20
1679.405266574624
 30
0.0
 11
687.1148455245318
 21
1679.405266574624
 31
0.0
  0
LINE
  5
2AE
330
1C9
100
AcDbEntity
  8
P-SANR-FIXT
100
AcDbLine
 10
662.9148455245321
 20
1705.905266574686
 30
0.0
 11
661.6148455245323
 21
1704.605266574686
 31
0.0
  0
LINE
  5
2AF
330
1C9
100
AcDbEntity
  8
P-SANR-FIXT
100
AcDbLine
 10
661.6148455245325
 20
1680.705266574624
 30
0.0
 11
662.9148455245324
 21
1679.405266574624
 31
0.0
  0
LINE
  5
2B0
330
1C9
100
AcDbEntity
  8
P-SANR-FIXT
100
AcDbLine
 10
661.6148455245311
 20
1692.655266574655
 30
0.0
 11
661.6148455245309
 21
1704.605266574685
 31
0.0
  0
LINE
  5
2B1
330
1C9
100
AcDbEntity
  8
P-SANR-FIXT
100
AcDbLine
 10
661.6148455245312
 20
1680.705266574624
 30
0.0
 11
661.6148455245311
 21
1692.655266574655
 31
0.0
  0
LINE
  5
2B2
330
1C9
100
AcDbEntity
  8
P-SANR-FIXT
100
AcDbLine
 10
662.9148455245308
 20
1705.905266574685
 30
0.0
 11
662.9148455245309
 21
1692.655266574655
 31
0.0
  0
LINE
  5
2B3
330
1C9
100
AcDbEntity
  8
P-SANR-FIXT
100
AcDbLine
 10
662.9148455245309
 20
1692.655266574655
 30
0.0
 11
662.914845524531
 21
1679.405266574624
 31
0.0
  0
LINE
  5
2B4
330
1C9
100
AcDbEntity
  8
P-SANR-FIXT
100
AcDbLine
 10
762.4510606663712
 20
1707.555135661213
 30
0.0
 11
762.1738162085365
 21
1707.767165785924
 31
0.0
  0
LINE
  5
2B5
330
1C9
100
AcDbEntity
  8
P-SANR-FIXT
100
AcDbLine
 10
762.1738162085371
 20
1707.767165785924
 30
0.0
 11
761.0464684481597
 21
1708.560750905627
 31
0.0
  0
LINE
  5
2B6
330
1C9
100
AcDbEntity
  8
P-SANR-FIXT
100
AcDbLine
 10
730.8989436716717
 20
1719.655266574656
 30
0.0
 11
729.7872245068439
 21
1719.655266574656
 31
0.0
  0
LINE
  5
2B7
330
1C9
100
AcDbEntity
  8
P-SANR-FIXT
100
AcDbLine
 10
729.7872245068438
 20
1665.655266574656
 30
0.0
 11
730.8989436716717
 21
1665.655266574656
 31
0.0
  0
LINE
  5
2B8
330
1C9
100
AcDbEntity
  8
P-SANR-FIXT
100
AcDbLine
 10
780.1148455245282
 20
1709.505266574657
 30
0.0
 11
779.1148455245298
 21
1709.505266574657
 31
0.0
  0
LINE
  5
2B9
330
1C9
100
AcDbEntity
  8
P-SANR-FIXT
100
AcDbLine
 10
779.1148455245298
 20
1709.505266574656
 30
0.0
 11
779.0774299407042
 21
1709.440460882475
 31
0.0
  0
LINE
  5
2BA
330
1C9
100
AcDbEntity
  8
P-SANR-FIXT
100
AcDbLine
 10
779.0680008504486
 20
1709.424129219083
 30
0.0
 11
778.5663627687996
 21
1708.555266574656
 31
0.0
  0
LINE
  5
2BB
330
1C9
100
AcDbEntity
  8
P-SANR-FIXT
100
AcDbLine
 10
776.8343119612308
 20
1707.555266574656
 30
0.0
 11
761.9639465925004
 21
1707.555266574656
 31
0.0
  0
LINE
  5
2BC
330
1C9
100
AcDbEntity
  8
P-SANR-FIXT
100
AcDbLine
 10
703.5370882480207
 20
1709.505266574655
 30
0.0
 11
703.1148455245316
 21
1709.505266574655
 31
0.0
  0
LINE
  5
2BD
330
1C9
100
AcDbEntity
  8
P-SANR-FIXT
100
AcDbLine
 10
703.1148455245317
 20
1675.805266574655
 30
0.0
 11
703.5711761013389
 21
1675.805266574655
 31
0.0
  0
LWPOLYLINE
  5
2BE
330
1C9
100
AcDbEntity
  8
P-SANR-FIXT
100
AcDbPolyline
 90
       28
 70
   128
 43
0.0
 10
776.8343119612308
 20
1707.555266574656
 10
776.914290629604
 20
1707.556866361334
 10
776.9941413491692
 20
1707.56166316205
 10
777.0737363758087
 20
1707.569649302948
 10
777.1529483744592
 20
1707.580812007905
 10
777.231650622821
 20
1707.595133418973
 10
777.3097172140851
 20
1707.612590624952
 10
777.387023258359
 20
1707.633155698034
 10
777.463445082463
 20
1707.656795738491
 10
777.538860427781
 20
1707.6834729273
 10
777.6131486458481
 20
1707.71314458665
 10
777.6861908913629
 20
1707.745763248216
 10
777.7578703123138
 20
1707.781276729097
 10
777.8280722369182
 20
1707.8196282153
 10
777.8966843570725
 20
1707.860756352629
 10
777.9635969080209
 20
1707.904595344836
 10
778.0287028439556
 20
1707.951075058887
 10
778.0918980092677
 20
1708.000121137154
 10
778.1530813051738
 20
1708.051655116374
 10
778.2121548514519
 20
1708.105594553174
 10
778.2690241430298
 20
1708.161853155961
 10
778.3235982011725
 20
1708.220340922973
 10
778.3757897190288
 20
1708.280964286259
 10
778.4255152013037
 20
1708.343626261369
 10
778.4726950978328
 20
1708.408226602511
 10
778.5172539308466
 20
1708.47466196292
 10
778.5591204157176
 20
1708.54282606019
 10
778.5663627687996
 20
1708.555266574656
  0
ELLIPSE
  5
2BF
330
1C9
100
AcDbEntity
  8
P-SANR-FIXT
100
AcDbEllipse
 10
729.6148455245287
 20
1692.655266574655
 30
0.0
 11
0.0
 21
26.49599757301507
 31
0.0
210
0.0
220
0.0
230
1.0
 40
0.939692620785909
 41
4.712388980384668
 42
4.799655442984398
  0
ELLIPSE
  5
2C0
330
1C9
100
AcDbEntity
  8
P-SANR-FIXT
100
AcDbEllipse
 10
729.6148455245287
 20
1692.655266574655
 30
0.0
 11
0.0
 21
26.49599757301516
 31
0.0
210
0.0
220
0.0
230
1.0
 40
0.9396926207859079
 41
4.869577988190833
 42
4.886921905584104
  0
ELLIPSE
  5
2C1
330
1C9
100
AcDbEntity
  8
P-SANR-FIXT
100
AcDbEllipse
 10
729.6148455245287
 20
1692.655266574655
 30
0.0
 11
0.0
 21
26.49599757301492
 31
0.0
210
0.0
220
0.0
230
0.9999999999999998
 40
0.9396926207859181
 41
4.948226509039234
 42
4.974188368183827
  0
ELLIPSE
  5
2C2
330
1C9
100
AcDbEntity
  8
P-SANR-FIXT
100
AcDbEllipse
 10
729.6148455245287
 20
1692.655266574655
 30
0.0
 11
0.0
 21
26.49599757301502
 31
0.0
210
0.0
220
0.0
230
0.9999999999999998
 40
0.9396926207859142
 41
5.026888045287725
 42
5.18417835244201
  0
ELLIPSE
  5
2C3
330
1C9
100
AcDbEntity
  8
P-SANR-FIXT
100
AcDbEllipse
 10
729.6148455245287
 20
1692.655266574655
 30
0.0
 11
0.0
 21
26.49599757301469
 31
0.0
210
0.0
220
0.0
230
1.0
 40
0.9396926207859205
 41
5.235987755982985
 42
5.262766137432668
  0
ELLIPSE
  5
2C4
330
1C9
100
AcDbEntity
  8
P-SANR-FIXT
100
AcDbEllipse
 10
729.6148455245287
 20
1692.655266574655
 30
0.0
 11
0.0
 21
26.4959975730147
 31
0.0
210
0.0
220
0.0
230
1.0
 40
0.9396926207859248
 41
5.323254218582701
 42
5.341281675626807
  0
ELLIPSE
  5
2C5
330
1C9
100
AcDbEntity
  8
P-SANR-FIXT
100
AcDbEllipse
 10
729.6148455245287
 20
1692.655266574655
 30
0.0
 11
0.0
 21
26.49599757301477
 31
0.0
210
0.0
220
0.0
230
1.0
 40
0.939692620785922
 41
5.410520681182419
 42
5.419690484082263
  0
ELLIPSE
  5
2C6
330
1C9
100
AcDbEntity
  8
P-SANR-FIXT
100
AcDbEllipse
 10
729.6148455245287
 20
1692.655266574655
 30
0.0
 11
0.0
 21
26.49599757301487
 31
0.0
210
0.0
220
0.0
230
0.9999999999999998
 40
0.9396926207859147
 41
5.497787143782131
 42
5.505035889426324
  0
ELLIPSE
  5
2C7
330
1C9
100
AcDbEntity
  8
P-SANR-FIXT
100
AcDbEllipse
 10
729.6148455245287
 20
1692.655266574655
 30
0.0
 11
0.0
 21
26.4959975730148
 31
0.0
210
0.0
220
0.0
230
1.0
 40
0.9396926207859209
 41
5.575883803481492
 42
5.602239475816412
  0
ELLIPSE
  5
2C8
330
1C9
100
AcDbEntity
  8
P-SANR-FIXT
100
AcDbEllipse
 10
729.6148455245287
 20
1692.655266574655
 30
0.0
 11
0.0
 21
26.4959975730148
 31
0.0
210
0.0
220
0.0
230
1.0
 40
0.9396926207859245
 41
5.654292611936985
 42
5.676498678616551
  0
ELLIPSE
  5
2C9
330
1C9
100
AcDbEntity
  8
P-SANR-FIXT
100
AcDbEllipse
 10
729.6148455245287
 20
1692.655266574655
 30
0.0
 11
0.0
 21
26.49599757301493
 31
0.0
210
0.0
220
0.0
230
1.0
 40
0.9396926207859198
 41
5.73280815013116
 42
5.777089662401406
  0
ELLIPSE
  5
2CA
330
1C9
100
AcDbEntity
  8
P-SANR-FIXT
100
AcDbEllipse
 10
729.6148455245287
 20
1692.655266574655
 30
0.0
 11
0.0
 21
26.49599757301469
 31
0.0
210
0.0
220
0.0
230
1.0
 40
0.9396926207859264
 41
5.811395935121827
 42
5.968686242276143
  0
ELLIPSE
  5
2CB
330
1C9
100
AcDbEntity
  8
P-SANR-FIXT
100
AcDbEllipse
 10
729.6148455245287
 20
1692.655266574655
 30
0.0
 11
0.0
 21
26.49599757301495
 31
0.0
210
0.0
220
0.0
230
1.0
 40
0.9396926207859157
 41
6.003882788558094
 42
6.047347778524641
  0
ELLIPSE
  5
2CC
330
1C9
100
AcDbEntity
  8
P-SANR-FIXT
100
AcDbEllipse
 10
729.6148455245287
 20
1692.655266574655
 30
0.0
 11
0.0
 21
26.49599757301489
 31
0.0
210
0.0
220
0.0
230
1.0
 40
0.9396926207859197
 41
6.091133574983517
 42
6.125996299373047
  0
ELLIPSE
  5
2CD
330
1C9
100
AcDbEntity
  8
P-SANR-FIXT
100
AcDbEllipse
 10
729.6148455245287
 20
1692.655266574655
 30
0.0
 11
0.0
 21
26.49599757301485
 31
0.0
210
0.0
220
0.0
230
0.9999999999999998
 40
0.9396926207859157
 41
6.184179595999705
 42
6.204614672626504
  0
ELLIPSE
  5
2CE
330
1C9
100
AcDbEntity
  8
P-SANR-FIXT
100
AcDbEllipse
 10
729.6148455245287
 20
1692.655266574655
 30
0.0
 11
0.0
 21
26.49599757301531
 31
0.0
210
0.0
220
0.0
230
1.0
 40
0.9396926207859021
 41
3.220163288142875
 42
3.240598364657865
  0
ELLIPSE
  5
2CF
330
1C9
100
AcDbEntity
  8
P-SANR-FIXT
100
AcDbEllipse
 10
729.6148455245287
 20
1692.655266574655
 30
0.0
 11
0.0
 21
26.49599757301534
 31
0.0
210
0.0
220
0.0
230
0.9999999999999998
 40
0.9396926207859021
 41
3.298781661396324
 42
3.33364438571982
  0
ELLIPSE
  5
2D0
330
1C9
100
AcDbEntity
  8
P-SANR-FIXT
100
AcDbEllipse
 10
729.6148455245287
 20
1692.655266574655
 30
0.0
 11
0.0
 21
26.49599757301522
 31
0.0
210
0.0
220
0.0
230
1.0
 40
0.9396926207859072
 41
3.377430182244728
 42
3.420895172164648
  0
ELLIPSE
  5
2D1
330
1C9
100
AcDbEntity
  8
P-SANR-FIXT
100
AcDbEllipse
 10
729.6148455245287
 20
1692.655266574655
 30
0.0
 11
0.0
 21
26.49599757301531
 31
0.0
210
0.0
220
0.0
230
1.0
 40
0.9396926207859028
 41
3.456091718493229
 42
3.613382025647553
  0
ELLIPSE
  5
2D2
330
1C9
100
AcDbEntity
  8
P-SANR-FIXT
100
AcDbEllipse
 10
729.6148455245287
 20
1692.655266574655
 30
0.0
 11
0.0
 21
26.49599757301512
 31
0.0
210
0.0
220
0.0
230
1.0
 40
0.9396926207859038
 41
3.647688298410123
 42
3.691969810638212
  0
ELLIPSE
  5
2D3
330
1C9
100
AcDbEntity
  8
P-SANR-FIXT
100
AcDbEllipse
 10
729.6148455245287
 20
1692.655266574655
 30
0.0
 11
0.0
 21
26.49599757301507
 31
0.0
210
0.0
220
0.0
230
0.9999999999999998
 40
0.9396926207859099
 41
3.734939084852582
 42
3.77048534883239
  0
ELLIPSE
  5
2D4
330
1C9
100
AcDbEntity
  8
P-SANR-FIXT
100
AcDbEllipse
 10
729.6148455245287
 20
1692.655266574655
 30
0.0
 11
0.0
 21
26.49599757301527
 31
0.0
210
0.0
220
0.0
230
1.0
 40
0.9396926207859042
 41
3.822538484952941
 42
3.848894157287875
  0
ELLIPSE
  5
2D5
330
1C9
100
AcDbEntity
  8
P-SANR-FIXT
100
AcDbEllipse
 10
729.6148455245287
 20
1692.655266574655
 30
0.0
 11
0.0
 21
26.4959975730151
 31
0.0
210
0.0
220
0.0
230
1.0
 40
0.9396926207859127
 41
3.922528179743411
 42
3.92699081698723
  0
ELLIPSE
  5
2D6
330
1C9
100
AcDbEntity
  8
P-SANR-FIXT
100
AcDbEllipse
 10
729.6148455245287
 20
1692.655266574655
 30
0.0
 11
0.0
 21
26.49599757301523
 31
0.0
210
0.0
220
0.0
230
0.9999999999999998
 40
0.9396926207859047
 41
4.005087476685096
 42
4.014257279586946
  0
ELLIPSE
  5
2D7
330
1C9
100
AcDbEntity
  8
P-SANR-FIXT
100
AcDbEllipse
 10
729.6148455245287
 20
1692.655266574655
 30
0.0
 11
0.0
 21
26.49599757301512
 31
0.0
210
0.0
220
0.0
230
1.0
 40
0.9396926207859094
 41
4.083496285140689
 42
4.101523742186664
  0
ELLIPSE
  5
2D8
330
1C9
100
AcDbEntity
  8
P-SANR-FIXT
100
AcDbEllipse
 10
729.6148455245287
 20
1692.655266574655
 30
0.0
 11
0.0
 21
26.49599757301512
 31
0.0
210
0.0
220
0.0
230
1.0
 40
0.939692620785912
 41
4.162011823334943
 42
4.198564819108264
  0
ELLIPSE
  5
2D9
330
1C9
100
AcDbEntity
  8
P-SANR-FIXT
100
AcDbEllipse
 10
729.6148455245287
 20
1692.655266574655
 30
0.0
 11
0.0
 21
26.49599757301517
 31
0.0
210
0.0
220
0.0
230
0.9999999999999998
 40
0.9396926207859056
 41
4.240599608325672
 42
4.397889915480069
  0
ELLIPSE
  5
2DA
330
1C9
100
AcDbEntity
  8
P-SANR-FIXT
100
AcDbEllipse
 10
729.6148455245287
 20
1692.655266574655
 30
0.0
 11
0.0
 21
26.49599757301502
 31
0.0
210
0.0
220
0.0
230
1.0
 40
0.9396926207859143
 41
4.436193605849126
 42
4.476551451728592
  0
ELLIPSE
  5
2DB
330
1C9
100
AcDbEntity
  8
P-SANR-FIXT
100
AcDbEllipse
 10
729.6148455245287
 20
1692.655266574655
 30
0.0
 11
0.0
 21
26.495997573015
 31
0.0
210
0.0
220
0.0
230
1.0
 40
0.9396926207859152
 41
4.537856055185248
 42
4.555199972577032
  0
ELLIPSE
  5
2DC
330
1C9
100
AcDbEntity
  8
P-SANR-FIXT
100
AcDbEllipse
 10
729.6148455245287
 20
1692.655266574655
 30
0.0
 11
0.0
 21
26.49599757301498
 31
0.0
210
0.0
220
0.0
230
1.0
 40
0.9396926207859136
 41
4.625122517784954
 42
4.712388980384668
  0
SPLINE
  5
2DD
330
1C9
100
AcDbEntity
  8
P-SANR-FIXT
100
AcDbSpline
210
0.0
220
0.0
230
1.0
 70
     8
 71
     3
 72
    24
 73
    20
 74
     0
 42
0.000000001
 43
0.0000000001
 40
-0.6542517582228298
 40
-0.6542517582228298
 40
-0.6542517582228298
 40
-0.6542517582228298
 40
-0.6388888888888889
 40
-0.6111111111111112
 40
-0.5833333333333334
 40
-0.5555555555555556
 40
-0.5277777777777778
 40
-0.5
 40
-0.4722222222222223
 40
-0.4583333333333333
 40
-0.4444444444444445
 40
-0.4305555555555556
 40
-0.4166666666666666
 40
-0.3888888888888888
 40
-0.3611111111111111
 40
-0.3333333333333333
 40
-0.3055555555555556
 40
-0.2777777777777778
 40
-0.2592592592592593
 40
-0.2592592592592593
 40
-0.2592592592592593
 40
-0.2592592592592593
 10
763.8800498840862
 20
1702.662636054553
 30
0.0
 10
763.8401548806755
 20
1702.780985204497
 30
0.0
 10
763.72672721279
 20
1703.10820930843
 30
0.0
 10
763.5323169987198
 20
1703.621727883337
 30
0.0
 10
763.3034883701379
 20
1704.188340403265
 30
0.0
 10
763.0875987539963
 20
1704.717987693757
 30
0.0
 10
762.8755124287565
 20
1705.207771889829
 30
0.0
 10
762.6611974256729
 20
1705.655021511957
 30
0.0
 10
762.4959216404508
 20
1705.992063789927
 30
0.0
 10
762.3768346424387
 20
1706.239673355406
 30
0.0
 10
762.2972114656245
 20
1706.414206796469
 30
0.0
 10
762.2231602129171
 20
1706.577420037642
 30
0.0
 10
762.1266048664606
 20
1706.779482313121
 30
0.0
 10
762.0181949483237
 20
1707.001958279432
 30
0.0
 10
761.9197096196909
 20
1707.218558801702
 30
0.0
 10
761.871541758566
 20
1707.382933812583
 30
0.0
 10
761.8724294900499
 20
1707.495333259756
 30
0.0
 10
761.9070147331458
 20
1707.548279635072
 30
0.0
 10
761.9492468158503
 20
1707.555663009237
 30
0.0
 10
761.969694334589
 20
1707.554713978369
 30
0.0
  0
ELLIPSE
  5
2DE
330
1C9
100
AcDbEntity
  8
P-SANR-FIXT
100
AcDbEllipse
 10
729.7872245068425
 20
1692.655266574655
 30
0.0
 11
0.0
 21
26.99999999999982
 31
0.0
210
0.0
220
0.0
230
0.9999999999999998
 40
0.9396926207859143
 41
4.712388980384693
 42
6.712876448120264
  0
ELLIPSE
  5
2DF
330
1C9
100
AcDbEntity
  8
P-SANR-FIXT
100
AcDbEllipse
 10
729.7872245068425
 20
1692.655266574655
 30
0.0
 11
0.0
 21
27.00000000000022
 31
0.0
210
0.0
220
0.0
230
0.9999999999999998
 40
0.9396926207858983
 41
2.71192400442874
 42
4.712388980384668
  0
LINE
  5
2E0
330
1C9
100
AcDbEntity
  8
P-SANR-FIXT
100
AcDbLine
 10
779.1148455245285
 20
1709.505266574655
 30
0.0
 11
779.1148455245286
 21
1702.667329266934
 31
0.0
  0
ENDBLK
  5
2E2
330
1C9
100
AcDbEntity
  8
0
100
AcDbBlockEnd
  0
BLOCK
  5
3D0
330
2E4
100
AcDbEntity
  8
0
100
AcDbBlockBegin
  2
Automatic flow rate regulator valve_Caleffi_121 DN15 - 3_4___Pressure gauge H-V2-Est - Idraulica
 70
     0
 10
0.0
 20
0.0
 30
0.0
  3
Automatic flow rate regulator valve_Caleffi_121 DN15 - 3_4___Pressure gauge H-V2-Est - Idraulica
  1

  0
LINE
  5
2E5
330
2E4
100
AcDbEntity
  8
M-PIPE
100
AcDbLine
 10
1195.114353943063
 20
2109.994333983195
 30
0.0
 11
1191.822135175233
 21
2109.994333983195
 31
0.0
1001
REVIT
1002
{
1070
     3
1000
923236
1002
}
  0
LINE
  5
2E6
330
2E4
100
AcDbEntity
  8
M-PIPE
100
AcDbLine
 10
1195.114353943061
 20
2109.990602514525
 30
0.0
 11
1195.114353943061
 21
2103.584017152004
 31
0.0
1001
REVIT
1002
{
1070
     3
1000
923236
1002
}
  0
LINE
  5
2E7
330
2E4
100
AcDbEntity
  8
M-PIPE
100
AcDbLine
 10
1154.627674553998
 20
2077.058714275567
 30
0.0
 11
1154.879506535659
 21
2079.433128561163
 31
0.0
1001
REVIT
1002
{
1070
     3
1000
923097
1002
}
  0
LINE
  5
2E8
330
2E4
100
AcDbEntity
  8
M-PIPE
100
AcDbLine
 10
1199.601033332241
 20
2077.058714275566
 30
0.0
 11
1199.34920135058
 21
2079.433128561161
 31
0.0
1001
REVIT
1002
{
1070
     3
1000
923097
1002
}
  0
ELLIPSE
  5
2E9
330
2E4
100
AcDbEntity
  8
M-PIPE
100
AcDbEllipse
 10
1177.114353943118
 20
2076.793952232061
 30
0.0
 11
22.50000000000008
 21
0.0
 31
0.0
210
0.0
220
0.0
230
0.9999999999999998
 40
0.3420201433256485
 41
3.107180865626356
 42
4.712388980384673
1001
REVIT
1002
{
1070
     3
1000
923097
1002
}
  0
ELLIPSE
  5
2EA
330
2E4
100
AcDbEntity
  8
M-PIPE
100
AcDbEllipse
 10
1395.799698248708
 20
2074.71441292259
 30
0.0
 11
196.7973242973379
 21
154.1771300524448
 31
0.0
210
0.0
220
0.0
230
0.9999999999999998
 40
0.9076733711903726
 41
2.378844999662744
 42
2.419159589582326
1001
REVIT
1002
{
1070
     3
1000
923097
1002
}
  0
ELLIPSE
  5
2EB
330
2E4
100
AcDbEntity
  8
M-PIPE
100
AcDbEllipse
 10
1177.114353943118
 20
2079.143183784001
 30
0.0
 11
22.25100234637479
 21
0.0
 31
0.0
210
0.0
220
0.0
230
1.0
 40
0.3420201433256567
 41
2.881410084006093
 42
3.405008859604722
1001
REVIT
1002
{
1070
     3
1000
923097
1002
}
  0
SPLINE
  5
2EC
330
2E4
100
AcDbEntity
  8
M-PIPE
100
AcDbSpline
210
0.0
220
0.0
230
1.0
 70
     8
 71
     3
 72
     9
 73
     5
 74
     0
 42
0.000000001
 43
0.0000000001
 40
-1.0
 40
-1.0
 40
-1.0
 40
-1.0
 40
-0.5
 40
-0.3219906397961372
 40
-0.3219906397961372
 40
-0.3219906397961372
 40
-0.3219906397961372
 10
1155.612252983278
 20
2081.100984274363
 30
0.0
 10
1155.781197322922
 20
2082.655605386692
 30
0.0
 10
1156.032291669457
 20
2084.759006519541
 30
0.0
 10
1156.31322203386
 20
2086.856042231199
 30
0.0
 10
1156.389036098678
 20
2087.406174005165
 30
0.0
1001
REVIT
1002
{
1070
     3
1000
923097
1002
}
  0
ELLIPSE
  5
2ED
330
2E4
100
AcDbEntity
  8
M-PIPE
100
AcDbEllipse
 10
958.4476320871772
 20
2034.633710899742
 30
0.0
 11
196.7973242973897
 21
154.1771300524665
 31
0.0
210
0.0
220
0.0
230
1.0
 40
0.9076733711903823
 41
5.769345366209273
 42
5.796679035531544
1001
REVIT
1002
{
1070
     3
1000
923097
1002
}
  0
ELLIPSE
  5
2EE
330
2E4
100
AcDbEntity
  8
M-PIPE
100
AcDbEllipse
 10
1177.114353943118
 20
2079.143183784001
 30
0.0
 11
22.25100234637497
 21
0.0
 31
0.0
210
0.0
220
0.0
230
1.0
 40
0.3420201433256305
 41
6.019769101164453
 42
6.543367876763131
1001
REVIT
1002
{
1070
     3
1000
923097
1002
}
  0
SPLINE
  5
2EF
330
2E4
100
AcDbEntity
  8
M-PIPE
100
AcDbSpline
210
0.0
220
0.0
230
1.0
 70
     8
 71
     3
 72
     9
 73
     5
 74
     0
 42
0.000000001
 43
0.0000000001
 40
-1.0
 40
-1.0
 40
-1.0
 40
-1.0
 40
-0.5
 40
0.0
 40
0.0
 40
0.0
 40
0.0
 10
1198.597832453253
 20
2077.16161291815
 30
0.0
 10
1198.428888113609
 20
2078.747199507765
 30
0.0
 10
1198.05854758253
 20
2081.917397222199
 30
0.0
 10
1197.623303347869
 20
2085.085644007037
 30
0.0
 10
1197.389455304644
 20
2086.669279667056
 30
0.0
1001
REVIT
1002
{
1070
     3
1000
923097
1002
}
  0
ELLIPSE
  5
2F0
330
2E4
100
AcDbEntity
  8
M-PIPE
100
AcDbEllipse
 10
1177.114353943118
 20
2076.793952232061
 30
0.0
 11
-22.50000000000023
 21
0.000000000000426
 31
0.0
210
0.0
220
0.0
230
1.0
 40
0.3420201433256368
 41
1.570796326794894
 42
3.176004441553163
1001
REVIT
1002
{
1070
     3
1000
923097
1002
}
  0
LINE
  5
2F1
330
2E4
100
AcDbEntity
  8
M-PIPE
100
AcDbLine
 10
1156.855611421929
 20
2086.670778856968
 30
0.0
 11
1156.839252581593
 21
2086.669279667058
 31
0.0
1001
REVIT
1002
{
1070
     3
1000
923097
1002
}
  0
ELLIPSE
  5
2F2
330
2E4
100
AcDbEntity
  8
M-PIPE
100
AcDbEllipse
 10
1177.114353943118
 20
2088.540109991884
 30
0.0
 11
-21.0
 21
0.0000000000005142
 31
0.0
210
0.0
220
0.0
230
1.0
 40
0.3420201433256504
 41
1.498169448776191
 42
1.5707963267949
1001
REVIT
1002
{
1070
     3
1000
923097
1002
}
  0
ELLIPSE
  5
2F3
330
2E4
100
AcDbEntity
  8
M-PIPE
100
AcDbEllipse
 10
1177.114353943118
 20
2088.540109991884
 30
0.0
 11
20.99999999999989
 21
0.0
 31
0.0
210
0.0
220
0.0
230
1.0
 40
0.3420201433256593
 41
4.567135224347256
 42
4.635584900655154
1001
REVIT
1002
{
1070
     3
1000
923097
1002
}
  0
ELLIPSE
  5
2F4
330
2E4
100
AcDbEntity
  8
M-PIPE
100
AcDbEllipse
 10
1177.114353943118
 20
2088.540109991884
 30
0.0
 11
21.00000000000017
 21
0.0
 31
0.0
210
0.0
220
0.0
230
1.0
 40
0.3420201433256487
 41
4.482456178926562
 42
4.558442731088868
1001
REVIT
1002
{
1070
     3
1000
923097
1002
}
  0
ELLIPSE
  5
2F5
330
2E4
100
AcDbEntity
  8
M-PIPE
100
AcDbEllipse
 10
1177.114353943118
 20
2088.540109991884
 30
0.0
 11
21.00000000000001
 21
0.0
 31
0.0
210
0.0
220
0.0
230
1.0
 40
0.3420201433256421
 41
4.42188146830986
 42
4.48096126203745
1001
REVIT
1002
{
1070
     3
1000
923097
1002
}
  0
ELLIPSE
  5
2F6
330
2E4
100
AcDbEntity
  8
M-PIPE
100
AcDbEllipse
 10
1177.114353943118
 20
2088.540109991884
 30
0.0
 11
21.00000000000006
 21
0.0
 31
0.0
210
0.0
220
0.0
230
0.9999999999999998
 40
0.3420201433256583
 41
4.349254590291119
 42
4.403140303247269
1001
REVIT
1002
{
1070
     3
1000
923097
1002
}
  0
ELLIPSE
  5
2F7
330
2E4
100
AcDbEntity
  8
M-PIPE
100
AcDbEllipse
 10
1177.114353943118
 20
2088.540109991884
 30
0.0
 11
21.00000000000002
 21
0.0
 31
0.0
210
0.0
220
0.0
230
0.9999999999999998
 40
0.342020143325655
 41
4.276627712272423
 42
4.324980995887703
1001
REVIT
1002
{
1070
     3
1000
923097
1002
}
  0
ELLIPSE
  5
2F8
330
2E4
100
AcDbEntity
  8
M-PIPE
100
AcDbEllipse
 10
1177.114353943118
 20
2088.540109991884
 30
0.0
 11
21.0000000000001
 21
0.0
 31
0.0
210
0.0
220
0.0
230
1.0
 40
0.3420201433256544
 41
4.087775977747748
 42
4.246419371915024
1001
REVIT
1002
{
1070
     3
1000
923097
1002
}
  0
ELLIPSE
  5
2F9
330
2E4
100
AcDbEntity
  8
M-PIPE
100
AcDbEllipse
 10
1177.114353943118
 20
2088.540109991884
 30
0.0
 11
21.00000000000004
 21
0.0
 31
0.0
210
0.0
220
0.0
230
1.0
 40
0.3420201433256649
 41
4.008060772932479
 42
4.058747078216283
1001
REVIT
1002
{
1070
     3
1000
923097
1002
}
  0
ELLIPSE
  5
2FA
330
2E4
100
AcDbEntity
  8
M-PIPE
100
AcDbEllipse
 10
1177.114353943118
 20
2088.540109991884
 30
0.0
 11
21.0000000000001
 21
0.0
 31
0.0
210
0.0
220
0.0
230
1.0
 40
0.3420201433256324
 41
3.928446042644185
 42
3.98612020019758
1001
REVIT
1002
{
1070
     3
1000
923097
1002
}
  0
ELLIPSE
  5
2FB
330
2E4
100
AcDbEntity
  8
M-PIPE
100
AcDbEllipse
 10
1177.114353943118
 20
2088.540109991884
 30
0.0
 11
21.00000000000012
 21
0.0
 31
0.0
210
0.0
220
0.0
230
1.0
 40
0.3420201433256575
 41
3.849202383054216
 42
3.921206956007239
1001
REVIT
1002
{
1070
     3
1000
923097
1002
}
  0
ELLIPSE
  5
2FC
330
2E4
100
AcDbEntity
  8
M-PIPE
100
AcDbEllipse
 10
1177.114353943118
 20
2088.540109991884
 30
0.0
 11
21.0
 21
0.0
 31
0.0
210
0.0
220
0.0
230
1.0
 40
0.3420201433256575
 41
3.770375789300711
 42
3.840866444160157
1001
REVIT
1002
{
1070
     3
1000
923097
1002
}
  0
ELLIPSE
  5
2FD
330
2E4
100
AcDbEntity
  8
M-PIPE
100
AcDbEllipse
 10
1177.114353943118
 20
2088.540109991884
 30
0.0
 11
21.00000000000008
 21
0.0
 31
0.0
210
0.0
220
0.0
230
1.0
 40
0.3420201433256537
 41
3.457713855258858
 42
3.768239566141448
1001
REVIT
1002
{
1070
     3
1000
923097
1002
}
  0
ELLIPSE
  5
2FE
330
2E4
100
AcDbEntity
  8
M-PIPE
100
AcDbEllipse
 10
1177.114353943118
 20
2088.540109991884
 30
0.0
 11
21.00000000000004
 21
0.0
 31
0.0
210
0.0
220
0.0
230
1.0
 40
0.3420201433256542
 41
3.405105176047862
 42
3.43734769659275
1001
REVIT
1002
{
1070
     3
1000
923097
1002
}
  0
ELLIPSE
  5
2FF
330
2E4
100
AcDbEntity
  8
M-PIPE
100
AcDbEllipse
 10
1177.114353943118
 20
2088.540109991886
 30
0.0
 11
20.99999999999992
 21
0.0
 31
0.0
210
0.0
220
0.0
230
1.0
 40
0.3420201433256574
 41
5.98786150748015
 42
6.019672784721383
1001
REVIT
1002
{
1070
     3
1000
923097
1002
}
  0
ELLIPSE
  5
300
330
2E4
100
AcDbEntity
  8
M-PIPE
100
AcDbEllipse
 10
1177.114353943118
 20
2088.540109991886
 30
0.0
 11
20.99999999999987
 21
0.0
 31
0.0
210
0.0
220
0.0
230
1.0
 40
0.3420201433256525
 41
5.583911516609154
 42
5.967348757706363
1001
REVIT
1002
{
1070
     3
1000
923097
1002
}
  0
ELLIPSE
  5
301
330
2E4
100
AcDbEntity
  8
M-PIPE
100
AcDbEllipse
 10
1177.114353943118
 20
2088.540109991886
 30
0.0
 11
20.99999999999977
 21
0.0
 31
0.0
210
0.0
220
0.0
230
1.0
 40
0.3420201433256301
 41
5.511284638590437
 42
5.57678036016276
1001
REVIT
1002
{
1070
     3
1000
923097
1002
}
  0
ELLIPSE
  5
302
330
2E4
100
AcDbEntity
  8
M-PIPE
100
AcDbEllipse
 10
1177.114353943118
 20
2088.540109991886
 30
0.0
 11
20.99999999999987
 21
0.0
 31
0.0
210
0.0
220
0.0
230
1.0
 40
0.3420201433256508
 41
5.438657760571729
 42
5.497400722029669
1001
REVIT
1002
{
1070
     3
1000
923097
1002
}
  0
ELLIPSE
  5
303
330
2E4
100
AcDbEntity
  8
M-PIPE
100
AcDbEllipse
 10
1177.114353943118
 20
2088.540109991886
 30
0.0
 11
20.99999999999994
 21
0.0
 31
0.0
210
0.0
220
0.0
230
1.0
 40
0.3420201433256411
 41
5.178142699309996
 42
5.417489729611767
1001
REVIT
1002
{
1070
     3
1000
923097
1002
}
  0
ELLIPSE
  5
304
330
2E4
100
AcDbEntity
  8
M-PIPE
100
AcDbEllipse
 10
1177.114353943118
 20
2088.540109991886
 30
0.0
 11
20.99999999999994
 21
0.0
 31
0.0
210
0.0
220
0.0
230
1.0
 40
0.3420201433256574
 41
5.021250582074056
 42
5.148150248496919
1001
REVIT
1002
{
1070
     3
1000
923097
1002
}
  0
ELLIPSE
  5
305
330
2E4
100
AcDbEntity
  8
M-PIPE
100
AcDbEllipse
 10
1177.114353943118
 20
2088.540109991886
 30
0.0
 11
20.9999999999999
 21
0.0
 31
0.0
210
0.0
220
0.0
230
1.0
 40
0.3420201433256521
 41
4.943442875959069
 42
5.002896492459514
1001
REVIT
1002
{
1070
     3
1000
923097
1002
}
  0
ELLIPSE
  5
306
330
2E4
100
AcDbEntity
  8
M-PIPE
100
AcDbEllipse
 10
1177.114353943118
 20
2088.540109991886
 30
0.0
 11
20.99999999999984
 21
0.0
 31
0.0
210
0.0
220
0.0
230
1.0
 40
0.3420201433256465
 41
4.866031523767479
 42
4.930269614440804
1001
REVIT
1002
{
1070
     3
1000
923097
1002
}
  0
ELLIPSE
  5
307
330
2E4
100
AcDbEntity
  8
M-PIPE
100
AcDbEllipse
 10
1177.114353943118
 20
2088.540109991886
 30
0.0
 11
20.99999999999992
 21
0.0
 31
0.0
210
0.0
220
0.0
230
1.0
 40
0.3420201433256385
 41
4.712388980384683
 42
4.857642736422101
1001
REVIT
1002
{
1070
     3
1000
923097
1002
}
  0
LINE
  5
308
330
2E4
100
AcDbEntity
  8
M-PIPE
100
AcDbLine
 10
1197.389455304644
 20
2086.669279667056
 30
0.0
 11
1197.373096464232
 21
2086.670778856974
 31
0.0
1001
REVIT
1002
{
1070
     3
1000
923097
1002
}
  0
LINE
  5
309
330
2E4
100
AcDbEntity
  8
M-PIPE
100
AcDbLine
 10
1156.085998527911
 20
2081.057568327628
 30
0.0
 11
1155.612252983278
 21
2081.100984274363
 31
0.0
1001
REVIT
1002
{
1070
     3
1000
923097
1002
}
  0
LINE
  5
30A
330
2E4
100
AcDbEntity
  8
M-PIPE
100
AcDbLine
 10
1198.616454902958
 20
2081.100984274363
 30
0.0
 11
1198.142709358312
 21
2081.057568327626
 31
0.0
1001
REVIT
1002
{
1070
     3
1000
923097
1002
}
  0
LINE
  5
30B
330
2E4
100
AcDbEntity
  8
M-PIPE
100
AcDbLine
 10
1150.614353943129
 20
2053.301636712395
 30
0.0
 11
1150.614353943129
 21
2050.482558850038
 31
0.0
1001
REVIT
1002
{
1070
     3
1000
923097
1002
}
  0
LINE
  5
30C
330
2E4
100
AcDbEntity
  8
M-PIPE
100
AcDbLine
 10
1203.614353943067
 20
2050.482558850037
 30
0.0
 11
1203.614353943068
 21
2053.301636712395
 31
0.0
1001
REVIT
1002
{
1070
     3
1000
923097
1002
}
  0
LINE
  5
30D
330
2E4
100
AcDbEntity
  8
M-PIPE
100
AcDbLine
 10
1151.542132782425
 20
2060.634624448934
 30
0.0
 11
1151.542132782425
 21
2053.301636712395
 31
0.0
1001
REVIT
1002
{
1070
     3
1000
923097
1002
}
  0
LINE
  5
30E
330
2E4
100
AcDbEntity
  8
M-PIPE
100
AcDbLine
 10
1202.686575103773
 20
2053.301636712395
 30
0.0
 11
1202.686575103773
 21
2060.634624448934
 31
0.0
1001
REVIT
1002
{
1070
     3
1000
923097
1002
}
  0
LINE
  5
30F
330
2E4
100
AcDbEntity
  8
M-PIPE
100
AcDbLine
 10
1153.61578874538
 20
2061.847686054834
 30
0.0
 11
1154.627742862142
 21
2077.059392056552
 31
0.0
1001
REVIT
1002
{
1070
     3
1000
923097
1002
}
  0
LINE
  5
310
330
2E4
100
AcDbEntity
  8
M-PIPE
100
AcDbLine
 10
1200.612919140818
 20
2061.847686054825
 30
0.0
 11
1199.600965024057
 21
2077.059392056542
 31
0.0
1001
REVIT
1002
{
1070
     3
1000
923097
1002
}
  0
ELLIPSE
  5
311
330
2E4
100
AcDbEntity
  8
M-PIPE
100
AcDbEllipse
 10
1177.114353943097
 20
2050.482558850037
 30
0.0
 11
26.49999999996931
 21
0.0
 31
0.0
210
0.0
220
0.0
230
1.0
 40
0.3420201433256633
 41
3.141592653589793
 42
3.220132469929531
1001
REVIT
1002
{
1070
     3
1000
923097
1002
}
  0
ELLIPSE
  5
312
330
2E4
100
AcDbEntity
  8
M-PIPE
100
AcDbEllipse
 10
1177.114353943097
 20
2050.482558850037
 30
0.0
 11
26.49999999996918
 21
0.0
 31
0.0
210
0.0
220
0.0
230
1.0
 40
0.342020143325667
 41
3.228878811266637
 42
3.298672286269282
1001
REVIT
1002
{
1070
     3
1000
923097
1002
}
  0
ELLIPSE
  5
313
330
2E4
100
AcDbEntity
  8
M-PIPE
100
AcDbEllipse
 10
1177.114353943097
 20
2050.482558850037
 30
0.0
 11
26.4999999999691
 21
0.0
 31
0.0
210
0.0
220
0.0
230
1.0
 40
0.3420201433256633
 41
3.316200999600227
 42
3.403541746059159
1001
REVIT
1002
{
1070
     3
1000
923097
1002
}
  0
ELLIPSE
  5
314
330
2E4
100
AcDbEntity
  8
M-PIPE
100
AcDbEllipse
 10
1177.114353943097
 20
2050.482558850037
 30
0.0
 11
26.49999999996931
 21
0.0
 31
0.0
210
0.0
220
0.0
230
1.0
 40
0.3420201433256578
 41
3.448259030029105
 42
3.473183317572313
1001
REVIT
1002
{
1070
     3
1000
923097
1002
}
  0
ELLIPSE
  5
315
330
2E4
100
AcDbEntity
  8
M-PIPE
100
AcDbEllipse
 10
1177.114353943097
 20
2050.482558850037
 30
0.0
 11
26.49999999996914
 21
0.0
 31
0.0
210
0.0
220
0.0
230
0.9999999999999998
 40
0.3420201433256596
 41
3.489003038759797
 42
3.576600991162552
1001
REVIT
1002
{
1070
     3
1000
923097
1002
}
  0
ELLIPSE
  5
316
330
2E4
100
AcDbEntity
  8
M-PIPE
100
AcDbEllipse
 10
1177.114353943097
 20
2050.482558850037
 30
0.0
 11
26.49999999996918
 21
0.0
 31
0.0
210
0.0
220
0.0
230
1.0
 40
0.3420201433256615
 41
3.612831551628219
 42
3.664238191065932
1001
REVIT
1002
{
1070
     3
1000
923097
1002
}
  0
ELLIPSE
  5
317
330
2E4
100
AcDbEntity
  8
M-PIPE
100
AcDbEllipse
 10
1177.114353943097
 20
2050.482558850037
 30
0.0
 11
26.49999999996914
 21
0.0
 31
0.0
210
0.0
220
0.0
230
0.9999999999999998
 40
0.3420201433256735
 41
3.691371367967982
 42
3.751886635309502
1001
REVIT
1002
{
1070
     3
1000
923097
1002
}
  0
ELLIPSE
  5
318
330
2E4
100
AcDbEntity
  8
M-PIPE
100
AcDbEllipse
 10
1177.114353943097
 20
2050.482558850037
 30
0.0
 11
26.49999999996908
 21
0.0
 31
0.0
210
0.0
220
0.0
230
1.0
 40
0.3420201433256714
 41
3.753449793092031
 42
3.839527964419714
1001
REVIT
1002
{
1070
     3
1000
923097
1002
}
  0
ELLIPSE
  5
319
330
2E4
100
AcDbEntity
  8
M-PIPE
100
AcDbEllipse
 10
1177.114353943097
 20
2050.482558850037
 30
0.0
 11
26.49999999996931
 21
0.0
 31
0.0
210
0.0
220
0.0
230
1.0
 40
0.3420201433256577
 41
3.84845100064746
 42
4.005530633326964
1001
REVIT
1002
{
1070
     3
1000
923097
1002
}
  0
ELLIPSE
  5
31A
330
2E4
100
AcDbEntity
  8
M-PIPE
100
AcDbEllipse
 10
1177.114353943097
 20
2050.482558850037
 30
0.0
 11
26.4999999999692
 21
0.0
 31
0.0
210
0.0
220
0.0
230
0.9999999999999998
 40
0.342020143325662
 41
4.014137679638773
 42
4.16261026600644
1001
REVIT
1002
{
1070
     3
1000
923097
1002
}
  0
ELLIPSE
  5
31B
330
2E4
100
AcDbEntity
  8
M-PIPE
100
AcDbEllipse
 10
1177.114353943097
 20
2050.482558850037
 30
0.0
 11
26.49999999996909
 21
0.0
 31
0.0
210
0.0
220
0.0
230
1.0
 40
0.3420201433256683
 41
4.188489909096964
 42
4.259240398991272
1001
REVIT
1002
{
1070
     3
1000
923097
1002
}
  0
ELLIPSE
  5
31C
330
2E4
100
AcDbEntity
  8
M-PIPE
100
AcDbEllipse
 10
1177.114353943097
 20
2050.482558850037
 30
0.0
 11
26.49999999996906
 21
0.0
 31
0.0
210
0.0
220
0.0
230
1.0
 40
0.342020143325668
 41
4.27577474311202
 42
4.363098328247916
1001
REVIT
1002
{
1070
     3
1000
923097
1002
}
  0
ELLIPSE
  5
31D
330
2E4
100
AcDbEntity
  8
M-PIPE
100
AcDbEllipse
 10
1177.114353943097
 20
2050.482558850037
 30
0.0
 11
26.49999999996921
 21
0.0
 31
0.0
210
0.0
220
0.0
230
1.0
 40
0.3420201433256649
 41
4.370335964750305
 42
4.450439887917539
1001
REVIT
1002
{
1070
     3
1000
923097
1002
}
  0
ELLIPSE
  5
31E
330
2E4
100
AcDbEntity
  8
M-PIPE
100
AcDbEllipse
 10
1177.114353943097
 20
2050.482558850037
 30
0.0
 11
26.49999999996917
 21
0.0
 31
0.0
210
0.0
220
0.0
230
0.9999999999999998
 40
0.3420201433256643
 41
4.476769531365436
 42
4.625102822709973
1001
REVIT
1002
{
1070
     3
1000
923097
1002
}
  0
ELLIPSE
  5
31F
330
2E4
100
AcDbEntity
  8
M-PIPE
100
AcDbEllipse
 10
1177.114353943097
 20
2050.482558850037
 30
0.0
 11
26.49999999996918
 21
0.0
 31
0.0
210
0.0
220
0.0
230
1.0
 40
0.3420201433256593
 41
4.633849164044923
 42
4.712388980384666
1001
REVIT
1002
{
1070
     3
1000
923097
1002
}
  0
ELLIPSE
  5
320
330
2E4
100
AcDbEntity
  8
M-PIPE
100
AcDbEllipse
 10
1177.114353943097
 20
2050.482558850037
 30
0.0
 11
-26.49999999996908
 21
0.000000000000337
 31
0.0
210
0.0
220
0.0
230
1.0
 40
0.3420201433256662
 41
1.570796326794885
 42
1.649336143134632
1001
REVIT
1002
{
1070
     3
1000
923097
1002
}
  0
ELLIPSE
  5
321
330
2E4
100
AcDbEntity
  8
M-PIPE
100
AcDbEllipse
 10
1177.114353943097
 20
2050.482558850037
 30
0.0
 11
26.49999999996918
 21
0.0
 31
0.0
210
0.0
220
0.0
230
1.0
 40
0.3420201433256691
 41
4.799675138057885
 42
4.948008429403897
1001
REVIT
1002
{
1070
     3
1000
923097
1002
}
  0
ELLIPSE
  5
322
330
2E4
100
AcDbEntity
  8
M-PIPE
100
AcDbEllipse
 10
1177.114353943097
 20
2050.482558850037
 30
0.0
 11
26.49999999996925
 21
0.0
 31
0.0
210
0.0
220
0.0
230
1.0
 40
0.3420201433256561
 41
4.974338072850282
 42
5.054441996019101
1001
REVIT
1002
{
1070
     3
1000
923097
1002
}
  0
ELLIPSE
  5
323
330
2E4
100
AcDbEntity
  8
M-PIPE
100
AcDbEllipse
 10
1177.114353943097
 20
2050.482558850037
 30
0.0
 11
26.49999999996925
 21
0.0
 31
0.0
210
0.0
220
0.0
230
1.0
 40
0.3420201433256603
 41
5.06167963251985
 42
5.149003217655685
1001
REVIT
1002
{
1070
     3
1000
923097
1002
}
  0
ELLIPSE
  5
324
330
2E4
100
AcDbEntity
  8
M-PIPE
100
AcDbEllipse
 10
1177.114353943097
 20
2050.482558850037
 30
0.0
 11
26.49999999996922
 21
0.0
 31
0.0
210
0.0
220
0.0
230
1.0
 40
0.3420201433256688
 41
5.179768456027737
 42
5.236288051670673
1001
REVIT
1002
{
1070
     3
1000
923097
1002
}
  0
ELLIPSE
  5
325
330
2E4
100
AcDbEntity
  8
M-PIPE
100
AcDbEllipse
 10
1177.114353943097
 20
2050.482558850037
 30
0.0
 11
26.49999999996902
 21
0.0
 31
0.0
210
0.0
220
0.0
230
0.9999999999999998
 40
0.342020143325666
 41
5.26216769476287
 42
5.323510104575584
1001
REVIT
1002
{
1070
     3
1000
923097
1002
}
  0
ELLIPSE
  5
326
330
2E4
100
AcDbEntity
  8
M-PIPE
100
AcDbEllipse
 10
1177.114353943097
 20
2050.482558850037
 30
0.0
 11
26.49999999996921
 21
0.0
 31
0.0
210
0.0
220
0.0
230
1.0
 40
0.3420201433256602
 41
5.328155299370894
 42
5.41064028112868
1001
REVIT
1002
{
1070
     3
1000
923097
1002
}
  0
ELLIPSE
  5
327
330
2E4
100
AcDbEntity
  8
M-PIPE
100
AcDbEllipse
 10
1177.114353943097
 20
2050.482558850037
 30
0.0
 11
26.49999999996914
 21
0.0
 31
0.0
210
0.0
220
0.0
230
1.0
 40
0.3420201433256543
 41
5.419247327442358
 42
5.576326960121832
1001
REVIT
1002
{
1070
     3
1000
923097
1002
}
  0
ELLIPSE
  5
328
330
2E4
100
AcDbEntity
  8
M-PIPE
100
AcDbEllipse
 10
1177.114353943097
 20
2050.482558850037
 30
0.0
 11
26.49999999996929
 21
0.0
 31
0.0
210
0.0
220
0.0
230
0.9999999999999998
 40
0.342020143325658
 41
5.58524999634721
 42
5.654866776461584
1001
REVIT
1002
{
1070
     3
1000
923097
1002
}
  0
ELLIPSE
  5
329
330
2E4
100
AcDbEntity
  8
M-PIPE
100
AcDbEllipse
 10
1177.114353943097
 20
2050.482558850037
 30
0.0
 11
26.49999999996916
 21
0.0
 31
0.0
210
0.0
220
0.0
230
0.9999999999999998
 40
0.3420201433256537
 41
5.672891325457158
 42
5.733406592801311
1001
REVIT
1002
{
1070
     3
1000
923097
1002
}
  0
ELLIPSE
  5
32A
330
2E4
100
AcDbEntity
  8
M-PIPE
100
AcDbEllipse
 10
1177.114353943097
 20
2050.482558850037
 30
0.0
 11
26.49999999996923
 21
0.0
 31
0.0
210
0.0
220
0.0
230
1.0
 40
0.3420201433256536
 41
5.760539769700343
 42
5.811946409141044
1001
REVIT
1002
{
1070
     3
1000
923097
1002
}
  0
ELLIPSE
  5
32B
330
2E4
100
AcDbEntity
  8
M-PIPE
100
AcDbEllipse
 10
1177.114353943097
 20
2050.482558850037
 30
0.0
 11
26.49999999996926
 21
0.0
 31
0.0
210
0.0
220
0.0
230
1.0
 40
0.3420201433256427
 41
5.848176969603235
 42
5.890486225480782
1001
REVIT
1002
{
1070
     3
1000
923097
1002
}
  0
ELLIPSE
  5
32C
330
2E4
100
AcDbEntity
  8
M-PIPE
100
AcDbEllipse
 10
1177.114353943097
 20
2050.482558850037
 30
0.0
 11
26.49999999996924
 21
0.0
 31
0.0
210
0.0
220
0.0
230
1.0
 40
0.3420201433256556
 41
5.935774922005251
 42
5.994410560160925
1001
REVIT
1002
{
1070
     3
1000
923097
1002
}
  0
ELLIPSE
  5
32D
330
2E4
100
AcDbEntity
  8
M-PIPE
100
AcDbEllipse
 10
1177.114353943097
 20
2050.482558850037
 30
0.0
 11
26.49999999996921
 21
0.0
 31
0.0
210
0.0
220
0.0
230
1.0
 40
0.342020143325654
 41
6.021236214710204
 42
6.108576961169135
1001
REVIT
1002
{
1070
     3
1000
923097
1002
}
  0
ELLIPSE
  5
32E
330
2E4
100
AcDbEntity
  8
M-PIPE
100
AcDbEllipse
 10
1177.114353943097
 20
2050.482558850037
 30
0.0
 11
26.49999999996913
 21
0.0
 31
0.0
210
0.0
220
0.0
230
1.0
 40
0.342020143325654
 41
6.126105674500027
 42
6.195899149502776
1001
REVIT
1002
{
1070
     3
1000
923097
1002
}
  0
ELLIPSE
  5
32F
330
2E4
100
AcDbEntity
  8
M-PIPE
100
AcDbEllipse
 10
1177.114353943097
 20
2050.482558850037
 30
0.0
 11
26.49999999996918
 21
0.0
 31
0.0
210
0.0
220
0.0
230
1.0
 40
0.3420201433256508
 41
6.204645490839781
 42
6.28318530717953
1001
REVIT
1002
{
1070
     3
1000
923097
1002
}
  0
ELLIPSE
  5
330
330
2E4
100
AcDbEntity
  8
M-PIPE
100
AcDbEllipse
 10
1177.114353943097
 20
2053.301636712394
 30
0.0
 11
-26.49999999996908
 21
0.0000000000005135
 31
0.0
210
0.0
220
0.0
230
1.0
 40
0.3420201433256577
 41
6.018136098265251
 42
7.853981633974484
1001
REVIT
1002
{
1070
     3
1000
923097
1002
}
  0
ELLIPSE
  5
331
330
2E4
100
AcDbEntity
  8
M-PIPE
100
AcDbEllipse
 10
1177.114353943097
 20
2053.301636712394
 30
0.0
 11
26.49999999996913
 21
0.0
 31
0.0
210
0.0
220
0.0
230
0.9999999999999998
 40
0.3420201433256582
 41
4.712388980384683
 42
6.548229664189357
1001
REVIT
1002
{
1070
     3
1000
923097
1002
}
  0
LINE
  5
332
330
2E4
100
AcDbEntity
  8
M-PIPE
100
AcDbLine
 10
1202.313102708825
 20
2051.812314495638
 30
0.0
 11
1193.484824559036
 21
2046.582475489331
 31
0.0
1001
REVIT
1002
{
1070
     3
1000
923097
1002
}
  0
LINE
  5
333
330
2E4
100
AcDbEntity
  8
M-PIPE
100
AcDbLine
 10
1185.942632092941
 20
2045.093153272583
 30
0.0
 11
1168.286075793251
 21
2045.093153272583
 31
0.0
1001
REVIT
1002
{
1070
     3
1000
923097
1002
}
  0
LINE
  5
334
330
2E4
100
AcDbEntity
  8
M-PIPE
100
AcDbLine
 10
1160.743883327222
 20
2046.582475489314
 30
0.0
 11
1151.915605177355
 21
2051.812314495667
 31
0.0
1001
REVIT
1002
{
1070
     3
1000
923097
1002
}
  0
ELLIPSE
  5
335
330
2E4
100
AcDbEntity
  8
M-PIPE
100
AcDbEllipse
 10
1177.114353943097
 20
2053.301636712394
 30
0.0
 11
25.57222116067421
 21
0.0
 31
0.0
210
0.0
220
0.0
230
1.0
 40
0.3420201433256525
 41
4.017674447043066
 42
4.359905962530548
1001
REVIT
1002
{
1070
     3
1000
923097
1002
}
  0
LINE
  5
336
330
2E4
100
AcDbEntity
  8
M-PIPE
100
AcDbLine
 10
1168.286075793253
 20
2045.093153272583
 30
0.0
 11
1168.286075793253
 21
2052.426141009121
 31
0.0
1001
REVIT
1002
{
1070
     3
1000
923097
1002
}
  0
LINE
  5
337
330
2E4
100
AcDbEntity
  8
M-PIPE
100
AcDbLine
 10
1160.743883327219
 20
2053.915463225854
 30
0.0
 11
1160.743883327219
 21
2046.582475489314
 31
0.0
1001
REVIT
1002
{
1070
     3
1000
923097
1002
}
  0
ELLIPSE
  5
338
330
2E4
100
AcDbEntity
  8
M-PIPE
100
AcDbEllipse
 10
1177.114353943097
 20
2053.301636712394
 30
0.0
 11
25.57222116067403
 21
0.0
 31
0.0
210
0.0
220
0.0
230
1.0
 40
0.3420201433256613
 41
3.141592653589741
 42
3.312708411332967
1001
REVIT
1002
{
1070
     3
1000
923097
1002
}
  0
LINE
  5
339
330
2E4
100
AcDbEntity
  8
M-PIPE
100
AcDbLine
 10
1151.915605177356
 20
2051.812314495666
 30
0.0
 11
1151.915605177356
 21
2059.145302232205
 31
0.0
1001
REVIT
1002
{
1070
     3
1000
923097
1002
}
  0
ELLIPSE
  5
33A
330
2E4
100
AcDbEntity
  8
M-PIPE
100
AcDbEllipse
 10
1177.114353943097
 20
2053.301636712394
 30
0.0
 11
25.57222116067403
 21
0.0
 31
0.0
210
0.0
220
0.0
230
0.9999999999999998
 40
0.3420201433256589
 41
5.064871998238748
 42
5.407103513729488
1001
REVIT
1002
{
1070
     3
1000
923097
1002
}
  0
LINE
  5
33B
330
2E4
100
AcDbEntity
  8
M-PIPE
100
AcDbLine
 10
1193.484824559035
 20
2046.582475489331
 30
0.0
 11
1193.484824559035
 21
2053.91546322587
 31
0.0
1001
REVIT
1002
{
1070
     3
1000
923097
1002
}
  0
LINE
  5
33C
330
2E4
100
AcDbEntity
  8
M-PIPE
100
AcDbLine
 10
1185.94263209294
 20
2052.426141009121
 30
0.0
 11
1185.942632092939
 21
2045.093153272582
 31
0.0
1001
REVIT
1002
{
1070
     3
1000
923097
1002
}
  0
ELLIPSE
  5
33D
330
2E4
100
AcDbEntity
  8
M-PIPE
100
AcDbEllipse
 10
1177.114353943097
 20
2053.301636712394
 30
0.0
 11
25.57222116067419
 21
0.0
 31
0.0
210
0.0
220
0.0
230
1.0
 40
0.3420201433256567
 41
6.112069549432969
 42
6.283185307179586
1001
REVIT
1002
{
1070
     3
1000
923097
1002
}
  0
LINE
  5
33E
330
2E4
100
AcDbEntity
  8
M-PIPE
100
AcDbLine
 10
1202.313102708825
 20
2059.145302232177
 30
0.0
 11
1202.313102708825
 21
2051.812314495638
 31
0.0
1001
REVIT
1002
{
1070
     3
1000
923097
1002
}
  0
SPLINE
  5
33F
330
2E4
100
AcDbEntity
  8
M-PIPE
100
AcDbSpline
210
0.0
220
0.0
230
1.0
 70
     8
 71
     3
 72
     8
 73
     4
 74
     0
 42
0.000000001
 43
0.0000000001
 40
-0.1945193871626596
 40
-0.1945193871626596
 40
-0.1945193871626596
 40
-0.1945193871626596
 40
0.0
 40
0.0
 40
0.0
 40
0.0
 10
1153.652974550577
 20
2063.687713696114
 30
0.0
 10
1153.075469289882
 20
2063.210447260965
 30
0.0
 10
1152.496346165477
 20
2062.689191584152
 30
0.0
 10
1151.915605177362
 20
2062.123946665674
 30
0.0
1001
REVIT
1002
{
1070
     3
1000
923097
1002
}
  0
ELLIPSE
  5
340
330
2E4
100
AcDbEntity
  8
M-PIPE
100
AcDbEllipse
 10
1177.114353943097
 20
2060.634624448933
 30
0.0
 11
25.57222116067411
 21
0.0
 31
0.0
210
0.0
220
0.0
230
1.0
 40
0.3420201433256603
 41
2.970476895845031
 42
3.312708411332968
1001
REVIT
1002
{
1070
     3
1000
923097
1002
}
  0
SPLINE
  5
341
330
2E4
100
AcDbEntity
  8
M-PIPE
100
AcDbSpline
210
0.0
220
0.0
230
1.0
 70
     8
 71
     3
 72
     9
 73
     5
 74
     0
 42
0.000000001
 43
0.0000000001
 40
-1.0
 40
-1.0
 40
-1.0
 40
-1.0
 40
-0.5
 40
0.0
 40
0.0
 40
0.0
 40
0.0
 10
1151.915605177355
 20
2059.145302232206
 30
0.0
 10
1153.365605929772
 20
2058.854949510001
 30
0.0
 10
1156.286986373834
 20
2057.692956953405
 30
0.0
 10
1159.25112469635
 20
2055.368390172433
 30
0.0
 10
1160.743883327221
 20
2053.915463225852
 30
0.0
1001
REVIT
1002
{
1070
     3
1000
923097
1002
}
  0
ELLIPSE
  5
342
330
2E4
100
AcDbEntity
  8
M-PIPE
100
AcDbEllipse
 10
1177.114353943097
 20
2060.634624448933
 30
0.0
 11
25.57222116067405
 21
0.0
 31
0.0
210
0.0
220
0.0
230
1.0
 40
0.3420201433256463
 41
4.017674447043069
 42
4.359905962530561
1001
REVIT
1002
{
1070
     3
1000
923097
1002
}
  0
SPLINE
  5
343
330
2E4
100
AcDbEntity
  8
M-PIPE
100
AcDbSpline
210
0.0
220
0.0
230
1.0
 70
     8
 71
     3
 72
     9
 73
     5
 74
     0
 42
0.000000001
 43
0.0000000001
 40
-1.0
 40
-1.0
 40
-1.0
 40
-1.0
 40
-0.5
 40
0.0
 40
0.0
 40
0.0
 40
0.0
 10
1168.286075793252
 20
2052.426141009122
 30
0.0
 10
1169.742763640239
 20
2052.705586921531
 30
0.0
 10
1172.670831178867
 20
2053.127196160065
 30
0.0
 10
1175.628282406803
 20
2053.274240226035
 30
0.0
 10
1177.114353943097
 20
2053.279120965878
 30
0.0
1001
REVIT
1002
{
1070
     3
1000
923097
1002
}
  0
SPLINE
  5
344
330
2E4
100
AcDbEntity
  8
M-PIPE
100
AcDbSpline
210
0.0
220
0.0
230
1.0
 70
     8
 71
     3
 72
     9
 73
     5
 74
     0
 42
0.000000001
 43
0.0000000001
 40
-1.0
 40
-1.0
 40
-1.0
 40
-1.0
 40
-0.5
 40
0.0
 40
0.0
 40
0.0
 40
0.0
 10
1177.114353943097
 20
2053.279120965878
 30
0.0
 10
1178.600425479392
 20
2053.274240226035
 30
0.0
 10
1181.557876707327
 20
2053.127196160065
 30
0.0
 10
1184.485944245954
 20
2052.70558692153
 30
0.0
 10
1185.942632092941
 20
2052.426141009121
 30
0.0
1001
REVIT
1002
{
1070
     3
1000
923097
1002
}
  0
ELLIPSE
  5
345
330
2E4
100
AcDbEntity
  8
M-PIPE
100
AcDbEllipse
 10
1177.114353943097
 20
2060.634624448933
 30
0.0
 11
25.57222116067389
 21
0.0
 31
0.0
210
0.0
220
0.0
230
1.0
 40
0.3420201433256427
 41
5.064871998238733
 42
5.407103513729475
1001
REVIT
1002
{
1070
     3
1000
923097
1002
}
  0
SPLINE
  5
346
330
2E4
100
AcDbEntity
  8
M-PIPE
100
AcDbSpline
210
0.0
220
0.0
230
1.0
 70
     8
 71
     3
 72
     9
 73
     5
 74
     0
 42
0.000000001
 43
0.0000000001
 40
-1.0
 40
-1.0
 40
-1.0
 40
-1.0
 40
-0.5
 40
0.0
 40
0.0
 40
0.0
 40
0.0
 10
1193.484824559036
 20
2053.91546322587
 30
0.0
 10
1194.934825311441
 20
2055.343060564917
 30
0.0
 10
1197.856205755477
 20
2057.642297738349
 30
0.0
 10
1200.820344077967
 20
2058.829619902455
 30
0.0
 10
1202.313102708825
 20
2059.145302232176
 30
0.0
1001
REVIT
1002
{
1070
     3
1000
923097
1002
}
  0
ELLIPSE
  5
347
330
2E4
100
AcDbEntity
  8
M-PIPE
100
AcDbEllipse
 10
1177.114353943097
 20
2060.634624448933
 30
0.0
 11
25.57222116067419
 21
0.0
 31
0.0
210
0.0
220
0.0
230
1.0
 40
0.3420201433256513
 41
6.112069549432968
 42
6.454301064927517
1001
REVIT
1002
{
1070
     3
1000
923097
1002
}
  0
SPLINE
  5
348
330
2E4
100
AcDbEntity
  8
M-PIPE
100
AcDbSpline
210
0.0
220
0.0
230
1.0
 70
     8
 71
     3
 72
     8
 73
     4
 74
     0
 42
0.000000001
 43
0.0000000001
 40
-1.0
 40
-1.0
 40
-1.0
 40
-1.0
 40
-0.8015588586000655
 40
-0.8015588586000655
 40
-0.8015588586000655
 40
-0.8015588586000655
 10
1202.313102708819
 20
2062.123946665701
 30
0.0
 10
1201.737623100146
 20
2062.690534756537
 30
0.0
 10
1201.160459733825
 20
2063.213336872314
 30
0.0
 10
1200.581612609858
 20
2063.692353013029
 30
0.0
1001
REVIT
1002
{
1070
     3
1000
923097
1002
}
  0
ELLIPSE
  5
349
330
2E4
100
AcDbEntity
  8
M-PIPE
100
AcDbEllipse
 10
1177.114353943097
 20
2061.758870299465
 30
0.0
 11
-23.5
 21
0.0000000000005128
 31
0.0
210
0.0
220
0.0
230
1.0
 40
0.3420201433256536
 41
6.272134873927514
 42
7.853981633974485
1001
REVIT
1002
{
1070
     3
1000
923097
1002
}
  0
ELLIPSE
  5
34A
330
2E4
100
AcDbEntity
  8
M-PIPE
100
AcDbEllipse
 10
1177.114353943097
 20
2061.758870299465
 30
0.0
 11
23.50000000000008
 21
0.0
 31
0.0
210
0.0
220
0.0
230
1.0
 40
0.3420201433256544
 41
4.712388980384683
 42
6.294235740431659
1001
REVIT
1002
{
1070
     3
1000
923097
1002
}
  0
ELLIPSE
  5
34B
330
2E4
100
AcDbEntity
  8
M-PIPE
100
AcDbEllipse
 10
1177.114353943098
 20
2076.793952232039
 30
0.0
 11
-22.5
 21
0.000000000000516
 31
0.0
210
0.0
220
0.0
230
1.0
 40
0.3420201433256403
 41
6.248685391393857
 42
7.853981633974485
1001
REVIT
1002
{
1070
     3
1000
923097
1002
}
  0
ELLIPSE
  5
34C
330
2E4
100
AcDbEntity
  8
M-PIPE
100
AcDbEllipse
 10
1177.114353943098
 20
2076.793952232039
 30
0.0
 11
22.50000000000035
 21
0.0
 31
0.0
210
0.0
220
0.0
230
1.0
 40
0.3420201433256481
 41
4.712388980384683
 42
6.317685222965317
1001
REVIT
1002
{
1070
     3
1000
923097
1002
}
  0
LINE
  5
34D
330
2E4
100
AcDbEntity
  8
P-SANR-FIXT
100
AcDbLine
 10
1159.796210118078
 20
2106.892555056854
 30
0.0
 11
1159.955372243376
 21
2107.206866961804
 31
0.0
  0
LWPOLYLINE
  5
34E
330
2E4
100
AcDbEntity
  8
P-SANR-FIXT
100
AcDbPolyline
 90
       37
 70
   128
 43
0.0
 10
1159.993053549357
 20
2107.28127965918
 10
1160.100609117269
 20
2107.493679408022
 10
1160.442019670671
 20
2108.037601956171
 10
1160.809613546665
 20
2108.526986937837
 10
1161.195351501874
 20
2108.966728898885
 10
1161.593750917083
 20
2109.362617391144
 10
1162.001377723078
 20
2109.720460603277
 10
1162.416295394572
 20
2110.045601046312
 10
1162.837585924501
 20
2110.342704576535
 10
1163.264978867093
 20
2110.6157146395
 10
1163.698584260442
 20
2110.867893796426
 10
1164.138710093827
 20
2111.101903530732
 10
1164.585742749182
 20
2111.319894598921
 10
1165.040071843559
 20
2111.523593826749
 10
1165.502045217598
 20
2111.714381226071
 10
1165.971943809334
 20
2111.893355616424
 10
1166.449969318763
 20
2112.061389063549
 10
1166.936239890546
 20
2112.219171359972
 10
1167.430790669568
 20
2112.367246049325
 10
1167.933577192186
 20
2112.506039464859
 10
1168.444480315916
 20
2112.635884091035
 10
1168.963311877342
 20
2112.75703735601
 10
1169.489820584822
 20
2112.869696765558
 10
1170.02369785644
 20
2112.974012113684
 10
1170.56458344327
 20
2113.070095357159
 10
1171.112070759257
 20
2113.158028619865
 10
1171.665711888974
 20
2113.237870695269
 10
1172.22502227437
 20
2113.309662337428
 10
1172.789485098715
 20
2113.373430569451
 10
1173.358555395045
 20
2113.429192189533
 10
1173.931663910611
 20
2113.476956616286
 10
1174.508220760084
 20
2113.516728184508
 10
1175.087618899933
 20
2113.548507978265
 10
1175.66923745514
 20
2113.57229526856
 10
1176.25244492796
 20
2113.588088606951
 10
1176.836602316866
 20
2113.595886613309
 10
1177.114353943079
 20
2113.596789539596
  0
LINE
  5
34F
330
2E4
100
AcDbEntity
  8
P-SANR-FIXT
100
AcDbLine
 10
1194.432263470084
 20
2106.893078877681
 30
0.0
 11
1194.273337412771
 21
2107.20686255198
 31
0.0
  0
LWPOLYLINE
  5
350
330
2E4
100
AcDbEntity
  8
P-SANR-FIXT
100
AcDbPolyline
 90
       37
 70
   128
 43
0.0
 10
1194.236909597558
 20
2107.278785645633
 10
1194.127828454597
 20
2107.494155500103
 10
1193.786392002585
 20
2108.038031153399
 10
1193.418780074768
 20
2108.527372601066
 10
1193.033029631364
 20
2108.96707562521
 10
1192.634621357917
 20
2109.362930095621
 10
1192.226987853725
 20
2109.720743968489
 10
1191.812064611799
 20
2110.045859249987
 10
1191.390768961732
 20
2110.342941197859
 10
1190.96337093504
 20
2110.615932666005
 10
1190.529760263284
 20
2110.868095679554
 10
1190.089628849615
 20
2111.102091259329
 10
1189.642590283219
 20
2111.320069774187
 10
1189.188254966459
 20
2111.523757730882
 10
1188.726275106096
 20
2111.714534881701
 10
1188.256369826271
 20
2111.893499836405
 10
1187.778337495559
 20
2112.061524491902
 10
1187.292060039081
 20
2112.219298505159
 10
1186.797502379872
 20
2112.367365311107
 10
1186.294709045894
 20
2112.506151155923
 10
1185.783799239456
 20
2112.635988454389
 10
1185.264961178946
 20
2112.757134578976
 10
1184.738446206067
 20
2112.869786991054
 10
1184.204562948015
 20
2112.974095449342
 10
1183.663671694433
 20
2113.070171882694
 10
1183.116179067794
 20
2113.158098393072
 10
1182.562533015909
 20
2113.237933756885
 10
1182.003218125445
 20
2113.309718715103
 10
1181.438751238222
 20
2113.373480280969
 10
1180.869677342979
 20
2113.429235245446
 10
1180.296565711121
 20
2113.476993022025
 10
1179.72000624367
 20
2113.516757942102
 10
1179.140605997029
 20
2113.548531087687
 10
1178.558985856372
 20
2113.572311728774
 10
1177.975777326969
 20
2113.588098416691
 10
1177.391619415312
 20
2113.595889771616
 10
1177.114353943079
 20
2113.596789539596
  0
LINE
  5
351
330
2E4
100
AcDbEntity
  8
P-SANR-FIXT
100
AcDbLine
 10
1156.146097112988
 20
2088.922135264363
 30
0.0
 11
1156.802619849314
 21
2092.80289049214
 31
0.0
  0
LINE
  5
352
330
2E4
100
AcDbEntity
  8
P-SANR-FIXT
100
AcDbLine
 10
1156.813691101185
 20
2092.868333493885
 30
0.0
 11
1156.873690211627
 21
2093.222992744241
 31
0.0
  0
LINE
  5
353
330
2E4
100
AcDbEntity
  8
P-SANR-FIXT
100
AcDbLine
 10
1198.08261077317
 20
2088.922135264368
 30
0.0
 11
1197.426088036845
 21
2092.802890492141
 31
0.0
  0
LINE
  5
354
330
2E4
100
AcDbEntity
  8
P-SANR-FIXT
100
AcDbLine
 10
1197.415016784973
 20
2092.868333493885
 30
0.0
 11
1197.355017674531
 21
2093.222992744246
 31
0.0
  0
ELLIPSE
  5
355
330
2E4
100
AcDbEntity
  8
P-SANR-FIXT
100
AcDbEllipse
 10
1153.315351738752
 20
2092.802890492139
 30
0.0
 11
6.999999999999978
 21
0.0
 31
0.0
210
0.0
220
0.0
230
1.0
 40
0.3420201433256234
 41
0.8037373044923903
 42
0.911110275172547
  0
ELLIPSE
  5
356
330
2E4
100
AcDbEntity
  8
P-SANR-FIXT
100
AcDbEllipse
 10
1200.913356147403
 20
2092.802890492139
 30
0.0
 11
6.999999999999983
 21
0.0
 31
0.0
210
0.0
220
0.0
230
1.0
 40
0.3420201433256588
 41
2.230482378417296
 42
2.337900536149748
  0
ELLIPSE
  5
357
330
2E4
100
AcDbEntity
  8
P-SANR-FIXT
100
AcDbEllipse
 10
1165.214852840915
 20
2085.753670478476
 30
0.0
 11
6.999999999999837
 21
0.0
 31
0.0
210
0.0
220
0.0
230
1.0
 40
0.34202014332566
 41
0.1360872760241541
 42
1.958307826369095
  0
ELLIPSE
  5
358
330
2E4
100
AcDbEntity
  8
P-SANR-FIXT
100
AcDbEllipse
 10
1189.01385504524
 20
2085.753670478476
 30
0.0
 11
6.999999999999958
 21
0.0
 31
0.0
210
0.0
220
0.0
230
0.9999999999999998
 40
0.3420201433256558
 41
1.183284827220702
 42
3.005505377565637
  0
ELLIPSE
  5
359
330
2E4
100
AcDbEntity
  8
P-SANR-FIXT
100
AcDbEllipse
 10
1177.114353943078
 20
2088.527371486053
 30
0.0
 11
20.99999999999841
 21
0.0
 31
0.0
210
0.0
220
0.0
230
1.0
 40
0.3420201433256763
 41
4.63808290473784
 42
4.712388980384672
  0
ELLIPSE
  5
35A
330
2E4
100
AcDbEntity
  8
P-SANR-FIXT
100
AcDbEllipse
 10
1177.114353943078
 20
2088.527371486053
 30
0.0
 11
20.99999999999846
 21
0.0
 31
0.0
210
0.0
220
0.0
230
1.0
 40
0.3420201433256617
 41
4.564042631757446
 42
4.633849164044929
  0
ELLIPSE
  5
35B
330
2E4
100
AcDbEntity
  8
P-SANR-FIXT
100
AcDbEllipse
 10
1177.114353943078
 20
2088.527371486053
 30
0.0
 11
20.99999999999853
 21
0.0
 31
0.0
210
0.0
220
0.0
230
1.0
 40
0.3420201433256694
 41
4.490270481483253
 42
4.555309347705192
  0
ELLIPSE
  5
35C
330
2E4
100
AcDbEntity
  8
P-SANR-FIXT
100
AcDbEllipse
 10
1177.114353943078
 20
2088.527371486053
 30
0.0
 11
20.99999999999859
 21
0.0
 31
0.0
210
0.0
220
0.0
230
1.0
 40
0.3420201433256717
 41
4.416769583972646
 42
4.478259357361693
  0
ELLIPSE
  5
35D
330
2E4
100
AcDbEntity
  8
P-SANR-FIXT
100
AcDbEllipse
 10
1177.114353943078
 20
2088.527371486053
 30
0.0
 11
20.99999999999859
 21
0.0
 31
0.0
210
0.0
220
0.0
230
1.0
 40
0.3420201433256728
 41
4.343544134190254
 42
4.398229715025701
  0
ELLIPSE
  5
35E
330
2E4
100
AcDbEntity
  8
P-SANR-FIXT
100
AcDbEllipse
 10
1177.114353943078
 20
2088.527371486053
 30
0.0
 11
20.99999999999857
 21
0.0
 31
0.0
210
0.0
220
0.0
230
1.0
 40
0.3420201433256742
 41
4.270599735174824
 42
4.319689898685958
  0
ELLIPSE
  5
35F
330
2E4
100
AcDbEntity
  8
P-SANR-FIXT
100
AcDbEllipse
 10
1177.114353943078
 20
2088.527371486053
 30
0.0
 11
20.99999999999862
 21
0.0
 31
0.0
210
0.0
220
0.0
230
1.0
 40
0.3420201433256734
 41
4.198107345204471
 42
4.241150082346228
  0
ELLIPSE
  5
360
330
2E4
100
AcDbEntity
  8
P-SANR-FIXT
100
AcDbEllipse
 10
1177.114353943078
 20
2088.527371486053
 30
0.0
 11
20.99999999999879
 21
0.0
 31
0.0
210
0.0
220
0.0
230
1.0
 40
0.3420201433256649
 41
4.12691943917069
 42
4.162610266006469
  0
ELLIPSE
  5
361
330
2E4
100
AcDbEntity
  8
P-SANR-FIXT
100
AcDbEllipse
 10
1177.114353943078
 20
2088.527371486053
 30
0.0
 11
20.99999999999852
 21
0.0
 31
0.0
210
0.0
220
0.0
230
1.0
 40
0.3420201433256566
 41
4.084070449666733
 42
4.126111796643288
  0
ELLIPSE
  5
362
330
2E4
100
AcDbEntity
  8
P-SANR-FIXT
100
AcDbEllipse
 10
1177.114353943078
 20
2088.527371486053
 30
0.0
 11
20.99999999999859
 21
0.0
 31
0.0
210
0.0
220
0.0
230
1.0
 40
0.3420201433256562
 41
4.005530633326994
 42
4.05443290219005
  0
ELLIPSE
  5
363
330
2E4
100
AcDbEntity
  8
P-SANR-FIXT
100
AcDbEllipse
 10
1177.114353943078
 20
2088.527371486053
 30
0.0
 11
20.99999999999855
 21
0.0
 31
0.0
210
0.0
220
0.0
230
1.0
 40
0.3420201433256694
 41
3.919400317188576
 42
3.982892299807924
  0
ELLIPSE
  5
364
330
2E4
100
AcDbEntity
  8
P-SANR-FIXT
100
AcDbEllipse
 10
1177.114353943078
 20
2088.527371486053
 30
0.0
 11
20.99999999999877
 21
0.0
 31
0.0
210
0.0
220
0.0
230
1.0
 40
0.3420201433256615
 41
3.848451000647514
 42
3.91131223384906
  0
ELLIPSE
  5
365
330
2E4
100
AcDbEntity
  8
P-SANR-FIXT
100
AcDbEllipse
 10
1177.114353943078
 20
2088.527371486053
 30
0.0
 11
20.99999999999845
 21
0.0
 31
0.0
210
0.0
220
0.0
230
1.0
 40
0.3420201433256457
 41
3.769911184307754
 42
3.839514378402023
  0
ELLIPSE
  5
366
330
2E4
100
AcDbEntity
  8
P-SANR-FIXT
100
AcDbEllipse
 10
1177.114353943078
 20
2088.527371486053
 30
0.0
 11
20.99999999999849
 21
0.0
 31
0.0
210
0.0
220
0.0
230
1.0
 40
0.3420201433256667
 41
3.695152940255434
 42
3.76756067576125
  0
ELLIPSE
  5
367
330
2E4
100
AcDbEntity
  8
P-SANR-FIXT
100
AcDbEllipse
 10
1177.114353943078
 20
2088.527371486053
 30
0.0
 11
20.99999999999867
 21
0.0
 31
0.0
210
0.0
220
0.0
230
0.9999999999999998
 40
0.3420201433256484
 41
3.622343444320969
 42
3.691371367968013
  0
ELLIPSE
  5
368
330
2E4
100
AcDbEntity
  8
P-SANR-FIXT
100
AcDbEllipse
 10
1177.114353943078
 20
2088.527371486053
 30
0.0
 11
20.99999999999852
 21
0.0
 31
0.0
210
0.0
220
0.0
230
1.0
 40
0.3420201433256463
 41
3.549352296357396
 42
3.612831551628278
  0
ELLIPSE
  5
369
330
2E4
100
AcDbEntity
  8
P-SANR-FIXT
100
AcDbEllipse
 10
1177.114353943078
 20
2088.527371486053
 30
0.0
 11
20.99999999999857
 21
0.0
 31
0.0
210
0.0
220
0.0
230
1.0
 40
0.3420201433256543
 41
3.476136082580641
 42
3.534291735288527
  0
ELLIPSE
  5
36A
330
2E4
100
AcDbEntity
  8
P-SANR-FIXT
100
AcDbEllipse
 10
1177.114353943078
 20
2088.527371486053
 30
0.0
 11
20.99999999999858
 21
0.0
 31
0.0
210
0.0
220
0.0
230
1.0
 40
0.34202014332566
 41
3.086602463827338
 42
3.403458504685981
  0
ELLIPSE
  5
36B
330
2E4
100
AcDbEntity
  8
P-SANR-FIXT
100
AcDbEllipse
 10
1177.114353943078
 20
2088.527371486053
 30
0.0
 11
20.99999999999847
 21
0.0
 31
0.0
210
0.0
220
0.0
230
1.0
 40
0.3420201433256742
 41
6.021319456083195
 42
6.338175496942039
  0
ELLIPSE
  5
36C
330
2E4
100
AcDbEntity
  8
P-SANR-FIXT
100
AcDbEllipse
 10
1177.114353943078
 20
2088.527371486053
 30
0.0
 11
20.99999999999846
 21
0.0
 31
0.0
210
0.0
220
0.0
230
1.0
 40
0.3420201433256835
 41
5.890486225480865
 42
5.948259938937413
  0
ELLIPSE
  5
36D
330
2E4
100
AcDbEntity
  8
P-SANR-FIXT
100
AcDbEllipse
 10
1177.114353943078
 20
2088.527371486053
 30
0.0
 11
20.99999999999826
 21
0.0
 31
0.0
210
0.0
220
0.0
230
1.0
 40
0.3420201433256821
 41
5.807129092521311
 42
5.874737857858681
  0
ELLIPSE
  5
36E
330
2E4
100
AcDbEntity
  8
P-SANR-FIXT
100
AcDbEllipse
 10
1177.114353943078
 20
2088.527371486053
 30
0.0
 11
20.99999999999827
 21
0.0
 31
0.0
210
0.0
220
0.0
230
0.9999999999999998
 40
0.3420201433256841
 41
5.733406592801394
 42
5.801514727860902
  0
ELLIPSE
  5
36F
330
2E4
100
AcDbEntity
  8
P-SANR-FIXT
100
AcDbEllipse
 10
1177.114353943078
 20
2088.527371486053
 30
0.0
 11
20.99999999999839
 21
0.0
 31
0.0
210
0.0
220
0.0
230
1.0
 40
0.3420201433256855
 41
5.655918376529976
 42
5.72854611118382
  0
ELLIPSE
  5
370
330
2E4
100
AcDbEntity
  8
P-SANR-FIXT
100
AcDbEllipse
 10
1177.114353943078
 20
2088.527371486053
 30
0.0
 11
20.99999999999843
 21
0.0
 31
0.0
210
0.0
220
0.0
230
1.0
 40
0.3420201433256651
 41
5.583969710300519
 42
5.654866776461626
  0
ELLIPSE
  5
371
330
2E4
100
AcDbEntity
  8
P-SANR-FIXT
100
AcDbEllipse
 10
1177.114353943078
 20
2088.527371486053
 30
0.0
 11
20.99999999999842
 21
0.0
 31
0.0
210
0.0
220
0.0
230
1.0
 40
0.3420201433256771
 41
5.44099933637903
 42
5.576326960121868
  0
ELLIPSE
  5
372
330
2E4
100
AcDbEntity
  8
P-SANR-FIXT
100
AcDbEllipse
 10
1177.114353943078
 20
2088.527371486053
 30
0.0
 11
20.99999999999827
 21
0.0
 31
0.0
210
0.0
220
0.0
230
1.0
 40
0.3420201433256796
 41
5.36980250258404
 42
5.41924732744239
  0
ELLIPSE
  5
373
330
2E4
100
AcDbEntity
  8
P-SANR-FIXT
100
AcDbEllipse
 10
1177.114353943078
 20
2088.527371486053
 30
0.0
 11
20.99999999999847
 21
0.0
 31
0.0
210
0.0
220
0.0
230
0.9999999999999998
 40
0.3420201433256771
 41
5.317472546025359
 42
5.340707511102652
  0
ELLIPSE
  5
374
330
2E4
100
AcDbEntity
  8
P-SANR-FIXT
100
AcDbEllipse
 10
1177.114353943078
 20
2088.527371486053
 30
0.0
 11
20.99999999999853
 21
0.0
 31
0.0
210
0.0
220
0.0
230
1.0
 40
0.3420201433256709
 41
5.262167694762887
 42
5.298474969281114
  0
ELLIPSE
  5
375
330
2E4
100
AcDbEntity
  8
P-SANR-FIXT
100
AcDbEllipse
 10
1177.114353943078
 20
2088.527371486053
 30
0.0
 11
20.9999999999984
 21
0.0
 31
0.0
210
0.0
220
0.0
230
1.0
 40
0.3420201433256767
 41
5.10508806208341
 42
5.22677642751139
  0
ELLIPSE
  5
376
330
2E4
100
AcDbEntity
  8
P-SANR-FIXT
100
AcDbEllipse
 10
1177.114353943078
 20
2088.527371486053
 30
0.0
 11
20.99999999999852
 21
0.0
 31
0.0
210
0.0
220
0.0
230
1.0
 40
0.3420201433256745
 41
5.026548245743656
 42
5.081598461672964
  0
ELLIPSE
  5
377
330
2E4
100
AcDbEntity
  8
P-SANR-FIXT
100
AcDbEllipse
 10
1177.114353943078
 20
2088.527371486053
 30
0.0
 11
20.99999999999838
 21
0.0
 31
0.0
210
0.0
220
0.0
230
1.0
 40
0.3420201433256764
 41
4.948008429403913
 42
5.008400586427011
  0
ELLIPSE
  5
378
330
2E4
100
AcDbEntity
  8
P-SANR-FIXT
100
AcDbEllipse
 10
1177.114353943078
 20
2088.527371486053
 30
0.0
 11
20.99999999999845
 21
0.0
 31
0.0
210
0.0
220
0.0
230
1.0
 40
0.3420201433256742
 41
4.869468613064166
 42
4.934877297070099
  0
ELLIPSE
  5
379
330
2E4
100
AcDbEntity
  8
P-SANR-FIXT
100
AcDbEllipse
 10
1177.114353943078
 20
2088.527371486053
 30
0.0
 11
20.99999999999847
 21
0.0
 31
0.0
210
0.0
220
0.0
230
1.0
 40
0.3420201433256902
 41
4.790928796724433
 42
4.86103261008611
  0
ELLIPSE
  5
37A
330
2E4
100
AcDbEntity
  8
P-SANR-FIXT
100
AcDbEllipse
 10
1177.114353943078
 20
2088.527371486053
 30
0.0
 11
20.99999999999853
 21
0.0
 31
0.0
210
0.0
220
0.0
230
1.0
 40
0.3420201433256895
 41
4.712388980384683
 42
4.786869259818724
  0
SPLINE
  5
37B
330
2E4
100
AcDbEntity
  8
P-SANR-FIXT
100
AcDbSpline
210
0.0
220
0.0
230
1.0
 70
     8
 71
     3
 72
    23
 73
    19
 74
     0
 42
0.000000001
 43
0.0000000001
 40
0.0
 40
0.0
 40
0.0
 40
0.0
 40
0.0833333333333333
 40
0.125
 40
0.1666666666666666
 40
0.25
 40
0.2916666666666666
 40
0.3333333333333333
 40
0.4166666666666666
 40
0.5
 40
0.5833333333333333
 40
0.6666666666666666
 40
0.7083333333333333
 40
0.75
 40
0.8333333333333332
 40
0.875
 40
0.9166666666666666
 40
1.0
 40
1.0
 40
1.0
 40
1.0
 10
1159.592363966527
 20
2104.097258867596
 30
0.0
 10
1159.630233929591
 20
2104.333303800912
 30
0.0
 10
1159.696592640977
 20
2104.671518401916
 30
0.0
 10
1159.79810415087
 20
2105.092572693354
 30
0.0
 10
1159.904284757194
 20
2105.491656972947
 30
0.0
 10
1160.019814082216
 20
2105.872479811645
 30
0.0
 10
1160.123273500632
 20
2106.21892301601
 30
0.0
 10
1160.210697864264
 20
2106.527927766291
 30
0.0
 10
1160.293084309599
 20
2106.856185306253
 30
0.0
 10
1160.3265656982
 20
2107.147618833606
 30
0.0
 10
1160.292760729488
 20
2107.325779582114
 30
0.0
 10
1160.212087312549
 20
2107.373871386813
 30
0.0
 10
1160.125438946902
 20
2107.340409063841
 30
0.0
 10
1160.022615863771
 20
2107.26435083387
 30
0.0
 10
1159.90725347847
 20
2107.119668962039
 30
0.0
 10
1159.800777236572
 20
2106.905539849567
 30
0.0
 10
1159.698542491724
 20
2106.646519342211
 30
0.0
 10
1159.631149974309
 20
2106.401807459981
 30
0.0
 10
1159.592363966527
 20
2106.216582759073
 30
0.0
  0
SPLINE
  5
37C
330
2E4
100
AcDbEntity
  8
P-SANR-FIXT
100
AcDbSpline
210
0.0
220
0.0
230
1.0
 70
     8
 71
     3
 72
    23
 73
    19
 74
     0
 42
0.000000001
 43
0.0000000001
 40
0.0
 40
0.0
 40
0.0
 40
0.0
 40
0.0833333333333333
 40
0.125
 40
0.1666666666666666
 40
0.25
 40
0.2916666666666666
 40
0.3333333333333333
 40
0.4166666666666666
 40
0.5
 40
0.5833333333333333
 40
0.6666666666666666
 40
0.7083333333333333
 40
0.75
 40
0.8333333333333332
 40
0.875
 40
0.9166666666666666
 40
1.0
 40
1.0
 40
1.0
 40
1.0
 10
1171.036517190777
 20
2099.437109127766
 30
0.0
 10
1170.989007091462
 20
2099.671250467512
 30
0.0
 10
1170.901427384385
 20
2100.00527465565
 30
0.0
 10
1170.745536100981
 20
2100.415590822173
 30
0.0
 10
1170.563719266717
 20
2100.799739562112
 30
0.0
 10
1170.324959374717
 20
2101.156228624921
 30
0.0
 10
1170.037382576754
 20
2101.46631501327
 30
0.0
 10
1169.734112756578
 20
2101.732697749426
 30
0.0
 10
1169.296847038912
 20
2101.990878904183
 30
0.0
 10
1168.717119608095
 20
2102.174447726394
 30
0.0
 10
1168.110990298338
 20
2102.226243582669
 30
0.0
 10
1167.598660255695
 20
2102.157237709082
 30
0.0
 10
1167.209158577912
 20
2102.029752216935
 30
0.0
 10
1166.8186513934
 20
2101.85627831757
 30
0.0
 10
1166.463479118437
 20
2101.61868212057
 30
0.0
 10
1166.173911380429
 20
2101.326348016549
 30
0.0
 10
1165.914147009889
 20
2100.995845201174
 30
0.0
 10
1165.757646057982
 20
2100.706922100583
 30
0.0
 10
1165.670200718827
 20
2100.496771073505
 30
0.0
  0
SPLINE
  5
37D
330
2E4
100
AcDbEntity
  8
P-SANR-FIXT
100
AcDbSpline
210
0.0
220
0.0
230
1.0
 70
     8
 71
     3
 72
    23
 73
    19
 74
     0
 42
0.000000001
 43
0.0000000001
 40
0.0
 40
0.0
 40
0.0
 40
0.0
 40
0.0833333333333333
 40
0.125
 40
0.1666666666666666
 40
0.25
 40
0.2916666666666666
 40
0.3333333333333333
 40
0.4166666666666666
 40
0.5
 40
0.5833333333333333
 40
0.6666666666666666
 40
0.7083333333333333
 40
0.75
 40
0.8333333333333332
 40
0.875
 40
0.9166666666666666
 40
1.0
 40
1.0
 40
1.0
 40
1.0
 10
1188.558507167328
 20
2100.496771073505
 30
0.0
 10
1188.473127104949
 20
2100.704671201416
 30
0.0
 10
1188.319188686486
 20
2100.991003911018
 30
0.0
 10
1188.061785893189
 20
2101.319708788352
 30
0.0
 10
1187.773788452601
 20
2101.61108545433
 30
0.0
 10
1187.419499235579
 20
2101.850467824667
 30
0.0
 10
1187.0284630192
 20
2102.026551607889
 30
0.0
 10
1186.637768835392
 20
2102.155900449273
 30
0.0
 10
1186.118116672391
 20
2102.225123411079
 30
0.0
 10
1185.504907852973
 20
2102.173128573436
 30
0.0
 10
1184.932583511928
 20
2101.992220582464
 30
0.0
 10
1184.500926886224
 20
2101.736809983222
 30
0.0
 10
1184.198073574088
 20
2101.472608320943
 30
0.0
 10
1183.910389472707
 20
2101.165215093236
 30
0.0
 10
1183.670579583045
 20
2100.810130492125
 30
0.0
 10
1183.487488086935
 20
2100.424462533062
 30
0.0
 10
1183.329958461244
 20
2100.0115585827
 30
0.0
 10
1183.240850026751
 20
2099.674136121021
 30
0.0
 10
1183.192190695379
 20
2099.437109127766
 30
0.0
  0
SPLINE
  5
37E
330
2E4
100
AcDbEntity
  8
P-SANR-FIXT
100
AcDbSpline
210
0.0
220
0.0
230
1.0
 70
     8
 71
     3
 72
    23
 73
    19
 74
     0
 42
0.000000001
 43
0.0000000001
 40
0.0
 40
0.0
 40
0.0
 40
0.0
 40
0.0833333333333333
 40
0.125
 40
0.1666666666666666
 40
0.25
 40
0.2916666666666666
 40
0.3333333333333333
 40
0.4166666666666666
 40
0.5
 40
0.5833333333333333
 40
0.6666666666666666
 40
0.7083333333333333
 40
0.75
 40
0.8333333333333332
 40
0.875
 40
0.9166666666666666
 40
1.0
 40
1.0
 40
1.0
 40
1.0
 10
1194.636343919629
 20
2106.216582759073
 30
0.0
 10
1194.598473956565
 20
2106.400145268721
 30
0.0
 10
1194.532115245178
 20
2106.642976912652
 30
0.0
 10
1194.430603735286
 20
2106.900808625709
 30
0.0
 10
1194.324423128961
 20
2107.114348757384
 30
0.0
 10
1194.208893803939
 20
2107.260958211139
 30
0.0
 10
1194.105434385523
 20
2107.339396205249
 30
0.0
 10
1194.018010021892
 20
2107.374333165983
 30
0.0
 10
1193.935623576556
 20
2107.324674320044
 30
0.0
 10
1193.902142187955
 20
2107.14498052769
 30
0.0
 10
1193.935947156667
 20
2106.857733581703
 30
0.0
 10
1194.016620573606
 20
2106.533015935092
 30
0.0
 10
1194.103268939254
 20
2106.226121271856
 30
0.0
 10
1194.206092022384
 20
2105.882224385202
 30
0.0
 10
1194.321454407686
 20
2105.502565705148
 30
0.0
 10
1194.427930649583
 20
2105.101768882595
 30
0.0
 10
1194.530165394432
 20
2104.677946105263
 30
0.0
 10
1194.597557911846
 20
2104.336235500857
 30
0.0
 10
1194.636343919629
 20
2104.097258867596
 30
0.0
  0
SPLINE
  5
37F
330
2E4
100
AcDbEntity
  8
P-SANR-FIXT
100
AcDbSpline
210
0.0
220
0.0
230
1.0
 70
     8
 71
     3
 72
     9
 73
     5
 74
     0
 42
0.000000001
 43
0.0000000001
 40
0.0
 40
0.0
 40
0.0
 40
0.0
 40
0.5
 40
1.0
 40
1.0
 40
1.0
 40
1.0
 10
1172.150133701876
 20
2086.078477877169
 30
0.0
 10
1172.100380076734
 20
2088.299523725398
 30
0.0
 10
1171.92429803116
 20
2092.756776939921
 30
0.0
 10
1171.419297383579
 20
2097.219791140582
 30
0.0
 10
1171.036517190777
 20
2099.437109127766
 30
0.0
  0
ELLIPSE
  5
380
330
2E4
100
AcDbEntity
  8
P-SANR-FIXT
100
AcDbEllipse
 10
1177.114353943078
 20
2092.802890492141
 30
0.0
 11
20.27789883964974
 21
0.0
 31
0.0
210
0.0
220
0.0
230
1.0
 40
0.342020143325668
 41
3.912514534744105
 42
4.465065874828636
  0
SPLINE
  5
381
330
2E4
100
AcDbEntity
  8
P-SANR-FIXT
100
AcDbSpline
210
0.0
220
0.0
230
1.0
 70
     8
 71
     3
 72
     9
 73
     5
 74
     0
 42
0.000000001
 43
0.0000000001
 40
0.0
 40
0.0
 40
0.0
 40
0.0
 40
0.5
 40
1.0
 40
1.0
 40
1.0
 40
1.0
 10
1165.670200718827
 20
2100.496771073505
 30
0.0
 10
1164.982309150293
 20
2098.490873737301
 30
0.0
 10
1163.760588743115
 20
2094.36882723808
 30
0.0
 10
1162.909193070487
 20
2090.114465344589
 30
0.0
 10
1162.569653614832
 20
2087.970291418769
 30
0.0
  0
SPLINE
  5
382
330
2E4
100
AcDbEntity
  8
P-SANR-FIXT
100
AcDbSpline
210
0.0
220
0.0
230
1.0
 70
     8
 71
     3
 72
     9
 73
     5
 74
     0
 42
0.000000001
 43
0.0000000001
 40
0.0
 40
0.0
 40
0.0
 40
0.0
 40
0.5
 40
1.0
 40
1.0
 40
1.0
 40
1.0
 10
1157.60543337363
 20
2090.911076950538
 30
0.0
 10
1157.895219204143
 20
2093.084724738085
 30
0.0
 10
1158.570532831198
 20
2097.443396977787
 30
0.0
 10
1159.287252590794
 20
2101.864603974687
 30
0.0
 10
1159.592363966527
 20
2104.097258867596
 30
0.0
  0
ELLIPSE
  5
383
330
2E4
100
AcDbEntity
  8
P-SANR-FIXT
100
AcDbEllipse
 10
1177.114353943078
 20
2092.802890492141
 30
0.0
 11
20.27789883964999
 21
0.0
 31
0.0
210
0.0
220
0.0
230
1.0
 40
0.3420201433256716
 41
2.865316983547538
 42
3.417868323632041
  0
SPLINE
  5
384
330
2E4
100
AcDbEntity
  8
P-SANR-FIXT
100
AcDbSpline
210
0.0
220
0.0
230
1.0
 70
     8
 71
     3
 72
     9
 73
     5
 74
     0
 42
0.000000001
 43
0.0000000001
 40
0.0
 40
0.0
 40
0.0
 40
0.0
 40
0.5
 40
1.0
 40
1.0
 40
1.0
 40
1.0
 10
1159.592363966527
 20
2106.216582759073
 30
0.0
 10
1159.287252590794
 20
2104.406769168125
 30
0.0
 10
1158.570532831198
 20
2100.667497574102
 30
0.0
 10
1157.895219204143
 20
2096.714607976466
 30
0.0
 10
1157.60543337363
 20
2094.69470403374
 30
0.0
  0
SPLINE
  5
385
330
2E4
100
AcDbEntity
  8
P-SANR-FIXT
100
AcDbSpline
210
0.0
220
0.0
230
1.0
 70
     8
 71
     3
 72
     9
 73
     5
 74
     0
 42
0.000000001
 43
0.0000000001
 40
0.0
 40
0.0
 40
0.0
 40
0.0
 40
0.5
 40
1.0
 40
1.0
 40
1.0
 40
1.0
 10
1196.623274512525
 20
2094.69470403374
 30
0.0
 10
1196.333488682012
 20
2096.714607976466
 30
0.0
 10
1195.658175054957
 20
2100.667497574102
 30
0.0
 10
1194.941455295361
 20
2104.406769168125
 30
0.0
 10
1194.636343919629
 20
2106.216582759073
 30
0.0
  0
ELLIPSE
  5
386
330
2E4
100
AcDbEntity
  8
P-SANR-FIXT
100
AcDbEllipse
 10
1177.114353943078
 20
2092.802890492141
 30
0.0
 11
20.27789883964956
 21
0.0
 31
0.0
210
0.0
220
0.0
230
1.0
 40
0.3420201433256635
 41
6.00690963713725
 42
6.559460977221849
  0
SPLINE
  5
387
330
2E4
100
AcDbEntity
  8
P-SANR-FIXT
100
AcDbSpline
210
0.0
220
0.0
230
1.0
 70
     8
 71
     3
 72
     9
 73
     5
 74
     0
 42
0.000000001
 43
0.0000000001
 40
0.0
 40
0.0
 40
0.0
 40
0.0
 40
0.5
 40
1.0
 40
1.0
 40
1.0
 40
1.0
 10
1194.636343919629
 20
2104.097258867596
 30
0.0
 10
1194.941455295361
 20
2101.864603974687
 30
0.0
 10
1195.658175054957
 20
2097.443396977787
 30
0.0
 10
1196.333488682012
 20
2093.084724738085
 30
0.0
 10
1196.623274512525
 20
2090.911076950538
 30
0.0
  0
SPLINE
  5
388
330
2E4
100
AcDbEntity
  8
P-SANR-FIXT
100
AcDbSpline
210
0.0
220
0.0
230
1.0
 70
     8
 71
     3
 72
     9
 73
     5
 74
     0
 42
0.000000001
 43
0.0000000001
 40
0.0
 40
0.0
 40
0.0
 40
0.0
 40
0.5
 40
1.0
 40
1.0
 40
1.0
 40
1.0
 10
1191.659054271323
 20
2087.970291418769
 30
0.0
 10
1191.319514815668
 20
2090.114465344589
 30
0.0
 10
1190.468119143039
 20
2094.36882723808
 30
0.0
 10
1189.246398735862
 20
2098.490873737301
 30
0.0
 10
1188.558507167328
 20
2100.496771073505
 30
0.0
  0
ELLIPSE
  5
389
330
2E4
100
AcDbEntity
  8
P-SANR-FIXT
100
AcDbEllipse
 10
1177.114353943078
 20
2092.802890492141
 30
0.0
 11
20.27789883964972
 21
0.0
 31
0.0
210
0.0
220
0.0
230
1.0
 40
0.3420201433256622
 41
4.959712085940704
 42
5.512263426025237
  0
SPLINE
  5
38A
330
2E4
100
AcDbEntity
  8
P-SANR-FIXT
100
AcDbSpline
210
0.0
220
0.0
230
1.0
 70
     8
 71
     3
 72
     9
 73
     5
 74
     0
 42
0.000000001
 43
0.0000000001
 40
0.0
 40
0.0
 40
0.0
 40
0.0
 40
0.5
 40
1.0
 40
1.0
 40
1.0
 40
1.0
 10
1183.192190695379
 20
2099.437109127766
 30
0.0
 10
1182.809410502577
 20
2097.219791140583
 30
0.0
 10
1182.304409854995
 20
2092.756776939921
 30
0.0
 10
1182.128327809421
 20
2088.299523725398
 30
0.0
 10
1182.078574184279
 20
2086.078477877169
 30
0.0
  0
LINE
  5
38B
330
2E4
100
AcDbEntity
  8
P-SANR-FIXT
100
AcDbLine
 10
1147.114353943079
 20
2050.008951488516
 30
0.0
 11
1147.114353943079
 21
2029.782392461594
 31
0.0
  0
LINE
  5
38C
330
2E4
100
AcDbEntity
  8
P-SANR-FIXT
100
AcDbLine
 10
1207.11435394308
 20
2029.782392461594
 30
0.0
 11
1207.11435394308
 21
2050.008951488516
 31
0.0
  0
ELLIPSE
  5
38D
330
2E4
100
AcDbEntity
  8
P-SANR-FIXT
100
AcDbEllipse
 10
1177.114353943078
 20
2050.008951488515
 30
0.0
 11
30.00000000000046
 21
0.0
 31
0.0
210
0.0
220
0.0
230
1.0
 40
0.3420201433256679
 41
2.614965762953425
 42
4.712388980384675
  0
ELLIPSE
  5
38E
330
2E4
100
AcDbEntity
  8
P-SANR-FIXT
100
AcDbEllipse
 10
1177.114353943078
 20
2050.008951488515
 30
0.0
 11
30.00000000000046
 21
0.0
 31
0.0
210
0.0
220
0.0
230
1.0
 40
0.3420201433256615
 41
4.712388980384683
 42
6.809812140322648
  0
ELLIPSE
  5
38F
330
2E4
100
AcDbEntity
  8
P-SANR-FIXT
100
AcDbEllipse
 10
1177.114353943078
 20
2029.782392461592
 30
0.0
 11
30.00000000000046
 21
0.0
 31
0.0
210
0.0
220
0.0
230
1.0
 40
0.3420201433256679
 41
3.141592653589793
 42
4.611397753819701
  0
ELLIPSE
  5
390
330
2E4
100
AcDbEntity
  8
P-SANR-FIXT
100
AcDbEllipse
 10
1177.114353943078
 20
2029.782392461592
 30
0.0
 11
30.00000000000065
 21
0.0
 31
0.0
210
0.0
220
0.0
230
1.0
 40
0.3420201433256608
 41
4.813380206953275
 42
6.283185307179586
  0
ARC
  5
391
330
2E4
100
AcDbEntity
  8
P-SANR-FIXT
100
AcDbCircle
 10
1177.114353943077
 20
1999.982558850011
 30
0.0
 40
16.16580753732655
100
AcDbArc
 50
90.0000000000004
 51
269.9999999999993
  0
ARC
  5
392
330
2E4
100
AcDbEntity
  8
P-SANR-FIXT
100
AcDbCircle
 10
1177.114353943077
 20
1999.982558850011
 30
0.0
 40
16.1658075373266
100
AcDbArc
 50
269.9999999999997
 51
90.0
  0
ARC
  5
393
330
2E4
100
AcDbEntity
  8
P-SANR-FIXT
100
AcDbCircle
 10
1177.114353943077
 20
1999.982558850011
 30
0.0
 40
18.50000000000022
100
AcDbArc
 50
239.8241505214553
 51
240.0000000000009
  0
ARC
  5
394
330
2E4
100
AcDbEntity
  8
P-SANR-FIXT
100
AcDbCircle
 10
1177.114353943077
 20
1999.982558850011
 30
0.0
 40
18.50000000000027
100
AcDbArc
 50
179.8285832746062
 51
180.000000000001
  0
ARC
  5
395
330
2E4
100
AcDbEntity
  8
P-SANR-FIXT
100
AcDbCircle
 10
1177.114353943077
 20
1999.982558850011
 30
0.0
 40
18.50000000000025
100
AcDbArc
 50
119.8327980439724
 51
120.0000000000004
  0
ARC
  5
396
330
2E4
100
AcDbEntity
  8
P-SANR-FIXT
100
AcDbCircle
 10
1177.114353943077
 20
1999.982558850011
 30
0.0
 40
18.50000000000036
100
AcDbArc
 50
59.82415052101759
 51
59.99999999999894
  0
ARC
  5
397
330
2E4
100
AcDbEntity
  8
P-SANR-FIXT
100
AcDbCircle
 10
1177.114353943077
 20
1999.982558850011
 30
0.0
 40
18.50000000000022
100
AcDbArc
 50
359.8285832746041
 51
0.0
  0
ARC
  5
398
330
2E4
100
AcDbEntity
  8
P-SANR-FIXT
100
AcDbCircle
 10
1177.114353943077
 20
1999.982558850011
 30
0.0
 40
18.50000000000025
100
AcDbArc
 50
299.8327980443906
 51
299.9999999999999
  0
SPLINE
  5
399
330
2E4
100
AcDbEntity
  8
P-SANR-FIXT
100
AcDbSpline
210
0.0
220
0.0
230
1.0
 70
     8
 71
     3
 72
    10
 73
     6
 74
     0
 42
0.000000001
 43
0.0000000001
 40
0.0
 40
0.0
 40
0.0
 40
0.0
 40
0.4
 40
0.7
 40
1.0
 40
1.0
 40
1.0
 40
1.0
 10
1192.364353943138
 20
2012.539927204885
 30
0.0
 10
1193.139400874993
 20
2012.092453650144
 30
0.0
 10
1194.351743435945
 20
2011.010335133869
 30
0.0
 10
1195.403814666922
 20
2008.940877661427
 30
0.0
 10
1195.614353943137
 20
2007.583360312426
 30
0.0
 10
1195.614353943137
 20
2006.910762080286
 30
0.0
  0
SPLINE
  5
39A
330
2E4
100
AcDbEntity
  8
P-SANR-FIXT
100
AcDbSpline
210
0.0
220
0.0
230
1.0
 70
    24
 71
     3
 72
     9
 73
     5
 74
     0
 42
0.000000001
 43
0.0000000001
 40
0.0
 40
0.0
 40
0.0
 40
0.0
 40
0.5
 40
1.0
 40
1.0
 40
1.0
 40
1.0
 10
1195.614353943137
 20
2006.910762080286
 30
0.0
 10
1195.614353943137
 20
2004.564509121876
 30
0.0
 10
1195.614353943137
 20
1999.908855086706
 30
0.0
 10
1195.614353943137
 20
1995.326904814841
 30
0.0
 10
1195.614353943137
 20
1993.054355619734
 30
0.0
  0
SPLINE
  5
39B
330
2E4
100
AcDbEntity
  8
P-SANR-FIXT
100
AcDbSpline
210
0.0
220
0.0
230
1.0
 70
     8
 71
     3
 72
    10
 73
     6
 74
     0
 42
0.000000001
 43
0.0000000001
 40
0.0
 40
0.0
 40
0.0
 40
0.0
 40
0.4
 40
0.7
 40
1.0
 40
1.0
 40
1.0
 40
1.0
 10
1195.614353943137
 20
1993.054355619734
 30
0.0
 10
1195.614353943137
 20
1992.157557976882
 30
0.0
 10
1195.282787139653
 20
1990.567078004431
 30
0.0
 10
1194.015810465393
 20
1988.620931263346
 30
0.0
 10
1192.945639142029
 20
1987.760795661191
 30
0.0
 10
1192.364353943137
 20
1987.425190495136
 30
0.0
  0
SPLINE
  5
39C
330
2E4
100
AcDbEntity
  8
P-SANR-FIXT
100
AcDbSpline
210
0.0
220
0.0
230
1.0
 70
    24
 71
     3
 72
     9
 73
     5
 74
     0
 42
0.000000001
 43
0.0000000001
 40
0.0
 40
0.0
 40
0.0
 40
0.0
 40
0.5
 40
1.0
 40
1.0
 40
1.0
 40
1.0
 10
1192.364353943137
 20
1987.425190495136
 30
0.0
 10
1190.332439277449
 20
1986.25206401593
 30
0.0
 10
1186.300524611761
 20
1983.924236998346
 30
0.0
 10
1182.332439277449
 20
1981.633261862413
 30
0.0
 10
1180.364353943137
 20
1980.49698726486
 30
0.0
  0
SPLINE
  5
39D
330
2E4
100
AcDbEntity
  8
P-SANR-FIXT
100
AcDbSpline
210
0.0
220
0.0
230
1.0
 70
     8
 71
     3
 72
     9
 73
     5
 74
     0
 42
0.000000001
 43
0.0000000001
 40
0.0
 40
0.0
 40
0.0
 40
0.0
 40
0.5
 40
1.0
 40
1.0
 40
1.0
 40
1.0
 10
1180.364353943137
 20
1980.49698726486
 30
0.0
 10
1179.87864563624
 20
1980.216563443125
 30
0.0
 10
1178.828544303868
 20
1979.778881932108
 30
0.0
 10
1177.687970313424
 20
1979.626152389453
 30
0.0
 10
1177.114353943077
 20
1979.626152389459
 30
0.0
  0
SPLINE
  5
39E
330
2E4
100
AcDbEntity
  8
P-SANR-FIXT
100
AcDbSpline
210
0.0
220
0.0
230
1.0
 70
     8
 71
     3
 72
     9
 73
     5
 74
     0
 42
0.000000001
 43
0.0000000001
 40
0.0
 40
0.0
 40
0.0
 40
0.0
 40
0.5
 40
1.0
 40
1.0
 40
1.0
 40
1.0
 10
1177.114353943077
 20
1979.626152389459
 30
0.0
 10
1176.540737572751
 20
1979.626152389464
 30
0.0
 10
1175.40016358235
 20
1979.778881932128
 30
0.0
 10
1174.350062250018
 20
1980.216563443135
 30
0.0
 10
1173.864353943137
 20
1980.49698726486
 30
0.0
  0
SPLINE
  5
39F
330
2E4
100
AcDbEntity
  8
P-SANR-FIXT
100
AcDbSpline
210
0.0
220
0.0
230
1.0
 70
    24
 71
     3
 72
     9
 73
     5
 74
     0
 42
0.000000001
 43
0.0000000001
 40
0.0
 40
0.0
 40
0.0
 40
0.0
 40
0.5
 40
1.0
 40
1.0
 40
1.0
 40
1.0
 10
1173.864353943137
 20
1980.49698726486
 30
0.0
 10
1171.832439277449
 20
1981.670113744065
 30
0.0
 10
1167.800524611761
 20
1983.99794076165
 30
0.0
 10
1163.832439277449
 20
1986.288915897582
 30
0.0
 10
1161.864353943137
 20
1987.425190495136
 30
0.0
  0
SPLINE
  5
3A0
330
2E4
100
AcDbEntity
  8
P-SANR-FIXT
100
AcDbSpline
210
0.0
220
0.0
230
1.0
 70
     8
 71
     3
 72
    10
 73
     6
 74
     0
 42
0.000000001
 43
0.0000000001
 40
0.0
 40
0.0
 40
0.0
 40
0.0
 40
0.4
 40
0.7
 40
1.0
 40
1.0
 40
1.0
 40
1.0
 10
1161.864353943137
 20
1987.425190495136
 30
0.0
 10
1161.087704402372
 20
1987.873589316562
 30
0.0
 10
1159.876091743762
 20
1988.955974577657
 30
0.0
 10
1158.82416756362
 20
1991.02628193411
 30
0.0
 10
1158.614353943137
 20
1992.383145287623
 30
0.0
 10
1158.614353943137
 20
1993.054355619734
 30
0.0
  0
SPLINE
  5
3A1
330
2E4
100
AcDbEntity
  8
P-SANR-FIXT
100
AcDbSpline
210
0.0
220
0.0
230
1.0
 70
    24
 71
     3
 72
     9
 73
     5
 74
     0
 42
0.000000001
 43
0.0000000001
 40
0.0
 40
0.0
 40
0.0
 40
0.0
 40
0.5
 40
1.0
 40
1.0
 40
1.0
 40
1.0
 10
1158.614353943137
 20
1993.054355619734
 30
0.0
 10
1158.614353943137
 20
1995.400608578145
 30
0.0
 10
1158.614353943137
 20
2000.056262613314
 30
0.0
 10
1158.614353943137
 20
2004.63821288518
 30
0.0
 10
1158.614353943137
 20
2006.910762080286
 30
0.0
  0
SPLINE
  5
3A2
330
2E4
100
AcDbEntity
  8
P-SANR-FIXT
100
AcDbSpline
210
0.0
220
0.0
230
1.0
 70
     8
 71
     3
 72
    10
 73
     6
 74
     0
 42
0.000000001
 43
0.0000000001
 40
0.0
 40
0.0
 40
0.0
 40
0.0
 40
0.4
 40
0.7
 40
1.0
 40
1.0
 40
1.0
 40
1.0
 10
1158.614353943137
 20
2006.910762080286
 30
0.0
 10
1158.614353943137
 20
2007.807559723138
 30
0.0
 10
1158.945920746621
 20
2009.398039695589
 30
0.0
 10
1160.212897420881
 20
2011.344186436674
 30
0.0
 10
1161.283068744245
 20
2012.204322038829
 30
0.0
 10
1161.864353943137
 20
2012.539927204885
 30
0.0
  0
SPLINE
  5
3A3
330
2E4
100
AcDbEntity
  8
P-SANR-FIXT
100
AcDbSpline
210
0.0
220
0.0
230
1.0
 70
    24
 71
     3
 72
     9
 73
     5
 74
     0
 42
0.000000001
 43
0.0000000001
 40
0.0
 40
0.0
 40
0.0
 40
0.0
 40
0.5
 40
1.0
 40
1.0
 40
1.0
 40
1.0
 10
1161.864353943137
 20
2012.539927204885
 30
0.0
 10
1163.896268608825
 20
2013.713053684091
 30
0.0
 10
1167.928183274513
 20
2016.040880701675
 30
0.0
 10
1171.896268608825
 20
2018.331855837608
 30
0.0
 10
1173.864353943137
 20
2019.468130435161
 30
0.0
  0
SPLINE
  5
3A4
330
2E4
100
AcDbEntity
  8
P-SANR-FIXT
100
AcDbSpline
210
0.0
220
0.0
230
1.0
 70
     8
 71
     3
 72
     9
 73
     5
 74
     0
 42
0.000000001
 43
0.0000000001
 40
0.0
 40
0.0
 40
0.0
 40
0.0
 40
0.5
 40
1.0
 40
1.0
 40
1.0
 40
1.0
 10
1173.864353943137
 20
2019.468130435161
 30
0.0
 10
1174.350062250018
 20
2019.748554256886
 30
0.0
 10
1175.40016358235
 20
2020.186235767893
 30
0.0
 10
1176.540737572751
 20
2020.338965310557
 30
0.0
 10
1177.114353943077
 20
2020.338965310562
 30
0.0
  0
SPLINE
  5
3A5
330
2E4
100
AcDbEntity
  8
P-SANR-FIXT
100
AcDbSpline
210
0.0
220
0.0
230
1.0
 70
     8
 71
     3
 72
     9
 73
     5
 74
     0
 42
0.000000001
 43
0.0000000001
 40
0.0
 40
0.0
 40
0.0
 40
0.0
 40
0.5
 40
1.0
 40
1.0
 40
1.0
 40
1.0
 10
1177.114353943077
 20
2020.338965310562
 30
0.0
 10
1177.687970313424
 20
2020.338965310567
 30
0.0
 10
1178.828544303868
 20
2020.186235767913
 30
0.0
 10
1179.87864563624
 20
2019.748554256895
 30
0.0
 10
1180.364353943137
 20
2019.468130435161
 30
0.0
  0
SPLINE
  5
3A6
330
2E4
100
AcDbEntity
  8
P-SANR-FIXT
100
AcDbSpline
210
0.0
220
0.0
230
1.0
 70
    24
 71
     3
 72
     9
 73
     5
 74
     0
 42
0.000000001
 43
0.0000000001
 40
0.0
 40
0.0
 40
0.0
 40
0.0
 40
0.5
 40
1.0
 40
1.0
 40
1.0
 40
1.0
 10
1180.364353943137
 20
2019.468130435161
 30
0.0
 10
1182.396268608825
 20
2018.295003955955
 30
0.0
 10
1186.428183274513
 20
2015.96717693837
 30
0.0
 10
1190.396268608825
 20
2013.676201802438
 30
0.0
 10
1192.364353943138
 20
2012.539927204885
 30
0.0
  0
ARC
  5
3A7
330
2E4
100
AcDbEntity
  8
P-SANR-FIXT
100
AcDbCircle
 10
1177.114353943077
 20
1999.982558850011
 30
0.0
 40
11.95000000003074
100
AcDbArc
 50
90.0
 51
269.9999999999997
  0
ARC
  5
3A8
330
2E4
100
AcDbEntity
  8
P-SANR-FIXT
100
AcDbCircle
 10
1177.114353943077
 20
1999.982558850011
 30
0.0
 40
11.95000000003097
100
AcDbArc
 50
269.9999999999997
 51
89.99999999999891
  0
ARC
  5
3A9
330
2E4
100
AcDbEntity
  8
P-SANR-FIXT
100
AcDbCircle
 10
1177.114353943077
 20
1999.982558850011
 30
0.0
 40
13.25000000003047
100
AcDbArc
 50
90.00000000000101
 51
269.9999999999997
  0
ARC
  5
3AA
330
2E4
100
AcDbEntity
  8
P-SANR-FIXT
100
AcDbCircle
 10
1177.114353943077
 20
1999.982558850011
 30
0.0
 40
13.25000000003047
100
AcDbArc
 50
269.9999999999997
 51
90.0
  0
LINE
  5
3AB
330
2E4
100
AcDbEntity
  8
P-SANR-FIXT
100
AcDbLine
 10
1166.361118619453
 20
2015.321323482685
 30
0.0
 11
1166.361118619453
 21
2015.136135501239
 31
0.0
  0
LINE
  5
3AC
330
2E4
100
AcDbEntity
  8
P-SANR-FIXT
100
AcDbLine
 10
1187.867589266705
 20
2015.136135501307
 30
0.0
 11
1187.867589266705
 21
2015.321323482829
 31
0.0
  0
LWPOLYLINE
  5
3AD
330
2E4
100
AcDbEntity
  8
P-SANR-FIXT
100
AcDbPolyline
 90
       39
 70
   128
 43
0.0
 10
1158.799160784975
 20
1987.507827881018
 10
1158.997323700289
 20
1986.797827007395
 10
1159.25963281869
 20
1986.137868941106
 10
1159.571824718931
 20
1985.534222596442
 10
1159.920841980153
 20
1984.987733384809
 10
1160.296094310955
 20
1984.495484095952
 10
1160.689777891704
 20
1984.05246445934
 10
1161.09660549886
 20
1983.652866012617
 10
1161.513287055925
 20
1983.290919182228
 10
1161.937981886166
 20
1982.961348147115
 10
1162.36982874611
 20
1982.659562997929
 10
1162.808584722208
 20
1982.3816949553
 10
1163.254366630842
 20
1982.124549775725
 10
1163.707475006758
 20
1981.885526104084
 10
1164.168279244315
 20
1981.662525000855
 10
1164.637145687379
 20
1981.453863830632
 10
1165.114394796603
 20
1981.25820012749
 10
1165.600277452932
 20
1981.074466991427
 10
1166.094963543328
 20
1980.90181958328
 10
1166.598538227384
 20
1980.739591448638
 10
1167.111002857363
 20
1980.587259162788
 10
1167.632278593723
 20
1980.444413837236
 10
1168.162211471283
 20
1980.310738196213
 10
1168.700578140019
 20
1980.185988133603
 10
1169.247091809188
 20
1980.06997785648
 10
1169.801408119301
 20
1979.962567894409
 10
1170.363130790886
 20
1979.863655399231
 10
1170.931816976811
 20
1979.773166279073
 10
1171.506982292703
 20
1979.691048806047
 10
1172.08810552846
 20
1979.617268413313
 10
1172.674633060071
 20
1979.551803457505
 10
1173.265982989484
 20
1979.494641770176
 10
1173.861549044167
 20
1979.445777859632
 10
1174.460704269029
 20
1979.405210654373
 10
1175.062804542956
 20
1979.372941703258
 10
1175.667191950898
 20
1979.348973766649
 10
1176.273198040993
 20
1979.333309748467
 10
1176.880146994636
 20
1979.325951932058
 10
1177.114353943079
 20
1979.32533399983
  0
LWPOLYLINE
  5
3AE
330
2E4
100
AcDbEntity
  8
P-SANR-FIXT
100
AcDbPolyline
 90
       39
 70
   128
 43
0.0
 10
1195.429547101184
 20
1987.507827881017
 10
1195.23138418587
 20
1986.797827007395
 10
1194.969075067469
 20
1986.137868941106
 10
1194.656883167228
 20
1985.534222596442
 10
1194.307865906005
 20
1984.987733384809
 10
1193.932613575204
 20
1984.495484095952
 10
1193.538929994454
 20
1984.05246445934
 10
1193.132102387299
 20
1983.652866012617
 10
1192.715420830234
 20
1983.290919182228
 10
1192.290725999993
 20
1982.961348147115
 10
1191.858879140048
 20
1982.659562997929
 10
1191.42012316395
 20
1982.3816949553
 10
1190.974341255317
 20
1982.124549775725
 10
1190.5212328794
 20
1981.885526104084
 10
1190.060428641843
 20
1981.662525000855
 10
1189.591562198779
 20
1981.453863830632
 10
1189.114313089556
 20
1981.25820012749
 10
1188.628430433226
 20
1981.074466991427
 10
1188.13374434283
 20
1980.90181958328
 10
1187.630169658774
 20
1980.739591448638
 10
1187.117705028796
 20
1980.587259162788
 10
1186.596429292435
 20
1980.444413837236
 10
1186.066496414875
 20
1980.310738196213
 10
1185.528129746139
 20
1980.185988133603
 10
1184.981616076971
 20
1980.06997785648
 10
1184.427299766858
 20
1979.962567894409
 10
1183.865577095272
 20
1979.863655399231
 10
1183.296890909347
 20
1979.773166279073
 10
1182.721725593456
 20
1979.691048806047
 10
1182.140602357698
 20
1979.617268413313
 10
1181.554074826088
 20
1979.551803457505
 10
1180.962724896675
 20
1979.494641770176
 10
1180.367158841992
 20
1979.445777859632
 10
1179.768003617129
 20
1979.405210654373
 10
1179.165903343202
 20
1979.372941703258
 10
1178.56151593526
 20
1979.348973766649
 10
1177.955509845166
 20
1979.333309748467
 10
1177.348560891522
 20
1979.325951932058
 10
1177.114353943079
 20
1979.32533399983
  0
LWPOLYLINE
  5
3AF
330
2E4
100
AcDbEntity
  8
P-SANR-FIXT
100
AcDbPolyline
 90
        3
 70
   128
 43
0.0
 10
1154.862142235019
 20
2022.911477766424
 10
1155.564004515437
 20
2007.491481933788
 10
1158.799160784975
 20
1987.507827881019
  0
LWPOLYLINE
  5
3B0
330
2E4
100
AcDbEntity
  8
P-SANR-FIXT
100
AcDbPolyline
 90
        3
 70
   128
 43
0.0
 10
1199.36656565114
 20
2022.911477766425
 10
1198.664703370721
 20
2007.491481933782
 10
1195.429547101183
 20
1987.507827881012
  0
LINE
  5
3B1
330
2E4
100
AcDbEntity
  8
P-SANR-FIXT
100
AcDbLine
 10
1150.114353943079
 20
2050.008951488516
 30
0.0
 11
1150.114353943079
 21
2049.604318808615
 31
0.0
  0
LINE
  5
3B2
330
2E4
100
AcDbEntity
  8
P-SANR-FIXT
100
AcDbLine
 10
1204.114353943079
 20
2049.604318808615
 30
0.0
 11
1204.114353943079
 21
2050.008951488516
 31
0.0
  0
ELLIPSE
  5
3B3
330
2E4
100
AcDbEntity
  8
P-SANR-FIXT
100
AcDbEllipse
 10
1177.114353943078
 20
2050.482558850011
 30
0.0
 11
26.49599757301503
 21
0.0
 31
0.0
210
0.0
220
0.0
230
1.0
 40
0.3420201433256728
 41
3.220163288140345
 42
3.228859116189517
  0
ELLIPSE
  5
3B4
330
2E4
100
AcDbEntity
  8
P-SANR-FIXT
100
AcDbEllipse
 10
1177.114353943078
 20
2050.482558850011
 30
0.0
 11
26.49599757301517
 21
0.0
 31
0.0
210
0.0
220
0.0
230
0.9999999999999998
 40
0.3420201433256679
 41
3.298781661393787
 42
3.333644385785877
  0
ELLIPSE
  5
3B5
330
2E4
100
AcDbEntity
  8
P-SANR-FIXT
100
AcDbEllipse
 10
1177.114353943078
 20
2050.482558850011
 30
0.0
 11
26.49599757301524
 21
0.0
 31
0.0
210
0.0
220
0.0
230
1.0
 40
0.3420201433256679
 41
3.377430182242107
 42
3.420895172211669
  0
ELLIPSE
  5
3B6
330
2E4
100
AcDbEntity
  8
P-SANR-FIXT
100
AcDbEllipse
 10
1177.114353943078
 20
2050.482558850011
 30
0.0
 11
26.49599757301518
 21
0.0
 31
0.0
210
0.0
220
0.0
230
1.0
 40
0.3420201433256709
 41
3.456091718490551
 42
3.506213770773553
  0
ELLIPSE
  5
3B7
330
2E4
100
AcDbEntity
  8
P-SANR-FIXT
100
AcDbEllipse
 10
1177.114353943078
 20
2050.482558850011
 30
0.0
 11
26.49599757301506
 21
0.0
 31
0.0
210
0.0
220
0.0
230
1.0
 40
0.3420201433256753
 41
3.665191429188082
 42
3.689871605045072
  0
ELLIPSE
  5
3B8
330
2E4
100
AcDbEntity
  8
P-SANR-FIXT
100
AcDbEllipse
 10
1177.114353943078
 20
2050.482558850011
 30
0.0
 11
26.49599757301513
 21
0.0
 31
0.0
210
0.0
220
0.0
230
0.9999999999999998
 40
0.3420201433256762
 41
3.752457891787795
 42
4.083496285142549
  0
ELLIPSE
  5
3B9
330
2E4
100
AcDbEntity
  8
P-SANR-FIXT
100
AcDbEllipse
 10
1177.114353943078
 20
2050.482558850011
 30
0.0
 11
26.49599757301528
 21
0.0
 31
0.0
210
0.0
220
0.0
230
1.0
 40
0.3420201433256742
 41
4.101523742186655
 42
4.16201182333668
  0
ELLIPSE
  5
3BA
330
2E4
100
AcDbEntity
  8
P-SANR-FIXT
100
AcDbEllipse
 10
1177.114353943078
 20
2050.482558850011
 30
0.0
 11
26.49599757301523
 21
0.0
 31
0.0
210
0.0
220
0.0
230
1.0
 40
0.3420201433256774
 41
4.188790204786362
 42
4.240599608327318
  0
ELLIPSE
  5
3BB
330
2E4
100
AcDbEntity
  8
P-SANR-FIXT
100
AcDbEllipse
 10
1177.114353943078
 20
2050.482558850011
 30
0.0
 11
26.49599757301518
 21
0.0
 31
0.0
210
0.0
220
0.0
230
1.0
 40
0.342020143325665
 41
4.259124827390532
 42
4.319232943988022
  0
ELLIPSE
  5
3BC
330
2E4
100
AcDbEntity
  8
P-SANR-FIXT
100
AcDbEllipse
 10
1177.114353943078
 20
2050.482558850011
 30
0.0
 11
26.49599757301511
 21
0.0
 31
0.0
210
0.0
220
0.0
230
1.0
 40
0.3420201433256702
 41
4.36332312998579
 42
4.396122871732352
  0
ELLIPSE
  5
3BD
330
2E4
100
AcDbEntity
  8
P-SANR-FIXT
100
AcDbEllipse
 10
1177.114353943078
 20
2050.482558850011
 30
0.0
 11
26.49599757301516
 21
0.0
 31
0.0
210
0.0
220
0.0
230
1.0
 40
0.3420201433256735
 41
4.397889915481627
 42
4.450589592585513
  0
ELLIPSE
  5
3BE
330
2E4
100
AcDbEntity
  8
P-SANR-FIXT
100
AcDbEllipse
 10
1177.114353943078
 20
2050.482558850011
 30
0.0
 11
26.49599757301503
 21
0.0
 31
0.0
210
0.0
220
0.0
230
1.0
 40
0.3420201433256802
 41
4.476551451730116
 42
4.537856055185224
  0
ELLIPSE
  5
3BF
330
2E4
100
AcDbEntity
  8
P-SANR-FIXT
100
AcDbEllipse
 10
1177.114353943078
 20
2050.482558850011
 30
0.0
 11
26.49599757301523
 21
0.0
 31
0.0
210
0.0
220
0.0
230
1.0
 40
0.3420201433256724
 41
4.555199972578518
 42
4.625122517784943
  0
ELLIPSE
  5
3C0
330
2E4
100
AcDbEntity
  8
P-SANR-FIXT
100
AcDbEllipse
 10
1177.114353943078
 20
2050.482558850011
 30
0.0
 11
26.49599757301503
 21
0.0
 31
0.0
210
0.0
220
0.0
230
1.0
 40
0.3420201433256709
 41
4.633818345831961
 42
4.712388980384657
  0
ELLIPSE
  5
3C1
330
2E4
100
AcDbEntity
  8
P-SANR-FIXT
100
AcDbEllipse
 10
1177.114353943078
 20
2050.482558850011
 30
0.0
 11
26.49599757301507
 21
0.0
 31
0.0
210
0.0
220
0.0
230
1.0
 40
0.3420201433256772
 41
4.712388980384683
 42
4.869577988192301
  0
ELLIPSE
  5
3C2
330
2E4
100
AcDbEntity
  8
P-SANR-FIXT
100
AcDbEllipse
 10
1177.114353943078
 20
2050.482558850011
 30
0.0
 11
26.49599757301518
 21
0.0
 31
0.0
210
0.0
220
0.0
230
1.0
 40
0.3420201433256652
 41
4.886921905584109
 42
4.94822650904073
  0
ELLIPSE
  5
3C3
330
2E4
100
AcDbEntity
  8
P-SANR-FIXT
100
AcDbEllipse
 10
1177.114353943078
 20
2050.482558850011
 30
0.0
 11
26.49599757301536
 21
0.0
 31
0.0
210
0.0
220
0.0
230
0.9999999999999998
 40
0.3420201433256725
 41
4.974188368183829
 42
5.026888045289249
  0
ELLIPSE
  5
3C4
330
2E4
100
AcDbEntity
  8
P-SANR-FIXT
100
AcDbEllipse
 10
1177.114353943078
 20
2050.482558850011
 30
0.0
 11
26.49599757301536
 21
0.0
 31
0.0
210
0.0
220
0.0
230
0.9999999999999998
 40
0.3420201433256673
 41
5.04220881802431
 42
5.061454830783549
  0
ELLIPSE
  5
3C5
330
2E4
100
AcDbEntity
  8
P-SANR-FIXT
100
AcDbEllipse
 10
1177.114353943078
 20
2050.482558850011
 30
0.0
 11
26.4959975730153
 21
0.0
 31
0.0
210
0.0
220
0.0
230
1.0
 40
0.3420201433256633
 41
5.105545016782905
 42
5.180226147143174
  0
ELLIPSE
  5
3C6
330
2E4
100
AcDbEntity
  8
P-SANR-FIXT
100
AcDbEllipse
 10
1177.114353943078
 20
2050.482558850011
 30
0.0
 11
26.49599757301516
 21
0.0
 31
0.0
210
0.0
220
0.0
230
1.0
 40
0.3420201433256688
 41
5.18417835244366
 42
5.235987755982971
  0
ELLIPSE
  5
3C7
330
2E4
100
AcDbEntity
  8
P-SANR-FIXT
100
AcDbEllipse
 10
1177.114353943078
 20
2050.482558850011
 30
0.0
 11
26.49599757301511
 21
0.0
 31
0.0
210
0.0
220
0.0
230
1.0
 40
0.3420201433256595
 41
5.262766137434375
 42
5.32812361848383
  0
ELLIPSE
  5
3C8
330
2E4
100
AcDbEntity
  8
P-SANR-FIXT
100
AcDbEllipse
 10
1177.114353943078
 20
2050.482558850011
 30
0.0
 11
26.49599757301514
 21
0.0
 31
0.0
210
0.0
220
0.0
230
1.0
 40
0.3420201433256663
 41
5.341281675628624
 42
5.69476154000072
  0
ELLIPSE
  5
3C9
330
2E4
100
AcDbEntity
  8
P-SANR-FIXT
100
AcDbEllipse
 10
1177.114353943078
 20
2050.482558850011
 30
0.0
 11
26.49599757301508
 21
0.0
 31
0.0
210
0.0
220
0.0
230
1.0
 40
0.3420201433256722
 41
5.734906355726998
 42
5.759586531581276
  0
ELLIPSE
  5
3CA
330
2E4
100
AcDbEntity
  8
P-SANR-FIXT
100
AcDbEllipse
 10
1177.114353943078
 20
2050.482558850011
 30
0.0
 11
26.4959975730153
 21
0.0
 31
0.0
210
0.0
220
0.0
230
1.0
 40
0.3420201433256587
 41
5.918564190030903
 42
5.968686242278699
  0
ELLIPSE
  5
3CB
330
2E4
100
AcDbEntity
  8
P-SANR-FIXT
100
AcDbEllipse
 10
1177.114353943078
 20
2050.482558850011
 30
0.0
 11
26.49599757301528
 21
0.0
 31
0.0
210
0.0
220
0.0
230
1.0
 40
0.34202014332565
 41
5.99531898726447
 42
6.047347778527141
  0
ELLIPSE
  5
3CC
330
2E4
100
AcDbEntity
  8
P-SANR-FIXT
100
AcDbEllipse
 10
1177.114353943078
 20
2050.482558850011
 30
0.0
 11
26.49599757301522
 21
0.0
 31
0.0
210
0.0
220
0.0
230
1.0
 40
0.3420201433256702
 41
6.091133575049129
 42
6.125996299375528
  0
ELLIPSE
  5
3CD
330
2E4
100
AcDbEntity
  8
P-SANR-FIXT
100
AcDbEllipse
 10
1177.114353943078
 20
2050.482558850011
 30
0.0
 11
26.49599757301521
 21
0.0
 31
0.0
210
0.0
220
0.0
230
0.9999999999999998
 40
0.3420201433256555
 41
6.195918844579844
 42
6.204614672628917
  0
ELLIPSE
  5
3CE
330
2E4
100
AcDbEntity
  8
P-SANR-FIXT
100
AcDbEllipse
 10
1177.114353943078
 20
2050.008951488515
 30
0.0
 11
27.0
 21
0.0
 31
0.0
210
0.0
220
0.0
230
1.0
 40
0.3420201433256756
 41
2.950693443815239
 42
4.712388980384683
  0
ELLIPSE
  5
3CF
330
2E4
100
AcDbEntity
  8
P-SANR-FIXT
100
AcDbEllipse
 10
1177.114353943078
 20
2050.008951488515
 30
0.0
 11
27.00000000000013
 21
0.0
 31
0.0
210
0.0
220
0.0
230
0.9999999999999998
 40
0.3420201433256666
 41
4.712388980384683
 42
6.474084463558432
  0
ENDBLK
  5
3D1
330
2E4
100
AcDbEntity
  8
0
100
AcDbBlockEnd
  0
ENDSEC
  0
SECTION
  2
ENTITIES
  0
INSERT
  5
1C8
330
71
100
AcDbEntity
  8
P-SANR-FIXT
100
AcDbBlockReference
  2
Automatic flow rate regulator valve_Caleffi_121 DN15 - 3_4___Pressure gauge H-961210-Est - Idraulica
 10
0.0
 20
0.0
 30
0.0
1001
REVIT
1002
{
1070
     1
1000
863131
1002
}
1002
{
1070
     5
1000
961210
1002
}
1002
{
1070
     2
1000
-2001160
1002
}
  0
INSERT
  5
2E3
330
71
100
AcDbEntity
  8
P-SANR-FIXT
100
AcDbBlockReference
  2
Automatic flow rate regulator valve_Caleffi_121 DN15 - 3_4___Pressure gauge H-V1-Est - Idraulica
 10
0.0
 20
0.0
 30
0.0
1001
REVIT
1002
{
1070
     1
1000
863152
1002
}
1002
{
1070
     5
1000
961210
1002
}
1002
{
1070
     2
1000
-2001160
1002
}
  0
INSERT
  5
3D2
330
71
100
AcDbEntity
  8
P-SANR-FIXT
100
AcDbBlockReference
  2
Automatic flow rate regulator valve_Caleffi_121 DN15 - 3_4___Pressure gauge H-V2-Est - Idraulica
 10
0.0
 20
0.0
 30
0.0
1001
REVIT
1002
{
1070
     1
1000
863172
1002
}
1002
{
1070
     5
1000
961210
1002
}
1002
{
1070
     2
1000
-2001160
1002
}
  0
ENDSEC
  0
SECTION
  2
OBJECTS
  0
DICTIONARY
  5
C
330
0
100
AcDbDictionary
281
     1
  3
ACAD_CIP_PREVIOUS_PRODUCT_INFO
350
7A
  3
ACAD_COLOR
350
63
  3
ACAD_DETAILVIEWSTYLE
350
6B
  3
ACAD_GROUP
350
D
  3
ACAD_IMAGE_VARS
350
7B
  3
ACAD_LAYOUT
350
62
  3
ACAD_MATERIAL
350
10
  3
ACAD_MLEADERSTYLE
350
66
  3
ACAD_MLINESTYLE
350
5F
  3
ACAD_PLOTSETTINGS
350
61
  3
ACAD_PLOTSTYLENAME
350
E
  3
ACAD_SCALELIST
350
42
  3
ACAD_SECTIONVIEWSTYLE
350
68
  3
ACAD_TABLESTYLE
350
64
  3
ACAD_VISUALSTYLE
350
29
  3
ACDB_RECOMPOSE_DATA
350
3DD
  3
AcDbVariableDictionary
350
7C
  3
REVIT_DICTIONARY
350
3D4
  0
DICTIONARY
  5
3D9
330
71
100
AcDbDictionary
280
     1
281
     1
  3
ACAD_SORTENTS
360
3DA
  0
XRECORD
  5
7A
102
{ACAD_REACTORS
330
C
102
}
330
C
100
AcDbXrecord
280
     1
300
RVT
300
2013
300
RVT2013
  0
DICTIONARY
  5
63
102
{ACAD_REACTORS
330
C
102
}
330
C
100
AcDbDictionary
281
     1
  0
DICTIONARY
  5
6B
102
{ACAD_REACTORS
330
C
102
}
330
C
100
AcDbDictionary
281
     1
  3
Imperial24
350
6C
  0
DICTIONARY
  5
D
102
{ACAD_REACTORS
330
C
102
}
330
C
100
AcDbDictionary
281
     1
  0
RASTERVARIABLES
  5
7B
102
{ACAD_REACTORS
330
C
102
}
330
C
100
AcDbRasterVariables
 90
        0
 70
     0
 71
     1
 72
     1
  0
DICTIONARY
  5
62
102
{ACAD_REACTORS
330
C
102
}
330
C
100
AcDbDictionary
281
     1
  3
Layout1
350
70
  3
Layout2
350
78
  3
Model
350
74
  0
DICTIONARY
  5
10
102
{ACAD_REACTORS
330
C
102
}
330
C
100
AcDbDictionary
281
     1
  3
ByBlock
350
19
  3
ByLayer
350
11
  3
Global
350
21
  0
DICTIONARY
  5
66
102
{ACAD_REACTORS
330
C
102
}
330
C
100
AcDbDictionary
281
     1
  3
Standard
350
67
  0
DICTIONARY
  5
5F
102
{ACAD_REACTORS
330
C
102
}
330
C
100
AcDbDictionary
281
     1
  3
Standard
350
60
  0
DICTIONARY
  5
61
102
{ACAD_REACTORS
330
C
102
}
330
C
100
AcDbDictionary
281
     1
  0
ACDBDICTIONARYWDFLT
  5
E
102
{ACAD_REACTORS
330
C
102
}
330
C
100
AcDbDictionary
281
     1
  3
Normal
350
F
100
AcDbDictionaryWithDefault
340
F
  0
DICTIONARY
  5
42
102
{ACAD_REACTORS
330
C
102
}
330
C
100
AcDbDictionary
281
     1
  3
A0
350
43
  3
A1
350
44
  3
A2
350
45
  3
A3
350
46
  3
A4
350
47
  3
A5
350
48
  3
A6
350
49
  3
A7
350
4A
  3
A8
350
4B
  3
A9
350
4C
  3
B0
350
4D
  3
B1
350
4E
  3
B2
350
4F
  3
B3
350
50
  3
B4
350
51
  3
B5
350
52
  3
B6
350
53
  0
DICTIONARY
  5
68
102
{ACAD_REACTORS
330
C
102
}
330
C
100
AcDbDictionary
281
     1
  3
Imperial24
350
6A
  0
DICTIONARY
  5
64
102
{ACAD_REACTORS
330
C
102
}
330
C
100
AcDbDictionary
281
     1
  3
Standard
350
65
  0
DICTIONARY
  5
29
102
{ACAD_REACTORS
330
C
102
}
330
C
100
AcDbDictionary
281
     1
  3
2dWireframe
350
2F
  3
Basic
350
2E
  3
Brighten
350
35
  3
ColorChange
350
39
  3
Conceptual
350
32
  3
Dim
350
34
  3
EdgeColorOff
350
41
  3
Facepattern
350
38
  3
Flat
350
2A
  3
FlatWithEdges
350
2B
  3
Gouraud
350
2C
  3
GouraudWithEdges
350
2D
  3
Hidden
350
31
  3
JitterOff
350
3F
  3
Linepattern
350
37
  3
OverhangOff
350
40
  3
Realistic
350
33
  3
Shaded
350
3E
  3
Shaded with edges
350
3D
  3
Shades of Gray
350
3A
  3
Sketchy
350
3B
  3
Thicken
350
36
  3
Wireframe
350
30
  3
X-Ray
350
3C
  0
XRECORD
  5
3DD
102
{ACAD_REACTORS
330
C
102
}
330
C
100
AcDbXrecord
280
     1
 90
        1
330
65
  0
DICTIONARY
  5
7C
102
{ACAD_REACTORS
330
C
102
}
330
C
100
AcDbDictionary
281
     1
  3
CANNOSCALE
350
81
  3
CMLEADERSTYLE
350
7E
  3
CTABLESTYLE
350
7D
  3
CVIEWDETAILSTYLE
350
7F
  3
CVIEWSECTIONSTYLE
350
80
  0
DICTIONARY
  5
3D4
102
{ACAD_REACTORS
330
C
102
}
330
C
100
AcDbDictionary
281
     1
  3
DRAWING_TOOL
350
3D8
  3
REVIT_CATEGORY_MAPPING
350
3D6
  3
REVIT_SUB_CATEGORY_MAPPING
350
3D7
  3
REVIT_TYPE_MAPPING
350
3D5
  0
SORTENTSTABLE
  5
3DA
102
{ACAD_REACTORS
330
3D9
102
}
330
3D9
100
AcDbSortentsTable
330
71
  0
ACDBDETAILVIEWSTYLE
  5
6C
102
{ACAD_REACTORS
330
6B
102
}
330
6B
100
AcDbModelDocViewStyle
 70
     0
  3
Imperial24
290
     1
100
AcDbDetailViewStyle
 70
     0
 71
     0
 90
        3
 71
     1
340
55
 62
   256
 40
0.24
340
0
 62
   256
 40
0.24
300

 40
0.36
280
     3
 71
     2
340
5D
 90
       25
 62
   256
 71
     3
340
55
 62
   256
 40
0.24
 90
        1
 40
0.75
 90
        1
300
%<\AcVar ViewType \f "%tc1">% %<\AcVar ViewDetailId>%\PSCALA %<\AcVar ViewScale \f "%sn">%
 71
     4
340
5D
 90
       25
 62
   256
340
5D
 90
       25
 62
   256
280
     0
  0
LAYOUT
  5
70
102
{ACAD_REACTORS
330
62
102
}
330
62
100
AcDbPlotSettings
  1

  2

  4

  6

 40
0.0
 41
0.0
 42
0.0
 43
0.0
 44
0.0
 45
0.0
 46
0.0
 47
0.0
 48
0.0
 49
0.0
140
0.0
141
0.0
142
1.0
143
1.0
 70
   688
 72
     0
 73
     0
 74
     5
  7

 75
    16
147
1.0
 76
     0
 77
     2
 78
   300
148
0.0
149
0.0
100
AcDbLayout
  1
Layout1
 70
     1
 71
     1
 10
0.0
 20
0.0
 11
12.0
 21
9.0
 12
0.0
 22
0.0
 32
0.0
 14
0.0
 24
0.0
 34
0.0
 15
0.0
 25
0.0
 35
0.0
146
0.0
 13
0.0
 23
0.0
 33
0.0
 16
1.0
 26
0.0
 36
0.0
 17
0.0
 27
1.0
 37
0.0
 76
     0
330
6D
  0
LAYOUT
  5
78
102
{ACAD_REACTORS
330
62
102
}
330
62
100
AcDbPlotSettings
  1

  2

  4

  6

 40
0.0
 41
0.0
 42
0.0
 43
0.0
 44
0.0
 45
0.0
 46
0.0
 47
0.0
 48
0.0
 49
0.0
140
0.0
141
0.0
142
1.0
143
1.0
 70
   688
 72
     0
 73
     0
 74
     5
  7

 75
    16
147
1.0
 76
     0
 77
     2
 78
   300
148
0.0
149
0.0
100
AcDbLayout
  1
Layout2
 70
     1
 71
     2
 10
0.0
 20
0.0
 11
12.0
 21
9.0
 12
0.0
 22
0.0
 32
0.0
 14
0.0
 24
0.0
 34
0.0
 15
0.0
 25
0.0
 35
0.0
146
0.0
 13
0.0
 23
0.0
 33
0.0
 16
1.0
 26
0.0
 36
0.0
 17
0.0
 27
1.0
 37
0.0
 76
     0
330
75
  0
LAYOUT
  5
74
102
{ACAD_REACTORS
330
62
102
}
330
62
100
AcDbPlotSettings
  1

  2

  4

  6

 40
0.0
 41
0.0
 42
0.0
 43
0.0
 44
0.0
 45
0.0
 46
0.0
 47
0.0
 48
0.0
 49
0.0
140
0.0
141
0.0
142
1.0
143
1.0
 70
  1712
 72
     0
 73
     0
 74
     0
  7

 75
     0
147
1.0
 76
     0
 77
     2
 78
   300
148
0.0
149
0.0
100
AcDbLayout
  1
Model
 70
     1
 71
     0
 10
0.0
 20
0.0
 11
12.0
 21
9.0
 12
0.0
 22
0.0
 32
0.0
 14
0.0
 24
0.0
 34
0.0
 15
0.0
 25
0.0
 35
0.0
146
0.0
 13
0.0
 23
0.0
 33
0.0
 16
1.0
 26
0.0
 36
0.0
 17
0.0
 27
1.0
 37
0.0
 76
     0
330
71
  0
MATERIAL
  5
19
102
{ACAD_XDICTIONARY
360
1A
102
}
102
{ACAD_REACTORS
330
10
102
}
330
10
100
AcDbMaterial
  1
ByBlock
 72
     0
 43
0.0208333333333333
 43
0.0
 43
0.0
 43
0.0
 43
0.0
 43
0.0208333333333333
 43
0.0
 43
0.0
 43
0.0
 43
0.0
 43
1.0
 43
0.0
 43
0.0
 43
0.0
 43
0.0
 43
1.0
 77
     0
 47
0.0208333333333333
 47
0.0
 47
0.0
 47
0.0
 47
0.0
 47
0.0208333333333333
 47
0.0
 47
0.0
 47
0.0
 47
0.0
 47
1.0
 47
0.0
 47
0.0
 47
0.0
 47
0.0
 47
1.0
171
     0
 49
0.0208333333333333
 49
0.0
 49
0.0
 49
0.0
 49
0.0
 49
0.0208333333333333
 49
0.0
 49
0.0
 49
0.0
 49
0.0
 49
1.0
 49
0.0
 49
0.0
 49
0.0
 49
0.0
 49
1.0
175
     0
142
0.0208333333333333
142
0.0
142
0.0
142
0.0
142
0.0
142
0.0208333333333333
142
0.0
142
0.0
142
0.0
142
0.0
142
1.0
142
0.0
142
0.0
142
0.0
142
0.0
142
1.0
179
     0
144
0.0208333333333333
144
0.0
144
0.0
144
0.0
144
0.0
144
0.0208333333333333
144
0.0
144
0.0
144
0.0
144
0.0
144
1.0
144
0.0
144
0.0
144
0.0
144
0.0
144
1.0
147
0.0208333333333333
147
0.0
147
0.0
147
0.0
147
0.0
147
0.0208333333333333
147
0.0
147
0.0
147
0.0
147
0.0
147
1.0
147
0.0
147
0.0
147
0.0
147
0.0
147
1.0
  0
MATERIAL
  5
11
102
{ACAD_XDICTIONARY
360
12
102
}
102
{ACAD_REACTORS
330
10
102
}
330
10
100
AcDbMaterial
  1
ByLayer
 72
     0
 43
0.0208333333333333
 43
0.0
 43
0.0
 43
0.0
 43
0.0
 43
0.0208333333333333
 43
0.0
 43
0.0
 43
0.0
 43
0.0
 43
1.0
 43
0.0
 43
0.0
 43
0.0
 43
0.0
 43
1.0
 77
     0
 47
0.0208333333333333
 47
0.0
 47
0.0
 47
0.0
 47
0.0
 47
0.0208333333333333
 47
0.0
 47
0.0
 47
0.0
 47
0.0
 47
1.0
 47
0.0
 47
0.0
 47
0.0
 47
0.0
 47
1.0
171
     0
 49
0.0208333333333333
 49
0.0
 49
0.0
 49
0.0
 49
0.0
 49
0.0208333333333333
 49
0.0
 49
0.0
 49
0.0
 49
0.0
 49
1.0
 49
0.0
 49
0.0
 49
0.0
 49
0.0
 49
1.0
175
     0
142
0.0208333333333333
142
0.0
142
0.0
142
0.0
142
0.0
142
0.0208333333333333
142
0.0
142
0.0
142
0.0
142
0.0
142
1.0
142
0.0
142
0.0
142
0.0
142
0.0
142
1.0
179
     0
144
0.0208333333333333
144
0.0
144
0.0
144
0.0
144
0.0
144
0.0208333333333333
144
0.0
144
0.0
144
0.0
144
0.0
144
1.0
144
0.0
144
0.0
144
0.0
144
0.0
144
1.0
147
0.0208333333333333
147
0.0
147
0.0
147
0.0
147
0.0
147
0.0208333333333333
147
0.0
147
0.0
147
0.0
147
0.0
147
1.0
147
0.0
147
0.0
147
0.0
147
0.0
147
1.0
  0
MATERIAL
  5
21
102
{ACAD_XDICTIONARY
360
22
102
}
102
{ACAD_REACTORS
330
10
102
}
330
10
100
AcDbMaterial
  1
Global
 72
     0
 43
0.0208333333333333
 43
0.0
 43
0.0
 43
0.0
 43
0.0
 43
0.0208333333333333
 43
0.0
 43
0.0
 43
0.0
 43
0.0
 43
1.0
 43
0.0
 43
0.0
 43
0.0
 43
0.0
 43
1.0
 77
     0
 47
0.0208333333333333
 47
0.0
 47
0.0
 47
0.0
 47
0.0
 47
0.0208333333333333
 47
0.0
 47
0.0
 47
0.0
 47
0.0
 47
1.0
 47
0.0
 47
0.0
 47
0.0
 47
0.0
 47
1.0
171
     0
 49
0.0208333333333333
 49
0.0
 49
0.0
 49
0.0
 49
0.0
 49
0.0208333333333333
 49
0.0
 49
0.0
 49
0.0
 49
0.0
 49
1.0
 49
0.0
 49
0.0
 49
0.0
 49
0.0
 49
1.0
175
     0
142
0.0208333333333333
142
0.0
142
0.0
142
0.0
142
0.0
142
0.0208333333333333
142
0.0
142
0.0
142
0.0
142
0.0
142
1.0
142
0.0
142
0.0
142
0.0
142
0.0
142
1.0
179
     0
144
0.0208333333333333
144
0.0
144
0.0
144
0.0
144
0.0
144
0.0208333333333333
144
0.0
144
0.0
144
0.0
144
0.0
144
1.0
144
0.0
144
0.0
144
0.0
144
0.0
144
1.0
147
0.0208333333333333
147
0.0
147
0.0
147
0.0
147
0.0
147
0.0208333333333333
147
0.0
147
0.0
147
0.0
147
0.0
147
1.0
147
0.0
147
0.0
147
0.0
147
0.0
147
1.0
  0
MLEADERSTYLE
  5
67
102
{ACAD_REACTORS
330
66
102
}
330
66
100
AcDbMLeaderStyle
179
     2
170
     2
171
     1
172
     0
 90
        2
 40
0.0
 41
0.0
173
     1
 91
-1056964608
340
5B
 92
       -2
290
     1
 42
0.09
291
     1
 43
0.36
  3
Standard
 44
0.18
300

342
55
174
     1
178
     6
175
     1
176
     0
 93
-1056964608
 45
0.18
292
     0
297
     0
 46
0.18
 94
-1056964608
 47
1.0
 49
1.0
140
1.0
293
     1
141
0.0
294
     1
177
     0
142
1.0
295
     1
296
     0
143
0.125
271
     0
272
     9
273
     9
298
     1
  0
MLINESTYLE
  5
60
102
{ACAD_REACTORS
330
5F
102
}
330
5F
100
AcDbMlineStyle
  2
STANDARD
 70
     0
  3

 62
   256
 51
90.0
 52
90.0
 71
     2
 49
0.5
 62
   256
  6
BYLAYER
 49
-0.5
 62
   256
  6
BYLAYER
  0
ACDBPLACEHOLDER
  5
F
102
{ACAD_REACTORS
330
E
102
}
330
E
  0
SCALE
  5
43
102
{ACAD_REACTORS
330
42
102
}
330
42
100
AcDbScale
 70
     0
300
1:1
140
1.0
141
1.0
290
     1
  0
SCALE
  5
44
102
{ACAD_REACTORS
330
42
102
}
330
42
100
AcDbScale
 70
     0
300
1/128" = 1'-0"
140
0.0078125
141
12.0
290
     0
  0
SCALE
  5
45
102
{ACAD_REACTORS
330
42
102
}
330
42
100
AcDbScale
 70
     0
300
1/64" = 1'-0"
140
0.015625
141
12.0
290
     0
  0
SCALE
  5
46
102
{ACAD_REACTORS
330
42
102
}
330
42
100
AcDbScale
 70
     0
300
1/32" = 1'-0"
140
0.03125
141
12.0
290
     0
  0
SCALE
  5
47
102
{ACAD_REACTORS
330
42
102
}
330
42
100
AcDbScale
 70
     0
300
1/16" = 1'-0"
140
0.0625
141
12.0
290
     0
  0
SCALE
  5
48
102
{ACAD_REACTORS
330
42
102
}
330
42
100
AcDbScale
 70
     0
300
3/32" = 1'-0"
140
0.09375
141
12.0
290
     0
  0
SCALE
  5
49
102
{ACAD_REACTORS
330
42
102
}
330
42
100
AcDbScale
 70
     0
300
1/8" = 1'-0"
140
0.125
141
12.0
290
     0
  0
SCALE
  5
4A
102
{ACAD_REACTORS
330
42
102
}
330
42
100
AcDbScale
 70
     0
300
3/16" = 1'-0"
140
0.1875
141
12.0
290
     0
  0
SCALE
  5
4B
102
{ACAD_REACTORS
330
42
102
}
330
42
100
AcDbScale
 70
     0
300
1/4" = 1'-0"
140
0.25
141
12.0
290
     0
  0
SCALE
  5
4C
102
{ACAD_REACTORS
330
42
102
}
330
42
100
AcDbScale
 70
     0
300
3/8" = 1'-0"
140
0.375
141
12.0
290
     0
  0
SCALE
  5
4D
102
{ACAD_REACTORS
330
42
102
}
330
42
100
AcDbScale
 70
     0
300
1/2" = 1'-0"
140
0.5
141
12.0
290
     0
  0
SCALE
  5
4E
102
{ACAD_REACTORS
330
42
102
}
330
42
100
AcDbScale
 70
     0
300
3/4" = 1'-0"
140
0.75
141
12.0
290
     0
  0
SCALE
  5
4F
102
{ACAD_REACTORS
330
42
102
}
330
42
100
AcDbScale
 70
     0
300
1" = 1'-0"
140
1.0
141
12.0
290
     0
  0
SCALE
  5
50
102
{ACAD_REACTORS
330
42
102
}
330
42
100
AcDbScale
 70
     0
300
1-1/2" = 1'-0"
140
1.5
141
12.0
290
     0
  0
SCALE
  5
51
102
{ACAD_REACTORS
330
42
102
}
330
42
100
AcDbScale
 70
     0
300
3" = 1'-0"
140
3.0
141
12.0
290
     0
  0
SCALE
  5
52
102
{ACAD_REACTORS
330
42
102
}
330
42
100
AcDbScale
 70
     0
300
6" = 1'-0"
140
6.0
141
12.0
290
     0
  0
SCALE
  5
53
102
{ACAD_REACTORS
330
42
102
}
330
42
100
AcDbScale
 70
     0
300
1'-0" = 1'-0"
140
12.0
141
12.0
290
     0
  0
ACDBSECTIONVIEWSTYLE
  5
6A
102
{ACAD_REACTORS
330
68
102
}
330
68
100
AcDbModelDocViewStyle
 70
     0
  3
Imperial24
290
     1
100
AcDbSectionViewStyle
 70
     0
 71
     0
 90
       78
 71
     1
340
55
 62
   256
 40
0.24
340
0
340
0
 62
   256
 40
0.24
300
I, O, Q, S, X, Z
 40
0.48
 90
        3
 40
0.18
 90
        1
 71
     2
340
69
 90
       25
 62
   256
340
5D
 90
       50
 62
   256
 40
0.24
 40
0.0
 40
0.24
 71
     3
340
55
 62
   256
 40
0.24
 90
        1
 40
0.75
 90
        1
300
%<\AcVar ViewType \f "%tc1">% %<\AcVar ViewSectionStartId>%-%<\AcVar ViewSectionEndId>%\PSCALA %<\AcVar ViewScale \f "%sn">%
 71
     4
 62
   256
 62
   257
300
ANSI31
 40
1.0
 90
        0
290
     0
290
     0
 90
        6
 40
0.0
 40
1.570796326794896
 40
0.2617993877991494
 40
1.308996938995747
 40
-0.2617993877991494
 40
1.832595714594046
  0
TABLESTYLE
  5
65
102
{ACAD_XDICTIONARY
360
3DB
102
}
102
{ACAD_REACTORS
330
64
102
}
330
64
100
AcDbTableStyle
280
     0
  3
Standard
 70
     0
 71
     0
 40
0.06
 41
0.06
280
     0
281
     0
  7
Standard
140
0.18
170
     2
 62
     0
 63
     7
283
     0
 90
      512
 91
        0
  1

274
    -2
284
     1
 64
     0
275
    -2
285
     1
 65
     0
276
    -2
286
     1
 66
     0
277
    -2
287
     1
 67
     0
278
    -2
288
     1
 68
     0
279
    -2
289
     1
 69
     0
  7
Standard
140
0.25
170
     5
 62
     0
 63
     7
283
     0
 90
      512
 91
        0
  1

274
    -2
284
     1
 64
     0
275
    -2
285
     1
 65
     0
276
    -2
286
     1
 66
     0
277
    -2
287
     1
 67
     0
278
    -2
288
     1
 68
     0
279
    -2
289
     1
 69
     0
  7
Standard
140
0.18
170
     5
 62
     0
 63
     7
283
     0
 90
      512
 91
        0
  1

274
    -2
284
     1
 64
     0
275
    -2
285
     1
 65
     0
276
    -2
286
     1
 66
     0
277
    -2
287
     1
 67
     0
278
    -2
288
     1
 68
     0
279
    -2
289
     1
 69
     0
  0
VISUALSTYLE
  5
2F
102
{ACAD_REACTORS
330
29
102
}
330
29
100
AcDbVisualStyle
  2
2dWireframe
 70
     4
177
     3
291
     0
 70
    58
 90
        0
176
     1
 90
        2
176
     1
 90
        0
176
     1
 90
        0
176
     1
 40
0.6
176
     1
 40
30.0
176
     1
 62
     7
420
 16777215
176
     1
 90
        1
176
     1
 90
        4
176
     1
 62
     7
176
     1
 62
   257
176
     1
 90
        1
176
     1
 90
        1
176
     1
 40
1.0
176
     1
 90
        0
176
     1
 62
   257
176
     1
 40
1.0
176
     1
 90
        1
176
     1
 90
        6
176
     1
 90
        2
176
     1
 62
     7
176
     1
 90
        5
176
     1
 90
        0
176
     1
 90
        0
176
     1
290
     0
176
     1
 90
        1
176
     1
 40
0.0
176
     1
 90
        0
176
     1
290
     1
176
     1
290
     1
176
     1
290
     0
176
     1
290
     0
176
     1
290
     0
176
     1
290
     0
176
     1
290
     0
176
     1
290
     0
176
     1
290
     0
176
     1
 90
       50
176
     1
 40
0.0
176
     1
 40
1.0
176
     1
 90
        0
176
     1
 62
    18
420
        0
176
     1
 90
       50
176
     1
 90
        3
176
     1
 62
     5
420
      255
176
     1
290
     0
176
     1
 90
       50
176
     1
 90
       50
176
     1
 90
       50
176
     1
290
     0
176
     1
 90
       50
176
     1
 62
   256
176
     0
 40
1.0
176
     0
 90
        2
176
     1
  1
strokes_ogs.tif
176
     1
290
     0
176
     1
 40
1.0
176
     1
 40
1.0
176
     1
  0
VISUALSTYLE
  5
2E
102
{ACAD_REACTORS
330
29
102
}
330
29
100
AcDbVisualStyle
  2
Basic
 70
     7
177
     3
291
     1
 70
    58
 90
        1
176
     1
 90
        0
176
     1
 90
        1
176
     1
 90
        0
176
     1
 40
0.6
176
     1
 40
30.0
176
     1
 62
     7
420
 16777215
176
     1
 90
        0
176
     1
 90
        4
176
     1
 62
     7
176
     1
 62
   257
176
     1
 90
        1
176
     1
 90
        1
176
     1
 40
1.0
176
     1
 90
        8
176
     1
 62
     7
176
     1
 40
1.0
176
     1
 90
        1
176
     1
 90
        6
176
     1
 90
        2
176
     1
 62
     7
176
     1
 90
        5
176
     1
 90
        0
176
     1
 90
        0
176
     1
290
     0
176
     1
 90
        1
176
     1
 40
0.0
176
     1
 90
        0
176
     1
290
     0
176
     1
290
     1
176
     1
290
     1
176
     1
290
     0
176
     1
290
     0
176
     1
290
     0
176
     1
290
     0
176
     1
290
     0
176
     1
290
     0
176
     1
 90
       50
176
     1
 40
0.0
176
     1
 40
1.0
176
     1
 90
        0
176
     1
 62
    18
420
        0
176
     1
 90
       50
176
     1
 90
        3
176
     1
 62
     5
420
      255
176
     1
290
     0
176
     1
 90
       50
176
     1
 90
       50
176
     1
 90
       50
176
     1
290
     0
176
     1
 90
       50
176
     1
 62
   256
176
     0
 40
1.0
176
     0
 90
        2
176
     1
  1
strokes_ogs.tif
176
     1
290
     0
176
     1
 40
1.0
176
     1
 40
1.0
176
     1
  0
VISUALSTYLE
  5
35
102
{ACAD_REACTORS
330
29
102
}
330
29
100
AcDbVisualStyle
  2
Brighten
 70
    12
177
     3
291
     1
 70
    58
 90
        2
176
     1
 90
        2
176
     1
 90
        0
176
     1
 90
        0
176
     1
 40
0.6
176
     1
 40
30.0
176
     1
 62
     7
420
 16777215
176
     1
 90
        1
176
     1
 90
        4
176
     1
 62
     7
176
     1
 62
   257
176
     1
 90
        1
176
     1
 90
        1
176
     1
 40
1.0
176
     1
 90
        8
176
     1
 62
     7
176
     1
 40
1.0
176
     1
 90
        1
176
     1
 90
        6
176
     1
 90
        2
176
     1
 62
     7
176
     1
 90
        5
176
     1
 90
        0
176
     1
 90
        0
176
     1
290
     0
176
     1
 90
        1
176
     1
 40
50.0
176
     1
 90
        0
176
     1
290
     0
176
     1
290
     1
176
     1
290
     1
176
     1
290
     0
176
     1
290
     0
176
     1
290
     0
176
     1
290
     0
176
     1
290
     0
176
     1
290
     0
176
     1
 90
       50
176
     1
 40
0.0
176
     1
 40
1.0
176
     1
 90
        0
176
     1
 62
    18
420
        0
176
     1
 90
       50
176
     1
 90
        3
176
     1
 62
     5
420
      255
176
     1
290
     0
176
     1
 90
       50
176
     1
 90
       50
176
     1
 90
       50
176
     1
290
     0
176
     1
 90
       50
176
     1
 62
   256
176
     0
 40
1.0
176
     0
 90
        2
176
     1
  1
strokes_ogs.tif
176
     1
290
     0
176
     1
 40
1.0
176
     1
 40
1.0
176
     1
  0
VISUALSTYLE
  5
39
102
{ACAD_REACTORS
330
29
102
}
330
29
100
AcDbVisualStyle
  2
ColorChange
 70
    16
177
     3
291
     1
 70
    58
 90
        2
176
     1
 90
        2
176
     1
 90
        3
176
     1
 90
        0
176
     1
 40
0.6
176
     1
 40
30.0
176
     1
 62
     8
420
  8421504
176
     1
 90
        1
176
     1
 90
        4
176
     1
 62
     7
176
     1
 62
   257
176
     1
 90
        1
176
     1
 90
        1
176
     1
 40
1.0
176
     1
 90
        8
176
     1
 62
     8
420
  8421504
176
     1
 40
1.0
176
     1
 90
        1
176
     1
 90
        6
176
     1
 90
        2
176
     1
 62
     7
176
     1
 90
        5
176
     1
 90
        0
176
     1
 90
        0
176
     1
290
     0
176
     1
 90
        1
176
     1
 40
0.0
176
     1
 90
        0
176
     1
290
     0
176
     1
290
     1
176
     1
290
     1
176
     1
290
     0
176
     1
290
     0
176
     1
290
     0
176
     1
290
     0
176
     1
290
     0
176
     1
290
     0
176
     1
 90
       50
176
     1
 40
0.0
176
     1
 40
1.0
176
     1
 90
        0
176
     1
 62
    18
420
        0
176
     1
 90
       50
176
     1
 90
        3
176
     1
 62
     5
420
      255
176
     1
290
     0
176
     1
 90
       50
176
     1
 90
       50
176
     1
 90
       50
176
     1
290
     0
176
     1
 90
       50
176
     1
 62
   256
176
     0
 40
1.0
176
     0
 90
        2
176
     1
  1
strokes_ogs.tif
176
     1
290
     0
176
     1
 40
1.0
176
     1
 40
1.0
176
     1
  0
VISUALSTYLE
  5
32
102
{ACAD_REACTORS
330
29
102
}
330
29
100
AcDbVisualStyle
  2
Conceptual
 70
     9
177
     3
291
     0
 70
    58
 90
        3
176
     1
 90
        2
176
     1
 90
        0
176
     1
 90
        0
176
     1
 40
0.6
176
     1
 40
30.0
176
     1
 62
     7
420
 16777215
176
     1
 90
        2
176
     1
 90
        2
176
     1
 62
     7
176
     1
 62
   257
176
     1
 90
        1
176
     1
 90
        1
176
     1
 40
179.0
176
     1
 90
        8
176
     1
 62
     7
176
     1
 40
1.0
176
     1
 90
        1
176
     1
 90
        6
176
     1
 90
        2
176
     1
 62
     7
176
     1
 90
        3
176
     1
 90
        0
176
     1
 90
        0
176
     1
290
     0
176
     1
 90
        1
176
     1
 40
0.0
176
     1
 90
        0
176
     1
290
     0
176
     1
290
     1
176
     1
290
     1
176
     1
290
     0
176
     1
290
     0
176
     1
290
     0
176
     1
290
     0
176
     1
290
     0
176
     1
290
     0
176
     1
 90
       50
176
     1
 40
0.0
176
     1
 40
1.0
176
     1
 90
        0
176
     1
 62
    18
420
        0
176
     1
 90
       50
176
     1
 90
        3
176
     1
 62
     5
420
      255
176
     1
290
     0
176
     1
 90
       50
176
     1
 90
       50
176
     1
 90
       50
176
     1
290
     0
176
     1
 90
       50
176
     1
 62
   256
176
     0
 40
1.0
176
     0
 90
        2
176
     1
  1
strokes_ogs.tif
176
     1
290
     0
176
     1
 40
1.0
176
     1
 40
1.0
176
     1
  0
VISUALSTYLE
  5
34
102
{ACAD_REACTORS
330
29
102
}
330
29
100
AcDbVisualStyle
  2
Dim
 70
    11
177
     3
291
     1
 70
    58
 90
        2
176
     1
 90
        2
176
     1
 90
        0
176
     1
 90
        0
176
     1
 40
0.6
176
     1
 40
30.0
176
     1
 62
     7
420
 16777215
176
     1
 90
        1
176
     1
 90
        4
176
     1
 62
     7
176
     1
 62
   257
176
     1
 90
        1
176
     1
 90
        1
176
     1
 40
1.0
176
     1
 90
        8
176
     1
 62
     7
176
     1
 40
1.0
176
     1
 90
        1
176
     1
 90
        6
176
     1
 90
        2
176
     1
 62
     7
176
     1
 90
        5
176
     1
 90
        0
176
     1
 90
        0
176
     1
290
     0
176
     1
 90
        1
176
     1
 40
-50.0
176
     1
 90
        0
176
     1
290
     0
176
     1
290
     1
176
     1
290
     1
176
     1
290
     0
176
     1
290
     0
176
     1
290
     0
176
     1
290
     0
176
     1
290
     0
176
     1
290
     0
176
     1
 90
       50
176
     1
 40
0.0
176
     1
 40
1.0
176
     1
 90
        0
176
     1
 62
    18
420
        0
176
     1
 90
       50
176
     1
 90
        3
176
     1
 62
     5
420
      255
176
     1
290
     0
176
     1
 90
       50
176
     1
 90
       50
176
     1
 90
       50
176
     1
290
     0
176
     1
 90
       50
176
     1
 62
   256
176
     0
 40
1.0
176
     0
 90
        2
176
     1
  1
strokes_ogs.tif
176
     1
290
     0
176
     1
 40
1.0
176
     1
 40
1.0
176
     1
  0
VISUALSTYLE
  5
41
102
{ACAD_REACTORS
330
29
102
}
330
29
100
AcDbVisualStyle
  2
EdgeColorOff
 70
    22
177
     3
291
     1
 70
    58
 90
        2
176
     0
 90
        2
176
     0
 90
        0
176
     0
 90
        0
176
     0
 40
0.6
176
     0
 40
30.0
176
     0
 62
     7
420
 16777215
176
     0
 90
        1
176
     0
 90
        4
176
     0
 62
     7
176
     0
 62
   257
176
     0
 90
        1
176
     0
 90
        1
176
     0
 40
1.0
176
     0
 90
        8
176
     2
 62
     7
176
     0
 40
1.0
176
     0
 90
        1
176
     0
 90
        6
176
     0
 90
        2
176
     0
 62
     7
176
     0
 90
        5
176
     0
 90
        0
176
     0
 90
        0
176
     0
290
     0
176
     0
 90
        1
176
     0
 40
0.0
176
     0
 90
        0
176
     0
290
     0
176
     0
290
     1
176
     0
290
     1
176
     0
290
     0
176
     0
290
     0
176
     0
290
     0
176
     0
290
     0
176
     0
290
     0
176
     0
290
     0
176
     0
 90
       50
176
     0
 40
0.0
176
     0
 40
1.0
176
     0
 90
        0
176
     0
 62
    18
420
        0
176
     0
 90
       50
176
     0
 90
        3
176
     0
 62
     5
420
      255
176
     0
290
     0
176
     0
 90
       50
176
     0
 90
       50
176
     0
 90
       50
176
     0
290
     0
176
     0
 90
       50
176
     0
 62
   256
176
     0
 40
1.0
176
     0
 90
        2
176
     0
  1
strokes_ogs.tif
176
     0
290
     0
176
     0
 40
1.0
176
     0
 40
1.0
176
     0
  0
VISUALSTYLE
  5
38
102
{ACAD_REACTORS
330
29
102
}
330
29
100
AcDbVisualStyle
  2
Facepattern
 70
    15
177
     3
291
     1
 70
    58
 90
        2
176
     1
 90
        2
176
     1
 90
        0
176
     1
 90
        0
176
     1
 40
0.6
176
     1
 40
30.0
176
     1
 62
     7
420
 16777215
176
     1
 90
        1
176
     1
 90
        4
176
     1
 62
     7
176
     1
 62
   257
176
     1
 90
        1
176
     1
 90
        1
176
     1
 40
1.0
176
     1
 90
        8
176
     1
 62
     7
176
     1
 40
1.0
176
     1
 90
        1
176
     1
 90
        6
176
     1
 90
        2
176
     1
 62
     7
176
     1
 90
        5
176
     1
 90
        0
176
     1
 90
        0
176
     1
290
     0
176
     1
 90
        1
176
     1
 40
0.0
176
     1
 90
        0
176
     1
290
     0
176
     1
290
     1
176
     1
290
     1
176
     1
290
     0
176
     1
290
     0
176
     1
290
     0
176
     1
290
     0
176
     1
290
     0
176
     1
290
     0
176
     1
 90
       50
176
     1
 40
0.0
176
     1
 40
1.0
176
     1
 90
        0
176
     1
 62
    18
420
        0
176
     1
 90
       50
176
     1
 90
        3
176
     1
 62
     5
420
      255
176
     1
290
     0
176
     1
 90
       50
176
     1
 90
       50
176
     1
 90
       50
176
     1
290
     0
176
     1
 90
       50
176
     1
 62
   256
176
     0
 40
1.0
176
     0
 90
        2
176
     1
  1
strokes_ogs.tif
176
     1
290
     0
176
     1
 40
1.0
176
     1
 40
1.0
176
     1
  0
VISUALSTYLE
  5
2A
102
{ACAD_REACTORS
330
29
102
}
330
29
100
AcDbVisualStyle
  2
Flat
 70
     0
177
     3
291
     1
 70
    58
 90
        2
176
     1
 90
        1
176
     1
 90
        1
176
     1
 90
        2
176
     1
 40
0.6
176
     1
 40
30.0
176
     1
 62
     7
420
 16777215
176
     1
 90
        0
176
     1
 90
        0
176
     1
 62
     7
176
     1
 62
   257
176
     1
 90
        1
176
     1
 90
        1
176
     1
 40
1.0
176
     1
 90
        8
176
     1
 62
     7
176
     1
 40
1.0
176
     1
 90
        1
176
     1
 90
        6
176
     1
 90
        2
176
     1
 62
     7
176
     1
 90
        5
176
     1
 90
        0
176
     1
 90
        0
176
     1
290
     0
176
     1
 90
       13
176
     1
 40
0.0
176
     1
 90
        0
176
     1
290
     0
176
     1
290
     1
176
     1
290
     1
176
     1
290
     0
176
     1
290
     0
176
     1
290
     0
176
     1
290
     0
176
     1
290
     0
176
     1
290
     0
176
     1
 90
       50
176
     1
 40
0.0
176
     1
 40
1.0
176
     1
 90
        0
176
     1
 62
    18
420
        0
176
     1
 90
       50
176
     1
 90
        3
176
     1
 62
     5
420
      255
176
     1
290
     0
176
     1
 90
       50
176
     1
 90
       50
176
     1
 90
       50
176
     1
290
     0
176
     1
 90
       50
176
     1
 62
   256
176
     0
 40
1.0
176
     0
 90
        2
176
     1
  1
strokes_ogs.tif
176
     1
290
     0
176
     1
 40
1.0
176
     1
 40
1.0
176
     1
  0
VISUALSTYLE
  5
2B
102
{ACAD_REACTORS
330
29
102
}
330
29
100
AcDbVisualStyle
  2
FlatWithEdges
 70
     1
177
     3
291
     1
 70
    58
 90
        2
176
     1
 90
        1
176
     1
 90
        1
176
     1
 90
        2
176
     1
 40
0.6
176
     1
 40
30.0
176
     1
 62
     7
420
 16777215
176
     1
 90
        1
176
     1
 90
        0
176
     1
 62
     7
176
     1
 62
   257
176
     1
 90
        1
176
     1
 90
        1
176
     1
 40
1.0
176
     1
 90
        0
176
     1
 62
   257
176
     1
 40
1.0
176
     1
 90
        1
176
     1
 90
        6
176
     1
 90
        2
176
     1
 62
     7
176
     1
 90
        5
176
     1
 90
        0
176
     1
 90
        0
176
     1
290
     0
176
     1
 90
       13
176
     1
 40
0.0
176
     1
 90
        0
176
     1
290
     0
176
     1
290
     1
176
     1
290
     1
176
     1
290
     0
176
     1
290
     0
176
     1
290
     0
176
     1
290
     0
176
     1
290
     0
176
     1
290
     0
176
     1
 90
       50
176
     1
 40
0.0
176
     1
 40
1.0
176
     1
 90
        0
176
     1
 62
    18
420
        0
176
     1
 90
       50
176
     1
 90
        3
176
     1
 62
     5
420
      255
176
     1
290
     0
176
     1
 90
       50
176
     1
 90
       50
176
     1
 90
       50
176
     1
290
     0
176
     1
 90
       50
176
     1
 62
   256
176
     0
 40
1.0
176
     0
 90
        2
176
     1
  1
strokes_ogs.tif
176
     1
290
     0
176
     1
 40
1.0
176
     1
 40
1.0
176
     1
  0
VISUALSTYLE
  5
2C
102
{ACAD_REACTORS
330
29
102
}
330
29
100
AcDbVisualStyle
  2
Gouraud
 70
     2
177
     3
291
     1
 70
    58
 90
        2
176
     1
 90
        2
176
     1
 90
        1
176
     1
 90
        2
176
     1
 40
0.6
176
     1
 40
30.0
176
     1
 62
     7
420
 16777215
176
     1
 90
        0
176
     1
 90
        0
176
     1
 62
     7
176
     1
 62
   257
176
     1
 90
        1
176
     1
 90
        1
176
     1
 40
1.0
176
     1
 90
        0
176
     1
 62
     7
176
     1
 40
1.0
176
     1
 90
        1
176
     1
 90
        6
176
     1
 90
        2
176
     1
 62
     7
176
     1
 90
        5
176
     1
 90
        0
176
     1
 90
        0
176
     1
290
     0
176
     1
 90
       13
176
     1
 40
0.0
176
     1
 90
        0
176
     1
290
     0
176
     1
290
     1
176
     1
290
     1
176
     1
290
     0
176
     1
290
     0
176
     1
290
     0
176
     1
290
     0
176
     1
290
     0
176
     1
290
     0
176
     1
 90
       50
176
     1
 40
0.0
176
     1
 40
1.0
176
     1
 90
        0
176
     1
 62
    18
420
        0
176
     1
 90
       50
176
     1
 90
        3
176
     1
 62
     5
420
      255
176
     1
290
     0
176
     1
 90
       50
176
     1
 90
       50
176
     1
 90
       50
176
     1
290
     0
176
     1
 90
       50
176
     1
 62
   256
176
     0
 40
1.0
176
     0
 90
        2
176
     1
  1
strokes_ogs.tif
176
     1
290
     0
176
     1
 40
1.0
176
     1
 40
1.0
176
     1
  0
VISUALSTYLE
  5
2D
102
{ACAD_REACTORS
330
29
102
}
330
29
100
AcDbVisualStyle
  2
GouraudWithEdges
 70
     3
177
     3
291
     1
 70
    58
 90
        2
176
     1
 90
        2
176
     1
 90
        1
176
     1
 90
        2
176
     1
 40
0.6
176
     1
 40
30.0
176
     1
 62
     7
420
 16777215
176
     1
 90
        1
176
     1
 90
        0
176
     1
 62
     7
176
     1
 62
   257
176
     1
 90
        1
176
     1
 90
        1
176
     1
 40
1.0
176
     1
 90
        0
176
     1
 62
   257
176
     1
 40
1.0
176
     1
 90
        1
176
     1
 90
        6
176
     1
 90
        2
176
     1
 62
     7
176
     1
 90
        5
176
     1
 90
        0
176
     1
 90
        0
176
     1
290
     0
176
     1
 90
       13
176
     1
 40
0.0
176
     1
 90
        0
176
     1
290
     0
176
     1
290
     1
176
     1
290
     1
176
     1
290
     0
176
     1
290
     0
176
     1
290
     0
176
     1
290
     0
176
     1
290
     0
176
     1
290
     0
176
     1
 90
       50
176
     1
 40
0.0
176
     1
 40
1.0
176
     1
 90
        0
176
     1
 62
    18
420
        0
176
     1
 90
       50
176
     1
 90
        3
176
     1
 62
     5
420
      255
176
     1
290
     0
176
     1
 90
       50
176
     1
 90
       50
176
     1
 90
       50
176
     1
290
     0
176
     1
 90
       50
176
     1
 62
   256
176
     0
 40
1.0
176
     0
 90
        2
176
     1
  1
strokes_ogs.tif
176
     1
290
     0
176
     1
 40
1.0
176
     1
 40
1.0
176
     1
  0
VISUALSTYLE
  5
31
102
{ACAD_REACTORS
330
29
102
}
330
29
100
AcDbVisualStyle
  2
Hidden
 70
     6
177
     3
291
     0
 70
    58
 90
        1
176
     1
 90
        2
176
     1
 90
        2
176
     1
 90
        0
176
     1
 40
0.6
176
     1
 40
30.0
176
     1
 62
     7
420
 16777215
176
     1
 90
        2
176
     1
 90
        2
176
     1
 62
     7
176
     1
 62
   257
176
     1
 90
        2
176
     1
 90
        1
176
     1
 40
40.0
176
     1
 90
        0
176
     1
 62
   257
176
     1
 40
1.0
176
     1
 90
        1
176
     1
 90
        6
176
     1
 90
        2
176
     1
 62
     7
176
     1
 90
        3
176
     1
 90
        0
176
     1
 90
        0
176
     1
290
     0
176
     1
 90
        1
176
     1
 40
0.0
176
     1
 90
        0
176
     1
290
     0
176
     1
290
     1
176
     1
290
     1
176
     1
290
     0
176
     1
290
     0
176
     1
290
     0
176
     1
290
     0
176
     1
290
     0
176
     1
290
     0
176
     1
 90
       50
176
     1
 40
0.0
176
     1
 40
1.0
176
     1
 90
        0
176
     1
 62
    18
420
        0
176
     1
 90
       50
176
     1
 90
        3
176
     1
 62
     5
420
      255
176
     1
290
     0
176
     1
 90
       50
176
     1
 90
       50
176
     1
 90
       50
176
     1
290
     0
176
     1
 90
       50
176
     1
 62
   256
176
     0
 40
1.0
176
     0
 90
        2
176
     1
  1
strokes_ogs.tif
176
     1
290
     0
176
     1
 40
1.0
176
     1
 40
1.0
176
     1
  0
VISUALSTYLE
  5
3F
102
{ACAD_REACTORS
330
29
102
}
330
29
100
AcDbVisualStyle
  2
JitterOff
 70
    20
177
     3
291
     1
 70
    58
 90
        2
176
     0
 90
        2
176
     0
 90
        0
176
     0
 90
        0
176
     0
 40
0.6
176
     0
 40
30.0
176
     0
 62
     7
420
 16777215
176
     0
 90
        1
176
     0
 90
        4
176
     0
 62
     7
176
     0
 62
   257
176
     0
 90
        1
176
     0
 90
        1
176
     0
 40
1.0
176
     0
 90
       10
176
     2
 62
     7
176
     0
 40
1.0
176
     0
 90
        1
176
     0
 90
        6
176
     0
 90
        2
176
     0
 62
     7
176
     0
 90
        5
176
     0
 90
        0
176
     0
 90
        0
176
     0
290
     0
176
     0
 90
        1
176
     0
 40
0.0
176
     0
 90
        0
176
     0
290
     0
176
     0
290
     1
176
     0
290
     1
176
     0
290
     0
176
     0
290
     0
176
     0
290
     0
176
     0
290
     0
176
     0
290
     0
176
     0
290
     0
176
     0
 90
       50
176
     0
 40
0.0
176
     0
 40
1.0
176
     0
 90
        0
176
     0
 62
    18
420
        0
176
     0
 90
       50
176
     0
 90
        3
176
     0
 62
     5
420
      255
176
     0
290
     0
176
     0
 90
       50
176
     0
 90
       50
176
     0
 90
       50
176
     0
290
     0
176
     0
 90
       50
176
     0
 62
   256
176
     0
 40
1.0
176
     0
 90
        2
176
     0
  1
strokes_ogs.tif
176
     0
290
     0
176
     0
 40
1.0
176
     0
 40
1.0
176
     0
  0
VISUALSTYLE
  5
37
102
{ACAD_REACTORS
330
29
102
}
330
29
100
AcDbVisualStyle
  2
Linepattern
 70
    14
177
     3
291
     1
 70
    58
 90
        2
176
     1
 90
        2
176
     1
 90
        0
176
     1
 90
        0
176
     1
 40
0.6
176
     1
 40
30.0
176
     1
 62
     7
420
 16777215
176
     1
 90
        1
176
     1
 90
        4
176
     1
 62
     7
176
     1
 62
   257
176
     1
 90
        7
176
     1
 90
        7
176
     1
 40
1.0
176
     1
 90
        8
176
     1
 62
     7
176
     1
 40
1.0
176
     1
 90
        1
176
     1
 90
        6
176
     1
 90
        2
176
     1
 62
     7
176
     1
 90
        5
176
     1
 90
        0
176
     1
 90
        0
176
     1
290
     0
176
     1
 90
        1
176
     1
 40
0.0
176
     1
 90
        0
176
     1
290
     0
176
     1
290
     1
176
     1
290
     1
176
     1
290
     0
176
     1
290
     0
176
     1
290
     0
176
     1
290
     0
176
     1
290
     0
176
     1
290
     0
176
     1
 90
       50
176
     1
 40
0.0
176
     1
 40
1.0
176
     1
 90
        0
176
     1
 62
    18
420
        0
176
     1
 90
       50
176
     1
 90
        3
176
     1
 62
     5
420
      255
176
     1
290
     0
176
     1
 90
       50
176
     1
 90
       50
176
     1
 90
       50
176
     1
290
     0
176
     1
 90
       50
176
     1
 62
   256
176
     0
 40
1.0
176
     0
 90
        2
176
     1
  1
strokes_ogs.tif
176
     1
290
     0
176
     1
 40
1.0
176
     1
 40
1.0
176
     1
  0
VISUALSTYLE
  5
40
102
{ACAD_REACTORS
330
29
102
}
330
29
100
AcDbVisualStyle
  2
OverhangOff
 70
    21
177
     3
291
     1
 70
    58
 90
        2
176
     0
 90
        2
176
     0
 90
        0
176
     0
 90
        0
176
     0
 40
0.6
176
     0
 40
30.0
176
     0
 62
     7
420
 16777215
176
     0
 90
        1
176
     0
 90
        4
176
     0
 62
     7
176
     0
 62
   257
176
     0
 90
        1
176
     0
 90
        1
176
     0
 40
1.0
176
     0
 90
        9
176
     2
 62
     7
176
     0
 40
1.0
176
     0
 90
        1
176
     0
 90
        6
176
     0
 90
        2
176
     0
 62
     7
176
     0
 90
        5
176
     0
 90
        0
176
     0
 90
        0
176
     0
290
     0
176
     0
 90
        1
176
     0
 40
0.0
176
     0
 90
        0
176
     0
290
     0
176
     0
290
     1
176
     0
290
     1
176
     0
290
     0
176
     0
290
     0
176
     0
290
     0
176
     0
290
     0
176
     0
290
     0
176
     0
290
     0
176
     0
 90
       50
176
     0
 40
0.0
176
     0
 40
1.0
176
     0
 90
        0
176
     0
 62
    18
420
        0
176
     0
 90
       50
176
     0
 90
        3
176
     0
 62
     5
420
      255
176
     0
290
     0
176
     0
 90
       50
176
     0
 90
       50
176
     0
 90
       50
176
     0
290
     0
176
     0
 90
       50
176
     0
 62
   256
176
     0
 40
1.0
176
     0
 90
        2
176
     0
  1
strokes_ogs.tif
176
     0
290
     0
176
     0
 40
1.0
176
     0
 40
1.0
176
     0
  0
VISUALSTYLE
  5
33
102
{ACAD_REACTORS
330
29
102
}
330
29
100
AcDbVisualStyle
  2
Realistic
 70
     8
177
     3
291
     0
 70
    58
 90
        2
176
     1
 90
        3
176
     1
 90
        0
176
     1
 90
        2
176
     1
 40
0.6
176
     1
 40
30.0
176
     1
 62
     7
420
 16777215
176
     1
 90
        0
176
     1
 90
        0
176
     1
 62
     7
176
     1
 62
   257
176
     1
 90
        1
176
     1
 90
        1
176
     1
 40
1.0
176
     1
 90
        8
176
     1
 62
   257
176
     1
 40
1.0
176
     1
 90
        1
176
     1
 90
        6
176
     1
 90
        2
176
     1
 62
     7
176
     1
 90
        3
176
     1
 90
        0
176
     1
 90
        0
176
     1
290
     0
176
     1
 90
       13
176
     1
 40
0.0
176
     1
 90
        0
176
     1
290
     0
176
     1
290
     1
176
     1
290
     1
176
     1
290
     0
176
     1
290
     0
176
     1
290
     0
176
     1
290
     0
176
     1
290
     0
176
     1
290
     0
176
     1
 90
       50
176
     1
 40
0.0
176
     1
 40
1.0
176
     1
 90
        0
176
     1
 62
    18
420
        0
176
     1
 90
       50
176
     1
 90
        3
176
     1
 62
     5
420
      255
176
     1
290
     0
176
     1
 90
       50
176
     1
 90
       50
176
     1
 90
       50
176
     1
290
     0
176
     1
 90
       50
176
     1
 62
   256
176
     0
 40
1.0
176
     0
 90
        2
176
     1
  1
strokes_ogs.tif
176
     1
290
     0
176
     1
 40
1.0
176
     1
 40
1.0
176
     1
  0
VISUALSTYLE
  5
3E
102
{ACAD_REACTORS
330
29
102
}
330
29
100
AcDbVisualStyle
  2
Shaded
 70
    27
177
     3
291
     0
 70
    58
 90
        2
176
     1
 90
        2
176
     1
 90
        1
176
     1
 90
        2
176
     1
 40
0.6
176
     1
 40
30.0
176
     1
 62
     7
420
 16777215
176
     1
 90
        0
176
     1
 90
        4
176
     1
 62
     7
176
     1
 62
   257
176
     1
 90
        1
176
     1
 90
        1
176
     1
 40
1.0
176
     1
 90
        8
176
     1
 62
   257
176
     1
 40
1.0
176
     1
 90
        1
176
     1
 90
        6
176
     1
 90
        2
176
     1
 62
     8
420
  7895160
176
     1
 90
        3
176
     1
 90
        0
176
     1
 90
        0
176
     1
290
     0
176
     1
 90
        5
176
     1
 40
0.0
176
     1
 90
        0
176
     1
290
     0
176
     1
290
     1
176
     1
290
     1
176
     1
290
     0
176
     1
290
     0
176
     1
290
     0
176
     1
290
     0
176
     1
290
     0
176
     1
290
     0
176
     1
 90
       50
176
     1
 40
0.0
176
     1
 40
1.0
176
     1
 90
        0
176
     1
 62
    18
420
        0
176
     1
 90
       50
176
     1
 90
        3
176
     1
 62
     5
420
      255
176
     1
290
     0
176
     1
 90
       50
176
     1
 90
       50
176
     1
 90
       50
176
     1
290
     0
176
     1
 90
       50
176
     1
 62
   256
176
     0
 40
1.0
176
     0
 90
        2
176
     1
  1
strokes_ogs.tif
176
     1
290
     0
176
     1
 40
1.0
176
     1
 40
1.0
176
     1
  0
VISUALSTYLE
  5
3D
102
{ACAD_REACTORS
330
29
102
}
330
29
100
AcDbVisualStyle
  2
Shaded with edges
 70
    26
177
     3
291
     0
 70
    58
 90
        2
176
     1
 90
        2
176
     1
 90
        1
176
     1
 90
        2
176
     1
 40
0.6
176
     1
 40
30.0
176
     1
 62
     7
420
 16777215
176
     1
 90
        1
176
     1
 90
       10
176
     1
 62
     7
176
     1
 62
   257
176
     1
 90
        2
176
     1
 90
        1
176
     1
 40
1.0
176
     1
 90
        8
176
     1
 62
   257
176
     1
 40
1.0
176
     1
 90
        1
176
     1
 90
        6
176
     1
 90
        2
176
     1
 62
     7
176
     1
 90
        3
176
     1
 90
        0
176
     1
 90
        0
176
     1
290
     0
176
     1
 90
        5
176
     1
 40
0.0
176
     1
 90
        0
176
     1
290
     0
176
     1
290
     1
176
     1
290
     1
176
     1
290
     0
176
     1
290
     0
176
     1
290
     0
176
     1
290
     0
176
     1
290
     0
176
     1
290
     0
176
     1
 90
       50
176
     1
 40
0.0
176
     1
 40
1.0
176
     1
 90
        0
176
     1
 62
    18
420
        0
176
     1
 90
       50
176
     1
 90
        3
176
     1
 62
     5
420
      255
176
     1
290
     0
176
     1
 90
       50
176
     1
 90
       50
176
     1
 90
       50
176
     1
290
     0
176
     1
 90
       50
176
     1
 62
   256
176
     0
 40
1.0
176
     0
 90
        2
176
     1
  1
strokes_ogs.tif
176
     1
290
     0
176
     1
 40
1.0
176
     1
 40
1.0
176
     1
  0
VISUALSTYLE
  5
3A
102
{ACAD_REACTORS
330
29
102
}
330
29
100
AcDbVisualStyle
  2
Shades of Gray
 70
    23
177
     3
291
     0
 70
    58
 90
        2
176
     1
 90
        2
176
     1
 90
        3
176
     1
 90
        0
176
     1
 40
0.6
176
     1
 40
30.0
176
     1
 62
     7
420
 16777215
176
     1
 90
        2
176
     1
 90
        2
176
     1
 62
     7
176
     1
 62
     7
176
     1
 90
        1
176
     1
 90
        1
176
     1
 40
40.0
176
     1
 90
        8
176
     1
 62
     7
176
     1
 40
1.0
176
     1
 90
        1
176
     1
 90
        6
176
     1
 90
        2
176
     1
 62
     7
176
     1
 90
        3
176
     1
 90
        0
176
     1
 90
        0
176
     1
290
     0
176
     1
 90
        1
176
     1
 40
0.0
176
     1
 90
        0
176
     1
290
     0
176
     1
290
     1
176
     1
290
     1
176
     1
290
     0
176
     1
290
     0
176
     1
290
     0
176
     1
290
     0
176
     1
290
     0
176
     1
290
     0
176
     1
 90
       50
176
     1
 40
0.0
176
     1
 40
1.0
176
     1
 90
        0
176
     1
 62
    18
420
        0
176
     1
 90
       50
176
     1
 90
        3
176
     1
 62
     5
420
      255
176
     1
290
     0
176
     1
 90
       50
176
     1
 90
       50
176
     1
 90
       50
176
     1
290
     0
176
     1
 90
       50
176
     1
 62
   256
176
     0
 40
1.0
176
     0
 90
        2
176
     1
  1
strokes_ogs.tif
176
     1
290
     0
176
     1
 40
1.0
176
     1
 40
1.0
176
     1
  0
VISUALSTYLE
  5
3B
102
{ACAD_REACTORS
330
29
102
}
330
29
100
AcDbVisualStyle
  2
Sketchy
 70
    24
177
     3
291
     0
 70
    58
 90
        1
176
     1
 90
        2
176
     1
 90
        2
176
     1
 90
        0
176
     1
 40
0.6
176
     1
 40
30.0
176
     1
 62
     7
420
 16777215
176
     1
 90
        2
176
     1
 90
        2
176
     1
 62
     7
176
     1
 62
     7
176
     1
 90
        1
176
     1
 90
        1
176
     1
 40
40.0
176
     1
 90
       11
176
     1
 62
     7
176
     1
 40
1.0
176
     1
 90
        1
176
     1
 90
        6
176
     1
 90
        2
176
     1
 62
     7
176
     1
 90
        6
176
     1
 90
        0
176
     1
 90
        0
176
     1
290
     0
176
     1
 90
        1
176
     1
 40
0.0
176
     1
 90
        0
176
     1
290
     0
176
     1
290
     1
176
     1
290
     1
176
     1
290
     0
176
     1
290
     0
176
     1
290
     0
176
     1
290
     0
176
     1
290
     0
176
     1
290
     0
176
     1
 90
       50
176
     1
 40
0.0
176
     1
 40
1.0
176
     1
 90
        0
176
     1
 62
    18
420
        0
176
     1
 90
       50
176
     1
 90
        3
176
     1
 62
     5
420
      255
176
     1
290
     0
176
     1
 90
       50
176
     1
 90
       50
176
     1
 90
       50
176
     1
290
     0
176
     1
 90
       50
176
     1
 62
   256
176
     0
 40
1.0
176
     0
 90
        2
176
     1
  1
strokes_ogs.tif
176
     1
290
     0
176
     1
 40
1.0
176
     1
 40
1.0
176
     1
  0
VISUALSTYLE
  5
36
102
{ACAD_REACTORS
330
29
102
}
330
29
100
AcDbVisualStyle
  2
Thicken
 70
    13
177
     3
291
     1
 70
    58
 90
        2
176
     1
 90
        2
176
     1
 90
        0
176
     1
 90
        0
176
     1
 40
0.6
176
     1
 40
30.0
176
     1
 62
     7
420
 16777215
176
     1
 90
        1
176
     1
 90
        4
176
     1
 62
     7
176
     1
 62
   257
176
     1
 90
        1
176
     1
 90
        1
176
     1
 40
1.0
176
     1
 90
       12
176
     1
 62
     7
176
     1
 40
1.0
176
     1
 90
        1
176
     1
 90
        6
176
     1
 90
        2
176
     1
 62
     7
176
     1
 90
        5
176
     1
 90
        0
176
     1
 90
        0
176
     1
290
     0
176
     1
 90
        1
176
     1
 40
0.0
176
     1
 90
        0
176
     1
290
     0
176
     1
290
     1
176
     1
290
     1
176
     1
290
     0
176
     1
290
     0
176
     1
290
     0
176
     1
290
     0
176
     1
290
     0
176
     1
290
     0
176
     1
 90
       50
176
     1
 40
0.0
176
     1
 40
1.0
176
     1
 90
        0
176
     1
 62
    18
420
        0
176
     1
 90
       50
176
     1
 90
        3
176
     1
 62
     5
420
      255
176
     1
290
     0
176
     1
 90
       50
176
     1
 90
       50
176
     1
 90
       50
176
     1
290
     0
176
     1
 90
       50
176
     1
 62
   256
176
     0
 40
1.0
176
     0
 90
        2
176
     1
  1
strokes_ogs.tif
176
     1
290
     0
176
     1
 40
1.0
176
     1
 40
1.0
176
     1
  0
VISUALSTYLE
  5
30
102
{ACAD_REACTORS
330
29
102
}
330
29
100
AcDbVisualStyle
  2
Wireframe
 70
     5
177
     3
291
     0
 70
    58
 90
        0
176
     1
 90
        2
176
     1
 90
        0
176
     1
 90
        0
176
     1
 40
0.6
176
     1
 40
30.0
176
     1
 62
     7
420
 16777215
176
     1
 90
        1
176
     1
 90
        4
176
     1
 62
     7
176
     1
 62
   257
176
     1
 90
        1
176
     1
 90
        1
176
     1
 40
1.0
176
     1
 90
        0
176
     1
 62
   257
176
     1
 40
1.0
176
     1
 90
        1
176
     1
 90
        6
176
     1
 90
        2
176
     1
 62
     7
176
     1
 90
        3
176
     1
 90
        0
176
     1
 90
        0
176
     1
290
     0
176
     1
 90
        1
176
     1
 40
0.0
176
     1
 90
        0
176
     1
290
     0
176
     1
290
     1
176
     1
290
     1
176
     1
290
     0
176
     1
290
     0
176
     1
290
     0
176
     1
290
     0
176
     1
290
     0
176
     1
290
     0
176
     1
 90
       50
176
     1
 40
0.0
176
     1
 40
1.0
176
     1
 90
        0
176
     1
 62
    18
420
        0
176
     1
 90
       50
176
     1
 90
        3
176
     1
 62
     5
420
      255
176
     1
290
     0
176
     1
 90
       50
176
     1
 90
       50
176
     1
 90
       50
176
     1
290
     0
176
     1
 90
       50
176
     1
 62
   256
176
     0
 40
1.0
176
     0
 90
        2
176
     1
  1
strokes_ogs.tif
176
     1
290
     0
176
     1
 40
1.0
176
     1
 40
1.0
176
     1
  0
VISUALSTYLE
  5
3C
102
{ACAD_REACTORS
330
29
102
}
330
29
100
AcDbVisualStyle
  2
X-Ray
 70
    25
177
     3
291
     0
 70
    58
 90
        2
176
     1
 90
        2
176
     1
 90
        1
176
     1
 90
        1
176
     1
 40
0.5
176
     1
 40
30.0
176
     1
 62
     7
420
 16777215
176
     1
 90
        1
176
     1
 90
        0
176
     1
 62
     7
176
     1
 62
   257
176
     1
 90
        1
176
     1
 90
        1
176
     1
 40
1.0
176
     1
 90
        8
176
     1
 62
     7
176
     1
 40
1.0
176
     1
 90
        1
176
     1
 90
        6
176
     1
 90
        2
176
     1
 62
     7
176
     1
 90
        3
176
     1
 90
        0
176
     1
 90
        0
176
     1
290
     0
176
     1
 90
       13
176
     1
 40
0.0
176
     1
 90
        0
176
     1
290
     0
176
     1
290
     1
176
     1
290
     1
176
     1
290
     0
176
     1
290
     0
176
     1
290
     0
176
     1
290
     0
176
     1
290
     0
176
     1
290
     0
176
     1
 90
       50
176
     1
 40
0.0
176
     1
 40
1.0
176
     1
 90
        0
176
     1
 62
    18
420
        0
176
     1
 90
       50
176
     1
 90
        3
176
     1
 62
     5
420
      255
176
     1
290
     0
176
     1
 90
       50
176
     1
 90
       50
176
     1
 90
       50
176
     1
290
     0
176
     1
 90
       50
176
     1
 62
   256
176
     0
 40
1.0
176
     0
 90
        2
176
     1
  1
strokes_ogs.tif
176
     1
290
     0
176
     1
 40
1.0
176
     1
 40
1.0
176
     1
  0
DICTIONARYVAR
  5
81
102
{ACAD_REACTORS
330
7C
102
}
330
7C
100
DictionaryVariables
280
     0
  1
1:1
  0
DICTIONARYVAR
  5
7E
102
{ACAD_REACTORS
330
7C
102
}
330
7C
100
DictionaryVariables
280
     0
  1
STANDARD
  0
DICTIONARYVAR
  5
7D
102
{ACAD_REACTORS
330
7C
102
}
330
7C
100
DictionaryVariables
280
     0
  1
STANDARD
  0
DICTIONARYVAR
  5
7F
102
{ACAD_REACTORS
330
7C
102
}
330
7C
100
DictionaryVariables
280
     0
  1
Imperial24
  0
DICTIONARYVAR
  5
80
102
{ACAD_REACTORS
330
7C
102
}
330
7C
100
DictionaryVariables
280
     0
  1
Imperial24
  0
XRECORD
  5
3D8
102
{ACAD_REACTORS
330
3D4
102
}
330
3D4
100
AcDbXrecord
280
     1
  1
BUILDING_ID
  1
Progetto per messa in tavola DXF, DWG
  1
FLOOR_ID
  1
694395
  0
XRECORD
  5
3D6
102
{ACAD_REACTORS
330
3D4
102
}
330
3D4
100
AcDbXrecord
280
     1
  1
-2001160
  1
Apparecchi idraulici
  0
XRECORD
  5
3D7
102
{ACAD_REACTORS
330
3D4
102
}
330
3D4
100
AcDbXrecord
280
     1
  1
923097
  1
Handle
  1
923236
  1
Pressure gauge
  0
XRECORD
  5
3D5
102
{ACAD_REACTORS
330
3D4
102
}
330
3D4
100
AcDbXrecord
280
     1
  1
961210
  1
Automatic flow rate regulator valve_Caleffi_121 DN15 : 3/4''_Pressure gauge H
  0
DICTIONARY
  5
1A
330
19
100
AcDbDictionary
280
     1
281
     1
  3
BUMPTILE
360
1C
  3
DIFFUSETILE
360
1B
  3
OPACITYTILE
360
1F
  3
REFLECTIONTILE
360
1E
  3
REFRACTIONTILE
360
20
  3
SPECULARTILE
360
1D
  0
DICTIONARY
  5
12
330
11
100
AcDbDictionary
280
     1
281
     1
  3
BUMPTILE
360
14
  3
DIFFUSETILE
360
13
  3
OPACITYTILE
360
17
  3
REFLECTIONTILE
360
16
  3
REFRACTIONTILE
360
18
  3
SPECULARTILE
360
15
  0
DICTIONARY
  5
22
330
21
100
AcDbDictionary
280
     1
281
     1
  3
BUMPTILE
360
24
  3
DIFFUSETILE
360
23
  3
OPACITYTILE
360
27
  3
REFLECTIONTILE
360
26
  3
REFRACTIONTILE
360
28
  3
SPECULARTILE
360
25
  0
DICTIONARY
  5
3DB
330
65
100
AcDbDictionary
280
     1
281
     1
  3
ACAD_ROUNDTRIP_2008_TABLESTYLE_CELLSTYLEMAP
360
3DC
  0
XRECORD
  5
1C
102
{ACAD_REACTORS
330
1A
102
}
330
1A
100
AcDbXrecord
280
     1
270
     1
271
     1
  0
XRECORD
  5
1B
102
{ACAD_REACTORS
330
1A
102
}
330
1A
100
AcDbXrecord
280
     1
270
     1
271
     1
  0
XRECORD
  5
1F
102
{ACAD_REACTORS
330
1A
102
}
330
1A
100
AcDbXrecord
280
     1
270
     1
271
     1
  0
XRECORD
  5
1E
102
{ACAD_REACTORS
330
1A
102
}
330
1A
100
AcDbXrecord
280
     1
270
     1
271
     1
  0
XRECORD
  5
20
102
{ACAD_REACTORS
330
1A
102
}
330
1A
100
AcDbXrecord
280
     1
270
     1
271
     1
  0
XRECORD
  5
1D
102
{ACAD_REACTORS
330
1A
102
}
330
1A
100
AcDbXrecord
280
     1
270
     1
271
     1
  0
XRECORD
  5
14
102
{ACAD_REACTORS
330
12
102
}
330
12
100
AcDbXrecord
280
     1
270
     1
271
     1
  0
XRECORD
  5
13
102
{ACAD_REACTORS
330
12
102
}
330
12
100
AcDbXrecord
280
     1
270
     1
271
     1
  0
XRECORD
  5
17
102
{ACAD_REACTORS
330
12
102
}
330
12
100
AcDbXrecord
280
     1
270
     1
271
     1
  0
XRECORD
  5
16
102
{ACAD_REACTORS
330
12
102
}
330
12
100
AcDbXrecord
280
     1
270
     1
271
     1
  0
XRECORD
  5
18
102
{ACAD_REACTORS
330
12
102
}
330
12
100
AcDbXrecord
280
     1
270
     1
271
     1
  0
XRECORD
  5
15
102
{ACAD_REACTORS
330
12
102
}
330
12
100
AcDbXrecord
280
     1
270
     1
271
     1
  0
XRECORD
  5
24
102
{ACAD_REACTORS
330
22
102
}
330
22
100
AcDbXrecord
280
     1
270
     1
271
     1
  0
XRECORD
  5
23
102
{ACAD_REACTORS
330
22
102
}
330
22
100
AcDbXrecord
280
     1
270
     1
271
     1
  0
XRECORD
  5
27
102
{ACAD_REACTORS
330
22
102
}
330
22
100
AcDbXrecord
280
     1
270
     1
271
     1
  0
XRECORD
  5
26
102
{ACAD_REACTORS
330
22
102
}
330
22
100
AcDbXrecord
280
     1
270
     1
271
     1
  0
XRECORD
  5
28
102
{ACAD_REACTORS
330
22
102
}
330
22
100
AcDbXrecord
280
     1
270
     1
271
     1
  0
XRECORD
  5
25
102
{ACAD_REACTORS
330
22
102
}
330
22
100
AcDbXrecord
280
     1
270
     1
271
     1
  0
CELLSTYLEMAP
  5
3DC
102
{ACAD_REACTORS
330
3DB
102
}
330
3DB
100
AcDbCellStyleMap
 90
        3
300
CELLSTYLE
  1
TABLEFORMAT_BEGIN
 90
        5
170
     1
 91
        0
 92
    32768
 62
   257
 93
        1
300
CONTENTFORMAT
  1
CONTENTFORMAT_BEGIN
 90
        0
 91
        0
 92
      512
 93
        0
300

 40
0.0
140
1.0
 94
        5
 62
     0
340
55
144
0.25
309
CONTENTFORMAT_END
171
     0
 94
        0
309
TABLEFORMAT_END
  1
CELLSTYLE_BEGIN
 90
        1
 91
        1
300
_TITLE
309
CELLSTYLE_END
300
CELLSTYLE
  1
TABLEFORMAT_BEGIN
 90
        5
170
     1
 91
        0
 92
        0
 62
   257
 93
        1
300
CONTENTFORMAT
  1
CONTENTFORMAT_BEGIN
 90
        0
 91
        0
 92
      512
 93
        0
300

 40
0.0
140
1.0
 94
        5
 62
     0
340
55
144
0.18
309
CONTENTFORMAT_END
171
     0
 94
        0
309
TABLEFORMAT_END
  1
CELLSTYLE_BEGIN
 90
        2
 91
        1
300
_HEADER
309
CELLSTYLE_END
300
CELLSTYLE
  1
TABLEFORMAT_BEGIN
 90
        5
170
     1
 91
        0
 92
        0
 62
   257
 93
        1
300
CONTENTFORMAT
  1
CONTENTFORMAT_BEGIN
 90
        0
 91
        0
 92
      512
 93
        0
300

 40
0.0
140
1.0
 94
        2
 62
     0
340
55
144
0.18
309
CONTENTFORMAT_END
171
     0
 94
        0
309
TABLEFORMAT_END
  1
CELLSTYLE_BEGIN
 90
        3
 91
        2
300
_DATA
309
CELLSTYLE_END
  0
ENDSEC
  0
EOF
