  0
SECTION
  2
HEADER
  9
$ACADVER
  1
AC1027
  9
$ACADMAINTVER
 70
    20
  9
$DWGCODEPAGE
  3
ANSI_1252
  9
$REQUIREDVERSIONS
160
                 0
  9
$INSBASE
 10
0.0
 20
0.0
 30
0.0
  9
$EXTMIN
 10
672.6148455245105
 20
1662.655266564655
 30
-0.00000001
  9
$EXTMAX
 10
1207.114353953079
 20
2113.626852377518
 30
0.00000001
  9
$LIMMIN
 10
0.0
 20
0.0
  9
$LIMMAX
 10
12.0
 20
9.0
  9
$ORTHOMODE
 70
     0
  9
$REGENMODE
 70
     1
  9
$FILLMODE
 70
     1
  9
$QTEXTMODE
 70
     0
  9
$MIRRTEXT
 70
     0
  9
$LTSCALE
 40
1.0
  9
$ATTMODE
 70
     1
  9
$TEXTSIZE
 40
0.2
  9
$TRACEWID
 40
0.05
  9
$TEXTSTYLE
  7
Standard
  9
$CLAYER
  8
0
  9
$CELTYPE
  6
ByLayer
  9
$CECOLOR
 62
   256
  9
$CELTSCALE
 40
1.0
  9
$DISPSILH
 70
     0
  9
$DIMSCALE
 40
1.0
  9
$DIMASZ
 40
0.18
  9
$DIMEXO
 40
0.0625
  9
$DIMDLI
 40
0.38
  9
$DIMRND
 40
0.0
  9
$DIMDLE
 40
0.0
  9
$DIMEXE
 40
0.18
  9
$DIMTP
 40
0.0
  9
$DIMTM
 40
0.0
  9
$DIMTXT
 40
0.18
  9
$DIMCEN
 40
0.09
  9
$DIMTSZ
 40
0.0
  9
$DIMTOL
 70
     0
  9
$DIMLIM
 70
     0
  9
$DIMTIH
 70
     1
  9
$DIMTOH
 70
     1
  9
$DIMSE1
 70
     0
  9
$DIMSE2
 70
     0
  9
$DIMTAD
 70
     0
  9
$DIMZIN
 70
     0
  9
$DIMBLK
  1

  9
$DIMASO
 70
     1
  9
$DIMSHO
 70
     1
  9
$DIMPOST
  1

  9
$DIMAPOST
  1

  9
$DIMALT
 70
     0
  9
$DIMALTD
 70
     2
  9
$DIMALTF
 40
25.4
  9
$DIMLFAC
 40
1.0
  9
$DIMTOFL
 70
     0
  9
$DIMTVP
 40
0.0
  9
$DIMTIX
 70
     0
  9
$DIMSOXD
 70
     0
  9
$DIMSAH
 70
     0
  9
$DIMBLK1
  1

  9
$DIMBLK2
  1

  9
$DIMSTYLE
  2
Standard
  9
$DIMCLRD
 70
     0
  9
$DIMCLRE
 70
     0
  9
$DIMCLRT
 70
     0
  9
$DIMTFAC
 40
1.0
  9
$DIMGAP
 40
0.09
  9
$DIMJUST
 70
     0
  9
$DIMSD1
 70
     0
  9
$DIMSD2
 70
     0
  9
$DIMTOLJ
 70
     1
  9
$DIMTZIN
 70
     0
  9
$DIMALTZ
 70
     0
  9
$DIMALTTZ
 70
     0
  9
$DIMUPT
 70
     0
  9
$DIMDEC
 70
     4
  9
$DIMTDEC
 70
     4
  9
$DIMALTU
 70
     2
  9
$DIMALTTD
 70
     2
  9
$DIMTXSTY
  7
Standard
  9
$DIMAUNIT
 70
     0
  9
$DIMADEC
 70
     0
  9
$DIMALTRND
 40
0.0
  9
$DIMAZIN
 70
     0
  9
$DIMDSEP
 70
    46
  9
$DIMATFIT
 70
     3
  9
$DIMFRAC
 70
     0
  9
$DIMLDRBLK
  1

  9
$DIMLUNIT
 70
     2
  9
$DIMLWD
 70
    -2
  9
$DIMLWE
 70
    -2
  9
$DIMTMOVE
 70
     0
  9
$DIMFXL
 40
1.0
  9
$DIMFXLON
 70
     0
  9
$DIMJOGANG
 40
0.7853981633974483
  9
$DIMTFILL
 70
     0
  9
$DIMTFILLCLR
 70
     0
  9
$DIMARCSYM
 70
     0
  9
$DIMLTYPE
  6

  9
$DIMLTEX1
  6

  9
$DIMLTEX2
  6

  9
$DIMTXTDIRECTION
 70
     0
  9
$LUNITS
 70
     2
  9
$LUPREC
 70
     4
  9
$SKETCHINC
 40
0.1
  9
$FILLETRAD
 40
0.0
  9
$AUNITS
 70
     0
  9
$AUPREC
 70
     0
  9
$MENU
  1
.
  9
$ELEVATION
 40
0.0
  9
$PELEVATION
 40
0.0
  9
$THICKNESS
 40
0.0
  9
$LIMCHECK
 70
     0
  9
$CHAMFERA
 40
0.0
  9
$CHAMFERB
 40
0.0
  9
$CHAMFERC
 40
0.0
  9
$CHAMFERD
 40
0.0
  9
$SKPOLY
 70
     0
  9
$TDCREATE
 40
2457571.581836458
  9
$TDUCREATE
 40
2457571.498503125
  9
$TDUPDATE
 40
2457571.581836458
  9
$TDUUPDATE
 40
2457571.498503125
  9
$TDINDWG
 40
0.0000187384
  9
$TDUSRTIMER
 40
0.0000187384
  9
$USRTIMER
 70
     1
  9
$ANGBASE
 50
0.0
  9
$ANGDIR
 70
     0
  9
$PDMODE
 70
     0
  9
$PDSIZE
 40
0.0
  9
$PLINEWID
 40
0.0
  9
$SPLFRAME
 70
     0
  9
$SPLINETYPE
 70
     6
  9
$SPLINESEGS
 70
     8
  9
$HANDSEED
  5
399
  9
$SURFTAB1
 70
     6
  9
$SURFTAB2
 70
     6
  9
$SURFTYPE
 70
     6
  9
$SURFU
 70
     6
  9
$SURFV
 70
     6
  9
$UCSBASE
  2

  9
$UCSNAME
  2

  9
$UCSORG
 10
0.0
 20
0.0
 30
0.0
  9
$UCSXDIR
 10
1.0
 20
0.0
 30
0.0
  9
$UCSYDIR
 10
0.0
 20
1.0
 30
0.0
  9
$UCSORTHOREF
  2

  9
$UCSORTHOVIEW
 70
     0
  9
$UCSORGTOP
 10
0.0
 20
0.0
 30
0.0
  9
$UCSORGBOTTOM
 10
0.0
 20
0.0
 30
0.0
  9
$UCSORGLEFT
 10
0.0
 20
0.0
 30
0.0
  9
$UCSORGRIGHT
 10
0.0
 20
0.0
 30
0.0
  9
$UCSORGFRONT
 10
0.0
 20
0.0
 30
0.0
  9
$UCSORGBACK
 10
0.0
 20
0.0
 30
0.0
  9
$PUCSBASE
  2

  9
$PUCSNAME
  2

  9
$PUCSORG
 10
0.0
 20
0.0
 30
0.0
  9
$PUCSXDIR
 10
1.0
 20
0.0
 30
0.0
  9
$PUCSYDIR
 10
0.0
 20
1.0
 30
0.0
  9
$PUCSORTHOREF
  2

  9
$PUCSORTHOVIEW
 70
     0
  9
$PUCSORGTOP
 10
0.0
 20
0.0
 30
0.0
  9
$PUCSORGBOTTOM
 10
0.0
 20
0.0
 30
0.0
  9
$PUCSORGLEFT
 10
0.0
 20
0.0
 30
0.0
  9
$PUCSORGRIGHT
 10
0.0
 20
0.0
 30
0.0
  9
$PUCSORGFRONT
 10
0.0
 20
0.0
 30
0.0
  9
$PUCSORGBACK
 10
0.0
 20
0.0
 30
0.0
  9
$USERI1
 70
     0
  9
$USERI2
 70
     0
  9
$USERI3
 70
     0
  9
$USERI4
 70
     0
  9
$USERI5
 70
     0
  9
$USERR1
 40
0.0
  9
$USERR2
 40
0.0
  9
$USERR3
 40
0.0
  9
$USERR4
 40
0.0
  9
$USERR5
 40
0.0
  9
$WORLDVIEW
 70
     1
  9
$SHADEDGE
 70
     3
  9
$SHADEDIF
 70
    70
  9
$TILEMODE
 70
     1
  9
$MAXACTVP
 70
    64
  9
$PINSBASE
 10
0.0
 20
0.0
 30
0.0
  9
$PLIMCHECK
 70
     0
  9
$PEXTMIN
 10
1.000000000000000E+20
 20
1.000000000000000E+20
 30
1.000000000000000E+20
  9
$PEXTMAX
 10
-1.000000000000000E+20
 20
-1.000000000000000E+20
 30
-1.000000000000000E+20
  9
$PLIMMIN
 10
0.0
 20
0.0
  9
$PLIMMAX
 10
12.0
 20
9.0
  9
$UNITMODE
 70
     0
  9
$VISRETAIN
 70
     1
  9
$PLINEGEN
 70
     0
  9
$PSLTSCALE
 70
     1
  9
$TREEDEPTH
 70
  3020
  9
$CMLSTYLE
  2
Standard
  9
$CMLJUST
 70
     0
  9
$CMLSCALE
 40
1.0
  9
$PROXYGRAPHICS
 70
     1
  9
$MEASUREMENT
 70
     1
  9
$CELWEIGHT
370
    -1
  9
$ENDCAPS
280
     0
  9
$JOINSTYLE
280
     0
  9
$LWDISPLAY
290
     0
  9
$INSUNITS
 70
     4
  9
$HYPERLINKBASE
  1

  9
$STYLESHEET
  1

  9
$XEDIT
290
     1
  9
$CEPSNTYPE
380
     0
  9
$PSTYLEMODE
290
     1
  9
$FINGERPRINTGUID
  2
{4ACBFD82-3024-41F2-BE24-69335B753D0C}
  9
$VERSIONGUID
  2
{152FAFBD-B21D-48D4-A26A-D06A6ADB6C88}
  9
$EXTNAMES
290
     1
  9
$PSVPSCALE
 40
0.0
  9
$OLESTARTUP
290
     0
  9
$SORTENTS
280
   127
  9
$INDEXCTL
280
     0
  9
$HIDETEXT
280
     1
  9
$XCLIPFRAME
280
     2
  9
$HALOGAP
280
     0
  9
$OBSCOLOR
 70
   257
  9
$OBSLTYPE
280
     0
  9
$INTERSECTIONDISPLAY
280
     0
  9
$INTERSECTIONCOLOR
 70
   257
  9
$DIMASSOC
280
     2
  9
$PROJECTNAME
  1

  9
$CAMERADISPLAY
290
     0
  9
$LENSLENGTH
 40
50.0
  9
$CAMERAHEIGHT
 40
0.0
  9
$STEPSPERSEC
 40
2.0
  9
$STEPSIZE
 40
6.0
  9
$3DDWFPREC
 40
2.0
  9
$PSOLWIDTH
 40
0.25
  9
$PSOLHEIGHT
 40
4.0
  9
$LOFTANG1
 40
1.570796326794896
  9
$LOFTANG2
 40
1.570796326794896
  9
$LOFTMAG1
 40
0.0
  9
$LOFTMAG2
 40
0.0
  9
$LOFTPARAM
 70
     7
  9
$LOFTNORMALS
280
     1
  9
$LATITUDE
 40
37.795
  9
$LONGITUDE
 40
-122.394
  9
$NORTHDIRECTION
 40
0.0
  9
$TIMEZONE
 70
 -8000
  9
$LIGHTGLYPHDISPLAY
280
     1
  9
$TILEMODELIGHTSYNCH
280
     1
  9
$CMATERIAL
347
11
  9
$SOLIDHIST
280
     0
  9
$SHOWHIST
280
     1
  9
$DWFFRAME
280
     2
  9
$DGNFRAME
280
     0
  9
$REALWORLDSCALE
290
     1
  9
$INTERFERECOLOR
 62
     1
  9
$INTERFEREOBJVS
345
33
  9
$INTERFEREVPVS
346
30
  9
$CSHADOW
280
     0
  9
$SHADOWPLANELOCATION
 40
0.0
  0
ENDSEC
  0
SECTION
  2
CLASSES
  0
CLASS
  1
ACDBDICTIONARYWDFLT
  2
AcDbDictionaryWithDefault
  3
ObjectDBX Classes
 90
        0
 91
        1
280
     0
281
     0
  0
CLASS
  1
MATERIAL
  2
AcDbMaterial
  3
ObjectDBX Classes
 90
     1153
 91
        3
280
     0
281
     0
  0
CLASS
  1
VISUALSTYLE
  2
AcDbVisualStyle
  3
ObjectDBX Classes
 90
     4095
 91
       24
280
     0
281
     0
  0
CLASS
  1
SCALE
  2
AcDbScale
  3
ObjectDBX Classes
 90
     1153
 91
       17
280
     0
281
     0
  0
CLASS
  1
TABLESTYLE
  2
AcDbTableStyle
  3
ObjectDBX Classes
 90
     4095
 91
        1
280
     0
281
     0
  0
CLASS
  1
MLEADERSTYLE
  2
AcDbMLeaderStyle
  3
ACDB_MLEADERSTYLE_CLASS
 90
     4095
 91
        1
280
     0
281
     0
  0
CLASS
  1
ACDBSECTIONVIEWSTYLE
  2
AcDbSectionViewStyle
  3
ObjectDBX Classes
 90
     1025
 91
        1
280
     0
281
     0
  0
CLASS
  1
ACDBDETAILVIEWSTYLE
  2
AcDbDetailViewStyle
  3
ObjectDBX Classes
 90
     1025
 91
        1
280
     0
281
     0
  0
CLASS
  1
RASTERVARIABLES
  2
AcDbRasterVariables
  3
ISM
 90
        0
 91
        1
280
     0
281
     0
  0
CLASS
  1
DICTIONARYVAR
  2
AcDbDictionaryVar
  3
ObjectDBX Classes
 90
        0
 91
        5
280
     0
281
     0
  0
CLASS
  1
CELLSTYLEMAP
  2
AcDbCellStyleMap
  3
ObjectDBX Classes
 90
     1152
 91
        2
280
     0
281
     0
  0
CLASS
  1
SORTENTSTABLE
  2
AcDbSortentsTable
  3
ObjectDBX Classes
 90
        0
 91
        1
280
     0
281
     0
  0
ENDSEC
  0
SECTION
  2
TABLES
  0
TABLE
  2
VPORT
  5
8
330
0
100
AcDbSymbolTable
 70
     1
  0
VPORT
  5
57
330
8
100
AcDbSymbolTableRecord
100
AcDbViewportTableRecord
  2
*Active
 70
     0
 10
0.0
 20
0.0
 11
1.0
 21
1.0
 12
939.8645997387946
 22
1888.141059471086
 13
0.0
 23
0.0
 14
1.0
 24
1.0
 15
0.0
 25
0.0
 16
0.0
 26
0.0
 36
1.0
 17
0.0
 27
0.0
 37
0.0
 40
450.9715858128636
 41
1.185217706044933
 42
50.0
 43
0.0
 44
0.0
 50
0.0
 51
0.0
 71
     0
 72
  1000
 73
     1
 74
     1
 75
     0
 76
     0
 77
     0
 78
     0
281
     0
 65
     1
110
0.0
120
0.0
130
0.0
111
1.0
121
0.0
131
0.0
112
0.0
122
1.0
132
0.0
 79
     0
146
0.0
 60
     3
 61
     5
292
     1
282
     1
141
0.0
142
0.0
 63
   250
421
  3355443
  0
ENDTAB
  0
TABLE
  2
LTYPE
  5
5
330
0
100
AcDbSymbolTable
 70
     3
  0
LTYPE
  5
5B
330
5
100
AcDbSymbolTableRecord
100
AcDbLinetypeTableRecord
  2
ByBlock
 70
     0
  3

 72
    65
 73
     0
 40
0.0
  0
LTYPE
  5
5C
330
5
100
AcDbSymbolTableRecord
100
AcDbLinetypeTableRecord
  2
ByLayer
 70
     0
  3

 72
    65
 73
     0
 40
0.0
  0
LTYPE
  5
5D
330
5
100
AcDbSymbolTableRecord
100
AcDbLinetypeTableRecord
  2
Continuous
 70
     0
  3
Solid line
 72
    65
 73
     0
 40
0.0
  0
LTYPE
  5
69
330
5
100
AcDbSymbolTableRecord
100
AcDbLinetypeTableRecord
  2
PHANTOM2
 70
     0
  3
___ _ _ ___ _ _ ___ _ _ ___ _ _
 72
    65
 73
     6
 40
1.25
 49
0.625
 74
     0
 49
-0.125
 74
     0
 49
0.125
 74
     0
 49
-0.125
 74
     0
 49
0.125
 74
     0
 49
-0.125
 74
     0
  0
LTYPE
  5
86
330
5
100
AcDbSymbolTableRecord
100
AcDbLinetypeTableRecord
  2
Nascosto 1_5 mm
 70
     0
  3

 72
    65
 73
     2
 40
2.2
 49
1.5
 74
     0
 49
-0.7000000000000001
 74
     0
  0
ENDTAB
  0
TABLE
  2
LAYER
  5
2
330
0
100
AcDbSymbolTable
 70
     4
  0
LAYER
  5
54
330
2
100
AcDbSymbolTableRecord
100
AcDbLayerTableRecord
  2
0
 70
     0
 62
     7
  6
Continuous
370
    -3
390
F
347
21
348
0
  0
LAYER
  5
85
330
2
100
AcDbSymbolTableRecord
100
AcDbLayerTableRecord
  2
P-SANR-FIXT
 70
     0
 62
     6
  6
Continuous
370
    18
390
F
347
21
348
0
  0
LAYER
  5
88
330
2
100
AcDbSymbolTableRecord
100
AcDbLayerTableRecord
  2
M-PIPE
 70
     0
 62
     3
  6
Continuous
370
    18
390
F
347
21
348
0
  0
ENDTAB
  0
TABLE
  2
STYLE
  5
3
330
0
100
AcDbSymbolTable
 70
     2
  0
STYLE
  5
55
330
3
100
AcDbSymbolTableRecord
100
AcDbTextStyleTableRecord
  2
Standard
 70
     0
 40
0.0
 41
1.0
 50
0.0
 71
     0
 42
0.2
  3
txt
  4

  0
STYLE
  5
5A
330
3
100
AcDbSymbolTableRecord
100
AcDbTextStyleTableRecord
  2
Annotative
 70
     0
 40
0.0
 41
1.0
 50
0.0
 71
     0
 42
0.2
  3
txt
  4

1001
AcadAnnotative
1000
AnnotativeData
1002
{
1070
     1
1070
     1
1002
}
  0
ENDTAB
  0
TABLE
  2
VIEW
  5
6
330
0
100
AcDbSymbolTable
 70
     0
  0
ENDTAB
  0
TABLE
  2
UCS
  5
7
330
0
100
AcDbSymbolTable
 70
     0
  0
ENDTAB
  0
TABLE
  2
APPID
  5
9
330
0
100
AcDbSymbolTable
 70
     3
  0
APPID
  5
56
330
9
100
AcDbSymbolTableRecord
100
AcDbRegAppTableRecord
  2
ACAD
 70
     0
  0
APPID
  5
5E
330
9
100
AcDbSymbolTableRecord
100
AcDbRegAppTableRecord
  2
AcadAnnotative
 70
     0
  0
APPID
  5
79
330
9
100
AcDbSymbolTableRecord
100
AcDbRegAppTableRecord
  2
REVIT
 70
     0
  0
ENDTAB
  0
TABLE
  2
DIMSTYLE
  5
A
330
0
100
AcDbSymbolTable
 70
     2
100
AcDbDimStyleTable
 71
     0
  0
DIMSTYLE
105
58
330
A
100
AcDbSymbolTableRecord
100
AcDbDimStyleTableRecord
  2
Standard
 70
     0
340
55
  0
DIMSTYLE
105
59
330
A
100
AcDbSymbolTableRecord
100
AcDbDimStyleTableRecord
  2
Annotative
 70
     0
340
55
1001
AcadAnnotative
1000
AnnotativeData
1002
{
1070
     1
1070
     1
1002
}
  0
ENDTAB
  0
TABLE
  2
BLOCK_RECORD
  5
1
330
0
100
AcDbSymbolTable
 70
     4
  0
BLOCK_RECORD
  5
71
102
{ACAD_XDICTIONARY
360
394
102
}
330
1
100
AcDbSymbolTableRecord
100
AcDbBlockTableRecord
  2
*Model_Space
340
74
 70
     0
280
     1
281
     0
  0
BLOCK_RECORD
  5
6D
330
1
100
AcDbSymbolTableRecord
100
AcDbBlockTableRecord
  2
*Paper_Space
340
70
 70
     0
280
     1
281
     0
  0
BLOCK_RECORD
  5
75
330
1
100
AcDbSymbolTableRecord
100
AcDbBlockTableRecord
  2
*Paper_Space0
340
78
 70
     0
280
     1
281
     0
  0
BLOCK_RECORD
  5
87
330
1
100
AcDbSymbolTableRecord
100
AcDbBlockTableRecord
  2
Automatic flow rate regulator valve_Caleffi_121 DN15 - 1_2___Pressure gauge H-956490-Est - Idraulica
340
0
102
{BLKREFS
331
16E
102
}
 70
     0
280
     1
281
     0
  0
BLOCK_RECORD
  5
16F
330
1
100
AcDbSymbolTableRecord
100
AcDbBlockTableRecord
  2
Automatic flow rate regulator valve_Caleffi_121 DN15 - 1_2___Pressure gauge H-V1-Est - Idraulica
340
0
102
{BLKREFS
331
28B
102
}
 70
     0
280
     1
281
     0
  0
BLOCK_RECORD
  5
28C
330
1
100
AcDbSymbolTableRecord
100
AcDbBlockTableRecord
  2
Automatic flow rate regulator valve_Caleffi_121 DN15 - 1_2___Pressure gauge H-V2-Est - Idraulica
340
0
102
{BLKREFS
331
38D
102
}
 70
     0
280
     1
281
     0
  0
ENDTAB
  0
ENDSEC
  0
SECTION
  2
BLOCKS
  0
BLOCK
  5
72
330
71
100
AcDbEntity
  8
0
100
AcDbBlockBegin
  2
*Model_Space
 70
     0
 10
0.0
 20
0.0
 30
0.0
  3
*Model_Space
  1

  0
ENDBLK
  5
73
330
71
100
AcDbEntity
  8
0
100
AcDbBlockEnd
  0
BLOCK
  5
6E
330
6D
100
AcDbEntity
 67
     1
  8
0
100
AcDbBlockBegin
  2
*Paper_Space
 70
     0
 10
0.0
 20
0.0
 30
0.0
  3
*Paper_Space
  1

  0
ENDBLK
  5
6F
330
6D
100
AcDbEntity
 67
     1
  8
0
100
AcDbBlockEnd
  0
BLOCK
  5
76
330
75
100
AcDbEntity
 67
     1
  8
0
100
AcDbBlockBegin
  2
*Paper_Space0
 70
     0
 10
0.0
 20
0.0
 30
0.0
  3
*Paper_Space0
  1

  0
ENDBLK
  5
77
330
75
100
AcDbEntity
 67
     1
  8
0
100
AcDbBlockEnd
  0
BLOCK
  5
16C
330
87
100
AcDbEntity
  8
0
100
AcDbBlockBegin
  2
Automatic flow rate regulator valve_Caleffi_121 DN15 - 1_2___Pressure gauge H-956490-Est - Idraulica
 70
     0
 10
0.0
 20
0.0
 30
0.0
  3
Automatic flow rate regulator valve_Caleffi_121 DN15 - 1_2___Pressure gauge H-956490-Est - Idraulica
  1

  0
ARC
  5
89
330
87
100
AcDbEntity
  8
M-PIPE
100
AcDbCircle
 10
784.7278012627464
 20
2085.511775133178
 30
0.0
 40
3.999999999999942
100
AcDbArc
 50
163.9999999999989
 51
343.9999999999985
1001
REVIT
1002
{
1070
     3
1000
923236
1002
}
  0
ARC
  5
8A
330
87
100
AcDbEntity
  8
M-PIPE
100
AcDbCircle
 10
784.7278012627464
 20
2085.511775133178
 30
0.0
 40
3.999999999999974
100
AcDbArc
 50
343.9999999999967
 51
163.9999999999971
1001
REVIT
1002
{
1070
     3
1000
923236
1002
}
  0
ARC
  5
8B
330
87
100
AcDbEntity
  8
M-PIPE
100
AcDbCircle
 10
784.7278012627465
 20
2085.511775133178
 30
0.0
 40
24.49999999999989
100
AcDbArc
 50
163.9999999999998
 51
343.9999999999984
1001
REVIT
1002
{
1070
     3
1000
923236
1002
}
  0
ARC
  5
8C
330
87
100
AcDbEntity
  8
M-PIPE
100
AcDbCircle
 10
784.7278012627465
 20
2085.511775133178
 30
0.0
 40
24.50000000000004
100
AcDbArc
 50
343.9999999999994
 51
163.9999999999997
1001
REVIT
1002
{
1070
     3
1000
923236
1002
}
  0
LINE
  5
8D
330
87
100
AcDbEntity
  8
M-PIPE
100
AcDbLine
 10
780.3639640874175
 20
2046.711557026739
 30
0.0
 11
782.0177882223244
 21
2052.479127202385
 31
0.0
1001
REVIT
1002
{
1070
     3
1000
923236
1002
}
  0
LINE
  5
8E
330
87
100
AcDbEntity
  8
M-PIPE
100
AcDbLine
 10
769.5213861751467
 20
2056.062412828001
 30
0.0
 11
767.8675620402398
 21
2050.294842652354
 31
0.0
1001
REVIT
1002
{
1070
     3
1000
923236
1002
}
  0
LINE
  5
8F
330
87
100
AcDbEntity
  8
M-PIPE
100
AcDbLine
 10
782.498419070314
 20
2052.34130852447
 30
0.0
 11
769.0407553271776
 21
2056.200231505908
 31
0.0
1001
REVIT
1002
{
1070
     3
1000
923236
1002
}
  0
LINE
  5
90
330
87
100
AcDbEntity
  8
M-PIPE
100
AcDbLine
 10
784.9908914033622
 20
2061.033592539615
 30
0.0
 11
782.498419070314
 21
2052.34130852447
 31
0.0
1001
REVIT
1002
{
1070
     3
1000
923236
1002
}
  0
LINE
  5
91
330
87
100
AcDbEntity
  8
M-PIPE
100
AcDbLine
 10
769.0407553271776
 20
2056.200231505908
 30
0.0
 11
771.5332276602173
 21
2064.892515521024
 31
0.0
1001
REVIT
1002
{
1070
     3
1000
923236
1002
}
  0
LINE
  5
92
330
87
100
AcDbEntity
  8
M-PIPE
100
AcDbLine
 10
698.8951975437844
 20
2069.11594015722
 30
0.0
 11
697.5480544796997
 21
2074.747049343066
 31
0.0
1001
REVIT
1002
{
1070
     3
1000
923097
1002
}
  0
LWPOLYLINE
  5
93
330
87
100
AcDbEntity
  8
M-PIPE
100
AcDbPolyline
 90
        3
 70
   128
 43
0.0
 10
697.4331170697851
 20
2075.227492082982
 10
696.5686836462761
 20
2078.84085663308
 10
696.0294846833928
 20
2081.375128132032
1001
REVIT
1002
{
1070
     3
1000
923097
1002
}
  0
LWPOLYLINE
  5
94
330
87
100
AcDbEntity
  8
M-PIPE
100
AcDbPolyline
 90
        3
 70
   128
 43
0.0
 10
735.4965747564017
 20
2095.739974151709
 10
740.0578839555249
 20
2086.841596447444
 10
741.1813654791509
 20
2084.506846606874
1001
REVIT
1002
{
1070
     3
1000
923097
1002
}
  0
ELLIPSE
  5
95
330
87
100
AcDbEntity
  8
M-PIPE
100
AcDbEllipse
 10
672.9918711521312
 20
2034.651152049727
 30
0.0
 11
-85.50488143095227
 21
234.922730984692
 31
0.0
210
0.0
220
0.0
230
0.9999999999999998
 40
0.2588190451024881
 41
4.816685541903211
 42
4.857000131822783
1001
REVIT
1002
{
1070
     3
1000
923097
1002
}
  0
LINE
  5
96
330
87
100
AcDbEntity
  8
M-PIPE
100
AcDbLine
 10
724.5622437922222
 20
2081.118425424346
 30
0.0
 11
713.73890994418
 21
2077.179054068133
 31
0.0
1001
REVIT
1002
{
1070
     3
1000
923097
1002
}
  0
SPLINE
  5
97
330
87
100
AcDbEntity
  8
M-PIPE
100
AcDbSpline
210
0.0
220
0.0
230
1.0
 70
     8
 71
     3
 72
     9
 73
     5
 74
     0
 42
0.000000001
 43
0.0000000001
 40
-1.0
 40
-1.0
 40
-1.0
 40
-1.0
 40
-0.5
 40
0.0
 40
0.0
 40
0.0
 40
0.0
 10
713.7389099441797
 20
2077.179054068134
 30
0.0
 10
713.2099773525344
 20
2078.76464065775
 30
0.0
 10
712.1617207113253
 20
2081.934838372184
 30
0.0
 10
711.1326811542785
 20
2085.103085157021
 30
0.0
 10
710.6229656467958
 20
2086.686720817041
 30
0.0
1001
REVIT
1002
{
1070
     3
1000
923097
1002
}
  0
LINE
  5
98
330
87
100
AcDbEntity
  8
M-PIPE
100
AcDbLine
 10
698.8951975437828
 20
2069.115940157219
 30
0.0
 11
741.1813654791493
 21
2084.506846606873
 31
0.0
1001
REVIT
1002
{
1070
     3
1000
923097
1002
}
  0
LINE
  5
99
330
87
100
AcDbEntity
  8
M-PIPE
100
AcDbLine
 10
710.6229656467959
 20
2086.686720817041
 30
0.0
 11
709.6681636315962
 21
2086.339201303891
 31
0.0
1001
REVIT
1002
{
1070
     3
1000
923097
1002
}
  0
LINE
  5
9A
330
87
100
AcDbEntity
  8
M-PIPE
100
AcDbLine
 10
709.2540182062958
 20
2086.188464696424
 30
0.0
 11
706.817598980475
 21
2085.301680620032
 31
0.0
1001
REVIT
1002
{
1070
     3
1000
923097
1002
}
  0
LINE
  5
9B
330
87
100
AcDbEntity
  8
M-PIPE
100
AcDbLine
 10
706.6261132228764
 20
2085.23198550398
 30
0.0
 11
705.4658497581905
 21
2084.809684138928
 31
0.0
1001
REVIT
1002
{
1070
     3
1000
923097
1002
}
  0
LINE
  5
9C
330
87
100
AcDbEntity
  8
M-PIPE
100
AcDbLine
 10
705.3810109024774
 20
2084.778805320739
 30
0.0
 11
704.190646170321
 21
2084.345547990314
 31
0.0
1001
REVIT
1002
{
1070
     3
1000
923097
1002
}
  0
LINE
  5
9D
330
87
100
AcDbEntity
  8
M-PIPE
100
AcDbLine
 10
704.1742298140475
 20
2084.339572925275
 30
0.0
 11
703.0612950403231
 21
2083.93449779496
 31
0.0
1001
REVIT
1002
{
1070
     3
1000
923097
1002
}
  0
LINE
  5
9E
330
87
100
AcDbEntity
  8
M-PIPE
100
AcDbLine
 10
702.9467247380861
 20
2083.892797615215
 30
0.0
 11
701.0090978252877
 21
2083.187559093843
 31
0.0
1001
REVIT
1002
{
1070
     3
1000
923097
1002
}
  0
LINE
  5
9F
330
87
100
AcDbEntity
  8
M-PIPE
100
AcDbLine
 10
700.7209616421755
 20
2083.082686099775
 30
0.0
 11
699.7448568609702
 21
2082.727413013891
 31
0.0
1001
REVIT
1002
{
1070
     3
1000
923097
1002
}
  0
LINE
  5
A0
330
87
100
AcDbEntity
  8
M-PIPE
100
AcDbLine
 10
699.2676417806274
 20
2082.553720929304
 30
0.0
 11
698.8745670789106
 21
2082.410653438035
 31
0.0
1001
REVIT
1002
{
1070
     3
1000
923097
1002
}
  0
LINE
  5
A1
330
87
100
AcDbEntity
  8
M-PIPE
100
AcDbLine
 10
698.5251813099125
 20
2082.283487417845
 30
0.0
 11
698.1177045574351
 21
2082.135178008787
 31
0.0
1001
REVIT
1002
{
1070
     3
1000
923097
1002
}
  0
LINE
  5
A2
330
87
100
AcDbEntity
  8
M-PIPE
100
AcDbLine
 10
697.4774464474339
 20
2081.902143114499
 30
0.0
 11
697.3163473729867
 21
2081.843507846632
 31
0.0
1001
REVIT
1002
{
1070
     3
1000
923097
1002
}
  0
LINE
  5
A3
330
87
100
AcDbEntity
  8
M-PIPE
100
AcDbLine
 10
696.9536042669009
 20
2081.711480153332
 30
0.0
 11
696.5467329038085
 21
2081.563391087991
 31
0.0
1001
REVIT
1002
{
1070
     3
1000
923097
1002
}
  0
LINE
  5
A4
330
87
100
AcDbEntity
  8
M-PIPE
100
AcDbLine
 10
696.4960297788884
 20
2081.544936659736
 30
0.0
 11
696.257426099458
 21
2081.458092022637
 31
0.0
1001
REVIT
1002
{
1070
     3
1000
923097
1002
}
  0
LINE
  5
A5
330
87
100
AcDbEntity
  8
M-PIPE
100
AcDbLine
 10
696.2498150761979
 20
2081.455321836718
 30
0.0
 11
696.0854982382411
 21
2081.395515398713
 31
0.0
1001
REVIT
1002
{
1070
     3
1000
923097
1002
}
  0
LINE
  5
A6
330
87
100
AcDbEntity
  8
M-PIPE
100
AcDbLine
 10
696.0815057152238
 20
2081.394062239175
 30
0.0
 11
696.0294846833909
 21
2081.375128132032
 31
0.0
1001
REVIT
1002
{
1070
     3
1000
923097
1002
}
  0
LINE
  5
A7
330
87
100
AcDbEntity
  8
M-PIPE
100
AcDbLine
 10
735.4965747564001
 20
2095.739974151708
 30
0.0
 11
735.4442808033077
 21
2095.72094070935
 31
0.0
1001
REVIT
1002
{
1070
     3
1000
923097
1002
}
  0
LINE
  5
A8
330
87
100
AcDbEntity
  8
M-PIPE
100
AcDbLine
 10
735.4402916790068
 20
2095.719488786844
 30
0.0
 11
735.2752547415654
 21
2095.65942025406
 31
0.0
1001
REVIT
1002
{
1070
     3
1000
923097
1002
}
  0
LINE
  5
A9
330
87
100
AcDbEntity
  8
M-PIPE
100
AcDbLine
 10
735.2676976287235
 20
2095.656669689929
 30
0.0
 11
735.0275906592048
 21
2095.569277899985
 31
0.0
1001
REVIT
1002
{
1070
     3
1000
923097
1002
}
  0
LINE
  5
AA
330
87
100
AcDbEntity
  8
M-PIPE
100
AcDbLine
 10
734.9775941303089
 20
2095.55108065165
 30
0.0
 11
734.5700791614326
 21
2095.402757332961
 31
0.0
1001
REVIT
1002
{
1070
     3
1000
923097
1002
}
  0
LINE
  5
AB
330
87
100
AcDbEntity
  8
M-PIPE
100
AcDbLine
 10
734.203032507125
 20
2095.269163276206
 30
0.0
 11
734.0460355318728
 21
2095.212021050344
 31
0.0
1001
REVIT
1002
{
1070
     3
1000
923097
1002
}
  0
LINE
  5
AC
330
87
100
AcDbEntity
  8
M-PIPE
100
AcDbLine
 10
733.6429299612493
 20
2095.065302621371
 30
0.0
 11
733.4065239519678
 21
2094.97925787079
 31
0.0
1001
REVIT
1002
{
1070
     3
1000
923097
1002
}
  0
LINE
  5
AD
330
87
100
AcDbEntity
  8
M-PIPE
100
AcDbLine
 10
732.9880638376395
 20
2094.826950844947
 30
0.0
 11
732.6522288237785
 21
2094.704716896277
 31
0.0
1001
REVIT
1002
{
1070
     3
1000
923097
1002
}
  0
LINE
  5
AE
330
87
100
AcDbEntity
  8
M-PIPE
100
AcDbLine
 10
732.2419049306497
 20
2094.55537121277
 30
0.0
 11
731.7864931497466
 21
2094.389614880187
 31
0.0
1001
REVIT
1002
{
1070
     3
1000
923097
1002
}
  0
LINE
  5
AF
330
87
100
AcDbEntity
  8
M-PIPE
100
AcDbLine
 10
731.4084078869297
 20
2094.252003098507
 30
0.0
 11
730.8161373724913
 21
2094.036434260618
 31
0.0
1001
REVIT
1002
{
1070
     3
1000
923097
1002
}
  0
LINE
  5
B0
330
87
100
AcDbEntity
  8
M-PIPE
100
AcDbLine
 10
730.4919902457735
 20
2093.91845435497
 30
0.0
 11
729.7502044560175
 21
2093.648466407297
 31
0.0
1001
REVIT
1002
{
1070
     3
1000
923097
1002
}
  0
LINE
  5
B1
330
87
100
AcDbEntity
  8
M-PIPE
100
AcDbLine
 10
729.4975090261357
 20
2093.556492792485
 30
0.0
 11
728.5996461400019
 21
2093.22969742748
 31
0.0
1001
REVIT
1002
{
1070
     3
1000
923097
1002
}
  0
LINE
  5
B2
330
87
100
AcDbEntity
  8
M-PIPE
100
AcDbLine
 10
728.4870550605611
 20
2093.188717625919
 30
0.0
 11
727.3733646691781
 21
2092.783367473268
 31
0.0
1001
REVIT
1002
{
1070
     3
1000
923097
1002
}
  0
LINE
  5
B3
330
87
100
AcDbEntity
  8
M-PIPE
100
AcDbLine
 10
727.2958246793458
 20
2092.755145225003
 30
0.0
 11
726.1002904923404
 21
2092.320006366886
 31
0.0
1001
REVIT
1002
{
1070
     3
1000
923097
1002
}
  0
LINE
  5
B4
330
87
100
AcDbEntity
  8
M-PIPE
100
AcDbLine
 10
726.0781429577256
 20
2092.311945323524
 30
0.0
 11
724.8499687616942
 21
2091.864926473675
 31
0.0
1001
REVIT
1002
{
1070
     3
1000
923097
1002
}
  0
LINE
  5
B5
330
87
100
AcDbEntity
  8
M-PIPE
100
AcDbLine
 10
724.7240659685993
 20
2091.819101604577
 30
0.0
 11
720.837785223076
 21
2090.404611091205
 31
0.0
1001
REVIT
1002
{
1070
     3
1000
923097
1002
}
  0
LINE
  5
B6
330
87
100
AcDbEntity
  8
M-PIPE
100
AcDbLine
 10
714.6853225322121
 20
2077.523520079513
 30
0.0
 11
711.2651210989468
 21
2086.920446287396
 31
0.0
1001
REVIT
1002
{
1070
     3
1000
923097
1002
}
  0
LINE
  5
B7
330
87
100
AcDbEntity
  8
M-PIPE
100
AcDbLine
 10
720.190940826569
 20
2090.169178984677
 30
0.0
 11
723.6111422598342
 21
2080.772252776793
 31
0.0
1001
REVIT
1002
{
1070
     3
1000
923097
1002
}
  0
LINE
  5
B8
330
87
100
AcDbEntity
  8
M-PIPE
100
AcDbLine
 10
754.5166999753909
 20
2059.563533798141
 30
0.0
 11
753.490639545414
 21
2062.382611660499
 31
0.0
1001
REVIT
1002
{
1070
     3
1000
923097
1002
}
  0
LINE
  5
B9
330
87
100
AcDbEntity
  8
M-PIPE
100
AcDbLine
 10
703.6869306438185
 20
2044.25554406426
 30
0.0
 11
704.7129910737955
 21
2041.436466201902
 31
0.0
1001
REVIT
1002
{
1070
     3
1000
923097
1002
}
  0
LINE
  5
BA
330
87
100
AcDbEntity
  8
M-PIPE
100
AcDbLine
 10
748.1619594144705
 20
2069.713528995481
 30
0.0
 11
747.5933803931546
 21
2069.813784817604
 31
0.0
1001
REVIT
1002
{
1070
     3
1000
923097
1002
}
  0
LINE
  5
BB
330
87
100
AcDbEntity
  8
M-PIPE
100
AcDbLine
 10
703.4278272162168
 20
2053.738838081299
 30
0.0
 11
703.0567136167418
 21
2053.296562115864
 31
0.0
1001
REVIT
1002
{
1070
     3
1000
923097
1002
}
  0
LWPOLYLINE
  5
BC
330
87
100
AcDbEntity
  8
M-PIPE
100
AcDbPolyline
 90
        3
 70
   128
 43
0.0
 10
703.4278272162173
 20
2053.738838081297
 10
700.4851000860895
 20
2063.29535546031
 10
698.8951975437927
 20
2069.115940157197
1001
REVIT
1002
{
1070
     3
1000
923097
1002
}
  0
LWPOLYLINE
  5
BD
330
87
100
AcDbEntity
  8
M-PIPE
100
AcDbPolyline
 90
        3
 70
   128
 43
0.0
 10
741.1813654791593
 20
2084.506846606851
 10
745.2911085698632
 20
2075.391108616641
 10
747.5933803931553
 20
2069.813784817603
1001
REVIT
1002
{
1070
     3
1000
923097
1002
}
  0
LINE
  5
BE
330
87
100
AcDbEntity
  8
M-PIPE
100
AcDbLine
 10
753.4906395454123
 20
2062.382611660499
 30
0.0
 11
703.6869306438168
 21
2044.255544064259
 31
0.0
1001
REVIT
1002
{
1070
     3
1000
923097
1002
}
  0
LINE
  5
BF
330
87
100
AcDbEntity
  8
M-PIPE
100
AcDbLine
 10
710.1280413565731
 20
2046.599916639316
 30
0.0
 11
707.459052092234
 21
2053.932904375854
 31
0.0
1001
REVIT
1002
{
1070
     3
1000
923097
1002
}
  0
LINE
  5
C0
330
87
100
AcDbEntity
  8
M-PIPE
100
AcDbLine
 10
703.3671729314245
 20
2052.443582159105
 30
0.0
 11
706.0361621957635
 21
2045.110594422567
 31
0.0
1001
REVIT
1002
{
1070
     3
1000
923097
1002
}
  0
LINE
  5
C1
330
87
100
AcDbEntity
  8
M-PIPE
100
AcDbLine
 10
751.1414079934873
 20
2061.527561302198
 30
0.0
 11
748.4724187291482
 21
2068.860549038737
 31
0.0
1001
REVIT
1002
{
1070
     3
1000
923097
1002
}
  0
LINE
  5
C2
330
87
100
AcDbEntity
  8
M-PIPE
100
AcDbLine
 10
744.3805395682951
 20
2067.371226821972
 30
0.0
 11
747.0495288326342
 21
2060.038239085434
 31
0.0
1001
REVIT
1002
{
1070
     3
1000
923097
1002
}
  0
LINE
  5
C3
330
87
100
AcDbEntity
  8
M-PIPE
100
AcDbLine
 10
732.6806642554737
 20
2054.808400079145
 30
0.0
 11
730.0116749911346
 21
2062.141387815684
 31
0.0
1001
REVIT
1002
{
1070
     3
1000
923097
1002
}
  0
LINE
  5
C4
330
87
100
AcDbEntity
  8
M-PIPE
100
AcDbLine
 10
721.8279166694461
 20
2059.162743382161
 30
0.0
 11
724.4969059337852
 21
2051.829755645622
 31
0.0
1001
REVIT
1002
{
1070
     3
1000
923097
1002
}
  0
SPLINE
  5
C5
330
87
100
AcDbEntity
  8
M-PIPE
100
AcDbSpline
210
0.0
220
0.0
230
1.0
 70
    24
 71
     3
 72
     9
 73
     5
 74
     0
 42
0.000000001
 43
0.0000000001
 40
-1.0
 40
-1.0
 40
-1.0
 40
-1.0
 40
-0.5
 40
0.0
 40
0.0
 40
0.0
 40
0.0
 10
703.0567136167401
 20
2053.296562115862
 30
0.0
 10
703.0584900607642
 20
2053.291681376019
 30
0.0
 10
703.1120097239026
 20
2053.144637310049
 30
0.0
 10
703.2654629372208
 20
2052.723028071515
 30
0.0
 10
703.3671729314249
 20
2052.443582159106
 30
0.0
1001
REVIT
1002
{
1070
     3
1000
923097
1002
}
  0
LINE
  5
C6
330
87
100
AcDbEntity
  8
M-PIPE
100
AcDbLine
 10
707.4590520922349
 20
2053.932904375855
 30
0.0
 11
703.3671729314249
 21
2052.443582159106
 31
0.0
1001
REVIT
1002
{
1070
     3
1000
923097
1002
}
  0
SPLINE
  5
C7
330
87
100
AcDbEntity
  8
M-PIPE
100
AcDbSpline
210
0.0
220
0.0
230
1.0
 70
     8
 71
     3
 72
     9
 73
     5
 74
     0
 42
0.000000001
 43
0.0000000001
 40
-1.0
 40
-1.0
 40
-1.0
 40
-1.0
 40
-0.5
 40
0.0
 40
0.0
 40
0.0
 40
0.0
 10
707.4590520922348
 20
2053.932904375855
 30
0.0
 10
709.6121049979536
 20
2055.360501714901
 30
0.0
 10
714.1599686665406
 20
2057.659738888333
 30
0.0
 10
719.1913480494271
 20
2058.847061052439
 30
0.0
 10
721.8279166694453
 20
2059.16274338216
 30
0.0
1001
REVIT
1002
{
1070
     3
1000
923097
1002
}
  0
LINE
  5
C8
330
87
100
AcDbEntity
  8
M-PIPE
100
AcDbLine
 10
730.0116749911374
 20
2062.141387815685
 30
0.0
 11
721.8279166694454
 21
2059.16274338216
 31
0.0
1001
REVIT
1002
{
1070
     3
1000
923097
1002
}
  0
SPLINE
  5
C9
330
87
100
AcDbEntity
  8
M-PIPE
100
AcDbSpline
210
0.0
220
0.0
230
1.0
 70
     8
 71
     3
 72
     9
 73
     5
 74
     0
 42
0.000000001
 43
0.0000000001
 40
-1.0
 40
-1.0
 40
-1.0
 40
-1.0
 40
-0.5
 40
0.0
 40
0.0
 40
0.0
 40
0.0
 10
730.0116749911373
 20
2062.141387815685
 30
0.0
 10
732.1647278968488
 20
2063.568985154724
 30
0.0
 10
736.7125915654197
 20
2065.868222328145
 30
0.0
 10
741.7439709482863
 20
2067.055544492248
 30
0.0
 10
744.3805395682935
 20
2067.371226821972
 30
0.0
1001
REVIT
1002
{
1070
     3
1000
923097
1002
}
  0
LINE
  5
CA
330
87
100
AcDbEntity
  8
M-PIPE
100
AcDbLine
 10
748.4724187291488
 20
2068.860549038737
 30
0.0
 11
744.3805395682936
 21
2067.371226821972
 31
0.0
1001
REVIT
1002
{
1070
     3
1000
923097
1002
}
  0
SPLINE
  5
CB
330
87
100
AcDbEntity
  8
M-PIPE
100
AcDbSpline
210
0.0
220
0.0
230
1.0
 70
    24
 71
     3
 72
     9
 73
     5
 74
     0
 42
0.000000001
 43
0.0000000001
 40
-1.0
 40
-1.0
 40
-1.0
 40
-1.0
 40
-0.5
 40
0.0
 40
0.0
 40
0.0
 40
0.0
 10
748.4724187291488
 20
2068.860549038737
 30
0.0
 10
748.3707087349462
 20
2069.139994951142
 30
0.0
 10
748.2172555216302
 20
2069.56160418967
 30
0.0
 10
748.1637358584928
 20
2069.708648255637
 30
0.0
 10
748.1619594144688
 20
2069.713528995481
 30
0.0
1001
REVIT
1002
{
1070
     3
1000
923097
1002
}
  0
LINE
  5
CC
330
87
100
AcDbEntity
  8
M-PIPE
100
AcDbLine
 10
747.5933803931536
 20
2069.813784817602
 30
0.0
 11
703.4278272162157
 21
2053.738838081296
 31
0.0
1001
REVIT
1002
{
1070
     3
1000
923097
1002
}
  0
LINE
  5
CD
330
87
100
AcDbEntity
  8
M-PIPE
100
AcDbLine
 10
741.1813654791575
 20
2084.506846606851
 30
0.0
 11
698.8951975437911
 21
2069.115940157196
 31
0.0
1001
REVIT
1002
{
1070
     3
1000
923097
1002
}
  0
LWPOLYLINE
  5
CE
330
87
100
AcDbEntity
  8
P-SANR-FIXT
100
AcDbPolyline
 90
        5
 70
   128
 43
0.0
 10
708.0334860589941
 20
2109.794297812924
 10
711.7447692812409
 20
2111.050034196308
 10
715.5032999346442
 20
2112.156354379487
 10
719.3030651719358
 20
2113.111488486171
 10
721.1617437795
 20
2113.520397389539
  0
LWPOLYLINE
  5
CF
330
87
100
AcDbEntity
  8
P-SANR-FIXT
100
AcDbPolyline
 90
        5
 70
   128
 43
0.0
 10
695.5815665440601
 20
2104.209974288585
 10
699.0724027906993
 20
2105.988895118592
 10
702.6315846002399
 20
2107.626796784419
 10
706.2534180410383
 20
2109.1210589928
 10
708.0334860589941
 20
2109.794297812924
  0
LWPOLYLINE
  5
D0
330
87
100
AcDbEntity
  8
P-SANR-FIXT
100
AcDbPolyline
 90
       32
 70
   128
 43
0.0
 10
721.1617437795
 20
2113.520397389539
 10
721.3582500618185
 20
2113.557545040346
 10
721.556084669893
 20
2113.586804821601
 10
721.7549311105533
 20
2113.608129923896
 10
721.9544712719123
 20
2113.621486231616
 10
722.1543859322784
 20
2113.626852377518
 10
722.3543552708409
 20
2113.624219776914
 10
722.5540593793162
 20
2113.613592641403
 10
722.7531787737319
 20
2113.594987972135
 10
722.9513949055338
 20
2113.56843553261
 10
723.1483906711943
 20
2113.53397780107
 10
723.3438509195122
 20
2113.491669902534
 10
723.5374629557862
 20
2113.441579520613
 10
723.7289170420598
 20
2113.383786789234
 10
723.9179068926363
 20
2113.318384164438
 10
724.1041301640707
 20
2113.245476276474
 10
724.287288938854
 20
2113.165179762409
 10
724.4670902020186
 20
2113.077623079537
 10
724.6432463098986
 20
2112.982946299872
 10
724.8154754502997
 20
2112.881300886066
 10
724.9835020933373
 20
2112.772849449098
 10
725.1470574322263
 20
2112.65776548813
 10
725.3058798133145
 20
2112.536233112951
 10
725.4597151546724
 20
2112.408446749436
 10
725.6083173525706
 20
2112.274610828507
 10
725.7514486751923
 20
2112.134939459087
 10
725.8888801429541
 20
2111.989656085572
 10
726.0203918948252
 20
2111.838993130368
 10
726.1457735400568
 20
2111.683191622063
 10
726.2648244947633
 20
2111.522500809835
 10
726.3773543028128
 20
2111.357177764703
 10
726.4310695101977
 20
2111.272937839899
  0
LWPOLYLINE
  5
D1
330
87
100
AcDbEntity
  8
P-SANR-FIXT
100
AcDbPolyline
 90
       32
 70
   128
 43
0.0
 10
692.9896680008555
 20
2099.101263098354
 10
692.965631527966
 20
2099.299800034268
 10
692.9495536415695
 20
2099.499139364356
 10
692.941460062855
 20
2099.698962188215
 10
692.9413637398214
 20
2099.898948831951
 10
692.9492648265652
 20
2100.098779359598
 10
692.9651506830331
 20
2100.298134084937
 10
692.9889958952436
 20
2100.496694082937
 10
693.0207623159435
 20
2100.694141699958
 10
693.0603991256369
 20
2100.890161061931
 10
693.107842913883
 20
2101.084438579694
 10
693.1630177807418
 20
2101.27666345066
 10
693.2258354581961
 20
2101.466528156044
 10
693.2961954513624
 20
2101.653728952818
 10
693.3739851992611
 20
2101.83796635964
 10
693.4590802548899
 20
2102.018945635965
 10
693.5513444843119
 20
2102.196377253554
 10
693.6506302844427
 20
2102.36997735967
 10
693.7567788191816
 20
2102.539468231176
 10
693.8696202735167
 20
2102.704578718833
 10
693.988974125193
 20
2102.865044681085
 10
694.1146494335082
 20
2103.02060940662
 10
694.2464451447786
 20
2103.171024025065
 10
694.3841504139808
 20
2103.316047905116
 10
694.52754494206
 20
2103.455449039502
 10
694.6763993283605
 20
2103.589004416145
 10
694.8304754376174
 20
2103.716500374933
 10
694.9895267809246
 20
2103.837732949529
 10
695.1532989100615
 20
2103.952508193676
 10
695.3215298245575
 20
2104.060642491468
 10
695.4939503908373
 20
2104.161962851095
 10
695.5815665440598
 20
2104.209974288585
  0
LWPOLYLINE
  5
D2
330
87
100
AcDbEntity
  8
P-SANR-FIXT
100
AcDbPolyline
 90
        3
 70
   128
 43
0.0
 10
726.4310695101965
 20
2111.2729378399
 10
732.7069084186602
 20
2100.747241629772
 10
735.4965747564208
 20
2095.739974151685
  0
LWPOLYLINE
  5
D3
330
87
100
AcDbEntity
  8
P-SANR-FIXT
100
AcDbPolyline
 90
        3
 70
   128
 43
0.0
 10
696.0294846834154
 20
2081.375128132008
 10
693.8453058744464
 20
2093.433560768273
 10
692.9896680008553
 20
2099.101263098356
  0
LINE
  5
D4
330
87
100
AcDbEntity
  8
P-SANR-FIXT
100
AcDbLine
 10
735.4357428228093
 20
2095.717833138557
 30
0.0
 11
735.4241704342168
 21
2095.71362113357
 31
0.0
  0
LINE
  5
D5
330
87
100
AcDbEntity
  8
P-SANR-FIXT
100
AcDbLine
 10
735.2536220710791
 20
2095.651546605885
 30
0.0
 11
735.0189371752263
 21
2095.566128289362
 31
0.0
  0
LINE
  5
D6
330
87
100
AcDbEntity
  8
P-SANR-FIXT
100
AcDbLine
 10
734.6481071367167
 20
2095.431157193373
 30
0.0
 11
734.1766114198536
 21
2095.259546786852
 31
0.0
  0
LINE
  5
D7
330
87
100
AcDbEntity
  8
P-SANR-FIXT
100
AcDbLine
 10
733.6080865804635
 20
2095.052620667873
 30
0.0
 11
732.9482634394785
 21
2094.812464684673
 31
0.0
  0
LINE
  5
D8
330
87
100
AcDbEntity
  8
P-SANR-FIXT
100
AcDbLine
 10
732.588642803129
 20
2094.681573477414
 30
0.0
 11
732.2026225084735
 21
2094.541073580337
 31
0.0
  0
LINE
  5
D9
330
87
100
AcDbEntity
  8
P-SANR-FIXT
100
AcDbLine
 10
731.374398654315
 20
2094.239624750115
 30
0.0
 11
730.7685350881099
 21
2094.019108445989
 31
0.0
  0
LINE
  5
DA
330
87
100
AcDbEntity
  8
P-SANR-FIXT
100
AcDbLine
 10
730.4663502503232
 20
2093.909122159788
 30
0.0
 11
729.7167532320776
 21
2093.636291157452
 31
0.0
  0
LINE
  5
DB
330
87
100
AcDbEntity
  8
P-SANR-FIXT
100
AcDbLine
 10
729.4808312679601
 20
2093.550422584904
 30
0.0
 11
728.4732096568998
 21
2093.183678311075
 31
0.0
  0
LINE
  5
DC
330
87
100
AcDbEntity
  8
P-SANR-FIXT
100
AcDbLine
 10
728.4198670503683
 20
2093.164263190079
 30
0.0
 11
727.362116467822
 21
2092.779273462754
 31
0.0
  0
LINE
  5
DD
330
87
100
AcDbEntity
  8
P-SANR-FIXT
100
AcDbLine
 10
727.2888289814714
 20
2092.752598999179
 30
0.0
 11
726.0968983909596
 21
2092.318771742921
 31
0.0
  0
LINE
  5
DE
330
87
100
AcDbEntity
  8
P-SANR-FIXT
100
AcDbLine
 10
726.0737786782467
 20
2092.310356855668
 30
0.0
 11
724.8521018502771
 21
2091.865702854395
 31
0.0
  0
LINE
  5
DF
330
87
100
AcDbEntity
  8
P-SANR-FIXT
100
AcDbLine
 10
724.721871692671
 20
2091.818302953423
 30
0.0
 11
723.556640300354
 21
2091.394193410587
 31
0.0
  0
LINE
  5
E0
330
87
100
AcDbEntity
  8
P-SANR-FIXT
100
AcDbLine
 10
723.3147304672162
 20
2091.306145431948
 30
0.0
 11
722.2173349784226
 21
2090.906726138809
 31
0.0
  0
LINE
  5
E1
330
87
100
AcDbEntity
  8
P-SANR-FIXT
100
AcDbLine
 10
721.8610304954591
 20
2090.777041912675
 30
0.0
 11
720.8412809748456
 21
2090.405883440764
 31
0.0
  0
LINE
  5
E2
330
87
100
AcDbEntity
  8
P-SANR-FIXT
100
AcDbLine
 10
720.8378881202219
 20
2090.404648542673
 30
0.0
 11
710.6228405006183
 21
2086.686675267525
 31
0.0
  0
LINE
  5
E3
330
87
100
AcDbEntity
  8
P-SANR-FIXT
100
AcDbLine
 10
710.6192209148059
 20
2086.685357846029
 30
0.0
 11
709.6650289443736
 21
2086.338060371016
 31
0.0
  0
LINE
  5
E4
330
87
100
AcDbEntity
  8
P-SANR-FIXT
100
AcDbLine
 10
709.2404857010635
 20
2086.183539267292
 30
0.0
 11
708.2113289726166
 21
2085.808956851742
 31
0.0
  0
LINE
  5
E5
330
87
100
AcDbEntity
  8
P-SANR-FIXT
100
AcDbLine
 10
707.9003773751574
 20
2085.69577972597
 30
0.0
 11
706.8041877471617
 21
2085.296799330268
 31
0.0
  0
LINE
  5
E6
330
87
100
AcDbEntity
  8
P-SANR-FIXT
100
AcDbLine
 10
706.6059054328148
 20
2085.224630469864
 30
0.0
 11
705.4522807615864
 21
2084.804745428022
 31
0.0
  0
LINE
  5
E7
330
87
100
AcDbEntity
  8
P-SANR-FIXT
100
AcDbLine
 10
705.3637661198057
 20
2084.772528733117
 30
0.0
 11
704.17940447491
 21
2084.341456347768
 31
0.0
  0
LINE
  5
E8
330
87
100
AcDbEntity
  8
P-SANR-FIXT
100
AcDbLine
 10
704.163942972011
 20
2084.335828820936
 30
0.0
 11
703.0540829232498
 21
2083.931872798986
 31
0.0
  0
LINE
  5
E9
330
87
100
AcDbEntity
  8
P-SANR-FIXT
100
AcDbLine
 10
702.9471174093242
 20
2083.892940535824
 30
0.0
 11
702.0005241666263
 21
2083.548408771525
 31
0.0
  0
LINE
  5
EA
330
87
100
AcDbEntity
  8
P-SANR-FIXT
100
AcDbLine
 10
701.8093062077554
 20
2083.478811126239
 30
0.0
 11
701.0238147189603
 21
2083.192915605048
 31
0.0
  0
LINE
  5
EB
330
87
100
AcDbEntity
  8
P-SANR-FIXT
100
AcDbLine
 10
700.757524351723
 20
2083.095993837702
 30
0.0
 11
700.1247604246477
 21
2082.865686602929
 31
0.0
  0
LINE
  5
EC
330
87
100
AcDbEntity
  8
P-SANR-FIXT
100
AcDbLine
 10
699.3047223645095
 20
2082.567217158073
 30
0.0
 11
698.5657195163686
 21
2082.298242118312
 31
0.0
  0
LINE
  5
ED
330
87
100
AcDbEntity
  8
P-SANR-FIXT
100
AcDbLine
 10
698.1803123470276
 20
2082.157965380599
 30
0.0
 11
697.9105311516922
 21
2082.059773055732
 31
0.0
  0
LINE
  5
EE
330
87
100
AcDbEntity
  8
P-SANR-FIXT
100
AcDbLine
 10
697.5316113568019
 20
2081.921857529218
 30
0.0
 11
697.3450431804168
 21
2081.853952266352
 31
0.0
  0
LINE
  5
EF
330
87
100
AcDbEntity
  8
P-SANR-FIXT
100
AcDbLine
 10
696.8756376798403
 20
2081.683102636342
 30
0.0
 11
696.5061110886421
 21
2081.548605956376
 31
0.0
  0
SPLINE
  5
F0
330
87
100
AcDbEntity
  8
P-SANR-FIXT
100
AcDbSpline
210
0.0
220
0.0
230
1.0
 70
     8
 71
     3
 72
    23
 73
    19
 74
     0
 42
0.000000001
 43
0.0000000001
 40
-1.0
 40
-1.0
 40
-1.0
 40
-1.0
 40
-0.9166666666666666
 40
-0.875
 40
-0.8333333333333332
 40
-0.75
 40
-0.7083333333333333
 40
-0.6666666666666666
 40
-0.5833333333333333
 40
-0.5
 40
-0.4166666666666666
 40
-0.3333333333333333
 40
-0.2916666666666666
 40
-0.25
 40
-0.1666666666666666
 40
-0.125
 40
-0.0833333333333333
 40
0.0
 40
0.0
 40
0.0
 40
0.0
 10
693.9953153058935
 20
2099.467288783559
 30
0.0
 10
693.9866014947077
 20
2099.704315776814
 30
0.0
 10
694.0013506539234
 20
2100.041738238493
 30
0.0
 10
694.0734793659447
 20
2100.454642188855
 30
0.0
 10
694.1764384460039
 20
2100.840310147918
 30
0.0
 10
694.3362962795961
 20
2101.19539474903
 30
0.0
 10
694.5275180504714
 20
2101.502787976736
 30
0.0
 10
694.7239046786818
 20
2101.766989639015
 30
0.0
 10
694.9952861193992
 20
2102.022400238257
 30
0.0
 10
695.3226187429958
 20
2102.203308229229
 30
0.0
 10
695.6393095534929
 20
2102.255303066872
 30
0.0
 10
695.8825436554451
 20
2102.186080105066
 30
0.0
 10
696.0622389493886
 20
2102.056731263682
 30
0.0
 10
696.2394505351083
 20
2101.880647480461
 30
0.0
 10
696.402291862416
 20
2101.641265110124
 30
0.0
 10
696.5548154456074
 20
2101.349888444144
 30
0.0
 10
696.7078653503859
 20
2101.021183566812
 30
0.0
 10
696.8251201840559
 20
2100.73485085721
 30
0.0
 10
696.9067125740662
 20
2100.526950729298
 30
0.0
  0
SPLINE
  5
F1
330
87
100
AcDbEntity
  8
P-SANR-FIXT
100
AcDbSpline
210
0.0
220
0.0
230
1.0
 70
     8
 71
     3
 72
    23
 73
    19
 74
     0
 42
0.000000001
 43
0.0000000001
 40
-1.0
 40
-1.0
 40
-1.0
 40
-1.0
 40
-0.9166666666666666
 40
-0.875
 40
-0.8333333333333332
 40
-0.75
 40
-0.7083333333333333
 40
-0.6666666666666666
 40
-0.5833333333333333
 40
-0.5
 40
-0.4166666666666666
 40
-0.3333333333333333
 40
-0.2916666666666666
 40
-0.25
 40
-0.1666666666666666
 40
-0.125
 40
-0.0833333333333333
 40
0.0
 40
0.0
 40
0.0
 40
0.0
 10
706.7989714873516
 20
2104.127438523388
 30
0.0
 10
706.7956142680619
 20
2104.366415156651
 30
0.0
 10
706.8221450025885
 20
2104.708125761055
 30
0.0
 10
706.9242729451566
 20
2105.131948538387
 30
0.0
 10
707.0687982360387
 20
2105.532745360941
 30
0.0
 10
707.2961727966296
 20
2105.912404040995
 30
0.0
 10
707.5876875461879
 20
2106.256300927649
 30
0.0
 10
707.9013722304976
 20
2106.563195590885
 30
0.0
 10
708.3631732188717
 20
2106.887913237496
 30
0.0
 10
708.9826697201791
 20
2107.175160183483
 30
0.0
 10
709.6502105252344
 20
2107.354853975838
 30
0.0
 10
710.2200697095513
 20
2107.404512821777
 30
0.0
 10
710.6591595137065
 20
2107.369575861042
 30
0.0
 10
711.1046507001145
 20
2107.291137866932
 30
0.0
 10
711.5223835208691
 20
2107.144528413178
 30
0.0
 10
711.8887612244716
 20
2106.930988281503
 30
0.0
 10
712.236533547743
 20
2106.673156568446
 30
0.0
 10
712.4733065770657
 20
2106.430324924514
 30
0.0
 10
712.6217660236973
 20
2106.246762414866
 30
0.0
  0
SPLINE
  5
F2
330
87
100
AcDbEntity
  8
P-SANR-FIXT
100
AcDbSpline
210
0.0
220
0.0
230
1.0
 70
     8
 71
     3
 72
    23
 73
    19
 74
     0
 42
0.000000001
 43
0.0000000001
 40
-1.0
 40
-1.0
 40
-1.0
 40
-1.0
 40
-0.9166666666666666
 40
-0.875
 40
-0.8333333333333332
 40
-0.75
 40
-0.7083333333333333
 40
-0.6666666666666666
 40
-0.5833333333333333
 40
-0.5
 40
-0.4166666666666666
 40
-0.3333333333333333
 40
-0.2916666666666666
 40
-0.25
 40
-0.1666666666666666
 40
-0.125
 40
-0.0833333333333333
 40
0.0
 40
0.0
 40
0.0
 40
0.0
 10
722.5140249369819
 20
2109.847250208956
 30
0.0
 10
722.442183199391
 20
2110.061300516049
 30
0.0
 10
722.3472446097824
 20
2110.358799902092
 30
0.0
 10
722.2529765251814
 20
2110.711140371407
 30
0.0
 10
722.1826353676907
 20
2111.03373220241
 30
0.0
 10
722.154729917937
 20
2111.320476557295
 30
0.0
 10
722.1785973155305
 20
2111.566957774554
 30
0.0
 10
722.2339554656275
 20
2111.779829268615
 30
0.0
 10
722.3740332270415
 20
2111.987449236941
 30
0.0
 10
722.6463450403269
 20
2112.148331290694
 30
0.0
 10
723.0175300036473
 20
2112.220160377907
 30
0.0
 10
723.3948559019767
 20
2112.199742838641
 30
0.0
 10
723.7168426847545
 20
2112.122183863783
 30
0.0
 10
724.0624443401153
 20
2112.007389053657
 30
0.0
 10
724.4133206610838
 20
2111.836445824013
 30
0.0
 10
724.7386633067381
 20
2111.607970152683
 30
0.0
 10
725.0569328742788
 20
2111.339400314712
 30
0.0
 10
725.2821928388759
 20
2111.092378257915
 30
0.0
 10
725.4254222051549
 20
2110.906912154696
 30
0.0
  0
SPLINE
  5
F3
330
87
100
AcDbEntity
  8
P-SANR-FIXT
100
AcDbSpline
210
0.0
220
0.0
230
1.0
 70
     8
 71
     3
 72
     9
 73
     5
 74
     0
 42
0.000000001
 43
0.0000000001
 40
-1.0
 40
-1.0
 40
-1.0
 40
-1.0
 40
-0.5
 40
0.0
 40
0.0
 40
0.0
 40
0.0
 10
725.4254222051549
 20
2110.906912154696
 30
0.0
 10
726.6998269681079
 20
2109.081761658022
 30
0.0
 10
729.2365780291093
 20
2105.384297267761
 30
0.0
 10
731.5774469090871
 20
2101.529988644946
 30
0.0
 10
732.6820398843899
 20
2099.557482762904
 30
0.0
  0
LINE
  5
F4
330
87
100
AcDbEntity
  8
P-SANR-FIXT
100
AcDbLine
 10
732.682039884389
 20
2099.557482762905
 30
0.0
 11
727.4843248970222
 21
2097.665669221305
 31
0.0
  0
SPLINE
  5
F5
330
87
100
AcDbEntity
  8
P-SANR-FIXT
100
AcDbSpline
210
0.0
220
0.0
230
1.0
 70
     8
 71
     3
 72
     9
 73
     5
 74
     0
 42
0.000000001
 43
0.0000000001
 40
-1.0
 40
-1.0
 40
-1.0
 40
-1.0
 40
-0.5
 40
0.0
 40
0.0
 40
0.0
 40
0.0
 10
727.484324897023
 20
2097.665669221302
 30
0.0
 10
726.590935792732
 20
2099.715047025756
 30
0.0
 10
724.8075062358948
 20
2103.772246969603
 30
0.0
 10
723.2075562353603
 20
2107.810679061303
 30
0.0
 10
722.5140249369819
 20
2109.847250208956
 30
0.0
  0
SPLINE
  5
F6
330
87
100
AcDbEntity
  8
P-SANR-FIXT
100
AcDbSpline
210
0.0
220
0.0
230
1.0
 70
     8
 71
     3
 72
     9
 73
     5
 74
     0
 42
0.000000001
 43
0.0000000001
 40
-1.0
 40
-1.0
 40
-1.0
 40
-1.0
 40
-0.5
 40
0.0
 40
0.0
 40
0.0
 40
0.0
 10
712.6217660236973
 20
2106.246762414866
 30
0.0
 10
713.9383085888131
 20
2104.436948823918
 30
0.0
 10
716.360195301511
 20
2100.697677229896
 30
0.0
 10
718.4302151791785
 20
2096.74478763226
 30
0.0
 10
719.4045830530277
 20
2094.724883689533
 30
0.0
  0
LINE
  5
F7
330
87
100
AcDbEntity
  8
P-SANR-FIXT
100
AcDbLine
 10
719.4045830530272
 20
2094.724883689535
 30
0.0
 11
709.0091530782939
 21
2090.941256606334
 31
0.0
  0
SPLINE
  5
F8
330
87
100
AcDbEntity
  8
P-SANR-FIXT
100
AcDbSpline
210
0.0
220
0.0
230
1.0
 70
     8
 71
     3
 72
     9
 73
     5
 74
     0
 42
0.000000001
 43
0.0000000001
 40
-1.0
 40
-1.0
 40
-1.0
 40
-1.0
 40
-0.5
 40
0.0
 40
0.0
 40
0.0
 40
0.0
 10
709.0091530782943
 20
2090.941256606332
 30
0.0
 10
708.4571929464686
 20
2093.114904393878
 30
0.0
 10
707.5020517150824
 20
2097.47357663358
 30
0.0
 10
706.9537671233185
 20
2101.89478363048
 30
0.0
 10
706.7989714873516
 20
2104.127438523388
 30
0.0
  0
SPLINE
  5
F9
330
87
100
AcDbEntity
  8
P-SANR-FIXT
100
AcDbSpline
210
0.0
220
0.0
230
1.0
 70
     8
 71
     3
 72
     9
 73
     5
 74
     0
 42
0.000000001
 43
0.0000000001
 40
-1.0
 40
-1.0
 40
-1.0
 40
-1.0
 40
-0.5
 40
0.0
 40
0.0
 40
0.0
 40
0.0
 10
696.9067125740662
 20
2100.526950729298
 30
0.0
 10
697.6845194767709
 20
2098.521053393095
 30
0.0
 10
699.0547407806986
 20
2094.399006893873
 30
0.0
 10
700.2964723329154
 20
2090.144645000382
 30
0.0
 10
700.9294112342992
 20
2088.000471074562
 30
0.0
  0
LINE
  5
FA
330
87
100
AcDbEntity
  8
P-SANR-FIXT
100
AcDbLine
 10
700.9294112342989
 20
2088.000471074565
 30
0.0
 11
695.7316962469324
 21
2086.108657532964
 31
0.0
  0
SPLINE
  5
FB
330
87
100
AcDbEntity
  8
P-SANR-FIXT
100
AcDbSpline
210
0.0
220
0.0
230
1.0
 70
     8
 71
     3
 72
     9
 73
     5
 74
     0
 42
0.000000001
 43
0.0000000001
 40
-1.0
 40
-1.0
 40
-1.0
 40
-1.0
 40
-0.5
 40
0.0
 40
0.0
 40
0.0
 40
0.0
 10
695.7316962469325
 20
2086.108657532962
 30
0.0
 10
695.3099612165607
 20
2088.329703381191
 30
0.0
 10
694.6256689874847
 20
2092.786956595715
 30
0.0
 10
694.1922487440239
 20
2097.249970796376
 30
0.0
 10
693.9953153058935
 20
2099.467288783559
 30
0.0
  0
LINE
  5
FC
330
87
100
AcDbEntity
  8
P-SANR-FIXT
100
AcDbLine
 10
701.4240669010198
 20
2040.23939570024
 30
0.0
 11
708.7859323284479
 21
2020.012836673317
 31
0.0
  0
LINE
  5
FD
330
87
100
AcDbEntity
  8
P-SANR-FIXT
100
AcDbLine
 10
762.6626278732145
 20
2047.416096239027
 30
0.0
 11
757.8056241481753
 21
2060.76060429978
 31
0.0
  0
LINE
  5
FE
330
87
100
AcDbEntity
  8
P-SANR-FIXT
100
AcDbLine
 10
757.8056241481736
 20
2060.760604299779
 30
0.0
 11
701.4240669010182
 21
2040.239395700238
 31
0.0
  0
LINE
  5
FF
330
87
100
AcDbEntity
  8
P-SANR-FIXT
100
AcDbLine
 10
708.7859323284462
 20
2020.012836673316
 30
0.0
 11
764.6643020096794
 21
2040.350899976608
 31
0.0
  0
LINE
  5
100
330
87
100
AcDbEntity
  8
P-SANR-FIXT
100
AcDbLine
 10
777.5210863275689
 20
1983.53034488539
 30
0.0
 11
786.9188188871597
 21
1983.53034488539
 31
0.0
  0
LINE
  5
101
330
87
100
AcDbEntity
  8
P-SANR-FIXT
100
AcDbLine
 10
786.9188188871597
 20
2016.469655114601
 30
0.0
 11
777.5210863275689
 21
2016.469655114601
 31
0.0
  0
LINE
  5
102
330
87
100
AcDbEntity
  8
P-SANR-FIXT
100
AcDbLine
 10
789.6148455246002
 20
2011.799999999996
 30
0.0
 11
787.0281859824026
 21
2016.280225748964
 31
0.0
  0
LINE
  5
103
330
87
100
AcDbEntity
  8
P-SANR-FIXT
100
AcDbLine
 10
787.013008065068
 20
2016.306514672942
 30
0.0
 11
786.9188188871597
 21
2016.469655114601
 31
0.0
  0
LINE
  5
104
330
87
100
AcDbEntity
  8
P-SANR-FIXT
100
AcDbLine
 10
786.9188188871597
 20
1983.53034488539
 30
0.0
 11
787.013008065068
 21
1983.69348532705
 31
0.0
  0
LINE
  5
105
330
87
100
AcDbEntity
  8
P-SANR-FIXT
100
AcDbLine
 10
787.0281859824026
 20
1983.719774251027
 30
0.0
 11
789.6148455246002
 21
1988.199999999996
 31
0.0
  0
LINE
  5
106
330
87
100
AcDbEntity
  8
P-SANR-FIXT
100
AcDbLine
 10
776.6148455246
 20
1985.100000000025
 30
0.0
 11
777.411719232326
 21
1983.719774251027
 31
0.0
  0
LINE
  5
107
330
87
100
AcDbEntity
  8
P-SANR-FIXT
100
AcDbLine
 10
777.4268540167418
 20
1983.693560035458
 30
0.0
 11
777.5210863275689
 21
1983.53034488539
 31
0.0
  0
LINE
  5
108
330
87
100
AcDbEntity
  8
P-SANR-FIXT
100
AcDbLine
 10
777.5210863275689
 20
2016.469655114601
 30
0.0
 11
777.4268540167418
 21
2016.306439964534
 31
0.0
  0
LINE
  5
109
330
87
100
AcDbEntity
  8
P-SANR-FIXT
100
AcDbLine
 10
777.411719232326
 20
2016.280225748964
 30
0.0
 11
776.6148455246
 21
2014.899999999967
 31
0.0
  0
LINE
  5
10A
330
87
100
AcDbEntity
  8
P-SANR-FIXT
100
AcDbLine
 10
776.6148455245983
 20
1985.100000000024
 30
0.0
 11
776.6148455245983
 21
2014.899999999966
 31
0.0
  0
LINE
  5
10B
330
87
100
AcDbEntity
  8
P-SANR-FIXT
100
AcDbLine
 10
789.6148455245985
 20
2011.799999999995
 30
0.0
 11
789.6148455245985
 21
1988.199999999995
 31
0.0
  0
SPLINE
  5
10C
330
87
100
AcDbEntity
  8
P-SANR-FIXT
100
AcDbSpline
210
0.0
220
0.0
230
1.0
 70
     8
 71
     3
 72
    10
 73
     6
 74
     0
 42
0.000000001
 43
0.0000000001
 40
0.0
 40
0.0
 40
0.0
 40
0.0
 40
0.4
 40
0.7
 40
1.0
 40
1.0
 40
1.0
 40
1.0
 10
787.2065279052536
 20
2005.484827557298
 30
0.0
 10
787.0548863694905
 20
2006.243960950943
 30
0.0
 10
786.891289033556
 20
2007.589665129762
 30
0.0
 10
786.9315911387542
 20
2009.235875146519
 30
0.0
 10
787.0929658935855
 20
2009.963879380622
 30
0.0
 10
787.2065279052594
 20
2010.247967278112
 30
0.0
  0
SPLINE
  5
10D
330
87
100
AcDbEntity
  8
P-SANR-FIXT
100
AcDbSpline
210
0.0
220
0.0
230
1.0
 70
     8
 71
     3
 72
    10
 73
     6
 74
     0
 42
0.000000001
 43
0.0000000001
 40
0.0
 40
0.0
 40
0.0
 40
0.0
 40
0.4
 40
0.7
 40
1.0
 40
1.0
 40
1.0
 40
1.0
 10
777.2333773094659
 20
2010.247967278112
 30
0.0
 10
777.3847933250313
 20
2009.869183414792
 30
0.0
 10
777.5485214610804
 20
2008.953398768601
 30
0.0
 10
777.5084965303311
 20
2007.20295409256
 30
0.0
 10
777.3471084612942
 20
2006.054177602532
 30
0.0
 10
777.2333773094718
 20
2005.484827557298
 30
0.0
  0
SPLINE
  5
10E
330
87
100
AcDbEntity
  8
P-SANR-FIXT
100
AcDbSpline
210
0.0
220
0.0
230
1.0
 70
     8
 71
     3
 72
     9
 73
     5
 74
     0
 42
0.000000001
 43
0.0000000001
 40
0.0
 40
0.0
 40
0.0
 40
0.0
 40
0.5
 40
1.0
 40
1.0
 40
1.0
 40
1.0
 10
777.2333773094718
 20
2005.484827557298
 30
0.0
 10
776.8595360738681
 20
2003.628160043269
 30
0.0
 10
776.4856948382643
 20
1999.943216676806
 30
0.0
 10
776.859536073868
 20
1996.315056633532
 30
0.0
 10
777.2333773094717
 20
1994.515172442692
 30
0.0
  0
SPLINE
  5
10F
330
87
100
AcDbEntity
  8
P-SANR-FIXT
100
AcDbSpline
210
0.0
220
0.0
230
1.0
 70
     8
 71
     3
 72
     9
 73
     5
 74
     0
 42
0.000000001
 43
0.0000000001
 40
0.0
 40
0.0
 40
0.0
 40
0.0
 40
0.5
 40
1.0
 40
1.0
 40
1.0
 40
1.0
 10
787.2065279052536
 20
1994.515172442692
 30
0.0
 10
787.5803691408576
 20
1996.315056633532
 30
0.0
 10
787.9542103764613
 20
1999.943216676806
 30
0.0
 10
787.5803691408574
 20
2003.628160043269
 30
0.0
 10
787.2065279052536
 20
2005.484827557298
 30
0.0
  0
SPLINE
  5
110
330
87
100
AcDbEntity
  8
P-SANR-FIXT
100
AcDbSpline
210
0.0
220
0.0
230
1.0
 70
     8
 71
     3
 72
    10
 73
     6
 74
     0
 42
0.000000001
 43
0.0000000001
 40
0.0
 40
0.0
 40
0.0
 40
0.0
 40
0.4
 40
0.7
 40
1.0
 40
1.0
 40
1.0
 40
1.0
 10
777.2333773094717
 20
1994.515172442692
 30
0.0
 10
777.385018845235
 20
1993.756039049047
 30
0.0
 10
777.5486161811693
 20
1992.410334870228
 30
0.0
 10
777.5083140759711
 20
1990.764124853471
 30
0.0
 10
777.3469393211399
 20
1990.036120619368
 30
0.0
 10
777.2333773094659
 20
1989.752032721878
 30
0.0
  0
SPLINE
  5
111
330
87
100
AcDbEntity
  8
P-SANR-FIXT
100
AcDbSpline
210
0.0
220
0.0
230
1.0
 70
     8
 71
     3
 72
    10
 73
     6
 74
     0
 42
0.000000001
 43
0.0000000001
 40
0.0
 40
0.0
 40
0.0
 40
0.0
 40
0.4
 40
0.7
 40
1.0
 40
1.0
 40
1.0
 40
1.0
 10
787.2065279052596
 20
1989.752032721878
 30
0.0
 10
787.0551118896943
 20
1990.130816585197
 30
0.0
 10
786.891383753645
 20
1991.046601231389
 30
0.0
 10
786.9314086843942
 20
1992.79704590743
 30
0.0
 10
787.0927967534314
 20
1993.945822397458
 30
0.0
 10
787.2065279052536
 20
1994.515172442692
 30
0.0
  0
SPLINE
  5
112
330
87
100
AcDbEntity
  8
P-SANR-FIXT
100
AcDbSpline
210
0.0
220
0.0
230
1.0
 70
     8
 71
     3
 72
     9
 73
     5
 74
     0
 42
0.000000001
 43
0.0000000001
 40
0.0
 40
0.0
 40
0.0
 40
0.0
 40
0.5
 40
1.0
 40
1.0
 40
1.0
 40
1.0
 10
777.2333773094659
 20
1989.752032721878
 30
0.0
 10
776.859536073858
 20
1988.823698964864
 30
0.0
 10
776.4856948382466
 20
1986.981227281632
 30
0.0
 10
776.8595360738444
 20
1985.167147259995
 30
0.0
 10
777.2333773094455
 20
1984.267205164575
 30
0.0
  0
SPLINE
  5
113
330
87
100
AcDbEntity
  8
P-SANR-FIXT
100
AcDbSpline
210
0.0
220
0.0
230
1.0
 70
     8
 71
     3
 72
     9
 73
     5
 74
     0
 42
0.000000001
 43
0.0000000001
 40
0.0
 40
0.0
 40
0.0
 40
0.0
 40
0.5
 40
1.0
 40
1.0
 40
1.0
 40
1.0
 10
787.2065279052799
 20
1984.267205164575
 30
0.0
 10
787.5803691408811
 20
1985.167147259995
 30
0.0
 10
787.9542103764787
 20
1986.981227281632
 30
0.0
 10
787.5803691408675
 20
1988.823698964864
 30
0.0
 10
787.2065279052596
 20
1989.752032721878
 30
0.0
  0
SPLINE
  5
114
330
87
100
AcDbEntity
  8
P-SANR-FIXT
100
AcDbSpline
210
0.0
220
0.0
230
1.0
 70
     8
 71
     3
 72
     9
 73
     5
 74
     0
 42
0.000000001
 43
0.0000000001
 40
0.0
 40
0.0
 40
0.0
 40
0.0
 40
0.5
 40
1.0
 40
1.0
 40
1.0
 40
1.0
 10
777.2333773094455
 20
1984.267205164575
 30
0.0
 10
777.328481547105
 20
1984.029818907645
 30
0.0
 10
777.4715372877847
 20
1983.659466605538
 30
0.0
 10
777.5202875591863
 20
1983.530344885384
 30
0.0
 10
777.5210863275673
 20
1983.530344885389
 30
0.0
  0
SPLINE
  5
115
330
87
100
AcDbEntity
  8
P-SANR-FIXT
100
AcDbSpline
210
0.0
220
0.0
230
1.0
 70
     8
 71
     3
 72
     9
 73
     5
 74
     0
 42
0.000000001
 43
0.0000000001
 40
0.0
 40
0.0
 40
0.0
 40
0.0
 40
0.5
 40
1.0
 40
1.0
 40
1.0
 40
1.0
 10
786.9188188871581
 20
1983.530344885389
 30
0.0
 10
786.9196176555392
 20
1983.530344885384
 30
0.0
 10
786.9683679269406
 20
1983.659466605538
 30
0.0
 10
787.1114236676204
 20
1984.029818907645
 30
0.0
 10
787.2065279052799
 20
1984.267205164575
 30
0.0
  0
SPLINE
  5
116
330
87
100
AcDbEntity
  8
P-SANR-FIXT
100
AcDbSpline
210
0.0
220
0.0
230
1.0
 70
     8
 71
     3
 72
     9
 73
     5
 74
     0
 42
0.000000001
 43
0.0000000001
 40
0.0
 40
0.0
 40
0.0
 40
0.0
 40
0.5
 40
1.0
 40
1.0
 40
1.0
 40
1.0
 10
777.5210863275673
 20
2016.469655114601
 30
0.0
 10
777.5202875591863
 20
2016.469655114606
 30
0.0
 10
777.4715372877849
 20
2016.340533394452
 30
0.0
 10
777.328481547105
 20
2015.970181092345
 30
0.0
 10
777.2333773094455
 20
2015.732794835415
 30
0.0
  0
SPLINE
  5
117
330
87
100
AcDbEntity
  8
P-SANR-FIXT
100
AcDbSpline
210
0.0
220
0.0
230
1.0
 70
     8
 71
     3
 72
     9
 73
     5
 74
     0
 42
0.000000001
 43
0.0000000001
 40
0.0
 40
0.0
 40
0.0
 40
0.0
 40
0.5
 40
1.0
 40
1.0
 40
1.0
 40
1.0
 10
787.2065279052796
 20
2015.732794835415
 30
0.0
 10
787.1114236676203
 20
2015.970181092345
 30
0.0
 10
786.9683679269406
 20
2016.340533394452
 30
0.0
 10
786.9196176555391
 20
2016.469655114606
 30
0.0
 10
786.918818887158
 20
2016.469655114601
 30
0.0
  0
SPLINE
  5
118
330
87
100
AcDbEntity
  8
P-SANR-FIXT
100
AcDbSpline
210
0.0
220
0.0
230
1.0
 70
     8
 71
     3
 72
     9
 73
     5
 74
     0
 42
0.000000001
 43
0.0000000001
 40
0.0
 40
0.0
 40
0.0
 40
0.0
 40
0.5
 40
1.0
 40
1.0
 40
1.0
 40
1.0
 10
777.2333773094455
 20
2015.732794835415
 30
0.0
 10
776.8595360738446
 20
2014.8044610784
 30
0.0
 10
776.485694838247
 20
2012.961989395169
 30
0.0
 10
776.8595360738581
 20
2011.147909373532
 30
0.0
 10
777.2333773094659
 20
2010.247967278113
 30
0.0
  0
SPLINE
  5
119
330
87
100
AcDbEntity
  8
P-SANR-FIXT
100
AcDbSpline
210
0.0
220
0.0
230
1.0
 70
     8
 71
     3
 72
     9
 73
     5
 74
     0
 42
0.000000001
 43
0.0000000001
 40
0.0
 40
0.0
 40
0.0
 40
0.0
 40
0.5
 40
1.0
 40
1.0
 40
1.0
 40
1.0
 10
787.2065279052594
 20
2010.247967278113
 30
0.0
 10
787.5803691408673
 20
2011.147909373532
 30
0.0
 10
787.9542103764785
 20
2012.961989395169
 30
0.0
 10
787.5803691408808
 20
2014.8044610784
 30
0.0
 10
787.2065279052796
 20
2015.732794835415
 30
0.0
  0
LINE
  5
11A
330
87
100
AcDbEntity
  8
P-SANR-FIXT
100
AcDbLine
 10
698.3108721620441
 20
1983.53034488539
 30
0.0
 11
707.7086047216351
 21
1983.53034488539
 31
0.0
  0
LINE
  5
11B
330
87
100
AcDbEntity
  8
P-SANR-FIXT
100
AcDbLine
 10
707.7086047216349
 20
2016.469655114601
 30
0.0
 11
698.3108721620442
 21
2016.469655114601
 31
0.0
  0
LINE
  5
11C
330
87
100
AcDbEntity
  8
P-SANR-FIXT
100
AcDbLine
 10
695.6148455246037
 20
1988.199999999996
 30
0.0
 11
698.201505066801
 21
1983.719774251028
 31
0.0
  0
LINE
  5
11D
330
87
100
AcDbEntity
  8
P-SANR-FIXT
100
AcDbLine
 10
698.2166829841357
 20
1983.69348532705
 30
0.0
 11
698.3108721620441
 21
1983.53034488539
 31
0.0
  0
LINE
  5
11E
330
87
100
AcDbEntity
  8
P-SANR-FIXT
100
AcDbLine
 10
698.3108721620442
 20
2016.469655114601
 30
0.0
 11
698.2166829841359
 21
2016.306514672942
 31
0.0
  0
LINE
  5
11F
330
87
100
AcDbEntity
  8
P-SANR-FIXT
100
AcDbLine
 10
698.2015050668012
 20
2016.280225748964
 30
0.0
 11
695.6148455246037
 21
2011.799999999996
 31
0.0
  0
LINE
  5
120
330
87
100
AcDbEntity
  8
P-SANR-FIXT
100
AcDbLine
 10
708.6148455246038
 20
2014.899999999967
 30
0.0
 11
707.8179718168777
 21
2016.280225748964
 31
0.0
  0
LINE
  5
121
330
87
100
AcDbEntity
  8
P-SANR-FIXT
100
AcDbLine
 10
707.8028370324619
 20
2016.306439964534
 30
0.0
 11
707.7086047216349
 21
2016.469655114601
 31
0.0
  0
LINE
  5
122
330
87
100
AcDbEntity
  8
P-SANR-FIXT
100
AcDbLine
 10
707.7086047216351
 20
1983.53034488539
 30
0.0
 11
707.8028370324621
 21
1983.693560035458
 31
0.0
  0
LINE
  5
123
330
87
100
AcDbEntity
  8
P-SANR-FIXT
100
AcDbLine
 10
707.8179718168778
 20
1983.719774251028
 30
0.0
 11
708.6148455246038
 21
1985.100000000025
 31
0.0
  0
LINE
  5
124
330
87
100
AcDbEntity
  8
P-SANR-FIXT
100
AcDbLine
 10
708.6148455246022
 20
2014.899999999966
 30
0.0
 11
708.6148455246022
 21
1985.100000000024
 31
0.0
  0
LINE
  5
125
330
87
100
AcDbEntity
  8
P-SANR-FIXT
100
AcDbLine
 10
695.6148455246021
 20
1988.199999999995
 30
0.0
 11
695.6148455246021
 21
2011.799999999995
 31
0.0
  0
SPLINE
  5
126
330
87
100
AcDbEntity
  8
P-SANR-FIXT
100
AcDbSpline
210
0.0
220
0.0
230
1.0
 70
     8
 71
     3
 72
    10
 73
     6
 74
     0
 42
0.000000001
 43
0.0000000001
 40
0.0
 40
0.0
 40
0.0
 40
0.0
 40
0.4
 40
0.7
 40
1.0
 40
1.0
 40
1.0
 40
1.0
 10
698.0231631439412
 20
2010.247967278113
 30
0.0
 10
698.1748046797057
 20
2009.86840058129
 30
0.0
 10
698.3384020156429
 20
2008.952425656536
 30
0.0
 10
698.2980999104488
 20
2007.201250865688
 30
0.0
 10
698.1367251556199
 20
2006.053003352278
 30
0.0
 10
698.023163143947
 20
2005.484827557298
 30
0.0
  0
SPLINE
  5
127
330
87
100
AcDbEntity
  8
P-SANR-FIXT
100
AcDbSpline
210
0.0
220
0.0
230
1.0
 70
     8
 71
     3
 72
    10
 73
     6
 74
     0
 42
0.000000001
 43
0.0000000001
 40
0.0
 40
0.0
 40
0.0
 40
0.0
 40
0.4
 40
0.7
 40
1.0
 40
1.0
 40
1.0
 40
1.0
 10
707.9963137397287
 20
2005.484827557298
 30
0.0
 10
707.844897724165
 20
2006.242395283938
 30
0.0
 10
707.6811695881185
 20
2007.588566563772
 30
0.0
 10
707.7211945188718
 20
2009.23449417676
 30
0.0
 10
707.8825825879111
 20
2009.963292255495
 30
0.0
 10
707.9963137397347
 20
2010.247967278113
 30
0.0
  0
SPLINE
  5
128
330
87
100
AcDbEntity
  8
P-SANR-FIXT
100
AcDbSpline
210
0.0
220
0.0
230
1.0
 70
     8
 71
     3
 72
     9
 73
     5
 74
     0
 42
0.000000001
 43
0.0000000001
 40
0.0
 40
0.0
 40
0.0
 40
0.0
 40
0.5
 40
1.0
 40
1.0
 40
1.0
 40
1.0
 10
698.023163143947
 20
2005.484827557298
 30
0.0
 10
697.6493219083432
 20
2003.628160043269
 30
0.0
 10
697.2754806727394
 20
1999.943216676806
 30
0.0
 10
697.6493219083432
 20
1996.315056633532
 30
0.0
 10
698.023163143947
 20
1994.515172442692
 30
0.0
  0
SPLINE
  5
129
330
87
100
AcDbEntity
  8
P-SANR-FIXT
100
AcDbSpline
210
0.0
220
0.0
230
1.0
 70
     8
 71
     3
 72
     9
 73
     5
 74
     0
 42
0.000000001
 43
0.0000000001
 40
0.0
 40
0.0
 40
0.0
 40
0.0
 40
0.5
 40
1.0
 40
1.0
 40
1.0
 40
1.0
 10
707.9963137397288
 20
1994.515172442692
 30
0.0
 10
708.3701549753326
 20
1996.315056633532
 30
0.0
 10
708.7439962109363
 20
1999.943216676806
 30
0.0
 10
708.3701549753325
 20
2003.628160043269
 30
0.0
 10
707.9963137397287
 20
2005.484827557298
 30
0.0
  0
SPLINE
  5
12A
330
87
100
AcDbEntity
  8
P-SANR-FIXT
100
AcDbSpline
210
0.0
220
0.0
230
1.0
 70
     8
 71
     3
 72
    10
 73
     6
 74
     0
 42
0.000000001
 43
0.0000000001
 40
0.0
 40
0.0
 40
0.0
 40
0.0
 40
0.4
 40
0.7
 40
1.0
 40
1.0
 40
1.0
 40
1.0
 10
698.023163143947
 20
1994.515172442692
 30
0.0
 10
698.17480467971
 20
1993.756039049047
 30
0.0
 10
698.3384020156445
 20
1992.410334870228
 30
0.0
 10
698.2980999104463
 20
1990.764124853471
 30
0.0
 10
698.136725155615
 20
1990.036120619368
 30
0.0
 10
698.0231631439409
 20
1989.752032721878
 30
0.0
  0
SPLINE
  5
12B
330
87
100
AcDbEntity
  8
P-SANR-FIXT
100
AcDbSpline
210
0.0
220
0.0
230
1.0
 70
     8
 71
     3
 72
    10
 73
     6
 74
     0
 42
0.000000001
 43
0.0000000001
 40
0.0
 40
0.0
 40
0.0
 40
0.0
 40
0.4
 40
0.7
 40
1.0
 40
1.0
 40
1.0
 40
1.0
 10
707.9963137397347
 20
1989.752032721878
 30
0.0
 10
707.8448977241694
 20
1990.130816585197
 30
0.0
 10
707.6811695881204
 20
1991.046601231389
 30
0.0
 10
707.7211945188694
 20
1992.79704590743
 30
0.0
 10
707.8825825879064
 20
1993.945822397458
 30
0.0
 10
707.9963137397288
 20
1994.515172442692
 30
0.0
  0
SPLINE
  5
12C
330
87
100
AcDbEntity
  8
P-SANR-FIXT
100
AcDbSpline
210
0.0
220
0.0
230
1.0
 70
     8
 71
     3
 72
     9
 73
     5
 74
     0
 42
0.000000001
 43
0.0000000001
 40
0.0
 40
0.0
 40
0.0
 40
0.0
 40
0.5
 40
1.0
 40
1.0
 40
1.0
 40
1.0
 10
698.0231631439409
 20
1989.752032721878
 30
0.0
 10
697.6493219083332
 20
1988.823698964864
 30
0.0
 10
697.2754806727218
 20
1986.981227281632
 30
0.0
 10
697.6493219083195
 20
1985.167147259995
 30
0.0
 10
698.0231631439208
 20
1984.267205164575
 30
0.0
  0
SPLINE
  5
12D
330
87
100
AcDbEntity
  8
P-SANR-FIXT
100
AcDbSpline
210
0.0
220
0.0
230
1.0
 70
     8
 71
     3
 72
     9
 73
     5
 74
     0
 42
0.000000001
 43
0.0000000001
 40
0.0
 40
0.0
 40
0.0
 40
0.0
 40
0.5
 40
1.0
 40
1.0
 40
1.0
 40
1.0
 10
707.996313739755
 20
1984.267205164575
 30
0.0
 10
708.3701549753563
 20
1985.167147259995
 30
0.0
 10
708.7439962109539
 20
1986.981227281632
 30
0.0
 10
708.3701549753426
 20
1988.823698964864
 30
0.0
 10
707.9963137397347
 20
1989.752032721878
 30
0.0
  0
SPLINE
  5
12E
330
87
100
AcDbEntity
  8
P-SANR-FIXT
100
AcDbSpline
210
0.0
220
0.0
230
1.0
 70
     8
 71
     3
 72
     9
 73
     5
 74
     0
 42
0.000000001
 43
0.0000000001
 40
0.0
 40
0.0
 40
0.0
 40
0.0
 40
0.5
 40
1.0
 40
1.0
 40
1.0
 40
1.0
 10
698.0231631439208
 20
1984.267205164575
 30
0.0
 10
698.1182673815802
 20
1984.029818907645
 30
0.0
 10
698.26132312226
 20
1983.659466605538
 30
0.0
 10
698.3100733936614
 20
1983.530344885384
 30
0.0
 10
698.3108721620425
 20
1983.530344885389
 30
0.0
  0
SPLINE
  5
12F
330
87
100
AcDbEntity
  8
P-SANR-FIXT
100
AcDbSpline
210
0.0
220
0.0
230
1.0
 70
     8
 71
     3
 72
     9
 73
     5
 74
     0
 42
0.000000001
 43
0.0000000001
 40
0.0
 40
0.0
 40
0.0
 40
0.0
 40
0.5
 40
1.0
 40
1.0
 40
1.0
 40
1.0
 10
707.7086047216333
 20
1983.530344885389
 30
0.0
 10
707.7094034900144
 20
1983.530344885384
 30
0.0
 10
707.7581537614158
 20
1983.659466605538
 30
0.0
 10
707.9012095020955
 20
1984.029818907645
 30
0.0
 10
707.996313739755
 20
1984.267205164575
 30
0.0
  0
SPLINE
  5
130
330
87
100
AcDbEntity
  8
P-SANR-FIXT
100
AcDbSpline
210
0.0
220
0.0
230
1.0
 70
     8
 71
     3
 72
     9
 73
     5
 74
     0
 42
0.000000001
 43
0.0000000001
 40
0.0
 40
0.0
 40
0.0
 40
0.0
 40
0.5
 40
1.0
 40
1.0
 40
1.0
 40
1.0
 10
698.3108721620426
 20
2016.469655114601
 30
0.0
 10
698.3100733936614
 20
2016.469655114606
 30
0.0
 10
698.26132312226
 20
2016.340533394452
 30
0.0
 10
698.1182673815803
 20
2015.970181092345
 30
0.0
 10
698.0231631439209
 20
2015.732794835415
 30
0.0
  0
SPLINE
  5
131
330
87
100
AcDbEntity
  8
P-SANR-FIXT
100
AcDbSpline
210
0.0
220
0.0
230
1.0
 70
     8
 71
     3
 72
     9
 73
     5
 74
     0
 42
0.000000001
 43
0.0000000001
 40
0.0
 40
0.0
 40
0.0
 40
0.0
 40
0.5
 40
1.0
 40
1.0
 40
1.0
 40
1.0
 10
707.996313739755
 20
2015.732794835415
 30
0.0
 10
707.9012095020955
 20
2015.970181092345
 30
0.0
 10
707.7581537614157
 20
2016.340533394452
 30
0.0
 10
707.7094034900144
 20
2016.469655114606
 30
0.0
 10
707.7086047216332
 20
2016.469655114601
 30
0.0
  0
SPLINE
  5
132
330
87
100
AcDbEntity
  8
P-SANR-FIXT
100
AcDbSpline
210
0.0
220
0.0
230
1.0
 70
     8
 71
     3
 72
     9
 73
     5
 74
     0
 42
0.000000001
 43
0.0000000001
 40
0.0
 40
0.0
 40
0.0
 40
0.0
 40
0.5
 40
1.0
 40
1.0
 40
1.0
 40
1.0
 10
707.9963137397347
 20
2010.247967278113
 30
0.0
 10
708.3701549753425
 20
2011.176301035126
 30
0.0
 10
708.7439962109539
 20
2013.018772718358
 30
0.0
 10
708.370154975356
 20
2014.832852739995
 30
0.0
 10
707.996313739755
 20
2015.732794835415
 30
0.0
  0
SPLINE
  5
133
330
87
100
AcDbEntity
  8
P-SANR-FIXT
100
AcDbSpline
210
0.0
220
0.0
230
1.0
 70
     8
 71
     3
 72
     9
 73
     5
 74
     0
 42
0.000000001
 43
0.0000000001
 40
0.0
 40
0.0
 40
0.0
 40
0.0
 40
0.5
 40
1.0
 40
1.0
 40
1.0
 40
1.0
 10
698.0231631439209
 20
2015.732794835415
 30
0.0
 10
697.6493219083197
 20
2014.832852739995
 30
0.0
 10
697.2754806727218
 20
2013.018772718358
 30
0.0
 10
697.6493219083332
 20
2011.176301035126
 30
0.0
 10
698.0231631439412
 20
2010.247967278113
 30
0.0
  0
LINE
  5
134
330
87
100
AcDbEntity
  8
P-SANR-FIXT
100
AcDbLine
 10
811.31484552462
 20
2010.649999999996
 30
0.0
 11
789.6148455246002
 21
2010.649999999996
 31
0.0
  0
LINE
  5
135
330
87
100
AcDbEntity
  8
P-SANR-FIXT
100
AcDbLine
 10
789.6148455246002
 20
1989.349999999996
 30
0.0
 11
811.31484552462
 21
1989.349999999996
 31
0.0
  0
LINE
  5
136
330
87
100
AcDbEntity
  8
P-SANR-FIXT
100
AcDbLine
 10
812.6148455246198
 20
2009.349999999996
 30
0.0
 11
811.31484552462
 21
2010.649999999996
 31
0.0
  0
LINE
  5
137
330
87
100
AcDbEntity
  8
P-SANR-FIXT
100
AcDbLine
 10
811.31484552462
 20
1989.349999999996
 30
0.0
 11
812.6148455246198
 21
1990.649999999995
 31
0.0
  0
LINE
  5
138
330
87
100
AcDbEntity
  8
P-SANR-FIXT
100
AcDbLine
 10
811.3148455246182
 20
1989.349999999994
 30
0.0
 11
811.3148455246182
 21
2010.649999999996
 31
0.0
  0
LINE
  5
139
330
87
100
AcDbEntity
  8
P-SANR-FIXT
100
AcDbLine
 10
812.6148455246182
 20
2009.349999999995
 30
0.0
 11
812.6148455246182
 21
1990.649999999995
 31
0.0
  0
LINE
  5
13A
330
87
100
AcDbEntity
  8
P-SANR-FIXT
100
AcDbLine
 10
695.6148455246037
 20
2010.649999999996
 30
0.0
 11
673.9148455245838
 21
2010.649999999996
 31
0.0
  0
LINE
  5
13B
330
87
100
AcDbEntity
  8
P-SANR-FIXT
100
AcDbLine
 10
673.9148455245838
 20
1989.349999999996
 30
0.0
 11
695.6148455246037
 21
1989.349999999996
 31
0.0
  0
LINE
  5
13C
330
87
100
AcDbEntity
  8
P-SANR-FIXT
100
AcDbLine
 10
673.9148455245838
 20
2010.649999999996
 30
0.0
 11
672.6148455245838
 21
2009.349999999996
 31
0.0
  0
LINE
  5
13D
330
87
100
AcDbEntity
  8
P-SANR-FIXT
100
AcDbLine
 10
672.6148455245838
 20
1990.649999999995
 30
0.0
 11
673.9148455245838
 21
1989.349999999996
 31
0.0
  0
LINE
  5
13E
330
87
100
AcDbEntity
  8
P-SANR-FIXT
100
AcDbLine
 10
672.6148455245821
 20
1990.649999999995
 30
0.0
 11
672.6148455245821
 21
2009.349999999995
 31
0.0
  0
LINE
  5
13F
330
87
100
AcDbEntity
  8
P-SANR-FIXT
100
AcDbLine
 10
673.9148455245823
 20
2010.649999999996
 30
0.0
 11
673.9148455245823
 21
1989.349999999994
 31
0.0
  0
LINE
  5
140
330
87
100
AcDbEntity
  8
P-SANR-FIXT
100
AcDbLine
 10
762.3348642804465
 20
2025.120359226397
 30
0.0
 11
763.2532027451716
 21
2025.040015021454
 31
0.0
  0
LINE
  5
141
330
87
100
AcDbEntity
  8
P-SANR-FIXT
100
AcDbLine
 10
766.0493377342312
 20
2034.791296569229
 30
0.0
 11
766.2255971714988
 21
2036.805951156053
 31
0.0
  0
ARC
  5
142
330
87
100
AcDbEntity
  8
P-SANR-FIXT
100
AcDbCircle
 10
762.7731685067629
 20
2059.327632978571
 30
0.0
 40
11.9186052687514
100
AcDbArc
 50
268.5797557446587
 51
281.1172244834108
  0
LINE
  5
143
330
87
100
AcDbEntity
  8
P-SANR-FIXT
100
AcDbLine
 10
715.6370253117091
 20
2022.100798648782
 30
0.0
 11
710.6607242075628
 21
2011.897869378095
 31
0.0
  0
LINE
  5
144
330
87
100
AcDbEntity
  8
P-SANR-FIXT
100
AcDbLine
 10
768.6976310128248
 20
2011.469848743849
 30
0.0
 11
774.9347751119334
 21
2033.221355163398
 31
0.0
  0
LWPOLYLINE
  5
145
330
87
100
AcDbEntity
  8
P-SANR-FIXT
100
AcDbPolyline
 90
       28
 70
   128
 43
0.0
 10
776.373454712611
 20
2034.610671904316
 10
776.2962387759206
 20
2034.589771047079
 10
776.2199204151088
 20
2034.565799094401
 10
776.144621723272
 20
2034.538794396294
 10
776.0704631622549
 20
2034.508800154513
 10
775.9975633699346
 20
2034.475864353447
 10
775.9260389704283
 20
2034.440039683353
 10
775.856004387517
 20
2034.401383456058
 10
775.7875716615941
 20
2034.359957513282
 10
775.7208502704224
 20
2034.315828127695
 10
775.6559469539947
 20
2034.2690658969
 10
775.5929655437722
 20
2034.219745630492
 10
775.5320067965757
 20
2034.167946230376
 10
775.4731682333969
 20
2034.113750564541
 10
775.4165439833855
 20
2034.057245334493
 10
775.3622246332622
 20
2033.998520936545
 10
775.3102970823997
 20
2033.937671317207
 10
775.260844403802
 20
2033.874793822889
 10
775.2139457112056
 20
2033.809989044169
 10
775.1696760325143
 20
2033.743360654869
 10
775.1281061897698
 20
2033.675015246198
 10
775.0893026858534
 20
2033.605062156231
 10
775.0533275980934
 20
2033.533613294988
 10
775.0202384789558
 20
2033.460782965407
 10
774.9900882639725
 20
2033.386687680479
 10
774.9629251870564
 20
2033.311445976852
 10
774.9387927033356
 20
2033.235178225203
 10
774.9347751119336
 20
2033.221355163398
  0
LINE
  5
146
330
87
100
AcDbEntity
  8
P-SANR-FIXT
100
AcDbLine
 10
776.373454712611
 20
2034.610671904316
 30
0.0
 11
778.6142567076468
 21
2035.169366590506
 31
0.0
  0
LWPOLYLINE
  5
147
330
87
100
AcDbEntity
  8
P-SANR-FIXT
100
AcDbPolyline
 90
       28
 70
   128
 43
0.0
 10
780.052936308324
 20
2036.558683331423
 10
780.0293533859965
 20
2036.482243861994
 10
780.0027325640036
 20
2036.406808601349
 10
779.9731164299815
 20
2036.332498229813
 10
779.9405523634267
 20
2036.25943162813
 10
779.9050924598991
 20
2036.187725687274
 10
779.8667934476802
 20
2036.117495121455
 10
779.8257165970195
 20
2036.048852284597
 10
779.7819276221154
 20
2035.981906990595
 10
779.7354965759866
 20
2035.916766337638
 10
779.6864977384019
 20
2035.853534536877
 10
779.6350094970493
 20
2035.792312745703
 10
779.5811142221311
 20
2035.733198905921
 10
779.5248981345904
 20
2035.676287587067
 10
779.466451168175
 20
2035.621669835109
 10
779.405866825563
 20
2035.569433026798
 10
779.3432420287789
 20
2035.519660729886
 10
779.2786769641379
 20
2035.472432569429
 10
779.2122749219706
 20
2035.42782410041
 10
779.1441421313796
 20
2035.385906686864
 10
779.0743875902953
 20
2035.346747387709
 10
779.0031228911033
 20
2035.310408849472
 10
778.9304620421201
 20
2035.27694920606
 10
778.8565212852037
 20
2035.246421985767
 10
778.7814189097924
 20
2035.218876025632
 10
778.7052750636656
 20
2035.194355393316
 10
778.6282115607337
 20
2035.1728993166
 10
778.6142567076468
 20
2035.169366590506
  0
LINE
  5
148
330
87
100
AcDbEntity
  8
P-SANR-FIXT
100
AcDbLine
 10
780.052936308324
 20
2036.558683331423
 30
0.0
 11
782.4910312633349
 21
2045.061330892983
 31
0.0
  0
LINE
  5
149
330
87
100
AcDbEntity
  8
P-SANR-FIXT
100
AcDbLine
 10
765.1892201526877
 20
2050.022545394232
 30
0.0
 11
764.4780298946192
 21
2047.542330215925
 31
0.0
  0
LINE
  5
14A
330
87
100
AcDbEntity
  8
P-SANR-FIXT
100
AcDbLine
 10
782.4910312633347
 20
2045.061330892983
 30
0.0
 11
781.8054069232133
 21
2046.298229944738
 31
0.0
  0
LINE
  5
14B
330
87
100
AcDbEntity
  8
P-SANR-FIXT
100
AcDbLine
 10
766.4261192044428
 20
2050.708169734353
 30
0.0
 11
765.1892201526877
 21
2050.022545394232
 31
0.0
  0
LINE
  5
14C
330
87
100
AcDbEntity
  8
P-SANR-FIXT
100
AcDbLine
 10
766.4261192044412
 20
2050.708169734352
 30
0.0
 11
781.8054069232117
 21
2046.298229944738
 31
0.0
  0
LINE
  5
14D
330
87
100
AcDbEntity
  8
P-SANR-FIXT
100
AcDbLine
 10
782.4910312633329
 20
2045.061330892982
 30
0.0
 11
765.1892201526859
 21
2050.022545394231
 31
0.0
  0
LWPOLYLINE
  5
14E
330
87
100
AcDbEntity
  8
P-SANR-FIXT
100
AcDbPolyline
 90
       36
 70
   128
 43
0.0
 10
741.0686530422562
 20
1979.644312045884
 10
740.8793967328574
 20
1979.579684526175
 10
740.6877073968364
 20
1979.522676935391
 10
740.4938916962395
 20
1979.473380473518
 10
740.2982596948423
 20
1979.431874004378
 10
740.1011243621148
 20
1979.398223929468
 10
739.9028010725356
 20
1979.372484081729
 10
739.7036071010617
 20
1979.354695639426
 10
739.5038611155549
 20
1979.344887060274
 10
739.3038826669815
 20
1979.343074035905
 10
739.1039916782001
 20
1979.349259466772
 10
738.9045079321509
 20
1979.363433457507
 10
738.7057505602739
 20
1979.385573332745
 10
738.5080375319644
 20
1979.415643673412
 10
738.311685145891
 20
1979.453596373374
 10
738.1170075239858
 20
1979.49937071641
 10
737.9243161089142
 20
1979.552893473335
 10
737.7339191658355
 20
1979.614079019156
 10
737.5461212892425
 20
1979.682829470051
 10
737.3612229156763
 20
1979.759034839964
 10
737.1795198430919
 20
1979.842573216561
 10
737.0013027576439
 20
1979.933310956259
 10
736.8268567686516
 20
1980.031102898032
 10
736.6564609524844
 20
1980.135792595633
 10
736.4903879060987
 20
1980.247212567879
 10
736.328903310942
 20
1980.365184566582
 10
736.1722655079177
 20
1980.489519861712
 10
736.0207250840971
 20
1980.620019543318
 10
735.8745244718311
 20
1980.756474839749
 10
735.7338975609116
 20
1980.89866745164
 10
735.599069324397
 20
1981.046369901144
 10
735.4702554587044
 20
1981.19934589585
 10
735.3476620385395
 20
1981.357350706801
 10
735.2314851872231
 20
1981.520131560003
 10
735.1219107629341
 20
1981.687428040818
 10
735.1039599400023
 20
1981.716286308761
  0
LWPOLYLINE
  5
14F
330
87
100
AcDbEntity
  8
P-SANR-FIXT
100
AcDbPolyline
 90
        5
 70
   128
 43
0.0
 10
741.1952936930532
 20
1979.690405473223
 10
741.1506577891116
 20
1979.674159332808
 10
741.1031913307716
 20
1979.656882954846
 10
741.0759206983168
 20
1979.646957256363
 10
741.0686530422562
 20
1979.644312045884
  0
LWPOLYLINE
  5
150
330
87
100
AcDbEntity
  8
P-SANR-FIXT
100
AcDbPolyline
 90
       75
 70
   128
 43
0.0
 10
741.0686530422562
 20
1979.644312045884
 10
741.0787785821457
 20
1979.64799744101
 10
741.1091390031101
 20
1979.659047730541
 10
741.1596857349527
 20
1979.677445236371
 10
741.2303379136853
 20
1979.703160526416
 10
741.3209825108934
 20
1979.736152461697
 10
741.4314745145577
 20
1979.776368262155
 10
741.5616371610432
 20
1979.823743591088
 10
741.7112622178818
 20
1979.878202658079
 10
741.8801103169009
 20
1979.939658340234
 10
742.0679113371612
 20
1980.008012321573
 10
742.2743648370924
 20
1980.083155250309
 10
742.4991405351351
 20
1980.164966913783
 10
742.7418788381229
 20
1980.253316430786
 10
743.002191416552
 20
1980.348062460939
 10
743.2796618258272
 20
1980.449053430805
 10
743.5738461724842
 20
1980.556127776376
 10
743.8842738243246
 20
1980.669114201539
 10
744.2104481633263
 20
1980.787831952117
 10
744.551847380127
 20
1980.912091105034
 10
744.9079253088078
 20
1981.041692872153
 10
745.2781123006421
 20
1981.176429918293
 10
745.661816135412
 20
1981.316086692923
 10
746.0584229688342
 20
1981.460439774995
 10
746.4672983145804
 20
1981.609258230372
 10
746.8877880593192
 20
1981.762303981271
 10
747.3192195091589
 20
1981.919332187139
 10
747.7609024658134
 20
1982.080091636344
 10
748.2121303307728
 20
1982.244325148061
 10
748.6721812357104
 20
1982.411769983706
 10
749.1403191973167
 20
1982.58215826726
 10
749.6157952947172
 20
1982.755217413819
 10
750.0978488675857
 20
1982.930670565665
 10
750.5857087330386
 20
1983.108237035183
 10
751.078594419362
 20
1983.287632753901
 10
751.5757174146012
 20
1983.468570726937
 10
752.0762824280109
 20
1983.650761492133
 10
752.5794886623514
 20
1983.83391358313
 10
753.0845310949927
 20
1984.017733995653
 10
753.590601765779
 20
1984.201928656254
 10
754.0968910695932
 20
1984.38620289277
 10
754.6025890515517
 20
1984.570261905732
 10
755.1068867027602
 20
1984.753811239982
 10
755.6089772545541
 20
1984.936557255741
 10
756.1080574691573
 20
1985.118207598368
 10
756.6033289246917
 20
1985.298471666064
 10
757.0939992924809
 20
1985.477061074776
 10
757.5792836046064
 20
1985.653690119546
 10
758.0584055096913
 20
1985.828076231582
 10
758.5305985148941
 20
1985.999940430304
 10
758.9951072121363
 20
1986.169007769658
 10
759.4511884865916
 20
1986.335007777966
 10
759.8981127055135
 20
1986.497674890626
 10
760.3351648854903
 20
1986.656748874959
 10
760.7616458362665
 20
1986.811975246523
 10
761.1768732792991
 20
1986.963105676237
 10
761.5801829392561
 20
1987.109898387654
 10
761.9709296067163
 20
1987.252118543748
 10
762.3484881703671
 20
1987.389538622609
 10
762.7122546170475
 20
1987.521938781426
 10
763.061646998043
 20
1987.649107208187
 10
763.3961063600763
 20
1987.770840460539
 10
763.7150976395162
 20
1987.886943791246
 10
764.0181105183631
 20
1987.997231459745
 10
764.3046602406502
 20
1988.101527029295
 10
764.5742883879495
 20
1988.199663649232
 10
764.8265636127426
 20
1988.2914843219
 10
765.0610823284856
 20
1988.376842153809
 10
765.2774693552617
 20
1988.455600590636
 10
765.4753785199879
 20
1988.527633635685
 10
765.6544932102189
 20
1988.59282605145
 10
765.8145268806596
 20
1988.65107354397
 10
765.955223511576
 20
1988.702282929685
 10
766.0763580183724
 20
1988.746372284501
 10
766.1635304023174
 20
1988.778100437508
  0
LINE
  5
151
330
87
100
AcDbEntity
  8
P-SANR-FIXT
100
AcDbLine
 10
735.1039599400031
 20
1981.71628630876
 30
0.0
 11
731.0985073622112
 21
1988.499999999994
 31
0.0
  0
LWPOLYLINE
  5
152
330
87
100
AcDbEntity
  8
P-SANR-FIXT
100
AcDbPolyline
 90
        9
 70
   128
 43
0.0
 10
716.1064515431621
 20
2021.493199812457
 10
716.0149213996345
 20
2021.624420312663
 10
715.918217050024
 20
2021.751875620969
 10
715.8164932006609
 20
2021.875361836068
 10
715.7099125880044
 20
2021.994681406359
 10
715.5986457182986
 20
2022.109643445983
 10
715.4828705947993
 20
2022.220064040201
 10
715.3627724330069
 20
2022.325766539617
 10
715.293998018367
 20
2022.381578867097
  0
LINE
  5
153
330
87
100
AcDbEntity
  8
P-SANR-FIXT
100
AcDbLine
 10
776.6148455246
 20
2013.449999999997
 30
0.0
 11
775.6148455246018
 21
2013.449999999997
 31
0.0
  0
LINE
  5
154
330
87
100
AcDbEntity
  8
P-SANR-FIXT
100
AcDbLine
 10
775.6148455246018
 20
1986.549999999995
 30
0.0
 11
776.6148455246
 21
1986.549999999995
 31
0.0
  0
LINE
  5
155
330
87
100
AcDbEntity
  8
P-SANR-FIXT
100
AcDbLine
 10
775.6148455246018
 20
2013.449999999996
 30
0.0
 11
775.5814253202019
 21
2013.392114507976
 31
0.0
  0
LINE
  5
156
330
87
100
AcDbEntity
  8
P-SANR-FIXT
100
AcDbLine
 10
775.5774531883174
 20
2013.385234573738
 30
0.0
 11
775.0663627688716
 21
2012.499999999996
 31
0.0
  0
LINE
  5
157
330
87
100
AcDbEntity
  8
P-SANR-FIXT
100
AcDbLine
 10
775.0663627688716
 20
1987.499999999996
 30
0.0
 11
775.5774531883174
 21
1986.614765426254
 31
0.0
  0
LINE
  5
158
330
87
100
AcDbEntity
  8
P-SANR-FIXT
100
AcDbLine
 10
775.5814253202019
 20
1986.607885492016
 30
0.0
 11
775.6148455246018
 21
1986.549999999995
 31
0.0
  0
LINE
  5
159
330
87
100
AcDbEntity
  8
P-SANR-FIXT
100
AcDbLine
 10
773.3343119613027
 20
2011.499999999996
 30
0.0
 11
768.627166455532
 21
2011.499999999996
 31
0.0
  0
LINE
  5
15A
330
87
100
AcDbEntity
  8
P-SANR-FIXT
100
AcDbLine
 10
711.895379087901
 20
1988.499999999996
 30
0.0
 11
731.0985073622105
 21
1988.499999999996
 31
0.0
  0
LINE
  5
15B
330
87
100
AcDbEntity
  8
P-SANR-FIXT
100
AcDbLine
 10
765.3994557299128
 20
1988.499999999996
 30
0.0
 11
773.3343119613027
 21
1988.499999999996
 31
0.0
  0
LINE
  5
15C
330
87
100
AcDbEntity
  8
P-SANR-FIXT
100
AcDbLine
 10
710.1633282803321
 20
2012.499999999996
 30
0.0
 11
709.6522378608868
 21
2013.385234573737
 31
0.0
  0
LINE
  5
15D
330
87
100
AcDbEntity
  8
P-SANR-FIXT
100
AcDbLine
 10
709.6482657290022
 20
2013.392114507976
 30
0.0
 11
709.6148455246019
 21
2013.449999999996
 31
0.0
  0
LINE
  5
15E
330
87
100
AcDbEntity
  8
P-SANR-FIXT
100
AcDbLine
 10
709.6148455246019
 20
1986.549999999995
 30
0.0
 11
709.6482657290021
 21
1986.607885492016
 31
0.0
  0
LINE
  5
15F
330
87
100
AcDbEntity
  8
P-SANR-FIXT
100
AcDbLine
 10
709.6522378608865
 20
1986.614765426254
 30
0.0
 11
710.1633282803321
 21
1987.499999999996
 31
0.0
  0
LINE
  5
160
330
87
100
AcDbEntity
  8
P-SANR-FIXT
100
AcDbLine
 10
709.6148455246019
 20
2013.449999999996
 30
0.0
 11
708.6148455246038
 21
2013.449999999996
 31
0.0
  0
LINE
  5
161
330
87
100
AcDbEntity
  8
P-SANR-FIXT
100
AcDbLine
 10
708.6148455246038
 20
1986.549999999995
 30
0.0
 11
709.6148455246019
 21
1986.549999999995
 31
0.0
  0
LWPOLYLINE
  5
162
330
87
100
AcDbEntity
  8
P-SANR-FIXT
100
AcDbPolyline
 90
       28
 70
   128
 43
0.0
 10
775.0663627688716
 20
1987.499999999996
 10
775.0249879787811
 20
1987.568463665229
 10
774.980908467721
 20
1987.635218016524
 10
774.9341947535057
 20
1987.70015626116
 10
774.8849215681132
 20
1987.763174511798
 10
774.8331677381288
 20
1987.82417195268
 10
774.7790160586403
 20
1987.883051000912
 10
774.7225531607832
 20
1987.939717462579
 10
774.6638693731492
 20
1987.994080683427
 10
774.6030585772801
 20
1988.046053693904
 10
774.5402180574768
 20
1988.095553348277
 10
774.4754483451661
 20
1988.142500457659
 10
774.4088530580706
 20
1988.18681991669
 10
774.3405387344433
 20
1988.22844082369
 10
774.2706146626294
 20
1988.267296594088
 10
774.1991927062273
 20
1988.303325066937
 10
774.1263871251312
 20
1988.336468604368
 10
774.0523143927402
 20
1988.366674183792
 10
773.9770930096246
 20
1988.393893482724
 10
773.900843313951
 20
1988.418082956092
 10
773.8236872889666
 20
1988.4392039059
 10
773.7457483678524
 20
1988.457222543133
 10
773.6671512362562
 20
1988.472110041816
 10
773.5880216328222
 20
1988.483842585126
 10
773.5084861480353
 20
1988.492401403498
 10
773.428672021705
 20
1988.497772804646
 10
773.3487069394071
 20
1988.499948195476
 10
773.3343119613027
 20
1988.499999999996
  0
LWPOLYLINE
  5
163
330
87
100
AcDbEntity
  8
P-SANR-FIXT
100
AcDbPolyline
 90
       28
 70
   128
 43
0.0
 10
773.3343119613027
 20
2011.499999999996
 10
773.4142906296759
 20
2011.501599786674
 10
773.4941413492411
 20
2011.506396587391
 10
773.5737363758804
 20
2011.514382728288
 10
773.6529483745313
 20
2011.525545433245
 10
773.7316506228927
 20
2011.539866844314
 10
773.8097172141569
 20
2011.557324050292
 10
773.887023258431
 20
2011.577889123374
 10
773.9634450825348
 20
2011.601529163831
 10
774.0388604278527
 20
2011.62820635264
 10
774.11314864592
 20
2011.65787801199
 10
774.1861908914347
 20
2011.690496673556
 10
774.2578703123855
 20
2011.726010154438
 10
774.3280722369901
 20
2011.76436164064
 10
774.3966843571445
 20
2011.805489777969
 10
774.4635969080926
 20
2011.849328770177
 10
774.5287028440275
 20
2011.895808484227
 10
774.5918980093396
 20
2011.944854562494
 10
774.6530813052455
 20
2011.996388541714
 10
774.7121548515238
 20
2012.050327978514
 10
774.7690241431017
 20
2012.106586581301
 10
774.8235982012445
 20
2012.165074348313
 10
774.8757897191006
 20
2012.225697711599
 10
774.9255152013754
 20
2012.288359686709
 10
774.9726950979047
 20
2012.352960027851
 10
775.0172539309184
 20
2012.41939538826
 10
775.0591204157894
 20
2012.48755948553
 10
775.0663627688716
 20
2012.499999999996
  0
LWPOLYLINE
  5
164
330
87
100
AcDbEntity
  8
P-SANR-FIXT
100
AcDbPolyline
 90
       28
 70
   128
 43
0.0
 10
711.895379087901
 20
1988.499999999996
 10
711.8154004195278
 20
1988.498400213318
 10
711.7355496999626
 20
1988.493603412601
 10
711.655954673323
 20
1988.485617271703
 10
711.5767426746725
 20
1988.474454566747
 10
711.4980404263107
 20
1988.460133155678
 10
711.4199738350465
 20
1988.4426759497
 10
711.3426677907727
 20
1988.422110876617
 10
711.2662459666686
 20
1988.39847083616
 10
711.1908306213506
 20
1988.371793647351
 10
711.1165424032836
 20
1988.342121988002
 10
711.043500157769
 20
1988.309503326435
 10
710.9718207368179
 20
1988.273989845554
 10
710.9016188122134
 20
1988.235638359351
 10
710.8330066920593
 20
1988.194510222022
 10
710.7660941411108
 20
1988.150671229815
 10
710.7009882051761
 20
1988.104191515764
 10
710.637793039864
 20
1988.055145437497
 10
710.5766097439579
 20
1988.003611458277
 10
710.5175361976798
 20
1987.949672021477
 10
710.4606669061019
 20
1987.89341341869
 10
710.4060928479592
 20
1987.834925651678
 10
710.3539013301029
 20
1987.774302288393
 10
710.3041758478283
 20
1987.711640313282
 10
710.2569959512988
 20
1987.64703997214
 10
710.2124371182851
 20
1987.580604611732
 10
710.1705706334143
 20
1987.512440514461
 10
710.1633282803321
 20
1987.499999999996
  0
LWPOLYLINE
  5
165
330
87
100
AcDbEntity
  8
P-SANR-FIXT
100
AcDbPolyline
 90
       16
 70
   128
 43
0.0
 10
710.1633282803321
 20
2012.499999999996
 10
710.2047030704225
 20
2012.431536334763
 10
710.2487825814826
 20
2012.364781983468
 10
710.2954962956978
 20
2012.299843738832
 10
710.3447694810905
 20
2012.236825488194
 10
710.3965233110748
 20
2012.175828047312
 10
710.4506749905632
 20
2012.11694899908
 10
710.5071378884204
 20
2012.060282537413
 10
710.5658216760543
 20
2012.005919316564
 10
710.6266324719235
 20
2011.953946306088
 10
710.6894729917266
 20
2011.904446651715
 10
710.7542427040375
 20
2011.857499542333
 10
710.8208379911331
 20
2011.813180083302
 10
710.8891523147603
 20
2011.771559176301
 10
710.9590763865741
 20
2011.732703405904
 10
711.0028184077505
 20
2011.710637947301
  0
SPLINE
  5
166
330
87
100
AcDbEntity
  8
P-SANR-FIXT
100
AcDbSpline
210
0.0
220
0.0
230
1.0
 70
     8
 71
     3
 72
    13
 73
     9
 74
     0
 42
0.000000001
 43
0.0000000001
 40
-1.0
 40
-1.0
 40
-1.0
 40
-1.0
 40
-0.6666666666666666
 40
-0.5
 40
-0.4166666666666666
 40
-0.3333333333333333
 40
-0.1666666666666666
 40
0.0
 40
0.0
 40
0.0
 40
0.0
 10
766.1635304023156
 20
1988.778100437507
 30
0.0
 10
766.6696023713098
 20
1988.963476265232
 30
0.0
 10
767.2710540832002
 20
1989.399516349573
 30
0.0
 10
767.6566351132176
 20
1990.232950223514
 30
0.0
 10
767.7649502865704
 20
1990.797453008105
 30
0.0
 10
767.7938616510773
 20
1991.414242742898
 30
0.0
 10
767.6694686341026
 20
1992.280063213684
 30
0.0
 10
767.3772252363532
 20
1993.015979181529
 30
0.0
 10
767.1847125092183
 20
1993.392725336813
 30
0.0
  0
SPLINE
  5
167
330
87
100
AcDbEntity
  8
P-SANR-FIXT
100
AcDbSpline
210
0.0
220
0.0
230
1.0
 70
     8
 71
     3
 72
    48
 73
    44
 74
     0
 42
0.000000001
 43
0.0000000001
 40
-0.9595208489818334
 40
-0.9595208489818334
 40
-0.9595208489818334
 40
-0.9595208489818334
 40
-0.9444444444444444
 40
-0.9166666666666666
 40
-0.8888888888888889
 40
-0.861111111111111
 40
-0.8333333333333332
 40
-0.8055555555555555
 40
-0.7916666666666668
 40
-0.7777777777777778
 40
-0.7638888888888889
 40
-0.75
 40
-0.7222222222222223
 40
-0.6944444444444445
 40
-0.6805555555555556
 40
-0.6666666666666666
 40
-0.6527777777777777
 40
-0.6388888888888889
 40
-0.6111111111111112
 40
-0.5833333333333334
 40
-0.5694444444444445
 40
-0.5555555555555556
 40
-0.5416666666666668
 40
-0.5277777777777778
 40
-0.5
 40
-0.4722222222222223
 40
-0.4444444444444445
 40
-0.4166666666666666
 40
-0.3888888888888888
 40
-0.3611111111111111
 40
-0.3333333333333333
 40
-0.2777777777777778
 40
-0.25
 40
-0.2361111111111111
 40
-0.2222222222222222
 40
-0.2083333333333333
 40
-0.1944444444444444
 40
-0.1666666666666666
 40
-0.1388888888888889
 40
-0.1111111111111111
 40
-0.0833333333333333
 40
-0.0555555555555556
 40
0.0
 40
0.0
 40
0.0
 40
0.0
 10
720.1361112556788
 20
2011.391278250374
 30
0.0
 10
720.1626592085959
 20
2011.364719140453
 30
0.0
 10
720.247665307884
 20
2011.275860051204
 30
0.0
 10
720.4327451578105
 20
2011.069204187952
 30
0.0
 10
720.7140680660875
 20
2010.74078733153
 30
0.0
 10
721.0816563089553
 20
2010.336624435689
 30
0.0
 10
721.531396731234
 20
2009.865220060726
 30
0.0
 10
721.9457982316405
 20
2009.421537907592
 30
0.0
 10
722.2890906668291
 20
2009.039152971405
 30
0.0
 10
722.5463746388693
 20
2008.738807344269
 30
0.0
 10
722.8100212257002
 20
2008.427368239698
 30
0.0
 10
723.1800289107448
 20
2008.000162696005
 30
0.0
 10
723.6650110784935
 20
2007.442958277234
 30
0.0
 10
724.1648102039694
 20
2006.854004636475
 30
0.0
 10
724.5641903858601
 20
2006.36239774392
 30
0.0
 10
724.8591486478736
 20
2005.981933209424
 30
0.0
 10
725.1549352487809
 20
2005.592886042077
 30
0.0
 10
725.5579499491212
 20
2005.067338502624
 30
0.0
 10
726.0676051200753
 20
2004.394161868228
 30
0.0
 10
726.5712103791713
 20
2003.695743607722
 30
0.0
 10
726.9621214117484
 20
2003.119135419995
 30
0.0
 10
727.2452060807884
 20
2002.676148009507
 30
0.0
 10
727.5238074775162
 20
2002.225218026335
 30
0.0
 10
727.8965628176316
 20
2001.617881109333
 30
0.0
 10
728.3536193750923
 20
2000.845169443925
 30
0.0
 10
728.871533276165
 20
1999.897034442282
 30
0.0
 10
729.332919718673
 20
1998.928280888355
 30
0.0
 10
729.7405051285587
 20
1997.941051033886
 30
0.0
 10
730.1099948035774
 20
1996.949333877125
 30
0.0
 10
730.4278514304337
 20
1995.965657525422
 30
0.0
 10
730.7801519730682
 20
1994.687824726252
 30
0.0
 10
730.987365821991
 20
1993.461214684522
 30
0.0
 10
731.0914156526497
 20
1992.479961149676
 30
0.0
 10
731.137877436319
 20
1991.953753732925
 30
0.0
 10
731.1701629428533
 20
1991.578016205445
 30
0.0
 10
731.1940598201775
 20
1991.221261377249
 30
0.0
 10
731.2074427295514
 20
1990.770301956344
 30
0.0
 10
731.2013164600641
 20
1990.256018571449
 30
0.0
 10
731.1754408891689
 20
1989.723978242743
 30
0.0
 10
731.1572352589405
 20
1989.282433961695
 30
0.0
 10
731.1498020756975
 20
1988.935132632653
 30
0.0
 10
731.1307651341842
 20
1988.601291812623
 30
0.0
 10
731.112827007415
 20
1988.499999999995
 30
0.0
 10
731.0985073622088
 20
1988.499999999995
 30
0.0
  0
SPLINE
  5
168
330
87
100
AcDbEntity
  8
P-SANR-FIXT
100
AcDbSpline
210
0.0
220
0.0
230
1.0
 70
     8
 71
     3
 72
    29
 73
    25
 74
     0
 42
0.000000001
 43
0.0000000001
 40
-1.0
 40
-1.0
 40
-1.0
 40
-1.0
 40
-0.8888888888888889
 40
-0.8333333333333332
 40
-0.7777777777777778
 40
-0.7222222222222223
 40
-0.6666666666666666
 40
-0.6111111111111112
 40
-0.5833333333333334
 40
-0.5555555555555556
 40
-0.5277777777777778
 40
-0.5
 40
-0.4722222222222223
 40
-0.4444444444444445
 40
-0.4166666666666666
 40
-0.3888888888888888
 40
-0.3611111111111111
 40
-0.3333333333333333
 40
-0.3055555555555556
 40
-0.2777777777777778
 40
-0.25
 40
-0.2222222222222222
 40
-0.1944444444444444
 40
-0.1666666666666666
 40
-0.1666666666666666
 40
-0.1666666666666666
 40
-0.1666666666666666
 10
767.1847125092183
 20
1993.392725336813
 30
0.0
 10
766.794127989383
 20
1994.099431882759
 30
0.0
 10
766.2737478726993
 20
1995.261463820945
 30
0.0
 10
765.6689125189435
 20
1996.96836212329
 30
0.0
 10
765.2909423867623
 20
1998.309566952038
 30
0.0
 10
765.0224819080415
 20
1999.703817125404
 30
0.0
 10
764.843375298968
 20
2001.116255328865
 30
0.0
 10
764.7936818136622
 20
2002.285597539674
 30
0.0
 10
764.8005127929408
 20
2003.205632631562
 30
0.0
 10
764.8208911128103
 20
2003.881242459907
 30
0.0
 10
764.8622728139397
 20
2004.540260888877
 30
0.0
 10
764.9272363788383
 20
2005.181879491741
 30
0.0
 10
765.0064915571768
 20
2005.802943573206
 30
0.0
 10
765.0900906840933
 20
2006.401201725267
 30
0.0
 10
765.1825844856952
 20
2006.973876003159
 30
0.0
 10
765.2890290626419
 20
2007.519339265641
 30
0.0
 10
765.4000033655214
 20
2008.036359363994
 30
0.0
 10
765.5066694163117
 20
2008.523853143743
 30
0.0
 10
765.612334101502
 20
2008.979631450142
 30
0.0
 10
765.7219210999361
 20
2009.401661281098
 30
0.0
 10
765.8277537608288
 20
2009.788986470857
 30
0.0
 10
765.9231664899148
 20
2010.140433539428
 30
0.0
 10
766.0100497964798
 20
2010.454542809097
 30
0.0
 10
766.0652097171487
 20
2010.637973833836
 30
0.0
 10
766.0909701487899
 20
2010.723007898165
 30
0.0
  0
LINE
  5
169
330
87
100
AcDbEntity
  8
P-SANR-FIXT
100
AcDbLine
 10
758.636543771777
 20
2035.961056038257
 30
0.0
 11
716.7996883112884
 21
2020.733685955342
 31
0.0
  0
LINE
  5
16A
330
87
100
AcDbEntity
  8
P-SANR-FIXT
100
AcDbLine
 10
775.6148455246
 20
2013.449999999995
 30
0.0
 11
775.6148455246
 21
1986.549999999995
 31
0.0
  0
LINE
  5
16B
330
87
100
AcDbEntity
  8
P-SANR-FIXT
100
AcDbLine
 10
709.6148455246003
 20
2013.449999999995
 30
0.0
 11
709.6148455246003
 21
1986.549999999995
 31
0.0
  0
ENDBLK
  5
16D
330
87
100
AcDbEntity
  8
0
100
AcDbBlockEnd
  0
BLOCK
  5
289
330
16F
100
AcDbEntity
  8
0
100
AcDbBlockBegin
  2
Automatic flow rate regulator valve_Caleffi_121 DN15 - 1_2___Pressure gauge H-V1-Est - Idraulica
 70
     0
 10
0.0
 20
0.0
 30
0.0
  3
Automatic flow rate regulator valve_Caleffi_121 DN15 - 1_2___Pressure gauge H-V1-Est - Idraulica
  1

  0
LINE
  5
170
330
16F
100
AcDbEntity
  8
M-PIPE
100
AcDbLine
 10
780.7278012626763
 20
1674.655266574673
 30
0.0
 11
780.7278012626763
 21
1672.655266574673
 31
0.0
1001
REVIT
1002
{
1070
     3
1000
923236
1002
}
  0
LINE
  5
171
330
16F
100
AcDbEntity
  8
M-PIPE
100
AcDbLine
 10
788.7278012626763
 20
1672.655266574673
 30
0.0
 11
788.7278012626763
 21
1674.655266574673
 31
0.0
1001
REVIT
1002
{
1070
     3
1000
923236
1002
}
  0
LINE
  5
172
330
16F
100
AcDbEntity
  8
M-PIPE
100
AcDbLine
 10
780.8827544789218
 20
1672.655266574673
 30
0.0
 11
780.7278012626751
 21
1672.655266574673
 31
0.0
1001
REVIT
1002
{
1070
     3
1000
923236
1002
}
  0
LINE
  5
173
330
16F
100
AcDbEntity
  8
M-PIPE
100
AcDbLine
 10
788.7271920433006
 20
1672.655266574673
 30
0.0
 11
780.8827544789218
 21
1672.655266574673
 31
0.0
1001
REVIT
1002
{
1070
     3
1000
923236
1002
}
  0
LINE
  5
174
330
16F
100
AcDbEntity
  8
M-PIPE
100
AcDbLine
 10
760.2278012626763
 20
1702.655266574673
 30
0.0
 11
760.2278012626763
 21
1674.655266574673
 31
0.0
1001
REVIT
1002
{
1070
     3
1000
923236
1002
}
  0
LINE
  5
175
330
16F
100
AcDbEntity
  8
M-PIPE
100
AcDbLine
 10
809.2278012626765
 20
1674.655266574673
 30
0.0
 11
809.2278012626765
 21
1702.655266574673
 31
0.0
1001
REVIT
1002
{
1070
     3
1000
923236
1002
}
  0
LINE
  5
176
330
16F
100
AcDbEntity
  8
M-PIPE
100
AcDbLine
 10
761.1768897121863
 20
1674.655266574673
 30
0.0
 11
760.227801262675
 21
1674.655266574673
 31
0.0
1001
REVIT
1002
{
1070
     3
1000
923236
1002
}
  0
LINE
  5
177
330
16F
100
AcDbEntity
  8
M-PIPE
100
AcDbLine
 10
809.2240697940066
 20
1674.655266574673
 30
0.0
 11
761.1768897121863
 21
1674.655266574673
 31
0.0
1001
REVIT
1002
{
1070
     3
1000
923236
1002
}
  0
LINE
  5
178
330
16F
100
AcDbEntity
  8
M-PIPE
100
AcDbLine
 10
761.1768897121862
 20
1702.655266574673
 30
0.0
 11
809.2240697940066
 21
1702.655266574673
 31
0.0
1001
REVIT
1002
{
1070
     3
1000
923236
1002
}
  0
LINE
  5
179
330
16F
100
AcDbEntity
  8
M-PIPE
100
AcDbLine
 10
760.227801262675
 20
1702.655266574673
 30
0.0
 11
761.1768897121862
 21
1702.655266574673
 31
0.0
1001
REVIT
1002
{
1070
     3
1000
923236
1002
}
  0
LINE
  5
17A
330
16F
100
AcDbEntity
  8
M-PIPE
100
AcDbLine
 10
714.5471971013129
 20
1714.383212287462
 30
0.0
 11
712.6558929523094
 21
1713.798682023598
 31
0.0
1001
REVIT
1002
{
1070
     3
1000
923097
1002
}
  0
LWPOLYLINE
  5
17B
330
16F
100
AcDbEntity
  8
M-PIPE
100
AcDbPolyline
 90
        3
 70
   128
 43
0.0
 10
712.166524982772
 20
1713.624577286645
 10
710.8323640546316
 20
1713.14991659795
 10
709.2522069889326
 20
1712.511921870634
1001
REVIT
1002
{
1070
     3
1000
923097
1002
}
  0
LINE
  5
17C
330
16F
100
AcDbEntity
  8
M-PIPE
100
AcDbLine
 10
709.0828651324222
 20
1712.44354941962
 30
0.0
 11
707.8674752696705
 21
1711.901092076203
 31
0.0
1001
REVIT
1002
{
1070
     3
1000
923097
1002
}
  0
LINE
  5
17D
330
16F
100
AcDbEntity
  8
M-PIPE
100
AcDbLine
 10
707.8674752696727
 20
1673.409441073027
 30
0.0
 11
709.0855150895421
 21
1672.874305288205
 31
0.0
1001
REVIT
1002
{
1070
     3
1000
923097
1002
}
  0
LWPOLYLINE
  5
17E
330
16F
100
AcDbEntity
  8
M-PIPE
100
AcDbPolyline
 90
        4
 70
   128
 43
0.0
 10
709.244749813251
 20
1672.804346820958
 10
709.5600668574709
 20
1672.665814868904
 10
711.33066284688
 20
1671.9747231289
 10
712.1665249822958
 20
1671.688266419035
1001
REVIT
1002
{
1070
     3
1000
923097
1002
}
  0
LWPOLYLINE
  5
17F
330
16F
100
AcDbEntity
  8
M-PIPE
100
AcDbPolyline
 90
        3
 70
   128
 43
0.0
 10
712.7571266053199
 20
1671.485862469144
 10
713.173641365867
 20
1671.343119494123
 10
714.5471971013163
 20
1670.927320861768
1001
REVIT
1002
{
1070
     3
1000
923097
1002
}
  0
ELLIPSE
  5
180
330
16F
100
AcDbEntity
  8
M-PIPE
100
AcDbEllipse
 10
720.0382815113944
 20
1692.655266574615
 30
0.0
 11
0.0
 21
22.50000000000046
 31
0.0
210
0.0
220
0.0
230
1.0
 40
0.9396926207859058
 41
4.712388980384695
 42
6.518804756198838
1001
REVIT
1002
{
1070
     3
1000
923097
1002
}
  0
ELLIPSE
  5
181
330
16F
100
AcDbEntity
  8
M-PIPE
100
AcDbEllipse
 10
783.1126949157452
 20
1473.969922269025
 30
0.0
 11
-68.55373994149113
 21
240.416636325015
 31
0.0
210
0.0
220
0.0
230
1.0
 40
0.3303660895493446
 41
0.0103713125452976
 42
0.0506859024648805
1001
REVIT
1002
{
1070
     3
1000
923097
1002
}
  0
ELLIPSE
  5
182
330
16F
100
AcDbEntity
  8
M-PIPE
100
AcDbEllipse
 10
719.183231153089
 20
1692.655266574615
 30
0.0
 11
0.0
 21
22.25100234637491
 31
0.0
210
0.0
220
0.0
230
1.0
 40
0.9396926207859207
 41
6.023002737595972
 42
6.54660151319466
1001
REVIT
1002
{
1070
     3
1000
923097
1002
}
  0
SPLINE
  5
183
330
16F
100
AcDbEntity
  8
M-PIPE
100
AcDbSpline
210
0.0
220
0.0
230
1.0
 70
     8
 71
     3
 72
     9
 73
     5
 74
     0
 42
0.000000001
 43
0.0000000001
 40
-1.0
 40
-1.0
 40
-1.0
 40
-1.0
 40
-0.5
 40
0.0
 40
0.0
 40
0.0
 40
0.0
 10
724.5622437921499
 20
1714.157367534455
 30
0.0
 10
723.9482342508741
 20
1713.988423194811
 30
0.0
 10
722.7134816147404
 20
1713.618082663732
 30
0.0
 10
721.4652618714429
 20
1713.182838429071
 30
0.0
 10
720.8377852230032
 20
1712.948990385845
 30
0.0
1001
REVIT
1002
{
1070
     3
1000
923097
1002
}
  0
ELLIPSE
  5
184
330
16F
100
AcDbEntity
  8
M-PIPE
100
AcDbEllipse
 10
672.9918711520574
 20
1911.321988430555
 30
0.0
 11
-68.55373994149928
 21
240.416636325069
 31
0.0
210
0.0
220
0.0
230
1.0
 40
0.3303660895493476
 41
2.903056253178415
 42
2.943370843097985
1001
REVIT
1002
{
1070
     3
1000
923097
1002
}
  0
ELLIPSE
  5
185
330
16F
100
AcDbEntity
  8
M-PIPE
100
AcDbEllipse
 10
719.183231153089
 20
1692.655266574615
 30
0.0
 11
0.0
 21
22.25100234637503
 31
0.0
210
0.0
220
0.0
230
1.0
 40
0.9396926207859163
 41
2.878176447574743
 42
3.401775223173427
1001
REVIT
1002
{
1070
     3
1000
923097
1002
}
  0
SPLINE
  5
186
330
16F
100
AcDbEntity
  8
M-PIPE
100
AcDbSpline
210
0.0
220
0.0
230
1.0
 70
     8
 71
     3
 72
     9
 73
     5
 74
     0
 42
0.000000001
 43
0.0000000001
 40
-1.0
 40
-1.0
 40
-1.0
 40
-1.0
 40
-0.5
 40
0.0
 40
0.0
 40
0.0
 40
0.0
 10
713.7389099441084
 20
1671.17178806448
 30
0.0
 10
713.2099773524632
 20
1671.340732404124
 30
0.0
 10
712.1617207112539
 20
1671.711072935203
 30
0.0
 10
711.1326811542071
 20
1672.146317169864
 30
0.0
 10
710.6229656467244
 20
1672.380165213089
 30
0.0
1001
REVIT
1002
{
1070
     3
1000
923097
1002
}
  0
ELLIPSE
  5
187
330
16F
100
AcDbEntity
  8
M-PIPE
100
AcDbEllipse
 10
720.0382815113944
 20
1692.655266574615
 30
0.0
 11
0.0
 21
22.50000000000034
 31
0.0
210
0.0
220
0.0
230
1.0
 40
0.9396926207859076
 41
2.905973204570569
 42
4.712388980384685
1001
REVIT
1002
{
1070
     3
1000
923097
1002
}
  0
ELLIPSE
  5
188
330
16F
100
AcDbEntity
  8
M-PIPE
100
AcDbEllipse
 10
715.7630297198235
 20
1692.655266574615
 30
0.0
 11
0.0
 21
20.99999999999997
 31
0.0
210
0.0
220
0.0
230
1.0
 40
0.9396926207859063
 41
5.975258280587055
 42
6.023099054039049
1001
REVIT
1002
{
1070
     3
1000
923097
1002
}
  0
ELLIPSE
  5
189
330
16F
100
AcDbEntity
  8
M-PIPE
100
AcDbEllipse
 10
715.7630297198235
 20
1692.655266574615
 30
0.0
 11
0.0
 21
20.9999999999999
 31
0.0
210
0.0
220
0.0
230
1.0
 40
0.9396926207859095
 41
5.417426733942727
 42
5.96921515151773
1001
REVIT
1002
{
1070
     3
1000
923097
1002
}
  0
ELLIPSE
  5
18A
330
16F
100
AcDbEntity
  8
M-PIPE
100
AcDbEllipse
 10
715.7630297198235
 20
1692.655266574615
 30
0.0
 11
0.0
 21
20.99999999999997
 31
0.0
210
0.0
220
0.0
230
1.0
 40
0.9396926207859047
 41
5.337350653112459
 42
5.367744017211883
1001
REVIT
1002
{
1070
     3
1000
923097
1002
}
  0
ELLIPSE
  5
18B
330
16F
100
AcDbEntity
  8
M-PIPE
100
AcDbEllipse
 10
715.7630297198235
 20
1692.655266574615
 30
0.0
 11
0.0
 21
20.99999999999995
 31
0.0
210
0.0
220
0.0
230
1.0
 40
0.9396926207859092
 41
5.294926790897747
 42
5.326786315243499
1001
REVIT
1002
{
1070
     3
1000
923097
1002
}
  0
ELLIPSE
  5
18C
330
16F
100
AcDbEntity
  8
M-PIPE
100
AcDbEllipse
 10
715.7630297198235
 20
1692.655266574615
 30
0.0
 11
0.0
 21
20.99999999999999
 31
0.0
210
0.0
220
0.0
230
1.0
 40
0.9396926207859154
 41
5.212453003426228
 42
5.257470843980444
1001
REVIT
1002
{
1070
     3
1000
923097
1002
}
  0
ELLIPSE
  5
18D
330
16F
100
AcDbEntity
  8
M-PIPE
100
AcDbEllipse
 10
715.7630297198235
 20
1692.655266574615
 30
0.0
 11
0.0
 21
20.99999999999966
 31
0.0
210
0.0
220
0.0
230
1.0
 40
0.9396926207859303
 41
5.149292338269493
 42
5.178135034684139
1001
REVIT
1002
{
1070
     3
1000
923097
1002
}
  0
ELLIPSE
  5
18E
330
16F
100
AcDbEntity
  8
M-PIPE
100
AcDbEllipse
 10
715.7630297198235
 20
1692.655266574615
 30
0.0
 11
0.0
 21
20.99999999999981
 31
0.0
210
0.0
220
0.0
230
1.0
 40
0.9396926207859184
 41
4.712388980384695
 42
5.099462018093975
1001
REVIT
1002
{
1070
     3
1000
923097
1002
}
  0
LINE
  5
18F
330
16F
100
AcDbEntity
  8
M-PIPE
100
AcDbLine
 10
720.8377852230032
 20
1712.948990385845
 30
0.0
 11
720.8344068887342
 21
1712.935573109964
 31
0.0
1001
REVIT
1002
{
1070
     3
1000
923097
1002
}
  0
LINE
  5
190
330
16F
100
AcDbEntity
  8
M-PIPE
100
AcDbLine
 10
710.6265730604083
 20
1712.916040856352
 30
0.0
 11
710.6229656467238
 21
1712.93036793614
 31
0.0
1001
REVIT
1002
{
1070
     3
1000
923097
1002
}
  0
ELLIPSE
  5
191
330
16F
100
AcDbEntity
  8
M-PIPE
100
AcDbEllipse
 10
715.7630297198241
 20
1692.655266574615
 30
0.0
 11
0.0
 21
21.00000000000024
 31
0.0
210
0.0
220
0.0
230
1.0
 40
0.9396926207859172
 41
0.392788404044615
 42
0.4116349749889606
1001
REVIT
1002
{
1070
     3
1000
923097
1002
}
  0
ELLIPSE
  5
192
330
16F
100
AcDbEntity
  8
M-PIPE
100
AcDbEllipse
 10
715.7630297198241
 20
1692.655266574615
 30
0.0
 11
0.0
 21
21.00000000000016
 31
0.0
210
0.0
220
0.0
230
1.0
 40
0.9396926207859163
 41
0.3142668632321155
 42
0.366583643513289
1001
REVIT
1002
{
1070
     3
1000
923097
1002
}
  0
ELLIPSE
  5
193
330
16F
100
AcDbEntity
  8
M-PIPE
100
AcDbEllipse
 10
715.7630297198241
 20
1692.655266574615
 30
0.0
 11
0.0
 21
21.00000000000024
 31
0.0
210
0.0
220
0.0
230
1.0
 40
0.9396926207859159
 41
0.2635125224581716
 42
0.2917505365793995
1001
REVIT
1002
{
1070
     3
1000
923097
1002
}
  0
ELLIPSE
  5
194
330
16F
100
AcDbEntity
  8
M-PIPE
100
AcDbEllipse
 10
715.7630297198235
 20
1692.655266574615
 30
0.0
 11
0.0
 21
20.99999999999986
 31
0.0
210
0.0
220
0.0
230
1.0
 40
0.939692620785915
 41
2.850219800073213
 42
2.878080131131654
1001
REVIT
1002
{
1070
     3
1000
923097
1002
}
  0
ELLIPSE
  5
195
330
16F
100
AcDbEntity
  8
M-PIPE
100
AcDbEllipse
 10
715.7630297198235
 20
1692.655266574615
 30
0.0
 11
0.0
 21
20.99999999999999
 31
0.0
210
0.0
220
0.0
230
1.0
 40
0.9396926207859127
 41
2.775675712413869
 42
2.827600409199391
1001
REVIT
1002
{
1070
     3
1000
923097
1002
}
  0
ELLIPSE
  5
196
330
16F
100
AcDbEntity
  8
M-PIPE
100
AcDbEllipse
 10
715.7630297198235
 20
1692.655266574615
 30
0.0
 11
0.0
 21
20.99999999999996
 31
0.0
210
0.0
220
0.0
230
1.0
 40
0.9396926207859095
 41
2.729957678600986
 42
2.749446873121963
1001
REVIT
1002
{
1070
     3
1000
923097
1002
}
  0
LINE
  5
197
330
16F
100
AcDbEntity
  8
M-PIPE
100
AcDbLine
 10
710.6229656467244
 20
1672.380165213089
 30
0.0
 11
710.6265730604278
 21
1672.394492292952
 31
0.0
1001
REVIT
1002
{
1070
     3
1000
923097
1002
}
  0
LINE
  5
198
330
16F
100
AcDbEntity
  8
M-PIPE
100
AcDbLine
 10
720.8344068887162
 20
1672.374960039341
 30
0.0
 11
720.837785223004
 21
1672.361542763385
 31
0.0
1001
REVIT
1002
{
1070
     3
1000
923097
1002
}
  0
ELLIPSE
  5
199
330
16F
100
AcDbEntity
  8
M-PIPE
100
AcDbEllipse
 10
715.7630297198241
 20
1692.655266574615
 30
0.0
 11
0.0
 21
21.00000000000045
 31
0.0
210
0.0
220
0.0
230
1.0
 40
0.9396926207859053
 41
4.324992272202919
 42
4.712388980384695
1001
REVIT
1002
{
1070
     3
1000
923097
1002
}
  0
ELLIPSE
  5
19A
330
16F
100
AcDbEntity
  8
M-PIPE
100
AcDbEllipse
 10
715.7630297198241
 20
1692.655266574615
 30
0.0
 11
0.0
 21
21.00000000000016
 31
0.0
210
0.0
220
0.0
230
1.0
 40
0.9396926207859079
 41
4.246436138069981
 42
4.275485622499922
1001
REVIT
1002
{
1070
     3
1000
923097
1002
}
  0
ELLIPSE
  5
19B
330
16F
100
AcDbEntity
  8
M-PIPE
100
AcDbEllipse
 10
715.7630297198241
 20
1692.655266574615
 30
0.0
 11
0.0
 21
21.00000000000013
 31
0.0
210
0.0
220
0.0
230
0.9999999999999998
 40
0.9396926207859136
 41
4.167339934774943
 42
4.202668396185792
1001
REVIT
1002
{
1070
     3
1000
923097
1002
}
  0
ELLIPSE
  5
19C
330
16F
100
AcDbEntity
  8
M-PIPE
100
AcDbEllipse
 10
715.7630297198241
 20
1692.655266574615
 30
0.0
 11
0.0
 21
20.99999999999993
 31
0.0
210
0.0
220
0.0
230
0.9999999999999998
 40
0.9396926207859285
 41
4.098324624249371
 42
4.129851169871662
1001
REVIT
1002
{
1070
     3
1000
923097
1002
}
  0
ELLIPSE
  5
19D
330
16F
100
AcDbEntity
  8
M-PIPE
100
AcDbEllipse
 10
715.7630297198241
 20
1692.655266574615
 30
0.0
 11
0.0
 21
21.0000000000002
 31
0.0
210
0.0
220
0.0
230
1.0
 40
0.9396926207859204
 41
4.047110179592221
 42
4.087796678496546
1001
REVIT
1002
{
1070
     3
1000
923097
1002
}
  0
ELLIPSE
  5
19E
330
16F
100
AcDbEntity
  8
M-PIPE
100
AcDbEllipse
 10
715.7630297198241
 20
1692.655266574615
 30
0.0
 11
0.0
 21
21.0000000000002
 31
0.0
210
0.0
220
0.0
230
1.0
 40
0.9396926207859165
 41
3.455838309561374
 42
4.008071472418773
1001
REVIT
1002
{
1070
     3
1000
923097
1002
}
  0
ELLIPSE
  5
19F
330
16F
100
AcDbEntity
  8
M-PIPE
100
AcDbEllipse
 10
715.7630297198241
 20
1692.655266574615
 30
0.0
 11
0.0
 21
21.00000000000012
 31
0.0
210
0.0
220
0.0
230
1.0
 40
0.9396926207859218
 41
3.401678906730374
 42
3.449764282879717
1001
REVIT
1002
{
1070
     3
1000
923097
1002
}
  0
LINE
  5
1A0
330
16F
100
AcDbEntity
  8
M-PIPE
100
AcDbLine
 10
713.738909944108
 20
1714.13874508475
 30
0.0
 11
713.8873287200604
 21
1713.549290192373
 31
0.0
1001
REVIT
1002
{
1070
     3
1000
923097
1002
}
  0
LINE
  5
1A1
330
16F
100
AcDbEntity
  8
M-PIPE
100
AcDbLine
 10
713.8873287200805
 20
1671.761242956934
 30
0.0
 11
713.7389099441084
 21
1671.17178806448
 31
0.0
1001
REVIT
1002
{
1070
     3
1000
923097
1002
}
  0
LINE
  5
1A2
330
16F
100
AcDbEntity
  8
M-PIPE
100
AcDbLine
 10
729.6148455245201
 20
1719.155266574605
 30
0.0
 11
728.5887850945431
 21
1719.155266574605
 31
0.0
1001
REVIT
1002
{
1070
     3
1000
923097
1002
}
  0
LINE
  5
1A3
330
16F
100
AcDbEntity
  8
M-PIPE
100
AcDbLine
 10
728.5887850945451
 20
1666.155266574667
 30
0.0
 11
729.6148455245222
 21
1666.155266574667
 31
0.0
1001
REVIT
1002
{
1070
     3
1000
923097
1002
}
  0
LINE
  5
1A4
330
16F
100
AcDbEntity
  8
M-PIPE
100
AcDbLine
 10
728.5887850945431
 20
1718.22748773531
 30
0.0
 11
725.9197958302041
 21
1718.22748773531
 31
0.0
1001
REVIT
1002
{
1070
     3
1000
923097
1002
}
  0
LINE
  5
1A5
330
16F
100
AcDbEntity
  8
M-PIPE
100
AcDbLine
 10
725.9197958302061
 20
1667.083045413962
 30
0.0
 11
728.5887850945451
 21
1667.083045413962
 31
0.0
1001
REVIT
1002
{
1070
     3
1000
923097
1002
}
  0
LWPOLYLINE
  5
1A6
330
16F
100
AcDbEntity
  8
M-PIPE
100
AcDbPolyline
 90
        6
 70
   128
 43
0.0
 10
723.6685919996094
 20
1716.073368677741
 10
721.5703372913083
 20
1715.841470051349
 10
719.5028222262703
 20
1715.523616175915
 10
717.4753606848069
 20
1715.123279607182
 10
715.4967481787013
 20
1714.644789868556
 10
714.5331401290783
 20
1714.379183675839
1001
REVIT
1002
{
1070
     3
1000
923097
1002
}
  0
LWPOLYLINE
  5
1A7
330
16F
100
AcDbEntity
  8
M-PIPE
100
AcDbPolyline
 90
        6
 70
   128
 43
0.0
 10
714.5331401290798
 20
1670.931349473432
 10
716.4843634258488
 20
1670.415836224954
 10
718.4885852400229
 20
1669.976026427094
 10
720.537308032117
 20
1669.616647986398
 10
722.6214618849129
 20
1669.341608596036
 10
723.6685919996111
 20
1669.23716447153
1001
REVIT
1002
{
1070
     3
1000
923097
1002
}
  0
ELLIPSE
  5
1A8
330
16F
100
AcDbEntity
  8
M-PIPE
100
AcDbEllipse
 10
729.61484552452
 20
1692.655266574635
 30
0.0
 11
0.0
 21
26.49999999996908
 31
0.0
210
0.0
220
0.0
230
1.0
 40
0.9396926207859117
 41
4.712388980384685
 42
4.790928796724427
1001
REVIT
1002
{
1070
     3
1000
923097
1002
}
  0
ELLIPSE
  5
1A9
330
16F
100
AcDbEntity
  8
M-PIPE
100
AcDbEllipse
 10
729.61484552452
 20
1692.655266574635
 30
0.0
 11
0.0
 21
26.49999999996919
 31
0.0
210
0.0
220
0.0
230
1.0
 40
0.939692620785911
 41
4.799675138059368
 42
4.878211383629942
1001
REVIT
1002
{
1070
     3
1000
923097
1002
}
  0
ELLIPSE
  5
1AA
330
16F
100
AcDbEntity
  8
M-PIPE
100
AcDbEllipse
 10
729.61484552452
 20
1692.655266574635
 30
0.0
 11
0.0
 21
26.499999999969
 31
0.0
210
0.0
220
0.0
230
1.0
 40
0.9396926207859189
 41
4.886997326392936
 42
4.948008429403914
1001
REVIT
1002
{
1070
     3
1000
923097
1002
}
  0
ELLIPSE
  5
1AB
330
16F
100
AcDbEntity
  8
M-PIPE
100
AcDbEllipse
 10
729.61484552452
 20
1692.655266574635
 30
0.0
 11
0.0
 21
26.499999999969
 31
0.0
210
0.0
220
0.0
230
1.0
 40
0.9396926207859161
 41
4.974338072851811
 42
5.026548245743661
1001
REVIT
1002
{
1070
     3
1000
923097
1002
}
  0
ELLIPSE
  5
1AC
330
16F
100
AcDbEntity
  8
M-PIPE
100
AcDbEllipse
 10
729.61484552452
 20
1692.655266574635
 30
0.0
 11
0.0
 21
26.49999999996901
 31
0.0
210
0.0
220
0.0
230
1.0
 40
0.9396926207859195
 41
5.061679632521414
 42
5.149003217657324
1001
REVIT
1002
{
1070
     3
1000
923097
1002
}
  0
ELLIPSE
  5
1AD
330
16F
100
AcDbEntity
  8
M-PIPE
100
AcDbEllipse
 10
729.61484552452
 20
1692.655266574635
 30
0.0
 11
0.0
 21
26.49999999996922
 31
0.0
210
0.0
220
0.0
230
1.0
 40
0.9396926207859054
 41
5.164349464800442
 42
5.236288051672358
1001
REVIT
1002
{
1070
     3
1000
923097
1002
}
  0
ELLIPSE
  5
1AE
330
16F
100
AcDbEntity
  8
M-PIPE
100
AcDbEllipse
 10
729.61484552452
 20
1692.655266574635
 30
0.0
 11
0.0
 21
26.49999999996876
 31
0.0
210
0.0
220
0.0
230
1.0
 40
0.9396926207859264
 41
5.262167694762904
 42
5.323510104577361
1001
REVIT
1002
{
1070
     3
1000
923097
1002
}
  0
ELLIPSE
  5
1AF
330
16F
100
AcDbEntity
  8
M-PIPE
100
AcDbEllipse
 10
729.61484552452
 20
1692.655266574635
 30
0.0
 11
0.0
 21
26.49999999996895
 31
0.0
210
0.0
220
0.0
230
0.9999999999999998
 40
0.9396926207859191
 41
5.340707511102648
 42
5.410640281130561
1001
REVIT
1002
{
1070
     3
1000
923097
1002
}
  0
ELLIPSE
  5
1B0
330
16F
100
AcDbEntity
  8
M-PIPE
100
AcDbEllipse
 10
729.61484552452
 20
1692.655266574635
 30
0.0
 11
0.0
 21
26.499999999969
 31
0.0
210
0.0
220
0.0
230
1.0
 40
0.9396926207859147
 41
5.413329048390702
 42
5.81194640914112
1001
REVIT
1002
{
1070
     3
1000
923097
1002
}
  0
ELLIPSE
  5
1B1
330
16F
100
AcDbEntity
  8
M-PIPE
100
AcDbEllipse
 10
729.61484552452
 20
1692.655266574635
 30
0.0
 11
0.0
 21
26.49999999996896
 31
0.0
210
0.0
220
0.0
230
0.9999999999999998
 40
0.9396926207859173
 41
5.846571069907362
 42
6.021236214712851
1001
REVIT
1002
{
1070
     3
1000
923097
1002
}
  0
ELLIPSE
  5
1B2
330
16F
100
AcDbEntity
  8
M-PIPE
100
AcDbEllipse
 10
729.61484552452
 20
1692.655266574635
 30
0.0
 11
0.0
 21
26.49999999996929
 31
0.0
210
0.0
220
0.0
230
1.0
 40
0.9396926207859076
 41
6.047565858160361
 42
6.108576961171706
1001
REVIT
1002
{
1070
     3
1000
923097
1002
}
  0
ELLIPSE
  5
1B3
330
16F
100
AcDbEntity
  8
M-PIPE
100
AcDbEllipse
 10
729.61484552452
 20
1692.655266574635
 30
0.0
 11
0.0
 21
26.49999999996902
 31
0.0
210
0.0
220
0.0
230
1.0
 40
0.9396926207859202
 41
6.126105674500103
 42
6.204645490839846
1001
REVIT
1002
{
1070
     3
1000
923097
1002
}
  0
ELLIPSE
  5
1B4
330
16F
100
AcDbEntity
  8
M-PIPE
100
AcDbEllipse
 10
729.61484552452
 20
1692.655266574635
 30
0.0
 11
0.0
 21
26.49999999996937
 31
0.0
210
0.0
220
0.0
230
1.0
 40
0.9396926207859038
 41
3.220132469929537
 42
3.298672286269282
1001
REVIT
1002
{
1070
     3
1000
923097
1002
}
  0
ELLIPSE
  5
1B5
330
16F
100
AcDbEntity
  8
M-PIPE
100
AcDbEllipse
 10
729.61484552452
 20
1692.655266574635
 30
0.0
 11
0.0
 21
26.49999999996927
 31
0.0
210
0.0
220
0.0
230
0.9999999999999998
 40
0.9396926207859056
 41
3.31620099959767
 42
3.377212102609027
1001
REVIT
1002
{
1070
     3
1000
923097
1002
}
  0
ELLIPSE
  5
1B6
330
16F
100
AcDbEntity
  8
M-PIPE
100
AcDbEllipse
 10
729.61484552452
 20
1692.655266574635
 30
0.0
 11
0.0
 21
26.49999999996904
 31
0.0
210
0.0
220
0.0
230
0.9999999999999998
 40
0.9396926207859165
 41
3.403541746056528
 42
3.578206890862012
1001
REVIT
1002
{
1070
     3
1000
923097
1002
}
  0
ELLIPSE
  5
1B7
330
16F
100
AcDbEntity
  8
M-PIPE
100
AcDbEllipse
 10
729.61484552452
 20
1692.655266574635
 30
0.0
 11
0.0
 21
26.49999999996918
 31
0.0
210
0.0
220
0.0
230
1.0
 40
0.9396926207859086
 41
3.612831551628259
 42
4.011448912378651
1001
REVIT
1002
{
1070
     3
1000
923097
1002
}
  0
ELLIPSE
  5
1B8
330
16F
100
AcDbEntity
  8
M-PIPE
100
AcDbEllipse
 10
729.61484552452
 20
1692.655266574635
 30
0.0
 11
0.0
 21
26.49999999996908
 31
0.0
210
0.0
220
0.0
230
1.0
 40
0.9396926207859138
 41
4.014137679640692
 42
4.084070449666718
1001
REVIT
1002
{
1070
     3
1000
923097
1002
}
  0
ELLIPSE
  5
1B9
330
16F
100
AcDbEntity
  8
M-PIPE
100
AcDbEllipse
 10
729.61484552452
 20
1692.655266574635
 30
0.0
 11
0.0
 21
26.49999999996902
 31
0.0
210
0.0
220
0.0
230
0.9999999999999998
 40
0.9396926207859189
 41
4.101267856193794
 42
4.260428495968893
1001
REVIT
1002
{
1070
     3
1000
923097
1002
}
  0
ELLIPSE
  5
1BA
330
16F
100
AcDbEntity
  8
M-PIPE
100
AcDbEllipse
 10
729.61484552452
 20
1692.655266574635
 30
0.0
 11
0.0
 21
26.49999999996912
 31
0.0
210
0.0
220
0.0
230
1.0
 40
0.9396926207859122
 41
4.275774743113672
 42
4.363098328249522
1001
REVIT
1002
{
1070
     3
1000
923097
1002
}
  0
ELLIPSE
  5
1BB
330
16F
100
AcDbEntity
  8
M-PIPE
100
AcDbEllipse
 10
729.61484552452
 20
1692.655266574635
 30
0.0
 11
0.0
 21
26.49999999996914
 31
0.0
210
0.0
220
0.0
230
0.9999999999999998
 40
0.9396926207859122
 41
4.398229715025693
 42
4.537780634377924
1001
REVIT
1002
{
1070
     3
1000
923097
1002
}
  0
ELLIPSE
  5
1BC
330
16F
100
AcDbEntity
  8
M-PIPE
100
AcDbEllipse
 10
729.61484552452
 20
1692.655266574635
 30
0.0
 11
0.0
 21
26.49999999996909
 31
0.0
210
0.0
220
0.0
230
1.0
 40
0.9396926207859108
 41
4.555309347705185
 42
4.625102822711474
1001
REVIT
1002
{
1070
     3
1000
923097
1002
}
  0
ELLIPSE
  5
1BD
330
16F
100
AcDbEntity
  8
M-PIPE
100
AcDbEllipse
 10
729.61484552452
 20
1692.655266574635
 30
0.0
 11
0.0
 21
26.49999999996893
 31
0.0
210
0.0
220
0.0
230
0.9999999999999998
 40
0.9396926207859189
 41
4.633849164044933
 42
4.712388980384676
1001
REVIT
1002
{
1070
     3
1000
923097
1002
}
  0
ELLIPSE
  5
1BE
330
16F
100
AcDbEntity
  8
M-PIPE
100
AcDbEllipse
 10
728.5887850945429
 20
1692.655266574635
 30
0.0
 11
0.0
 21
26.49999999996893
 31
0.0
210
0.0
220
0.0
230
1.0
 40
0.9396926207859191
 41
4.712388980384685
 42
6.897665783061004
1001
REVIT
1002
{
1070
     3
1000
923097
1002
}
  0
ELLIPSE
  5
1BF
330
16F
100
AcDbEntity
  8
M-PIPE
100
AcDbEllipse
 10
728.5887850945429
 20
1692.655266574635
 30
0.0
 11
0.0
 21
26.49999999996931
 31
0.0
210
0.0
220
0.0
230
1.0
 40
0.9396926207859122
 41
3.185072806023799
 42
4.712388980384685
1001
REVIT
1002
{
1070
     3
1000
923097
1002
}
  0
ELLIPSE
  5
1C0
330
16F
100
AcDbEntity
  8
M-PIPE
100
AcDbEllipse
 10
728.5887850945429
 20
1692.655266574635
 30
0.0
 11
0.0
 21
26.49999999996932
 31
0.0
210
0.0
220
0.0
230
1.0
 40
0.9396926207859058
 41
2.527097051799297
 42
3.176499238629689
1001
REVIT
1002
{
1070
     3
1000
923097
1002
}
  0
LINE
  5
1C1
330
16F
100
AcDbEntity
  8
M-PIPE
100
AcDbLine
 10
732.6806642553288
 20
1717.854015340371
 30
0.0
 11
747.049528832612
 21
1709.025737190537
 31
0.0
1001
REVIT
1002
{
1070
     3
1000
923097
1002
}
  0
LINE
  5
1C2
330
16F
100
AcDbEntity
  8
M-PIPE
100
AcDbLine
 10
751.1414079934169
 20
1701.483544724412
 30
0.0
 11
751.1414079934163
 21
1683.826988424858
 31
0.0
1001
REVIT
1002
{
1070
     3
1000
923097
1002
}
  0
LINE
  5
1C3
330
16F
100
AcDbEntity
  8
M-PIPE
100
AcDbLine
 10
747.049528832561
 20
1676.284795958668
 30
0.0
 11
732.6806642554053
 21
1667.456517808914
 31
0.0
1001
REVIT
1002
{
1070
     3
1000
923097
1002
}
  0
ELLIPSE
  5
1C4
330
16F
100
AcDbEntity
  8
M-PIPE
100
AcDbEllipse
 10
728.5887850945429
 20
1692.655266574635
 30
0.0
 11
0.0
 21
25.57222116067396
 31
0.0
210
0.0
220
0.0
230
1.0
 40
0.9396926207859202
 41
6.112069549434881
 42
6.283185307178852
1001
REVIT
1002
{
1070
     3
1000
923097
1002
}
  0
LINE
  5
1C5
330
16F
100
AcDbEntity
  8
M-PIPE
100
AcDbLine
 10
730.011674990991
 20
1717.854015340371
 30
0.0
 11
732.68066425533
 21
1717.854015340371
 31
0.0
1001
REVIT
1002
{
1070
     3
1000
923097
1002
}
  0
ELLIPSE
  5
1C6
330
16F
100
AcDbEntity
  8
M-PIPE
100
AcDbEllipse
 10
728.5887850945429
 20
1692.655266574635
 30
0.0
 11
0.0
 21
25.57222116067415
 31
0.0
210
0.0
220
0.0
230
1.0
 40
0.9396926207859145
 41
5.06487199823592
 42
5.407103513727651
1001
REVIT
1002
{
1070
     3
1000
923097
1002
}
  0
LINE
  5
1C7
330
16F
100
AcDbEntity
  8
M-PIPE
100
AcDbLine
 10
747.0495288326112
 20
1709.025737190539
 30
0.0
 11
744.3805395682722
 21
1709.025737190539
 31
0.0
1001
REVIT
1002
{
1070
     3
1000
923097
1002
}
  0
LINE
  5
1C8
330
16F
100
AcDbEntity
  8
M-PIPE
100
AcDbLine
 10
748.4724187290772
 20
1701.483544724413
 30
0.0
 11
751.1414079934162
 21
1701.483544724413
 31
0.0
1001
REVIT
1002
{
1070
     3
1000
923097
1002
}
  0
ELLIPSE
  5
1C9
330
16F
100
AcDbEntity
  8
M-PIPE
100
AcDbEllipse
 10
728.5887850945429
 20
1692.655266574635
 30
0.0
 11
0.0
 21
25.57222116067443
 31
0.0
210
0.0
220
0.0
230
1.0
 40
0.9396926207859031
 41
4.0176744470384
 42
4.359905962533388
1001
REVIT
1002
{
1070
     3
1000
923097
1002
}
  0
LINE
  5
1CA
330
16F
100
AcDbEntity
  8
M-PIPE
100
AcDbLine
 10
751.1414079934156
 20
1683.826988424856
 30
0.0
 11
748.4724187290765
 21
1683.826988424856
 31
0.0
1001
REVIT
1002
{
1070
     3
1000
923097
1002
}
  0
LINE
  5
1CB
330
16F
100
AcDbEntity
  8
M-PIPE
100
AcDbLine
 10
744.3805395682237
 20
1676.28479595867
 30
0.0
 11
747.0495288325628
 21
1676.28479595867
 31
0.0
1001
REVIT
1002
{
1070
     3
1000
923097
1002
}
  0
ELLIPSE
  5
1CC
330
16F
100
AcDbEntity
  8
M-PIPE
100
AcDbEllipse
 10
728.5887850945429
 20
1692.655266574635
 30
0.0
 11
0.0
 21
25.57222116067431
 31
0.0
210
0.0
220
0.0
230
1.0
 40
0.9396926207859046
 41
3.141592653590478
 42
3.312708411337734
1001
REVIT
1002
{
1070
     3
1000
923097
1002
}
  0
LINE
  5
1CD
330
16F
100
AcDbEntity
  8
M-PIPE
100
AcDbLine
 10
732.6806642554024
 20
1667.456517808913
 30
0.0
 11
730.0116749910634
 21
1667.456517808913
 31
0.0
1001
REVIT
1002
{
1070
     3
1000
923097
1002
}
  0
SPLINE
  5
1CE
330
16F
100
AcDbEntity
  8
M-PIPE
100
AcDbSpline
210
0.0
220
0.0
230
1.0
 70
     8
 71
     3
 72
     9
 73
     5
 74
     0
 42
0.000000001
 43
0.0000000001
 40
-1.0
 40
-1.0
 40
-1.0
 40
-1.0
 40
-0.5
 40
0.0
 40
0.0
 40
0.0
 40
0.0
 10
748.1619594143973
 20
1692.655266574635
 30
0.0
 10
748.1637358584214
 20
1694.141338110918
 30
0.0
 10
748.217255521559
 20
1697.09878933883
 30
0.0
 10
748.370708734875
 20
1700.026856877436
 30
0.0
 10
748.4724187290777
 20
1701.483544724412
 30
0.0
1001
REVIT
1002
{
1070
     3
1000
923097
1002
}
  0
ELLIPSE
  5
1CF
330
16F
100
AcDbEntity
  8
M-PIPE
100
AcDbEllipse
 10
725.9197958302038
 20
1692.655266574635
 30
0.0
 11
0.0
 21
25.57222116067412
 31
0.0
210
0.0
220
0.0
230
1.0
 40
0.9396926207859152
 41
5.064871998235931
 42
5.407103513727661
1001
REVIT
1002
{
1070
     3
1000
923097
1002
}
  0
SPLINE
  5
1D0
330
16F
100
AcDbEntity
  8
M-PIPE
100
AcDbSpline
210
0.0
220
0.0
230
1.0
 70
     8
 71
     3
 72
     9
 73
     5
 74
     0
 42
0.000000001
 43
0.0000000001
 40
-1.0
 40
-1.0
 40
-1.0
 40
-1.0
 40
-0.5
 40
0.0
 40
0.0
 40
0.0
 40
0.0
 10
744.3805395682728
 20
1709.025737190537
 30
0.0
 10
741.8135634729309
 20
1710.47573794295
 30
0.0
 10
736.8517766147085
 20
1713.397118387
 30
0.0
 10
732.2343204214089
 20
1716.361256709506
 30
0.0
 10
730.0116749909898
 20
1717.854015340371
 30
0.0
1001
REVIT
1002
{
1070
     3
1000
923097
1002
}
  0
ELLIPSE
  5
1D1
330
16F
100
AcDbEntity
  8
M-PIPE
100
AcDbEllipse
 10
725.9197958302038
 20
1692.655266574635
 30
0.0
 11
0.0
 21
25.57222116067415
 31
0.0
210
0.0
220
0.0
230
1.0
 40
0.9396926207859088
 41
6.112069549434873
 42
6.454301064922858
1001
REVIT
1002
{
1070
     3
1000
923097
1002
}
  0
SPLINE
  5
1D2
330
16F
100
AcDbEntity
  8
M-PIPE
100
AcDbSpline
210
0.0
220
0.0
230
1.0
 70
     8
 71
     3
 72
     8
 73
     4
 74
     0
 42
0.000000001
 43
0.0000000001
 40
-1.0
 40
-1.0
 40
-1.0
 40
-1.0
 40
-0.6784763839784168
 40
-0.6784763839784168
 40
-0.6784763839784168
 40
-0.6784763839784168
 10
721.8279166694521
 20
1717.854015340378
 30
0.0
 10
720.1772297966146
 20
1716.921596370076
 30
0.0
 10
718.5621389449362
 20
1715.984757199944
 30
0.0
 10
716.9826441144167
 20
1715.043497829984
 30
0.0
1001
REVIT
1002
{
1070
     3
1000
923097
1002
}
  0
SPLINE
  5
1D3
330
16F
100
AcDbEntity
  8
M-PIPE
100
AcDbSpline
210
0.0
220
0.0
230
1.0
 70
     8
 71
     3
 72
     8
 73
     4
 74
     0
 42
0.000000001
 43
0.0000000001
 40
-0.3248984106245014
 40
-0.3248984106245014
 40
-0.3248984106245014
 40
-0.3248984106245014
 40
0.0
 40
0.0
 40
0.0
 40
0.0
 10
716.8413332173189
 20
1670.352946814825
 30
0.0
 10
718.452488277063
 20
1669.391983957438
 30
0.0
 10
720.1146827610814
 20
1668.426507622131
 30
0.0
 10
721.8279166693739
 20
1667.456517808907
 30
0.0
1001
REVIT
1002
{
1070
     3
1000
923097
1002
}
  0
ELLIPSE
  5
1D4
330
16F
100
AcDbEntity
  8
M-PIPE
100
AcDbEllipse
 10
725.9197958302038
 20
1692.655266574635
 30
0.0
 11
0.0
 21
25.572221160674
 31
0.0
210
0.0
220
0.0
230
0.9999999999999998
 40
0.9396926207859142
 41
2.97047689584323
 42
3.312708411337725
1001
REVIT
1002
{
1070
     3
1000
923097
1002
}
  0
SPLINE
  5
1D5
330
16F
100
AcDbEntity
  8
M-PIPE
100
AcDbSpline
210
0.0
220
0.0
230
1.0
 70
     8
 71
     3
 72
     9
 73
     5
 74
     0
 42
0.000000001
 43
0.0000000001
 40
-1.0
 40
-1.0
 40
-1.0
 40
-1.0
 40
-0.5
 40
0.0
 40
0.0
 40
0.0
 40
0.0
 10
730.0116749910661
 20
1667.456517808914
 30
0.0
 10
732.1647278967774
 20
1668.906518561312
 30
0.0
 10
736.7125915653485
 20
1671.827899005337
 30
0.0
 10
741.7439709482149
 20
1674.792037327815
 30
0.0
 10
744.380539568222
 20
1676.284795958668
 30
0.0
1001
REVIT
1002
{
1070
     3
1000
923097
1002
}
  0
ELLIPSE
  5
1D6
330
16F
100
AcDbEntity
  8
M-PIPE
100
AcDbEllipse
 10
725.9197958302038
 20
1692.655266574635
 30
0.0
 11
0.0
 21
25.57222116067443
 31
0.0
210
0.0
220
0.0
230
1.0
 40
0.9396926207859003
 41
4.017674447038424
 42
4.359905962533387
1001
REVIT
1002
{
1070
     3
1000
923097
1002
}
  0
SPLINE
  5
1D7
330
16F
100
AcDbEntity
  8
M-PIPE
100
AcDbSpline
210
0.0
220
0.0
230
1.0
 70
     8
 71
     3
 72
     9
 73
     5
 74
     0
 42
0.000000001
 43
0.0000000001
 40
-1.0
 40
-1.0
 40
-1.0
 40
-1.0
 40
-0.5
 40
0.0
 40
0.0
 40
0.0
 40
0.0
 10
748.4724187290772
 20
1683.826988424857
 30
0.0
 10
748.3707087348745
 20
1685.283676271833
 30
0.0
 10
748.2172555215587
 20
1688.211743810439
 30
0.0
 10
748.1637358584212
 20
1691.169195038352
 30
0.0
 10
748.1619594143973
 20
1692.655266574635
 30
0.0
1001
REVIT
1002
{
1070
     3
1000
923097
1002
}
  0
ELLIPSE
  5
1D8
330
16F
100
AcDbEntity
  8
M-PIPE
100
AcDbEllipse
 10
725.5106038046129
 20
1692.655266574635
 30
0.0
 11
0.0
 21
23.50000000000007
 31
0.0
210
0.0
220
0.0
230
1.0
 40
0.9396926207859145
 41
4.712388980384695
 42
6.44026493985909
1001
REVIT
1002
{
1070
     3
1000
923097
1002
}
  0
ELLIPSE
  5
1D9
330
16F
100
AcDbEntity
  8
M-PIPE
100
AcDbEllipse
 10
725.5106038046129
 20
1692.655266574635
 30
0.0
 11
0.0
 21
23.5
 31
0.0
210
0.0
220
0.0
230
1.0
 40
0.9396926207859179
 41
3.05808166034688
 42
4.712388980384685
1001
REVIT
1002
{
1070
     3
1000
923097
1002
}
  0
ELLIPSE
  5
1DA
330
16F
100
AcDbEntity
  8
M-PIPE
100
AcDbEllipse
 10
720.0382815114027
 20
1692.655266574635
 30
0.0
 11
0.0
 21
22.49999999999978
 31
0.0
210
0.0
220
0.0
230
0.9999999999999998
 40
0.939692620785928
 41
4.712388980384695
 42
6.518804756198839
1001
REVIT
1002
{
1070
     3
1000
923097
1002
}
  0
ELLIPSE
  5
1DB
330
16F
100
AcDbEntity
  8
M-PIPE
100
AcDbEllipse
 10
720.0382815114027
 20
1692.655266574635
 30
0.0
 11
0.0
 21
22.50000000000046
 31
0.0
210
0.0
220
0.0
230
1.0
 40
0.9396926207859058
 41
2.905973204570566
 42
4.712388980384685
1001
REVIT
1002
{
1070
     3
1000
923097
1002
}
  0
LWPOLYLINE
  5
1DC
330
16F
100
AcDbEntity
  8
P-SANR-FIXT
100
AcDbPolyline
 90
       11
 70
   128
 43
0.0
 10
694.0109862602485
 20
1698.888000025552
 10
693.7884270422358
 20
1698.221069403766
 10
693.5913346450996
 20
1697.545977888365
 10
693.4199431164334
 20
1696.863733705287
 10
693.2744544094275
 20
1696.175348401743
 10
693.1550388135457
 20
1695.481836273336
 10
693.0618353214498
 20
1694.784213838792
 10
692.9949519307763
 20
1694.083499353212
 10
692.9544658798984
 20
1693.380712351418
 10
692.9404238171649
 20
1692.676873213417
 10
692.9404113547548
 20
1692.655266574656
  0
LWPOLYLINE
  5
1DD
330
16F
100
AcDbEntity
  8
P-SANR-FIXT
100
AcDbPolyline
 90
        8
 70
   128
 43
0.0
 10
699.986634317552
 20
1707.130854880075
 10
699.4386591117121
 20
1706.696124567277
 10
698.9085857051813
 20
1706.239393899234
 10
698.3971942917539
 20
1705.761494304446
 10
697.9052240200934
 20
1705.263281400478
 10
697.4333732373779
 20
1704.745632529381
 10
696.9822998857474
 20
1704.209444462493
 10
696.7912946598906
 20
1703.968812120491
  0
LWPOLYLINE
  5
1DE
330
16F
100
AcDbEntity
  8
P-SANR-FIXT
100
AcDbPolyline
 90
        8
 70
   128
 43
0.0
 10
696.7919523395879
 20
1681.340877631198
 10
697.2337539576114
 20
1680.796877631508
 10
697.6966078419869
 20
1680.271019573205
 10
698.1798735425376
 20
1679.764208038253
 10
698.6828704174471
 20
1679.277329127434
 10
699.2048771795878
 20
1678.811248240772
 10
699.7451315823508
 20
1678.366807686105
 10
699.9866343175523
 20
1678.179678269236
  0
LWPOLYLINE
  5
1DF
330
16F
100
AcDbEntity
  8
P-SANR-FIXT
100
AcDbPolyline
 90
       11
 70
   128
 43
0.0
 10
692.9404113547548
 20
1692.655266574655
 10
692.953641436382
 20
1691.951411290412
 10
692.9933164552562
 20
1691.24857681792
 10
693.0593906998791
 20
1690.547783556427
 10
693.1517878728661
 20
1689.850051073062
 10
693.2704009237547
 20
1689.156397668863
 10
693.4150918152782
 20
1688.467839922908
 10
693.5856912236039
 20
1687.785392206625
 10
693.7819981733903
 20
1687.110066159827
 10
694.0037796090402
 20
1686.442870119437
 10
694.0114152318288
 20
1686.421324956513
  0
LWPOLYLINE
  5
1E0
330
16F
100
AcDbEntity
  8
P-SANR-FIXT
100
AcDbPolyline
 90
        5
 70
   128
 43
0.0
 10
707.5757487938026
 20
1711.762554942054
 10
705.7976256590737
 20
1710.853872596862
 10
704.1239883990373
 20
1709.90917702888
 10
702.5575914368816
 20
1708.937705518404
 10
701.350018378119
 20
1708.118253137027
  0
LINE
  5
1E1
330
16F
100
AcDbEntity
  8
P-SANR-FIXT
100
AcDbLine
 10
701.1000481656341
 20
1707.948624736983
 30
0.0
 11
699.9866343175515
 21
1707.130854880074
 31
0.0
  0
LINE
  5
1E2
330
16F
100
AcDbEntity
  8
P-SANR-FIXT
100
AcDbLine
 10
699.986634317552
 20
1678.179678269237
 30
0.0
 11
701.0552703487806
 21
1677.400924235847
 31
0.0
  0
LWPOLYLINE
  5
1E3
330
16F
100
AcDbEntity
  8
P-SANR-FIXT
100
AcDbPolyline
 90
        5
 70
   128
 43
0.0
 10
701.3545056404812
 20
1677.182860570076
 10
702.8317245105114
 20
1676.196282101161
 10
704.4175894825031
 20
1675.228952771164
 10
706.1102835538464
 20
1674.290061932811
 10
707.5757487938033
 20
1673.547978207257
  0
ELLIPSE
  5
1E4
330
16F
100
AcDbEntity
  8
P-SANR-FIXT
100
AcDbEllipse
 10
715.7630297198448
 20
1692.655266574655
 30
0.0
 11
0.0
 21
20.99999999999859
 31
0.0
210
0.0
220
0.0
230
1.0
 40
0.9396926207859056
 41
0.3364630152288008
 42
0.4278235980212849
  0
ELLIPSE
  5
1E5
330
16F
100
AcDbEntity
  8
P-SANR-FIXT
100
AcDbEllipse
 10
715.7630297198448
 20
1692.655266574655
 30
0.0
 11
0.0
 21
20.99999999999834
 31
0.0
210
0.0
220
0.0
230
1.0
 40
0.9396926207859188
 41
0.2917778709759957
 42
0.3246049266105353
  0
ELLIPSE
  5
1E6
330
16F
100
AcDbEntity
  8
P-SANR-FIXT
100
AcDbEllipse
 10
715.7630297198448
 20
1692.655266574655
 30
0.0
 11
0.0
 21
20.99999999999849
 31
0.0
210
0.0
220
0.0
230
1.0
 40
0.9396926207859136
 41
6.022915736669254
 42
6.546704398184021
  0
ELLIPSE
  5
1E7
330
16F
100
AcDbEntity
  8
P-SANR-FIXT
100
AcDbEllipse
 10
715.7630297198448
 20
1692.655266574655
 30
0.0
 11
0.0
 21
20.99999999999855
 31
0.0
210
0.0
220
0.0
230
1.0
 40
0.9396926207859074
 41
5.969026041820612
 42
5.975069820504754
  0
ELLIPSE
  5
1E8
330
16F
100
AcDbEntity
  8
P-SANR-FIXT
100
AcDbEllipse
 10
715.7630297198448
 20
1692.655266574655
 30
0.0
 11
0.0
 21
20.99999999999853
 31
0.0
210
0.0
220
0.0
230
1.0
 40
0.9396926207859076
 41
5.890486225480862
 42
5.949600968510609
  0
ELLIPSE
  5
1E9
330
16F
100
AcDbEntity
  8
P-SANR-FIXT
100
AcDbEllipse
 10
715.7630297198448
 20
1692.655266574655
 30
0.0
 11
0.0
 21
20.99999999999862
 31
0.0
210
0.0
220
0.0
230
1.0
 40
0.939692620785904
 41
5.81194640914112
 42
5.876490573381932
  0
ELLIPSE
  5
1EA
330
16F
100
AcDbEntity
  8
P-SANR-FIXT
100
AcDbEllipse
 10
715.7630297198448
 20
1692.655266574655
 30
0.0
 11
0.0
 21
20.99999999999857
 31
0.0
210
0.0
220
0.0
230
1.0
 40
0.9396926207859111
 41
5.733406592801381
 42
5.803596204474284
  0
ELLIPSE
  5
1EB
330
16F
100
AcDbEntity
  8
P-SANR-FIXT
100
AcDbEllipse
 10
715.7630297198448
 20
1692.655266574655
 30
0.0
 11
0.0
 21
20.99999999999855
 31
0.0
210
0.0
220
0.0
230
1.0
 40
0.939692620785909
 41
5.658318413547808
 42
5.730933039402588
  0
ELLIPSE
  5
1EC
330
16F
100
AcDbEntity
  8
P-SANR-FIXT
100
AcDbEllipse
 10
715.7630297198448
 20
1692.655266574655
 30
0.0
 11
0.0
 21
20.99999999999853
 31
0.0
210
0.0
220
0.0
230
1.0
 40
0.9396926207859157
 41
5.585735060149461
 42
5.654866776461637
  0
ELLIPSE
  5
1ED
330
16F
100
AcDbEntity
  8
P-SANR-FIXT
100
AcDbEllipse
 10
715.7630297198448
 20
1692.655266574655
 30
0.0
 11
0.0
 21
20.99999999999867
 31
0.0
210
0.0
220
0.0
230
1.0
 40
0.939692620785906
 41
5.51351348734454
 42
5.583352180723812
  0
ELLIPSE
  5
1EE
330
16F
100
AcDbEntity
  8
P-SANR-FIXT
100
AcDbEllipse
 10
715.7630297198448
 20
1692.655266574655
 30
0.0
 11
0.0
 21
20.99999999999856
 31
0.0
210
0.0
220
0.0
230
1.0
 40
0.9396926207859126
 41
5.442990396459218
 42
5.497787143782151
  0
ELLIPSE
  5
1EF
330
16F
100
AcDbEntity
  8
P-SANR-FIXT
100
AcDbEllipse
 10
715.7630297198448
 20
1692.655266574655
 30
0.0
 11
0.0
 21
20.99999999999856
 31
0.0
210
0.0
220
0.0
230
0.9999999999999998
 40
0.9396926207859108
 41
5.37156869682792
 42
5.4192473274424
  0
ELLIPSE
  5
1F0
330
16F
100
AcDbEntity
  8
P-SANR-FIXT
100
AcDbEllipse
 10
715.7630297198448
 20
1692.655266574655
 30
0.0
 11
0.0
 21
20.99999999999856
 31
0.0
210
0.0
220
0.0
230
1.0
 40
0.9396926207859063
 41
5.300021733768059
 42
5.340707511102662
  0
ELLIPSE
  5
1F1
330
16F
100
AcDbEntity
  8
P-SANR-FIXT
100
AcDbEllipse
 10
715.7630297198448
 20
1692.655266574655
 30
0.0
 11
0.0
 21
20.99999999999847
 31
0.0
210
0.0
220
0.0
230
1.0
 40
0.9396926207859172
 41
5.155596842441396
 42
5.228111011702045
  0
ELLIPSE
  5
1F2
330
16F
100
AcDbEntity
  8
P-SANR-FIXT
100
AcDbEllipse
 10
715.7630297198448
 20
1692.655266574655
 30
0.0
 11
0.0
 21
20.99999999999845
 31
0.0
210
0.0
220
0.0
230
1.0
 40
0.9396926207859188
 41
5.082534422736352
 42
5.105088062083423
  0
ELLIPSE
  5
1F3
330
16F
100
AcDbEntity
  8
P-SANR-FIXT
100
AcDbEllipse
 10
715.7630297198448
 20
1692.655266574655
 30
0.0
 11
0.0
 21
20.99999999999838
 31
0.0
210
0.0
220
0.0
230
1.0
 40
0.9396926207859227
 41
4.948008429403924
 42
5.009144482585792
  0
ELLIPSE
  5
1F4
330
16F
100
AcDbEntity
  8
P-SANR-FIXT
100
AcDbEllipse
 10
715.7630297198448
 20
1692.655266574655
 30
0.0
 11
0.0
 21
20.99999999999833
 31
0.0
210
0.0
220
0.0
230
1.0
 40
0.9396926207859216
 41
4.86946861306419
 42
4.935432053395423
  0
ELLIPSE
  5
1F5
330
16F
100
AcDbEntity
  8
P-SANR-FIXT
100
AcDbEllipse
 10
715.7630297198448
 20
1692.655266574655
 30
0.0
 11
0.0
 21
20.99999999999861
 31
0.0
210
0.0
220
0.0
230
1.0
 40
0.9396926207859063
 41
4.790928796724438
 42
4.861400620341786
  0
ELLIPSE
  5
1F6
330
16F
100
AcDbEntity
  8
P-SANR-FIXT
100
AcDbEllipse
 10
715.7630297198448
 20
1692.655266574655
 30
0.0
 11
0.0
 21
20.99999999999865
 31
0.0
210
0.0
220
0.0
230
1.0
 40
0.939692620785909
 41
4.712388980384695
 42
4.787052476391339
  0
ELLIPSE
  5
1F7
330
16F
100
AcDbEntity
  8
P-SANR-FIXT
100
AcDbEllipse
 10
715.7630297198448
 20
1692.655266574655
 30
0.0
 11
0.0
 21
20.99999999999864
 31
0.0
210
0.0
220
0.0
230
1.0
 40
0.9396926207859001
 41
4.563657602667772
 42
4.712388980384695
  0
ELLIPSE
  5
1F8
330
16F
100
AcDbEntity
  8
P-SANR-FIXT
100
AcDbEllipse
 10
715.7630297198448
 20
1692.655266574655
 30
0.0
 11
0.0
 21
20.99999999999845
 31
0.0
210
0.0
220
0.0
230
0.9999999999999998
 40
0.9396926207859072
 41
4.489694549658306
 42
4.555309347705214
  0
ELLIPSE
  5
1F9
330
16F
100
AcDbEntity
  8
P-SANR-FIXT
100
AcDbEllipse
 10
715.7630297198448
 20
1692.655266574655
 30
0.0
 11
0.0
 21
20.99999999999833
 31
0.0
210
0.0
220
0.0
230
1.0
 40
0.9396926207859182
 41
4.41600322579476
 42
4.476769531365457
  0
ELLIPSE
  5
1FA
330
16F
100
AcDbEntity
  8
P-SANR-FIXT
100
AcDbEllipse
 10
715.7630297198448
 20
1692.655266574655
 30
0.0
 11
0.0
 21
20.99999999999838
 31
0.0
210
0.0
220
0.0
230
1.0
 40
0.9396926207859129
 41
4.342587296331496
 42
4.398229715025728
  0
ELLIPSE
  5
1FB
330
16F
100
AcDbEntity
  8
P-SANR-FIXT
100
AcDbEllipse
 10
715.7630297198448
 20
1692.655266574655
 30
0.0
 11
0.0
 21
20.99999999999825
 31
0.0
210
0.0
220
0.0
230
1.0
 40
0.9396926207859184
 41
4.196766903058569
 42
4.269451736678661
  0
ELLIPSE
  5
1FC
330
16F
100
AcDbEntity
  8
P-SANR-FIXT
100
AcDbEllipse
 10
715.7630297198448
 20
1692.655266574655
 30
0.0
 11
0.0
 21
20.99999999999857
 31
0.0
210
0.0
220
0.0
230
1.0
 40
0.9396926207859076
 41
4.084070449666743
 42
4.124576565710253
  0
ELLIPSE
  5
1FD
330
16F
100
AcDbEntity
  8
P-SANR-FIXT
100
AcDbEllipse
 10
715.7630297198448
 20
1692.655266574655
 30
0.0
 11
0.0
 21
20.99999999999866
 31
0.0
210
0.0
220
0.0
230
1.0
 40
0.9396926207859007
 41
4.00553063332701
 42
4.052699000396977
  0
ELLIPSE
  5
1FE
330
16F
100
AcDbEntity
  8
P-SANR-FIXT
100
AcDbEllipse
 10
715.7630297198448
 20
1692.655266574655
 30
0.0
 11
0.0
 21
20.99999999999862
 31
0.0
210
0.0
220
0.0
230
1.0
 40
0.9396926207859047
 41
3.926990816987258
 42
3.980954101502846
  0
ELLIPSE
  5
1FF
330
16F
100
AcDbEntity
  8
P-SANR-FIXT
100
AcDbEllipse
 10
715.7630297198448
 20
1692.655266574655
 30
0.0
 11
0.0
 21
20.99999999999864
 31
0.0
210
0.0
220
0.0
230
1.0
 40
0.9396926207858978
 41
3.84142578004558
 42
3.910223149481157
  0
ELLIPSE
  5
200
330
16F
100
AcDbEntity
  8
P-SANR-FIXT
100
AcDbEllipse
 10
715.7630297198448
 20
1692.655266574655
 30
0.0
 11
0.0
 21
20.99999999999864
 31
0.0
210
0.0
220
0.0
230
1.0
 40
0.9396926207859001
 41
3.769911184307773
 42
3.837897260844174
  0
ELLIPSE
  5
201
330
16F
100
AcDbEntity
  8
P-SANR-FIXT
100
AcDbEllipse
 10
715.7630297198448
 20
1692.655266574655
 30
0.0
 11
0.0
 21
20.99999999999869
 31
0.0
210
0.0
220
0.0
230
0.9999999999999998
 40
0.9396926207858944
 41
3.692746025872734
 42
3.765328223406657
  0
ELLIPSE
  5
202
330
16F
100
AcDbEntity
  8
P-SANR-FIXT
100
AcDbEllipse
 10
715.7630297198448
 20
1692.655266574655
 30
0.0
 11
0.0
 21
20.99999999999852
 31
0.0
210
0.0
220
0.0
230
1.0
 40
0.939692620785904
 41
3.620252362983641
 42
3.691371367968023
  0
ELLIPSE
  5
203
330
16F
100
AcDbEntity
  8
P-SANR-FIXT
100
AcDbEllipse
 10
715.7630297198448
 20
1692.655266574655
 30
0.0
 11
0.0
 21
20.99999999999842
 31
0.0
210
0.0
220
0.0
230
1.0
 40
0.9396926207859074
 41
3.547597638304019
 42
3.612831551628278
  0
ELLIPSE
  5
204
330
16F
100
AcDbEntity
  8
P-SANR-FIXT
100
AcDbEllipse
 10
715.7630297198448
 20
1692.655266574655
 30
0.0
 11
0.0
 21
20.99999999999823
 31
0.0
210
0.0
220
0.0
230
1.0
 40
0.9396926207859179
 41
3.449708140264616
 42
3.455751918948785
  0
ELLIPSE
  5
205
330
16F
100
AcDbEntity
  8
P-SANR-FIXT
100
AcDbEllipse
 10
715.7630297198448
 20
1692.655266574655
 30
0.0
 11
0.0
 21
20.99999999999832
 31
0.0
210
0.0
220
0.0
230
1.0
 40
0.939692620785914
 41
2.87807356258637
 42
3.401862224100168
  0
ELLIPSE
  5
206
330
16F
100
AcDbEntity
  8
P-SANR-FIXT
100
AcDbEllipse
 10
715.7630297198448
 20
1692.655266574655
 30
0.0
 11
0.0
 21
20.99999999999856
 31
0.0
210
0.0
220
0.0
230
1.0
 40
0.939692620785898
 41
2.816758458365389
 42
2.850039545380796
  0
ELLIPSE
  5
207
330
16F
100
AcDbEntity
  8
P-SANR-FIXT
100
AcDbEllipse
 10
715.7630297198448
 20
1692.655266574655
 30
0.0
 11
0.0
 21
20.99999999999825
 31
0.0
210
0.0
220
0.0
230
1.0
 40
0.9396926207859165
 41
2.736155182588581
 42
2.804726745590937
  0
ELLIPSE
  5
208
330
16F
100
AcDbEntity
  8
P-SANR-FIXT
100
AcDbEllipse
 10
715.7630297198448
 20
1692.655266574655
 30
0.0
 11
0.0
 21
20.99999999999836
 31
0.0
210
0.0
220
0.0
230
0.9999999999999998
 40
0.9396926207859065
 41
2.71376905556852
 42
2.731945365120574
  0
SPLINE
  5
209
330
16F
100
AcDbEntity
  8
P-SANR-FIXT
100
AcDbSpline
210
0.0
220
0.0
230
1.0
 70
     8
 71
     3
 72
    23
 73
    19
 74
     0
 42
0.000000001
 43
0.0000000001
 40
-1.0
 40
-1.0
 40
-1.0
 40
-1.0
 40
-0.9166666666666666
 40
-0.875
 40
-0.8333333333333332
 40
-0.75
 40
-0.7083333333333333
 40
-0.6666666666666666
 40
-0.5833333333333333
 40
-0.5
 40
-0.4166666666666666
 40
-0.3333333333333333
 40
-0.2916666666666666
 40
-0.25
 40
-0.1666666666666666
 40
-0.125
 40
-0.0833333333333333
 40
0.0
 40
0.0
 40
0.0
 40
0.0
 10
725.4254222050835
 20
1698.733103326956
 30
0.0
 10
725.2797393572952
 20
1698.781762658328
 30
0.0
 10
725.0515498682404
 20
1698.870871092821
 30
0.0
 10
724.7308865259235
 20
1699.028400718512
 30
0.0
 10
724.4041127092371
 20
1699.211492214623
 30
0.0
 10
724.05341052214
 20
1699.451302104284
 30
0.0
 10
723.7093375890856
 20
1699.738986205665
 30
0.0
 10
723.3890711488708
 20
1700.041839517801
 30
0.0
 10
723.0170061356679
 20
1700.473496143505
 30
0.0
 10
722.6499693832201
 20
1701.04582048455
 30
0.0
 10
722.3739485102472
 20
1701.659029303969
 30
0.0
 10
722.2321160402247
 20
1702.178681466969
 30
0.0
 10
722.1776052914133
 20
1702.569375650779
 30
0.0
 10
722.155037815038
 20
1702.960411867157
 30
0.0
 10
722.1841661427737
 20
1703.314701084179
 30
0.0
 10
722.2546196100684
 20
1703.602698524767
 30
0.0
 10
722.3486640033862
 20
1703.860101318064
 30
0.0
 10
722.4428927076048
 20
1704.014039736527
 30
0.0
 10
722.5140249369103
 20
1704.099419798906
 30
0.0
  0
SPLINE
  5
20A
330
16F
100
AcDbEntity
  8
P-SANR-FIXT
100
AcDbSpline
210
0.0
220
0.0
230
1.0
 70
     8
 71
     3
 72
    23
 73
    19
 74
     0
 42
0.000000001
 43
0.0000000001
 40
-1.0
 40
-1.0
 40
-1.0
 40
-1.0
 40
-0.9166666666666666
 40
-0.875
 40
-0.8333333333333332
 40
-0.75
 40
-0.7083333333333333
 40
-0.6666666666666666
 40
-0.5833333333333333
 40
-0.5
 40
-0.4166666666666666
 40
-0.3333333333333333
 40
-0.2916666666666666
 40
-0.25
 40
-0.1666666666666666
 40
-0.125
 40
-0.0833333333333333
 40
0.0
 40
0.0
 40
0.0
 40
0.0
 10
712.6217660236256
 20
1710.177256551206
 30
0.0
 10
712.470726583941
 20
1710.138470543424
 30
0.0
 10
712.230755519575
 20
1710.071078026009
 30
0.0
 10
711.8800929467115
 20
1709.968843281161
 30
0.0
 10
711.5117529192018
 20
1709.862367039263
 30
0.0
 10
711.0935340051061
 20
1709.747004653962
 30
0.0
 10
710.6491680933689
 20
1709.644181570831
 30
0.0
 10
710.2116035970551
 20
1709.557533205184
 30
0.0
 10
709.6491190361959
 20
1709.476859788244
 30
0.0
 10
708.9899184060369
 20
1709.443054819533
 30
0.0
 10
708.363047538506
 20
1709.476536208133
 30
0.0
 10
707.8945899861188
 20
1709.558922653469
 30
0.0
 10
707.5806847270956
 20
1709.646347017101
 30
0.0
 10
707.289837650032
 20
1709.749806435516
 30
0.0
 10
707.0640744843208
 20
1709.865335760538
 30
0.0
 10
706.9206738312047
 20
1709.971516366863
 30
0.0
 10
706.8199958060297
 20
1710.073027876756
 30
0.0
 10
706.7947063145953
 20
1710.139386588142
 30
0.0
 10
706.7989714872795
 20
1710.177256551206
 30
0.0
  0
SPLINE
  5
20B
330
16F
100
AcDbEntity
  8
P-SANR-FIXT
100
AcDbSpline
210
0.0
220
0.0
230
1.0
 70
     8
 71
     3
 72
    23
 73
    19
 74
     0
 42
0.000000001
 43
0.0000000001
 40
-0.9602621185890473
 40
-0.9602621185890473
 40
-0.9602621185890473
 40
-0.9602621185890473
 40
-0.9166666666666666
 40
-0.875
 40
-0.8333333333333332
 40
-0.75
 40
-0.7083333333333333
 40
-0.6666666666666666
 40
-0.5833333333333333
 40
-0.5
 40
-0.4166666666666666
 40
-0.3333333333333333
 40
-0.2916666666666666
 40
-0.25
 40
-0.1666666666666666
 40
-0.125
 40
-0.0833333333333333
 40
-0.0767434351830335
 40
-0.0767434351830335
 40
-0.0767434351830335
 40
-0.0767434351830335
 10
696.7907864541993
 20
1703.962787176065
 30
0.0
 10
696.749096682628
 20
1703.908597255146
 30
0.0
 10
696.6688745581479
 20
1703.793538593308
 30
0.0
 10
696.5513893668259
 20
1703.595709137395
 30
0.0
 10
696.39791578681
 20
1703.306141398813
 30
0.0
 10
696.2349768884165
 20
1702.950969127349
 30
0.0
 10
696.0582583161292
 20
1702.560461934665
 30
0.0
 10
695.8790204046882
 20
1702.170960289959
 30
0.0
 10
695.6382586826397
 20
1701.658629993885
 30
0.0
 10
695.3262443470394
 20
1701.05250173307
 30
0.0
 10
694.9957233608776
 20
1700.472770410603
 30
0.0
 10
694.7198176235835
 20
1700.035516790985
 30
0.0
 10
694.5229776020883
 20
1699.732222300927
 30
0.0
 10
694.3321739038966
 20
1699.44474595349
 30
0.0
 10
694.1723239028873
 20
1699.205370137895
 30
0.0
 10
694.0721627976055
 20
1699.024992662092
 30
0.0
 10
694.0289461409683
 20
1698.937739491806
 30
0.0
 10
694.0187684323052
 20
1698.899931629121
 30
0.0
 10
694.0175812219321
 20
1698.894909172565
 30
0.0
  0
SPLINE
  5
20C
330
16F
100
AcDbEntity
  8
P-SANR-FIXT
100
AcDbSpline
210
0.0
220
0.0
230
1.0
 70
     8
 71
     3
 72
    23
 73
    19
 74
     0
 42
0.000000001
 43
0.0000000001
 40
-0.9240652237341537
 40
-0.9240652237341537
 40
-0.9240652237341537
 40
-0.9240652237341537
 40
-0.9166666666666666
 40
-0.875
 40
-0.8333333333333332
 40
-0.75
 40
-0.7083333333333333
 40
-0.6666666666666666
 40
-0.5833333333333333
 40
-0.5
 40
-0.4166666666666666
 40
-0.3333333333333333
 40
-0.2916666666666666
 40
-0.25
 40
-0.1666666666666666
 40
-0.125
 40
-0.0833333333333333
 40
-0.0401715833272326
 40
-0.0401715833272326
 40
-0.0401715833272326
 40
-0.0401715833272326
 10
694.0168922765592
 20
1686.416009531317
 30
0.0
 10
694.0190414332185
 20
1686.409791450161
 30
0.0
 10
694.0342131195092
 20
1686.367890195193
 30
0.0
 10
694.073479365885
 20
1686.282132430871
 30
0.0
 10
694.1764384458711
 20
1686.099040934317
 30
0.0
 10
694.3362962799049
 20
1685.859231047324
 30
0.0
 10
694.5275180497492
 20
1685.571546939717
 30
0.0
 10
694.7239046821334
 20
1685.268693652779
 30
0.0
 10
694.9952860908727
 20
1684.837036834006
 30
0.0
 10
695.3226188468257
 20
1684.264713292072
 30
0.0
 10
695.6393091662708
 20
1683.651501507895
 30
0.0
 10
695.8825447947658
 20
1683.131858561497
 30
0.0
 10
696.0622369758409
 20
1682.741145583541
 30
0.0
 10
696.2394612365002
 20
1682.350185892944
 30
0.0
 10
696.4022248460037
 20
1681.995427449566
 30
0.0
 10
696.554930048766
 20
1681.708526549087
 30
0.0
 10
696.6705324116553
 20
1681.509796461409
 30
0.0
 10
696.7510028879847
 20
1681.40547078596
 30
0.0
 10
696.7920941148523
 20
1681.354192140232
 30
0.0
  0
SPLINE
  5
20D
330
16F
100
AcDbEntity
  8
P-SANR-FIXT
100
AcDbSpline
210
0.0
220
0.0
230
1.0
 70
     8
 71
     3
 72
    23
 73
    19
 74
     0
 42
0.000000001
 43
0.0000000001
 40
-1.0
 40
-1.0
 40
-1.0
 40
-1.0
 40
-0.9166666666666666
 40
-0.875
 40
-0.8333333333333332
 40
-0.75
 40
-0.7083333333333333
 40
-0.6666666666666666
 40
-0.5833333333333333
 40
-0.5
 40
-0.4166666666666666
 40
-0.3333333333333333
 40
-0.2916666666666666
 40
-0.25
 40
-0.1666666666666666
 40
-0.125
 40
-0.0833333333333333
 40
0.0
 40
0.0
 40
0.0
 40
0.0
 10
706.7989714872801
 20
1675.133276598104
 30
0.0
 10
706.7956142679904
 20
1675.172062605887
 30
0.0
 10
706.822145002517
 20
1675.239455123301
 30
0.0
 10
706.9242729450851
 20
1675.34168986815
 30
0.0
 10
707.0687982359673
 20
1675.448166110047
 30
0.0
 10
707.2961727965581
 20
1675.563528495348
 30
0.0
 10
707.5876875461164
 20
1675.666351578479
 30
0.0
 10
707.901372230426
 20
1675.752999944126
 30
0.0
 10
708.3631732188003
 20
1675.833673361066
 30
0.0
 10
708.9826697201076
 20
1675.867478329777
 30
0.0
 10
709.650210525163
 20
1675.833996941177
 30
0.0
 10
710.2200697094799
 20
1675.751610495841
 30
0.0
 10
710.659159513635
 20
1675.664186132209
 30
0.0
 10
711.104650700043
 20
1675.560726713793
 30
0.0
 10
711.5223835207976
 20
1675.445197388772
 30
0.0
 10
711.8887612244002
 20
1675.339016782447
 30
0.0
 10
712.2365335476713
 20
1675.237505272554
 30
0.0
 10
712.4733065769942
 20
1675.171146561168
 30
0.0
 10
712.6217660236258
 20
1675.133276598104
 30
0.0
  0
SPLINE
  5
20E
330
16F
100
AcDbEntity
  8
P-SANR-FIXT
100
AcDbSpline
210
0.0
220
0.0
230
1.0
 70
     8
 71
     3
 72
    23
 73
    19
 74
     0
 42
0.000000001
 43
0.0000000001
 40
-1.0
 40
-1.0
 40
-1.0
 40
-1.0
 40
-0.9166666666666666
 40
-0.875
 40
-0.8333333333333332
 40
-0.75
 40
-0.7083333333333333
 40
-0.6666666666666666
 40
-0.5833333333333333
 40
-0.5
 40
-0.4166666666666666
 40
-0.3333333333333333
 40
-0.2916666666666666
 40
-0.25
 40
-0.1666666666666666
 40
-0.125
 40
-0.0833333333333333
 40
0.0
 40
0.0
 40
0.0
 40
0.0
 10
722.5140249369103
 20
1681.211113350405
 30
0.0
 10
722.4421831993193
 20
1681.298558689561
 30
0.0
 10
722.3472446097108
 20
1681.455059641467
 30
0.0
 10
722.2529765251098
 20
1681.714824012007
 30
0.0
 10
722.1826353676191
 20
1682.004391750014
 30
0.0
 10
722.1547299178654
 20
1682.359564024977
 30
0.0
 10
722.1785973154588
 20
1682.750071209489
 30
0.0
 10
722.2339554655559
 20
1683.139572887273
 30
0.0
 10
722.3740332269699
 20
1683.651902929916
 30
0.0
 10
722.6463450402552
 20
1684.258032239672
 30
0.0
 10
723.0175300035756
 20
1684.83775967049
 30
0.0
 10
723.3948559019051
 20
1685.275025388155
 30
0.0
 10
723.716842684683
 20
1685.578295208333
 30
0.0
 10
724.0624443400437
 20
1685.865872006295
 30
0.0
 10
724.4133206610122
 20
1686.104631898295
 30
0.0
 10
724.7386633066664
 20
1686.286448732559
 30
0.0
 10
725.0569328742072
 20
1686.442340015963
 30
0.0
 10
725.2821928388043
 20
1686.529919723039
 30
0.0
 10
725.4254222050833
 20
1686.577429822355
 30
0.0
  0
SPLINE
  5
20F
330
16F
100
AcDbEntity
  8
P-SANR-FIXT
100
AcDbSpline
210
0.0
220
0.0
230
1.0
 70
     8
 71
     3
 72
     9
 73
     5
 74
     0
 42
0.000000001
 43
0.0000000001
 40
-1.0
 40
-1.0
 40
-1.0
 40
-1.0
 40
-0.5
 40
0.0
 40
0.0
 40
0.0
 40
0.0
 10
706.7989714872795
 20
1710.177256551206
 30
0.0
 10
706.9537671232467
 20
1710.482367926938
 30
0.0
 10
707.5020517150107
 20
1711.199087686535
 30
0.0
 10
708.4571929463971
 20
1711.874401313589
 30
0.0
 10
709.0091530782226
 20
1712.164187144102
 30
0.0
  0
ELLIPSE
  5
210
330
16F
100
AcDbEntity
  8
P-SANR-FIXT
100
AcDbEllipse
 10
714.2068680655889
 20
1692.655266574655
 30
0.0
 11
0.0
 21
20.27789883964984
 31
0.0
210
0.0
220
0.0
230
1.0
 40
0.9396926207859088
 41
6.006909637137314
 42
6.55946097722188
  0
SPLINE
  5
211
330
16F
100
AcDbEntity
  8
P-SANR-FIXT
100
AcDbSpline
210
0.0
220
0.0
230
1.0
 70
     8
 71
     3
 72
     9
 73
     5
 74
     0
 42
0.000000001
 43
0.0000000001
 40
-1.0
 40
-1.0
 40
-1.0
 40
-1.0
 40
-0.5
 40
0.0
 40
0.0
 40
0.0
 40
0.0
 10
719.4045830529562
 20
1712.164187144103
 30
0.0
 10
718.430215179107
 20
1711.87440131359
 30
0.0
 10
716.3601953014395
 20
1711.199087686535
 30
0.0
 10
713.9383085887414
 20
1710.482367926938
 30
0.0
 10
712.6217660236256
 20
1710.177256551206
 30
0.0
  0
SPLINE
  5
212
330
16F
100
AcDbEntity
  8
P-SANR-FIXT
100
AcDbSpline
210
0.0
220
0.0
230
1.0
 70
     8
 71
     3
 72
     9
 73
     5
 74
     0
 42
0.000000001
 43
0.0000000001
 40
-1.0
 40
-1.0
 40
-1.0
 40
-1.0
 40
-0.5
 40
0.0
 40
0.0
 40
0.0
 40
0.0
 10
722.5140249369103
 20
1704.099419798906
 30
0.0
 10
723.2075562352886
 20
1704.78731136744
 30
0.0
 10
724.8075062358231
 20
1706.009031774618
 30
0.0
 10
726.5909357926602
 20
1706.860427447247
 30
0.0
 10
727.4843248969513
 20
1707.199966902901
 30
0.0
  0
ELLIPSE
  5
213
330
16F
100
AcDbEntity
  8
P-SANR-FIXT
100
AcDbEllipse
 10
714.2068680655889
 20
1692.655266574655
 30
0.0
 11
0.0
 21
20.27789883964974
 31
0.0
210
0.0
220
0.0
230
1.0
 40
0.9396926207859145
 41
4.959712085940718
 42
5.512263426025289
  0
SPLINE
  5
214
330
16F
100
AcDbEntity
  8
P-SANR-FIXT
100
AcDbSpline
210
0.0
220
0.0
230
1.0
 70
     8
 71
     3
 72
     9
 73
     5
 74
     0
 42
0.000000001
 43
0.0000000001
 40
-1.0
 40
-1.0
 40
-1.0
 40
-1.0
 40
-0.5
 40
0.0
 40
0.0
 40
0.0
 40
0.0
 10
732.6820398843184
 20
1697.619486815857
 30
0.0
 10
731.5774469090158
 20
1697.669240440999
 30
0.0
 10
729.2365780290376
 20
1697.845322486573
 30
0.0
 10
726.6998269680364
 20
1698.350323134154
 30
0.0
 10
725.4254222050835
 20
1698.733103326956
 30
0.0
  0
SPLINE
  5
215
330
16F
100
AcDbEntity
  8
P-SANR-FIXT
100
AcDbSpline
210
0.0
220
0.0
230
1.0
 70
     8
 71
     3
 72
     9
 73
     5
 74
     0
 42
0.000000001
 43
0.0000000001
 40
-1.0
 40
-1.0
 40
-1.0
 40
-1.0
 40
-0.5
 40
0.0
 40
0.0
 40
0.0
 40
0.0
 10
725.4254222050833
 20
1686.577429822355
 30
0.0
 10
726.6998269680363
 20
1686.960210015157
 30
0.0
 10
729.2365780290376
 20
1687.465210662738
 30
0.0
 10
731.5774469090155
 20
1687.641292708311
 30
0.0
 10
732.6820398843183
 20
1687.691046333453
 30
0.0
  0
ELLIPSE
  5
216
330
16F
100
AcDbEntity
  8
P-SANR-FIXT
100
AcDbEllipse
 10
714.2068680655889
 20
1692.655266574655
 30
0.0
 11
0.0
 21
20.27789883964961
 31
0.0
210
0.0
220
0.0
230
1.0
 40
0.9396926207859149
 41
3.912514534744108
 42
4.465065874828684
  0
SPLINE
  5
217
330
16F
100
AcDbEntity
  8
P-SANR-FIXT
100
AcDbSpline
210
0.0
220
0.0
230
1.0
 70
     8
 71
     3
 72
     9
 73
     5
 74
     0
 42
0.000000001
 43
0.0000000001
 40
-1.0
 40
-1.0
 40
-1.0
 40
-1.0
 40
-0.5
 40
0.0
 40
0.0
 40
0.0
 40
0.0
 10
727.4843248969515
 20
1678.110566246409
 30
0.0
 10
726.5909357926606
 20
1678.450105702064
 30
0.0
 10
724.8075062358233
 20
1679.301501374693
 30
0.0
 10
723.2075562352888
 20
1680.523221781871
 30
0.0
 10
722.5140249369103
 20
1681.211113350405
 30
0.0
  0
SPLINE
  5
218
330
16F
100
AcDbEntity
  8
P-SANR-FIXT
100
AcDbSpline
210
0.0
220
0.0
230
1.0
 70
     8
 71
     3
 72
     9
 73
     5
 74
     0
 42
0.000000001
 43
0.0000000001
 40
-1.0
 40
-1.0
 40
-1.0
 40
-1.0
 40
-0.5
 40
0.0
 40
0.0
 40
0.0
 40
0.0
 10
712.6217660236258
 20
1675.133276598104
 30
0.0
 10
713.9383085887416
 20
1674.828165222372
 30
0.0
 10
716.3601953014396
 20
1674.111445462775
 30
0.0
 10
718.4302151791071
 20
1673.436131835721
 30
0.0
 10
719.4045830529565
 20
1673.146346005208
 30
0.0
  0
ELLIPSE
  5
219
330
16F
100
AcDbEntity
  8
P-SANR-FIXT
100
AcDbEllipse
 10
714.2068680655889
 20
1692.655266574655
 30
0.0
 11
0.0
 21
20.27789883964962
 31
0.0
210
0.0
220
0.0
230
1.0
 40
0.9396926207859134
 41
2.865316983547528
 42
3.417868323632083
  0
SPLINE
  5
21A
330
16F
100
AcDbEntity
  8
P-SANR-FIXT
100
AcDbSpline
210
0.0
220
0.0
230
1.0
 70
     8
 71
     3
 72
     9
 73
     5
 74
     0
 42
0.000000001
 43
0.0000000001
 40
-1.0
 40
-1.0
 40
-1.0
 40
-1.0
 40
-0.5
 40
0.0
 40
0.0
 40
0.0
 40
0.0
 10
709.0091530782229
 20
1673.146346005208
 30
0.0
 10
708.4571929463974
 20
1673.436131835721
 30
0.0
 10
707.5020517150111
 20
1674.111445462775
 30
0.0
 10
706.953767123247
 20
1674.828165222372
 30
0.0
 10
706.7989714872801
 20
1675.133276598104
 30
0.0
  0
ELLIPSE
  5
21B
330
16F
100
AcDbEntity
  8
P-SANR-FIXT
100
AcDbEllipse
 10
714.2068680655893
 20
1716.454268778981
 30
0.0
 11
0.0
 21
6.999999999999943
 31
0.0
210
0.0
220
0.0
230
1.0
 40
0.9396926207859229
 41
2.230482378417297
 42
2.773781760393681
  0
ELLIPSE
  5
21C
330
16F
100
AcDbEntity
  8
P-SANR-FIXT
100
AcDbEllipse
 10
714.2068680655897
 20
1668.856264370329
 30
0.0
 11
0.0
 21
6.999999999999876
 31
0.0
210
0.0
220
0.0
230
1.0
 40
0.9396926207859225
 41
0.3678722705309017
 42
0.9111102751724928
  0
ELLIPSE
  5
21D
330
16F
100
AcDbEntity
  8
P-SANR-FIXT
100
AcDbEllipse
 10
733.5744408778979
 20
1704.554767676818
 30
0.0
 11
0.0
 21
7.000000000000045
 31
0.0
210
0.0
220
0.0
230
1.0
 40
0.9396926207858804
 41
1.183284827220664
 42
3.005505377565789
  0
ELLIPSE
  5
21E
330
16F
100
AcDbEntity
  8
P-SANR-FIXT
100
AcDbEllipse
 10
733.5744408778983
 20
1680.755765472493
 30
0.0
 11
0.0
 21
6.999999999999775
 31
0.0
210
0.0
220
0.0
230
1.0
 40
0.9396926207859472
 41
0.1360872760240639
 42
1.958307826369173
  0
LINE
  5
21F
330
16F
100
AcDbEntity
  8
P-SANR-FIXT
100
AcDbLine
 10
736.9767109519536
 20
1722.655266574656
 30
0.0
 11
729.6148455245255
 21
1722.655266574656
 31
0.0
  0
LINE
  5
220
330
16F
100
AcDbEntity
  8
P-SANR-FIXT
100
AcDbLine
 10
729.6148455245258
 20
1662.655266574655
 30
0.0
 11
736.9767109519539
 21
1662.655266574655
 31
0.0
  0
ELLIPSE
  5
221
330
16F
100
AcDbEntity
  8
P-SANR-FIXT
100
AcDbEllipse
 10
729.6148455245242
 20
1692.655266574655
 30
0.0
 11
0.0
 21
30.00000000000018
 31
0.0
210
0.0
220
0.0
230
0.9999999999999998
 40
0.9396926207859152
 41
4.712388980384685
 42
7.15362412315827
  0
ELLIPSE
  5
222
330
16F
100
AcDbEntity
  8
P-SANR-FIXT
100
AcDbEllipse
 10
729.6148455245242
 20
1692.655266574655
 30
0.0
 11
0.0
 21
30.00000000000068
 31
0.0
210
0.0
220
0.0
230
1.0
 40
0.939692620785901
 41
2.271289300059906
 42
4.712388980384685
  0
ELLIPSE
  5
223
330
16F
100
AcDbEntity
  8
P-SANR-FIXT
100
AcDbEllipse
 10
736.9767109519523
 20
1692.655266574655
 30
0.0
 11
0.0
 21
30.00000000000038
 31
0.0
210
0.0
220
0.0
230
1.0
 40
0.9396926207859129
 41
5.052473223901919
 42
6.283185307179588
  0
ELLIPSE
  5
224
330
16F
100
AcDbEntity
  8
P-SANR-FIXT
100
AcDbEllipse
 10
736.9767109519523
 20
1692.655266574655
 30
0.0
 11
0.0000000000008545
 21
30.00000000000068
 31
0.0
210
0.0
220
0.0
230
1.0
 40
0.939692620785901
 41
3.141592653589821
 42
4.112682323791552
  0
ELLIPSE
  5
225
330
16F
100
AcDbEntity
  8
P-SANR-FIXT
100
AcDbEllipse
 10
729.6148455245242
 20
1692.655266574655
 30
0.0
 11
0.0
 21
26.50000000000046
 31
0.0
210
0.0
220
0.0
230
1.0
 40
0.9396926207859101
 41
4.712388980384685
 42
4.79092879672442
  0
ELLIPSE
  5
226
330
16F
100
AcDbEntity
  8
P-SANR-FIXT
100
AcDbEllipse
 10
729.6148455245242
 20
1692.655266574655
 30
0.0
 11
0.0
 21
26.50000000000052
 31
0.0
210
0.0
220
0.0
230
1.0
 40
0.939692620785909
 41
4.799675138058507
 42
4.878211383628979
  0
ELLIPSE
  5
227
330
16F
100
AcDbEntity
  8
P-SANR-FIXT
100
AcDbEllipse
 10
729.6148455245242
 20
1692.655266574655
 30
0.0
 11
0.0
 21
26.5000000000003
 31
0.0
210
0.0
220
0.0
230
1.0
 40
0.9396926207859152
 41
4.886997326391979
 42
4.948008429403911
  0
ELLIPSE
  5
228
330
16F
100
AcDbEntity
  8
P-SANR-FIXT
100
AcDbEllipse
 10
729.6148455245242
 20
1692.655266574655
 30
0.0
 11
0.0
 21
26.50000000000033
 31
0.0
210
0.0
220
0.0
230
0.9999999999999998
 40
0.9396926207859134
 41
4.97433807285072
 42
5.026548245743664
  0
ELLIPSE
  5
229
330
16F
100
AcDbEntity
  8
P-SANR-FIXT
100
AcDbEllipse
 10
729.6148455245242
 20
1692.655266574655
 30
0.0
 11
0.0
 21
26.50000000000027
 31
0.0
210
0.0
220
0.0
230
1.0
 40
0.9396926207859166
 41
5.06167963252019
 42
5.149003217655949
  0
ELLIPSE
  5
22A
330
16F
100
AcDbEntity
  8
P-SANR-FIXT
100
AcDbEllipse
 10
729.6148455245242
 20
1692.655266574655
 30
0.0
 11
0.0
 21
26.50000000000034
 31
0.0
210
0.0
220
0.0
230
1.0
 40
0.9396926207859092
 41
5.16434946480339
 42
5.236288051670838
  0
ELLIPSE
  5
22B
330
16F
100
AcDbEntity
  8
P-SANR-FIXT
100
AcDbEllipse
 10
729.6148455245242
 20
1692.655266574655
 30
0.0
 11
0.0
 21
26.50000000000019
 31
0.0
210
0.0
220
0.0
230
1.0
 40
0.9396926207859126
 41
5.262167694762901
 42
5.323510104575645
  0
ELLIPSE
  5
22C
330
16F
100
AcDbEntity
  8
P-SANR-FIXT
100
AcDbEllipse
 10
729.6148455245242
 20
1692.655266574655
 30
0.0
 11
0.0
 21
26.50000000000001
 31
0.0
210
0.0
220
0.0
230
1.0
 40
0.9396926207859246
 41
5.340707511102649
 42
5.410640281128661
  0
ELLIPSE
  5
22D
330
16F
100
AcDbEntity
  8
P-SANR-FIXT
100
AcDbEllipse
 10
729.6148455245242
 20
1692.655266574655
 30
0.0
 11
0.0
 21
26.50000000000029
 31
0.0
210
0.0
220
0.0
230
0.9999999999999998
 40
0.9396926207859131
 41
5.41332904839243
 42
5.811946409141115
  0
ELLIPSE
  5
22E
330
16F
100
AcDbEntity
  8
P-SANR-FIXT
100
AcDbEllipse
 10
729.6148455245242
 20
1692.655266574655
 30
0.0
 11
0.0
 21
26.50000000000021
 31
0.0
210
0.0
220
0.0
230
0.9999999999999998
 40
0.9396926207859142
 41
5.846571069908094
 42
6.02123621471334
  0
ELLIPSE
  5
22F
330
16F
100
AcDbEntity
  8
P-SANR-FIXT
100
AcDbEllipse
 10
729.6148455245242
 20
1692.655266574655
 30
0.0
 11
0.0
 21
26.50000000000039
 31
0.0
210
0.0
220
0.0
230
1.0
 40
0.9396926207859117
 41
6.047565858160344
 42
6.108576961172087
  0
ELLIPSE
  5
230
330
16F
100
AcDbEntity
  8
P-SANR-FIXT
100
AcDbEllipse
 10
729.6148455245242
 20
1692.655266574655
 30
0.0
 11
0.0
 21
26.50000000000012
 31
0.0
210
0.0
220
0.0
230
0.9999999999999998
 40
0.9396926207859177
 41
6.126105674500094
 42
6.204645490839833
  0
ELLIPSE
  5
231
330
16F
100
AcDbEntity
  8
P-SANR-FIXT
100
AcDbEllipse
 10
729.6148455245242
 20
1692.655266574655
 30
0.0
 11
0.0
 21
26.50000000000061
 31
0.0
210
0.0
220
0.0
230
1.0
 40
0.9396926207859026
 41
3.220132469929541
 42
3.29867228626928
  0
ELLIPSE
  5
232
330
16F
100
AcDbEntity
  8
P-SANR-FIXT
100
AcDbEllipse
 10
729.6148455245242
 20
1692.655266574655
 30
0.0
 11
0.0
 21
26.50000000000054
 31
0.0
210
0.0
220
0.0
230
1.0
 40
0.9396926207859051
 41
3.316200999597286
 42
3.377212102609029
  0
ELLIPSE
  5
233
330
16F
100
AcDbEntity
  8
P-SANR-FIXT
100
AcDbEllipse
 10
729.6148455245242
 20
1692.655266574655
 30
0.0
 11
0.0
 21
26.50000000000047
 31
0.0
210
0.0
220
0.0
230
1.0
 40
0.9396926207859149
 41
3.403541746056025
 42
3.578206890861267
  0
ELLIPSE
  5
234
330
16F
100
AcDbEntity
  8
P-SANR-FIXT
100
AcDbEllipse
 10
729.6148455245242
 20
1692.655266574655
 30
0.0
 11
0.0
 21
26.50000000000041
 31
0.0
210
0.0
220
0.0
230
1.0
 40
0.9396926207859104
 41
3.612831551628263
 42
4.011448912376918
  0
ELLIPSE
  5
235
330
16F
100
AcDbEntity
  8
P-SANR-FIXT
100
AcDbEllipse
 10
729.6148455245242
 20
1692.655266574655
 30
0.0
 11
0.0
 21
26.50000000000058
 31
0.0
210
0.0
220
0.0
230
1.0
 40
0.9396926207859037
 41
4.014137679640706
 42
4.084070449666729
  0
ELLIPSE
  5
236
330
16F
100
AcDbEntity
  8
P-SANR-FIXT
100
AcDbEllipse
 10
729.6148455245242
 20
1692.655266574655
 30
0.0
 11
0.0
 21
26.5000000000003
 31
0.0
210
0.0
220
0.0
230
1.0
 40
0.9396926207859198
 41
4.101267856193708
 42
4.260428495965952
  0
ELLIPSE
  5
237
330
16F
100
AcDbEntity
  8
P-SANR-FIXT
100
AcDbEllipse
 10
729.6148455245242
 20
1692.655266574655
 30
0.0
 11
0.0
 21
26.50000000000035
 31
0.0
210
0.0
220
0.0
230
1.0
 40
0.9396926207859127
 41
4.275774743113396
 42
4.363098328249154
  0
ELLIPSE
  5
238
330
16F
100
AcDbEntity
  8
P-SANR-FIXT
100
AcDbEllipse
 10
729.6148455245242
 20
1692.655266574655
 30
0.0
 11
0.0
 21
26.50000000000043
 31
0.0
210
0.0
220
0.0
230
1.0
 40
0.9396926207859086
 41
4.398229715025697
 42
4.537780634377375
  0
ELLIPSE
  5
239
330
16F
100
AcDbEntity
  8
P-SANR-FIXT
100
AcDbEllipse
 10
729.6148455245242
 20
1692.655266574655
 30
0.0
 11
0.0
 21
26.50000000000012
 31
0.0
210
0.0
220
0.0
230
0.9999999999999998
 40
0.9396926207859177
 41
4.555309347705197
 42
4.625102822710827
  0
ELLIPSE
  5
23A
330
16F
100
AcDbEntity
  8
P-SANR-FIXT
100
AcDbEllipse
 10
729.6148455245242
 20
1692.655266574655
 30
0.0
 11
0.0
 21
26.50000000000039
 31
0.0
210
0.0
220
0.0
230
1.0
 40
0.9396926207859092
 41
4.63384916404494
 42
4.712388980384685
  0
LINE
  5
23B
330
16F
100
AcDbEntity
  8
P-SANR-FIXT
100
AcDbLine
 10
787.2065279052475
 20
1707.655266574599
 30
0.0
 11
777.2333773093374
 21
1707.655266574599
 31
0.0
  0
LINE
  5
23C
330
16F
100
AcDbEntity
  8
P-SANR-FIXT
100
AcDbLine
 10
789.6148455245281
 20
1704.455266574656
 30
0.0
 11
787.7672529801839
 21
1707.655390733145
 31
0.0
  0
LINE
  5
23D
330
16F
100
AcDbEntity
  8
P-SANR-FIXT
100
AcDbLine
 10
776.672652234401
 20
1707.655390733145
 30
0.0
 11
776.614845524528
 21
1707.555266574627
 31
0.0
  0
LINE
  5
23E
330
16F
100
AcDbEntity
  8
P-SANR-FIXT
100
AcDbLine
 10
776.6148455245266
 20
1702.664695478994
 30
0.0
 11
776.6148455245265
 21
1707.555266574626
 31
0.0
  0
LINE
  5
23F
330
16F
100
AcDbEntity
  8
P-SANR-FIXT
100
AcDbLine
 10
789.6148455245268
 20
1704.455266574655
 30
0.0
 11
789.6148455245269
 21
1702.671362853561
 31
0.0
  0
SPLINE
  5
240
330
16F
100
AcDbEntity
  8
P-SANR-FIXT
100
AcDbSpline
210
0.0
220
0.0
230
1.0
 70
    24
 71
     3
 72
     9
 73
     5
 74
     0
 42
0.000000001
 43
0.0000000001
 40
0.4959507217303018
 40
0.4959507217303018
 40
0.4959507217303018
 40
0.4959507217303018
 40
0.5
 40
1.0
 40
1.0
 40
1.0
 40
1.0
 10
776.6726522343995
 20
1707.655266574598
 30
0.0
 10
776.6726277154173
 20
1707.655266574598
 30
0.0
 10
776.6711016687342
 20
1707.655266574599
 30
0.0
 10
776.859536073691
 20
1707.655266574613
 30
0.0
 10
777.2333773093359
 20
1707.655266574598
 30
0.0
  0
SPLINE
  5
241
330
16F
100
AcDbEntity
  8
P-SANR-FIXT
100
AcDbSpline
210
0.0
220
0.0
230
1.0
 70
    24
 71
     3
 72
     9
 73
     5
 74
     0
 42
0.000000001
 43
0.0000000001
 40
0.0
 40
0.0
 40
0.0
 40
0.0
 40
0.5
 40
0.5040492782696989
 40
0.5040492782696989
 40
0.5040492782696989
 40
0.5040492782696989
 10
787.206527905246
 20
1707.655266574598
 30
0.0
 10
787.5803691408525
 20
1707.655266574598
 30
0.0
 10
787.768803545848
 20
1707.655266574598
 30
0.0
 10
787.7672774991647
 20
1707.655266574598
 30
0.0
 10
787.7672529801823
 20
1707.655266574598
 30
0.0
  0
SPLINE
  5
242
330
16F
100
AcDbEntity
  8
P-SANR-FIXT
100
AcDbSpline
210
0.0
220
0.0
230
1.0
 70
     8
 71
     3
 72
    10
 73
     6
 74
     0
 42
0.000000001
 43
0.0000000001
 40
0.0
 40
0.0
 40
0.0
 40
0.0
 40
0.4
 40
0.7
 40
1.0
 40
1.0
 40
1.0
 40
1.0
 10
777.2333773093359
 20
1707.655266574598
 30
0.0
 10
777.3850188451001
 20
1707.655266574598
 30
0.0
 10
777.5486161810367
 20
1707.374532505733
 30
0.0
 10
777.5083140758429
 20
1706.302889828262
 30
0.0
 10
777.3469393210144
 20
1705.397321246866
 30
0.0
 10
777.2333773093418
 20
1704.905266574598
 30
0.0
  0
SPLINE
  5
243
330
16F
100
AcDbEntity
  8
P-SANR-FIXT
100
AcDbSpline
210
0.0
220
0.0
230
1.0
 70
     8
 71
     3
 72
    10
 73
     6
 74
     0
 42
0.000000001
 43
0.0000000001
 40
0.0
 40
0.0
 40
0.0
 40
0.0
 40
0.4
 40
0.7
 40
1.0
 40
1.0
 40
1.0
 40
1.0
 10
787.2065279052401
 20
1704.905266574598
 30
0.0
 10
787.0551118896766
 20
1705.561339470955
 30
0.0
 10
786.8913837536308
 20
1706.587035660533
 30
0.0
 10
786.9314086843839
 20
1707.476969456469
 30
0.0
 10
787.0927967534229
 20
1707.655266574598
 30
0.0
 10
787.206527905246
 20
1707.655266574598
 30
0.0
  0
SPLINE
  5
244
330
16F
100
AcDbEntity
  8
P-SANR-FIXT
100
AcDbSpline
210
0.0
220
0.0
230
1.0
 70
     8
 71
     3
 72
     8
 73
     4
 74
     0
 42
0.000000001
 43
0.0000000001
 40
0.0
 40
0.0
 40
0.0
 40
0.0
 40
0.2272760860371457
 40
0.2272760860371457
 40
0.2272760860371457
 40
0.2272760860371457
 10
777.2333773093418
 20
1704.905266574598
 30
0.0
 10
777.0634469636877
 20
1704.174382485373
 30
0.0
 10
776.9321377218934
 20
1703.446038543559
 30
0.0
 10
776.8394495839585
 20
1702.720234749158
 30
0.0
  0
SPLINE
  5
245
330
16F
100
AcDbEntity
  8
P-SANR-FIXT
100
AcDbSpline
210
0.0
220
0.0
230
1.0
 70
     8
 71
     3
 72
     8
 73
     4
 74
     0
 42
0.000000001
 43
0.0000000001
 40
0.7727239139628452
 40
0.7727239139628452
 40
0.7727239139628452
 40
0.7727239139628452
 40
1.0
 40
1.0
 40
1.0
 40
1.0
 10
787.6004556306237
 20
1702.720234749158
 30
0.0
 10
787.5077674926887
 20
1703.446038543559
 30
0.0
 10
787.3764582508941
 20
1704.174382485373
 30
0.0
 10
787.2065279052401
 20
1704.905266574598
 30
0.0
  0
LINE
  5
246
330
16F
100
AcDbEntity
  8
P-SANR-FIXT
100
AcDbLine
 10
698.0231631438767
 20
1677.655266574594
 30
0.0
 11
700.7173208095277
 21
1677.655266574594
 31
0.0
  0
LINE
  5
247
330
16F
100
AcDbEntity
  8
P-SANR-FIXT
100
AcDbLine
 10
700.7453548557214
 20
1707.655266574598
 30
0.0
 11
698.0231631438124
 21
1707.655266574598
 31
0.0
  0
LINE
  5
248
330
16F
100
AcDbEntity
  8
P-SANR-FIXT
100
AcDbLine
 10
697.4624380688761
 20
1707.655390733145
 30
0.0
 11
695.6148455245315
 21
1704.455266574655
 31
0.0
  0
LINE
  5
249
330
16F
100
AcDbEntity
  8
P-SANR-FIXT
100
AcDbLine
 10
695.614845524532
 20
1680.855266574655
 30
0.0
 11
697.4624380689446
 21
1677.655142416047
 31
0.0
  0
LINE
  5
24A
330
16F
100
AcDbEntity
  8
P-SANR-FIXT
100
AcDbLine
 10
695.6148455245305
 20
1701.675927792259
 30
0.0
 11
695.6148455245304
 21
1704.455266574655
 31
0.0
  0
LINE
  5
24B
330
16F
100
AcDbEntity
  8
P-SANR-FIXT
100
AcDbLine
 10
695.6148455245307
 20
1680.855266574655
 30
0.0
 11
695.6148455245305
 21
1683.633717254273
 31
0.0
  0
SPLINE
  5
24C
330
16F
100
AcDbEntity
  8
P-SANR-FIXT
100
AcDbSpline
210
0.0
220
0.0
230
1.0
 70
     8
 71
     3
 72
    10
 73
     6
 74
     0
 42
0.000000001
 43
0.0000000001
 40
0.1246044185568267
 40
0.1246044185568267
 40
0.1246044185568267
 40
0.1246044185568267
 40
0.4
 40
0.7
 40
1.0
 40
1.0
 40
1.0
 40
1.0
 10
698.1478113231977
 20
1679.813549639345
 30
0.0
 10
698.2269696952003
 20
1679.395651053737
 30
0.0
 10
698.3333801951872
 20
1678.611913009507
 30
0.0
 10
698.2980999103773
 20
1677.832952444692
 30
0.0
 10
698.1367251555484
 20
1677.655266574594
 30
0.0
 10
698.0231631438755
 20
1677.655266574594
 30
0.0
  0
SPLINE
  5
24D
330
16F
100
AcDbEntity
  8
P-SANR-FIXT
100
AcDbSpline
210
0.0
220
0.0
230
1.0
 70
    24
 71
     3
 72
     8
 73
     4
 74
     0
 42
0.000000001
 43
0.0000000001
 40
0.0
 40
0.0
 40
0.0
 40
0.0
 40
0.5
 40
0.5
 40
0.5
 40
0.5
 10
698.0231631438755
 20
1677.655266574594
 30
0.0
 10
697.6493219082717
 20
1677.655266574594
 30
0.0
 10
697.4624012904699
 20
1677.655266574594
 30
0.0
 10
697.4624012904699
 20
1677.655266574594
 30
0.0
  0
SPLINE
  5
24E
330
16F
100
AcDbEntity
  8
P-SANR-FIXT
100
AcDbSpline
210
0.0
220
0.0
230
1.0
 70
    24
 71
     3
 72
     9
 73
     5
 74
     0
 42
0.000000001
 43
0.0000000001
 40
0.4959507217303048
 40
0.4959507217303048
 40
0.4959507217303048
 40
0.4959507217303048
 40
0.5
 40
1.0
 40
1.0
 40
1.0
 40
1.0
 10
697.4624380688748
 20
1707.655266574598
 30
0.0
 10
697.4624135498924
 20
1707.655266574598
 30
0.0
 10
697.4608875032106
 20
1707.655266574598
 30
0.0
 10
697.6493219081677
 20
1707.655266574598
 30
0.0
 10
698.023163143811
 20
1707.655266574598
 30
0.0
  0
SPLINE
  5
24F
330
16F
100
AcDbEntity
  8
P-SANR-FIXT
100
AcDbSpline
210
0.0
220
0.0
230
1.0
 70
     8
 71
     3
 72
    10
 73
     6
 74
     0
 42
0.000000001
 43
0.0000000001
 40
0.0
 40
0.0
 40
0.0
 40
0.0
 40
0.4
 40
0.7
 40
0.8752368734370548
 40
0.8752368734370548
 40
0.8752368734370548
 40
0.8752368734370548
 10
698.023163143811
 20
1707.655266574598
 30
0.0
 10
698.1748046795752
 20
1707.655266574598
 30
0.0
 10
698.3384020155121
 20
1707.374532505733
 30
0.0
 10
698.3031281269692
 20
1706.436591319262
 30
0.0
 10
698.1979051863801
 20
1705.762572794242
 30
0.0
 10
698.1476868801015
 20
1705.496896374577
 30
0.0
  0
LINE
  5
250
330
16F
100
AcDbEntity
  8
P-SANR-FIXT
100
AcDbLine
 10
811.3148455245481
 20
1703.305266574657
 30
0.0
 11
789.6148455245282
 21
1703.305266574656
 31
0.0
  0
LINE
  5
251
330
16F
100
AcDbEntity
  8
P-SANR-FIXT
100
AcDbLine
 10
809.2240697940081
 20
1682.005266574655
 30
0.0
 11
811.3148455245482
 21
1682.005266574656
 31
0.0
  0
LINE
  5
252
330
16F
100
AcDbEntity
  8
P-SANR-FIXT
100
AcDbLine
 10
812.6148455245481
 20
1702.005266574656
 30
0.0
 11
811.3148455245481
 21
1703.305266574657
 31
0.0
  0
LINE
  5
253
330
16F
100
AcDbEntity
  8
P-SANR-FIXT
100
AcDbLine
 10
811.3148455245482
 20
1682.005266574656
 30
0.0
 11
812.6148455245481
 21
1683.305266574655
 31
0.0
  0
LINE
  5
254
330
16F
100
AcDbEntity
  8
P-SANR-FIXT
100
AcDbLine
 10
811.3148455245466
 20
1692.655266574656
 30
0.0
 11
811.3148455245466
 21
1703.305266574656
 31
0.0
  0
LINE
  5
255
330
16F
100
AcDbEntity
  8
P-SANR-FIXT
100
AcDbLine
 10
811.3148455245466
 20
1682.005266574655
 30
0.0
 11
811.3148455245466
 21
1692.655266574656
 31
0.0
  0
LINE
  5
256
330
16F
100
AcDbEntity
  8
P-SANR-FIXT
100
AcDbLine
 10
812.6148455245466
 20
1702.005266574656
 30
0.0
 11
812.6148455245466
 21
1692.655266574656
 31
0.0
  0
LINE
  5
257
330
16F
100
AcDbEntity
  8
P-SANR-FIXT
100
AcDbLine
 10
812.6148455245466
 20
1692.655266574656
 30
0.0
 11
812.6148455245466
 21
1683.305266574655
 31
0.0
  0
LINE
  5
258
330
16F
100
AcDbEntity
  8
P-SANR-FIXT
100
AcDbLine
 10
695.614845524532
 20
1703.305266574656
 30
0.0
 11
673.9148455245119
 21
1703.305266574656
 31
0.0
  0
LINE
  5
259
330
16F
100
AcDbEntity
  8
P-SANR-FIXT
100
AcDbLine
 10
673.9148455245119
 20
1682.005266574655
 30
0.0
 11
695.6148455245319
 21
1682.005266574655
 31
0.0
  0
LINE
  5
25A
330
16F
100
AcDbEntity
  8
P-SANR-FIXT
100
AcDbLine
 10
673.9148455245119
 20
1703.305266574656
 30
0.0
 11
672.6148455245119
 21
1702.005266574656
 31
0.0
  0
LINE
  5
25B
330
16F
100
AcDbEntity
  8
P-SANR-FIXT
100
AcDbLine
 10
672.6148455245119
 20
1683.305266574655
 30
0.0
 11
673.9148455245119
 21
1682.005266574655
 31
0.0
  0
LINE
  5
25C
330
16F
100
AcDbEntity
  8
P-SANR-FIXT
100
AcDbLine
 10
672.6148455245105
 20
1692.655266574655
 30
0.0
 11
672.6148455245105
 21
1702.005266574655
 31
0.0
  0
LINE
  5
25D
330
16F
100
AcDbEntity
  8
P-SANR-FIXT
100
AcDbLine
 10
672.6148455245105
 20
1683.305266574654
 30
0.0
 11
672.6148455245105
 21
1692.655266574655
 31
0.0
  0
LINE
  5
25E
330
16F
100
AcDbEntity
  8
P-SANR-FIXT
100
AcDbLine
 10
673.9148455245106
 20
1703.305266574655
 30
0.0
 11
673.9148455245106
 21
1692.655266574655
 31
0.0
  0
LINE
  5
25F
330
16F
100
AcDbEntity
  8
P-SANR-FIXT
100
AcDbLine
 10
673.9148455245106
 20
1692.655266574655
 30
0.0
 11
673.9148455245106
 21
1682.005266574654
 31
0.0
  0
LWPOLYLINE
  5
260
330
16F
100
AcDbEntity
  8
P-SANR-FIXT
100
AcDbPolyline
 90
       10
 70
   128
 43
0.0
 10
765.83986096274
 20
1704.151881936146
 10
765.8260344939705
 20
1704.170786214056
 10
765.3765072156974
 20
1704.737136773494
 10
764.9051114733672
 20
1705.285003529278
 10
764.4124995358533
 20
1705.813450201519
 10
763.8993647043153
 20
1706.321559399263
 10
763.3664417614177
 20
1706.808434832134
 10
762.8145072880057
 20
1707.273203693281
 10
762.2443798168775
 20
1707.715019207913
 10
762.1738162085365
 20
1707.767165785924
  0
LWPOLYLINE
  5
261
330
16F
100
AcDbEntity
  8
P-SANR-FIXT
100
AcDbPolyline
 90
        3
 70
   128
 43
0.0
 10
762.1738162085371
 20
1707.767165785924
 10
761.0464684481597
 20
1708.560750905627
 10
760.7476841309749
 20
1708.753259553724
  0
LINE
  5
262
330
16F
100
AcDbEntity
  8
P-SANR-FIXT
100
AcDbLine
 10
730.726564689353
 20
1719.655266574656
 30
0.0
 11
729.7872245068439
 21
1719.655266574656
 31
0.0
  0
LINE
  5
263
330
16F
100
AcDbEntity
  8
P-SANR-FIXT
100
AcDbLine
 10
729.7872245068438
 20
1665.655266574656
 30
0.0
 11
730.7265646893529
 21
1665.655266574656
 31
0.0
  0
LINE
  5
264
330
16F
100
AcDbEntity
  8
P-SANR-FIXT
100
AcDbLine
 10
776.614845524528
 20
1706.105266574657
 30
0.0
 11
775.6148455245296
 21
1706.105266574657
 31
0.0
  0
LINE
  5
265
330
16F
100
AcDbEntity
  8
P-SANR-FIXT
100
AcDbLine
 10
775.6148455245296
 20
1706.105266574656
 30
0.0
 11
775.5814253201298
 21
1706.047381082636
 31
0.0
  0
LINE
  5
266
330
16F
100
AcDbEntity
  8
P-SANR-FIXT
100
AcDbLine
 10
775.5774531882452
 20
1706.040501148398
 30
0.0
 11
775.0663627687994
 21
1705.155266574656
 31
0.0
  0
LINE
  5
267
330
16F
100
AcDbEntity
  8
P-SANR-FIXT
100
AcDbLine
 10
773.3343119612307
 20
1704.155266574656
 30
0.0
 11
764.9926275545102
 21
1704.155266574656
 31
0.0
  0
LWPOLYLINE
  5
268
330
16F
100
AcDbEntity
  8
P-SANR-FIXT
100
AcDbPolyline
 90
       28
 70
   128
 43
0.0
 10
773.3343119612307
 20
1704.155266574655
 10
773.4142906296039
 20
1704.156866361334
 10
773.494141349169
 20
1704.16166316205
 10
773.5737363758086
 20
1704.169649302948
 10
773.6529483744591
 20
1704.180812007904
 10
773.7316506228207
 20
1704.195133418973
 10
773.809717214085
 20
1704.212590624952
 10
773.8870232583588
 20
1704.233155698034
 10
773.9634450824629
 20
1704.256795738491
 10
774.0388604277809
 20
1704.2834729273
 10
774.1131486458479
 20
1704.31314458665
 10
774.1861908913628
 20
1704.345763248216
 10
774.2578703123137
 20
1704.381276729097
 10
774.3280722369181
 20
1704.4196282153
 10
774.3966843570723
 20
1704.460756352629
 10
774.4635969080207
 20
1704.504595344836
 10
774.5287028439554
 20
1704.551075058887
 10
774.5918980092676
 20
1704.600121137154
 10
774.6530813051736
 20
1704.651655116374
 10
774.7121548514517
 20
1704.705594553174
 10
774.7690241430297
 20
1704.761853155962
 10
774.8235982011723
 20
1704.820340922973
 10
774.8757897190287
 20
1704.880964286259
 10
774.9255152013033
 20
1704.943626261369
 10
774.9726950978327
 20
1705.008226602511
 10
775.0172539308463
 20
1705.074661962919
 10
775.0591204157174
 20
1705.14282606019
 10
775.0663627687994
 20
1705.155266574656
  0
ELLIPSE
  5
269
330
16F
100
AcDbEntity
  8
P-SANR-FIXT
100
AcDbEllipse
 10
729.6148455245287
 20
1692.655266574655
 30
0.0
 11
0.0
 21
26.49599757301507
 31
0.0
210
0.0
220
0.0
230
1.0
 40
0.939692620785909
 41
4.712388980384668
 42
4.799655442984398
  0
ELLIPSE
  5
26A
330
16F
100
AcDbEntity
  8
P-SANR-FIXT
100
AcDbEllipse
 10
729.6148455245287
 20
1692.655266574655
 30
0.0
 11
0.0
 21
26.49599757301516
 31
0.0
210
0.0
220
0.0
230
1.0
 40
0.9396926207859079
 41
4.869577988190833
 42
4.886921905584104
  0
ELLIPSE
  5
26B
330
16F
100
AcDbEntity
  8
P-SANR-FIXT
100
AcDbEllipse
 10
729.6148455245287
 20
1692.655266574655
 30
0.0
 11
0.0
 21
26.49599757301492
 31
0.0
210
0.0
220
0.0
230
0.9999999999999998
 40
0.9396926207859181
 41
4.948226509039234
 42
4.974188368183827
  0
ELLIPSE
  5
26C
330
16F
100
AcDbEntity
  8
P-SANR-FIXT
100
AcDbEllipse
 10
729.6148455245287
 20
1692.655266574655
 30
0.0
 11
0.0
 21
26.49599757301502
 31
0.0
210
0.0
220
0.0
230
0.9999999999999998
 40
0.9396926207859142
 41
5.026888045287725
 42
5.18417835244201
  0
ELLIPSE
  5
26D
330
16F
100
AcDbEntity
  8
P-SANR-FIXT
100
AcDbEllipse
 10
729.6148455245287
 20
1692.655266574655
 30
0.0
 11
0.0
 21
26.49599757301469
 31
0.0
210
0.0
220
0.0
230
1.0
 40
0.9396926207859205
 41
5.235987755982985
 42
5.262766137432668
  0
ELLIPSE
  5
26E
330
16F
100
AcDbEntity
  8
P-SANR-FIXT
100
AcDbEllipse
 10
729.6148455245287
 20
1692.655266574655
 30
0.0
 11
0.0
 21
26.4959975730147
 31
0.0
210
0.0
220
0.0
230
1.0
 40
0.9396926207859248
 41
5.323254218582701
 42
5.341281675626807
  0
ELLIPSE
  5
26F
330
16F
100
AcDbEntity
  8
P-SANR-FIXT
100
AcDbEllipse
 10
729.6148455245287
 20
1692.655266574655
 30
0.0
 11
0.0
 21
26.49599757301477
 31
0.0
210
0.0
220
0.0
230
1.0
 40
0.939692620785922
 41
5.410520681182419
 42
5.419690484082263
  0
ELLIPSE
  5
270
330
16F
100
AcDbEntity
  8
P-SANR-FIXT
100
AcDbEllipse
 10
729.6148455245287
 20
1692.655266574655
 30
0.0
 11
0.0
 21
26.49599757301487
 31
0.0
210
0.0
220
0.0
230
0.9999999999999998
 40
0.9396926207859147
 41
5.497787143782131
 42
5.505035889426324
  0
ELLIPSE
  5
271
330
16F
100
AcDbEntity
  8
P-SANR-FIXT
100
AcDbEllipse
 10
729.6148455245287
 20
1692.655266574655
 30
0.0
 11
0.0
 21
26.4959975730148
 31
0.0
210
0.0
220
0.0
230
1.0
 40
0.9396926207859209
 41
5.575883803481492
 42
5.602239475816412
  0
ELLIPSE
  5
272
330
16F
100
AcDbEntity
  8
P-SANR-FIXT
100
AcDbEllipse
 10
729.6148455245287
 20
1692.655266574655
 30
0.0
 11
0.0
 21
26.4959975730148
 31
0.0
210
0.0
220
0.0
230
1.0
 40
0.9396926207859245
 41
5.654292611936985
 42
5.676498678616551
  0
ELLIPSE
  5
273
330
16F
100
AcDbEntity
  8
P-SANR-FIXT
100
AcDbEllipse
 10
729.6148455245287
 20
1692.655266574655
 30
0.0
 11
0.0
 21
26.49599757301493
 31
0.0
210
0.0
220
0.0
230
1.0
 40
0.9396926207859198
 41
5.73280815013116
 42
5.777089662401406
  0
ELLIPSE
  5
274
330
16F
100
AcDbEntity
  8
P-SANR-FIXT
100
AcDbEllipse
 10
729.6148455245287
 20
1692.655266574655
 30
0.0
 11
0.0
 21
26.49599757301469
 31
0.0
210
0.0
220
0.0
230
1.0
 40
0.9396926207859264
 41
5.811395935121827
 42
5.968686242276143
  0
ELLIPSE
  5
275
330
16F
100
AcDbEntity
  8
P-SANR-FIXT
100
AcDbEllipse
 10
729.6148455245287
 20
1692.655266574655
 30
0.0
 11
0.0
 21
26.49599757301495
 31
0.0
210
0.0
220
0.0
230
1.0
 40
0.9396926207859157
 41
6.003882788558094
 42
6.047347778524641
  0
ELLIPSE
  5
276
330
16F
100
AcDbEntity
  8
P-SANR-FIXT
100
AcDbEllipse
 10
729.6148455245287
 20
1692.655266574655
 30
0.0
 11
0.0
 21
26.49599757301489
 31
0.0
210
0.0
220
0.0
230
1.0
 40
0.9396926207859197
 41
6.091133574983517
 42
6.125996299373047
  0
ELLIPSE
  5
277
330
16F
100
AcDbEntity
  8
P-SANR-FIXT
100
AcDbEllipse
 10
729.6148455245287
 20
1692.655266574655
 30
0.0
 11
0.0
 21
26.49599757301485
 31
0.0
210
0.0
220
0.0
230
0.9999999999999998
 40
0.9396926207859157
 41
6.184179595999705
 42
6.204614672626504
  0
ELLIPSE
  5
278
330
16F
100
AcDbEntity
  8
P-SANR-FIXT
100
AcDbEllipse
 10
729.6148455245287
 20
1692.655266574655
 30
0.0
 11
0.0
 21
26.49599757301531
 31
0.0
210
0.0
220
0.0
230
1.0
 40
0.9396926207859021
 41
3.220163288142875
 42
3.240598364657874
  0
ELLIPSE
  5
279
330
16F
100
AcDbEntity
  8
P-SANR-FIXT
100
AcDbEllipse
 10
729.6148455245287
 20
1692.655266574655
 30
0.0
 11
0.0
 21
26.49599757301534
 31
0.0
210
0.0
220
0.0
230
0.9999999999999998
 40
0.9396926207859008
 41
3.298781661396315
 42
3.333644385720112
  0
ELLIPSE
  5
27A
330
16F
100
AcDbEntity
  8
P-SANR-FIXT
100
AcDbEllipse
 10
729.6148455245287
 20
1692.655266574655
 30
0.0
 11
0.0
 21
26.49599757301522
 31
0.0
210
0.0
220
0.0
230
1.0
 40
0.9396926207859072
 41
3.377430182244728
 42
3.420895172164648
  0
ELLIPSE
  5
27B
330
16F
100
AcDbEntity
  8
P-SANR-FIXT
100
AcDbEllipse
 10
729.6148455245287
 20
1692.655266574655
 30
0.0
 11
0.0
 21
26.49599757301531
 31
0.0
210
0.0
220
0.0
230
1.0
 40
0.9396926207859028
 41
3.456091718493229
 42
3.613382025647553
  0
ELLIPSE
  5
27C
330
16F
100
AcDbEntity
  8
P-SANR-FIXT
100
AcDbEllipse
 10
729.6148455245287
 20
1692.655266574655
 30
0.0
 11
0.0
 21
26.49599757301512
 31
0.0
210
0.0
220
0.0
230
1.0
 40
0.9396926207859038
 41
3.647688298410123
 42
3.691969810638212
  0
ELLIPSE
  5
27D
330
16F
100
AcDbEntity
  8
P-SANR-FIXT
100
AcDbEllipse
 10
729.6148455245287
 20
1692.655266574655
 30
0.0
 11
0.0
 21
26.49599757301507
 31
0.0
210
0.0
220
0.0
230
0.9999999999999998
 40
0.9396926207859099
 41
3.734939084852582
 42
3.77048534883239
  0
ELLIPSE
  5
27E
330
16F
100
AcDbEntity
  8
P-SANR-FIXT
100
AcDbEllipse
 10
729.6148455245287
 20
1692.655266574655
 30
0.0
 11
0.0
 21
26.49599757301527
 31
0.0
210
0.0
220
0.0
230
1.0
 40
0.9396926207859042
 41
3.822538484952941
 42
3.848894157287875
  0
ELLIPSE
  5
27F
330
16F
100
AcDbEntity
  8
P-SANR-FIXT
100
AcDbEllipse
 10
729.6148455245287
 20
1692.655266574655
 30
0.0
 11
0.0
 21
26.4959975730151
 31
0.0
210
0.0
220
0.0
230
1.0
 40
0.9396926207859127
 41
3.922528179743411
 42
3.92699081698723
  0
ELLIPSE
  5
280
330
16F
100
AcDbEntity
  8
P-SANR-FIXT
100
AcDbEllipse
 10
729.6148455245287
 20
1692.655266574655
 30
0.0
 11
0.0
 21
26.49599757301523
 31
0.0
210
0.0
220
0.0
230
0.9999999999999998
 40
0.9396926207859047
 41
4.005087476685096
 42
4.014257279586946
  0
ELLIPSE
  5
281
330
16F
100
AcDbEntity
  8
P-SANR-FIXT
100
AcDbEllipse
 10
729.6148455245287
 20
1692.655266574655
 30
0.0
 11
0.0
 21
26.49599757301512
 31
0.0
210
0.0
220
0.0
230
1.0
 40
0.9396926207859094
 41
4.083496285140689
 42
4.101523742186664
  0
ELLIPSE
  5
282
330
16F
100
AcDbEntity
  8
P-SANR-FIXT
100
AcDbEllipse
 10
729.6148455245287
 20
1692.655266574655
 30
0.0
 11
0.0
 21
26.49599757301512
 31
0.0
210
0.0
220
0.0
230
1.0
 40
0.939692620785912
 41
4.162011823334943
 42
4.198564819108264
  0
ELLIPSE
  5
283
330
16F
100
AcDbEntity
  8
P-SANR-FIXT
100
AcDbEllipse
 10
729.6148455245287
 20
1692.655266574655
 30
0.0
 11
0.0
 21
26.49599757301517
 31
0.0
210
0.0
220
0.0
230
0.9999999999999998
 40
0.9396926207859056
 41
4.240599608325672
 42
4.397889915480069
  0
ELLIPSE
  5
284
330
16F
100
AcDbEntity
  8
P-SANR-FIXT
100
AcDbEllipse
 10
729.6148455245287
 20
1692.655266574655
 30
0.0
 11
0.0
 21
26.49599757301502
 31
0.0
210
0.0
220
0.0
230
1.0
 40
0.9396926207859143
 41
4.436193605849126
 42
4.476551451728592
  0
ELLIPSE
  5
285
330
16F
100
AcDbEntity
  8
P-SANR-FIXT
100
AcDbEllipse
 10
729.6148455245287
 20
1692.655266574655
 30
0.0
 11
0.0
 21
26.495997573015
 31
0.0
210
0.0
220
0.0
230
1.0
 40
0.9396926207859152
 41
4.537856055185248
 42
4.555199972577032
  0
ELLIPSE
  5
286
330
16F
100
AcDbEntity
  8
P-SANR-FIXT
100
AcDbEllipse
 10
729.6148455245287
 20
1692.655266574655
 30
0.0
 11
0.0
 21
26.49599757301498
 31
0.0
210
0.0
220
0.0
230
1.0
 40
0.9396926207859136
 41
4.625122517784954
 42
4.712388980384668
  0
SPLINE
  5
287
330
16F
100
AcDbEntity
  8
P-SANR-FIXT
100
AcDbSpline
210
0.0
220
0.0
230
1.0
 70
     8
 71
     3
 72
    14
 73
    10
 74
     0
 42
0.000000001
 43
0.0000000001
 40
-0.5209486125218388
 40
-0.5209486125218388
 40
-0.5209486125218388
 40
-0.5209486125218388
 40
-0.5
 40
-0.4722222222222223
 40
-0.4444444444444445
 40
-0.4166666666666666
 40
-0.3888888888888888
 40
-0.3333333333333333
 40
-0.2777777777777778
 40
-0.2777777777777778
 40
-0.2777777777777778
 40
-0.2777777777777778
 10
764.9873526026671
 20
1702.672433272449
 30
0.0
 10
764.9672272126998
 20
1702.759639701295
 30
0.0
 10
764.921912688386
 20
1702.954267130152
 30
0.0
 10
764.8622724698887
 20
1703.228964679352
 30
0.0
 10
764.8208923788023
 20
1703.488240666482
 30
0.0
 10
764.800508072594
 20
1703.707095993042
 30
0.0
 10
764.7937068737319
 20
1703.943287503852
 30
0.0
 10
764.843173359
 20
1704.13053073138
 30
0.0
 10
764.9632039246039
 20
1704.162655212133
 30
0.0
 10
765.0373742195776
 20
1704.151529540367
 30
0.0
  0
LINE
  5
288
330
16F
100
AcDbEntity
  8
P-SANR-FIXT
100
AcDbLine
 10
775.6148455245282
 20
1706.105266574655
 30
0.0
 11
775.6148455245285
 21
1702.667158637525
 31
0.0
  0
ENDBLK
  5
28A
330
16F
100
AcDbEntity
  8
0
100
AcDbBlockEnd
  0
BLOCK
  5
38B
330
28C
100
AcDbEntity
  8
0
100
AcDbBlockBegin
  2
Automatic flow rate regulator valve_Caleffi_121 DN15 - 1_2___Pressure gauge H-V2-Est - Idraulica
 70
     0
 10
0.0
 20
0.0
 30
0.0
  3
Automatic flow rate regulator valve_Caleffi_121 DN15 - 1_2___Pressure gauge H-V2-Est - Idraulica
  1

  0
LINE
  5
28D
330
28C
100
AcDbEntity
  8
M-PIPE
100
AcDbLine
 10
1195.114353943063
 20
2109.994333983195
 30
0.0
 11
1191.838149239721
 21
2109.994333983195
 31
0.0
1001
REVIT
1002
{
1070
     3
1000
923236
1002
}
  0
LINE
  5
28E
330
28C
100
AcDbEntity
  8
M-PIPE
100
AcDbLine
 10
1195.114353943061
 20
2109.990602514525
 30
0.0
 11
1195.114353943061
 21
2103.596980909916
 31
0.0
1001
REVIT
1002
{
1070
     3
1000
923236
1002
}
  0
LINE
  5
28F
330
28C
100
AcDbEntity
  8
M-PIPE
100
AcDbLine
 10
1154.627674553998
 20
2077.058714275568
 30
0.0
 11
1154.879506535659
 21
2079.433128561163
 31
0.0
1001
REVIT
1002
{
1070
     3
1000
923097
1002
}
  0
LINE
  5
290
330
28C
100
AcDbEntity
  8
M-PIPE
100
AcDbLine
 10
1199.601033332241
 20
2077.058714275566
 30
0.0
 11
1199.34920135058
 21
2079.433128561161
 31
0.0
1001
REVIT
1002
{
1070
     3
1000
923097
1002
}
  0
ELLIPSE
  5
291
330
28C
100
AcDbEntity
  8
M-PIPE
100
AcDbEllipse
 10
1177.114353943118
 20
2076.793952232061
 30
0.0
 11
22.50000000000008
 21
0.0
 31
0.0
210
0.0
220
0.0
230
0.9999999999999998
 40
0.3420201433256492
 41
3.107180865626297
 42
4.712388980384673
1001
REVIT
1002
{
1070
     3
1000
923097
1002
}
  0
ELLIPSE
  5
292
330
28C
100
AcDbEntity
  8
M-PIPE
100
AcDbEllipse
 10
1395.799698248708
 20
2074.71441292259
 30
0.0
 11
196.797324297337
 21
154.1771300524464
 31
0.0
210
0.0
220
0.0
230
1.0
 40
0.9076733711903711
 41
2.378844999662737
 42
2.41915958958232
1001
REVIT
1002
{
1070
     3
1000
923097
1002
}
  0
ELLIPSE
  5
293
330
28C
100
AcDbEntity
  8
M-PIPE
100
AcDbEllipse
 10
1177.114353943118
 20
2079.143183784002
 30
0.0
 11
22.25100234637479
 21
0.0
 31
0.0
210
0.0
220
0.0
230
1.0
 40
0.342020143325662
 41
2.881410084006097
 42
3.405008859604776
1001
REVIT
1002
{
1070
     3
1000
923097
1002
}
  0
SPLINE
  5
294
330
28C
100
AcDbEntity
  8
M-PIPE
100
AcDbSpline
210
0.0
220
0.0
230
1.0
 70
     8
 71
     3
 72
     9
 73
     5
 74
     0
 42
0.000000001
 43
0.0000000001
 40
-1.0
 40
-1.0
 40
-1.0
 40
-1.0
 40
-0.5
 40
-0.3206157952172339
 40
-0.3206157952172339
 40
-0.3206157952172339
 40
-0.3206157952172339
 10
1155.612252983278
 20
2081.100984274363
 30
0.0
 10
1155.781197322922
 20
2082.655605386692
 30
0.0
 10
1156.032800830128
 20
2084.76327172562
 30
0.0
 10
1156.314361478831
 20
2086.86454680201
 30
0.0
 10
1156.390793102819
 20
2087.418920655573
 30
0.0
1001
REVIT
1002
{
1070
     3
1000
923097
1002
}
  0
ELLIPSE
  5
295
330
28C
100
AcDbEntity
  8
M-PIPE
100
AcDbEllipse
 10
958.4476320871772
 20
2034.633710899742
 30
0.0
 11
196.7973242973889
 21
154.1771300524674
 31
0.0
210
0.0
220
0.0
230
1.0
 40
0.907673371190382
 41
5.769345366209267
 42
5.796734461826923
1001
REVIT
1002
{
1070
     3
1000
923097
1002
}
  0
ELLIPSE
  5
296
330
28C
100
AcDbEntity
  8
M-PIPE
100
AcDbEllipse
 10
1177.114353943118
 20
2079.143183784002
 30
0.0
 11
22.25100234637497
 21
0.0
 31
0.0
210
0.0
220
0.0
230
1.0
 40
0.3420201433256502
 41
6.019769101164468
 42
6.543367876763117
1001
REVIT
1002
{
1070
     3
1000
923097
1002
}
  0
SPLINE
  5
297
330
28C
100
AcDbEntity
  8
M-PIPE
100
AcDbSpline
210
0.0
220
0.0
230
1.0
 70
     8
 71
     3
 72
     9
 73
     5
 74
     0
 42
0.000000001
 43
0.0000000001
 40
-1.0
 40
-1.0
 40
-1.0
 40
-1.0
 40
-0.5
 40
0.0
 40
0.0
 40
0.0
 40
0.0
 10
1198.597832453253
 20
2077.16161291815
 30
0.0
 10
1198.428888113609
 20
2078.747199507766
 30
0.0
 10
1198.05854758253
 20
2081.917397222199
 30
0.0
 10
1197.623303347869
 20
2085.085644007037
 30
0.0
 10
1197.389455304644
 20
2086.669279667057
 30
0.0
1001
REVIT
1002
{
1070
     3
1000
923097
1002
}
  0
ELLIPSE
  5
298
330
28C
100
AcDbEntity
  8
M-PIPE
100
AcDbEllipse
 10
1177.114353943118
 20
2076.793952232061
 30
0.0
 11
-22.50000000000023
 21
0.000000000000426
 31
0.0
210
0.0
220
0.0
230
1.0
 40
0.3420201433256368
 41
1.570796326794894
 42
3.176004441553163
1001
REVIT
1002
{
1070
     3
1000
923097
1002
}
  0
LINE
  5
299
330
28C
100
AcDbEntity
  8
M-PIPE
100
AcDbLine
 10
1156.853579661353
 20
2086.670592658259
 30
0.0
 11
1156.839252581593
 21
2086.669279667058
 31
0.0
1001
REVIT
1002
{
1070
     3
1000
923097
1002
}
  0
ELLIPSE
  5
29A
330
28C
100
AcDbEntity
  8
M-PIPE
100
AcDbEllipse
 10
1177.114353943118
 20
2088.540109991885
 30
0.0
 11
-21.0
 21
0.0000000000005142
 31
0.0
210
0.0
220
0.0
230
1.0
 40
0.342020143325672
 41
1.498169448776191
 42
1.5707963267949
1001
REVIT
1002
{
1070
     3
1000
923097
1002
}
  0
ELLIPSE
  5
29B
330
28C
100
AcDbEntity
  8
M-PIPE
100
AcDbEllipse
 10
1177.114353943118
 20
2088.540109991885
 30
0.0
 11
20.99999999999989
 21
0.0
 31
0.0
210
0.0
220
0.0
230
1.0
 40
0.3420201433256577
 41
4.567135224347266
 42
4.635584900655155
1001
REVIT
1002
{
1070
     3
1000
923097
1002
}
  0
ELLIPSE
  5
29C
330
28C
100
AcDbEntity
  8
M-PIPE
100
AcDbEllipse
 10
1177.114353943118
 20
2088.540109991885
 30
0.0
 11
21.00000000000017
 21
0.0
 31
0.0
210
0.0
220
0.0
230
1.0
 40
0.3420201433256487
 41
4.482456178926576
 42
4.558442731088868
1001
REVIT
1002
{
1070
     3
1000
923097
1002
}
  0
ELLIPSE
  5
29D
330
28C
100
AcDbEntity
  8
M-PIPE
100
AcDbEllipse
 10
1177.114353943118
 20
2088.540109991885
 30
0.0
 11
21.00000000000001
 21
0.0
 31
0.0
210
0.0
220
0.0
230
1.0
 40
0.3420201433256631
 41
4.421881468309843
 42
4.480961262037451
1001
REVIT
1002
{
1070
     3
1000
923097
1002
}
  0
ELLIPSE
  5
29E
330
28C
100
AcDbEntity
  8
M-PIPE
100
AcDbEllipse
 10
1177.114353943118
 20
2088.540109991885
 30
0.0
 11
21.00000000000006
 21
0.0
 31
0.0
210
0.0
220
0.0
230
0.9999999999999998
 40
0.3420201433256517
 41
4.349254590291148
 42
4.403140303247275
1001
REVIT
1002
{
1070
     3
1000
923097
1002
}
  0
ELLIPSE
  5
29F
330
28C
100
AcDbEntity
  8
M-PIPE
100
AcDbEllipse
 10
1177.114353943118
 20
2088.540109991885
 30
0.0
 11
21.00000000000002
 21
0.0
 31
0.0
210
0.0
220
0.0
230
0.9999999999999998
 40
0.3420201433256468
 41
4.276627712272432
 42
4.324980995887711
1001
REVIT
1002
{
1070
     3
1000
923097
1002
}
  0
ELLIPSE
  5
2A0
330
28C
100
AcDbEntity
  8
M-PIPE
100
AcDbEllipse
 10
1177.114353943118
 20
2088.540109991885
 30
0.0
 11
21.0000000000001
 21
0.0
 31
0.0
210
0.0
220
0.0
230
1.0
 40
0.3420201433256447
 41
4.167318038250991
 42
4.246419371915035
1001
REVIT
1002
{
1070
     3
1000
923097
1002
}
  0
ELLIPSE
  5
2A1
330
28C
100
AcDbEntity
  8
M-PIPE
100
AcDbEllipse
 10
1177.114353943118
 20
2088.540109991885
 30
0.0
 11
21.00000000000012
 21
0.0
 31
0.0
210
0.0
220
0.0
230
1.0
 40
0.3420201433256327
 41
4.087775977747778
 42
4.132169331212399
1001
REVIT
1002
{
1070
     3
1000
923097
1002
}
  0
ELLIPSE
  5
2A2
330
28C
100
AcDbEntity
  8
M-PIPE
100
AcDbEllipse
 10
1177.114353943118
 20
2088.540109991885
 30
0.0
 11
21.00000000000004
 21
0.0
 31
0.0
210
0.0
220
0.0
230
1.0
 40
0.3420201433256517
 41
4.008060772932497
 42
4.058747078216302
1001
REVIT
1002
{
1070
     3
1000
923097
1002
}
  0
ELLIPSE
  5
2A3
330
28C
100
AcDbEntity
  8
M-PIPE
100
AcDbEllipse
 10
1177.114353943118
 20
2088.540109991885
 30
0.0
 11
21.0000000000001
 21
0.0
 31
0.0
210
0.0
220
0.0
230
1.0
 40
0.3420201433256629
 41
3.928446042644185
 42
3.986120200197578
1001
REVIT
1002
{
1070
     3
1000
923097
1002
}
  0
ELLIPSE
  5
2A4
330
28C
100
AcDbEntity
  8
M-PIPE
100
AcDbEllipse
 10
1177.114353943118
 20
2088.540109991885
 30
0.0
 11
21.00000000000012
 21
0.0
 31
0.0
210
0.0
220
0.0
230
1.0
 40
0.3420201433256421
 41
3.455859516826804
 42
3.921206956007262
1001
REVIT
1002
{
1070
     3
1000
923097
1002
}
  0
ELLIPSE
  5
2A5
330
28C
100
AcDbEntity
  8
M-PIPE
100
AcDbEllipse
 10
1177.114353943118
 20
2088.540109991886
 30
0.0
 11
20.99999999999986
 21
0.0
 31
0.0
210
0.0
220
0.0
230
0.9999999999999998
 40
0.3420201433256456
 41
5.511284638590414
 42
5.969193062784395
1001
REVIT
1002
{
1070
     3
1000
923097
1002
}
  0
ELLIPSE
  5
2A6
330
28C
100
AcDbEntity
  8
M-PIPE
100
AcDbEllipse
 10
1177.114353943118
 20
2088.540109991886
 30
0.0
 11
20.99999999999987
 21
0.0
 31
0.0
210
0.0
220
0.0
230
1.0
 40
0.3420201433256508
 41
5.438657760571729
 42
5.497400722029669
1001
REVIT
1002
{
1070
     3
1000
923097
1002
}
  0
ELLIPSE
  5
2A7
330
28C
100
AcDbEntity
  8
M-PIPE
100
AcDbEllipse
 10
1177.114353943118
 20
2088.540109991886
 30
0.0
 11
20.99999999999994
 21
0.0
 31
0.0
210
0.0
220
0.0
230
1.0
 40
0.3420201433256576
 41
5.293404004534338
 42
5.41748972961175
1001
REVIT
1002
{
1070
     3
1000
923097
1002
}
  0
ELLIPSE
  5
2A8
330
28C
100
AcDbEntity
  8
M-PIPE
100
AcDbEllipse
 10
1177.114353943118
 20
2088.540109991886
 30
0.0
 11
20.99999999999986
 21
0.0
 31
0.0
210
0.0
220
0.0
230
1.0
 40
0.3420201433256627
 41
5.178142699310021
 42
5.257501077021682
1001
REVIT
1002
{
1070
     3
1000
923097
1002
}
  0
ELLIPSE
  5
2A9
330
28C
100
AcDbEntity
  8
M-PIPE
100
AcDbEllipse
 10
1177.114353943118
 20
2088.540109991886
 30
0.0
 11
20.99999999999994
 21
0.0
 31
0.0
210
0.0
220
0.0
230
1.0
 40
0.3420201433256574
 41
5.021250582074037
 42
5.148150248496919
1001
REVIT
1002
{
1070
     3
1000
923097
1002
}
  0
ELLIPSE
  5
2AA
330
28C
100
AcDbEntity
  8
M-PIPE
100
AcDbEllipse
 10
1177.114353943118
 20
2088.540109991886
 30
0.0
 11
20.9999999999999
 21
0.0
 31
0.0
210
0.0
220
0.0
230
1.0
 40
0.3420201433256521
 41
4.943442875959069
 42
5.002896492459514
1001
REVIT
1002
{
1070
     3
1000
923097
1002
}
  0
ELLIPSE
  5
2AB
330
28C
100
AcDbEntity
  8
M-PIPE
100
AcDbEllipse
 10
1177.114353943118
 20
2088.540109991886
 30
0.0
 11
20.99999999999984
 21
0.0
 31
0.0
210
0.0
220
0.0
230
1.0
 40
0.3420201433256512
 41
4.866031523767481
 42
4.930269614440807
1001
REVIT
1002
{
1070
     3
1000
923097
1002
}
  0
ELLIPSE
  5
2AC
330
28C
100
AcDbEntity
  8
M-PIPE
100
AcDbEllipse
 10
1177.114353943118
 20
2088.540109991886
 30
0.0
 11
20.99999999999992
 21
0.0
 31
0.0
210
0.0
220
0.0
230
1.0
 40
0.34202014332566
 41
4.712388980384683
 42
4.857642736422101
1001
REVIT
1002
{
1070
     3
1000
923097
1002
}
  0
LINE
  5
2AD
330
28C
100
AcDbEntity
  8
M-PIPE
100
AcDbLine
 10
1197.389455304644
 20
2086.669279667057
 30
0.0
 11
1197.375128224807
 21
2086.670592658265
 31
0.0
1001
REVIT
1002
{
1070
     3
1000
923097
1002
}
  0
LINE
  5
2AE
330
28C
100
AcDbEntity
  8
M-PIPE
100
AcDbLine
 10
1156.085998527911
 20
2081.057568327628
 30
0.0
 11
1155.612252983278
 21
2081.100984274363
 31
0.0
1001
REVIT
1002
{
1070
     3
1000
923097
1002
}
  0
LINE
  5
2AF
330
28C
100
AcDbEntity
  8
M-PIPE
100
AcDbLine
 10
1198.616454902958
 20
2081.100984274363
 30
0.0
 11
1198.142709358312
 21
2081.057568327627
 31
0.0
1001
REVIT
1002
{
1070
     3
1000
923097
1002
}
  0
LINE
  5
2B0
330
28C
100
AcDbEntity
  8
M-PIPE
100
AcDbLine
 10
1150.614353943129
 20
2053.301636712395
 30
0.0
 11
1150.614353943129
 21
2050.482558850038
 31
0.0
1001
REVIT
1002
{
1070
     3
1000
923097
1002
}
  0
LINE
  5
2B1
330
28C
100
AcDbEntity
  8
M-PIPE
100
AcDbLine
 10
1203.614353943067
 20
2050.482558850037
 30
0.0
 11
1203.614353943068
 21
2053.301636712395
 31
0.0
1001
REVIT
1002
{
1070
     3
1000
923097
1002
}
  0
LINE
  5
2B2
330
28C
100
AcDbEntity
  8
M-PIPE
100
AcDbLine
 10
1151.542132782425
 20
2060.634624448934
 30
0.0
 11
1151.542132782425
 21
2053.301636712395
 31
0.0
1001
REVIT
1002
{
1070
     3
1000
923097
1002
}
  0
LINE
  5
2B3
330
28C
100
AcDbEntity
  8
M-PIPE
100
AcDbLine
 10
1202.686575103773
 20
2053.301636712395
 30
0.0
 11
1202.686575103773
 21
2060.634624448934
 31
0.0
1001
REVIT
1002
{
1070
     3
1000
923097
1002
}
  0
LINE
  5
2B4
330
28C
100
AcDbEntity
  8
M-PIPE
100
AcDbLine
 10
1153.61578874538
 20
2061.847686054834
 30
0.0
 11
1154.627742862142
 21
2077.059392056552
 31
0.0
1001
REVIT
1002
{
1070
     3
1000
923097
1002
}
  0
LINE
  5
2B5
330
28C
100
AcDbEntity
  8
M-PIPE
100
AcDbLine
 10
1200.612919140818
 20
2061.847686054825
 30
0.0
 11
1199.600965024057
 21
2077.059392056542
 31
0.0
1001
REVIT
1002
{
1070
     3
1000
923097
1002
}
  0
ELLIPSE
  5
2B6
330
28C
100
AcDbEntity
  8
M-PIPE
100
AcDbEllipse
 10
1177.114353943097
 20
2050.482558850037
 30
0.0
 11
26.49999999996931
 21
0.0
 31
0.0
210
0.0
220
0.0
230
1.0
 40
0.3420201433256633
 41
3.141592653589793
 42
3.220132469929531
1001
REVIT
1002
{
1070
     3
1000
923097
1002
}
  0
ELLIPSE
  5
2B7
330
28C
100
AcDbEntity
  8
M-PIPE
100
AcDbEllipse
 10
1177.114353943097
 20
2050.482558850037
 30
0.0
 11
26.49999999996918
 21
0.0
 31
0.0
210
0.0
220
0.0
230
1.0
 40
0.342020143325667
 41
3.228878811266637
 42
3.298672286269282
1001
REVIT
1002
{
1070
     3
1000
923097
1002
}
  0
ELLIPSE
  5
2B8
330
28C
100
AcDbEntity
  8
M-PIPE
100
AcDbEllipse
 10
1177.114353943097
 20
2050.482558850037
 30
0.0
 11
26.4999999999691
 21
0.0
 31
0.0
210
0.0
220
0.0
230
1.0
 40
0.3420201433256633
 41
3.316200999600227
 42
3.403541746059159
1001
REVIT
1002
{
1070
     3
1000
923097
1002
}
  0
ELLIPSE
  5
2B9
330
28C
100
AcDbEntity
  8
M-PIPE
100
AcDbEllipse
 10
1177.114353943097
 20
2050.482558850037
 30
0.0
 11
26.49999999996931
 21
0.0
 31
0.0
210
0.0
220
0.0
230
1.0
 40
0.3420201433256578
 41
3.448259030029105
 42
3.473183317572313
1001
REVIT
1002
{
1070
     3
1000
923097
1002
}
  0
ELLIPSE
  5
2BA
330
28C
100
AcDbEntity
  8
M-PIPE
100
AcDbEllipse
 10
1177.114353943097
 20
2050.482558850037
 30
0.0
 11
26.49999999996914
 21
0.0
 31
0.0
210
0.0
220
0.0
230
0.9999999999999998
 40
0.3420201433256596
 41
3.489003038759797
 42
3.576600991162552
1001
REVIT
1002
{
1070
     3
1000
923097
1002
}
  0
ELLIPSE
  5
2BB
330
28C
100
AcDbEntity
  8
M-PIPE
100
AcDbEllipse
 10
1177.114353943097
 20
2050.482558850037
 30
0.0
 11
26.49999999996918
 21
0.0
 31
0.0
210
0.0
220
0.0
230
1.0
 40
0.3420201433256615
 41
3.612831551628219
 42
3.664238191065932
1001
REVIT
1002
{
1070
     3
1000
923097
1002
}
  0
ELLIPSE
  5
2BC
330
28C
100
AcDbEntity
  8
M-PIPE
100
AcDbEllipse
 10
1177.114353943097
 20
2050.482558850037
 30
0.0
 11
26.49999999996914
 21
0.0
 31
0.0
210
0.0
220
0.0
230
0.9999999999999998
 40
0.3420201433256735
 41
3.691371367967982
 42
3.751886635309502
1001
REVIT
1002
{
1070
     3
1000
923097
1002
}
  0
ELLIPSE
  5
2BD
330
28C
100
AcDbEntity
  8
M-PIPE
100
AcDbEllipse
 10
1177.114353943097
 20
2050.482558850037
 30
0.0
 11
26.49999999996908
 21
0.0
 31
0.0
210
0.0
220
0.0
230
1.0
 40
0.3420201433256714
 41
3.753449793092031
 42
3.839527964419714
1001
REVIT
1002
{
1070
     3
1000
923097
1002
}
  0
ELLIPSE
  5
2BE
330
28C
100
AcDbEntity
  8
M-PIPE
100
AcDbEllipse
 10
1177.114353943097
 20
2050.482558850037
 30
0.0
 11
26.49999999996931
 21
0.0
 31
0.0
210
0.0
220
0.0
230
1.0
 40
0.3420201433256577
 41
3.84845100064746
 42
4.005530633326964
1001
REVIT
1002
{
1070
     3
1000
923097
1002
}
  0
ELLIPSE
  5
2BF
330
28C
100
AcDbEntity
  8
M-PIPE
100
AcDbEllipse
 10
1177.114353943097
 20
2050.482558850037
 30
0.0
 11
26.4999999999692
 21
0.0
 31
0.0
210
0.0
220
0.0
230
0.9999999999999998
 40
0.342020143325662
 41
4.014137679638773
 42
4.16261026600644
1001
REVIT
1002
{
1070
     3
1000
923097
1002
}
  0
ELLIPSE
  5
2C0
330
28C
100
AcDbEntity
  8
M-PIPE
100
AcDbEllipse
 10
1177.114353943097
 20
2050.482558850037
 30
0.0
 11
26.49999999996909
 21
0.0
 31
0.0
210
0.0
220
0.0
230
1.0
 40
0.3420201433256683
 41
4.188489909096964
 42
4.259240398991272
1001
REVIT
1002
{
1070
     3
1000
923097
1002
}
  0
ELLIPSE
  5
2C1
330
28C
100
AcDbEntity
  8
M-PIPE
100
AcDbEllipse
 10
1177.114353943097
 20
2050.482558850037
 30
0.0
 11
26.49999999996906
 21
0.0
 31
0.0
210
0.0
220
0.0
230
1.0
 40
0.342020143325668
 41
4.27577474311202
 42
4.363098328247916
1001
REVIT
1002
{
1070
     3
1000
923097
1002
}
  0
ELLIPSE
  5
2C2
330
28C
100
AcDbEntity
  8
M-PIPE
100
AcDbEllipse
 10
1177.114353943097
 20
2050.482558850037
 30
0.0
 11
26.49999999996921
 21
0.0
 31
0.0
210
0.0
220
0.0
230
1.0
 40
0.3420201433256649
 41
4.370335964750305
 42
4.450439887917539
1001
REVIT
1002
{
1070
     3
1000
923097
1002
}
  0
ELLIPSE
  5
2C3
330
28C
100
AcDbEntity
  8
M-PIPE
100
AcDbEllipse
 10
1177.114353943097
 20
2050.482558850037
 30
0.0
 11
26.49999999996917
 21
0.0
 31
0.0
210
0.0
220
0.0
230
0.9999999999999998
 40
0.3420201433256643
 41
4.476769531365436
 42
4.625102822709973
1001
REVIT
1002
{
1070
     3
1000
923097
1002
}
  0
ELLIPSE
  5
2C4
330
28C
100
AcDbEntity
  8
M-PIPE
100
AcDbEllipse
 10
1177.114353943097
 20
2050.482558850037
 30
0.0
 11
26.49999999996918
 21
0.0
 31
0.0
210
0.0
220
0.0
230
1.0
 40
0.3420201433256593
 41
4.633849164044923
 42
4.712388980384666
1001
REVIT
1002
{
1070
     3
1000
923097
1002
}
  0
ELLIPSE
  5
2C5
330
28C
100
AcDbEntity
  8
M-PIPE
100
AcDbEllipse
 10
1177.114353943097
 20
2050.482558850037
 30
0.0
 11
-26.49999999996908
 21
0.000000000000337
 31
0.0
210
0.0
220
0.0
230
1.0
 40
0.3420201433256662
 41
1.570796326794885
 42
1.649336143134632
1001
REVIT
1002
{
1070
     3
1000
923097
1002
}
  0
ELLIPSE
  5
2C6
330
28C
100
AcDbEntity
  8
M-PIPE
100
AcDbEllipse
 10
1177.114353943097
 20
2050.482558850037
 30
0.0
 11
26.49999999996918
 21
0.0
 31
0.0
210
0.0
220
0.0
230
1.0
 40
0.3420201433256691
 41
4.799675138057885
 42
4.948008429403897
1001
REVIT
1002
{
1070
     3
1000
923097
1002
}
  0
ELLIPSE
  5
2C7
330
28C
100
AcDbEntity
  8
M-PIPE
100
AcDbEllipse
 10
1177.114353943097
 20
2050.482558850037
 30
0.0
 11
26.49999999996925
 21
0.0
 31
0.0
210
0.0
220
0.0
230
1.0
 40
0.3420201433256561
 41
4.974338072850282
 42
5.054441996019101
1001
REVIT
1002
{
1070
     3
1000
923097
1002
}
  0
ELLIPSE
  5
2C8
330
28C
100
AcDbEntity
  8
M-PIPE
100
AcDbEllipse
 10
1177.114353943097
 20
2050.482558850037
 30
0.0
 11
26.49999999996925
 21
0.0
 31
0.0
210
0.0
220
0.0
230
1.0
 40
0.3420201433256603
 41
5.06167963251985
 42
5.149003217655685
1001
REVIT
1002
{
1070
     3
1000
923097
1002
}
  0
ELLIPSE
  5
2C9
330
28C
100
AcDbEntity
  8
M-PIPE
100
AcDbEllipse
 10
1177.114353943097
 20
2050.482558850037
 30
0.0
 11
26.49999999996922
 21
0.0
 31
0.0
210
0.0
220
0.0
230
1.0
 40
0.3420201433256688
 41
5.179768456027737
 42
5.236288051670673
1001
REVIT
1002
{
1070
     3
1000
923097
1002
}
  0
ELLIPSE
  5
2CA
330
28C
100
AcDbEntity
  8
M-PIPE
100
AcDbEllipse
 10
1177.114353943097
 20
2050.482558850037
 30
0.0
 11
26.49999999996902
 21
0.0
 31
0.0
210
0.0
220
0.0
230
0.9999999999999998
 40
0.342020143325666
 41
5.26216769476287
 42
5.323510104575584
1001
REVIT
1002
{
1070
     3
1000
923097
1002
}
  0
ELLIPSE
  5
2CB
330
28C
100
AcDbEntity
  8
M-PIPE
100
AcDbEllipse
 10
1177.114353943097
 20
2050.482558850037
 30
0.0
 11
26.49999999996921
 21
0.0
 31
0.0
210
0.0
220
0.0
230
1.0
 40
0.3420201433256602
 41
5.328155299370894
 42
5.41064028112868
1001
REVIT
1002
{
1070
     3
1000
923097
1002
}
  0
ELLIPSE
  5
2CC
330
28C
100
AcDbEntity
  8
M-PIPE
100
AcDbEllipse
 10
1177.114353943097
 20
2050.482558850037
 30
0.0
 11
26.49999999996914
 21
0.0
 31
0.0
210
0.0
220
0.0
230
1.0
 40
0.3420201433256543
 41
5.419247327442358
 42
5.576326960121832
1001
REVIT
1002
{
1070
     3
1000
923097
1002
}
  0
ELLIPSE
  5
2CD
330
28C
100
AcDbEntity
  8
M-PIPE
100
AcDbEllipse
 10
1177.114353943097
 20
2050.482558850037
 30
0.0
 11
26.49999999996929
 21
0.0
 31
0.0
210
0.0
220
0.0
230
0.9999999999999998
 40
0.342020143325658
 41
5.58524999634721
 42
5.654866776461584
1001
REVIT
1002
{
1070
     3
1000
923097
1002
}
  0
ELLIPSE
  5
2CE
330
28C
100
AcDbEntity
  8
M-PIPE
100
AcDbEllipse
 10
1177.114353943097
 20
2050.482558850037
 30
0.0
 11
26.49999999996916
 21
0.0
 31
0.0
210
0.0
220
0.0
230
0.9999999999999998
 40
0.3420201433256537
 41
5.672891325457158
 42
5.733406592801311
1001
REVIT
1002
{
1070
     3
1000
923097
1002
}
  0
ELLIPSE
  5
2CF
330
28C
100
AcDbEntity
  8
M-PIPE
100
AcDbEllipse
 10
1177.114353943097
 20
2050.482558850037
 30
0.0
 11
26.49999999996923
 21
0.0
 31
0.0
210
0.0
220
0.0
230
1.0
 40
0.3420201433256536
 41
5.760539769700343
 42
5.811946409141044
1001
REVIT
1002
{
1070
     3
1000
923097
1002
}
  0
ELLIPSE
  5
2D0
330
28C
100
AcDbEntity
  8
M-PIPE
100
AcDbEllipse
 10
1177.114353943097
 20
2050.482558850037
 30
0.0
 11
26.49999999996926
 21
0.0
 31
0.0
210
0.0
220
0.0
230
1.0
 40
0.3420201433256427
 41
5.848176969603235
 42
5.890486225480782
1001
REVIT
1002
{
1070
     3
1000
923097
1002
}
  0
ELLIPSE
  5
2D1
330
28C
100
AcDbEntity
  8
M-PIPE
100
AcDbEllipse
 10
1177.114353943097
 20
2050.482558850037
 30
0.0
 11
26.49999999996924
 21
0.0
 31
0.0
210
0.0
220
0.0
230
1.0
 40
0.3420201433256556
 41
5.935774922005251
 42
5.994410560160925
1001
REVIT
1002
{
1070
     3
1000
923097
1002
}
  0
ELLIPSE
  5
2D2
330
28C
100
AcDbEntity
  8
M-PIPE
100
AcDbEllipse
 10
1177.114353943097
 20
2050.482558850037
 30
0.0
 11
26.49999999996921
 21
0.0
 31
0.0
210
0.0
220
0.0
230
1.0
 40
0.342020143325654
 41
6.021236214710204
 42
6.108576961169135
1001
REVIT
1002
{
1070
     3
1000
923097
1002
}
  0
ELLIPSE
  5
2D3
330
28C
100
AcDbEntity
  8
M-PIPE
100
AcDbEllipse
 10
1177.114353943097
 20
2050.482558850037
 30
0.0
 11
26.49999999996913
 21
0.0
 31
0.0
210
0.0
220
0.0
230
1.0
 40
0.342020143325654
 41
6.126105674500027
 42
6.195899149502776
1001
REVIT
1002
{
1070
     3
1000
923097
1002
}
  0
ELLIPSE
  5
2D4
330
28C
100
AcDbEntity
  8
M-PIPE
100
AcDbEllipse
 10
1177.114353943097
 20
2050.482558850037
 30
0.0
 11
26.49999999996918
 21
0.0
 31
0.0
210
0.0
220
0.0
230
1.0
 40
0.3420201433256508
 41
6.204645490839781
 42
6.28318530717953
1001
REVIT
1002
{
1070
     3
1000
923097
1002
}
  0
ELLIPSE
  5
2D5
330
28C
100
AcDbEntity
  8
M-PIPE
100
AcDbEllipse
 10
1177.114353943097
 20
2053.301636712394
 30
0.0
 11
-26.49999999996908
 21
0.0000000000005135
 31
0.0
210
0.0
220
0.0
230
1.0
 40
0.3420201433256577
 41
6.018136098265251
 42
7.853981633974484
1001
REVIT
1002
{
1070
     3
1000
923097
1002
}
  0
ELLIPSE
  5
2D6
330
28C
100
AcDbEntity
  8
M-PIPE
100
AcDbEllipse
 10
1177.114353943097
 20
2053.301636712394
 30
0.0
 11
26.49999999996913
 21
0.0
 31
0.0
210
0.0
220
0.0
230
0.9999999999999998
 40
0.3420201433256582
 41
4.712388980384683
 42
6.548229664189357
1001
REVIT
1002
{
1070
     3
1000
923097
1002
}
  0
LINE
  5
2D7
330
28C
100
AcDbEntity
  8
M-PIPE
100
AcDbLine
 10
1202.313102708825
 20
2051.812314495638
 30
0.0
 11
1193.484824559036
 21
2046.582475489331
 31
0.0
1001
REVIT
1002
{
1070
     3
1000
923097
1002
}
  0
LINE
  5
2D8
330
28C
100
AcDbEntity
  8
M-PIPE
100
AcDbLine
 10
1185.942632092941
 20
2045.093153272583
 30
0.0
 11
1168.286075793251
 21
2045.093153272583
 31
0.0
1001
REVIT
1002
{
1070
     3
1000
923097
1002
}
  0
LINE
  5
2D9
330
28C
100
AcDbEntity
  8
M-PIPE
100
AcDbLine
 10
1160.743883327222
 20
2046.582475489314
 30
0.0
 11
1151.915605177355
 21
2051.812314495667
 31
0.0
1001
REVIT
1002
{
1070
     3
1000
923097
1002
}
  0
ELLIPSE
  5
2DA
330
28C
100
AcDbEntity
  8
M-PIPE
100
AcDbEllipse
 10
1177.114353943097
 20
2053.301636712394
 30
0.0
 11
25.57222116067421
 21
0.0
 31
0.0
210
0.0
220
0.0
230
1.0
 40
0.3420201433256525
 41
4.017674447043066
 42
4.359905962530548
1001
REVIT
1002
{
1070
     3
1000
923097
1002
}
  0
LINE
  5
2DB
330
28C
100
AcDbEntity
  8
M-PIPE
100
AcDbLine
 10
1168.286075793253
 20
2045.093153272583
 30
0.0
 11
1168.286075793253
 21
2052.426141009121
 31
0.0
1001
REVIT
1002
{
1070
     3
1000
923097
1002
}
  0
LINE
  5
2DC
330
28C
100
AcDbEntity
  8
M-PIPE
100
AcDbLine
 10
1160.743883327219
 20
2053.915463225854
 30
0.0
 11
1160.743883327219
 21
2046.582475489314
 31
0.0
1001
REVIT
1002
{
1070
     3
1000
923097
1002
}
  0
ELLIPSE
  5
2DD
330
28C
100
AcDbEntity
  8
M-PIPE
100
AcDbEllipse
 10
1177.114353943097
 20
2053.301636712394
 30
0.0
 11
25.57222116067403
 21
0.0
 31
0.0
210
0.0
220
0.0
230
1.0
 40
0.3420201433256613
 41
3.141592653589741
 42
3.312708411332967
1001
REVIT
1002
{
1070
     3
1000
923097
1002
}
  0
LINE
  5
2DE
330
28C
100
AcDbEntity
  8
M-PIPE
100
AcDbLine
 10
1151.915605177356
 20
2051.812314495666
 30
0.0
 11
1151.915605177356
 21
2059.145302232205
 31
0.0
1001
REVIT
1002
{
1070
     3
1000
923097
1002
}
  0
ELLIPSE
  5
2DF
330
28C
100
AcDbEntity
  8
M-PIPE
100
AcDbEllipse
 10
1177.114353943097
 20
2053.301636712394
 30
0.0
 11
25.57222116067403
 21
0.0
 31
0.0
210
0.0
220
0.0
230
0.9999999999999998
 40
0.3420201433256589
 41
5.064871998238748
 42
5.407103513729488
1001
REVIT
1002
{
1070
     3
1000
923097
1002
}
  0
LINE
  5
2E0
330
28C
100
AcDbEntity
  8
M-PIPE
100
AcDbLine
 10
1193.484824559035
 20
2046.582475489331
 30
0.0
 11
1193.484824559035
 21
2053.91546322587
 31
0.0
1001
REVIT
1002
{
1070
     3
1000
923097
1002
}
  0
LINE
  5
2E1
330
28C
100
AcDbEntity
  8
M-PIPE
100
AcDbLine
 10
1185.94263209294
 20
2052.426141009121
 30
0.0
 11
1185.942632092939
 21
2045.093153272582
 31
0.0
1001
REVIT
1002
{
1070
     3
1000
923097
1002
}
  0
ELLIPSE
  5
2E2
330
28C
100
AcDbEntity
  8
M-PIPE
100
AcDbEllipse
 10
1177.114353943097
 20
2053.301636712394
 30
0.0
 11
25.57222116067419
 21
0.0
 31
0.0
210
0.0
220
0.0
230
1.0
 40
0.3420201433256567
 41
6.112069549432969
 42
6.283185307179586
1001
REVIT
1002
{
1070
     3
1000
923097
1002
}
  0
LINE
  5
2E3
330
28C
100
AcDbEntity
  8
M-PIPE
100
AcDbLine
 10
1202.313102708825
 20
2059.145302232177
 30
0.0
 11
1202.313102708825
 21
2051.812314495638
 31
0.0
1001
REVIT
1002
{
1070
     3
1000
923097
1002
}
  0
SPLINE
  5
2E4
330
28C
100
AcDbEntity
  8
M-PIPE
100
AcDbSpline
210
0.0
220
0.0
230
1.0
 70
     8
 71
     3
 72
     8
 73
     4
 74
     0
 42
0.000000001
 43
0.0000000001
 40
-0.1945193871626596
 40
-0.1945193871626596
 40
-0.1945193871626596
 40
-0.1945193871626596
 40
0.0
 40
0.0
 40
0.0
 40
0.0
 10
1153.652974550577
 20
2063.687713696114
 30
0.0
 10
1153.075469289882
 20
2063.210447260965
 30
0.0
 10
1152.496346165477
 20
2062.689191584152
 30
0.0
 10
1151.915605177362
 20
2062.123946665674
 30
0.0
1001
REVIT
1002
{
1070
     3
1000
923097
1002
}
  0
ELLIPSE
  5
2E5
330
28C
100
AcDbEntity
  8
M-PIPE
100
AcDbEllipse
 10
1177.114353943097
 20
2060.634624448933
 30
0.0
 11
25.57222116067411
 21
0.0
 31
0.0
210
0.0
220
0.0
230
1.0
 40
0.3420201433256603
 41
2.970476895845031
 42
3.312708411332968
1001
REVIT
1002
{
1070
     3
1000
923097
1002
}
  0
SPLINE
  5
2E6
330
28C
100
AcDbEntity
  8
M-PIPE
100
AcDbSpline
210
0.0
220
0.0
230
1.0
 70
     8
 71
     3
 72
     9
 73
     5
 74
     0
 42
0.000000001
 43
0.0000000001
 40
-1.0
 40
-1.0
 40
-1.0
 40
-1.0
 40
-0.5
 40
0.0
 40
0.0
 40
0.0
 40
0.0
 10
1151.915605177355
 20
2059.145302232206
 30
0.0
 10
1153.365605929772
 20
2058.854949510001
 30
0.0
 10
1156.286986373834
 20
2057.692956953405
 30
0.0
 10
1159.25112469635
 20
2055.368390172433
 30
0.0
 10
1160.743883327221
 20
2053.915463225852
 30
0.0
1001
REVIT
1002
{
1070
     3
1000
923097
1002
}
  0
ELLIPSE
  5
2E7
330
28C
100
AcDbEntity
  8
M-PIPE
100
AcDbEllipse
 10
1177.114353943097
 20
2060.634624448933
 30
0.0
 11
25.57222116067405
 21
0.0
 31
0.0
210
0.0
220
0.0
230
1.0
 40
0.3420201433256463
 41
4.017674447043069
 42
4.359905962530561
1001
REVIT
1002
{
1070
     3
1000
923097
1002
}
  0
SPLINE
  5
2E8
330
28C
100
AcDbEntity
  8
M-PIPE
100
AcDbSpline
210
0.0
220
0.0
230
1.0
 70
     8
 71
     3
 72
     9
 73
     5
 74
     0
 42
0.000000001
 43
0.0000000001
 40
-1.0
 40
-1.0
 40
-1.0
 40
-1.0
 40
-0.5
 40
0.0
 40
0.0
 40
0.0
 40
0.0
 10
1168.286075793252
 20
2052.426141009122
 30
0.0
 10
1169.742763640239
 20
2052.705586921531
 30
0.0
 10
1172.670831178867
 20
2053.127196160065
 30
0.0
 10
1175.628282406803
 20
2053.274240226035
 30
0.0
 10
1177.114353943097
 20
2053.279120965878
 30
0.0
1001
REVIT
1002
{
1070
     3
1000
923097
1002
}
  0
SPLINE
  5
2E9
330
28C
100
AcDbEntity
  8
M-PIPE
100
AcDbSpline
210
0.0
220
0.0
230
1.0
 70
     8
 71
     3
 72
     9
 73
     5
 74
     0
 42
0.000000001
 43
0.0000000001
 40
-1.0
 40
-1.0
 40
-1.0
 40
-1.0
 40
-0.5
 40
0.0
 40
0.0
 40
0.0
 40
0.0
 10
1177.114353943097
 20
2053.279120965878
 30
0.0
 10
1178.600425479392
 20
2053.274240226035
 30
0.0
 10
1181.557876707327
 20
2053.127196160065
 30
0.0
 10
1184.485944245954
 20
2052.70558692153
 30
0.0
 10
1185.942632092941
 20
2052.426141009121
 30
0.0
1001
REVIT
1002
{
1070
     3
1000
923097
1002
}
  0
ELLIPSE
  5
2EA
330
28C
100
AcDbEntity
  8
M-PIPE
100
AcDbEllipse
 10
1177.114353943097
 20
2060.634624448933
 30
0.0
 11
25.57222116067389
 21
0.0
 31
0.0
210
0.0
220
0.0
230
1.0
 40
0.3420201433256427
 41
5.064871998238733
 42
5.407103513729475
1001
REVIT
1002
{
1070
     3
1000
923097
1002
}
  0
SPLINE
  5
2EB
330
28C
100
AcDbEntity
  8
M-PIPE
100
AcDbSpline
210
0.0
220
0.0
230
1.0
 70
     8
 71
     3
 72
     9
 73
     5
 74
     0
 42
0.000000001
 43
0.0000000001
 40
-1.0
 40
-1.0
 40
-1.0
 40
-1.0
 40
-0.5
 40
0.0
 40
0.0
 40
0.0
 40
0.0
 10
1193.484824559036
 20
2053.91546322587
 30
0.0
 10
1194.934825311441
 20
2055.343060564917
 30
0.0
 10
1197.856205755477
 20
2057.642297738349
 30
0.0
 10
1200.820344077967
 20
2058.829619902455
 30
0.0
 10
1202.313102708825
 20
2059.145302232176
 30
0.0
1001
REVIT
1002
{
1070
     3
1000
923097
1002
}
  0
ELLIPSE
  5
2EC
330
28C
100
AcDbEntity
  8
M-PIPE
100
AcDbEllipse
 10
1177.114353943097
 20
2060.634624448933
 30
0.0
 11
25.57222116067419
 21
0.0
 31
0.0
210
0.0
220
0.0
230
1.0
 40
0.3420201433256513
 41
6.112069549432968
 42
6.454301064927517
1001
REVIT
1002
{
1070
     3
1000
923097
1002
}
  0
SPLINE
  5
2ED
330
28C
100
AcDbEntity
  8
M-PIPE
100
AcDbSpline
210
0.0
220
0.0
230
1.0
 70
     8
 71
     3
 72
     8
 73
     4
 74
     0
 42
0.000000001
 43
0.0000000001
 40
-1.0
 40
-1.0
 40
-1.0
 40
-1.0
 40
-0.8015588586000617
 40
-0.8015588586000617
 40
-0.8015588586000617
 40
-0.8015588586000617
 10
1202.313102708819
 20
2062.123946665701
 30
0.0
 10
1201.737623100146
 20
2062.690534756537
 30
0.0
 10
1201.160459733825
 20
2063.213336872314
 30
0.0
 10
1200.581612609858
 20
2063.692353013029
 30
0.0
1001
REVIT
1002
{
1070
     3
1000
923097
1002
}
  0
ELLIPSE
  5
2EE
330
28C
100
AcDbEntity
  8
M-PIPE
100
AcDbEllipse
 10
1177.114353943097
 20
2061.758870299465
 30
0.0
 11
-23.5
 21
0.0000000000005128
 31
0.0
210
0.0
220
0.0
230
1.0
 40
0.3420201433256536
 41
6.272134873927514
 42
7.853981633974485
1001
REVIT
1002
{
1070
     3
1000
923097
1002
}
  0
ELLIPSE
  5
2EF
330
28C
100
AcDbEntity
  8
M-PIPE
100
AcDbEllipse
 10
1177.114353943097
 20
2061.758870299465
 30
0.0
 11
23.50000000000008
 21
0.0
 31
0.0
210
0.0
220
0.0
230
1.0
 40
0.3420201433256544
 41
4.712388980384683
 42
6.294235740431659
1001
REVIT
1002
{
1070
     3
1000
923097
1002
}
  0
ELLIPSE
  5
2F0
330
28C
100
AcDbEntity
  8
M-PIPE
100
AcDbEllipse
 10
1177.114353943098
 20
2076.793952232039
 30
0.0
 11
-22.5
 21
0.000000000000516
 31
0.0
210
0.0
220
0.0
230
1.0
 40
0.3420201433256403
 41
6.248685391393857
 42
7.853981633974485
1001
REVIT
1002
{
1070
     3
1000
923097
1002
}
  0
ELLIPSE
  5
2F1
330
28C
100
AcDbEntity
  8
M-PIPE
100
AcDbEllipse
 10
1177.114353943098
 20
2076.793952232039
 30
0.0
 11
22.50000000000035
 21
0.0
 31
0.0
210
0.0
220
0.0
230
1.0
 40
0.3420201433256481
 41
4.712388980384683
 42
6.317685222965317
1001
REVIT
1002
{
1070
     3
1000
923097
1002
}
  0
LINE
  5
2F2
330
28C
100
AcDbEntity
  8
P-SANR-FIXT
100
AcDbLine
 10
1159.796210118078
 20
2106.905293562663
 30
0.0
 11
1159.955372243377
 21
2107.219605467612
 31
0.0
  0
LWPOLYLINE
  5
2F3
330
28C
100
AcDbEntity
  8
P-SANR-FIXT
100
AcDbPolyline
 90
       37
 70
   128
 43
0.0
 10
1159.993053549357
 20
2107.294018164989
 10
1160.100609117269
 20
2107.506417913831
 10
1160.442019670671
 20
2108.05034046198
 10
1160.809613546665
 20
2108.539725443646
 10
1161.195351501874
 20
2108.979467404694
 10
1161.593750917083
 20
2109.375355896952
 10
1162.001377723078
 20
2109.733199109085
 10
1162.416295394572
 20
2110.058339552121
 10
1162.837585924501
 20
2110.355443082344
 10
1163.264978867093
 20
2110.628453145309
 10
1163.698584260442
 20
2110.880632302235
 10
1164.138710093827
 20
2111.11464203654
 10
1164.585742749182
 20
2111.33263310473
 10
1165.040071843559
 20
2111.536332332557
 10
1165.502045217598
 20
2111.72711973188
 10
1165.971943809334
 20
2111.906094122233
 10
1166.449969318763
 20
2112.074127569357
 10
1166.936239890546
 20
2112.231909865781
 10
1167.430790669568
 20
2112.379984555134
 10
1167.933577192186
 20
2112.518777970668
 10
1168.444480315916
 20
2112.648622596844
 10
1168.963311877342
 20
2112.769775861819
 10
1169.489820584822
 20
2112.882435271366
 10
1170.02369785644
 20
2112.986750619493
 10
1170.56458344327
 20
2113.082833862967
 10
1171.112070759257
 20
2113.170767125675
 10
1171.665711888974
 20
2113.250609201077
 10
1172.22502227437
 20
2113.322400843237
 10
1172.789485098715
 20
2113.386169075259
 10
1173.358555395045
 20
2113.441930695342
 10
1173.931663910611
 20
2113.489695122095
 10
1174.508220760084
 20
2113.529466690317
 10
1175.087618899933
 20
2113.561246484074
 10
1175.66923745514
 20
2113.585033774369
 10
1176.25244492796
 20
2113.60082711276
 10
1176.836602316866
 20
2113.608625119117
 10
1177.114353943079
 20
2113.609528045405
  0
LINE
  5
2F4
330
28C
100
AcDbEntity
  8
P-SANR-FIXT
100
AcDbLine
 10
1194.432263470084
 20
2106.90581738349
 30
0.0
 11
1194.273337412771
 21
2107.219601057789
 31
0.0
  0
LWPOLYLINE
  5
2F5
330
28C
100
AcDbEntity
  8
P-SANR-FIXT
100
AcDbPolyline
 90
       37
 70
   128
 43
0.0
 10
1194.236909597558
 20
2107.291524151442
 10
1194.127828454597
 20
2107.506894005912
 10
1193.786392002585
 20
2108.050769659207
 10
1193.418780074768
 20
2108.540111106875
 10
1193.033029631364
 20
2108.979814131019
 10
1192.634621357917
 20
2109.37566860143
 10
1192.226987853725
 20
2109.733482474297
 10
1191.812064611798
 20
2110.058597755795
 10
1191.390768961732
 20
2110.355679703668
 10
1190.96337093504
 20
2110.628671171813
 10
1190.529760263284
 20
2110.880834185363
 10
1190.089628849615
 20
2111.114829765138
 10
1189.642590283219
 20
2111.332808279995
 10
1189.188254966459
 20
2111.536496236692
 10
1188.726275106096
 20
2111.72727338751
 10
1188.256369826271
 20
2111.906238342214
 10
1187.778337495559
 20
2112.074262997711
 10
1187.292060039081
 20
2112.232037010967
 10
1186.797502379872
 20
2112.380103816915
 10
1186.294709045894
 20
2112.518889661731
 10
1185.783799239456
 20
2112.648726960198
 10
1185.264961178946
 20
2112.769873084785
 10
1184.738446206067
 20
2112.882525496863
 10
1184.204562948015
 20
2112.98683395515
 10
1183.663671694433
 20
2113.082910388502
 10
1183.116179067794
 20
2113.170836898881
 10
1182.562533015909
 20
2113.250672262694
 10
1182.003218125445
 20
2113.322457220911
 10
1181.438751238222
 20
2113.386218786778
 10
1180.869677342979
 20
2113.441973751254
 10
1180.296565711121
 20
2113.489731527834
 10
1179.72000624367
 20
2113.529496447911
 10
1179.140605997029
 20
2113.561269593496
 10
1178.558985856372
 20
2113.585050234583
 10
1177.975777326969
 20
2113.600836922501
 10
1177.391619415312
 20
2113.608628277424
 10
1177.114353943079
 20
2113.609528045405
  0
LINE
  5
2F6
330
28C
100
AcDbEntity
  8
P-SANR-FIXT
100
AcDbLine
 10
1156.146097112988
 20
2088.934873770172
 30
0.0
 11
1156.802619849314
 21
2092.81562899795
 31
0.0
  0
LINE
  5
2F7
330
28C
100
AcDbEntity
  8
P-SANR-FIXT
100
AcDbLine
 10
1156.813691101185
 20
2092.881071999693
 30
0.0
 11
1156.873690211627
 21
2093.23573125005
 31
0.0
  0
LINE
  5
2F8
330
28C
100
AcDbEntity
  8
P-SANR-FIXT
100
AcDbLine
 10
1198.08261077317
 20
2088.934873770176
 30
0.0
 11
1197.426088036845
 21
2092.81562899795
 31
0.0
  0
LINE
  5
2F9
330
28C
100
AcDbEntity
  8
P-SANR-FIXT
100
AcDbLine
 10
1197.415016784973
 20
2092.881071999693
 30
0.0
 11
1197.355017674531
 21
2093.235731250055
 31
0.0
  0
ELLIPSE
  5
2FA
330
28C
100
AcDbEntity
  8
P-SANR-FIXT
100
AcDbEllipse
 10
1177.114353943078
 20
2088.540109991861
 30
0.0
 11
20.99999999999841
 21
0.0
 31
0.0
210
0.0
220
0.0
230
1.0
 40
0.3420201433256547
 41
4.63808290473784
 42
4.712388980384672
  0
ELLIPSE
  5
2FB
330
28C
100
AcDbEntity
  8
P-SANR-FIXT
100
AcDbEllipse
 10
1177.114353943078
 20
2088.540109991861
 30
0.0
 11
20.99999999999846
 21
0.0
 31
0.0
210
0.0
220
0.0
230
1.0
 40
0.3420201433256634
 41
4.564042631757436
 42
4.633849164044929
  0
ELLIPSE
  5
2FC
330
28C
100
AcDbEntity
  8
P-SANR-FIXT
100
AcDbEllipse
 10
1177.114353943078
 20
2088.540109991861
 30
0.0
 11
20.99999999999853
 21
0.0
 31
0.0
210
0.0
220
0.0
230
1.0
 40
0.3420201433256514
 41
4.49027048148325
 42
4.55530934770519
  0
ELLIPSE
  5
2FD
330
28C
100
AcDbEntity
  8
P-SANR-FIXT
100
AcDbEllipse
 10
1177.114353943078
 20
2088.540109991861
 30
0.0
 11
20.99999999999859
 21
0.0
 31
0.0
210
0.0
220
0.0
230
1.0
 40
0.3420201433256556
 41
4.416769583972641
 42
4.478259357361689
  0
ELLIPSE
  5
2FE
330
28C
100
AcDbEntity
  8
P-SANR-FIXT
100
AcDbEllipse
 10
1177.114353943078
 20
2088.540109991861
 30
0.0
 11
20.99999999999859
 21
0.0
 31
0.0
210
0.0
220
0.0
230
1.0
 40
0.3420201433256588
 41
4.343544134190246
 42
4.398229715025694
  0
ELLIPSE
  5
2FF
330
28C
100
AcDbEntity
  8
P-SANR-FIXT
100
AcDbEllipse
 10
1177.114353943078
 20
2088.540109991861
 30
0.0
 11
20.99999999999857
 21
0.0
 31
0.0
210
0.0
220
0.0
230
1.0
 40
0.3420201433256543
 41
4.270599735174847
 42
4.319689898685955
  0
ELLIPSE
  5
300
330
28C
100
AcDbEntity
  8
P-SANR-FIXT
100
AcDbEllipse
 10
1177.114353943078
 20
2088.540109991861
 30
0.0
 11
20.99999999999862
 21
0.0
 31
0.0
210
0.0
220
0.0
230
1.0
 40
0.3420201433256639
 41
4.198107345204451
 42
4.24115008234621
  0
ELLIPSE
  5
301
330
28C
100
AcDbEntity
  8
P-SANR-FIXT
100
AcDbEllipse
 10
1177.114353943078
 20
2088.540109991861
 30
0.0
 11
20.99999999999879
 21
0.0
 31
0.0
210
0.0
220
0.0
230
1.0
 40
0.3420201433256649
 41
4.12691943917069
 42
4.162610266006469
  0
ELLIPSE
  5
302
330
28C
100
AcDbEntity
  8
P-SANR-FIXT
100
AcDbEllipse
 10
1177.114353943078
 20
2088.540109991861
 30
0.0
 11
20.99999999999852
 21
0.0
 31
0.0
210
0.0
220
0.0
230
1.0
 40
0.3420201433256686
 41
4.084070449666716
 42
4.126111796643272
  0
ELLIPSE
  5
303
330
28C
100
AcDbEntity
  8
P-SANR-FIXT
100
AcDbEllipse
 10
1177.114353943078
 20
2088.540109991861
 30
0.0
 11
20.99999999999859
 21
0.0
 31
0.0
210
0.0
220
0.0
230
1.0
 40
0.3420201433256656
 41
4.005530633326939
 42
4.054432902189999
  0
ELLIPSE
  5
304
330
28C
100
AcDbEntity
  8
P-SANR-FIXT
100
AcDbEllipse
 10
1177.114353943078
 20
2088.540109991861
 30
0.0
 11
20.99999999999855
 21
0.0
 31
0.0
210
0.0
220
0.0
230
1.0
 40
0.3420201433256532
 41
3.919400317188599
 42
3.982892299807906
  0
ELLIPSE
  5
305
330
28C
100
AcDbEntity
  8
P-SANR-FIXT
100
AcDbEllipse
 10
1177.114353943078
 20
2088.540109991861
 30
0.0
 11
20.99999999999877
 21
0.0
 31
0.0
210
0.0
220
0.0
230
1.0
 40
0.3420201433256619
 41
3.848451000647513
 42
3.911312233849014
  0
ELLIPSE
  5
306
330
28C
100
AcDbEntity
  8
P-SANR-FIXT
100
AcDbEllipse
 10
1177.114353943078
 20
2088.540109991861
 30
0.0
 11
20.99999999999845
 21
0.0
 31
0.0
210
0.0
220
0.0
230
1.0
 40
0.3420201433256623
 41
3.769911184307731
 42
3.839514378401999
  0
ELLIPSE
  5
307
330
28C
100
AcDbEntity
  8
P-SANR-FIXT
100
AcDbEllipse
 10
1177.114353943078
 20
2088.540109991861
 30
0.0
 11
20.99999999999849
 21
0.0
 31
0.0
210
0.0
220
0.0
230
1.0
 40
0.3420201433256715
 41
3.695152940255427
 42
3.767560675761193
  0
ELLIPSE
  5
308
330
28C
100
AcDbEntity
  8
P-SANR-FIXT
100
AcDbEllipse
 10
1177.114353943078
 20
2088.540109991861
 30
0.0
 11
20.99999999999867
 21
0.0
 31
0.0
210
0.0
220
0.0
230
0.9999999999999998
 40
0.3420201433256668
 41
3.622343444320891
 42
3.691371367967989
  0
ELLIPSE
  5
309
330
28C
100
AcDbEntity
  8
P-SANR-FIXT
100
AcDbEllipse
 10
1177.114353943078
 20
2088.540109991861
 30
0.0
 11
20.99999999999852
 21
0.0
 31
0.0
210
0.0
220
0.0
230
1.0
 40
0.3420201433256655
 41
3.549352296357317
 42
3.612831551628255
  0
ELLIPSE
  5
30A
330
28C
100
AcDbEntity
  8
P-SANR-FIXT
100
AcDbEllipse
 10
1177.114353943078
 20
2088.540109991861
 30
0.0
 11
20.99999999999857
 21
0.0
 31
0.0
210
0.0
220
0.0
230
1.0
 40
0.3420201433256742
 41
3.476136082580564
 42
3.534291735288507
  0
ELLIPSE
  5
30B
330
28C
100
AcDbEntity
  8
P-SANR-FIXT
100
AcDbEllipse
 10
1177.114353943078
 20
2088.540109991861
 30
0.0
 11
20.99999999999837
 21
0.0
 31
0.0
210
0.0
220
0.0
230
1.0
 40
0.3420201433256519
 41
3.086602463827337
 42
3.405301730732798
  0
ELLIPSE
  5
30C
330
28C
100
AcDbEntity
  8
P-SANR-FIXT
100
AcDbEllipse
 10
1177.114353943078
 20
2088.540109991861
 30
0.0
 11
20.99999999999847
 21
0.0
 31
0.0
210
0.0
220
0.0
230
1.0
 40
0.3420201433256538
 41
6.019476230036372
 42
6.338175496942105
  0
ELLIPSE
  5
30D
330
28C
100
AcDbEntity
  8
P-SANR-FIXT
100
AcDbEllipse
 10
1177.114353943078
 20
2088.540109991861
 30
0.0
 11
20.99999999999832
 21
0.0
 31
0.0
210
0.0
220
0.0
230
1.0
 40
0.3420201433256512
 41
5.890486225480832
 42
5.948259938937503
  0
ELLIPSE
  5
30E
330
28C
100
AcDbEntity
  8
P-SANR-FIXT
100
AcDbEllipse
 10
1177.114353943078
 20
2088.540109991861
 30
0.0
 11
20.99999999999826
 21
0.0
 31
0.0
210
0.0
220
0.0
230
1.0
 40
0.3420201433256537
 41
5.807129092521277
 42
5.874737857858709
  0
ELLIPSE
  5
30F
330
28C
100
AcDbEntity
  8
P-SANR-FIXT
100
AcDbEllipse
 10
1177.114353943078
 20
2088.540109991861
 30
0.0
 11
20.99999999999827
 21
0.0
 31
0.0
210
0.0
220
0.0
230
0.9999999999999998
 40
0.3420201433256649
 41
5.733406592801363
 42
5.801514727860879
  0
ELLIPSE
  5
310
330
28C
100
AcDbEntity
  8
P-SANR-FIXT
100
AcDbEllipse
 10
1177.114353943078
 20
2088.540109991861
 30
0.0
 11
20.99999999999839
 21
0.0
 31
0.0
210
0.0
220
0.0
230
1.0
 40
0.3420201433256556
 41
5.655918376529935
 42
5.728546111183835
  0
ELLIPSE
  5
311
330
28C
100
AcDbEntity
  8
P-SANR-FIXT
100
AcDbEllipse
 10
1177.114353943078
 20
2088.540109991861
 30
0.0
 11
20.99999999999843
 21
0.0
 31
0.0
210
0.0
220
0.0
230
1.0
 40
0.3420201433256651
 41
5.583969710300568
 42
5.654866776461626
  0
ELLIPSE
  5
312
330
28C
100
AcDbEntity
  8
P-SANR-FIXT
100
AcDbEllipse
 10
1177.114353943078
 20
2088.540109991861
 30
0.0
 11
20.99999999999842
 21
0.0
 31
0.0
210
0.0
220
0.0
230
1.0
 40
0.3420201433256466
 41
5.440999336379062
 42
5.576326960121871
  0
ELLIPSE
  5
313
330
28C
100
AcDbEntity
  8
P-SANR-FIXT
100
AcDbEllipse
 10
1177.114353943078
 20
2088.540109991861
 30
0.0
 11
20.99999999999827
 21
0.0
 31
0.0
210
0.0
220
0.0
230
1.0
 40
0.3420201433256631
 41
5.369802502584056
 42
5.419247327442406
  0
ELLIPSE
  5
314
330
28C
100
AcDbEntity
  8
P-SANR-FIXT
100
AcDbEllipse
 10
1177.114353943078
 20
2088.540109991861
 30
0.0
 11
20.99999999999847
 21
0.0
 31
0.0
210
0.0
220
0.0
230
0.9999999999999998
 40
0.3420201433256644
 41
5.317472546025378
 42
5.340707511102634
  0
ELLIPSE
  5
315
330
28C
100
AcDbEntity
  8
P-SANR-FIXT
100
AcDbEllipse
 10
1177.114353943078
 20
2088.540109991861
 30
0.0
 11
20.99999999999853
 21
0.0
 31
0.0
210
0.0
220
0.0
230
1.0
 40
0.3420201433256589
 41
5.262167694762903
 42
5.298474969281097
  0
ELLIPSE
  5
316
330
28C
100
AcDbEntity
  8
P-SANR-FIXT
100
AcDbEllipse
 10
1177.114353943078
 20
2088.540109991861
 30
0.0
 11
20.9999999999984
 21
0.0
 31
0.0
210
0.0
220
0.0
230
1.0
 40
0.3420201433256472
 41
5.105088062083403
 42
5.226776427511385
  0
ELLIPSE
  5
317
330
28C
100
AcDbEntity
  8
P-SANR-FIXT
100
AcDbEllipse
 10
1177.114353943078
 20
2088.540109991861
 30
0.0
 11
20.99999999999852
 21
0.0
 31
0.0
210
0.0
220
0.0
230
1.0
 40
0.3420201433256667
 41
5.026548245743668
 42
5.081598461672957
  0
ELLIPSE
  5
318
330
28C
100
AcDbEntity
  8
P-SANR-FIXT
100
AcDbEllipse
 10
1177.114353943078
 20
2088.540109991861
 30
0.0
 11
20.99999999999838
 21
0.0
 31
0.0
210
0.0
220
0.0
230
1.0
 40
0.3420201433256494
 41
4.94800842940391
 42
5.008400586427008
  0
ELLIPSE
  5
319
330
28C
100
AcDbEntity
  8
P-SANR-FIXT
100
AcDbEllipse
 10
1177.114353943078
 20
2088.540109991861
 30
0.0
 11
20.99999999999845
 21
0.0
 31
0.0
210
0.0
220
0.0
230
1.0
 40
0.3420201433256742
 41
4.869468613064175
 42
4.934877297070099
  0
ELLIPSE
  5
31A
330
28C
100
AcDbEntity
  8
P-SANR-FIXT
100
AcDbEllipse
 10
1177.114353943078
 20
2088.540109991861
 30
0.0
 11
20.99999999999847
 21
0.0
 31
0.0
210
0.0
220
0.0
230
1.0
 40
0.3420201433256442
 41
4.790928796724422
 42
4.861032610086109
  0
ELLIPSE
  5
31B
330
28C
100
AcDbEntity
  8
P-SANR-FIXT
100
AcDbEllipse
 10
1177.114353943078
 20
2088.540109991861
 30
0.0
 11
20.99999999999853
 21
0.0
 31
0.0
210
0.0
220
0.0
230
1.0
 40
0.3420201433256447
 41
4.712388980384683
 42
4.786869259818724
  0
SPLINE
  5
31C
330
28C
100
AcDbEntity
  8
P-SANR-FIXT
100
AcDbSpline
210
0.0
220
0.0
230
1.0
 70
     8
 71
     3
 72
    23
 73
    19
 74
     0
 42
0.000000001
 43
0.0000000001
 40
-1.0
 40
-1.0
 40
-1.0
 40
-1.0
 40
-0.9166666666666666
 40
-0.875
 40
-0.8333333333333332
 40
-0.75
 40
-0.7083333333333333
 40
-0.6666666666666666
 40
-0.5833333333333333
 40
-0.5
 40
-0.4166666666666666
 40
-0.3333333333333333
 40
-0.2916666666666666
 40
-0.25
 40
-0.1666666666666666
 40
-0.125
 40
-0.0833333333333333
 40
0.0
 40
0.0
 40
0.0
 40
0.0
 10
1159.592363966527
 20
2106.229321264882
 30
0.0
 10
1159.631149974309
 20
2106.41454596579
 30
0.0
 10
1159.698542491724
 20
2106.659257848019
 30
0.0
 10
1159.800777236572
 20
2106.918278355376
 30
0.0
 10
1159.90725347847
 20
2107.132407467848
 30
0.0
 10
1160.022615863771
 20
2107.277089339679
 30
0.0
 10
1160.125438946902
 20
2107.353147569649
 30
0.0
 10
1160.212087312549
 20
2107.386609892621
 30
0.0
 10
1160.292760729488
 20
2107.338518087923
 30
0.0
 10
1160.3265656982
 20
2107.160357339415
 30
0.0
 10
1160.293084309599
 20
2106.868923812061
 30
0.0
 10
1160.210697864264
 20
2106.540666272099
 30
0.0
 10
1160.123273500632
 20
2106.231661521819
 30
0.0
 10
1160.019814082216
 20
2105.885218317454
 30
0.0
 10
1159.904284757194
 20
2105.504395478756
 30
0.0
 10
1159.79810415087
 20
2105.105311199162
 30
0.0
 10
1159.696592640977
 20
2104.684256907725
 30
0.0
 10
1159.630233929591
 20
2104.346042306721
 30
0.0
 10
1159.592363966526
 20
2104.109997373404
 30
0.0
  0
SPLINE
  5
31D
330
28C
100
AcDbEntity
  8
P-SANR-FIXT
100
AcDbSpline
210
0.0
220
0.0
230
1.0
 70
     8
 71
     3
 72
    23
 73
    19
 74
     0
 42
0.000000001
 43
0.0000000001
 40
-1.0
 40
-1.0
 40
-1.0
 40
-1.0
 40
-0.9166666666666666
 40
-0.875
 40
-0.8333333333333332
 40
-0.75
 40
-0.7083333333333333
 40
-0.6666666666666666
 40
-0.5833333333333333
 40
-0.5
 40
-0.4166666666666666
 40
-0.3333333333333333
 40
-0.2916666666666666
 40
-0.25
 40
-0.1666666666666666
 40
-0.125
 40
-0.0833333333333333
 40
0.0
 40
0.0
 40
0.0
 40
0.0
 10
1165.670200718827
 20
2100.509509579314
 30
0.0
 10
1165.757646057982
 20
2100.719660606392
 30
0.0
 10
1165.914147009889
 20
2101.008583706983
 30
0.0
 10
1166.173911380429
 20
2101.339086522358
 30
0.0
 10
1166.463479118437
 20
2101.631420626379
 30
0.0
 10
1166.8186513934
 20
2101.869016823379
 30
0.0
 10
1167.209158577912
 20
2102.042490722745
 30
0.0
 10
1167.598660255695
 20
2102.169976214891
 30
0.0
 10
1168.110990298338
 20
2102.238982088478
 30
0.0
 10
1168.717119608095
 20
2102.187186232203
 30
0.0
 10
1169.296847038912
 20
2102.003617409991
 30
0.0
 10
1169.734112756578
 20
2101.745436255235
 30
0.0
 10
1170.037382576755
 20
2101.479053519078
 30
0.0
 10
1170.324959374717
 20
2101.16896713073
 30
0.0
 10
1170.563719266718
 20
2100.812478067921
 30
0.0
 10
1170.745536100981
 20
2100.428329327982
 30
0.0
 10
1170.901427384385
 20
2100.018013161459
 30
0.0
 10
1170.989007091462
 20
2099.683988973321
 30
0.0
 10
1171.036517190777
 20
2099.449847633575
 30
0.0
  0
SPLINE
  5
31E
330
28C
100
AcDbEntity
  8
P-SANR-FIXT
100
AcDbSpline
210
0.0
220
0.0
230
1.0
 70
     8
 71
     3
 72
    23
 73
    19
 74
     0
 42
0.000000001
 43
0.0000000001
 40
-1.0
 40
-1.0
 40
-1.0
 40
-1.0
 40
-0.9166666666666666
 40
-0.875
 40
-0.8333333333333332
 40
-0.75
 40
-0.7083333333333333
 40
-0.6666666666666666
 40
-0.5833333333333333
 40
-0.5
 40
-0.4166666666666666
 40
-0.3333333333333333
 40
-0.2916666666666666
 40
-0.25
 40
-0.1666666666666666
 40
-0.125
 40
-0.0833333333333333
 40
0.0
 40
0.0
 40
0.0
 40
0.0
 10
1183.192190695379
 20
2099.449847633575
 30
0.0
 10
1183.240850026751
 20
2099.68687462683
 30
0.0
 10
1183.329958461244
 20
2100.024297088509
 30
0.0
 10
1183.487488086935
 20
2100.437201038871
 30
0.0
 10
1183.670579583045
 20
2100.822868997934
 30
0.0
 10
1183.910389472706
 20
2101.177953599044
 30
0.0
 10
1184.198073574088
 20
2101.485346826752
 30
0.0
 10
1184.500926886224
 20
2101.74954848903
 30
0.0
 10
1184.932583511928
 20
2102.004959088273
 30
0.0
 10
1185.504907852973
 20
2102.185867079245
 30
0.0
 10
1186.118116672391
 20
2102.237861916888
 30
0.0
 10
1186.637768835392
 20
2102.168638955081
 30
0.0
 10
1187.0284630192
 20
2102.039290113698
 30
0.0
 10
1187.419499235579
 20
2101.863206330476
 30
0.0
 10
1187.773788452601
 20
2101.623823960139
 30
0.0
 10
1188.061785893189
 20
2101.33244729416
 30
0.0
 10
1188.319188686486
 20
2101.003742416827
 30
0.0
 10
1188.473127104949
 20
2100.717409707225
 30
0.0
 10
1188.558507167328
 20
2100.509509579314
 30
0.0
  0
SPLINE
  5
31F
330
28C
100
AcDbEntity
  8
P-SANR-FIXT
100
AcDbSpline
210
0.0
220
0.0
230
1.0
 70
     8
 71
     3
 72
    23
 73
    19
 74
     0
 42
0.000000001
 43
0.0000000001
 40
-1.0
 40
-1.0
 40
-1.0
 40
-1.0
 40
-0.9166666666666666
 40
-0.875
 40
-0.8333333333333332
 40
-0.75
 40
-0.7083333333333333
 40
-0.6666666666666666
 40
-0.5833333333333333
 40
-0.5
 40
-0.4166666666666666
 40
-0.3333333333333333
 40
-0.2916666666666666
 40
-0.25
 40
-0.1666666666666666
 40
-0.125
 40
-0.0833333333333333
 40
0.0
 40
0.0
 40
0.0
 40
0.0
 10
1194.636343919628
 20
2104.109997373404
 30
0.0
 10
1194.597557911846
 20
2104.348974006666
 30
0.0
 10
1194.530165394432
 20
2104.690684611072
 30
0.0
 10
1194.427930649583
 20
2105.114507388403
 30
0.0
 10
1194.321454407686
 20
2105.515304210957
 30
0.0
 10
1194.206092022384
 20
2105.894962891011
 30
0.0
 10
1194.103268939254
 20
2106.238859777664
 30
0.0
 10
1194.016620573606
 20
2106.5457544409
 30
0.0
 10
1193.935947156667
 20
2106.870472087512
 30
0.0
 10
1193.902142187955
 20
2107.157719033499
 30
0.0
 10
1193.935623576556
 20
2107.337412825853
 30
0.0
 10
1194.018010021892
 20
2107.387071671793
 30
0.0
 10
1194.105434385523
 20
2107.352134711058
 30
0.0
 10
1194.208893803939
 20
2107.273696716948
 30
0.0
 10
1194.324423128961
 20
2107.127087263193
 30
0.0
 10
1194.430603735286
 20
2106.913547131519
 30
0.0
 10
1194.532115245178
 20
2106.655715418461
 30
0.0
 10
1194.598473956565
 20
2106.41288377453
 30
0.0
 10
1194.636343919629
 20
2106.229321264882
 30
0.0
  0
SPLINE
  5
320
330
28C
100
AcDbEntity
  8
P-SANR-FIXT
100
AcDbSpline
210
0.0
220
0.0
230
1.0
 70
     8
 71
     3
 72
     9
 73
     5
 74
     0
 42
0.000000001
 43
0.0000000001
 40
-1.0
 40
-1.0
 40
-1.0
 40
-1.0
 40
-0.5
 40
0.0
 40
0.0
 40
0.0
 40
0.0
 10
1171.036517190777
 20
2099.449847633575
 30
0.0
 10
1171.419297383579
 20
2097.232529646392
 30
0.0
 10
1171.92429803116
 20
2092.769515445731
 30
0.0
 10
1172.100380076734
 20
2088.312262231207
 30
0.0
 10
1172.150133701876
 20
2086.091216382977
 30
0.0
  0
ELLIPSE
  5
321
330
28C
100
AcDbEntity
  8
P-SANR-FIXT
100
AcDbEllipse
 10
1177.114353943078
 20
2092.81562899795
 30
0.0
 11
20.27789883965
 21
0.0
 31
0.0
210
0.0
220
0.0
230
1.0
 40
0.3420201433256575
 41
3.912514534744121
 42
4.465065874828654
  0
SPLINE
  5
322
330
28C
100
AcDbEntity
  8
P-SANR-FIXT
100
AcDbSpline
210
0.0
220
0.0
230
1.0
 70
     8
 71
     3
 72
     9
 73
     5
 74
     0
 42
0.000000001
 43
0.0000000001
 40
-1.0
 40
-1.0
 40
-1.0
 40
-1.0
 40
-0.5
 40
0.0
 40
0.0
 40
0.0
 40
0.0
 10
1162.569653614832
 20
2087.983029924578
 30
0.0
 10
1162.909193070487
 20
2090.127203850398
 30
0.0
 10
1163.760588743115
 20
2094.381565743888
 30
0.0
 10
1164.982309150293
 20
2098.50361224311
 30
0.0
 10
1165.670200718827
 20
2100.509509579314
 30
0.0
  0
SPLINE
  5
323
330
28C
100
AcDbEntity
  8
P-SANR-FIXT
100
AcDbSpline
210
0.0
220
0.0
230
1.0
 70
     8
 71
     3
 72
     9
 73
     5
 74
     0
 42
0.000000001
 43
0.0000000001
 40
-1.0
 40
-1.0
 40
-1.0
 40
-1.0
 40
-0.5
 40
0.0
 40
0.0
 40
0.0
 40
0.0
 10
1159.592363966526
 20
2104.109997373404
 30
0.0
 10
1159.287252590794
 20
2101.877342480495
 30
0.0
 10
1158.570532831198
 20
2097.456135483596
 30
0.0
 10
1157.895219204143
 20
2093.097463243894
 30
0.0
 10
1157.60543337363
 20
2090.923815456347
 30
0.0
  0
ELLIPSE
  5
324
330
28C
100
AcDbEntity
  8
P-SANR-FIXT
100
AcDbEllipse
 10
1177.114353943078
 20
2092.81562899795
 30
0.0
 11
20.27789883964999
 21
0.0
 31
0.0
210
0.0
220
0.0
230
1.0
 40
0.34202014332565
 41
2.865316983547522
 42
3.417868323632057
  0
SPLINE
  5
325
330
28C
100
AcDbEntity
  8
P-SANR-FIXT
100
AcDbSpline
210
0.0
220
0.0
230
1.0
 70
     8
 71
     3
 72
     9
 73
     5
 74
     0
 42
0.000000001
 43
0.0000000001
 40
-1.0
 40
-1.0
 40
-1.0
 40
-1.0
 40
-0.5
 40
0.0
 40
0.0
 40
0.0
 40
0.0
 10
1157.60543337363
 20
2094.707442539549
 30
0.0
 10
1157.895219204143
 20
2096.727346482275
 30
0.0
 10
1158.570532831198
 20
2100.680236079912
 30
0.0
 10
1159.287252590794
 20
2104.419507673934
 30
0.0
 10
1159.592363966527
 20
2106.229321264882
 30
0.0
  0
SPLINE
  5
326
330
28C
100
AcDbEntity
  8
P-SANR-FIXT
100
AcDbSpline
210
0.0
220
0.0
230
1.0
 70
     8
 71
     3
 72
     9
 73
     5
 74
     0
 42
0.000000001
 43
0.0000000001
 40
-1.0
 40
-1.0
 40
-1.0
 40
-1.0
 40
-0.5
 40
0.0
 40
0.0
 40
0.0
 40
0.0
 10
1194.636343919629
 20
2106.229321264882
 30
0.0
 10
1194.941455295361
 20
2104.419507673934
 30
0.0
 10
1195.658175054957
 20
2100.680236079912
 30
0.0
 10
1196.333488682012
 20
2096.727346482275
 30
0.0
 10
1196.623274512525
 20
2094.707442539549
 30
0.0
  0
ELLIPSE
  5
327
330
28C
100
AcDbEntity
  8
P-SANR-FIXT
100
AcDbEllipse
 10
1177.114353943078
 20
2092.81562899795
 30
0.0
 11
20.27789883964971
 21
0.0
 31
0.0
210
0.0
220
0.0
230
0.9999999999999998
 40
0.3420201433256547
 41
6.006909637137306
 42
6.559460977221855
  0
SPLINE
  5
328
330
28C
100
AcDbEntity
  8
P-SANR-FIXT
100
AcDbSpline
210
0.0
220
0.0
230
1.0
 70
     8
 71
     3
 72
     9
 73
     5
 74
     0
 42
0.000000001
 43
0.0000000001
 40
-1.0
 40
-1.0
 40
-1.0
 40
-1.0
 40
-0.5
 40
0.0
 40
0.0
 40
0.0
 40
0.0
 10
1196.623274512525
 20
2090.923815456347
 30
0.0
 10
1196.333488682012
 20
2093.097463243894
 30
0.0
 10
1195.658175054957
 20
2097.456135483596
 30
0.0
 10
1194.941455295361
 20
2101.877342480495
 30
0.0
 10
1194.636343919628
 20
2104.109997373404
 30
0.0
  0
SPLINE
  5
329
330
28C
100
AcDbEntity
  8
P-SANR-FIXT
100
AcDbSpline
210
0.0
220
0.0
230
1.0
 70
     8
 71
     3
 72
     9
 73
     5
 74
     0
 42
0.000000001
 43
0.0000000001
 40
-1.0
 40
-1.0
 40
-1.0
 40
-1.0
 40
-0.5
 40
0.0
 40
0.0
 40
0.0
 40
0.0
 10
1188.558507167328
 20
2100.509509579314
 30
0.0
 10
1189.246398735862
 20
2098.50361224311
 30
0.0
 10
1190.468119143039
 20
2094.381565743888
 30
0.0
 10
1191.319514815668
 20
2090.127203850398
 30
0.0
 10
1191.659054271323
 20
2087.983029924578
 30
0.0
  0
ELLIPSE
  5
32A
330
28C
100
AcDbEntity
  8
P-SANR-FIXT
100
AcDbEllipse
 10
1177.114353943078
 20
2092.81562899795
 30
0.0
 11
20.27789883964957
 21
0.0
 31
0.0
210
0.0
220
0.0
230
1.0
 40
0.3420201433256709
 41
4.959712085940721
 42
5.512263426025249
  0
SPLINE
  5
32B
330
28C
100
AcDbEntity
  8
P-SANR-FIXT
100
AcDbSpline
210
0.0
220
0.0
230
1.0
 70
     8
 71
     3
 72
     9
 73
     5
 74
     0
 42
0.000000001
 43
0.0000000001
 40
-1.0
 40
-1.0
 40
-1.0
 40
-1.0
 40
-0.5
 40
0.0
 40
0.0
 40
0.0
 40
0.0
 10
1182.078574184279
 20
2086.091216382977
 30
0.0
 10
1182.128327809421
 20
2088.312262231207
 30
0.0
 10
1182.304409854995
 20
2092.769515445731
 30
0.0
 10
1182.809410502577
 20
2097.232529646392
 30
0.0
 10
1183.192190695379
 20
2099.449847633575
 30
0.0
  0
ELLIPSE
  5
32C
330
28C
100
AcDbEntity
  8
P-SANR-FIXT
100
AcDbEllipse
 10
1153.315351738752
 20
2092.815628997948
 30
0.0
 11
6.999999999999978
 21
0.0
 31
0.0
210
0.0
220
0.0
230
1.0
 40
0.3420201433257153
 41
0.803737304492388
 42
0.9111102751725333
  0
ELLIPSE
  5
32D
330
28C
100
AcDbEntity
  8
P-SANR-FIXT
100
AcDbEllipse
 10
1200.913356147403
 20
2092.815628997948
 30
0.0
 11
7.000000000000122
 21
0.0
 31
0.0
210
0.0
220
0.0
230
1.0
 40
0.3420201433256635
 41
2.230482378417212
 42
2.337900536149755
  0
ELLIPSE
  5
32E
330
28C
100
AcDbEntity
  8
P-SANR-FIXT
100
AcDbEllipse
 10
1165.214852840915
 20
2085.766408984284
 30
0.0
 11
6.999999999999837
 21
0.0
 31
0.0
210
0.0
220
0.0
230
1.0
 40
0.3420201433257243
 41
0.1360872760241288
 42
1.958307826369161
  0
ELLIPSE
  5
32F
330
28C
100
AcDbEntity
  8
P-SANR-FIXT
100
AcDbEllipse
 10
1189.01385504524
 20
2085.766408984284
 30
0.0
 11
6.999999999999958
 21
0.0
 31
0.0
210
0.0
220
0.0
230
0.9999999999999998
 40
0.3420201433256804
 41
1.183284827220676
 42
3.005505377565647
  0
LINE
  5
330
330
28C
100
AcDbEntity
  8
P-SANR-FIXT
100
AcDbLine
 10
1147.114353943079
 20
2050.482558850025
 30
0.0
 11
1147.114353943079
 21
2030.255999823103
 31
0.0
  0
LINE
  5
331
330
28C
100
AcDbEntity
  8
P-SANR-FIXT
100
AcDbLine
 10
1207.11435394308
 20
2030.255999823103
 30
0.0
 11
1207.11435394308
 21
2050.482558850026
 31
0.0
  0
ELLIPSE
  5
332
330
28C
100
AcDbEntity
  8
P-SANR-FIXT
100
AcDbEllipse
 10
1177.114353943078
 20
2050.482558850024
 30
0.0
 11
30.00000000000046
 21
0.0
 31
0.0
210
0.0
220
0.0
230
1.0
 40
0.3420201433256679
 41
2.591813939211564
 42
4.712388980384675
  0
ELLIPSE
  5
333
330
28C
100
AcDbEntity
  8
P-SANR-FIXT
100
AcDbEllipse
 10
1177.114353943078
 20
2050.482558850024
 30
0.0
 11
30.00000000000059
 21
0.0
 31
0.0
210
0.0
220
0.0
230
1.0
 40
0.3420201433256667
 41
4.712388980384683
 42
6.832964021557812
  0
ELLIPSE
  5
334
330
28C
100
AcDbEntity
  8
P-SANR-FIXT
100
AcDbEllipse
 10
1177.114353943078
 20
2030.255999823102
 30
0.0
 11
30.00000000000046
 21
0.0
 31
0.0
210
0.0
220
0.0
230
1.0
 40
0.3420201433256603
 41
3.141592653589793
 42
4.712388980384668
  0
ELLIPSE
  5
335
330
28C
100
AcDbEntity
  8
P-SANR-FIXT
100
AcDbEllipse
 10
1177.114353943078
 20
2030.255999823102
 30
0.0
 11
30.00000000000068
 21
0.0
 31
0.0
210
0.0
220
0.0
230
1.0
 40
0.3420201433256578
 41
4.712388980384675
 42
6.283185307179586
  0
ELLIPSE
  5
336
330
28C
100
AcDbEntity
  8
P-SANR-FIXT
100
AcDbEllipse
 10
1177.114353943078
 20
2050.482558850024
 30
0.0
 11
26.50000000000046
 21
0.0
 31
0.0
210
0.0
220
0.0
230
1.0
 40
0.3420201433256645
 41
3.141592653589793
 42
3.220132469929539
  0
ELLIPSE
  5
337
330
28C
100
AcDbEntity
  8
P-SANR-FIXT
100
AcDbEllipse
 10
1177.114353943078
 20
2050.482558850024
 30
0.0
 11
26.50000000000042
 21
0.0
 31
0.0
210
0.0
220
0.0
230
1.0
 40
0.3420201433256664
 41
3.228878811265124
 42
3.298672286269249
  0
ELLIPSE
  5
338
330
28C
100
AcDbEntity
  8
P-SANR-FIXT
100
AcDbEllipse
 10
1177.114353943078
 20
2050.482558850024
 30
0.0
 11
26.50000000000058
 21
0.0
 31
0.0
210
0.0
220
0.0
230
1.0
 40
0.3420201433256581
 41
3.316200999598644
 42
3.403541746057441
  0
ELLIPSE
  5
339
330
28C
100
AcDbEntity
  8
P-SANR-FIXT
100
AcDbEllipse
 10
1177.114353943078
 20
2050.482558850024
 30
0.0
 11
26.50000000000052
 21
0.0
 31
0.0
210
0.0
220
0.0
230
1.0
 40
0.3420201433256602
 41
3.448259030027357
 42
3.47318331757771
  0
ELLIPSE
  5
33A
330
28C
100
AcDbEntity
  8
P-SANR-FIXT
100
AcDbEllipse
 10
1177.114353943078
 20
2050.482558850024
 30
0.0
 11
26.50000000000046
 21
0.0
 31
0.0
210
0.0
220
0.0
230
0.9999999999999998
 40
0.3420201433256524
 41
3.489003038765138
 42
3.576600991166879
  0
ELLIPSE
  5
33B
330
28C
100
AcDbEntity
  8
P-SANR-FIXT
100
AcDbEllipse
 10
1177.114353943078
 20
2050.482558850024
 30
0.0
 11
26.5000000000003
 21
0.0
 31
0.0
210
0.0
220
0.0
230
1.0
 40
0.3420201433256629
 41
3.612831551628256
 42
3.664238191069555
  0
ELLIPSE
  5
33C
330
28C
100
AcDbEntity
  8
P-SANR-FIXT
100
AcDbEllipse
 10
1177.114353943078
 20
2050.482558850024
 30
0.0
 11
26.50000000000046
 21
0.0
 31
0.0
210
0.0
220
0.0
230
1.0
 40
0.3420201433256622
 41
3.691371367967981
 42
3.751886635312581
  0
ELLIPSE
  5
33D
330
28C
100
AcDbEntity
  8
P-SANR-FIXT
100
AcDbEllipse
 10
1177.114353943078
 20
2050.482558850024
 30
0.0
 11
26.50000000000027
 21
0.0
 31
0.0
210
0.0
220
0.0
230
1.0
 40
0.3420201433256699
 41
3.753449793095095
 42
3.839527964422362
  0
ELLIPSE
  5
33E
330
28C
100
AcDbEntity
  8
P-SANR-FIXT
100
AcDbEllipse
 10
1177.114353943078
 20
2050.482558850024
 30
0.0
 11
26.50000000000044
 21
0.0
 31
0.0
210
0.0
220
0.0
230
1.0
 40
0.3420201433256693
 41
3.848451000647475
 42
4.005530633326953
  0
ELLIPSE
  5
33F
330
28C
100
AcDbEntity
  8
P-SANR-FIXT
100
AcDbEllipse
 10
1177.114353943078
 20
2050.482558850024
 30
0.0
 11
26.50000000000041
 21
0.0
 31
0.0
210
0.0
220
0.0
230
1.0
 40
0.342020143325658
 41
4.014137679640689
 42
4.162610266006469
  0
ELLIPSE
  5
340
330
28C
100
AcDbEntity
  8
P-SANR-FIXT
100
AcDbEllipse
 10
1177.114353943078
 20
2050.482558850024
 30
0.0
 11
26.50000000000048
 21
0.0
 31
0.0
210
0.0
220
0.0
230
1.0
 40
0.3420201433256532
 41
4.188489909098498
 42
4.259240398992663
  0
ELLIPSE
  5
341
330
28C
100
AcDbEntity
  8
P-SANR-FIXT
100
AcDbEllipse
 10
1177.114353943078
 20
2050.482558850024
 30
0.0
 11
26.50000000000045
 21
0.0
 31
0.0
210
0.0
220
0.0
230
0.9999999999999998
 40
0.3420201433256599
 41
4.275774743113389
 42
4.363098328249133
  0
ELLIPSE
  5
342
330
28C
100
AcDbEntity
  8
P-SANR-FIXT
100
AcDbEllipse
 10
1177.114353943078
 20
2050.482558850024
 30
0.0
 11
26.50000000000046
 21
0.0
 31
0.0
210
0.0
220
0.0
230
1.0
 40
0.342020143325666
 41
4.370335964743166
 42
4.450439887918607
  0
ELLIPSE
  5
343
330
28C
100
AcDbEntity
  8
P-SANR-FIXT
100
AcDbEllipse
 10
1177.114353943078
 20
2050.482558850024
 30
0.0
 11
26.50000000000027
 21
0.0
 31
0.0
210
0.0
220
0.0
230
0.9999999999999998
 40
0.3420201433256627
 41
4.476769531365439
 42
4.625102822710815
  0
ELLIPSE
  5
344
330
28C
100
AcDbEntity
  8
P-SANR-FIXT
100
AcDbEllipse
 10
1177.114353943078
 20
2050.482558850024
 30
0.0
 11
26.50000000000043
 21
0.0
 31
0.0
210
0.0
220
0.0
230
1.0
 40
0.3420201433256593
 41
4.633849164044922
 42
4.712388980384674
  0
ELLIPSE
  5
345
330
28C
100
AcDbEntity
  8
P-SANR-FIXT
100
AcDbEllipse
 10
1177.114353943078
 20
2050.482558850024
 30
0.0
 11
26.50000000000046
 21
0.0
 31
0.0
210
0.0
220
0.0
230
1.0
 40
0.3420201433256645
 41
4.712388980384674
 42
4.79092879672442
  0
ELLIPSE
  5
346
330
28C
100
AcDbEntity
  8
P-SANR-FIXT
100
AcDbEllipse
 10
1177.114353943078
 20
2050.482558850024
 30
0.0
 11
26.50000000000055
 21
0.0
 31
0.0
210
0.0
220
0.0
230
0.9999999999999998
 40
0.342020143325654
 41
4.799675138058522
 42
4.948008429403905
  0
ELLIPSE
  5
347
330
28C
100
AcDbEntity
  8
P-SANR-FIXT
100
AcDbEllipse
 10
1177.114353943078
 20
2050.482558850024
 30
0.0
 11
26.50000000000045
 21
0.0
 31
0.0
210
0.0
220
0.0
230
0.9999999999999998
 40
0.3420201433256605
 41
4.974338072850738
 42
5.054441996026178
  0
ELLIPSE
  5
348
330
28C
100
AcDbEntity
  8
P-SANR-FIXT
100
AcDbEllipse
 10
1177.114353943078
 20
2050.482558850024
 30
0.0
 11
26.50000000000043
 21
0.0
 31
0.0
210
0.0
220
0.0
230
1.0
 40
0.3420201433256662
 41
5.061679632520206
 42
5.149003217655968
  0
ELLIPSE
  5
349
330
28C
100
AcDbEntity
  8
P-SANR-FIXT
100
AcDbEllipse
 10
1177.114353943078
 20
2050.482558850024
 30
0.0
 11
26.50000000000046
 21
0.0
 31
0.0
210
0.0
220
0.0
230
0.9999999999999998
 40
0.3420201433256651
 41
5.179768456027978
 42
5.236288051670848
  0
ELLIPSE
  5
34A
330
28C
100
AcDbEntity
  8
P-SANR-FIXT
100
AcDbEllipse
 10
1177.114353943078
 20
2050.482558850024
 30
0.0
 11
26.50000000000038
 21
0.0
 31
0.0
210
0.0
220
0.0
230
1.0
 40
0.3420201433256722
 41
5.262167694762901
 42
5.323510104575665
  0
ELLIPSE
  5
34B
330
28C
100
AcDbEntity
  8
P-SANR-FIXT
100
AcDbEllipse
 10
1177.114353943078
 20
2050.482558850024
 30
0.0
 11
26.50000000000041
 21
0.0
 31
0.0
210
0.0
220
0.0
230
1.0
 40
0.3420201433256681
 41
5.328155299370979
 42
5.410640281128691
  0
ELLIPSE
  5
34C
330
28C
100
AcDbEntity
  8
P-SANR-FIXT
100
AcDbEllipse
 10
1177.114353943078
 20
2050.482558850024
 30
0.0
 11
26.50000000000044
 21
0.0
 31
0.0
210
0.0
220
0.0
230
1.0
 40
0.3420201433256617
 41
5.419247327442395
 42
5.576326960121875
  0
ELLIPSE
  5
34D
330
28C
100
AcDbEntity
  8
P-SANR-FIXT
100
AcDbEllipse
 10
1177.114353943078
 20
2050.482558850024
 30
0.0
 11
26.50000000000043
 21
0.0
 31
0.0
210
0.0
220
0.0
230
1.0
 40
0.3420201433256705
 41
5.58524999634698
 42
5.65486677646164
  0
ELLIPSE
  5
34E
330
28C
100
AcDbEntity
  8
P-SANR-FIXT
100
AcDbEllipse
 10
1177.114353943078
 20
2050.482558850024
 30
0.0
 11
26.5000000000005
 21
0.0
 31
0.0
210
0.0
220
0.0
230
0.9999999999999998
 40
0.3420201433256659
 41
5.67289132545679
 42
5.733406592801386
  0
ELLIPSE
  5
34F
330
28C
100
AcDbEntity
  8
P-SANR-FIXT
100
AcDbEllipse
 10
1177.114353943078
 20
2050.482558850024
 30
0.0
 11
26.50000000000062
 21
0.0
 31
0.0
210
0.0
220
0.0
230
1.0
 40
0.3420201433256663
 41
5.760539769699811
 42
5.81194640914111
  0
ELLIPSE
  5
350
330
28C
100
AcDbEntity
  8
P-SANR-FIXT
100
AcDbEllipse
 10
1177.114353943078
 20
2050.482558850024
 30
0.0
 11
26.5000000000006
 21
0.0
 31
0.0
210
0.0
220
0.0
230
1.0
 40
0.3420201433256728
 41
5.84817696960251
 42
5.890486225480862
  0
ELLIPSE
  5
351
330
28C
100
AcDbEntity
  8
P-SANR-FIXT
100
AcDbEllipse
 10
1177.114353943078
 20
2050.482558850024
 30
0.0
 11
26.50000000000041
 21
0.0
 31
0.0
210
0.0
220
0.0
230
1.0
 40
0.3420201433256693
 41
5.935774922004241
 42
5.994410560159554
  0
ELLIPSE
  5
352
330
28C
100
AcDbEntity
  8
P-SANR-FIXT
100
AcDbEllipse
 10
1177.114353943078
 20
2050.482558850024
 30
0.0
 11
26.50000000000045
 21
0.0
 31
0.0
210
0.0
220
0.0
230
0.9999999999999998
 40
0.3420201433256778
 41
6.021236214711937
 42
6.10857696117073
  0
ELLIPSE
  5
353
330
28C
100
AcDbEntity
  8
P-SANR-FIXT
100
AcDbEllipse
 10
1177.114353943078
 20
2050.482558850024
 30
0.0
 11
26.50000000000042
 21
0.0
 31
0.0
210
0.0
220
0.0
230
1.0
 40
0.3420201433256649
 41
6.126105674500066
 42
6.195899149504191
  0
ELLIPSE
  5
354
330
28C
100
AcDbEntity
  8
P-SANR-FIXT
100
AcDbEllipse
 10
1177.114353943078
 20
2050.482558850024
 30
0.0
 11
26.50000000000041
 21
0.0
 31
0.0
210
0.0
220
0.0
230
1.0
 40
0.3420201433256766
 41
6.204645490839829
 42
6.283185307179586
  0
ARC
  5
355
330
28C
100
AcDbEntity
  8
P-SANR-FIXT
100
AcDbCircle
 10
1177.114353943077
 20
1999.982558850011
 30
0.0
 40
11.79999999999973
100
AcDbArc
 50
90.0
 51
269.9999999999997
  0
ARC
  5
356
330
28C
100
AcDbEntity
  8
P-SANR-FIXT
100
AcDbCircle
 10
1177.114353943077
 20
1999.982558850011
 30
0.0
 40
11.79999999999995
100
AcDbArc
 50
269.9999999999997
 51
89.99999999999889
  0
SPLINE
  5
357
330
28C
100
AcDbEntity
  8
P-SANR-FIXT
100
AcDbSpline
210
0.0
220
0.0
230
1.0
 70
     8
 71
     3
 72
    10
 73
     6
 74
     0
 42
0.000000001
 43
0.0000000001
 40
0.0
 40
0.0
 40
0.0
 40
0.0
 40
0.4
 40
0.7
 40
1.0
 40
1.0
 40
1.0
 40
1.0
 10
1189.364353943139
 20
2010.230526128128
 30
0.0
 10
1190.021782746896
 20
2009.850959431306
 30
0.0
 10
1191.0468297173
 20
2008.934984506551
 30
0.0
 10
1191.93666807304
 20
2007.183809715703
 30
0.0
 10
1192.114353943139
 20
2006.035562202293
 30
0.0
 10
1192.114353943139
 20
2005.467386407314
 30
0.0
  0
SPLINE
  5
358
330
28C
100
AcDbEntity
  8
P-SANR-FIXT
100
AcDbSpline
210
0.0
220
0.0
230
1.0
 70
    24
 71
     3
 72
     9
 73
     5
 74
     0
 42
0.000000001
 43
0.0000000001
 40
0.0
 40
0.0
 40
0.0
 40
0.0
 40
0.5
 40
1.0
 40
1.0
 40
1.0
 40
1.0
 10
1192.114353943139
 20
2005.467386407314
 30
0.0
 10
1192.114353943139
 20
2003.610718893285
 30
0.0
 10
1192.114353943139
 20
1999.925775526821
 30
0.0
 10
1192.114353943139
 20
1996.297615483548
 30
0.0
 10
1192.114353943139
 20
1994.497731292708
 30
0.0
  0
SPLINE
  5
359
330
28C
100
AcDbEntity
  8
P-SANR-FIXT
100
AcDbSpline
210
0.0
220
0.0
230
1.0
 70
     8
 71
     3
 72
    10
 73
     6
 74
     0
 42
0.000000001
 43
0.0000000001
 40
0.0
 40
0.0
 40
0.0
 40
0.0
 40
0.4
 40
0.7
 40
1.0
 40
1.0
 40
1.0
 40
1.0
 10
1192.114353943139
 20
1994.497731292708
 30
0.0
 10
1192.114353943139
 20
1993.738597899063
 30
0.0
 10
1191.833619874273
 20
1992.392893720244
 30
0.0
 10
1190.761977196802
 20
1990.746683703487
 30
0.0
 10
1189.856408615407
 20
1990.018679469383
 30
0.0
 10
1189.364353943139
 20
1989.734591571894
 30
0.0
  0
SPLINE
  5
35A
330
28C
100
AcDbEntity
  8
P-SANR-FIXT
100
AcDbSpline
210
0.0
220
0.0
230
1.0
 70
    24
 71
     3
 72
     9
 73
     5
 74
     0
 42
0.000000001
 43
0.0000000001
 40
0.0
 40
0.0
 40
0.0
 40
0.0
 40
0.5
 40
1.0
 40
1.0
 40
1.0
 40
1.0
 10
1189.364353943139
 20
1989.734591571894
 30
0.0
 10
1187.756432709609
 20
1988.806257814879
 30
0.0
 10
1184.565178142745
 20
1986.963786131648
 30
0.0
 10
1181.423099376274
 20
1985.149706110011
 30
0.0
 10
1179.864353943137
 20
1984.249764014591
 30
0.0
  0
SPLINE
  5
35B
330
28C
100
AcDbEntity
  8
P-SANR-FIXT
100
AcDbSpline
210
0.0
220
0.0
230
1.0
 70
     8
 71
     3
 72
     9
 73
     5
 74
     0
 42
0.000000001
 43
0.0000000001
 40
0.0
 40
0.0
 40
0.0
 40
0.0
 40
0.5
 40
1.0
 40
1.0
 40
1.0
 40
1.0
 10
1179.864353943137
 20
1984.249764014591
 30
0.0
 10
1179.453188885116
 20
1984.012377757661
 30
0.0
 10
1178.56441206718
 20
1983.642025455554
 30
0.0
 10
1177.599512517835
 20
1983.5129037354
 30
0.0
 10
1177.114353943077
 20
1983.512903735405
 30
0.0
  0
SPLINE
  5
35C
330
28C
100
AcDbEntity
  8
P-SANR-FIXT
100
AcDbSpline
210
0.0
220
0.0
230
1.0
 70
     8
 71
     3
 72
     9
 73
     5
 74
     0
 42
0.000000001
 43
0.0000000001
 40
0.0
 40
0.0
 40
0.0
 40
0.0
 40
0.5
 40
1.0
 40
1.0
 40
1.0
 40
1.0
 10
1177.114353943077
 20
1983.512903735405
 30
0.0
 10
1176.629195368341
 20
1983.51290373541
 30
0.0
 10
1175.664295819038
 20
1983.642025455574
 30
0.0
 10
1174.775519001141
 20
1984.012377757671
 30
0.0
 10
1174.364353943137
 20
1984.249764014591
 30
0.0
  0
SPLINE
  5
35D
330
28C
100
AcDbEntity
  8
P-SANR-FIXT
100
AcDbSpline
210
0.0
220
0.0
230
1.0
 70
    24
 71
     3
 72
     9
 73
     5
 74
     0
 42
0.000000001
 43
0.0000000001
 40
0.0
 40
0.0
 40
0.0
 40
0.0
 40
0.5
 40
1.0
 40
1.0
 40
1.0
 40
1.0
 10
1174.364353943137
 20
1984.249764014591
 30
0.0
 10
1172.756432709607
 20
1985.178097771606
 30
0.0
 10
1169.565178142742
 20
1987.020569454837
 30
0.0
 10
1166.423099376271
 20
1988.834649476473
 30
0.0
 10
1164.864353943134
 20
1989.734591571894
 30
0.0
  0
SPLINE
  5
35E
330
28C
100
AcDbEntity
  8
P-SANR-FIXT
100
AcDbSpline
210
0.0
220
0.0
230
1.0
 70
     8
 71
     3
 72
    10
 73
     6
 74
     0
 42
0.000000001
 43
0.0000000001
 40
0.0
 40
0.0
 40
0.0
 40
0.0
 40
0.4
 40
0.7
 40
1.0
 40
1.0
 40
1.0
 40
1.0
 10
1164.864353943134
 20
1989.734591571894
 30
0.0
 10
1164.206925139377
 20
1990.114158268716
 30
0.0
 10
1163.181878168974
 20
1991.03013319347
 30
0.0
 10
1162.292039813233
 20
1992.781307984319
 30
0.0
 10
1162.114353943134
 20
1993.929555497728
 30
0.0
 10
1162.114353943134
 20
1994.497731292708
 30
0.0
  0
SPLINE
  5
35F
330
28C
100
AcDbEntity
  8
P-SANR-FIXT
100
AcDbSpline
210
0.0
220
0.0
230
1.0
 70
    24
 71
     3
 72
     9
 73
     5
 74
     0
 42
0.000000001
 43
0.0000000001
 40
0.0
 40
0.0
 40
0.0
 40
0.0
 40
0.5
 40
1.0
 40
1.0
 40
1.0
 40
1.0
 10
1162.114353943134
 20
1994.497731292708
 30
0.0
 10
1162.114353943134
 20
1996.354398806737
 30
0.0
 10
1162.114353943134
 20
2000.039342173201
 30
0.0
 10
1162.114353943134
 20
2003.667502216474
 30
0.0
 10
1162.114353943134
 20
2005.467386407314
 30
0.0
  0
SPLINE
  5
360
330
28C
100
AcDbEntity
  8
P-SANR-FIXT
100
AcDbSpline
210
0.0
220
0.0
230
1.0
 70
     8
 71
     3
 72
    10
 73
     6
 74
     0
 42
0.000000001
 43
0.0000000001
 40
0.0
 40
0.0
 40
0.0
 40
0.0
 40
0.4
 40
0.7
 40
1.0
 40
1.0
 40
1.0
 40
1.0
 10
1162.114353943134
 20
2005.467386407314
 30
0.0
 10
1162.114353943134
 20
2006.226519800959
 30
0.0
 10
1162.395088012
 20
2007.572223979777
 30
0.0
 10
1163.466730689471
 20
2009.218433996534
 30
0.0
 10
1164.372299270866
 20
2009.946438230638
 30
0.0
 10
1164.864353943134
 20
2010.230526128128
 30
0.0
  0
SPLINE
  5
361
330
28C
100
AcDbEntity
  8
P-SANR-FIXT
100
AcDbSpline
210
0.0
220
0.0
230
1.0
 70
    24
 71
     3
 72
     9
 73
     5
 74
     0
 42
0.000000001
 43
0.0000000001
 40
0.0
 40
0.0
 40
0.0
 40
0.0
 40
0.5
 40
1.0
 40
1.0
 40
1.0
 40
1.0
 10
1164.864353943134
 20
2010.230526128128
 30
0.0
 10
1166.472275176665
 20
2011.158859885142
 30
0.0
 10
1169.66352974353
 20
2013.001331568375
 30
0.0
 10
1172.80560851
 20
2014.815411590011
 30
0.0
 10
1174.364353943137
 20
2015.715353685431
 30
0.0
  0
SPLINE
  5
362
330
28C
100
AcDbEntity
  8
P-SANR-FIXT
100
AcDbSpline
210
0.0
220
0.0
230
1.0
 70
     8
 71
     3
 72
     9
 73
     5
 74
     0
 42
0.000000001
 43
0.0000000001
 40
0.0
 40
0.0
 40
0.0
 40
0.0
 40
0.5
 40
1.0
 40
1.0
 40
1.0
 40
1.0
 10
1174.364353943137
 20
2015.715353685431
 30
0.0
 10
1174.775519001141
 20
2015.952739942351
 30
0.0
 10
1175.664295819038
 20
2016.323092244447
 30
0.0
 10
1176.629195368341
 20
2016.452213964611
 30
0.0
 10
1177.114353943077
 20
2016.452213964616
 30
0.0
  0
SPLINE
  5
363
330
28C
100
AcDbEntity
  8
P-SANR-FIXT
100
AcDbSpline
210
0.0
220
0.0
230
1.0
 70
     8
 71
     3
 72
     9
 73
     5
 74
     0
 42
0.000000001
 43
0.0000000001
 40
0.0
 40
0.0
 40
0.0
 40
0.0
 40
0.5
 40
1.0
 40
1.0
 40
1.0
 40
1.0
 10
1177.114353943077
 20
2016.452213964616
 30
0.0
 10
1177.599512517835
 20
2016.452213964622
 30
0.0
 10
1178.56441206718
 20
2016.323092244467
 30
0.0
 10
1179.453188885116
 20
2015.95273994236
 30
0.0
 10
1179.864353943137
 20
2015.715353685431
 30
0.0
  0
SPLINE
  5
364
330
28C
100
AcDbEntity
  8
P-SANR-FIXT
100
AcDbSpline
210
0.0
220
0.0
230
1.0
 70
    24
 71
     3
 72
     9
 73
     5
 74
     0
 42
0.000000001
 43
0.0000000001
 40
0.0
 40
0.0
 40
0.0
 40
0.0
 40
0.5
 40
1.0
 40
1.0
 40
1.0
 40
1.0
 10
1179.864353943137
 20
2015.715353685431
 30
0.0
 10
1181.423099376274
 20
2014.815411590011
 30
0.0
 10
1184.565178142745
 20
2013.001331568374
 30
0.0
 10
1187.756432709609
 20
2011.158859885142
 30
0.0
 10
1189.364353943139
 20
2010.230526128128
 30
0.0
  0
ARC
  5
365
330
28C
100
AcDbEntity
  8
P-SANR-FIXT
100
AcDbCircle
 10
1177.114353943077
 20
1999.982558850011
 30
0.0
 40
9.350000000000363
100
AcDbArc
 50
90.0
 51
269.9999999999997
  0
ARC
  5
366
330
28C
100
AcDbEntity
  8
P-SANR-FIXT
100
AcDbCircle
 10
1177.114353943077
 20
1999.982558850011
 30
0.0
 40
9.350000000000136
100
AcDbArc
 50
269.9999999999997
 51
90.0
  0
ARC
  5
367
330
28C
100
AcDbEntity
  8
P-SANR-FIXT
100
AcDbCircle
 10
1177.114353943077
 20
1999.982558850011
 30
0.0
 40
10.65000000000054
100
AcDbArc
 50
90.00000000000122
 51
269.9999999999997
  0
ARC
  5
368
330
28C
100
AcDbEntity
  8
P-SANR-FIXT
100
AcDbCircle
 10
1177.114353943077
 20
1999.982558850011
 30
0.0
 40
10.65000000000032
100
AcDbArc
 50
269.9999999999997
 51
90.0
  0
LINE
  5
369
330
28C
100
AcDbEntity
  8
P-SANR-FIXT
100
AcDbLine
 10
1172.614353943079
 20
2017.907121048516
 30
0.0
 11
1172.614353943079
 21
2014.704990714315
 31
0.0
  0
LINE
  5
36A
330
28C
100
AcDbEntity
  8
P-SANR-FIXT
100
AcDbLine
 10
1181.614353943079
 20
2014.704990714383
 30
0.0
 11
1181.614353943079
 21
2017.907121048583
 31
0.0
  0
LWPOLYLINE
  5
36B
330
28C
100
AcDbEntity
  8
P-SANR-FIXT
100
AcDbPolyline
 90
       39
 70
   128
 43
0.0
 10
1158.799160784975
 20
1987.507827881018
 10
1158.997323700289
 20
1986.797827007395
 10
1159.25963281869
 20
1986.137868941106
 10
1159.571824718931
 20
1985.534222596442
 10
1159.920841980153
 20
1984.987733384809
 10
1160.296094310955
 20
1984.495484095952
 10
1160.689777891704
 20
1984.05246445934
 10
1161.09660549886
 20
1983.652866012617
 10
1161.513287055925
 20
1983.290919182228
 10
1161.937981886166
 20
1982.961348147115
 10
1162.36982874611
 20
1982.659562997929
 10
1162.808584722208
 20
1982.3816949553
 10
1163.254366630842
 20
1982.124549775725
 10
1163.707475006758
 20
1981.885526104084
 10
1164.168279244315
 20
1981.662525000855
 10
1164.637145687379
 20
1981.453863830632
 10
1165.114394796603
 20
1981.25820012749
 10
1165.600277452932
 20
1981.074466991427
 10
1166.094963543328
 20
1980.90181958328
 10
1166.598538227384
 20
1980.739591448638
 10
1167.111002857363
 20
1980.587259162788
 10
1167.632278593723
 20
1980.444413837236
 10
1168.162211471283
 20
1980.310738196213
 10
1168.700578140019
 20
1980.185988133603
 10
1169.247091809188
 20
1980.06997785648
 10
1169.801408119301
 20
1979.962567894409
 10
1170.363130790886
 20
1979.863655399231
 10
1170.931816976811
 20
1979.773166279073
 10
1171.506982292703
 20
1979.691048806047
 10
1172.08810552846
 20
1979.617268413313
 10
1172.674633060071
 20
1979.551803457505
 10
1173.265982989484
 20
1979.494641770176
 10
1173.861549044167
 20
1979.445777859632
 10
1174.460704269029
 20
1979.405210654373
 10
1175.062804542956
 20
1979.372941703258
 10
1175.667191950898
 20
1979.348973766649
 10
1176.273198040993
 20
1979.333309748467
 10
1176.880146994636
 20
1979.325951932058
 10
1177.114353943079
 20
1979.32533399983
  0
LINE
  5
36C
330
28C
100
AcDbEntity
  8
P-SANR-FIXT
100
AcDbLine
 10
1195.429547101184
 20
1987.507827881017
 30
0.0
 11
1195.383207611772
 21
1987.341797431205
 31
0.0
  0
LWPOLYLINE
  5
36D
330
28C
100
AcDbEntity
  8
P-SANR-FIXT
100
AcDbPolyline
 90
       39
 70
   128
 43
0.0
 10
1195.375541982079
 20
1987.314332131907
 10
1195.23138418587
 20
1986.797827007395
 10
1194.969075067469
 20
1986.137868941106
 10
1194.656883167228
 20
1985.534222596442
 10
1194.307865906005
 20
1984.987733384809
 10
1193.932613575204
 20
1984.495484095952
 10
1193.538929994454
 20
1984.05246445934
 10
1193.132102387299
 20
1983.652866012617
 10
1192.715420830234
 20
1983.290919182228
 10
1192.290725999993
 20
1982.961348147115
 10
1191.858879140048
 20
1982.659562997929
 10
1191.42012316395
 20
1982.3816949553
 10
1190.974341255317
 20
1982.124549775725
 10
1190.5212328794
 20
1981.885526104084
 10
1190.060428641843
 20
1981.662525000855
 10
1189.591562198779
 20
1981.453863830632
 10
1189.114313089556
 20
1981.25820012749
 10
1188.628430433226
 20
1981.074466991427
 10
1188.13374434283
 20
1980.90181958328
 10
1187.630169658774
 20
1980.739591448638
 10
1187.117705028796
 20
1980.587259162788
 10
1186.596429292435
 20
1980.444413837236
 10
1186.066496414875
 20
1980.310738196213
 10
1185.528129746139
 20
1980.185988133603
 10
1184.981616076971
 20
1980.06997785648
 10
1184.427299766858
 20
1979.962567894409
 10
1183.865577095272
 20
1979.863655399231
 10
1183.296890909347
 20
1979.773166279073
 10
1182.721725593456
 20
1979.691048806047
 10
1182.140602357698
 20
1979.617268413313
 10
1181.554074826088
 20
1979.551803457505
 10
1180.962724896675
 20
1979.494641770176
 10
1180.367158841992
 20
1979.445777859632
 10
1179.768003617129
 20
1979.405210654373
 10
1179.165903343202
 20
1979.372941703258
 10
1178.56151593526
 20
1979.348973766649
 10
1177.955509845166
 20
1979.333309748467
 10
1177.348560891522
 20
1979.325951932058
 10
1177.114353943079
 20
1979.32533399983
  0
LWPOLYLINE
  5
36E
330
28C
100
AcDbEntity
  8
P-SANR-FIXT
100
AcDbPolyline
 90
        3
 70
   128
 43
0.0
 10
1154.840216090965
 20
2023.393197698324
 10
1155.564004515437
 20
2007.491481933788
 10
1158.799160784975
 20
1987.507827881019
  0
LWPOLYLINE
  5
36F
330
28C
100
AcDbEntity
  8
P-SANR-FIXT
100
AcDbPolyline
 90
        3
 70
   128
 43
0.0
 10
1199.388491795193
 20
2023.393197698325
 10
1198.664703370721
 20
2007.491481933782
 10
1195.429547101183
 20
1987.507827881012
  0
ELLIPSE
  5
370
330
28C
100
AcDbEntity
  8
P-SANR-FIXT
100
AcDbEllipse
 10
1177.114353943078
 20
2050.482558850011
 30
0.0
 11
26.49599757301503
 21
0.0
 31
0.0
210
0.0
220
0.0
230
1.0
 40
0.3420201433256728
 41
3.220163288140345
 42
3.228859116189517
  0
ELLIPSE
  5
371
330
28C
100
AcDbEntity
  8
P-SANR-FIXT
100
AcDbEllipse
 10
1177.114353943078
 20
2050.482558850011
 30
0.0
 11
26.49599757301517
 21
0.0
 31
0.0
210
0.0
220
0.0
230
0.9999999999999998
 40
0.3420201433256679
 41
3.298781661393787
 42
3.333644385785877
  0
ELLIPSE
  5
372
330
28C
100
AcDbEntity
  8
P-SANR-FIXT
100
AcDbEllipse
 10
1177.114353943078
 20
2050.482558850011
 30
0.0
 11
26.49599757301502
 21
0.0
 31
0.0
210
0.0
220
0.0
230
1.0
 40
0.3420201433256707
 41
3.377430182242107
 42
3.42089517221159
  0
ELLIPSE
  5
373
330
28C
100
AcDbEntity
  8
P-SANR-FIXT
100
AcDbEllipse
 10
1177.114353943078
 20
2050.482558850011
 30
0.0
 11
26.49599757301518
 21
0.0
 31
0.0
210
0.0
220
0.0
230
1.0
 40
0.3420201433256709
 41
3.456091718490551
 42
3.506213770773851
  0
ELLIPSE
  5
374
330
28C
100
AcDbEntity
  8
P-SANR-FIXT
100
AcDbEllipse
 10
1177.114353943078
 20
2050.482558850011
 30
0.0
 11
26.49599757301506
 21
0.0
 31
0.0
210
0.0
220
0.0
230
1.0
 40
0.3420201433256753
 41
3.665191429188082
 42
3.689871605045072
  0
ELLIPSE
  5
375
330
28C
100
AcDbEntity
  8
P-SANR-FIXT
100
AcDbEllipse
 10
1177.114353943078
 20
2050.482558850011
 30
0.0
 11
26.49599757301513
 21
0.0
 31
0.0
210
0.0
220
0.0
230
0.9999999999999998
 40
0.3420201433256762
 41
3.752457891787795
 42
4.083496285142549
  0
ELLIPSE
  5
376
330
28C
100
AcDbEntity
  8
P-SANR-FIXT
100
AcDbEllipse
 10
1177.114353943078
 20
2050.482558850011
 30
0.0
 11
26.49599757301528
 21
0.0
 31
0.0
210
0.0
220
0.0
230
1.0
 40
0.3420201433256742
 41
4.101523742186655
 42
4.16201182333668
  0
ELLIPSE
  5
377
330
28C
100
AcDbEntity
  8
P-SANR-FIXT
100
AcDbEllipse
 10
1177.114353943078
 20
2050.482558850011
 30
0.0
 11
26.49599757301523
 21
0.0
 31
0.0
210
0.0
220
0.0
230
1.0
 40
0.3420201433256774
 41
4.188790204786362
 42
4.240599608327318
  0
ELLIPSE
  5
378
330
28C
100
AcDbEntity
  8
P-SANR-FIXT
100
AcDbEllipse
 10
1177.114353943078
 20
2050.482558850011
 30
0.0
 11
26.49599757301518
 21
0.0
 31
0.0
210
0.0
220
0.0
230
1.0
 40
0.342020143325665
 41
4.259124827390532
 42
4.319232943988022
  0
ELLIPSE
  5
379
330
28C
100
AcDbEntity
  8
P-SANR-FIXT
100
AcDbEllipse
 10
1177.114353943078
 20
2050.482558850011
 30
0.0
 11
26.49599757301511
 21
0.0
 31
0.0
210
0.0
220
0.0
230
1.0
 40
0.3420201433256702
 41
4.36332312998579
 42
4.396122871732352
  0
ELLIPSE
  5
37A
330
28C
100
AcDbEntity
  8
P-SANR-FIXT
100
AcDbEllipse
 10
1177.114353943078
 20
2050.482558850011
 30
0.0
 11
26.49599757301516
 21
0.0
 31
0.0
210
0.0
220
0.0
230
1.0
 40
0.3420201433256735
 41
4.397889915481627
 42
4.450589592585513
  0
ELLIPSE
  5
37B
330
28C
100
AcDbEntity
  8
P-SANR-FIXT
100
AcDbEllipse
 10
1177.114353943078
 20
2050.482558850011
 30
0.0
 11
26.49599757301503
 21
0.0
 31
0.0
210
0.0
220
0.0
230
1.0
 40
0.3420201433256802
 41
4.476551451730116
 42
4.537856055185224
  0
ELLIPSE
  5
37C
330
28C
100
AcDbEntity
  8
P-SANR-FIXT
100
AcDbEllipse
 10
1177.114353943078
 20
2050.482558850011
 30
0.0
 11
26.49599757301523
 21
0.0
 31
0.0
210
0.0
220
0.0
230
1.0
 40
0.3420201433256724
 41
4.555199972578518
 42
4.625122517784943
  0
ELLIPSE
  5
37D
330
28C
100
AcDbEntity
  8
P-SANR-FIXT
100
AcDbEllipse
 10
1177.114353943078
 20
2050.482558850011
 30
0.0
 11
26.49599757301503
 21
0.0
 31
0.0
210
0.0
220
0.0
230
1.0
 40
0.3420201433256709
 41
4.633818345831961
 42
4.712388980384657
  0
ELLIPSE
  5
37E
330
28C
100
AcDbEntity
  8
P-SANR-FIXT
100
AcDbEllipse
 10
1177.114353943078
 20
2050.482558850011
 30
0.0
 11
26.49599757301507
 21
0.0
 31
0.0
210
0.0
220
0.0
230
1.0
 40
0.3420201433256772
 41
4.712388980384683
 42
4.869577988192301
  0
ELLIPSE
  5
37F
330
28C
100
AcDbEntity
  8
P-SANR-FIXT
100
AcDbEllipse
 10
1177.114353943078
 20
2050.482558850011
 30
0.0
 11
26.49599757301518
 21
0.0
 31
0.0
210
0.0
220
0.0
230
1.0
 40
0.3420201433256652
 41
4.886921905584109
 42
4.94822650904073
  0
ELLIPSE
  5
380
330
28C
100
AcDbEntity
  8
P-SANR-FIXT
100
AcDbEllipse
 10
1177.114353943078
 20
2050.482558850011
 30
0.0
 11
26.49599757301536
 21
0.0
 31
0.0
210
0.0
220
0.0
230
0.9999999999999998
 40
0.3420201433256725
 41
4.974188368183829
 42
5.026888045289249
  0
ELLIPSE
  5
381
330
28C
100
AcDbEntity
  8
P-SANR-FIXT
100
AcDbEllipse
 10
1177.114353943078
 20
2050.482558850011
 30
0.0
 11
26.49599757301536
 21
0.0
 31
0.0
210
0.0
220
0.0
230
0.9999999999999998
 40
0.3420201433256673
 41
5.04220881802431
 42
5.061454830783549
  0
ELLIPSE
  5
382
330
28C
100
AcDbEntity
  8
P-SANR-FIXT
100
AcDbEllipse
 10
1177.114353943078
 20
2050.482558850011
 30
0.0
 11
26.4959975730153
 21
0.0
 31
0.0
210
0.0
220
0.0
230
1.0
 40
0.3420201433256633
 41
5.105545016782905
 42
5.180226147143174
  0
ELLIPSE
  5
383
330
28C
100
AcDbEntity
  8
P-SANR-FIXT
100
AcDbEllipse
 10
1177.114353943078
 20
2050.482558850011
 30
0.0
 11
26.49599757301516
 21
0.0
 31
0.0
210
0.0
220
0.0
230
1.0
 40
0.3420201433256688
 41
5.18417835244366
 42
5.235987755982971
  0
ELLIPSE
  5
384
330
28C
100
AcDbEntity
  8
P-SANR-FIXT
100
AcDbEllipse
 10
1177.114353943078
 20
2050.482558850011
 30
0.0
 11
26.49599757301511
 21
0.0
 31
0.0
210
0.0
220
0.0
230
1.0
 40
0.3420201433256595
 41
5.262766137434375
 42
5.32812361848383
  0
ELLIPSE
  5
385
330
28C
100
AcDbEntity
  8
P-SANR-FIXT
100
AcDbEllipse
 10
1177.114353943078
 20
2050.482558850011
 30
0.0
 11
26.49599757301514
 21
0.0
 31
0.0
210
0.0
220
0.0
230
1.0
 40
0.3420201433256663
 41
5.341281675628624
 42
5.69476154000072
  0
ELLIPSE
  5
386
330
28C
100
AcDbEntity
  8
P-SANR-FIXT
100
AcDbEllipse
 10
1177.114353943078
 20
2050.482558850011
 30
0.0
 11
26.49599757301508
 21
0.0
 31
0.0
210
0.0
220
0.0
230
1.0
 40
0.3420201433256722
 41
5.734906355726998
 42
5.759586531581276
  0
ELLIPSE
  5
387
330
28C
100
AcDbEntity
  8
P-SANR-FIXT
100
AcDbEllipse
 10
1177.114353943078
 20
2050.482558850011
 30
0.0
 11
26.4959975730153
 21
0.0
 31
0.0
210
0.0
220
0.0
230
1.0
 40
0.3420201433256587
 41
5.918564190030903
 42
5.968686242278699
  0
ELLIPSE
  5
388
330
28C
100
AcDbEntity
  8
P-SANR-FIXT
100
AcDbEllipse
 10
1177.114353943078
 20
2050.482558850011
 30
0.0
 11
26.49599757301528
 21
0.0
 31
0.0
210
0.0
220
0.0
230
1.0
 40
0.34202014332565
 41
5.99531898726447
 42
6.047347778527141
  0
ELLIPSE
  5
389
330
28C
100
AcDbEntity
  8
P-SANR-FIXT
100
AcDbEllipse
 10
1177.114353943078
 20
2050.482558850011
 30
0.0
 11
26.49599757301519
 21
0.0
 31
0.0
210
0.0
220
0.0
230
1.0
 40
0.3420201433256579
 41
6.091133575049582
 42
6.125996299375522
  0
ELLIPSE
  5
38A
330
28C
100
AcDbEntity
  8
P-SANR-FIXT
100
AcDbEllipse
 10
1177.114353943078
 20
2050.482558850011
 30
0.0
 11
26.49599757301521
 21
0.0
 31
0.0
210
0.0
220
0.0
230
0.9999999999999998
 40
0.3420201433256555
 41
6.195918844579844
 42
6.204614672628917
  0
ENDBLK
  5
38C
330
28C
100
AcDbEntity
  8
0
100
AcDbBlockEnd
  0
ENDSEC
  0
SECTION
  2
ENTITIES
  0
INSERT
  5
16E
330
71
100
AcDbEntity
  8
P-SANR-FIXT
100
AcDbBlockReference
  2
Automatic flow rate regulator valve_Caleffi_121 DN15 - 1_2___Pressure gauge H-956490-Est - Idraulica
 10
0.0
 20
0.0
 30
0.0
1001
REVIT
1002
{
1070
     1
1000
863131
1002
}
1002
{
1070
     5
1000
956490
1002
}
1002
{
1070
     2
1000
-2001160
1002
}
  0
INSERT
  5
28B
330
71
100
AcDbEntity
  8
P-SANR-FIXT
100
AcDbBlockReference
  2
Automatic flow rate regulator valve_Caleffi_121 DN15 - 1_2___Pressure gauge H-V1-Est - Idraulica
 10
0.0
 20
0.0
 30
0.0
1001
REVIT
1002
{
1070
     1
1000
863152
1002
}
1002
{
1070
     5
1000
956490
1002
}
1002
{
1070
     2
1000
-2001160
1002
}
  0
INSERT
  5
38D
330
71
100
AcDbEntity
  8
P-SANR-FIXT
100
AcDbBlockReference
  2
Automatic flow rate regulator valve_Caleffi_121 DN15 - 1_2___Pressure gauge H-V2-Est - Idraulica
 10
0.0
 20
0.0
 30
0.0
1001
REVIT
1002
{
1070
     1
1000
863172
1002
}
1002
{
1070
     5
1000
956490
1002
}
1002
{
1070
     2
1000
-2001160
1002
}
  0
ENDSEC
  0
SECTION
  2
OBJECTS
  0
DICTIONARY
  5
C
330
0
100
AcDbDictionary
281
     1
  3
ACAD_CIP_PREVIOUS_PRODUCT_INFO
350
7A
  3
ACAD_COLOR
350
63
  3
ACAD_DETAILVIEWSTYLE
350
6B
  3
ACAD_GROUP
350
D
  3
ACAD_IMAGE_VARS
350
7B
  3
ACAD_LAYOUT
350
62
  3
ACAD_MATERIAL
350
10
  3
ACAD_MLEADERSTYLE
350
66
  3
ACAD_MLINESTYLE
350
5F
  3
ACAD_PLOTSETTINGS
350
61
  3
ACAD_PLOTSTYLENAME
350
E
  3
ACAD_SCALELIST
350
42
  3
ACAD_SECTIONVIEWSTYLE
350
68
  3
ACAD_TABLESTYLE
350
64
  3
ACAD_VISUALSTYLE
350
29
  3
ACDB_RECOMPOSE_DATA
350
398
  3
AcDbVariableDictionary
350
7C
  3
REVIT_DICTIONARY
350
38F
  0
DICTIONARY
  5
394
330
71
100
AcDbDictionary
280
     1
281
     1
  3
ACAD_SORTENTS
360
395
  0
XRECORD
  5
7A
102
{ACAD_REACTORS
330
C
102
}
330
C
100
AcDbXrecord
280
     1
300
RVT
300
2013
300
RVT2013
  0
DICTIONARY
  5
63
102
{ACAD_REACTORS
330
C
102
}
330
C
100
AcDbDictionary
281
     1
  0
DICTIONARY
  5
6B
102
{ACAD_REACTORS
330
C
102
}
330
C
100
AcDbDictionary
281
     1
  3
Imperial24
350
6C
  0
DICTIONARY
  5
D
102
{ACAD_REACTORS
330
C
102
}
330
C
100
AcDbDictionary
281
     1
  0
RASTERVARIABLES
  5
7B
102
{ACAD_REACTORS
330
C
102
}
330
C
100
AcDbRasterVariables
 90
        0
 70
     0
 71
     1
 72
     1
  0
DICTIONARY
  5
62
102
{ACAD_REACTORS
330
C
102
}
330
C
100
AcDbDictionary
281
     1
  3
Layout1
350
70
  3
Layout2
350
78
  3
Model
350
74
  0
DICTIONARY
  5
10
102
{ACAD_REACTORS
330
C
102
}
330
C
100
AcDbDictionary
281
     1
  3
ByBlock
350
19
  3
ByLayer
350
11
  3
Global
350
21
  0
DICTIONARY
  5
66
102
{ACAD_REACTORS
330
C
102
}
330
C
100
AcDbDictionary
281
     1
  3
Standard
350
67
  0
DICTIONARY
  5
5F
102
{ACAD_REACTORS
330
C
102
}
330
C
100
AcDbDictionary
281
     1
  3
Standard
350
60
  0
DICTIONARY
  5
61
102
{ACAD_REACTORS
330
C
102
}
330
C
100
AcDbDictionary
281
     1
  0
ACDBDICTIONARYWDFLT
  5
E
102
{ACAD_REACTORS
330
C
102
}
330
C
100
AcDbDictionary
281
     1
  3
Normal
350
F
100
AcDbDictionaryWithDefault
340
F
  0
DICTIONARY
  5
42
102
{ACAD_REACTORS
330
C
102
}
330
C
100
AcDbDictionary
281
     1
  3
A0
350
43
  3
A1
350
44
  3
A2
350
45
  3
A3
350
46
  3
A4
350
47
  3
A5
350
48
  3
A6
350
49
  3
A7
350
4A
  3
A8
350
4B
  3
A9
350
4C
  3
B0
350
4D
  3
B1
350
4E
  3
B2
350
4F
  3
B3
350
50
  3
B4
350
51
  3
B5
350
52
  3
B6
350
53
  0
DICTIONARY
  5
68
102
{ACAD_REACTORS
330
C
102
}
330
C
100
AcDbDictionary
281
     1
  3
Imperial24
350
6A
  0
DICTIONARY
  5
64
102
{ACAD_REACTORS
330
C
102
}
330
C
100
AcDbDictionary
281
     1
  3
Standard
350
65
  0
DICTIONARY
  5
29
102
{ACAD_REACTORS
330
C
102
}
330
C
100
AcDbDictionary
281
     1
  3
2dWireframe
350
2F
  3
Basic
350
2E
  3
Brighten
350
35
  3
ColorChange
350
39
  3
Conceptual
350
32
  3
Dim
350
34
  3
EdgeColorOff
350
41
  3
Facepattern
350
38
  3
Flat
350
2A
  3
FlatWithEdges
350
2B
  3
Gouraud
350
2C
  3
GouraudWithEdges
350
2D
  3
Hidden
350
31
  3
JitterOff
350
3F
  3
Linepattern
350
37
  3
OverhangOff
350
40
  3
Realistic
350
33
  3
Shaded
350
3E
  3
Shaded with edges
350
3D
  3
Shades of Gray
350
3A
  3
Sketchy
350
3B
  3
Thicken
350
36
  3
Wireframe
350
30
  3
X-Ray
350
3C
  0
XRECORD
  5
398
102
{ACAD_REACTORS
330
C
102
}
330
C
100
AcDbXrecord
280
     1
 90
        1
330
65
  0
DICTIONARY
  5
7C
102
{ACAD_REACTORS
330
C
102
}
330
C
100
AcDbDictionary
281
     1
  3
CANNOSCALE
350
81
  3
CMLEADERSTYLE
350
7E
  3
CTABLESTYLE
350
7D
  3
CVIEWDETAILSTYLE
350
7F
  3
CVIEWSECTIONSTYLE
350
80
  0
DICTIONARY
  5
38F
102
{ACAD_REACTORS
330
C
102
}
330
C
100
AcDbDictionary
281
     1
  3
DRAWING_TOOL
350
393
  3
REVIT_CATEGORY_MAPPING
350
391
  3
REVIT_SUB_CATEGORY_MAPPING
350
392
  3
REVIT_TYPE_MAPPING
350
390
  0
SORTENTSTABLE
  5
395
102
{ACAD_REACTORS
330
394
102
}
330
394
100
AcDbSortentsTable
330
71
  0
ACDBDETAILVIEWSTYLE
  5
6C
102
{ACAD_REACTORS
330
6B
102
}
330
6B
100
AcDbModelDocViewStyle
 70
     0
  3
Imperial24
290
     1
100
AcDbDetailViewStyle
 70
     0
 71
     0
 90
        3
 71
     1
340
55
 62
   256
 40
0.24
340
0
 62
   256
 40
0.24
300

 40
0.36
280
     3
 71
     2
340
5D
 90
       25
 62
   256
 71
     3
340
55
 62
   256
 40
0.24
 90
        1
 40
0.75
 90
        1
300
%<\AcVar ViewType \f "%tc1">% %<\AcVar ViewDetailId>%\PSCALA %<\AcVar ViewScale \f "%sn">%
 71
     4
340
5D
 90
       25
 62
   256
340
5D
 90
       25
 62
   256
280
     0
  0
LAYOUT
  5
70
102
{ACAD_REACTORS
330
62
102
}
330
62
100
AcDbPlotSettings
  1

  2

  4

  6

 40
0.0
 41
0.0
 42
0.0
 43
0.0
 44
0.0
 45
0.0
 46
0.0
 47
0.0
 48
0.0
 49
0.0
140
0.0
141
0.0
142
1.0
143
1.0
 70
   688
 72
     0
 73
     0
 74
     5
  7

 75
    16
147
1.0
 76
     0
 77
     2
 78
   300
148
0.0
149
0.0
100
AcDbLayout
  1
Layout1
 70
     1
 71
     1
 10
0.0
 20
0.0
 11
12.0
 21
9.0
 12
0.0
 22
0.0
 32
0.0
 14
0.0
 24
0.0
 34
0.0
 15
0.0
 25
0.0
 35
0.0
146
0.0
 13
0.0
 23
0.0
 33
0.0
 16
1.0
 26
0.0
 36
0.0
 17
0.0
 27
1.0
 37
0.0
 76
     0
330
6D
  0
LAYOUT
  5
78
102
{ACAD_REACTORS
330
62
102
}
330
62
100
AcDbPlotSettings
  1

  2

  4

  6

 40
0.0
 41
0.0
 42
0.0
 43
0.0
 44
0.0
 45
0.0
 46
0.0
 47
0.0
 48
0.0
 49
0.0
140
0.0
141
0.0
142
1.0
143
1.0
 70
   688
 72
     0
 73
     0
 74
     5
  7

 75
    16
147
1.0
 76
     0
 77
     2
 78
   300
148
0.0
149
0.0
100
AcDbLayout
  1
Layout2
 70
     1
 71
     2
 10
0.0
 20
0.0
 11
12.0
 21
9.0
 12
0.0
 22
0.0
 32
0.0
 14
0.0
 24
0.0
 34
0.0
 15
0.0
 25
0.0
 35
0.0
146
0.0
 13
0.0
 23
0.0
 33
0.0
 16
1.0
 26
0.0
 36
0.0
 17
0.0
 27
1.0
 37
0.0
 76
     0
330
75
  0
LAYOUT
  5
74
102
{ACAD_REACTORS
330
62
102
}
330
62
100
AcDbPlotSettings
  1

  2

  4

  6

 40
0.0
 41
0.0
 42
0.0
 43
0.0
 44
0.0
 45
0.0
 46
0.0
 47
0.0
 48
0.0
 49
0.0
140
0.0
141
0.0
142
1.0
143
1.0
 70
  1712
 72
     0
 73
     0
 74
     0
  7

 75
     0
147
1.0
 76
     0
 77
     2
 78
   300
148
0.0
149
0.0
100
AcDbLayout
  1
Model
 70
     1
 71
     0
 10
0.0
 20
0.0
 11
12.0
 21
9.0
 12
0.0
 22
0.0
 32
0.0
 14
0.0
 24
0.0
 34
0.0
 15
0.0
 25
0.0
 35
0.0
146
0.0
 13
0.0
 23
0.0
 33
0.0
 16
1.0
 26
0.0
 36
0.0
 17
0.0
 27
1.0
 37
0.0
 76
     0
330
71
  0
MATERIAL
  5
19
102
{ACAD_XDICTIONARY
360
1A
102
}
102
{ACAD_REACTORS
330
10
102
}
330
10
100
AcDbMaterial
  1
ByBlock
 72
     0
 43
0.0208333333333333
 43
0.0
 43
0.0
 43
0.0
 43
0.0
 43
0.0208333333333333
 43
0.0
 43
0.0
 43
0.0
 43
0.0
 43
1.0
 43
0.0
 43
0.0
 43
0.0
 43
0.0
 43
1.0
 77
     0
 47
0.0208333333333333
 47
0.0
 47
0.0
 47
0.0
 47
0.0
 47
0.0208333333333333
 47
0.0
 47
0.0
 47
0.0
 47
0.0
 47
1.0
 47
0.0
 47
0.0
 47
0.0
 47
0.0
 47
1.0
171
     0
 49
0.0208333333333333
 49
0.0
 49
0.0
 49
0.0
 49
0.0
 49
0.0208333333333333
 49
0.0
 49
0.0
 49
0.0
 49
0.0
 49
1.0
 49
0.0
 49
0.0
 49
0.0
 49
0.0
 49
1.0
175
     0
142
0.0208333333333333
142
0.0
142
0.0
142
0.0
142
0.0
142
0.0208333333333333
142
0.0
142
0.0
142
0.0
142
0.0
142
1.0
142
0.0
142
0.0
142
0.0
142
0.0
142
1.0
179
     0
144
0.0208333333333333
144
0.0
144
0.0
144
0.0
144
0.0
144
0.0208333333333333
144
0.0
144
0.0
144
0.0
144
0.0
144
1.0
144
0.0
144
0.0
144
0.0
144
0.0
144
1.0
147
0.0208333333333333
147
0.0
147
0.0
147
0.0
147
0.0
147
0.0208333333333333
147
0.0
147
0.0
147
0.0
147
0.0
147
1.0
147
0.0
147
0.0
147
0.0
147
0.0
147
1.0
  0
MATERIAL
  5
11
102
{ACAD_XDICTIONARY
360
12
102
}
102
{ACAD_REACTORS
330
10
102
}
330
10
100
AcDbMaterial
  1
ByLayer
 72
     0
 43
0.0208333333333333
 43
0.0
 43
0.0
 43
0.0
 43
0.0
 43
0.0208333333333333
 43
0.0
 43
0.0
 43
0.0
 43
0.0
 43
1.0
 43
0.0
 43
0.0
 43
0.0
 43
0.0
 43
1.0
 77
     0
 47
0.0208333333333333
 47
0.0
 47
0.0
 47
0.0
 47
0.0
 47
0.0208333333333333
 47
0.0
 47
0.0
 47
0.0
 47
0.0
 47
1.0
 47
0.0
 47
0.0
 47
0.0
 47
0.0
 47
1.0
171
     0
 49
0.0208333333333333
 49
0.0
 49
0.0
 49
0.0
 49
0.0
 49
0.0208333333333333
 49
0.0
 49
0.0
 49
0.0
 49
0.0
 49
1.0
 49
0.0
 49
0.0
 49
0.0
 49
0.0
 49
1.0
175
     0
142
0.0208333333333333
142
0.0
142
0.0
142
0.0
142
0.0
142
0.0208333333333333
142
0.0
142
0.0
142
0.0
142
0.0
142
1.0
142
0.0
142
0.0
142
0.0
142
0.0
142
1.0
179
     0
144
0.0208333333333333
144
0.0
144
0.0
144
0.0
144
0.0
144
0.0208333333333333
144
0.0
144
0.0
144
0.0
144
0.0
144
1.0
144
0.0
144
0.0
144
0.0
144
0.0
144
1.0
147
0.0208333333333333
147
0.0
147
0.0
147
0.0
147
0.0
147
0.0208333333333333
147
0.0
147
0.0
147
0.0
147
0.0
147
1.0
147
0.0
147
0.0
147
0.0
147
0.0
147
1.0
  0
MATERIAL
  5
21
102
{ACAD_XDICTIONARY
360
22
102
}
102
{ACAD_REACTORS
330
10
102
}
330
10
100
AcDbMaterial
  1
Global
 72
     0
 43
0.0208333333333333
 43
0.0
 43
0.0
 43
0.0
 43
0.0
 43
0.0208333333333333
 43
0.0
 43
0.0
 43
0.0
 43
0.0
 43
1.0
 43
0.0
 43
0.0
 43
0.0
 43
0.0
 43
1.0
 77
     0
 47
0.0208333333333333
 47
0.0
 47
0.0
 47
0.0
 47
0.0
 47
0.0208333333333333
 47
0.0
 47
0.0
 47
0.0
 47
0.0
 47
1.0
 47
0.0
 47
0.0
 47
0.0
 47
0.0
 47
1.0
171
     0
 49
0.0208333333333333
 49
0.0
 49
0.0
 49
0.0
 49
0.0
 49
0.0208333333333333
 49
0.0
 49
0.0
 49
0.0
 49
0.0
 49
1.0
 49
0.0
 49
0.0
 49
0.0
 49
0.0
 49
1.0
175
     0
142
0.0208333333333333
142
0.0
142
0.0
142
0.0
142
0.0
142
0.0208333333333333
142
0.0
142
0.0
142
0.0
142
0.0
142
1.0
142
0.0
142
0.0
142
0.0
142
0.0
142
1.0
179
     0
144
0.0208333333333333
144
0.0
144
0.0
144
0.0
144
0.0
144
0.0208333333333333
144
0.0
144
0.0
144
0.0
144
0.0
144
1.0
144
0.0
144
0.0
144
0.0
144
0.0
144
1.0
147
0.0208333333333333
147
0.0
147
0.0
147
0.0
147
0.0
147
0.0208333333333333
147
0.0
147
0.0
147
0.0
147
0.0
147
1.0
147
0.0
147
0.0
147
0.0
147
0.0
147
1.0
  0
MLEADERSTYLE
  5
67
102
{ACAD_REACTORS
330
66
102
}
330
66
100
AcDbMLeaderStyle
179
     2
170
     2
171
     1
172
     0
 90
        2
 40
0.0
 41
0.0
173
     1
 91
-1056964608
340
5B
 92
       -2
290
     1
 42
0.09
291
     1
 43
0.36
  3
Standard
 44
0.18
300

342
55
174
     1
178
     6
175
     1
176
     0
 93
-1056964608
 45
0.18
292
     0
297
     0
 46
0.18
 94
-1056964608
 47
1.0
 49
1.0
140
1.0
293
     1
141
0.0
294
     1
177
     0
142
1.0
295
     1
296
     0
143
0.125
271
     0
272
     9
273
     9
298
     1
  0
MLINESTYLE
  5
60
102
{ACAD_REACTORS
330
5F
102
}
330
5F
100
AcDbMlineStyle
  2
STANDARD
 70
     0
  3

 62
   256
 51
90.0
 52
90.0
 71
     2
 49
0.5
 62
   256
  6
BYLAYER
 49
-0.5
 62
   256
  6
BYLAYER
  0
ACDBPLACEHOLDER
  5
F
102
{ACAD_REACTORS
330
E
102
}
330
E
  0
SCALE
  5
43
102
{ACAD_REACTORS
330
42
102
}
330
42
100
AcDbScale
 70
     0
300
1:1
140
1.0
141
1.0
290
     1
  0
SCALE
  5
44
102
{ACAD_REACTORS
330
42
102
}
330
42
100
AcDbScale
 70
     0
300
1/128" = 1'-0"
140
0.0078125
141
12.0
290
     0
  0
SCALE
  5
45
102
{ACAD_REACTORS
330
42
102
}
330
42
100
AcDbScale
 70
     0
300
1/64" = 1'-0"
140
0.015625
141
12.0
290
     0
  0
SCALE
  5
46
102
{ACAD_REACTORS
330
42
102
}
330
42
100
AcDbScale
 70
     0
300
1/32" = 1'-0"
140
0.03125
141
12.0
290
     0
  0
SCALE
  5
47
102
{ACAD_REACTORS
330
42
102
}
330
42
100
AcDbScale
 70
     0
300
1/16" = 1'-0"
140
0.0625
141
12.0
290
     0
  0
SCALE
  5
48
102
{ACAD_REACTORS
330
42
102
}
330
42
100
AcDbScale
 70
     0
300
3/32" = 1'-0"
140
0.09375
141
12.0
290
     0
  0
SCALE
  5
49
102
{ACAD_REACTORS
330
42
102
}
330
42
100
AcDbScale
 70
     0
300
1/8" = 1'-0"
140
0.125
141
12.0
290
     0
  0
SCALE
  5
4A
102
{ACAD_REACTORS
330
42
102
}
330
42
100
AcDbScale
 70
     0
300
3/16" = 1'-0"
140
0.1875
141
12.0
290
     0
  0
SCALE
  5
4B
102
{ACAD_REACTORS
330
42
102
}
330
42
100
AcDbScale
 70
     0
300
1/4" = 1'-0"
140
0.25
141
12.0
290
     0
  0
SCALE
  5
4C
102
{ACAD_REACTORS
330
42
102
}
330
42
100
AcDbScale
 70
     0
300
3/8" = 1'-0"
140
0.375
141
12.0
290
     0
  0
SCALE
  5
4D
102
{ACAD_REACTORS
330
42
102
}
330
42
100
AcDbScale
 70
     0
300
1/2" = 1'-0"
140
0.5
141
12.0
290
     0
  0
SCALE
  5
4E
102
{ACAD_REACTORS
330
42
102
}
330
42
100
AcDbScale
 70
     0
300
3/4" = 1'-0"
140
0.75
141
12.0
290
     0
  0
SCALE
  5
4F
102
{ACAD_REACTORS
330
42
102
}
330
42
100
AcDbScale
 70
     0
300
1" = 1'-0"
140
1.0
141
12.0
290
     0
  0
SCALE
  5
50
102
{ACAD_REACTORS
330
42
102
}
330
42
100
AcDbScale
 70
     0
300
1-1/2" = 1'-0"
140
1.5
141
12.0
290
     0
  0
SCALE
  5
51
102
{ACAD_REACTORS
330
42
102
}
330
42
100
AcDbScale
 70
     0
300
3" = 1'-0"
140
3.0
141
12.0
290
     0
  0
SCALE
  5
52
102
{ACAD_REACTORS
330
42
102
}
330
42
100
AcDbScale
 70
     0
300
6" = 1'-0"
140
6.0
141
12.0
290
     0
  0
SCALE
  5
53
102
{ACAD_REACTORS
330
42
102
}
330
42
100
AcDbScale
 70
     0
300
1'-0" = 1'-0"
140
12.0
141
12.0
290
     0
  0
ACDBSECTIONVIEWSTYLE
  5
6A
102
{ACAD_REACTORS
330
68
102
}
330
68
100
AcDbModelDocViewStyle
 70
     0
  3
Imperial24
290
     1
100
AcDbSectionViewStyle
 70
     0
 71
     0
 90
       78
 71
     1
340
55
 62
   256
 40
0.24
340
0
340
0
 62
   256
 40
0.24
300
I, O, Q, S, X, Z
 40
0.48
 90
        3
 40
0.18
 90
        1
 71
     2
340
69
 90
       25
 62
   256
340
5D
 90
       50
 62
   256
 40
0.24
 40
0.0
 40
0.24
 71
     3
340
55
 62
   256
 40
0.24
 90
        1
 40
0.75
 90
        1
300
%<\AcVar ViewType \f "%tc1">% %<\AcVar ViewSectionStartId>%-%<\AcVar ViewSectionEndId>%\PSCALA %<\AcVar ViewScale \f "%sn">%
 71
     4
 62
   256
 62
   257
300
ANSI31
 40
1.0
 90
        0
290
     0
290
     0
 90
        6
 40
0.0
 40
1.570796326794896
 40
0.2617993877991494
 40
1.308996938995747
 40
-0.2617993877991494
 40
1.832595714594046
  0
TABLESTYLE
  5
65
102
{ACAD_XDICTIONARY
360
396
102
}
102
{ACAD_REACTORS
330
64
102
}
330
64
100
AcDbTableStyle
280
     0
  3
Standard
 70
     0
 71
     0
 40
0.06
 41
0.06
280
     0
281
     0
  7
Standard
140
0.18
170
     2
 62
     0
 63
     7
283
     0
 90
      512
 91
        0
  1

274
    -2
284
     1
 64
     0
275
    -2
285
     1
 65
     0
276
    -2
286
     1
 66
     0
277
    -2
287
     1
 67
     0
278
    -2
288
     1
 68
     0
279
    -2
289
     1
 69
     0
  7
Standard
140
0.25
170
     5
 62
     0
 63
     7
283
     0
 90
      512
 91
        0
  1

274
    -2
284
     1
 64
     0
275
    -2
285
     1
 65
     0
276
    -2
286
     1
 66
     0
277
    -2
287
     1
 67
     0
278
    -2
288
     1
 68
     0
279
    -2
289
     1
 69
     0
  7
Standard
140
0.18
170
     5
 62
     0
 63
     7
283
     0
 90
      512
 91
        0
  1

274
    -2
284
     1
 64
     0
275
    -2
285
     1
 65
     0
276
    -2
286
     1
 66
     0
277
    -2
287
     1
 67
     0
278
    -2
288
     1
 68
     0
279
    -2
289
     1
 69
     0
  0
VISUALSTYLE
  5
2F
102
{ACAD_REACTORS
330
29
102
}
330
29
100
AcDbVisualStyle
  2
2dWireframe
 70
     4
177
     3
291
     0
 70
    58
 90
        0
176
     1
 90
        2
176
     1
 90
        0
176
     1
 90
        0
176
     1
 40
0.6
176
     1
 40
30.0
176
     1
 62
     7
420
 16777215
176
     1
 90
        1
176
     1
 90
        4
176
     1
 62
     7
176
     1
 62
   257
176
     1
 90
        1
176
     1
 90
        1
176
     1
 40
1.0
176
     1
 90
        0
176
     1
 62
   257
176
     1
 40
1.0
176
     1
 90
        1
176
     1
 90
        6
176
     1
 90
        2
176
     1
 62
     7
176
     1
 90
        5
176
     1
 90
        0
176
     1
 90
        0
176
     1
290
     0
176
     1
 90
        1
176
     1
 40
0.0
176
     1
 90
        0
176
     1
290
     1
176
     1
290
     1
176
     1
290
     0
176
     1
290
     0
176
     1
290
     0
176
     1
290
     0
176
     1
290
     0
176
     1
290
     0
176
     1
290
     0
176
     1
 90
       50
176
     1
 40
0.0
176
     1
 40
1.0
176
     1
 90
        0
176
     1
 62
    18
420
        0
176
     1
 90
       50
176
     1
 90
        3
176
     1
 62
     5
420
      255
176
     1
290
     0
176
     1
 90
       50
176
     1
 90
       50
176
     1
 90
       50
176
     1
290
     0
176
     1
 90
       50
176
     1
 62
   256
176
     0
 40
1.0
176
     0
 90
        2
176
     1
  1
strokes_ogs.tif
176
     1
290
     0
176
     1
 40
1.0
176
     1
 40
1.0
176
     1
  0
VISUALSTYLE
  5
2E
102
{ACAD_REACTORS
330
29
102
}
330
29
100
AcDbVisualStyle
  2
Basic
 70
     7
177
     3
291
     1
 70
    58
 90
        1
176
     1
 90
        0
176
     1
 90
        1
176
     1
 90
        0
176
     1
 40
0.6
176
     1
 40
30.0
176
     1
 62
     7
420
 16777215
176
     1
 90
        0
176
     1
 90
        4
176
     1
 62
     7
176
     1
 62
   257
176
     1
 90
        1
176
     1
 90
        1
176
     1
 40
1.0
176
     1
 90
        8
176
     1
 62
     7
176
     1
 40
1.0
176
     1
 90
        1
176
     1
 90
        6
176
     1
 90
        2
176
     1
 62
     7
176
     1
 90
        5
176
     1
 90
        0
176
     1
 90
        0
176
     1
290
     0
176
     1
 90
        1
176
     1
 40
0.0
176
     1
 90
        0
176
     1
290
     0
176
     1
290
     1
176
     1
290
     1
176
     1
290
     0
176
     1
290
     0
176
     1
290
     0
176
     1
290
     0
176
     1
290
     0
176
     1
290
     0
176
     1
 90
       50
176
     1
 40
0.0
176
     1
 40
1.0
176
     1
 90
        0
176
     1
 62
    18
420
        0
176
     1
 90
       50
176
     1
 90
        3
176
     1
 62
     5
420
      255
176
     1
290
     0
176
     1
 90
       50
176
     1
 90
       50
176
     1
 90
       50
176
     1
290
     0
176
     1
 90
       50
176
     1
 62
   256
176
     0
 40
1.0
176
     0
 90
        2
176
     1
  1
strokes_ogs.tif
176
     1
290
     0
176
     1
 40
1.0
176
     1
 40
1.0
176
     1
  0
VISUALSTYLE
  5
35
102
{ACAD_REACTORS
330
29
102
}
330
29
100
AcDbVisualStyle
  2
Brighten
 70
    12
177
     3
291
     1
 70
    58
 90
        2
176
     1
 90
        2
176
     1
 90
        0
176
     1
 90
        0
176
     1
 40
0.6
176
     1
 40
30.0
176
     1
 62
     7
420
 16777215
176
     1
 90
        1
176
     1
 90
        4
176
     1
 62
     7
176
     1
 62
   257
176
     1
 90
        1
176
     1
 90
        1
176
     1
 40
1.0
176
     1
 90
        8
176
     1
 62
     7
176
     1
 40
1.0
176
     1
 90
        1
176
     1
 90
        6
176
     1
 90
        2
176
     1
 62
     7
176
     1
 90
        5
176
     1
 90
        0
176
     1
 90
        0
176
     1
290
     0
176
     1
 90
        1
176
     1
 40
50.0
176
     1
 90
        0
176
     1
290
     0
176
     1
290
     1
176
     1
290
     1
176
     1
290
     0
176
     1
290
     0
176
     1
290
     0
176
     1
290
     0
176
     1
290
     0
176
     1
290
     0
176
     1
 90
       50
176
     1
 40
0.0
176
     1
 40
1.0
176
     1
 90
        0
176
     1
 62
    18
420
        0
176
     1
 90
       50
176
     1
 90
        3
176
     1
 62
     5
420
      255
176
     1
290
     0
176
     1
 90
       50
176
     1
 90
       50
176
     1
 90
       50
176
     1
290
     0
176
     1
 90
       50
176
     1
 62
   256
176
     0
 40
1.0
176
     0
 90
        2
176
     1
  1
strokes_ogs.tif
176
     1
290
     0
176
     1
 40
1.0
176
     1
 40
1.0
176
     1
  0
VISUALSTYLE
  5
39
102
{ACAD_REACTORS
330
29
102
}
330
29
100
AcDbVisualStyle
  2
ColorChange
 70
    16
177
     3
291
     1
 70
    58
 90
        2
176
     1
 90
        2
176
     1
 90
        3
176
     1
 90
        0
176
     1
 40
0.6
176
     1
 40
30.0
176
     1
 62
     8
420
  8421504
176
     1
 90
        1
176
     1
 90
        4
176
     1
 62
     7
176
     1
 62
   257
176
     1
 90
        1
176
     1
 90
        1
176
     1
 40
1.0
176
     1
 90
        8
176
     1
 62
     8
420
  8421504
176
     1
 40
1.0
176
     1
 90
        1
176
     1
 90
        6
176
     1
 90
        2
176
     1
 62
     7
176
     1
 90
        5
176
     1
 90
        0
176
     1
 90
        0
176
     1
290
     0
176
     1
 90
        1
176
     1
 40
0.0
176
     1
 90
        0
176
     1
290
     0
176
     1
290
     1
176
     1
290
     1
176
     1
290
     0
176
     1
290
     0
176
     1
290
     0
176
     1
290
     0
176
     1
290
     0
176
     1
290
     0
176
     1
 90
       50
176
     1
 40
0.0
176
     1
 40
1.0
176
     1
 90
        0
176
     1
 62
    18
420
        0
176
     1
 90
       50
176
     1
 90
        3
176
     1
 62
     5
420
      255
176
     1
290
     0
176
     1
 90
       50
176
     1
 90
       50
176
     1
 90
       50
176
     1
290
     0
176
     1
 90
       50
176
     1
 62
   256
176
     0
 40
1.0
176
     0
 90
        2
176
     1
  1
strokes_ogs.tif
176
     1
290
     0
176
     1
 40
1.0
176
     1
 40
1.0
176
     1
  0
VISUALSTYLE
  5
32
102
{ACAD_REACTORS
330
29
102
}
330
29
100
AcDbVisualStyle
  2
Conceptual
 70
     9
177
     3
291
     0
 70
    58
 90
        3
176
     1
 90
        2
176
     1
 90
        0
176
     1
 90
        0
176
     1
 40
0.6
176
     1
 40
30.0
176
     1
 62
     7
420
 16777215
176
     1
 90
        2
176
     1
 90
        2
176
     1
 62
     7
176
     1
 62
   257
176
     1
 90
        1
176
     1
 90
        1
176
     1
 40
179.0
176
     1
 90
        8
176
     1
 62
     7
176
     1
 40
1.0
176
     1
 90
        1
176
     1
 90
        6
176
     1
 90
        2
176
     1
 62
     7
176
     1
 90
        3
176
     1
 90
        0
176
     1
 90
        0
176
     1
290
     0
176
     1
 90
        1
176
     1
 40
0.0
176
     1
 90
        0
176
     1
290
     0
176
     1
290
     1
176
     1
290
     1
176
     1
290
     0
176
     1
290
     0
176
     1
290
     0
176
     1
290
     0
176
     1
290
     0
176
     1
290
     0
176
     1
 90
       50
176
     1
 40
0.0
176
     1
 40
1.0
176
     1
 90
        0
176
     1
 62
    18
420
        0
176
     1
 90
       50
176
     1
 90
        3
176
     1
 62
     5
420
      255
176
     1
290
     0
176
     1
 90
       50
176
     1
 90
       50
176
     1
 90
       50
176
     1
290
     0
176
     1
 90
       50
176
     1
 62
   256
176
     0
 40
1.0
176
     0
 90
        2
176
     1
  1
strokes_ogs.tif
176
     1
290
     0
176
     1
 40
1.0
176
     1
 40
1.0
176
     1
  0
VISUALSTYLE
  5
34
102
{ACAD_REACTORS
330
29
102
}
330
29
100
AcDbVisualStyle
  2
Dim
 70
    11
177
     3
291
     1
 70
    58
 90
        2
176
     1
 90
        2
176
     1
 90
        0
176
     1
 90
        0
176
     1
 40
0.6
176
     1
 40
30.0
176
     1
 62
     7
420
 16777215
176
     1
 90
        1
176
     1
 90
        4
176
     1
 62
     7
176
     1
 62
   257
176
     1
 90
        1
176
     1
 90
        1
176
     1
 40
1.0
176
     1
 90
        8
176
     1
 62
     7
176
     1
 40
1.0
176
     1
 90
        1
176
     1
 90
        6
176
     1
 90
        2
176
     1
 62
     7
176
     1
 90
        5
176
     1
 90
        0
176
     1
 90
        0
176
     1
290
     0
176
     1
 90
        1
176
     1
 40
-50.0
176
     1
 90
        0
176
     1
290
     0
176
     1
290
     1
176
     1
290
     1
176
     1
290
     0
176
     1
290
     0
176
     1
290
     0
176
     1
290
     0
176
     1
290
     0
176
     1
290
     0
176
     1
 90
       50
176
     1
 40
0.0
176
     1
 40
1.0
176
     1
 90
        0
176
     1
 62
    18
420
        0
176
     1
 90
       50
176
     1
 90
        3
176
     1
 62
     5
420
      255
176
     1
290
     0
176
     1
 90
       50
176
     1
 90
       50
176
     1
 90
       50
176
     1
290
     0
176
     1
 90
       50
176
     1
 62
   256
176
     0
 40
1.0
176
     0
 90
        2
176
     1
  1
strokes_ogs.tif
176
     1
290
     0
176
     1
 40
1.0
176
     1
 40
1.0
176
     1
  0
VISUALSTYLE
  5
41
102
{ACAD_REACTORS
330
29
102
}
330
29
100
AcDbVisualStyle
  2
EdgeColorOff
 70
    22
177
     3
291
     1
 70
    58
 90
        2
176
     0
 90
        2
176
     0
 90
        0
176
     0
 90
        0
176
     0
 40
0.6
176
     0
 40
30.0
176
     0
 62
     7
420
 16777215
176
     0
 90
        1
176
     0
 90
        4
176
     0
 62
     7
176
     0
 62
   257
176
     0
 90
        1
176
     0
 90
        1
176
     0
 40
1.0
176
     0
 90
        8
176
     2
 62
     7
176
     0
 40
1.0
176
     0
 90
        1
176
     0
 90
        6
176
     0
 90
        2
176
     0
 62
     7
176
     0
 90
        5
176
     0
 90
        0
176
     0
 90
        0
176
     0
290
     0
176
     0
 90
        1
176
     0
 40
0.0
176
     0
 90
        0
176
     0
290
     0
176
     0
290
     1
176
     0
290
     1
176
     0
290
     0
176
     0
290
     0
176
     0
290
     0
176
     0
290
     0
176
     0
290
     0
176
     0
290
     0
176
     0
 90
       50
176
     0
 40
0.0
176
     0
 40
1.0
176
     0
 90
        0
176
     0
 62
    18
420
        0
176
     0
 90
       50
176
     0
 90
        3
176
     0
 62
     5
420
      255
176
     0
290
     0
176
     0
 90
       50
176
     0
 90
       50
176
     0
 90
       50
176
     0
290
     0
176
     0
 90
       50
176
     0
 62
   256
176
     0
 40
1.0
176
     0
 90
        2
176
     0
  1
strokes_ogs.tif
176
     0
290
     0
176
     0
 40
1.0
176
     0
 40
1.0
176
     0
  0
VISUALSTYLE
  5
38
102
{ACAD_REACTORS
330
29
102
}
330
29
100
AcDbVisualStyle
  2
Facepattern
 70
    15
177
     3
291
     1
 70
    58
 90
        2
176
     1
 90
        2
176
     1
 90
        0
176
     1
 90
        0
176
     1
 40
0.6
176
     1
 40
30.0
176
     1
 62
     7
420
 16777215
176
     1
 90
        1
176
     1
 90
        4
176
     1
 62
     7
176
     1
 62
   257
176
     1
 90
        1
176
     1
 90
        1
176
     1
 40
1.0
176
     1
 90
        8
176
     1
 62
     7
176
     1
 40
1.0
176
     1
 90
        1
176
     1
 90
        6
176
     1
 90
        2
176
     1
 62
     7
176
     1
 90
        5
176
     1
 90
        0
176
     1
 90
        0
176
     1
290
     0
176
     1
 90
        1
176
     1
 40
0.0
176
     1
 90
        0
176
     1
290
     0
176
     1
290
     1
176
     1
290
     1
176
     1
290
     0
176
     1
290
     0
176
     1
290
     0
176
     1
290
     0
176
     1
290
     0
176
     1
290
     0
176
     1
 90
       50
176
     1
 40
0.0
176
     1
 40
1.0
176
     1
 90
        0
176
     1
 62
    18
420
        0
176
     1
 90
       50
176
     1
 90
        3
176
     1
 62
     5
420
      255
176
     1
290
     0
176
     1
 90
       50
176
     1
 90
       50
176
     1
 90
       50
176
     1
290
     0
176
     1
 90
       50
176
     1
 62
   256
176
     0
 40
1.0
176
     0
 90
        2
176
     1
  1
strokes_ogs.tif
176
     1
290
     0
176
     1
 40
1.0
176
     1
 40
1.0
176
     1
  0
VISUALSTYLE
  5
2A
102
{ACAD_REACTORS
330
29
102
}
330
29
100
AcDbVisualStyle
  2
Flat
 70
     0
177
     3
291
     1
 70
    58
 90
        2
176
     1
 90
        1
176
     1
 90
        1
176
     1
 90
        2
176
     1
 40
0.6
176
     1
 40
30.0
176
     1
 62
     7
420
 16777215
176
     1
 90
        0
176
     1
 90
        0
176
     1
 62
     7
176
     1
 62
   257
176
     1
 90
        1
176
     1
 90
        1
176
     1
 40
1.0
176
     1
 90
        8
176
     1
 62
     7
176
     1
 40
1.0
176
     1
 90
        1
176
     1
 90
        6
176
     1
 90
        2
176
     1
 62
     7
176
     1
 90
        5
176
     1
 90
        0
176
     1
 90
        0
176
     1
290
     0
176
     1
 90
       13
176
     1
 40
0.0
176
     1
 90
        0
176
     1
290
     0
176
     1
290
     1
176
     1
290
     1
176
     1
290
     0
176
     1
290
     0
176
     1
290
     0
176
     1
290
     0
176
     1
290
     0
176
     1
290
     0
176
     1
 90
       50
176
     1
 40
0.0
176
     1
 40
1.0
176
     1
 90
        0
176
     1
 62
    18
420
        0
176
     1
 90
       50
176
     1
 90
        3
176
     1
 62
     5
420
      255
176
     1
290
     0
176
     1
 90
       50
176
     1
 90
       50
176
     1
 90
       50
176
     1
290
     0
176
     1
 90
       50
176
     1
 62
   256
176
     0
 40
1.0
176
     0
 90
        2
176
     1
  1
strokes_ogs.tif
176
     1
290
     0
176
     1
 40
1.0
176
     1
 40
1.0
176
     1
  0
VISUALSTYLE
  5
2B
102
{ACAD_REACTORS
330
29
102
}
330
29
100
AcDbVisualStyle
  2
FlatWithEdges
 70
     1
177
     3
291
     1
 70
    58
 90
        2
176
     1
 90
        1
176
     1
 90
        1
176
     1
 90
        2
176
     1
 40
0.6
176
     1
 40
30.0
176
     1
 62
     7
420
 16777215
176
     1
 90
        1
176
     1
 90
        0
176
     1
 62
     7
176
     1
 62
   257
176
     1
 90
        1
176
     1
 90
        1
176
     1
 40
1.0
176
     1
 90
        0
176
     1
 62
   257
176
     1
 40
1.0
176
     1
 90
        1
176
     1
 90
        6
176
     1
 90
        2
176
     1
 62
     7
176
     1
 90
        5
176
     1
 90
        0
176
     1
 90
        0
176
     1
290
     0
176
     1
 90
       13
176
     1
 40
0.0
176
     1
 90
        0
176
     1
290
     0
176
     1
290
     1
176
     1
290
     1
176
     1
290
     0
176
     1
290
     0
176
     1
290
     0
176
     1
290
     0
176
     1
290
     0
176
     1
290
     0
176
     1
 90
       50
176
     1
 40
0.0
176
     1
 40
1.0
176
     1
 90
        0
176
     1
 62
    18
420
        0
176
     1
 90
       50
176
     1
 90
        3
176
     1
 62
     5
420
      255
176
     1
290
     0
176
     1
 90
       50
176
     1
 90
       50
176
     1
 90
       50
176
     1
290
     0
176
     1
 90
       50
176
     1
 62
   256
176
     0
 40
1.0
176
     0
 90
        2
176
     1
  1
strokes_ogs.tif
176
     1
290
     0
176
     1
 40
1.0
176
     1
 40
1.0
176
     1
  0
VISUALSTYLE
  5
2C
102
{ACAD_REACTORS
330
29
102
}
330
29
100
AcDbVisualStyle
  2
Gouraud
 70
     2
177
     3
291
     1
 70
    58
 90
        2
176
     1
 90
        2
176
     1
 90
        1
176
     1
 90
        2
176
     1
 40
0.6
176
     1
 40
30.0
176
     1
 62
     7
420
 16777215
176
     1
 90
        0
176
     1
 90
        0
176
     1
 62
     7
176
     1
 62
   257
176
     1
 90
        1
176
     1
 90
        1
176
     1
 40
1.0
176
     1
 90
        0
176
     1
 62
     7
176
     1
 40
1.0
176
     1
 90
        1
176
     1
 90
        6
176
     1
 90
        2
176
     1
 62
     7
176
     1
 90
        5
176
     1
 90
        0
176
     1
 90
        0
176
     1
290
     0
176
     1
 90
       13
176
     1
 40
0.0
176
     1
 90
        0
176
     1
290
     0
176
     1
290
     1
176
     1
290
     1
176
     1
290
     0
176
     1
290
     0
176
     1
290
     0
176
     1
290
     0
176
     1
290
     0
176
     1
290
     0
176
     1
 90
       50
176
     1
 40
0.0
176
     1
 40
1.0
176
     1
 90
        0
176
     1
 62
    18
420
        0
176
     1
 90
       50
176
     1
 90
        3
176
     1
 62
     5
420
      255
176
     1
290
     0
176
     1
 90
       50
176
     1
 90
       50
176
     1
 90
       50
176
     1
290
     0
176
     1
 90
       50
176
     1
 62
   256
176
     0
 40
1.0
176
     0
 90
        2
176
     1
  1
strokes_ogs.tif
176
     1
290
     0
176
     1
 40
1.0
176
     1
 40
1.0
176
     1
  0
VISUALSTYLE
  5
2D
102
{ACAD_REACTORS
330
29
102
}
330
29
100
AcDbVisualStyle
  2
GouraudWithEdges
 70
     3
177
     3
291
     1
 70
    58
 90
        2
176
     1
 90
        2
176
     1
 90
        1
176
     1
 90
        2
176
     1
 40
0.6
176
     1
 40
30.0
176
     1
 62
     7
420
 16777215
176
     1
 90
        1
176
     1
 90
        0
176
     1
 62
     7
176
     1
 62
   257
176
     1
 90
        1
176
     1
 90
        1
176
     1
 40
1.0
176
     1
 90
        0
176
     1
 62
   257
176
     1
 40
1.0
176
     1
 90
        1
176
     1
 90
        6
176
     1
 90
        2
176
     1
 62
     7
176
     1
 90
        5
176
     1
 90
        0
176
     1
 90
        0
176
     1
290
     0
176
     1
 90
       13
176
     1
 40
0.0
176
     1
 90
        0
176
     1
290
     0
176
     1
290
     1
176
     1
290
     1
176
     1
290
     0
176
     1
290
     0
176
     1
290
     0
176
     1
290
     0
176
     1
290
     0
176
     1
290
     0
176
     1
 90
       50
176
     1
 40
0.0
176
     1
 40
1.0
176
     1
 90
        0
176
     1
 62
    18
420
        0
176
     1
 90
       50
176
     1
 90
        3
176
     1
 62
     5
420
      255
176
     1
290
     0
176
     1
 90
       50
176
     1
 90
       50
176
     1
 90
       50
176
     1
290
     0
176
     1
 90
       50
176
     1
 62
   256
176
     0
 40
1.0
176
     0
 90
        2
176
     1
  1
strokes_ogs.tif
176
     1
290
     0
176
     1
 40
1.0
176
     1
 40
1.0
176
     1
  0
VISUALSTYLE
  5
31
102
{ACAD_REACTORS
330
29
102
}
330
29
100
AcDbVisualStyle
  2
Hidden
 70
     6
177
     3
291
     0
 70
    58
 90
        1
176
     1
 90
        2
176
     1
 90
        2
176
     1
 90
        0
176
     1
 40
0.6
176
     1
 40
30.0
176
     1
 62
     7
420
 16777215
176
     1
 90
        2
176
     1
 90
        2
176
     1
 62
     7
176
     1
 62
   257
176
     1
 90
        2
176
     1
 90
        1
176
     1
 40
40.0
176
     1
 90
        0
176
     1
 62
   257
176
     1
 40
1.0
176
     1
 90
        1
176
     1
 90
        6
176
     1
 90
        2
176
     1
 62
     7
176
     1
 90
        3
176
     1
 90
        0
176
     1
 90
        0
176
     1
290
     0
176
     1
 90
        1
176
     1
 40
0.0
176
     1
 90
        0
176
     1
290
     0
176
     1
290
     1
176
     1
290
     1
176
     1
290
     0
176
     1
290
     0
176
     1
290
     0
176
     1
290
     0
176
     1
290
     0
176
     1
290
     0
176
     1
 90
       50
176
     1
 40
0.0
176
     1
 40
1.0
176
     1
 90
        0
176
     1
 62
    18
420
        0
176
     1
 90
       50
176
     1
 90
        3
176
     1
 62
     5
420
      255
176
     1
290
     0
176
     1
 90
       50
176
     1
 90
       50
176
     1
 90
       50
176
     1
290
     0
176
     1
 90
       50
176
     1
 62
   256
176
     0
 40
1.0
176
     0
 90
        2
176
     1
  1
strokes_ogs.tif
176
     1
290
     0
176
     1
 40
1.0
176
     1
 40
1.0
176
     1
  0
VISUALSTYLE
  5
3F
102
{ACAD_REACTORS
330
29
102
}
330
29
100
AcDbVisualStyle
  2
JitterOff
 70
    20
177
     3
291
     1
 70
    58
 90
        2
176
     0
 90
        2
176
     0
 90
        0
176
     0
 90
        0
176
     0
 40
0.6
176
     0
 40
30.0
176
     0
 62
     7
420
 16777215
176
     0
 90
        1
176
     0
 90
        4
176
     0
 62
     7
176
     0
 62
   257
176
     0
 90
        1
176
     0
 90
        1
176
     0
 40
1.0
176
     0
 90
       10
176
     2
 62
     7
176
     0
 40
1.0
176
     0
 90
        1
176
     0
 90
        6
176
     0
 90
        2
176
     0
 62
     7
176
     0
 90
        5
176
     0
 90
        0
176
     0
 90
        0
176
     0
290
     0
176
     0
 90
        1
176
     0
 40
0.0
176
     0
 90
        0
176
     0
290
     0
176
     0
290
     1
176
     0
290
     1
176
     0
290
     0
176
     0
290
     0
176
     0
290
     0
176
     0
290
     0
176
     0
290
     0
176
     0
290
     0
176
     0
 90
       50
176
     0
 40
0.0
176
     0
 40
1.0
176
     0
 90
        0
176
     0
 62
    18
420
        0
176
     0
 90
       50
176
     0
 90
        3
176
     0
 62
     5
420
      255
176
     0
290
     0
176
     0
 90
       50
176
     0
 90
       50
176
     0
 90
       50
176
     0
290
     0
176
     0
 90
       50
176
     0
 62
   256
176
     0
 40
1.0
176
     0
 90
        2
176
     0
  1
strokes_ogs.tif
176
     0
290
     0
176
     0
 40
1.0
176
     0
 40
1.0
176
     0
  0
VISUALSTYLE
  5
37
102
{ACAD_REACTORS
330
29
102
}
330
29
100
AcDbVisualStyle
  2
Linepattern
 70
    14
177
     3
291
     1
 70
    58
 90
        2
176
     1
 90
        2
176
     1
 90
        0
176
     1
 90
        0
176
     1
 40
0.6
176
     1
 40
30.0
176
     1
 62
     7
420
 16777215
176
     1
 90
        1
176
     1
 90
        4
176
     1
 62
     7
176
     1
 62
   257
176
     1
 90
        7
176
     1
 90
        7
176
     1
 40
1.0
176
     1
 90
        8
176
     1
 62
     7
176
     1
 40
1.0
176
     1
 90
        1
176
     1
 90
        6
176
     1
 90
        2
176
     1
 62
     7
176
     1
 90
        5
176
     1
 90
        0
176
     1
 90
        0
176
     1
290
     0
176
     1
 90
        1
176
     1
 40
0.0
176
     1
 90
        0
176
     1
290
     0
176
     1
290
     1
176
     1
290
     1
176
     1
290
     0
176
     1
290
     0
176
     1
290
     0
176
     1
290
     0
176
     1
290
     0
176
     1
290
     0
176
     1
 90
       50
176
     1
 40
0.0
176
     1
 40
1.0
176
     1
 90
        0
176
     1
 62
    18
420
        0
176
     1
 90
       50
176
     1
 90
        3
176
     1
 62
     5
420
      255
176
     1
290
     0
176
     1
 90
       50
176
     1
 90
       50
176
     1
 90
       50
176
     1
290
     0
176
     1
 90
       50
176
     1
 62
   256
176
     0
 40
1.0
176
     0
 90
        2
176
     1
  1
strokes_ogs.tif
176
     1
290
     0
176
     1
 40
1.0
176
     1
 40
1.0
176
     1
  0
VISUALSTYLE
  5
40
102
{ACAD_REACTORS
330
29
102
}
330
29
100
AcDbVisualStyle
  2
OverhangOff
 70
    21
177
     3
291
     1
 70
    58
 90
        2
176
     0
 90
        2
176
     0
 90
        0
176
     0
 90
        0
176
     0
 40
0.6
176
     0
 40
30.0
176
     0
 62
     7
420
 16777215
176
     0
 90
        1
176
     0
 90
        4
176
     0
 62
     7
176
     0
 62
   257
176
     0
 90
        1
176
     0
 90
        1
176
     0
 40
1.0
176
     0
 90
        9
176
     2
 62
     7
176
     0
 40
1.0
176
     0
 90
        1
176
     0
 90
        6
176
     0
 90
        2
176
     0
 62
     7
176
     0
 90
        5
176
     0
 90
        0
176
     0
 90
        0
176
     0
290
     0
176
     0
 90
        1
176
     0
 40
0.0
176
     0
 90
        0
176
     0
290
     0
176
     0
290
     1
176
     0
290
     1
176
     0
290
     0
176
     0
290
     0
176
     0
290
     0
176
     0
290
     0
176
     0
290
     0
176
     0
290
     0
176
     0
 90
       50
176
     0
 40
0.0
176
     0
 40
1.0
176
     0
 90
        0
176
     0
 62
    18
420
        0
176
     0
 90
       50
176
     0
 90
        3
176
     0
 62
     5
420
      255
176
     0
290
     0
176
     0
 90
       50
176
     0
 90
       50
176
     0
 90
       50
176
     0
290
     0
176
     0
 90
       50
176
     0
 62
   256
176
     0
 40
1.0
176
     0
 90
        2
176
     0
  1
strokes_ogs.tif
176
     0
290
     0
176
     0
 40
1.0
176
     0
 40
1.0
176
     0
  0
VISUALSTYLE
  5
33
102
{ACAD_REACTORS
330
29
102
}
330
29
100
AcDbVisualStyle
  2
Realistic
 70
     8
177
     3
291
     0
 70
    58
 90
        2
176
     1
 90
        3
176
     1
 90
        0
176
     1
 90
        2
176
     1
 40
0.6
176
     1
 40
30.0
176
     1
 62
     7
420
 16777215
176
     1
 90
        0
176
     1
 90
        0
176
     1
 62
     7
176
     1
 62
   257
176
     1
 90
        1
176
     1
 90
        1
176
     1
 40
1.0
176
     1
 90
        8
176
     1
 62
   257
176
     1
 40
1.0
176
     1
 90
        1
176
     1
 90
        6
176
     1
 90
        2
176
     1
 62
     7
176
     1
 90
        3
176
     1
 90
        0
176
     1
 90
        0
176
     1
290
     0
176
     1
 90
       13
176
     1
 40
0.0
176
     1
 90
        0
176
     1
290
     0
176
     1
290
     1
176
     1
290
     1
176
     1
290
     0
176
     1
290
     0
176
     1
290
     0
176
     1
290
     0
176
     1
290
     0
176
     1
290
     0
176
     1
 90
       50
176
     1
 40
0.0
176
     1
 40
1.0
176
     1
 90
        0
176
     1
 62
    18
420
        0
176
     1
 90
       50
176
     1
 90
        3
176
     1
 62
     5
420
      255
176
     1
290
     0
176
     1
 90
       50
176
     1
 90
       50
176
     1
 90
       50
176
     1
290
     0
176
     1
 90
       50
176
     1
 62
   256
176
     0
 40
1.0
176
     0
 90
        2
176
     1
  1
strokes_ogs.tif
176
     1
290
     0
176
     1
 40
1.0
176
     1
 40
1.0
176
     1
  0
VISUALSTYLE
  5
3E
102
{ACAD_REACTORS
330
29
102
}
330
29
100
AcDbVisualStyle
  2
Shaded
 70
    27
177
     3
291
     0
 70
    58
 90
        2
176
     1
 90
        2
176
     1
 90
        1
176
     1
 90
        2
176
     1
 40
0.6
176
     1
 40
30.0
176
     1
 62
     7
420
 16777215
176
     1
 90
        0
176
     1
 90
        4
176
     1
 62
     7
176
     1
 62
   257
176
     1
 90
        1
176
     1
 90
        1
176
     1
 40
1.0
176
     1
 90
        8
176
     1
 62
   257
176
     1
 40
1.0
176
     1
 90
        1
176
     1
 90
        6
176
     1
 90
        2
176
     1
 62
     8
420
  7895160
176
     1
 90
        3
176
     1
 90
        0
176
     1
 90
        0
176
     1
290
     0
176
     1
 90
        5
176
     1
 40
0.0
176
     1
 90
        0
176
     1
290
     0
176
     1
290
     1
176
     1
290
     1
176
     1
290
     0
176
     1
290
     0
176
     1
290
     0
176
     1
290
     0
176
     1
290
     0
176
     1
290
     0
176
     1
 90
       50
176
     1
 40
0.0
176
     1
 40
1.0
176
     1
 90
        0
176
     1
 62
    18
420
        0
176
     1
 90
       50
176
     1
 90
        3
176
     1
 62
     5
420
      255
176
     1
290
     0
176
     1
 90
       50
176
     1
 90
       50
176
     1
 90
       50
176
     1
290
     0
176
     1
 90
       50
176
     1
 62
   256
176
     0
 40
1.0
176
     0
 90
        2
176
     1
  1
strokes_ogs.tif
176
     1
290
     0
176
     1
 40
1.0
176
     1
 40
1.0
176
     1
  0
VISUALSTYLE
  5
3D
102
{ACAD_REACTORS
330
29
102
}
330
29
100
AcDbVisualStyle
  2
Shaded with edges
 70
    26
177
     3
291
     0
 70
    58
 90
        2
176
     1
 90
        2
176
     1
 90
        1
176
     1
 90
        2
176
     1
 40
0.6
176
     1
 40
30.0
176
     1
 62
     7
420
 16777215
176
     1
 90
        1
176
     1
 90
       10
176
     1
 62
     7
176
     1
 62
   257
176
     1
 90
        2
176
     1
 90
        1
176
     1
 40
1.0
176
     1
 90
        8
176
     1
 62
   257
176
     1
 40
1.0
176
     1
 90
        1
176
     1
 90
        6
176
     1
 90
        2
176
     1
 62
     7
176
     1
 90
        3
176
     1
 90
        0
176
     1
 90
        0
176
     1
290
     0
176
     1
 90
        5
176
     1
 40
0.0
176
     1
 90
        0
176
     1
290
     0
176
     1
290
     1
176
     1
290
     1
176
     1
290
     0
176
     1
290
     0
176
     1
290
     0
176
     1
290
     0
176
     1
290
     0
176
     1
290
     0
176
     1
 90
       50
176
     1
 40
0.0
176
     1
 40
1.0
176
     1
 90
        0
176
     1
 62
    18
420
        0
176
     1
 90
       50
176
     1
 90
        3
176
     1
 62
     5
420
      255
176
     1
290
     0
176
     1
 90
       50
176
     1
 90
       50
176
     1
 90
       50
176
     1
290
     0
176
     1
 90
       50
176
     1
 62
   256
176
     0
 40
1.0
176
     0
 90
        2
176
     1
  1
strokes_ogs.tif
176
     1
290
     0
176
     1
 40
1.0
176
     1
 40
1.0
176
     1
  0
VISUALSTYLE
  5
3A
102
{ACAD_REACTORS
330
29
102
}
330
29
100
AcDbVisualStyle
  2
Shades of Gray
 70
    23
177
     3
291
     0
 70
    58
 90
        2
176
     1
 90
        2
176
     1
 90
        3
176
     1
 90
        0
176
     1
 40
0.6
176
     1
 40
30.0
176
     1
 62
     7
420
 16777215
176
     1
 90
        2
176
     1
 90
        2
176
     1
 62
     7
176
     1
 62
     7
176
     1
 90
        1
176
     1
 90
        1
176
     1
 40
40.0
176
     1
 90
        8
176
     1
 62
     7
176
     1
 40
1.0
176
     1
 90
        1
176
     1
 90
        6
176
     1
 90
        2
176
     1
 62
     7
176
     1
 90
        3
176
     1
 90
        0
176
     1
 90
        0
176
     1
290
     0
176
     1
 90
        1
176
     1
 40
0.0
176
     1
 90
        0
176
     1
290
     0
176
     1
290
     1
176
     1
290
     1
176
     1
290
     0
176
     1
290
     0
176
     1
290
     0
176
     1
290
     0
176
     1
290
     0
176
     1
290
     0
176
     1
 90
       50
176
     1
 40
0.0
176
     1
 40
1.0
176
     1
 90
        0
176
     1
 62
    18
420
        0
176
     1
 90
       50
176
     1
 90
        3
176
     1
 62
     5
420
      255
176
     1
290
     0
176
     1
 90
       50
176
     1
 90
       50
176
     1
 90
       50
176
     1
290
     0
176
     1
 90
       50
176
     1
 62
   256
176
     0
 40
1.0
176
     0
 90
        2
176
     1
  1
strokes_ogs.tif
176
     1
290
     0
176
     1
 40
1.0
176
     1
 40
1.0
176
     1
  0
VISUALSTYLE
  5
3B
102
{ACAD_REACTORS
330
29
102
}
330
29
100
AcDbVisualStyle
  2
Sketchy
 70
    24
177
     3
291
     0
 70
    58
 90
        1
176
     1
 90
        2
176
     1
 90
        2
176
     1
 90
        0
176
     1
 40
0.6
176
     1
 40
30.0
176
     1
 62
     7
420
 16777215
176
     1
 90
        2
176
     1
 90
        2
176
     1
 62
     7
176
     1
 62
     7
176
     1
 90
        1
176
     1
 90
        1
176
     1
 40
40.0
176
     1
 90
       11
176
     1
 62
     7
176
     1
 40
1.0
176
     1
 90
        1
176
     1
 90
        6
176
     1
 90
        2
176
     1
 62
     7
176
     1
 90
        6
176
     1
 90
        0
176
     1
 90
        0
176
     1
290
     0
176
     1
 90
        1
176
     1
 40
0.0
176
     1
 90
        0
176
     1
290
     0
176
     1
290
     1
176
     1
290
     1
176
     1
290
     0
176
     1
290
     0
176
     1
290
     0
176
     1
290
     0
176
     1
290
     0
176
     1
290
     0
176
     1
 90
       50
176
     1
 40
0.0
176
     1
 40
1.0
176
     1
 90
        0
176
     1
 62
    18
420
        0
176
     1
 90
       50
176
     1
 90
        3
176
     1
 62
     5
420
      255
176
     1
290
     0
176
     1
 90
       50
176
     1
 90
       50
176
     1
 90
       50
176
     1
290
     0
176
     1
 90
       50
176
     1
 62
   256
176
     0
 40
1.0
176
     0
 90
        2
176
     1
  1
strokes_ogs.tif
176
     1
290
     0
176
     1
 40
1.0
176
     1
 40
1.0
176
     1
  0
VISUALSTYLE
  5
36
102
{ACAD_REACTORS
330
29
102
}
330
29
100
AcDbVisualStyle
  2
Thicken
 70
    13
177
     3
291
     1
 70
    58
 90
        2
176
     1
 90
        2
176
     1
 90
        0
176
     1
 90
        0
176
     1
 40
0.6
176
     1
 40
30.0
176
     1
 62
     7
420
 16777215
176
     1
 90
        1
176
     1
 90
        4
176
     1
 62
     7
176
     1
 62
   257
176
     1
 90
        1
176
     1
 90
        1
176
     1
 40
1.0
176
     1
 90
       12
176
     1
 62
     7
176
     1
 40
1.0
176
     1
 90
        1
176
     1
 90
        6
176
     1
 90
        2
176
     1
 62
     7
176
     1
 90
        5
176
     1
 90
        0
176
     1
 90
        0
176
     1
290
     0
176
     1
 90
        1
176
     1
 40
0.0
176
     1
 90
        0
176
     1
290
     0
176
     1
290
     1
176
     1
290
     1
176
     1
290
     0
176
     1
290
     0
176
     1
290
     0
176
     1
290
     0
176
     1
290
     0
176
     1
290
     0
176
     1
 90
       50
176
     1
 40
0.0
176
     1
 40
1.0
176
     1
 90
        0
176
     1
 62
    18
420
        0
176
     1
 90
       50
176
     1
 90
        3
176
     1
 62
     5
420
      255
176
     1
290
     0
176
     1
 90
       50
176
     1
 90
       50
176
     1
 90
       50
176
     1
290
     0
176
     1
 90
       50
176
     1
 62
   256
176
     0
 40
1.0
176
     0
 90
        2
176
     1
  1
strokes_ogs.tif
176
     1
290
     0
176
     1
 40
1.0
176
     1
 40
1.0
176
     1
  0
VISUALSTYLE
  5
30
102
{ACAD_REACTORS
330
29
102
}
330
29
100
AcDbVisualStyle
  2
Wireframe
 70
     5
177
     3
291
     0
 70
    58
 90
        0
176
     1
 90
        2
176
     1
 90
        0
176
     1
 90
        0
176
     1
 40
0.6
176
     1
 40
30.0
176
     1
 62
     7
420
 16777215
176
     1
 90
        1
176
     1
 90
        4
176
     1
 62
     7
176
     1
 62
   257
176
     1
 90
        1
176
     1
 90
        1
176
     1
 40
1.0
176
     1
 90
        0
176
     1
 62
   257
176
     1
 40
1.0
176
     1
 90
        1
176
     1
 90
        6
176
     1
 90
        2
176
     1
 62
     7
176
     1
 90
        3
176
     1
 90
        0
176
     1
 90
        0
176
     1
290
     0
176
     1
 90
        1
176
     1
 40
0.0
176
     1
 90
        0
176
     1
290
     0
176
     1
290
     1
176
     1
290
     1
176
     1
290
     0
176
     1
290
     0
176
     1
290
     0
176
     1
290
     0
176
     1
290
     0
176
     1
290
     0
176
     1
 90
       50
176
     1
 40
0.0
176
     1
 40
1.0
176
     1
 90
        0
176
     1
 62
    18
420
        0
176
     1
 90
       50
176
     1
 90
        3
176
     1
 62
     5
420
      255
176
     1
290
     0
176
     1
 90
       50
176
     1
 90
       50
176
     1
 90
       50
176
     1
290
     0
176
     1
 90
       50
176
     1
 62
   256
176
     0
 40
1.0
176
     0
 90
        2
176
     1
  1
strokes_ogs.tif
176
     1
290
     0
176
     1
 40
1.0
176
     1
 40
1.0
176
     1
  0
VISUALSTYLE
  5
3C
102
{ACAD_REACTORS
330
29
102
}
330
29
100
AcDbVisualStyle
  2
X-Ray
 70
    25
177
     3
291
     0
 70
    58
 90
        2
176
     1
 90
        2
176
     1
 90
        1
176
     1
 90
        1
176
     1
 40
0.5
176
     1
 40
30.0
176
     1
 62
     7
420
 16777215
176
     1
 90
        1
176
     1
 90
        0
176
     1
 62
     7
176
     1
 62
   257
176
     1
 90
        1
176
     1
 90
        1
176
     1
 40
1.0
176
     1
 90
        8
176
     1
 62
     7
176
     1
 40
1.0
176
     1
 90
        1
176
     1
 90
        6
176
     1
 90
        2
176
     1
 62
     7
176
     1
 90
        3
176
     1
 90
        0
176
     1
 90
        0
176
     1
290
     0
176
     1
 90
       13
176
     1
 40
0.0
176
     1
 90
        0
176
     1
290
     0
176
     1
290
     1
176
     1
290
     1
176
     1
290
     0
176
     1
290
     0
176
     1
290
     0
176
     1
290
     0
176
     1
290
     0
176
     1
290
     0
176
     1
 90
       50
176
     1
 40
0.0
176
     1
 40
1.0
176
     1
 90
        0
176
     1
 62
    18
420
        0
176
     1
 90
       50
176
     1
 90
        3
176
     1
 62
     5
420
      255
176
     1
290
     0
176
     1
 90
       50
176
     1
 90
       50
176
     1
 90
       50
176
     1
290
     0
176
     1
 90
       50
176
     1
 62
   256
176
     0
 40
1.0
176
     0
 90
        2
176
     1
  1
strokes_ogs.tif
176
     1
290
     0
176
     1
 40
1.0
176
     1
 40
1.0
176
     1
  0
DICTIONARYVAR
  5
81
102
{ACAD_REACTORS
330
7C
102
}
330
7C
100
DictionaryVariables
280
     0
  1
1:1
  0
DICTIONARYVAR
  5
7E
102
{ACAD_REACTORS
330
7C
102
}
330
7C
100
DictionaryVariables
280
     0
  1
STANDARD
  0
DICTIONARYVAR
  5
7D
102
{ACAD_REACTORS
330
7C
102
}
330
7C
100
DictionaryVariables
280
     0
  1
STANDARD
  0
DICTIONARYVAR
  5
7F
102
{ACAD_REACTORS
330
7C
102
}
330
7C
100
DictionaryVariables
280
     0
  1
Imperial24
  0
DICTIONARYVAR
  5
80
102
{ACAD_REACTORS
330
7C
102
}
330
7C
100
DictionaryVariables
280
     0
  1
Imperial24
  0
XRECORD
  5
393
102
{ACAD_REACTORS
330
38F
102
}
330
38F
100
AcDbXrecord
280
     1
  1
BUILDING_ID
  1
Progetto per messa in tavola DXF, DWG
  1
FLOOR_ID
  1
694395
  0
XRECORD
  5
391
102
{ACAD_REACTORS
330
38F
102
}
330
38F
100
AcDbXrecord
280
     1
  1
-2001160
  1
Apparecchi idraulici
  0
XRECORD
  5
392
102
{ACAD_REACTORS
330
38F
102
}
330
38F
100
AcDbXrecord
280
     1
  1
923097
  1
Handle
  1
923236
  1
Pressure gauge
  0
XRECORD
  5
390
102
{ACAD_REACTORS
330
38F
102
}
330
38F
100
AcDbXrecord
280
     1
  1
956490
  1
Automatic flow rate regulator valve_Caleffi_121 DN15 : 1/2''_Pressure gauge H
  0
DICTIONARY
  5
1A
330
19
100
AcDbDictionary
280
     1
281
     1
  3
BUMPTILE
360
1C
  3
DIFFUSETILE
360
1B
  3
OPACITYTILE
360
1F
  3
REFLECTIONTILE
360
1E
  3
REFRACTIONTILE
360
20
  3
SPECULARTILE
360
1D
  0
DICTIONARY
  5
12
330
11
100
AcDbDictionary
280
     1
281
     1
  3
BUMPTILE
360
14
  3
DIFFUSETILE
360
13
  3
OPACITYTILE
360
17
  3
REFLECTIONTILE
360
16
  3
REFRACTIONTILE
360
18
  3
SPECULARTILE
360
15
  0
DICTIONARY
  5
22
330
21
100
AcDbDictionary
280
     1
281
     1
  3
BUMPTILE
360
24
  3
DIFFUSETILE
360
23
  3
OPACITYTILE
360
27
  3
REFLECTIONTILE
360
26
  3
REFRACTIONTILE
360
28
  3
SPECULARTILE
360
25
  0
DICTIONARY
  5
396
330
65
100
AcDbDictionary
280
     1
281
     1
  3
ACAD_ROUNDTRIP_2008_TABLESTYLE_CELLSTYLEMAP
360
397
  0
XRECORD
  5
1C
102
{ACAD_REACTORS
330
1A
102
}
330
1A
100
AcDbXrecord
280
     1
270
     1
271
     1
  0
XRECORD
  5
1B
102
{ACAD_REACTORS
330
1A
102
}
330
1A
100
AcDbXrecord
280
     1
270
     1
271
     1
  0
XRECORD
  5
1F
102
{ACAD_REACTORS
330
1A
102
}
330
1A
100
AcDbXrecord
280
     1
270
     1
271
     1
  0
XRECORD
  5
1E
102
{ACAD_REACTORS
330
1A
102
}
330
1A
100
AcDbXrecord
280
     1
270
     1
271
     1
  0
XRECORD
  5
20
102
{ACAD_REACTORS
330
1A
102
}
330
1A
100
AcDbXrecord
280
     1
270
     1
271
     1
  0
XRECORD
  5
1D
102
{ACAD_REACTORS
330
1A
102
}
330
1A
100
AcDbXrecord
280
     1
270
     1
271
     1
  0
XRECORD
  5
14
102
{ACAD_REACTORS
330
12
102
}
330
12
100
AcDbXrecord
280
     1
270
     1
271
     1
  0
XRECORD
  5
13
102
{ACAD_REACTORS
330
12
102
}
330
12
100
AcDbXrecord
280
     1
270
     1
271
     1
  0
XRECORD
  5
17
102
{ACAD_REACTORS
330
12
102
}
330
12
100
AcDbXrecord
280
     1
270
     1
271
     1
  0
XRECORD
  5
16
102
{ACAD_REACTORS
330
12
102
}
330
12
100
AcDbXrecord
280
     1
270
     1
271
     1
  0
XRECORD
  5
18
102
{ACAD_REACTORS
330
12
102
}
330
12
100
AcDbXrecord
280
     1
270
     1
271
     1
  0
XRECORD
  5
15
102
{ACAD_REACTORS
330
12
102
}
330
12
100
AcDbXrecord
280
     1
270
     1
271
     1
  0
XRECORD
  5
24
102
{ACAD_REACTORS
330
22
102
}
330
22
100
AcDbXrecord
280
     1
270
     1
271
     1
  0
XRECORD
  5
23
102
{ACAD_REACTORS
330
22
102
}
330
22
100
AcDbXrecord
280
     1
270
     1
271
     1
  0
XRECORD
  5
27
102
{ACAD_REACTORS
330
22
102
}
330
22
100
AcDbXrecord
280
     1
270
     1
271
     1
  0
XRECORD
  5
26
102
{ACAD_REACTORS
330
22
102
}
330
22
100
AcDbXrecord
280
     1
270
     1
271
     1
  0
XRECORD
  5
28
102
{ACAD_REACTORS
330
22
102
}
330
22
100
AcDbXrecord
280
     1
270
     1
271
     1
  0
XRECORD
  5
25
102
{ACAD_REACTORS
330
22
102
}
330
22
100
AcDbXrecord
280
     1
270
     1
271
     1
  0
CELLSTYLEMAP
  5
397
102
{ACAD_REACTORS
330
396
102
}
330
396
100
AcDbCellStyleMap
 90
        3
300
CELLSTYLE
  1
TABLEFORMAT_BEGIN
 90
        5
170
     1
 91
        0
 92
    32768
 62
   257
 93
        1
300
CONTENTFORMAT
  1
CONTENTFORMAT_BEGIN
 90
        0
 91
        0
 92
      512
 93
        0
300

 40
0.0
140
1.0
 94
        5
 62
     0
340
55
144
0.25
309
CONTENTFORMAT_END
171
     0
 94
        0
309
TABLEFORMAT_END
  1
CELLSTYLE_BEGIN
 90
        1
 91
        1
300
_TITLE
309
CELLSTYLE_END
300
CELLSTYLE
  1
TABLEFORMAT_BEGIN
 90
        5
170
     1
 91
        0
 92
        0
 62
   257
 93
        1
300
CONTENTFORMAT
  1
CONTENTFORMAT_BEGIN
 90
        0
 91
        0
 92
      512
 93
        0
300

 40
0.0
140
1.0
 94
        5
 62
     0
340
55
144
0.18
309
CONTENTFORMAT_END
171
     0
 94
        0
309
TABLEFORMAT_END
  1
CELLSTYLE_BEGIN
 90
        2
 91
        1
300
_HEADER
309
CELLSTYLE_END
300
CELLSTYLE
  1
TABLEFORMAT_BEGIN
 90
        5
170
     1
 91
        0
 92
        0
 62
   257
 93
        1
300
CONTENTFORMAT
  1
CONTENTFORMAT_BEGIN
 90
        0
 91
        0
 92
      512
 93
        0
300

 40
0.0
140
1.0
 94
        2
 62
     0
340
55
144
0.18
309
CONTENTFORMAT_END
171
     0
 94
        0
309
TABLEFORMAT_END
  1
CELLSTYLE_BEGIN
 90
        3
 91
        2
300
_DATA
309
CELLSTYLE_END
  0
ENDSEC
  0
EOF
