  0
SECTION
  2
HEADER
  9
$ACADVER
  1
AC1027
  9
$ACADMAINTVER
 70
    20
  9
$DWGCODEPAGE
  3
ANSI_1252
  9
$REQUIREDVERSIONS
160
                 0
  9
$INSBASE
 10
0.0
 20
0.0
 30
0.0
  9
$EXTMIN
 10
685.3980191668325
 20
1662.655266564655
 30
-0.00000001
  9
$EXTMAX
 10
1207.114353953078
 20
2114.343176483886
 30
0.00000001
  9
$LIMMIN
 10
0.0
 20
0.0
  9
$LIMMAX
 10
12.0
 20
9.0
  9
$ORTHOMODE
 70
     0
  9
$REGENMODE
 70
     1
  9
$FILLMODE
 70
     1
  9
$QTEXTMODE
 70
     0
  9
$MIRRTEXT
 70
     0
  9
$LTSCALE
 40
1.0
  9
$ATTMODE
 70
     1
  9
$TEXTSIZE
 40
0.2
  9
$TRACEWID
 40
0.05
  9
$TEXTSTYLE
  7
Standard
  9
$CLAYER
  8
0
  9
$CELTYPE
  6
ByLayer
  9
$CECOLOR
 62
   256
  9
$CELTSCALE
 40
1.0
  9
$DISPSILH
 70
     0
  9
$DIMSCALE
 40
1.0
  9
$DIMASZ
 40
0.18
  9
$DIMEXO
 40
0.0625
  9
$DIMDLI
 40
0.38
  9
$DIMRND
 40
0.0
  9
$DIMDLE
 40
0.0
  9
$DIMEXE
 40
0.18
  9
$DIMTP
 40
0.0
  9
$DIMTM
 40
0.0
  9
$DIMTXT
 40
0.18
  9
$DIMCEN
 40
0.09
  9
$DIMTSZ
 40
0.0
  9
$DIMTOL
 70
     0
  9
$DIMLIM
 70
     0
  9
$DIMTIH
 70
     1
  9
$DIMTOH
 70
     1
  9
$DIMSE1
 70
     0
  9
$DIMSE2
 70
     0
  9
$DIMTAD
 70
     0
  9
$DIMZIN
 70
     0
  9
$DIMBLK
  1

  9
$DIMASO
 70
     1
  9
$DIMSHO
 70
     1
  9
$DIMPOST
  1

  9
$DIMAPOST
  1

  9
$DIMALT
 70
     0
  9
$DIMALTD
 70
     2
  9
$DIMALTF
 40
25.4
  9
$DIMLFAC
 40
1.0
  9
$DIMTOFL
 70
     0
  9
$DIMTVP
 40
0.0
  9
$DIMTIX
 70
     0
  9
$DIMSOXD
 70
     0
  9
$DIMSAH
 70
     0
  9
$DIMBLK1
  1

  9
$DIMBLK2
  1

  9
$DIMSTYLE
  2
Standard
  9
$DIMCLRD
 70
     0
  9
$DIMCLRE
 70
     0
  9
$DIMCLRT
 70
     0
  9
$DIMTFAC
 40
1.0
  9
$DIMGAP
 40
0.09
  9
$DIMJUST
 70
     0
  9
$DIMSD1
 70
     0
  9
$DIMSD2
 70
     0
  9
$DIMTOLJ
 70
     1
  9
$DIMTZIN
 70
     0
  9
$DIMALTZ
 70
     0
  9
$DIMALTTZ
 70
     0
  9
$DIMUPT
 70
     0
  9
$DIMDEC
 70
     4
  9
$DIMTDEC
 70
     4
  9
$DIMALTU
 70
     2
  9
$DIMALTTD
 70
     2
  9
$DIMTXSTY
  7
Standard
  9
$DIMAUNIT
 70
     0
  9
$DIMADEC
 70
     0
  9
$DIMALTRND
 40
0.0
  9
$DIMAZIN
 70
     0
  9
$DIMDSEP
 70
    46
  9
$DIMATFIT
 70
     3
  9
$DIMFRAC
 70
     0
  9
$DIMLDRBLK
  1

  9
$DIMLUNIT
 70
     2
  9
$DIMLWD
 70
    -2
  9
$DIMLWE
 70
    -2
  9
$DIMTMOVE
 70
     0
  9
$DIMFXL
 40
1.0
  9
$DIMFXLON
 70
     0
  9
$DIMJOGANG
 40
0.7853981633974483
  9
$DIMTFILL
 70
     0
  9
$DIMTFILLCLR
 70
     0
  9
$DIMARCSYM
 70
     0
  9
$DIMLTYPE
  6

  9
$DIMLTEX1
  6

  9
$DIMLTEX2
  6

  9
$DIMTXTDIRECTION
 70
     0
  9
$LUNITS
 70
     2
  9
$LUPREC
 70
     4
  9
$SKETCHINC
 40
0.1
  9
$FILLETRAD
 40
0.0
  9
$AUNITS
 70
     0
  9
$AUPREC
 70
     0
  9
$MENU
  1
.
  9
$ELEVATION
 40
0.0
  9
$PELEVATION
 40
0.0
  9
$THICKNESS
 40
0.0
  9
$LIMCHECK
 70
     0
  9
$CHAMFERA
 40
0.0
  9
$CHAMFERB
 40
0.0
  9
$CHAMFERC
 40
0.0
  9
$CHAMFERD
 40
0.0
  9
$SKPOLY
 70
     0
  9
$TDCREATE
 40
2457571.607791343
  9
$TDUCREATE
 40
2457571.524458009
  9
$TDUPDATE
 40
2457571.607791343
  9
$TDUUPDATE
 40
2457571.524458009
  9
$TDINDWG
 40
0.0000216088
  9
$TDUSRTIMER
 40
0.0000216088
  9
$USRTIMER
 70
     1
  9
$ANGBASE
 50
0.0
  9
$ANGDIR
 70
     0
  9
$PDMODE
 70
     0
  9
$PDSIZE
 40
0.0
  9
$PLINEWID
 40
0.0
  9
$SPLFRAME
 70
     0
  9
$SPLINETYPE
 70
     6
  9
$SPLINESEGS
 70
     8
  9
$HANDSEED
  5
3AB
  9
$SURFTAB1
 70
     6
  9
$SURFTAB2
 70
     6
  9
$SURFTYPE
 70
     6
  9
$SURFU
 70
     6
  9
$SURFV
 70
     6
  9
$UCSBASE
  2

  9
$UCSNAME
  2

  9
$UCSORG
 10
0.0
 20
0.0
 30
0.0
  9
$UCSXDIR
 10
1.0
 20
0.0
 30
0.0
  9
$UCSYDIR
 10
0.0
 20
1.0
 30
0.0
  9
$UCSORTHOREF
  2

  9
$UCSORTHOVIEW
 70
     0
  9
$UCSORGTOP
 10
0.0
 20
0.0
 30
0.0
  9
$UCSORGBOTTOM
 10
0.0
 20
0.0
 30
0.0
  9
$UCSORGLEFT
 10
0.0
 20
0.0
 30
0.0
  9
$UCSORGRIGHT
 10
0.0
 20
0.0
 30
0.0
  9
$UCSORGFRONT
 10
0.0
 20
0.0
 30
0.0
  9
$UCSORGBACK
 10
0.0
 20
0.0
 30
0.0
  9
$PUCSBASE
  2

  9
$PUCSNAME
  2

  9
$PUCSORG
 10
0.0
 20
0.0
 30
0.0
  9
$PUCSXDIR
 10
1.0
 20
0.0
 30
0.0
  9
$PUCSYDIR
 10
0.0
 20
1.0
 30
0.0
  9
$PUCSORTHOREF
  2

  9
$PUCSORTHOVIEW
 70
     0
  9
$PUCSORGTOP
 10
0.0
 20
0.0
 30
0.0
  9
$PUCSORGBOTTOM
 10
0.0
 20
0.0
 30
0.0
  9
$PUCSORGLEFT
 10
0.0
 20
0.0
 30
0.0
  9
$PUCSORGRIGHT
 10
0.0
 20
0.0
 30
0.0
  9
$PUCSORGFRONT
 10
0.0
 20
0.0
 30
0.0
  9
$PUCSORGBACK
 10
0.0
 20
0.0
 30
0.0
  9
$USERI1
 70
     0
  9
$USERI2
 70
     0
  9
$USERI3
 70
     0
  9
$USERI4
 70
     0
  9
$USERI5
 70
     0
  9
$USERR1
 40
0.0
  9
$USERR2
 40
0.0
  9
$USERR3
 40
0.0
  9
$USERR4
 40
0.0
  9
$USERR5
 40
0.0
  9
$WORLDVIEW
 70
     1
  9
$SHADEDGE
 70
     3
  9
$SHADEDIF
 70
    70
  9
$TILEMODE
 70
     1
  9
$MAXACTVP
 70
    64
  9
$PINSBASE
 10
0.0
 20
0.0
 30
0.0
  9
$PLIMCHECK
 70
     0
  9
$PEXTMIN
 10
1.000000000000000E+20
 20
1.000000000000000E+20
 30
1.000000000000000E+20
  9
$PEXTMAX
 10
-1.000000000000000E+20
 20
-1.000000000000000E+20
 30
-1.000000000000000E+20
  9
$PLIMMIN
 10
0.0
 20
0.0
  9
$PLIMMAX
 10
12.0
 20
9.0
  9
$UNITMODE
 70
     0
  9
$VISRETAIN
 70
     1
  9
$PLINEGEN
 70
     0
  9
$PSLTSCALE
 70
     1
  9
$TREEDEPTH
 70
  3020
  9
$CMLSTYLE
  2
Standard
  9
$CMLJUST
 70
     0
  9
$CMLSCALE
 40
1.0
  9
$PROXYGRAPHICS
 70
     1
  9
$MEASUREMENT
 70
     1
  9
$CELWEIGHT
370
    -1
  9
$ENDCAPS
280
     0
  9
$JOINSTYLE
280
     0
  9
$LWDISPLAY
290
     0
  9
$INSUNITS
 70
     4
  9
$HYPERLINKBASE
  1

  9
$STYLESHEET
  1

  9
$XEDIT
290
     1
  9
$CEPSNTYPE
380
     0
  9
$PSTYLEMODE
290
     1
  9
$FINGERPRINTGUID
  2
{FB74E3BD-2675-4980-BA7B-D13C401FAF7C}
  9
$VERSIONGUID
  2
{88C88588-7358-49FD-B7B5-48B581E1CB1E}
  9
$EXTNAMES
290
     1
  9
$PSVPSCALE
 40
0.0
  9
$OLESTARTUP
290
     0
  9
$SORTENTS
280
   127
  9
$INDEXCTL
280
     0
  9
$HIDETEXT
280
     1
  9
$XCLIPFRAME
280
     2
  9
$HALOGAP
280
     0
  9
$OBSCOLOR
 70
   257
  9
$OBSLTYPE
280
     0
  9
$INTERSECTIONDISPLAY
280
     0
  9
$INTERSECTIONCOLOR
 70
   257
  9
$DIMASSOC
280
     2
  9
$PROJECTNAME
  1

  9
$CAMERADISPLAY
290
     0
  9
$LENSLENGTH
 40
50.0
  9
$CAMERAHEIGHT
 40
0.0
  9
$STEPSPERSEC
 40
2.0
  9
$STEPSIZE
 40
6.0
  9
$3DDWFPREC
 40
2.0
  9
$PSOLWIDTH
 40
0.25
  9
$PSOLHEIGHT
 40
4.0
  9
$LOFTANG1
 40
1.570796326794896
  9
$LOFTANG2
 40
1.570796326794896
  9
$LOFTMAG1
 40
0.0
  9
$LOFTMAG2
 40
0.0
  9
$LOFTPARAM
 70
     7
  9
$LOFTNORMALS
280
     1
  9
$LATITUDE
 40
37.795
  9
$LONGITUDE
 40
-122.394
  9
$NORTHDIRECTION
 40
0.0
  9
$TIMEZONE
 70
 -8000
  9
$LIGHTGLYPHDISPLAY
280
     1
  9
$TILEMODELIGHTSYNCH
280
     1
  9
$CMATERIAL
347
11
  9
$SOLIDHIST
280
     0
  9
$SHOWHIST
280
     1
  9
$DWFFRAME
280
     2
  9
$DGNFRAME
280
     0
  9
$REALWORLDSCALE
290
     1
  9
$INTERFERECOLOR
 62
     1
  9
$INTERFEREOBJVS
345
33
  9
$INTERFEREVPVS
346
30
  9
$CSHADOW
280
     0
  9
$SHADOWPLANELOCATION
 40
0.0
  0
ENDSEC
  0
SECTION
  2
CLASSES
  0
CLASS
  1
ACDBDICTIONARYWDFLT
  2
AcDbDictionaryWithDefault
  3
ObjectDBX Classes
 90
        0
 91
        1
280
     0
281
     0
  0
CLASS
  1
MATERIAL
  2
AcDbMaterial
  3
ObjectDBX Classes
 90
     1153
 91
        3
280
     0
281
     0
  0
CLASS
  1
VISUALSTYLE
  2
AcDbVisualStyle
  3
ObjectDBX Classes
 90
     4095
 91
       24
280
     0
281
     0
  0
CLASS
  1
SCALE
  2
AcDbScale
  3
ObjectDBX Classes
 90
     1153
 91
       17
280
     0
281
     0
  0
CLASS
  1
TABLESTYLE
  2
AcDbTableStyle
  3
ObjectDBX Classes
 90
     4095
 91
        1
280
     0
281
     0
  0
CLASS
  1
MLEADERSTYLE
  2
AcDbMLeaderStyle
  3
ACDB_MLEADERSTYLE_CLASS
 90
     4095
 91
        1
280
     0
281
     0
  0
CLASS
  1
ACDBSECTIONVIEWSTYLE
  2
AcDbSectionViewStyle
  3
ObjectDBX Classes
 90
     1025
 91
        1
280
     0
281
     0
  0
CLASS
  1
ACDBDETAILVIEWSTYLE
  2
AcDbDetailViewStyle
  3
ObjectDBX Classes
 90
     1025
 91
        1
280
     0
281
     0
  0
CLASS
  1
RASTERVARIABLES
  2
AcDbRasterVariables
  3
ISM
 90
        0
 91
        1
280
     0
281
     0
  0
CLASS
  1
DICTIONARYVAR
  2
AcDbDictionaryVar
  3
ObjectDBX Classes
 90
        0
 91
        5
280
     0
281
     0
  0
CLASS
  1
CELLSTYLEMAP
  2
AcDbCellStyleMap
  3
ObjectDBX Classes
 90
     1152
 91
        2
280
     0
281
     0
  0
CLASS
  1
SORTENTSTABLE
  2
AcDbSortentsTable
  3
ObjectDBX Classes
 90
        0
 91
        1
280
     0
281
     0
  0
ENDSEC
  0
SECTION
  2
TABLES
  0
TABLE
  2
VPORT
  5
8
330
0
100
AcDbSymbolTable
 70
     1
  0
VPORT
  5
57
330
8
100
AcDbSymbolTableRecord
100
AcDbViewportTableRecord
  2
*Active
 70
     0
 10
0.0
 20
0.0
 11
1.0
 21
1.0
 12
946.2561865599552
 22
1888.49922152427
 13
0.0
 23
0.0
 14
1.0
 24
1.0
 15
0.0
 25
0.0
 16
0.0
 26
0.0
 36
1.0
 17
0.0
 27
0.0
 37
0.0
 40
451.6879099192308
 41
1.155037191231301
 42
50.0
 43
0.0
 44
0.0
 50
0.0
 51
0.0
 71
     0
 72
  1000
 73
     1
 74
     1
 75
     0
 76
     0
 77
     0
 78
     0
281
     0
 65
     1
110
0.0
120
0.0
130
0.0
111
1.0
121
0.0
131
0.0
112
0.0
122
1.0
132
0.0
 79
     0
146
0.0
 60
     3
 61
     5
292
     1
282
     1
141
0.0
142
0.0
 63
   250
421
  3355443
  0
ENDTAB
  0
TABLE
  2
LTYPE
  5
5
330
0
100
AcDbSymbolTable
 70
     3
  0
LTYPE
  5
5B
330
5
100
AcDbSymbolTableRecord
100
AcDbLinetypeTableRecord
  2
ByBlock
 70
     0
  3

 72
    65
 73
     0
 40
0.0
  0
LTYPE
  5
5C
330
5
100
AcDbSymbolTableRecord
100
AcDbLinetypeTableRecord
  2
ByLayer
 70
     0
  3

 72
    65
 73
     0
 40
0.0
  0
LTYPE
  5
5D
330
5
100
AcDbSymbolTableRecord
100
AcDbLinetypeTableRecord
  2
Continuous
 70
     0
  3
Solid line
 72
    65
 73
     0
 40
0.0
  0
LTYPE
  5
69
330
5
100
AcDbSymbolTableRecord
100
AcDbLinetypeTableRecord
  2
PHANTOM2
 70
     0
  3
___ _ _ ___ _ _ ___ _ _ ___ _ _
 72
    65
 73
     6
 40
1.25
 49
0.625
 74
     0
 49
-0.125
 74
     0
 49
0.125
 74
     0
 49
-0.125
 74
     0
 49
0.125
 74
     0
 49
-0.125
 74
     0
  0
LTYPE
  5
86
330
5
100
AcDbSymbolTableRecord
100
AcDbLinetypeTableRecord
  2
Nascosto 1_5 mm
 70
     0
  3

 72
    65
 73
     2
 40
2.2
 49
1.5
 74
     0
 49
-0.7000000000000001
 74
     0
  0
ENDTAB
  0
TABLE
  2
LAYER
  5
2
330
0
100
AcDbSymbolTable
 70
     4
  0
LAYER
  5
54
330
2
100
AcDbSymbolTableRecord
100
AcDbLayerTableRecord
  2
0
 70
     0
 62
     7
  6
Continuous
370
    -3
390
F
347
21
348
0
  0
LAYER
  5
85
330
2
100
AcDbSymbolTableRecord
100
AcDbLayerTableRecord
  2
P-SANR-FIXT
 70
     0
 62
     6
  6
Continuous
370
    18
390
F
347
21
348
0
  0
LAYER
  5
88
330
2
100
AcDbSymbolTableRecord
100
AcDbLayerTableRecord
  2
M-PIPE
 70
     0
 62
     3
  6
Continuous
370
    18
390
F
347
21
348
0
  0
ENDTAB
  0
TABLE
  2
STYLE
  5
3
330
0
100
AcDbSymbolTable
 70
     2
  0
STYLE
  5
55
330
3
100
AcDbSymbolTableRecord
100
AcDbTextStyleTableRecord
  2
Standard
 70
     0
 40
0.0
 41
1.0
 50
0.0
 71
     0
 42
0.2
  3
txt
  4

  0
STYLE
  5
5A
330
3
100
AcDbSymbolTableRecord
100
AcDbTextStyleTableRecord
  2
Annotative
 70
     0
 40
0.0
 41
1.0
 50
0.0
 71
     0
 42
0.2
  3
txt
  4

1001
AcadAnnotative
1000
AnnotativeData
1002
{
1070
     1
1070
     1
1002
}
  0
ENDTAB
  0
TABLE
  2
VIEW
  5
6
330
0
100
AcDbSymbolTable
 70
     0
  0
ENDTAB
  0
TABLE
  2
UCS
  5
7
330
0
100
AcDbSymbolTable
 70
     0
  0
ENDTAB
  0
TABLE
  2
APPID
  5
9
330
0
100
AcDbSymbolTable
 70
     3
  0
APPID
  5
56
330
9
100
AcDbSymbolTableRecord
100
AcDbRegAppTableRecord
  2
ACAD
 70
     0
  0
APPID
  5
5E
330
9
100
AcDbSymbolTableRecord
100
AcDbRegAppTableRecord
  2
AcadAnnotative
 70
     0
  0
APPID
  5
79
330
9
100
AcDbSymbolTableRecord
100
AcDbRegAppTableRecord
  2
REVIT
 70
     0
  0
ENDTAB
  0
TABLE
  2
DIMSTYLE
  5
A
330
0
100
AcDbSymbolTable
 70
     2
100
AcDbDimStyleTable
 71
     0
  0
DIMSTYLE
105
58
330
A
100
AcDbSymbolTableRecord
100
AcDbDimStyleTableRecord
  2
Standard
 70
     0
340
55
  0
DIMSTYLE
105
59
330
A
100
AcDbSymbolTableRecord
100
AcDbDimStyleTableRecord
  2
Annotative
 70
     0
340
55
1001
AcadAnnotative
1000
AnnotativeData
1002
{
1070
     1
1070
     1
1002
}
  0
ENDTAB
  0
TABLE
  2
BLOCK_RECORD
  5
1
330
0
100
AcDbSymbolTable
 70
     4
  0
BLOCK_RECORD
  5
71
102
{ACAD_XDICTIONARY
360
3A6
102
}
330
1
100
AcDbSymbolTableRecord
100
AcDbBlockTableRecord
  2
*Model_Space
340
74
 70
     0
280
     1
281
     0
  0
BLOCK_RECORD
  5
6D
330
1
100
AcDbSymbolTableRecord
100
AcDbBlockTableRecord
  2
*Paper_Space
340
70
 70
     0
280
     1
281
     0
  0
BLOCK_RECORD
  5
75
330
1
100
AcDbSymbolTableRecord
100
AcDbBlockTableRecord
  2
*Paper_Space0
340
78
 70
     0
280
     1
281
     0
  0
BLOCK_RECORD
  5
87
330
1
100
AcDbSymbolTableRecord
100
AcDbBlockTableRecord
  2
Automatic flow rate regulator valve_Caleffi_121 DN15 - 2___Pressure gauge H-980146-Est - Idraulica
340
0
102
{BLKREFS
331
1BC
102
}
 70
     0
280
     1
281
     0
  0
BLOCK_RECORD
  5
1BD
330
1
100
AcDbSymbolTableRecord
100
AcDbBlockTableRecord
  2
Automatic flow rate regulator valve_Caleffi_121 DN15 - 2___Pressure gauge H-V1-Est - Idraulica
340
0
102
{BLKREFS
331
2C8
102
}
 70
     0
280
     1
281
     0
  0
BLOCK_RECORD
  5
2C9
330
1
100
AcDbSymbolTableRecord
100
AcDbBlockTableRecord
  2
Automatic flow rate regulator valve_Caleffi_121 DN15 - 2___Pressure gauge H-V2-Est - Idraulica
340
0
102
{BLKREFS
331
39F
102
}
 70
     0
280
     1
281
     0
  0
ENDTAB
  0
ENDSEC
  0
SECTION
  2
BLOCKS
  0
BLOCK
  5
72
330
71
100
AcDbEntity
  8
0
100
AcDbBlockBegin
  2
*Model_Space
 70
     0
 10
0.0
 20
0.0
 30
0.0
  3
*Model_Space
  1

  0
ENDBLK
  5
73
330
71
100
AcDbEntity
  8
0
100
AcDbBlockEnd
  0
BLOCK
  5
6E
330
6D
100
AcDbEntity
 67
     1
  8
0
100
AcDbBlockBegin
  2
*Paper_Space
 70
     0
 10
0.0
 20
0.0
 30
0.0
  3
*Paper_Space
  1

  0
ENDBLK
  5
6F
330
6D
100
AcDbEntity
 67
     1
  8
0
100
AcDbBlockEnd
  0
BLOCK
  5
76
330
75
100
AcDbEntity
 67
     1
  8
0
100
AcDbBlockBegin
  2
*Paper_Space0
 70
     0
 10
0.0
 20
0.0
 30
0.0
  3
*Paper_Space0
  1

  0
ENDBLK
  5
77
330
75
100
AcDbEntity
 67
     1
  8
0
100
AcDbBlockEnd
  0
BLOCK
  5
1BA
330
87
100
AcDbEntity
  8
0
100
AcDbBlockBegin
  2
Automatic flow rate regulator valve_Caleffi_121 DN15 - 2___Pressure gauge H-980146-Est - Idraulica
 70
     0
 10
0.0
 20
0.0
 30
0.0
  3
Automatic flow rate regulator valve_Caleffi_121 DN15 - 2___Pressure gauge H-980146-Est - Idraulica
  1

  0
LWPOLYLINE
  5
89
330
87
100
AcDbEntity
  8
M-PIPE
100
AcDbPolyline
 90
        3
 70
   128
 43
0.0
 10
688.3365795372612
 20
2082.375128132049
 10
686.5536880084244
 20
2092.214232012696
 10
685.4390005192603
 20
2099.918340072417
1001
REVIT
1002
{
1070
     3
1000
923097
1002
}
  0
LWPOLYLINE
  5
8A
330
87
100
AcDbEntity
  8
M-PIPE
100
AcDbPolyline
 90
        3
 70
   128
 43
0.0
 10
718.7467846461356
 20
2112.041382063962
 10
723.9733999601571
 20
2103.516761266707
 10
727.8036696102702
 20
2096.739974151725
1001
REVIT
1002
{
1070
     3
1000
923097
1002
}
  0
LWPOLYLINE
  5
8B
330
87
100
AcDbEntity
  8
M-PIPE
100
AcDbPolyline
 90
       31
 70
   128
 43
0.0
 10
685.4390005192601
 20
2099.918340072418
 10
685.4174198710661
 20
2100.117158941177
 10
685.4038071192745
 20
2100.3166817718
 10
685.3981840413839
 20
2100.51658937032
 10
685.4005596331197
 20
2100.716561927225
 10
685.4109300940417
 20
2100.916279529082
 10
685.4292788336245
 20
2101.115422670331
 10
685.4555764977992
 20
2101.31367276443
 10
685.489781015913
 20
2101.510712653518
 10
685.5318376680334
 20
2101.706227115805
 10
685.5816791724886
 20
2101.89990336986
 10
685.6392257935039
 20
2102.091431574992
 10
685.7043854687614
 20
2102.280505326928
 10
685.7770539566807
 20
2102.466822148
 10
685.8571150031832
 20
2102.650083971041
 10
685.9444405276732
 20
2102.829997616225
 10
686.0388908279397
 20
2103.006275260102
 10
686.1403148036507
 20
2103.178634896044
 10
686.2485501980812
 20
2103.346800785402
 10
686.363423857689
 20
2103.510503898627
 10
686.4847520091237
 20
2103.669482345658
 10
686.6123405532252
 20
2103.823481794895
 10
686.74598537554
 20
2103.972255880069
 10
686.8854726728622
 20
2104.115566594383
 10
687.0305792952714
 20
2104.253184671263
 10
687.1810731031265
 20
2104.384889951143
 10
687.3367133384383
 20
2104.510471733672
 10
687.497251010032
 20
2104.629729114787
 10
687.662429291879
 20
2104.742471308118
 10
687.8319839339649
 20
2104.848517950206
 10
687.834251718823
 20
2104.849873179004
1001
REVIT
1002
{
1070
     3
1000
923097
1002
}
  0
LWPOLYLINE
  5
8C
330
87
100
AcDbEntity
  8
M-PIPE
100
AcDbPolyline
 90
       31
 70
   128
 43
0.0
 10
713.7419873971635
 20
2114.279517803155
 10
713.940024565456
 20
2114.307373627066
 10
714.1390172609884
 20
2114.327287794784
 10
714.3386471378969
 20
2114.339228447891
 10
714.5385948309641
 20
2114.343176483886
 10
714.7385404665342
 20
2114.339125586756
 10
714.9381641742431
 20
2114.327082237072
 10
715.137146598743
 20
2114.307065701625
 10
715.3351694106013
 20
2114.279108002599
 10
715.5319158155621
 20
2114.243253866351
 10
715.7270710613478
 20
2114.19956065185
 10
715.9203229411957
 20
2114.148098258918
 10
716.1113622933234
 20
2114.088949016406
 10
716.2998834955201
 20
2114.022207550484
 10
716.485584954078
 20
2113.94798063326
 10
716.6681695862777
 20
2113.866387011967
 10
716.8473452956568
 20
2113.777557218995
 10
717.0228254393028
 20
2113.681633363061
 10
717.1943292864191
 20
2113.578768901874
 10
717.3615824674363
 20
2113.469128396627
 10
717.5243174129432
 20
2113.352887248741
 10
717.682273781742
 20
2113.230231419255
 10
717.8351988773385
 20
2113.10135713133
 10
717.9828480522018
 20
2112.966470556338
 10
718.1249850991489
 20
2112.825787484021
 10
718.2613826292258
 20
2112.679532977288
 10
718.3918224354807
 20
2112.527941012146
 10
718.5160958420493
 20
2112.371254103405
 10
718.6340040379916
 20
2112.209722916693
 10
718.7453583953463
 20
2112.04360586745
 10
718.7467846461349
 20
2112.041382063964
1001
REVIT
1002
{
1070
     3
1000
923097
1002
}
  0
LWPOLYLINE
  5
8D
330
87
100
AcDbEntity
  8
M-PIPE
100
AcDbPolyline
 90
        6
 70
   128
 43
0.0
 10
687.834251718823
 20
2104.849873179004
 10
690.3791344493721
 20
2106.301536809281
 10
692.9800326072138
 20
2107.650271097511
 10
695.6327853101249
 20
2108.89391835655
 10
698.3331487196707
 20
2110.030489016078
 10
700.3404693346068
 20
2110.794604371651
1001
REVIT
1002
{
1070
     3
1000
923097
1002
}
  0
LWPOLYLINE
  5
8E
330
87
100
AcDbEntity
  8
M-PIPE
100
AcDbPolyline
 90
        6
 70
   128
 43
0.0
 10
700.3404693346047
 20
2110.79460437165
 10
703.1130742672989
 20
2111.741397535396
 10
705.9213230400064
 20
2112.576558740375
 10
708.7607230537518
 20
2113.298751906818
 10
711.6267318742194
 20
2113.906821679719
 10
713.7419873971635
 20
2114.279517803155
1001
REVIT
1002
{
1070
     3
1000
923097
1002
}
  0
SPLINE
  5
8F
330
87
100
AcDbEntity
  8
M-PIPE
100
AcDbSpline
210
0.0
220
0.0
230
1.0
 70
     8
 71
     3
 72
     9
 73
     5
 74
     0
 42
0.000000001
 43
0.0000000001
 40
-1.0
 40
-1.0
 40
-1.0
 40
-1.0
 40
-0.5
 40
0.0
 40
0.0
 40
0.0
 40
0.0
 10
717.7131459630592
 20
2111.665168350338
 30
0.0
 10
719.1943923040441
 20
2109.593416185989
 30
0.0
 10
722.1521267673471
 20
2105.387501119071
 30
0.0
 10
724.8224420963846
 20
2100.955616266
 30
0.0
 10
726.0640703399868
 20
2098.675292470093
 30
0.0
1001
REVIT
1002
{
1070
     3
1000
923097
1002
}
  0
LINE
  5
90
330
87
100
AcDbEntity
  8
M-PIPE
100
AcDbLine
 10
726.0640703399879
 20
2098.675292470092
 30
0.0
 11
720.661365966721
 21
2096.708868893682
 31
0.0
1001
REVIT
1002
{
1070
     3
1000
923097
1002
}
  0
SPLINE
  5
91
330
87
100
AcDbEntity
  8
M-PIPE
100
AcDbSpline
210
0.0
220
0.0
230
1.0
 70
     8
 71
     3
 72
     9
 73
     5
 74
     0
 42
0.000000001
 43
0.0000000001
 40
-1.0
 40
-1.0
 40
-1.0
 40
-1.0
 40
-0.5
 40
0.0
 40
0.0
 40
0.0
 40
0.0
 10
720.6613659667201
 20
2096.708868893685
 30
0.0
 10
719.6278135771956
 20
2099.064926106945
 30
0.0
 10
717.540172625984
 20
2103.708887089813
 30
0.0
 10
715.6797197612555
 20
2108.314179997222
 30
0.0
 10
714.9050042683801
 20
2110.643088359872
 30
0.0
1001
REVIT
1002
{
1070
     3
1000
923097
1002
}
  0
SPLINE
  5
92
330
87
100
AcDbEntity
  8
M-PIPE
100
AcDbSpline
210
0.0
220
0.0
230
1.0
 70
     8
 71
     3
 72
     9
 73
     5
 74
     0
 42
0.000000001
 43
0.0000000001
 40
-1.0
 40
-1.0
 40
-1.0
 40
-1.0
 40
-0.5
 40
0.0
 40
0.0
 40
0.0
 40
0.0
 10
704.9010342773519
 20
2107.001941058646
 30
0.0
 10
706.4466863425495
 20
2104.953630660828
 30
0.0
 10
709.2417121940695
 20
2100.688494502362
 30
0.0
 10
711.5611344623801
 20
2096.128895019777
 30
0.0
 10
712.6473351710854
 20
2093.792000227581
 30
0.0
1001
REVIT
1002
{
1070
     3
1000
923097
1002
}
  0
LINE
  5
93
330
87
100
AcDbEntity
  8
M-PIPE
100
AcDbLine
 10
712.6473351710862
 20
2093.792000227579
 30
0.0
 11
701.8419264245885
 21
2089.859153074774
 31
0.0
1001
REVIT
1002
{
1070
     3
1000
923097
1002
}
  0
SPLINE
  5
94
330
87
100
AcDbEntity
  8
M-PIPE
100
AcDbSpline
210
0.0
220
0.0
230
1.0
 70
     8
 71
     3
 72
     9
 73
     5
 74
     0
 42
0.000000001
 43
0.0000000001
 40
-1.0
 40
-1.0
 40
-1.0
 40
-1.0
 40
-0.5
 40
0.0
 40
0.0
 40
0.0
 40
0.0
 10
701.8419264245879
 20
2089.859153074776
 30
0.0
 10
701.1718774240388
 20
2092.34751470168
 30
0.0
 10
700.0178039113846
 20
2097.331266443864
 30
0.0
 10
699.417341257027
 20
2102.395158283313
 30
0.0
 10
699.2847508880577
 20
2104.95778107774
 30
0.0
1001
REVIT
1002
{
1070
     3
1000
923097
1002
}
  0
SPLINE
  5
95
330
87
100
AcDbEntity
  8
M-PIPE
100
AcDbSpline
210
0.0
220
0.0
230
1.0
 70
     8
 71
     3
 72
     9
 73
     5
 74
     0
 42
0.000000001
 43
0.0000000001
 40
-1.0
 40
-1.0
 40
-1.0
 40
-1.0
 40
-0.5
 40
0.0
 40
0.0
 40
0.0
 40
0.0
 10
689.2807808970121
 20
2101.316633776507
 30
0.0
 10
690.184307838304
 20
2099.034608946912
 30
0.0
 10
691.7193434794532
 20
2094.310873856403
 30
0.0
 10
693.1051983092051
 20
2089.411483614503
 30
0.0
 10
693.8278956289337
 20
2086.942284408666
 30
0.0
1001
REVIT
1002
{
1070
     3
1000
923097
1002
}
  0
LINE
  5
96
330
87
100
AcDbEntity
  8
M-PIPE
100
AcDbLine
 10
693.8278956289344
 20
2086.942284408664
 30
0.0
 11
688.4251912556671
 21
2084.975860832256
 31
0.0
1001
REVIT
1002
{
1070
     3
1000
923097
1002
}
  0
SPLINE
  5
97
330
87
100
AcDbEntity
  8
M-PIPE
100
AcDbSpline
210
0.0
220
0.0
230
1.0
 70
     8
 71
     3
 72
     9
 73
     5
 74
     0
 42
0.000000001
 43
0.0000000001
 40
-1.0
 40
-1.0
 40
-1.0
 40
-1.0
 40
-0.5
 40
0.0
 40
0.0
 40
0.0
 40
0.0
 10
688.4251912556668
 20
2084.975860832257
 30
0.0
 10
687.9105697900158
 20
2087.520793455448
 30
0.0
 10
687.1073893380899
 20
2092.632259827147
 30
0.0
 10
686.6696352955154
 20
2097.755372758145
 30
0.0
 10
686.4726392023331
 20
2100.294553786042
 30
0.0
1001
REVIT
1002
{
1070
     3
1000
923097
1002
}
  0
LINE
  5
98
330
87
100
AcDbEntity
  8
M-PIPE
100
AcDbLine
 10
688.8132059425203
 20
2082.548605956428
 30
0.0
 11
689.182732533717
 21
2082.683102636393
 31
0.0
1001
REVIT
1002
{
1070
     3
1000
923097
1002
}
  0
LINE
  5
99
330
87
100
AcDbEntity
  8
M-PIPE
100
AcDbLine
 10
689.6521380342928
 20
2082.853952266404
 30
0.0
 11
689.8387062106483
 21
2082.921857529258
 31
0.0
1001
REVIT
1002
{
1070
     3
1000
923097
1002
}
  0
LINE
  5
9A
330
87
100
AcDbEntity
  8
M-PIPE
100
AcDbLine
 10
690.2176260055675
 20
2083.059773055783
 30
0.0
 11
690.487407200874
 21
2083.157965380639
 31
0.0
1001
REVIT
1002
{
1070
     3
1000
923097
1002
}
  0
LINE
  5
9B
330
87
100
AcDbEntity
  8
M-PIPE
100
AcDbLine
 10
690.8728143702436
 20
2083.298242118363
 30
0.0
 11
691.6118172183841
 21
2083.567217158124
 31
0.0
1001
REVIT
1002
{
1070
     3
1000
923097
1002
}
  0
LINE
  5
9C
330
87
100
AcDbEntity
  8
M-PIPE
100
AcDbLine
 10
692.4318552785219
 20
2083.865686602979
 30
0.0
 11
693.0646192055696
 21
2084.095993837742
 31
0.0
1001
REVIT
1002
{
1070
     3
1000
923097
1002
}
  0
LINE
  5
9D
330
87
100
AcDbEntity
  8
M-PIPE
100
AcDbLine
 10
693.3309095728345
 20
2084.192915605099
 30
0.0
 11
694.1164010616021
 21
2084.478811126279
 31
0.0
1001
REVIT
1002
{
1070
     3
1000
923097
1002
}
  0
LINE
  5
9E
330
87
100
AcDbEntity
  8
M-PIPE
100
AcDbLine
 10
694.3076190205005
 20
2084.548408771575
 30
0.0
 11
695.254212263171
 21
2084.892940535865
 31
0.0
1001
REVIT
1002
{
1070
     3
1000
923097
1002
}
  0
LINE
  5
9F
330
87
100
AcDbEntity
  8
M-PIPE
100
AcDbLine
 10
695.3611777771241
 20
2084.931872799036
 30
0.0
 11
697.6708609736813
 21
2085.772528733168
 31
0.0
1001
REVIT
1002
{
1070
     3
1000
923097
1002
}
  0
LINE
  5
A0
330
87
100
AcDbEntity
  8
M-PIPE
100
AcDbLine
 10
697.7593756154334
 20
2085.804745428062
 30
0.0
 11
698.9130002866898
 21
2086.224630469915
 31
0.0
1001
REVIT
1002
{
1070
     3
1000
923097
1002
}
  0
LINE
  5
A1
330
87
100
AcDbEntity
  8
M-PIPE
100
AcDbLine
 10
699.1112826010088
 20
2086.296799330308
 30
0.0
 11
700.2074722290325
 21
2086.69577972602
 31
0.0
1001
REVIT
1002
{
1070
     3
1000
923097
1002
}
  0
LINE
  5
A2
330
87
100
AcDbEntity
  8
M-PIPE
100
AcDbLine
 10
700.5184238264637
 20
2086.808956851783
 30
0.0
 11
701.5475805549384
 21
2087.183539267342
 31
0.0
1001
REVIT
1002
{
1070
     3
1000
923097
1002
}
  0
LINE
  5
A3
330
87
100
AcDbEntity
  8
M-PIPE
100
AcDbLine
 10
701.9721237982212
 20
2087.338060371056
 30
0.0
 11
702.9263157686809
 21
2087.685357846079
 31
0.0
1001
REVIT
1002
{
1070
     3
1000
923097
1002
}
  0
LINE
  5
A4
330
87
100
AcDbEntity
  8
M-PIPE
100
AcDbLine
 10
702.9299353544616
 20
2087.686675267563
 30
0.0
 11
713.1449829740942
 21
2091.404648542721
 31
0.0
1001
REVIT
1002
{
1070
     3
1000
923097
1002
}
  0
LINE
  5
A5
330
87
100
AcDbEntity
  8
M-PIPE
100
AcDbLine
 10
713.1483758287206
 20
2091.405883440815
 30
0.0
 11
714.1681253493077
 21
2091.777041912715
 31
0.0
1001
REVIT
1002
{
1070
     3
1000
923097
1002
}
  0
LINE
  5
A6
330
87
100
AcDbEntity
  8
M-PIPE
100
AcDbLine
 10
714.5244298322976
 20
2091.906726138859
 30
0.0
 11
715.6218253210649
 21
2092.306145431988
 31
0.0
1001
REVIT
1002
{
1070
     3
1000
923097
1002
}
  0
LINE
  5
A7
330
87
100
AcDbEntity
  8
M-PIPE
100
AcDbLine
 10
715.8637351542291
 20
2092.394193410637
 30
0.0
 11
718.3808735320957
 21
2093.31035685571
 31
0.0
1001
REVIT
1002
{
1070
     3
1000
923097
1002
}
  0
LINE
  5
A8
330
87
100
AcDbEntity
  8
M-PIPE
100
AcDbLine
 10
718.4039932448353
 20
2093.318771742971
 30
0.0
 11
719.5959238353456
 21
2093.752598999228
 31
0.0
1001
REVIT
1002
{
1070
     3
1000
923097
1002
}
  0
LINE
  5
A9
330
87
100
AcDbEntity
  8
M-PIPE
100
AcDbLine
 10
719.6692113216712
 20
2093.779273462795
 30
0.0
 11
720.7269619042424
 21
2094.164263190128
 31
0.0
1001
REVIT
1002
{
1070
     3
1000
923097
1002
}
  0
LINE
  5
AA
330
87
100
AcDbEntity
  8
M-PIPE
100
AcDbLine
 10
720.8860368843581
 20
2094.222161747907
 30
0.0
 11
721.7879261218343
 21
2094.550422584954
 31
0.0
1001
REVIT
1002
{
1070
     3
1000
923097
1002
}
  0
LINE
  5
AB
330
87
100
AcDbEntity
  8
M-PIPE
100
AcDbLine
 10
722.023848085927
 20
2094.636291157493
 30
0.0
 11
722.7734451041975
 21
2094.909122159839
 31
0.0
1001
REVIT
1002
{
1070
     3
1000
923097
1002
}
  0
LINE
  5
AC
330
87
100
AcDbEntity
  8
M-PIPE
100
AcDbLine
 10
723.0756299419594
 20
2095.019108446031
 30
0.0
 11
723.6814935081896
 21
2095.239624750164
 31
0.0
1001
REVIT
1002
{
1070
     3
1000
923097
1002
}
  0
LINE
  5
AD
330
87
100
AcDbEntity
  8
M-PIPE
100
AcDbLine
 10
724.0348978675601
 20
2095.368253417635
 30
0.0
 11
724.0400369773616
 21
2095.370123900633
 31
0.0
1001
REVIT
1002
{
1070
     3
1000
923097
1002
}
  0
LINE
  5
AE
330
87
100
AcDbEntity
  8
M-PIPE
100
AcDbLine
 10
724.5097173623483
 20
2095.541073580388
 30
0.0
 11
724.8957376569785
 21
2095.681573477456
 31
0.0
1001
REVIT
1002
{
1070
     3
1000
923097
1002
}
  0
LINE
  5
AF
330
87
100
AcDbEntity
  8
M-PIPE
100
AcDbLine
 10
725.2553582933536
 20
2095.812464684724
 30
0.0
 11
725.9151814343388
 21
2096.052620667922
 31
0.0
1001
REVIT
1002
{
1070
     3
1000
923097
1002
}
  0
LINE
  5
B0
330
87
100
AcDbEntity
  8
M-PIPE
100
AcDbLine
 10
726.4837062737296
 20
2096.259546786901
 30
0.0
 11
726.9552019905935
 21
2096.431157193425
 31
0.0
1001
REVIT
1002
{
1070
     3
1000
923097
1002
}
  0
LINE
  5
B1
330
87
100
AcDbEntity
  8
M-PIPE
100
AcDbLine
 10
727.3260320291042
 20
2096.566128289414
 30
0.0
 11
727.560716924929
 21
2096.651546605926
 31
0.0
1001
REVIT
1002
{
1070
     3
1000
923097
1002
}
  0
LINE
  5
B2
330
87
100
AcDbEntity
  8
M-PIPE
100
AcDbLine
 10
727.7186510469967
 20
2096.709029925333
 30
0.0
 11
727.742837676659
 21
2096.717833138598
 31
0.0
1001
REVIT
1002
{
1070
     3
1000
923097
1002
}
  0
SPLINE
  5
B3
330
87
100
AcDbEntity
  8
M-PIPE
100
AcDbSpline
210
0.0
220
0.0
230
1.0
 70
     8
 71
     3
 72
    24
 73
    20
 74
     0
 42
0.000000001
 43
0.0000000001
 40
-1.0
 40
-1.0
 40
-1.0
 40
-1.0
 40
-0.925
 40
-0.85
 40
-0.8125
 40
-0.775
 40
-0.7
 40
-0.625
 40
-0.5875
 40
-0.55
 40
-0.475
 40
-0.4
 40
-0.35
 40
-0.3
 40
-0.25
 40
-0.2
 40
-0.15
 40
-0.1
 40
0.0
 40
0.0
 40
0.0
 40
0.0
 10
686.4726392023331
 20
2100.294553786042
 30
0.0
 10
686.4715692118775
 20
2100.496659731746
 30
0.0
 10
686.4948542056509
 20
2100.8811082565
 30
0.0
 10
686.5836756827674
 20
2101.310928641825
 30
0.0
 10
686.6867623172603
 20
2101.62283467101
 30
0.0
 10
686.8112327042251
 20
2101.913862196316
 30
0.0
 10
687.0146414879946
 20
2102.245045560605
 30
0.0
 10
687.2416809514525
 20
2102.508394961275
 30
0.0
 10
687.4181257381855
 20
2102.665441681397
 30
0.0
 10
687.6024853731727
 20
2102.792966850286
 30
0.0
 10
687.8391965025798
 20
2102.894400139344
 30
0.0
 10
688.0723173717326
 20
2102.910138522845
 30
0.0
 10
688.2659696005955
 20
2102.855804833717
 30
0.0
 10
688.4296156763155
 20
2102.764342775736
 30
0.0
 10
688.5836893740295
 20
2102.62777517731
 30
0.0
 10
688.7268362189412
 20
2102.447938213162
 30
0.0
 10
688.8632033798623
 20
2102.226688167102
 30
0.0
 10
689.0446925353733
 20
2101.877368444365
 30
0.0
 10
689.1835899572267
 20
2101.556056410005
 30
0.0
 10
689.2807808970121
 20
2101.316633776507
 30
0.0
1001
REVIT
1002
{
1070
     3
1000
923097
1002
}
  0
SPLINE
  5
B4
330
87
100
AcDbEntity
  8
M-PIPE
100
AcDbSpline
210
0.0
220
0.0
230
1.0
 70
     8
 71
     3
 72
    24
 73
    20
 74
     0
 42
0.000000001
 43
0.0000000001
 40
-1.0
 40
-1.0
 40
-1.0
 40
-1.0
 40
-0.925
 40
-0.85
 40
-0.8125
 40
-0.775
 40
-0.7
 40
-0.625
 40
-0.5875
 40
-0.55
 40
-0.475
 40
-0.4
 40
-0.35
 40
-0.3
 40
-0.25
 40
-0.2
 40
-0.15
 40
-0.1
 40
0.0
 40
0.0
 40
0.0
 40
0.0
 10
699.2847508880577
 20
2104.95778107774
 30
0.0
 10
699.2901012354344
 20
2105.162223835305
 30
0.0
 10
699.3307010741833
 20
2105.552974448237
 30
0.0
 10
699.4588348269103
 20
2105.997103331719
 30
0.0
 10
699.6086616841031
 20
2106.326021410707
 30
0.0
 10
699.7921500225856
 20
2106.63852971365
 30
0.0
 10
700.1014344862995
 20
2107.008248673968
 30
0.0
 10
700.477706534096
 20
2107.325914293318
 30
0.0
 10
700.7897911432015
 20
2107.532329871364
 30
0.0
 10
701.128436457817
 20
2107.716010435209
 30
0.0
 10
701.5936263747388
 20
2107.900603202085
 30
0.0
 10
702.0955445098876
 20
2108.014175789461
 30
0.0
 10
702.5372641765803
 20
2108.050131263795
 30
0.0
 10
702.92940057437
 20
2108.041832881866
 30
0.0
 10
703.3124874370699
 20
2107.988619258751
 30
0.0
 10
703.6702697589674
 20
2107.886903219446
 30
0.0
 10
704.0008514390278
 20
2107.736341477419
 30
0.0
 10
704.4230887353272
 20
2107.47464691189
 30
0.0
 10
704.7153814302559
 20
2107.209166191013
 30
0.0
 10
704.9010342773519
 20
2107.001941058646
 30
0.0
1001
REVIT
1002
{
1070
     3
1000
923097
1002
}
  0
SPLINE
  5
B5
330
87
100
AcDbEntity
  8
M-PIPE
100
AcDbSpline
210
0.0
220
0.0
230
1.0
 70
     8
 71
     3
 72
    24
 73
    20
 74
     0
 42
0.000000001
 43
0.0000000001
 40
-1.0
 40
-1.0
 40
-1.0
 40
-1.0
 40
-0.925
 40
-0.85
 40
-0.8125
 40
-0.775
 40
-0.7
 40
-0.625
 40
-0.5875
 40
-0.55
 40
-0.475
 40
-0.4
 40
-0.35
 40
-0.3
 40
-0.25
 40
-0.2
 40
-0.15
 40
-0.1
 40
0.0
 40
0.0
 40
0.0
 40
0.0
 10
714.9050042683801
 20
2110.643088359872
 30
0.0
 10
714.8463438422345
 20
2110.824233101206
 30
0.0
 10
714.7428231399147
 20
2111.162528127048
 30
0.0
 10
714.654383945558
 20
2111.52783090425
 30
0.0
 10
714.6129383482757
 20
2111.787131503177
 30
0.0
 10
714.5929821254717
 20
2112.02559204149
 30
0.0
 10
714.6162118315108
 20
2112.291195584649
 30
0.0
 10
714.7073641220232
 20
2112.505086099148
 30
0.0
 10
714.813170220651
 20
2112.636422439412
 30
0.0
 10
714.9480360815756
 20
2112.745933347761
 30
0.0
 10
715.1716047804379
 20
2112.842583183295
 30
0.0
 10
715.4626137888659
 20
2112.879391126409
 30
0.0
 10
715.7507967453031
 20
2112.859463808343
 30
0.0
 10
716.0278253605787
 20
2112.809269619845
 30
0.0
 10
716.3187537045198
 20
2112.722513039066
 30
0.0
 10
716.6079326675771
 20
2112.59582741917
 30
0.0
 10
716.889207508382
 20
2112.427319455305
 30
0.0
 10
717.263455042196
 20
2112.148158044675
 30
0.0
 10
717.5363659243792
 20
2111.875622920867
 30
0.0
 10
717.7131459630592
 20
2111.665168350338
 30
0.0
1001
REVIT
1002
{
1070
     3
1000
923097
1002
}
  0
LINE
  5
B6
330
87
100
AcDbEntity
  8
M-PIPE
100
AcDbLine
 10
691.2022923976591
 20
2070.115940157219
 30
0.0
 11
689.855149333573
 21
2075.74704934307
 31
0.0
1001
REVIT
1002
{
1070
     3
1000
923097
1002
}
  0
LWPOLYLINE
  5
B7
330
87
100
AcDbEntity
  8
M-PIPE
100
AcDbPolyline
 90
        3
 70
   128
 43
0.0
 10
689.7402119236597
 20
2076.227492082981
 10
688.8757785001508
 20
2079.840856633079
 10
688.3365795372676
 20
2082.375128132031
1001
REVIT
1002
{
1070
     3
1000
923097
1002
}
  0
LWPOLYLINE
  5
B8
330
87
100
AcDbEntity
  8
M-PIPE
100
AcDbPolyline
 90
        3
 70
   128
 43
0.0
 10
727.8036696102762
 20
2096.739974151708
 10
732.3649788093995
 20
2087.841596447444
 10
733.4884603330254
 20
2085.506846606874
1001
REVIT
1002
{
1070
     3
1000
923097
1002
}
  0
ELLIPSE
  5
B9
330
87
100
AcDbEntity
  8
M-PIPE
100
AcDbEllipse
 10
665.2989660060064
 20
2035.651152049726
 30
0.0
 11
-85.50488143095298
 21
234.9227309846918
 31
0.0
210
0.0
220
0.0
230
0.9999999999999998
 40
0.2588190451024877
 41
4.81668554190321
 42
4.857000131822782
1001
REVIT
1002
{
1070
     3
1000
923097
1002
}
  0
LINE
  5
BA
330
87
100
AcDbEntity
  8
M-PIPE
100
AcDbLine
 10
716.869338646097
 20
2082.118425424345
 30
0.0
 11
706.0460047980549
 21
2078.179054068132
 31
0.0
1001
REVIT
1002
{
1070
     3
1000
923097
1002
}
  0
SPLINE
  5
BB
330
87
100
AcDbEntity
  8
M-PIPE
100
AcDbSpline
210
0.0
220
0.0
230
1.0
 70
     8
 71
     3
 72
     9
 73
     5
 74
     0
 42
0.000000001
 43
0.0000000001
 40
-1.0
 40
-1.0
 40
-1.0
 40
-1.0
 40
-0.5
 40
0.0
 40
0.0
 40
0.0
 40
0.0
 10
706.0460047980547
 20
2078.179054068133
 30
0.0
 10
705.5170722064093
 20
2079.764640657749
 30
0.0
 10
704.4688155652002
 20
2082.934838372183
 30
0.0
 10
703.4397760081534
 20
2086.10308515702
 30
0.0
 10
702.9300605006706
 20
2087.68672081704
 30
0.0
1001
REVIT
1002
{
1070
     3
1000
923097
1002
}
  0
LINE
  5
BC
330
87
100
AcDbEntity
  8
M-PIPE
100
AcDbLine
 10
691.2022923976577
 20
2070.115940157218
 30
0.0
 11
733.4884603330241
 21
2085.506846606873
 31
0.0
1001
REVIT
1002
{
1070
     3
1000
923097
1002
}
  0
LINE
  5
BD
330
87
100
AcDbEntity
  8
M-PIPE
100
AcDbLine
 10
702.9300605006708
 20
2087.68672081704
 30
0.0
 11
701.9752584854439
 21
2087.339201303881
 31
0.0
1001
REVIT
1002
{
1070
     3
1000
923097
1002
}
  0
LINE
  5
BE
330
87
100
AcDbEntity
  8
M-PIPE
100
AcDbLine
 10
701.5611130601707
 20
2087.188464696423
 30
0.0
 11
700.5285124480959
 21
2086.812628809743
 31
0.0
1001
REVIT
1002
{
1070
     3
1000
923097
1002
}
  0
LINE
  5
BF
330
87
100
AcDbEntity
  8
M-PIPE
100
AcDbLine
 10
700.2264833760114
 20
2086.702699217622
 30
0.0
 11
699.1246938343226
 21
2086.301680620021
 31
0.0
1001
REVIT
1002
{
1070
     3
1000
923097
1002
}
  0
LINE
  5
C0
330
87
100
AcDbEntity
  8
M-PIPE
100
AcDbLine
 10
698.9332080767513
 20
2086.231985503979
 30
0.0
 11
696.4977410241959
 21
2085.345547990313
 31
0.0
1001
REVIT
1002
{
1070
     3
1000
923097
1002
}
  0
LINE
  5
C1
330
87
100
AcDbEntity
  8
M-PIPE
100
AcDbLine
 10
696.4813246678935
 20
2085.339572925263
 30
0.0
 11
695.368389894198
 21
2084.934497794959
 31
0.0
1001
REVIT
1002
{
1070
     3
1000
923097
1002
}
  0
LINE
  5
C2
330
87
100
AcDbEntity
  8
M-PIPE
100
AcDbLine
 10
695.2538195919319
 20
2084.892797615203
 30
0.0
 11
694.3060066954942
 21
2084.547821933246
 31
0.0
1001
REVIT
1002
{
1070
     3
1000
923097
1002
}
  0
LINE
  5
C3
330
87
100
AcDbEntity
  8
M-PIPE
100
AcDbLine
 10
694.0995818266931
 20
2084.47268942539
 30
0.0
 11
693.3161926791624
 21
2084.187559093842
 31
0.0
1001
REVIT
1002
{
1070
     3
1000
923097
1002
}
  0
LINE
  5
C4
330
87
100
AcDbEntity
  8
M-PIPE
100
AcDbLine
 10
693.0280564960212
 20
2084.082686099764
 30
0.0
 11
692.4041664864912
 21
2083.855608706839
 31
0.0
1001
REVIT
1002
{
1070
     3
1000
923097
1002
}
  0
LINE
  5
C5
330
87
100
AcDbEntity
  8
M-PIPE
100
AcDbLine
 10
692.0519517148161
 20
2083.72741301388
 30
0.0
 11
691.181661932757
 21
2083.410653438024
 31
0.0
1001
REVIT
1002
{
1070
     3
1000
923097
1002
}
  0
LINE
  5
C6
330
87
100
AcDbEntity
  8
M-PIPE
100
AcDbLine
 10
691.1608391051167
 20
2083.40307454857
 30
0.0
 11
690.424799411282
 21
2083.135178008776
 31
0.0
1001
REVIT
1002
{
1070
     3
1000
923097
1002
}
  0
LINE
  5
C7
330
87
100
AcDbEntity
  8
M-PIPE
100
AcDbLine
 10
690.180699582329
 20
2083.046332936848
 30
0.0
 11
689.7845413012816
 21
2082.902143114488
 31
0.0
1001
REVIT
1002
{
1070
     3
1000
923097
1002
}
  0
LINE
  5
C8
330
87
100
AcDbEntity
  8
M-PIPE
100
AcDbLine
 10
689.2606991207495
 20
2082.711480153322
 30
0.0
 11
688.8538277576584
 21
2082.563391087981
 31
0.0
1001
REVIT
1002
{
1070
     3
1000
923097
1002
}
  0
LINE
  5
C9
330
87
100
AcDbEntity
  8
M-PIPE
100
AcDbLine
 10
688.8031246327633
 20
2082.544936659735
 30
0.0
 11
688.5645209533096
 21
2082.458092022628
 31
0.0
1001
REVIT
1002
{
1070
     3
1000
923097
1002
}
  0
LINE
  5
CA
330
87
100
AcDbEntity
  8
M-PIPE
100
AcDbLine
 10
688.5569099300169
 20
2082.455321836697
 30
0.0
 11
688.3925930920971
 21
2082.395515398705
 31
0.0
1001
REVIT
1002
{
1070
     3
1000
923097
1002
}
  0
LINE
  5
CB
330
87
100
AcDbEntity
  8
M-PIPE
100
AcDbLine
 10
688.3886005690988
 20
2082.394062239174
 30
0.0
 11
688.3365795372658
 21
2082.375128132031
 31
0.0
1001
REVIT
1002
{
1070
     3
1000
923097
1002
}
  0
LINE
  5
CC
330
87
100
AcDbEntity
  8
M-PIPE
100
AcDbLine
 10
727.8036696102749
 20
2096.739974151707
 30
0.0
 11
727.7513756571825
 21
2096.720940709349
 31
0.0
1001
REVIT
1002
{
1070
     3
1000
923097
1002
}
  0
LINE
  5
CD
330
87
100
AcDbEntity
  8
M-PIPE
100
AcDbLine
 10
727.747386532865
 20
2096.719488786837
 30
0.0
 11
727.5823495954515
 21
2096.659420254064
 31
0.0
1001
REVIT
1002
{
1070
     3
1000
923097
1002
}
  0
LINE
  5
CE
330
87
100
AcDbEntity
  8
M-PIPE
100
AcDbLine
 10
727.5747924825781
 20
2096.656669689922
 30
0.0
 11
727.3346855130795
 21
2096.569277899984
 31
0.0
1001
REVIT
1002
{
1070
     3
1000
923097
1002
}
  0
LINE
  5
CF
330
87
100
AcDbEntity
  8
M-PIPE
100
AcDbLine
 10
727.2846889841614
 20
2096.551080651641
 30
0.0
 11
726.8771740152843
 21
2096.402757332952
 31
0.0
1001
REVIT
1002
{
1070
     3
1000
923097
1002
}
  0
LINE
  5
D0
330
87
100
AcDbEntity
  8
M-PIPE
100
AcDbLine
 10
726.510127361
 20
2096.269163276205
 30
0.0
 11
726.3531303857235
 21
2096.212021050335
 31
0.0
1001
REVIT
1002
{
1070
     3
1000
923097
1002
}
  0
LINE
  5
D1
330
87
100
AcDbEntity
  8
M-PIPE
100
AcDbLine
 10
725.9500248151241
 20
2096.06530262137
 30
0.0
 11
725.7136188058181
 21
2095.97925787078
 31
0.0
1001
REVIT
1002
{
1070
     3
1000
923097
1002
}
  0
LINE
  5
D2
330
87
100
AcDbEntity
  8
M-PIPE
100
AcDbLine
 10
725.2951586915144
 20
2095.826950844946
 30
0.0
 11
724.959323677628
 21
2095.704716896267
 31
0.0
1001
REVIT
1002
{
1070
     3
1000
923097
1002
}
  0
LINE
  5
D3
330
87
100
AcDbEntity
  8
M-PIPE
100
AcDbLine
 10
724.5489997845246
 20
2095.555371212769
 30
0.0
 11
724.0985133920897
 21
2095.391407574981
 31
0.0
1001
REVIT
1002
{
1070
     3
1000
923097
1002
}
  0
LINE
  5
D4
330
87
100
AcDbEntity
  8
M-PIPE
100
AcDbLine
 10
724.093588003596
 20
2095.389614880177
 30
0.0
 11
723.1232322263402
 21
2095.036434260608
 31
0.0
1001
REVIT
1002
{
1070
     3
1000
923097
1002
}
  0
LINE
  5
D5
330
87
100
AcDbEntity
  8
M-PIPE
100
AcDbLine
 10
722.7990850996484
 20
2094.918454354969
 30
0.0
 11
722.0572993098661
 21
2094.648466407287
 31
0.0
1001
REVIT
1002
{
1070
     3
1000
923097
1002
}
  0
LINE
  5
D6
330
87
100
AcDbEntity
  8
M-PIPE
100
AcDbLine
 10
721.8046038800106
 20
2094.556492792484
 30
0.0
 11
720.9067409938501
 21
2094.22969742747
 31
0.0
1001
REVIT
1002
{
1070
     3
1000
923097
1002
}
  0
LINE
  5
D7
330
87
100
AcDbEntity
  8
M-PIPE
100
AcDbLine
 10
720.7373298382762
 20
2094.168036809488
 30
0.0
 11
719.6804595230264
 21
2093.783367473257
 31
0.0
1001
REVIT
1002
{
1070
     3
1000
923097
1002
}
  0
LINE
  5
D8
330
87
100
AcDbEntity
  8
M-PIPE
100
AcDbLine
 10
719.6029195332207
 20
2093.755145225003
 30
0.0
 11
718.4073853462153
 21
2093.320006366885
 31
0.0
1001
REVIT
1002
{
1070
     3
1000
923097
1002
}
  0
LINE
  5
D9
330
87
100
AcDbEntity
  8
M-PIPE
100
AcDbLine
 10
718.3852378115751
 20
2093.311945323514
 30
0.0
 11
717.1570636155689
 21
2092.864926473674
 31
0.0
1001
REVIT
1002
{
1070
     3
1000
923097
1002
}
  0
LINE
  5
DA
330
87
100
AcDbEntity
  8
M-PIPE
100
AcDbLine
 10
717.0311608224484
 20
2092.819101604567
 30
0.0
 11
715.8585810538986
 21
2092.392317471512
 31
0.0
1001
REVIT
1002
{
1070
     3
1000
923097
1002
}
  0
LINE
  5
DB
330
87
100
AcDbEntity
  8
M-PIPE
100
AcDbLine
 10
715.6229756182311
 20
2092.306564105898
 30
0.0
 11
714.5188196265118
 21
2091.904684190925
 31
0.0
1001
REVIT
1002
{
1070
     3
1000
923097
1002
}
  0
LINE
  5
DC
330
87
100
AcDbEntity
  8
M-PIPE
100
AcDbLine
 10
714.1697466810637
 20
2091.777632029195
 30
0.0
 11
713.1448800769509
 21
2091.404611091204
 31
0.0
1001
REVIT
1002
{
1070
     3
1000
923097
1002
}
  0
LINE
  5
DD
330
87
100
AcDbEntity
  8
M-PIPE
100
AcDbLine
 10
706.9924173860869
 20
2078.523520079512
 30
0.0
 11
703.5722159528216
 21
2087.920446287395
 31
0.0
1001
REVIT
1002
{
1070
     3
1000
923097
1002
}
  0
LINE
  5
DE
330
87
100
AcDbEntity
  8
M-PIPE
100
AcDbLine
 10
712.4980356804439
 20
2091.169178984676
 30
0.0
 11
715.9182371137091
 21
2081.772252776793
 31
0.0
1001
REVIT
1002
{
1070
     3
1000
923097
1002
}
  0
LINE
  5
DF
330
87
100
AcDbEntity
  8
M-PIPE
100
AcDbLine
 10
746.8041064863919
 20
2060.617627075614
 30
0.0
 11
745.7977343992892
 21
2063.382611660498
 31
0.0
1001
REVIT
1002
{
1070
     3
1000
923097
1002
}
  0
LINE
  5
E0
330
87
100
AcDbEntity
  8
M-PIPE
100
AcDbLine
 10
695.9940254976937
 20
2045.255544064259
 30
0.0
 11
697.0003975847965
 21
2042.490559479375
 31
0.0
1001
REVIT
1002
{
1070
     3
1000
923097
1002
}
  0
LINE
  5
E1
330
87
100
AcDbEntity
  8
M-PIPE
100
AcDbLine
 10
740.4690542683455
 20
2070.713528995481
 30
0.0
 11
739.9004752470297
 21
2070.813784817604
 31
0.0
1001
REVIT
1002
{
1070
     3
1000
923097
1002
}
  0
LINE
  5
E2
330
87
100
AcDbEntity
  8
M-PIPE
100
AcDbLine
 10
695.7349220700922
 20
2054.738838081298
 30
0.0
 11
695.363808470617
 21
2054.296562115863
 31
0.0
1001
REVIT
1002
{
1070
     3
1000
923097
1002
}
  0
LWPOLYLINE
  5
E3
330
87
100
AcDbEntity
  8
M-PIPE
100
AcDbPolyline
 90
        3
 70
   128
 43
0.0
 10
695.7349220700924
 20
2054.738838081297
 10
692.7921949399647
 20
2064.295355460309
 10
691.2022923976678
 20
2070.115940157196
1001
REVIT
1002
{
1070
     3
1000
923097
1002
}
  0
LWPOLYLINE
  5
E4
330
87
100
AcDbEntity
  8
M-PIPE
100
AcDbPolyline
 90
        3
 70
   128
 43
0.0
 10
733.4884603330342
 20
2085.506846606851
 10
737.5982034237384
 20
2076.391108616641
 10
739.9004752470304
 20
2070.813784817603
1001
REVIT
1002
{
1070
     3
1000
923097
1002
}
  0
LINE
  5
E5
330
87
100
AcDbEntity
  8
M-PIPE
100
AcDbLine
 10
745.7977343992877
 20
2063.382611660498
 30
0.0
 11
695.9940254976924
 21
2045.255544064259
 31
0.0
1001
REVIT
1002
{
1070
     3
1000
923097
1002
}
  0
LINE
  5
E6
330
87
100
AcDbEntity
  8
M-PIPE
100
AcDbLine
 10
702.4351362104487
 20
2047.599916639315
 30
0.0
 11
699.7661469461095
 21
2054.932904375854
 31
0.0
1001
REVIT
1002
{
1070
     3
1000
923097
1002
}
  0
LINE
  5
E7
330
87
100
AcDbEntity
  8
M-PIPE
100
AcDbLine
 10
695.6742677852998
 20
2053.443582159105
 30
0.0
 11
698.343257049639
 21
2046.110594422566
 31
0.0
1001
REVIT
1002
{
1070
     3
1000
923097
1002
}
  0
LINE
  5
E8
330
87
100
AcDbEntity
  8
M-PIPE
100
AcDbLine
 10
743.4485028473629
 20
2062.527561302198
 30
0.0
 11
740.7795135830236
 21
2069.860549038737
 31
0.0
1001
REVIT
1002
{
1070
     3
1000
923097
1002
}
  0
LINE
  5
E9
330
87
100
AcDbEntity
  8
M-PIPE
100
AcDbLine
 10
736.6876344221706
 20
2068.371226821971
 30
0.0
 11
739.3566236865097
 21
2061.038239085433
 31
0.0
1001
REVIT
1002
{
1070
     3
1000
923097
1002
}
  0
LINE
  5
EA
330
87
100
AcDbEntity
  8
M-PIPE
100
AcDbLine
 10
724.9877591093492
 20
2055.808400079145
 30
0.0
 11
722.3187698450101
 21
2063.141387815683
 31
0.0
1001
REVIT
1002
{
1070
     3
1000
923097
1002
}
  0
LINE
  5
EB
330
87
100
AcDbEntity
  8
M-PIPE
100
AcDbLine
 10
714.1350115233215
 20
2060.162743382161
 30
0.0
 11
716.8040007876607
 21
2052.829755645622
 31
0.0
1001
REVIT
1002
{
1070
     3
1000
923097
1002
}
  0
SPLINE
  5
EC
330
87
100
AcDbEntity
  8
M-PIPE
100
AcDbSpline
210
0.0
220
0.0
230
1.0
 70
    24
 71
     3
 72
     9
 73
     5
 74
     0
 42
0.000000001
 43
0.0000000001
 40
-1.0
 40
-1.0
 40
-1.0
 40
-1.0
 40
-0.5
 40
0.0
 40
0.0
 40
0.0
 40
0.0
 10
695.3638084706156
 20
2054.296562115862
 30
0.0
 10
695.3655849146397
 20
2054.291681376019
 30
0.0
 10
695.419104577778
 20
2054.144637310049
 30
0.0
 10
695.5725577910964
 20
2053.723028071514
 30
0.0
 10
695.6742677853005
 20
2053.443582159105
 30
0.0
1001
REVIT
1002
{
1070
     3
1000
923097
1002
}
  0
LINE
  5
ED
330
87
100
AcDbEntity
  8
M-PIPE
100
AcDbLine
 10
699.7661469461104
 20
2054.932904375854
 30
0.0
 11
695.6742677853005
 21
2053.443582159105
 31
0.0
1001
REVIT
1002
{
1070
     3
1000
923097
1002
}
  0
SPLINE
  5
EE
330
87
100
AcDbEntity
  8
M-PIPE
100
AcDbSpline
210
0.0
220
0.0
230
1.0
 70
     8
 71
     3
 72
     9
 73
     5
 74
     0
 42
0.000000001
 43
0.0000000001
 40
-1.0
 40
-1.0
 40
-1.0
 40
-1.0
 40
-0.5
 40
0.0
 40
0.0
 40
0.0
 40
0.0
 10
699.7661469461103
 20
2054.932904375854
 30
0.0
 10
701.9191998518291
 20
2056.360501714901
 30
0.0
 10
706.467063520416
 20
2058.659738888332
 30
0.0
 10
711.4984429033025
 20
2059.847061052439
 30
0.0
 10
714.1350115233207
 20
2060.16274338216
 30
0.0
1001
REVIT
1002
{
1070
     3
1000
923097
1002
}
  0
LINE
  5
EF
330
87
100
AcDbEntity
  8
M-PIPE
100
AcDbLine
 10
722.3187698450129
 20
2063.141387815685
 30
0.0
 11
714.1350115233208
 21
2060.16274338216
 31
0.0
1001
REVIT
1002
{
1070
     3
1000
923097
1002
}
  0
SPLINE
  5
F0
330
87
100
AcDbEntity
  8
M-PIPE
100
AcDbSpline
210
0.0
220
0.0
230
1.0
 70
     8
 71
     3
 72
     9
 73
     5
 74
     0
 42
0.000000001
 43
0.0000000001
 40
-1.0
 40
-1.0
 40
-1.0
 40
-1.0
 40
-0.5
 40
0.0
 40
0.0
 40
0.0
 40
0.0
 10
722.3187698450129
 20
2063.141387815685
 30
0.0
 10
724.4718227507242
 20
2064.568985154723
 30
0.0
 10
729.0196864192952
 20
2066.868222328144
 30
0.0
 10
734.0510658021618
 20
2068.055544492248
 30
0.0
 10
736.687634422169
 20
2068.371226821971
 30
0.0
1001
REVIT
1002
{
1070
     3
1000
923097
1002
}
  0
LINE
  5
F1
330
87
100
AcDbEntity
  8
M-PIPE
100
AcDbLine
 10
740.7795135830242
 20
2069.860549038737
 30
0.0
 11
736.6876344221691
 21
2068.371226821971
 31
0.0
1001
REVIT
1002
{
1070
     3
1000
923097
1002
}
  0
SPLINE
  5
F2
330
87
100
AcDbEntity
  8
M-PIPE
100
AcDbSpline
210
0.0
220
0.0
230
1.0
 70
    24
 71
     3
 72
     9
 73
     5
 74
     0
 42
0.000000001
 43
0.0000000001
 40
-1.0
 40
-1.0
 40
-1.0
 40
-1.0
 40
-0.5
 40
0.0
 40
0.0
 40
0.0
 40
0.0
 10
740.7795135830241
 20
2069.860549038737
 30
0.0
 10
740.6778035888216
 20
2070.139994951142
 30
0.0
 10
740.5243503755057
 20
2070.56160418967
 30
0.0
 10
740.4708307123683
 20
2070.708648255637
 30
0.0
 10
740.4690542683442
 20
2070.71352899548
 30
0.0
1001
REVIT
1002
{
1070
     3
1000
923097
1002
}
  0
LINE
  5
F3
330
87
100
AcDbEntity
  8
M-PIPE
100
AcDbLine
 10
739.900475247029
 20
2070.813784817602
 30
0.0
 11
695.7349220700912
 21
2054.738838081295
 31
0.0
1001
REVIT
1002
{
1070
     3
1000
923097
1002
}
  0
LINE
  5
F4
330
87
100
AcDbEntity
  8
M-PIPE
100
AcDbLine
 10
733.4884603330329
 20
2085.50684660685
 30
0.0
 11
691.2022923976665
 21
2070.115940157196
 31
0.0
1001
REVIT
1002
{
1070
     3
1000
923097
1002
}
  0
LWPOLYLINE
  5
F5
330
87
100
AcDbEntity
  8
P-SANR-FIXT
100
AcDbPolyline
 90
       32
 70
   128
 43
0.0
 10
776.7779713132114
 20
1988.157979856671
 10
776.7635425015332
 20
1988.120675754059
 10
776.7476334651397
 20
1988.083978489324
 10
776.7302696550952
 20
1988.047946770259
 10
776.7114788497915
 20
1988.012638239929
 10
776.691291110509
 20
1987.978109384449
 10
776.6697387333236
 20
1987.944415442624
 10
776.6468561974418
 20
1987.911610317573
 10
776.622680110039
 20
1987.879746490497
 10
776.597249147698
 20
1987.848874936722
 10
776.5706039945339
 20
1987.819045044149
 10
776.5427872771074
 20
1987.790304534243
 10
776.5138434962324
 20
1987.762699385689
 10
776.4838189557843
 20
1987.736273760835
 10
776.4527616886226
 20
1987.711069935044
 10
776.4207213797498
 20
1987.687128229061
 10
776.3877492868251
 20
1987.664486944508
 10
776.3538981581635
 20
1987.643182302611
 10
776.3192221483495
 20
1987.623248386251
 10
776.283776731602
 20
1987.604717085443
 10
776.2476186130265
 20
1987.587618046315
 10
776.2108056378989
 20
1987.571978623682
 10
776.1733966991268
 20
1987.557823837283
 10
776.135451643032
 20
1987.545176331758
 10
776.0970311736098
 20
1987.534056340417
 10
776.0581967554154
 20
1987.524481652874
 10
776.0190105152332
 20
1987.516467586587
 10
775.9795351426889
 20
1987.510026962353
 10
775.9398337899573
 20
1987.505170083796
 10
775.8999699707334
 20
1987.501904720886
 10
775.8600074586245
 20
1987.500236097507
 10
775.8382786924252
 20
1987.499999999996
  0
LWPOLYLINE
  5
F6
330
87
100
AcDbEntity
  8
P-SANR-FIXT
100
AcDbPolyline
 90
       32
 70
   128
 43
0.0
 10
775.8382786924252
 20
2012.499999999996
 10
775.8782680266119
 20
2012.499200106657
 10
775.9181933863945
 20
2012.496801706299
 10
775.9579908997142
 20
2012.49280863585
 10
775.9975968990395
 20
2012.487227283372
 10
776.0369480232202
 20
2012.480066577837
 10
776.0759813188524
 20
2012.471337974848
 10
776.1146343409893
 20
2012.461055438307
 10
776.1528452530414
 20
2012.449235418079
 10
776.1905529257004
 20
2012.435896823674
 10
776.227697034734
 20
2012.421060993999
 10
776.2642181574912
 20
2012.404751663216
 10
776.3000578679667
 20
2012.386994922775
 10
776.3351588302692
 20
2012.367819179674
 10
776.3694648903461
 20
2012.347255111009
 10
776.4029211658203
 20
2012.325335614906
 10
776.4354741337877
 20
2012.30209575788
 10
776.4670717164437
 20
2012.277572718747
 10
776.4976633643968
 20
2012.251805729137
 10
776.5272001375358
 20
2012.224836010737
 10
776.5556347833248
 20
2012.196706709343
 10
776.582921812396
 20
2012.167462825837
 10
776.6090175713243
 20
2012.137151144195
 10
776.6338803124616
 20
2012.105820156639
 10
776.6574702607264
 20
2012.073519986068
 10
776.6797496772332
 20
2012.040302305864
 10
776.7006829196686
 20
2012.006220257229
 10
776.7202364993103
 20
2011.97132836417
 10
776.7383791346019
 20
2011.935682446273
 10
776.755081801197
 20
2011.899339529402
 10
776.7703177783926
 20
2011.862357754473
 10
776.7779713132114
 20
2011.842020143321
  0
LINE
  5
F7
330
87
100
AcDbEntity
  8
P-SANR-FIXT
100
AcDbLine
 10
778.3219403784763
 20
2007.78204618461
 30
0.0
 11
776.7779713132114
 21
2011.842020143321
 31
0.0
  0
LINE
  5
F8
330
87
100
AcDbEntity
  8
P-SANR-FIXT
100
AcDbLine
 10
776.7779713132114
 20
1988.157979856671
 30
0.0
 11
778.3219403784763
 21
1992.217953815383
 31
0.0
  0
LINE
  5
F9
330
87
100
AcDbEntity
  8
P-SANR-FIXT
100
AcDbLine
 10
775.8382786924252
 20
2012.499999999996
 30
0.0
 11
774.3219403785396
 21
2012.499999999996
 31
0.0
  0
LINE
  5
FA
330
87
100
AcDbEntity
  8
P-SANR-FIXT
100
AcDbLine
 10
774.3219403785396
 20
1987.499999999996
 30
0.0
 11
775.8382786924252
 21
1987.499999999996
 31
0.0
  0
LINE
  5
FB
330
87
100
AcDbEntity
  8
P-SANR-FIXT
100
AcDbLine
 10
776.77797131321
 20
1988.157979856669
 30
0.0
 11
776.77797131321
 21
2011.84202014332
 31
0.0
  0
LINE
  5
FC
330
87
100
AcDbEntity
  8
P-SANR-FIXT
100
AcDbLine
 10
778.321940378475
 20
1992.217953815382
 30
0.0
 11
778.321940378475
 21
2007.782046184608
 31
0.0
  0
LINE
  5
FD
330
87
100
AcDbEntity
  8
P-SANR-FIXT
100
AcDbLine
 10
774.3219403785376
 20
1987.584493720147
 30
0.0
 11
774.3219403785376
 21
1987.632012990026
 31
0.0
  0
LINE
  5
FE
330
87
100
AcDbEntity
  8
P-SANR-FIXT
100
AcDbLine
 10
774.3219403785376
 20
1988.330021102028
 30
0.0
 11
774.3219403785376
 21
1988.451505843604
 31
0.0
  0
LINE
  5
FF
330
87
100
AcDbEntity
  8
P-SANR-FIXT
100
AcDbLine
 10
774.3219403785376
 20
1988.790483604392
 30
0.0
 11
774.3219403785376
 21
1989.740304661225
 31
0.0
  0
LINE
  5
100
330
87
100
AcDbEntity
  8
P-SANR-FIXT
100
AcDbLine
 10
774.3219403785376
 20
1989.757217499295
 30
0.0
 11
774.3219403785376
 21
1990.406907382002
 31
0.0
  0
LINE
  5
101
330
87
100
AcDbEntity
  8
P-SANR-FIXT
100
AcDbLine
 10
774.3219403785376
 20
1991.161165235163
 30
0.0
 11
774.3219403785376
 21
1991.949305746462
 31
0.0
  0
LINE
  5
102
330
87
100
AcDbEntity
  8
P-SANR-FIXT
100
AcDbLine
 10
774.3219403785376
 20
1992.390482137386
 30
0.0
 11
774.3219403785376
 21
1992.665473054585
 31
0.0
  0
LINE
  5
103
330
87
100
AcDbEntity
  8
P-SANR-FIXT
100
AcDbLine
 10
774.3219403785376
 20
1992.817128787808
 30
0.0
 11
774.3219403785376
 21
1994.70679112014
 31
0.0
  0
LINE
  5
104
330
87
100
AcDbEntity
  8
P-SANR-FIXT
100
AcDbLine
 10
774.3219403785376
 20
1995.216457095431
 30
0.0
 11
774.3219403785376
 21
1995.567697031721
 31
0.0
  0
LINE
  5
105
330
87
100
AcDbEntity
  8
P-SANR-FIXT
100
AcDbLine
 10
774.3219403785376
 20
1995.716992800697
 30
0.0
 11
774.3219403785376
 21
1997.824905114576
 31
0.0
  0
LINE
  5
106
330
87
100
AcDbEntity
  8
P-SANR-FIXT
100
AcDbLine
 10
774.3219403785376
 20
1998.368422597244
 30
0.0
 11
774.3219403785376
 21
1998.471985364924
 31
0.0
  0
LINE
  5
107
330
87
100
AcDbEntity
  8
P-SANR-FIXT
100
AcDbLine
 10
774.3219403785376
 20
1998.90882636047
 30
0.0
 11
774.3219403785376
 21
2001.091173639519
 31
0.0
  0
LINE
  5
108
330
87
100
AcDbEntity
  8
P-SANR-FIXT
100
AcDbLine
 10
774.3219403785376
 20
2001.37218268312
 30
0.0
 11
774.3219403785376
 21
2001.631577402746
 31
0.0
  0
LINE
  5
109
330
87
100
AcDbEntity
  8
P-SANR-FIXT
100
AcDbLine
 10
774.3219403785376
 20
2002.175094885412
 30
0.0
 11
774.3219403785376
 21
2004.783542904559
 31
0.0
  0
LINE
  5
10A
330
87
100
AcDbEntity
  8
P-SANR-FIXT
100
AcDbLine
 10
774.3219403785376
 20
2005.293208879848
 30
0.0
 11
774.3219403785376
 21
2007.609517862604
 31
0.0
  0
LINE
  5
10B
330
87
100
AcDbEntity
  8
P-SANR-FIXT
100
AcDbLine
 10
774.3219403785376
 20
2008.050694253527
 30
0.0
 11
774.3219403785376
 21
2008.838834764826
 31
0.0
  0
LINE
  5
10C
330
87
100
AcDbEntity
  8
P-SANR-FIXT
100
AcDbLine
 10
774.3219403785376
 20
2009.593092617988
 30
0.0
 11
774.3219403785376
 21
2010.07867205467
 31
0.0
  0
LINE
  5
10D
330
87
100
AcDbEntity
  8
P-SANR-FIXT
100
AcDbLine
 10
774.3219403785376
 20
2010.259695338765
 30
0.0
 11
774.3219403785376
 21
2011.209516395597
 31
0.0
  0
LINE
  5
10E
330
87
100
AcDbEntity
  8
P-SANR-FIXT
100
AcDbLine
 10
774.3219403785376
 20
2011.548494156386
 30
0.0
 11
774.3219403785376
 21
2011.669978897963
 31
0.0
  0
LINE
  5
10F
330
87
100
AcDbEntity
  8
P-SANR-FIXT
100
AcDbLine
 10
774.3219403785376
 20
2012.367987009964
 30
0.0
 11
774.3219403785376
 21
2012.415506279843
 31
0.0
  0
LINE
  5
110
330
87
100
AcDbEntity
  8
P-SANR-FIXT
100
AcDbLine
 10
773.5485726918179
 20
1986.160555781922
 30
0.0
 11
774.3219403785396
 21
1987.499999999996
 31
0.0
  0
LINE
  5
111
330
87
100
AcDbEntity
  8
P-SANR-FIXT
100
AcDbLine
 10
774.3219403785396
 20
2012.499999999996
 30
0.0
 11
773.5485726918176
 21
2013.83944421807
 31
0.0
  0
LINE
  5
112
330
87
100
AcDbEntity
  8
P-SANR-FIXT
100
AcDbLine
 10
764.8219403784751
 20
2007.855459963796
 30
0.0
 11
764.8219403784751
 21
2013.795175130802
 31
0.0
  0
LINE
  5
113
330
87
100
AcDbEntity
  8
P-SANR-FIXT
100
AcDbLine
 10
764.8219403784751
 20
2013.795175130802
 30
0.0
 11
764.8219403784751
 21
2013.839444218067
 31
0.0
  0
LINE
  5
114
330
87
100
AcDbEntity
  8
P-SANR-FIXT
100
AcDbLine
 10
764.8219403784751
 20
1986.160555781921
 30
0.0
 11
764.8219403784751
 21
1986.204824869186
 31
0.0
  0
LINE
  5
115
330
87
100
AcDbEntity
  8
P-SANR-FIXT
100
AcDbLine
 10
764.8219403784751
 20
1986.204824869186
 30
0.0
 11
764.8219403784751
 21
1992.144540036191
 31
0.0
  0
LINE
  5
116
330
87
100
AcDbEntity
  8
P-SANR-FIXT
100
AcDbLine
 10
764.8219403784751
 20
1992.144540036191
 30
0.0
 11
764.8219403784751
 21
1994.060284832988
 31
0.0
  0
LINE
  5
117
330
87
100
AcDbEntity
  8
P-SANR-FIXT
100
AcDbLine
 10
764.8219403784751
 20
1994.060284832988
 30
0.0
 11
764.8219403784751
 21
2005.939715166999
 31
0.0
  0
LINE
  5
118
330
87
100
AcDbEntity
  8
P-SANR-FIXT
100
AcDbLine
 10
764.8219403784751
 20
2005.939715166999
 30
0.0
 11
764.8219403784751
 21
2007.855459963796
 31
0.0
  0
LINE
  5
119
330
87
100
AcDbEntity
  8
P-SANR-FIXT
100
AcDbLine
 10
774.3219403785382
 20
2012.499999999995
 30
0.0
 11
774.3219403785382
 21
2012.415452667968
 31
0.0
  0
LINE
  5
11A
330
87
100
AcDbEntity
  8
P-SANR-FIXT
100
AcDbLine
 10
774.3219403785382
 20
2012.368053939708
 30
0.0
 11
774.3219403785382
 21
2011.559458736119
 31
0.0
  0
LINE
  5
11B
330
87
100
AcDbEntity
  8
P-SANR-FIXT
100
AcDbLine
 10
774.3219403785382
 20
2011.477792774632
 30
0.0
 11
774.3219403785382
 21
2010.8253175473
 31
0.0
  0
LINE
  5
11C
330
87
100
AcDbEntity
  8
P-SANR-FIXT
100
AcDbLine
 10
774.3219403785382
 20
2010.8253175473
 30
0.0
 11
774.3219403785382
 21
2010.073856501614
 31
0.0
  0
LINE
  5
11D
330
87
100
AcDbEntity
  8
P-SANR-FIXT
100
AcDbLine
 10
774.3219403785382
 20
2009.92635082055
 30
0.0
 11
774.3219403785382
 21
2007.616760704833
 31
0.0
  0
LINE
  5
11E
330
87
100
AcDbEntity
  8
P-SANR-FIXT
100
AcDbLine
 10
774.3219403785382
 20
2007.169705454383
 30
0.0
 11
774.3219403785382
 21
2004.788096850355
 31
0.0
  0
LINE
  5
11F
330
87
100
AcDbEntity
  8
P-SANR-FIXT
100
AcDbLine
 10
774.3219403785382
 20
2004.275251791565
 30
0.0
 11
774.3219403785382
 21
1999.999999999994
 31
0.0
  0
LINE
  5
120
330
87
100
AcDbEntity
  8
P-SANR-FIXT
100
AcDbLine
 10
774.3219403785382
 20
1999.999999999994
 30
0.0
 11
774.3219403785382
 21
1995.571759635138
 31
0.0
  0
LINE
  5
121
330
87
100
AcDbEntity
  8
P-SANR-FIXT
100
AcDbLine
 10
774.3219403785382
 20
1995.211903149635
 30
0.0
 11
774.3219403785382
 21
1992.671310278882
 31
0.0
  0
LINE
  5
122
330
87
100
AcDbEntity
  8
P-SANR-FIXT
100
AcDbLine
 10
774.3219403785382
 20
1992.383239295157
 30
0.0
 11
774.3219403785382
 21
1990.424444461007
 31
0.0
  0
LINE
  5
123
330
87
100
AcDbEntity
  8
P-SANR-FIXT
100
AcDbLine
 10
774.3219403785382
 20
1990.07364917944
 30
0.0
 11
774.3219403785382
 21
1989.174682452689
 31
0.0
  0
LINE
  5
124
330
87
100
AcDbEntity
  8
P-SANR-FIXT
100
AcDbLine
 10
774.3219403785382
 20
1989.174682452689
 30
0.0
 11
774.3219403785382
 21
1988.522207225358
 31
0.0
  0
LINE
  5
125
330
87
100
AcDbEntity
  8
P-SANR-FIXT
100
AcDbLine
 10
774.3219403785382
 20
1988.44054126387
 30
0.0
 11
774.3219403785382
 21
1987.631946060282
 31
0.0
  0
LINE
  5
126
330
87
100
AcDbEntity
  8
P-SANR-FIXT
100
AcDbLine
 10
774.3219403785382
 20
1987.584547332022
 30
0.0
 11
774.3219403785382
 21
1987.499999999995
 31
0.0
  0
LINE
  5
127
330
87
100
AcDbEntity
  8
P-SANR-FIXT
100
AcDbLine
 10
764.8219403784751
 20
2005.939715166999
 30
0.0
 11
773.5485726917967
 21
2005.939715166999
 31
0.0
  0
LINE
  5
128
330
87
100
AcDbEntity
  8
P-SANR-FIXT
100
AcDbLine
 10
773.548572691817
 20
2005.939715166998
 30
0.0
 11
773.548572691817
 21
2007.855459963796
 31
0.0
  0
LINE
  5
129
330
87
100
AcDbEntity
  8
P-SANR-FIXT
100
AcDbLine
 10
764.8219403784751
 20
1994.060284832988
 30
0.0
 11
773.5485726917962
 21
1994.060284832988
 31
0.0
  0
SPLINE
  5
12A
330
87
100
AcDbEntity
  8
P-SANR-FIXT
100
AcDbSpline
210
0.0
220
0.0
230
1.0
 70
     8
 71
     3
 72
     9
 73
     5
 74
     0
 42
0.000000001
 43
0.0000000001
 40
0.0
 40
0.0
 40
0.0
 40
0.0
 40
0.5
 40
1.0
 40
1.0
 40
1.0
 40
1.0
 10
773.5485726917962
 20
1994.060284832988
 30
0.0
 10
773.799267017423
 20
1995.034909588506
 30
0.0
 10
774.1788559575068
 20
1996.999486871859
 30
0.0
 10
774.314845475251
 20
1998.994719699844
 30
0.0
 10
774.3219403785382
 20
1999.999999999994
 30
0.0
  0
SPLINE
  5
12B
330
87
100
AcDbEntity
  8
P-SANR-FIXT
100
AcDbSpline
210
0.0
220
0.0
230
1.0
 70
     8
 71
     3
 72
     9
 73
     5
 74
     0
 42
0.000000001
 43
0.0000000001
 40
0.0
 40
0.0
 40
0.0
 40
0.0
 40
0.5
 40
1.0
 40
1.0
 40
1.0
 40
1.0
 10
774.3219403785382
 20
1999.999999999994
 30
0.0
 10
774.314845475251
 20
2001.005280300145
 30
0.0
 10
774.1788559575068
 20
2003.000513128129
 30
0.0
 10
773.7992670174234
 20
2004.965090411481
 30
0.0
 10
773.5485726917967
 20
2005.939715166999
 30
0.0
  0
LINE
  5
12C
330
87
100
AcDbEntity
  8
P-SANR-FIXT
100
AcDbLine
 10
764.8219403784751
 20
1992.144540036191
 30
0.0
 11
773.5485726917979
 21
1992.144540036191
 31
0.0
  0
LINE
  5
12D
330
87
100
AcDbEntity
  8
P-SANR-FIXT
100
AcDbLine
 10
773.548572691817
 20
1992.144540036191
 30
0.0
 11
773.548572691817
 21
1994.060284832988
 31
0.0
  0
LINE
  5
12E
330
87
100
AcDbEntity
  8
P-SANR-FIXT
100
AcDbLine
 10
764.8219403784751
 20
1986.204824869186
 30
0.0
 11
773.5485726918148
 21
1986.204824869186
 31
0.0
  0
SPLINE
  5
12F
330
87
100
AcDbEntity
  8
P-SANR-FIXT
100
AcDbSpline
210
0.0
220
0.0
230
1.0
 70
     8
 71
     3
 72
     9
 73
     5
 74
     0
 42
0.000000001
 43
0.0000000001
 40
0.0
 40
0.0
 40
0.0
 40
0.0
 40
0.5
 40
1.0
 40
1.0
 40
1.0
 40
1.0
 10
773.5485726918148
 20
1986.204824869186
 30
0.0
 10
773.7992670174407
 20
1986.692137246942
 30
0.0
 10
774.1788559575208
 20
1987.674425888613
 30
0.0
 10
774.3148454752565
 20
1988.672042302599
 30
0.0
 10
774.3219403785382
 20
1989.174682452672
 30
0.0
  0
SPLINE
  5
130
330
87
100
AcDbEntity
  8
P-SANR-FIXT
100
AcDbSpline
210
0.0
220
0.0
230
1.0
 70
     8
 71
     3
 72
     9
 73
     5
 74
     0
 42
0.000000001
 43
0.0000000001
 40
0.0
 40
0.0
 40
0.0
 40
0.0
 40
0.5
 40
1.0
 40
1.0
 40
1.0
 40
1.0
 10
774.3219403785382
 20
1989.174682452672
 30
0.0
 10
774.3148454752561
 20
1989.67732260275
 30
0.0
 10
774.1788559575175
 20
1990.674939016748
 30
0.0
 10
773.7992670174294
 20
1991.657227658429
 30
0.0
 10
773.5485726917979
 20
1992.144540036191
 30
0.0
  0
LINE
  5
131
330
87
100
AcDbEntity
  8
P-SANR-FIXT
100
AcDbLine
 10
773.548572691817
 20
1986.160555781921
 30
0.0
 11
773.548572691817
 21
1986.204824869186
 31
0.0
  0
LINE
  5
132
330
87
100
AcDbEntity
  8
P-SANR-FIXT
100
AcDbLine
 10
764.8219403784751
 20
2013.795175130802
 30
0.0
 11
773.5485726918158
 21
2013.795175130802
 31
0.0
  0
LINE
  5
133
330
87
100
AcDbEntity
  8
P-SANR-FIXT
100
AcDbLine
 10
773.548572691817
 20
2013.795175130802
 30
0.0
 11
773.548572691817
 21
2013.839444218067
 31
0.0
  0
LINE
  5
134
330
87
100
AcDbEntity
  8
P-SANR-FIXT
100
AcDbLine
 10
773.5485726917986
 20
2007.855459963796
 30
0.0
 11
764.8219403784751
 21
2007.855459963796
 31
0.0
  0
SPLINE
  5
135
330
87
100
AcDbEntity
  8
P-SANR-FIXT
100
AcDbSpline
210
0.0
220
0.0
230
1.0
 70
     8
 71
     3
 72
     9
 73
     5
 74
     0
 42
0.000000001
 43
0.0000000001
 40
0.0
 40
0.0
 40
0.0
 40
0.0
 40
0.5
 40
1.0
 40
1.0
 40
1.0
 40
1.0
 10
773.5485726917986
 20
2007.855459963796
 30
0.0
 10
773.7992670174302
 20
2008.342772341558
 30
0.0
 10
774.1788559575186
 20
2009.32506098324
 30
0.0
 10
774.3148454752566
 20
2010.322677397238
 30
0.0
 10
774.3219403785382
 20
2010.825317547316
 30
0.0
  0
SPLINE
  5
136
330
87
100
AcDbEntity
  8
P-SANR-FIXT
100
AcDbSpline
210
0.0
220
0.0
230
1.0
 70
     8
 71
     3
 72
     9
 73
     5
 74
     0
 42
0.000000001
 43
0.0000000001
 40
0.0
 40
0.0
 40
0.0
 40
0.0
 40
0.5
 40
1.0
 40
1.0
 40
1.0
 40
1.0
 10
774.3219403785382
 20
2010.825317547316
 30
0.0
 10
774.3148454752569
 20
2011.327957697389
 30
0.0
 10
774.1788559575221
 20
2012.325574111375
 30
0.0
 10
773.7992670174421
 20
2013.307862753046
 30
0.0
 10
773.5485726918158
 20
2013.795175130802
 30
0.0
  0
LWPOLYLINE
  5
137
330
87
100
AcDbEntity
  8
P-SANR-FIXT
100
AcDbPolyline
 90
       32
 70
   128
 43
0.0
 10
688.0290573835958
 20
1987.499999999996
 10
687.989068049409
 20
1987.500799893335
 10
687.9491426896265
 20
1987.503198293693
 10
687.9093451763068
 20
1987.507191364142
 10
687.8697391769815
 20
1987.51277271662
 10
687.8303880528006
 20
1987.519933422154
 10
687.7913547571686
 20
1987.528662025144
 10
687.7527017350315
 20
1987.538944561685
 10
687.7144908229796
 20
1987.550764581913
 10
687.6767831503205
 20
1987.564103176318
 10
687.6396390412871
 20
1987.578939005993
 10
687.6031179185297
 20
1987.595248336775
 10
687.5672782080544
 20
1987.613005077216
 10
687.5321772457519
 20
1987.632180820318
 10
687.4978711856748
 20
1987.652744888982
 10
687.4644149102007
 20
1987.674664385086
 10
687.4318619422333
 20
1987.697904242111
 10
687.4002643595773
 20
1987.722427281244
 10
687.3696727116241
 20
1987.748194270855
 10
687.3401359384851
 20
1987.775163989255
 10
687.3117012926961
 20
1987.803293290648
 10
687.2844142636247
 20
1987.832537174154
 10
687.2583185046967
 20
1987.862848855797
 10
687.2334557635594
 20
1987.894179843353
 10
687.2098658152947
 20
1987.926480013923
 10
687.1875863987878
 20
1987.959697694127
 10
687.1666531563525
 20
1987.993779742763
 10
687.1470995767108
 20
1988.028671635822
 10
687.1289569414192
 20
1988.064317553719
 10
687.1122542748238
 20
1988.100660470589
 10
687.0970182976284
 20
1988.137642245519
 10
687.0893647628097
 20
1988.15797985667
  0
LWPOLYLINE
  5
138
330
87
100
AcDbEntity
  8
P-SANR-FIXT
100
AcDbPolyline
 90
       32
 70
   128
 43
0.0
 10
687.0893647628097
 20
2011.842020143321
 10
687.1037935744879
 20
2011.879324245932
 10
687.1197026108814
 20
2011.916021510668
 10
687.1370664209259
 20
2011.952053229733
 10
687.1558572262296
 20
2011.987361760063
 10
687.1760449655122
 20
2012.021890615542
 10
687.1975973426974
 20
2012.055584557367
 10
687.2204798785796
 20
2012.088389682419
 10
687.2446559659822
 20
2012.120253509495
 10
687.270086928323
 20
2012.15112506327
 10
687.2967320814873
 20
2012.180954955843
 10
687.324548798914
 20
2012.209695465748
 10
687.3534925797888
 20
2012.237300614303
 10
687.3835171202369
 20
2012.263726239157
 10
687.4145743873985
 20
2012.288930064948
 10
687.4466146962714
 20
2012.312871770931
 10
687.4795867891961
 20
2012.335513055484
 10
687.5134379178578
 20
2012.356817697381
 10
687.5481139276717
 20
2012.376751613741
 10
687.5835593444191
 20
2012.395282914548
 10
687.6197174629948
 20
2012.412381953677
 10
687.6565304381223
 20
2012.42802137631
 10
687.6939393768943
 20
2012.442176162709
 10
687.7318844329892
 20
2012.454823668234
 10
687.7703049024114
 20
2012.465943659575
 10
687.8091393206059
 20
2012.475518347118
 10
687.8483255607879
 20
2012.483532413404
 10
687.8878009333322
 20
2012.489973037638
 10
687.927502286064
 20
2012.494829916195
 10
687.9673661052878
 20
2012.498095279106
 10
688.0073286173967
 20
2012.499763902485
 10
688.0290573835958
 20
2012.499999999996
  0
LINE
  5
139
330
87
100
AcDbEntity
  8
P-SANR-FIXT
100
AcDbLine
 10
687.0893647628097
 20
2011.842020143321
 30
0.0
 11
685.5453956975447
 21
2007.78204618461
 31
0.0
  0
LINE
  5
13A
330
87
100
AcDbEntity
  8
P-SANR-FIXT
100
AcDbLine
 10
685.5453956975447
 20
1992.217953815382
 30
0.0
 11
687.0893647628097
 21
1988.15797985667
 31
0.0
  0
LINE
  5
13B
330
87
100
AcDbEntity
  8
P-SANR-FIXT
100
AcDbLine
 10
689.5453956974814
 20
2012.499999999996
 30
0.0
 11
688.0290573835958
 21
2012.499999999996
 31
0.0
  0
LINE
  5
13C
330
87
100
AcDbEntity
  8
P-SANR-FIXT
100
AcDbLine
 10
688.0290573835958
 20
1987.499999999996
 30
0.0
 11
689.5453956974814
 21
1987.499999999996
 31
0.0
  0
LINE
  5
13D
330
87
100
AcDbEntity
  8
P-SANR-FIXT
100
AcDbLine
 10
687.0893647628084
 20
2011.842020143321
 30
0.0
 11
687.0893647628084
 21
1988.157979856669
 31
0.0
  0
LINE
  5
13E
330
87
100
AcDbEntity
  8
P-SANR-FIXT
100
AcDbLine
 10
685.5453956975432
 20
2007.782046184608
 30
0.0
 11
685.5453956975432
 21
1992.217953815382
 31
0.0
  0
LINE
  5
13F
330
87
100
AcDbEntity
  8
P-SANR-FIXT
100
AcDbLine
 10
689.5453956974805
 20
2012.415506279843
 30
0.0
 11
689.5453956974805
 21
2012.367987009964
 31
0.0
  0
LINE
  5
140
330
87
100
AcDbEntity
  8
P-SANR-FIXT
100
AcDbLine
 10
689.5453956974805
 20
2011.669978897962
 30
0.0
 11
689.5453956974805
 21
2011.548494156386
 31
0.0
  0
LINE
  5
141
330
87
100
AcDbEntity
  8
P-SANR-FIXT
100
AcDbLine
 10
689.5453956974805
 20
2011.209516395598
 30
0.0
 11
689.5453956974805
 21
2010.259695338765
 31
0.0
  0
LINE
  5
142
330
87
100
AcDbEntity
  8
P-SANR-FIXT
100
AcDbLine
 10
689.5453956974805
 20
2010.07867205467
 30
0.0
 11
689.5453956974805
 21
2009.593092617988
 31
0.0
  0
LINE
  5
143
330
87
100
AcDbEntity
  8
P-SANR-FIXT
100
AcDbLine
 10
689.5453956974805
 20
2008.838834764826
 30
0.0
 11
689.5453956974805
 21
2008.050694253527
 31
0.0
  0
LINE
  5
144
330
87
100
AcDbEntity
  8
P-SANR-FIXT
100
AcDbLine
 10
689.5453956974805
 20
2007.609517862604
 30
0.0
 11
689.5453956974805
 21
2005.293208879849
 31
0.0
  0
LINE
  5
145
330
87
100
AcDbEntity
  8
P-SANR-FIXT
100
AcDbLine
 10
689.5453956974805
 20
2004.783542904559
 30
0.0
 11
689.5453956974805
 21
2002.175094885412
 31
0.0
  0
LINE
  5
146
330
87
100
AcDbEntity
  8
P-SANR-FIXT
100
AcDbLine
 10
689.5453956974805
 20
2001.631577402746
 30
0.0
 11
689.5453956974805
 21
2001.37218268312
 31
0.0
  0
LINE
  5
147
330
87
100
AcDbEntity
  8
P-SANR-FIXT
100
AcDbLine
 10
689.5453956974805
 20
2001.091173639519
 30
0.0
 11
689.5453956974805
 21
1998.90882636047
 31
0.0
  0
LINE
  5
148
330
87
100
AcDbEntity
  8
P-SANR-FIXT
100
AcDbLine
 10
689.5453956974805
 20
1998.471985364924
 30
0.0
 11
689.5453956974805
 21
1998.368422597244
 31
0.0
  0
LINE
  5
149
330
87
100
AcDbEntity
  8
P-SANR-FIXT
100
AcDbLine
 10
689.5453956974805
 20
1997.824905114576
 30
0.0
 11
689.5453956974805
 21
1995.716992800697
 31
0.0
  0
LINE
  5
14A
330
87
100
AcDbEntity
  8
P-SANR-FIXT
100
AcDbLine
 10
689.5453956974805
 20
1995.567697031722
 30
0.0
 11
689.5453956974805
 21
1995.216457095431
 31
0.0
  0
LINE
  5
14B
330
87
100
AcDbEntity
  8
P-SANR-FIXT
100
AcDbLine
 10
689.5453956974805
 20
1994.70679112014
 30
0.0
 11
689.5453956974805
 21
1992.817128787808
 31
0.0
  0
LINE
  5
14C
330
87
100
AcDbEntity
  8
P-SANR-FIXT
100
AcDbLine
 10
689.5453956974805
 20
1992.665473054585
 30
0.0
 11
689.5453956974805
 21
1992.390482137386
 31
0.0
  0
LINE
  5
14D
330
87
100
AcDbEntity
  8
P-SANR-FIXT
100
AcDbLine
 10
689.5453956974805
 20
1991.949305746462
 30
0.0
 11
689.5453956974805
 21
1991.161165235163
 31
0.0
  0
LINE
  5
14E
330
87
100
AcDbEntity
  8
P-SANR-FIXT
100
AcDbLine
 10
689.5453956974805
 20
1990.406907382002
 30
0.0
 11
689.5453956974805
 21
1989.757217499295
 31
0.0
  0
LINE
  5
14F
330
87
100
AcDbEntity
  8
P-SANR-FIXT
100
AcDbLine
 10
689.5453956974805
 20
1989.740304661225
 30
0.0
 11
689.5453956974805
 21
1988.790483604393
 31
0.0
  0
LINE
  5
150
330
87
100
AcDbEntity
  8
P-SANR-FIXT
100
AcDbLine
 10
689.5453956974805
 20
1988.451505843604
 30
0.0
 11
689.5453956974805
 21
1988.330021102028
 31
0.0
  0
LINE
  5
151
330
87
100
AcDbEntity
  8
P-SANR-FIXT
100
AcDbLine
 10
689.5453956974805
 20
1987.632012990026
 30
0.0
 11
689.5453956974805
 21
1987.584493720147
 31
0.0
  0
LINE
  5
152
330
87
100
AcDbEntity
  8
P-SANR-FIXT
100
AcDbLine
 10
689.5453956974814
 20
1987.499999999996
 30
0.0
 11
690.3187633842041
 21
1986.16055578192
 31
0.0
  0
LINE
  5
153
330
87
100
AcDbEntity
  8
P-SANR-FIXT
100
AcDbLine
 10
690.318763384202
 20
2013.839444218068
 30
0.0
 11
689.5453956974814
 21
2012.499999999996
 31
0.0
  0
LINE
  5
154
330
87
100
AcDbEntity
  8
P-SANR-FIXT
100
AcDbLine
 10
699.045395697543
 20
2007.855459963796
 30
0.0
 11
699.045395697543
 21
2005.939715166999
 31
0.0
  0
LINE
  5
155
330
87
100
AcDbEntity
  8
P-SANR-FIXT
100
AcDbLine
 10
699.045395697543
 20
2005.939715166999
 30
0.0
 11
699.045395697543
 21
1994.060284832988
 31
0.0
  0
LINE
  5
156
330
87
100
AcDbEntity
  8
P-SANR-FIXT
100
AcDbLine
 10
699.045395697543
 20
1994.060284832988
 30
0.0
 11
699.045395697543
 21
1992.144540036191
 31
0.0
  0
LINE
  5
157
330
87
100
AcDbEntity
  8
P-SANR-FIXT
100
AcDbLine
 10
699.045395697543
 20
1992.144540036191
 30
0.0
 11
699.045395697543
 21
1986.204824869186
 31
0.0
  0
LINE
  5
158
330
87
100
AcDbEntity
  8
P-SANR-FIXT
100
AcDbLine
 10
699.045395697543
 20
1986.204824869186
 30
0.0
 11
699.045395697543
 21
1986.160555781921
 31
0.0
  0
LINE
  5
159
330
87
100
AcDbEntity
  8
P-SANR-FIXT
100
AcDbLine
 10
699.045395697543
 20
2013.839444218067
 30
0.0
 11
699.045395697543
 21
2013.795175130802
 31
0.0
  0
LINE
  5
15A
330
87
100
AcDbEntity
  8
P-SANR-FIXT
100
AcDbLine
 10
699.045395697543
 20
2013.795175130802
 30
0.0
 11
699.045395697543
 21
2007.855459963796
 31
0.0
  0
LINE
  5
15B
330
87
100
AcDbEntity
  8
P-SANR-FIXT
100
AcDbLine
 10
689.5453956974801
 20
1987.499999999995
 30
0.0
 11
689.5453956974801
 21
1987.584547332022
 31
0.0
  0
LINE
  5
15C
330
87
100
AcDbEntity
  8
P-SANR-FIXT
100
AcDbLine
 10
689.5453956974801
 20
1987.631946060282
 30
0.0
 11
689.5453956974801
 21
1988.44054126387
 31
0.0
  0
LINE
  5
15D
330
87
100
AcDbEntity
  8
P-SANR-FIXT
100
AcDbLine
 10
689.5453956974801
 20
1988.522207225358
 30
0.0
 11
689.5453956974801
 21
1989.174682452689
 31
0.0
  0
LINE
  5
15E
330
87
100
AcDbEntity
  8
P-SANR-FIXT
100
AcDbLine
 10
689.5453956974801
 20
1989.174682452689
 30
0.0
 11
689.5453956974801
 21
1990.073649179439
 31
0.0
  0
LINE
  5
15F
330
87
100
AcDbEntity
  8
P-SANR-FIXT
100
AcDbLine
 10
689.5453956974801
 20
1990.424444461007
 30
0.0
 11
689.5453956974801
 21
1992.383239295157
 31
0.0
  0
LINE
  5
160
330
87
100
AcDbEntity
  8
P-SANR-FIXT
100
AcDbLine
 10
689.5453956974801
 20
1992.671310278882
 30
0.0
 11
689.5453956974801
 21
1995.211903149635
 31
0.0
  0
LINE
  5
161
330
87
100
AcDbEntity
  8
P-SANR-FIXT
100
AcDbLine
 10
689.5453956974801
 20
1995.571759635138
 30
0.0
 11
689.5453956974801
 21
1999.999999999994
 31
0.0
  0
LINE
  5
162
330
87
100
AcDbEntity
  8
P-SANR-FIXT
100
AcDbLine
 10
689.5453956974801
 20
1999.999999999994
 30
0.0
 11
689.5453956974801
 21
2004.275251791565
 31
0.0
  0
LINE
  5
163
330
87
100
AcDbEntity
  8
P-SANR-FIXT
100
AcDbLine
 10
689.5453956974801
 20
2004.788096850355
 30
0.0
 11
689.5453956974801
 21
2007.169705454382
 31
0.0
  0
LINE
  5
164
330
87
100
AcDbEntity
  8
P-SANR-FIXT
100
AcDbLine
 10
689.5453956974801
 20
2007.616760704833
 30
0.0
 11
689.5453956974801
 21
2009.92635082055
 31
0.0
  0
LINE
  5
165
330
87
100
AcDbEntity
  8
P-SANR-FIXT
100
AcDbLine
 10
689.5453956974801
 20
2010.073856501614
 30
0.0
 11
689.5453956974801
 21
2010.8253175473
 31
0.0
  0
LINE
  5
166
330
87
100
AcDbEntity
  8
P-SANR-FIXT
100
AcDbLine
 10
689.5453956974801
 20
2010.8253175473
 30
0.0
 11
689.5453956974801
 21
2011.477792774632
 31
0.0
  0
LINE
  5
167
330
87
100
AcDbEntity
  8
P-SANR-FIXT
100
AcDbLine
 10
689.5453956974801
 20
2011.559458736119
 30
0.0
 11
689.5453956974801
 21
2012.368053939708
 31
0.0
  0
LINE
  5
168
330
87
100
AcDbEntity
  8
P-SANR-FIXT
100
AcDbLine
 10
689.5453956974801
 20
2012.415452667967
 30
0.0
 11
689.5453956974801
 21
2012.499999999995
 31
0.0
  0
LINE
  5
169
330
87
100
AcDbEntity
  8
P-SANR-FIXT
100
AcDbLine
 10
699.045395697543
 20
2007.855459963796
 30
0.0
 11
690.3187633842196
 21
2007.855459963796
 31
0.0
  0
LINE
  5
16A
330
87
100
AcDbEntity
  8
P-SANR-FIXT
100
AcDbLine
 10
690.3187633842011
 20
2007.855459963796
 30
0.0
 11
690.3187633842011
 21
2005.939715166999
 31
0.0
  0
LINE
  5
16B
330
87
100
AcDbEntity
  8
P-SANR-FIXT
100
AcDbLine
 10
690.3187633842216
 20
2005.939715166999
 30
0.0
 11
699.045395697543
 21
2005.939715166999
 31
0.0
  0
SPLINE
  5
16C
330
87
100
AcDbEntity
  8
P-SANR-FIXT
100
AcDbSpline
210
0.0
220
0.0
230
1.0
 70
     8
 71
     3
 72
     9
 73
     5
 74
     0
 42
0.000000001
 43
0.0000000001
 40
0.0
 40
0.0
 40
0.0
 40
0.0
 40
0.5
 40
1.0
 40
1.0
 40
1.0
 40
1.0
 10
690.3187633842216
 20
2005.939715166999
 30
0.0
 10
690.0680690585949
 20
2004.965090411481
 30
0.0
 10
689.6884801185113
 20
2003.000513128129
 30
0.0
 10
689.5524906007673
 20
2001.005280300145
 30
0.0
 10
689.5453956974801
 20
1999.999999999994
 30
0.0
  0
SPLINE
  5
16D
330
87
100
AcDbEntity
  8
P-SANR-FIXT
100
AcDbSpline
210
0.0
220
0.0
230
1.0
 70
     8
 71
     3
 72
     9
 73
     5
 74
     0
 42
0.000000001
 43
0.0000000001
 40
0.0
 40
0.0
 40
0.0
 40
0.0
 40
0.5
 40
1.0
 40
1.0
 40
1.0
 40
1.0
 10
689.5453956974801
 20
1999.999999999994
 30
0.0
 10
689.5524906007673
 20
1998.994719699844
 30
0.0
 10
689.6884801185115
 20
1996.999486871859
 30
0.0
 10
690.0680690585952
 20
1995.034909588506
 30
0.0
 10
690.318763384222
 20
1994.060284832988
 30
0.0
  0
LINE
  5
16E
330
87
100
AcDbEntity
  8
P-SANR-FIXT
100
AcDbLine
 10
690.3187633842219
 20
1994.060284832988
 30
0.0
 11
699.045395697543
 21
1994.060284832988
 31
0.0
  0
LINE
  5
16F
330
87
100
AcDbEntity
  8
P-SANR-FIXT
100
AcDbLine
 10
690.3187633842011
 20
1994.060284832988
 30
0.0
 11
690.3187633842011
 21
1992.144540036191
 31
0.0
  0
LINE
  5
170
330
87
100
AcDbEntity
  8
P-SANR-FIXT
100
AcDbLine
 10
690.3187633842203
 20
1992.144540036191
 30
0.0
 11
699.045395697543
 21
1992.144540036191
 31
0.0
  0
SPLINE
  5
171
330
87
100
AcDbEntity
  8
P-SANR-FIXT
100
AcDbSpline
210
0.0
220
0.0
230
1.0
 70
     8
 71
     3
 72
     9
 73
     5
 74
     0
 42
0.000000001
 43
0.0000000001
 40
0.0
 40
0.0
 40
0.0
 40
0.0
 40
0.5
 40
1.0
 40
1.0
 40
1.0
 40
1.0
 10
690.3187633842203
 20
1992.144540036191
 30
0.0
 10
690.0680690585889
 20
1991.657227658429
 30
0.0
 10
689.6884801185007
 20
1990.674939016748
 30
0.0
 10
689.552490600762
 20
1989.67732260275
 30
0.0
 10
689.5453956974801
 20
1989.174682452672
 30
0.0
  0
SPLINE
  5
172
330
87
100
AcDbEntity
  8
P-SANR-FIXT
100
AcDbSpline
210
0.0
220
0.0
230
1.0
 70
     8
 71
     3
 72
     9
 73
     5
 74
     0
 42
0.000000001
 43
0.0000000001
 40
0.0
 40
0.0
 40
0.0
 40
0.0
 40
0.5
 40
1.0
 40
1.0
 40
1.0
 40
1.0
 10
689.5453956974801
 20
1989.174682452672
 30
0.0
 10
689.5524906007617
 20
1988.672042302599
 30
0.0
 10
689.6884801184973
 20
1987.674425888613
 30
0.0
 10
690.0680690585772
 20
1986.692137246942
 30
0.0
 10
690.3187633842035
 20
1986.204824869186
 30
0.0
  0
LINE
  5
173
330
87
100
AcDbEntity
  8
P-SANR-FIXT
100
AcDbLine
 10
690.3187633842035
 20
1986.204824869186
 30
0.0
 11
699.045395697543
 21
1986.204824869186
 31
0.0
  0
LINE
  5
174
330
87
100
AcDbEntity
  8
P-SANR-FIXT
100
AcDbLine
 10
690.3187633842011
 20
1986.204824869186
 30
0.0
 11
690.3187633842011
 21
1986.160555781921
 31
0.0
  0
LINE
  5
175
330
87
100
AcDbEntity
  8
P-SANR-FIXT
100
AcDbLine
 10
690.3187633842011
 20
2013.839444218067
 30
0.0
 11
690.3187633842011
 21
2013.795175130802
 31
0.0
  0
LINE
  5
176
330
87
100
AcDbEntity
  8
P-SANR-FIXT
100
AcDbLine
 10
690.3187633842024
 20
2013.795175130802
 30
0.0
 11
699.045395697543
 21
2013.795175130802
 31
0.0
  0
SPLINE
  5
177
330
87
100
AcDbEntity
  8
P-SANR-FIXT
100
AcDbSpline
210
0.0
220
0.0
230
1.0
 70
     8
 71
     3
 72
     9
 73
     5
 74
     0
 42
0.000000001
 43
0.0000000001
 40
0.0
 40
0.0
 40
0.0
 40
0.0
 40
0.5
 40
1.0
 40
1.0
 40
1.0
 40
1.0
 10
690.3187633842024
 20
2013.795175130802
 30
0.0
 10
690.0680690585761
 20
2013.307862753046
 30
0.0
 10
689.688480118496
 20
2012.325574111375
 30
0.0
 10
689.5524906007612
 20
2011.327957697389
 30
0.0
 10
689.5453956974801
 20
2010.825317547316
 30
0.0
  0
SPLINE
  5
178
330
87
100
AcDbEntity
  8
P-SANR-FIXT
100
AcDbSpline
210
0.0
220
0.0
230
1.0
 70
     8
 71
     3
 72
     9
 73
     5
 74
     0
 42
0.000000001
 43
0.0000000001
 40
0.0
 40
0.0
 40
0.0
 40
0.0
 40
0.5
 40
1.0
 40
1.0
 40
1.0
 40
1.0
 10
689.5453956974801
 20
2010.825317547316
 30
0.0
 10
689.5524906007615
 20
2010.322677397238
 30
0.0
 10
689.6884801184995
 20
2009.32506098324
 30
0.0
 10
690.0680690585878
 20
2008.342772341558
 30
0.0
 10
690.3187633842196
 20
2007.855459963796
 30
0.0
  0
LINE
  5
179
330
87
100
AcDbEntity
  8
P-SANR-FIXT
100
AcDbLine
 10
760.2566275763252
 20
2057.509671612961
 30
0.0
 11
759.0810471964839
 21
2056.858036767705
 31
0.0
  0
LINE
  5
17A
330
87
100
AcDbEntity
  8
P-SANR-FIXT
100
AcDbLine
 10
777.3450194193012
 20
2051.620927007185
 30
0.0
 11
776.6933845740449
 21
2052.796507387026
 31
0.0
  0
LINE
  5
17B
330
87
100
AcDbEntity
  8
P-SANR-FIXT
100
AcDbLine
 10
759.0810471964839
 20
2056.858036767705
 30
0.0
 11
757.6891958288743
 21
2052.004074204624
 31
0.0
  0
LINE
  5
17C
330
87
100
AcDbEntity
  8
P-SANR-FIXT
100
AcDbLine
 10
775.9531680516918
 20
2046.766964444104
 30
0.0
 11
777.3450194193012
 21
2051.620927007185
 31
0.0
  0
LINE
  5
17D
330
87
100
AcDbEntity
  8
P-SANR-FIXT
100
AcDbLine
 10
776.6933845740435
 20
2052.796507387025
 30
0.0
 11
760.2566275763239
 21
2057.50967161296
 31
0.0
  0
LINE
  5
17E
330
87
100
AcDbEntity
  8
P-SANR-FIXT
100
AcDbLine
 10
759.0810471964825
 20
2056.858036767704
 30
0.0
 11
777.3450194192998
 21
2051.620927007184
 31
0.0
  0
LINE
  5
17F
330
87
100
AcDbEntity
  8
P-SANR-FIXT
100
AcDbLine
 10
757.689195828873
 20
2052.004074204623
 30
0.0
 11
775.9531680516903
 21
2046.766964444103
 31
0.0
  0
LINE
  5
180
330
87
100
AcDbEntity
  8
P-SANR-FIXT
100
AcDbLine
 10
764.8219403784765
 20
2010.649999999996
 30
0.0
 11
762.8219403784779
 21
2010.649999999996
 31
0.0
  0
LINE
  5
181
330
87
100
AcDbEntity
  8
P-SANR-FIXT
100
AcDbLine
 10
701.021940378478
 20
2010.649999999996
 30
0.0
 11
699.0453956975444
 21
2010.649999999996
 31
0.0
  0
LINE
  5
182
330
87
100
AcDbEntity
  8
P-SANR-FIXT
100
AcDbLine
 10
699.0453956975444
 20
1989.349999999996
 30
0.0
 11
701.021940378478
 21
1989.349999999996
 31
0.0
  0
LINE
  5
183
330
87
100
AcDbEntity
  8
P-SANR-FIXT
100
AcDbLine
 10
762.8219403784779
 20
1989.349999999996
 30
0.0
 11
764.8219403784765
 21
1989.349999999996
 31
0.0
  0
LINE
  5
184
330
87
100
AcDbEntity
  8
P-SANR-FIXT
100
AcDbLine
 10
701.021940378478
 20
1990.049999999996
 30
0.0
 11
722.738311381499
 21
1990.049999999996
 31
0.0
  0
LINE
  5
185
330
87
100
AcDbEntity
  8
P-SANR-FIXT
100
AcDbLine
 10
760.6965425124251
 20
1990.049999999996
 30
0.0
 11
762.8219403784779
 21
1990.049999999996
 31
0.0
  0
LINE
  5
186
330
87
100
AcDbEntity
  8
P-SANR-FIXT
100
AcDbLine
 10
762.8219403784779
 20
2009.949999999996
 30
0.0
 11
760.2826575510253
 21
2009.949999999996
 31
0.0
  0
LINE
  5
187
330
87
100
AcDbEntity
  8
P-SANR-FIXT
100
AcDbLine
 10
702.3513862998998
 20
2009.949999999996
 30
0.0
 11
701.021940378478
 21
2009.949999999996
 31
0.0
  0
LINE
  5
188
330
87
100
AcDbEntity
  8
P-SANR-FIXT
100
AcDbLine
 10
722.738311381499
 20
1990.049999999996
 30
0.0
 11
725.8085144103834
 21
1981.614686504995
 31
0.0
  0
LINE
  5
189
330
87
100
AcDbEntity
  8
P-SANR-FIXT
100
AcDbLine
 10
703.487568101989
 20
2021.95306978186
 30
0.0
 11
705.9638667596923
 21
2019.875208491496
 31
0.0
  0
LWPOLYLINE
  5
18A
330
87
100
AcDbEntity
  8
P-SANR-FIXT
100
AcDbPolyline
 90
       41
 70
   128
 43
0.0
 10
730.93536546683
 20
1979.223996595154
 10
730.7839604193108
 20
1979.172294579386
 10
730.6306089504941
 20
1979.126688506759
 10
730.4755563900165
 20
1979.087251337261
 10
730.3190507888987
 20
1979.054046161948
 10
730.1613425227166
 20
1979.027126102021
 10
730.0026838910533
 20
1979.006534223829
 10
729.8433287138742
 20
1978.992303469987
 10
729.6835319254687
 20
1978.984456606665
 10
729.5235491666103
 20
1978.98300618717
 10
729.3636363755851
 20
1978.987954531865
 10
729.2040493787458
 20
1978.999293724452
 10
729.045043481244
 20
1979.017005624642
 10
728.8868730585963
 20
1979.041061897175
 10
728.7297911497378
 20
1979.071424057146
 10
728.5740490522136
 20
1979.108043531575
 10
728.4198959201565
 20
1979.150861737115
 10
728.2675783656933
 20
1979.199810173771
 10
728.1173400644188
 20
1979.254810534486
 10
727.9694213655658
 20
1979.315774830418
 10
727.8240589074981
 20
1979.382605531695
 10
727.68148523914
 20
1979.455195723454
 10
727.5419284479461
 20
1979.533429276872
 10
727.4056117950123
 20
1979.617181034953
 10
727.2727533579037
 20
1979.70631701275
 10
727.1435656817783
 20
1979.800694611713
 10
727.0182554393592
 20
1979.900162847816
 10
726.8970231003026
 20
1980.004562593101
 10
726.7800626104898
 20
1980.113726830246
 10
726.6675610817542
 20
1980.227480919759
 10
726.5596984925426
 20
1980.345642879362
 10
726.4566473999884
 20
1980.468023675127
 10
726.3585726638565
 20
1980.594427523887
 10
726.2656311828033
 20
1980.724652206449
 10
726.1779716433721
 20
1980.8584893911
 10
726.0957342821264
 20
1980.995724966896
 10
726.0190506613007
 20
1981.136139386191
 10
725.9480434583305
 20
1981.279508015866
 10
725.8828262695928
 20
1981.425601496699
 10
725.8235034286776
 20
1981.574186110285
 10
725.8085144103836
 20
1981.614686504995
  0
LWPOLYLINE
  5
18B
330
87
100
AcDbEntity
  8
P-SANR-FIXT
100
AcDbPolyline
 90
        5
 70
   128
 43
0.0
 10
731.0594510700386
 20
1979.269160061223
 10
730.993877932276
 20
1979.24529339091
 10
730.9526399377638
 20
1979.230283988387
 10
730.935803058496
 20
1979.224155865495
 10
730.9353654668298
 20
1979.223996595154
  0
LWPOLYLINE
  5
18C
330
87
100
AcDbEntity
  8
P-SANR-FIXT
100
AcDbPolyline
 90
       77
 70
   128
 43
0.0
 10
730.9353654668298
 20
1979.223996595154
 10
730.9475798421864
 20
1979.228442264214
 10
730.984203427861
 20
1979.241772159271
 10
731.0451776339293
 20
1979.263964955339
 10
731.1304049146685
 20
1979.294985148675
 10
731.2397489246109
 20
1979.334783113589
 10
731.3730347366653
 20
1979.383295181827
 10
731.5300491219653
 20
1979.440443744428
 10
731.7105408909895
 20
1979.506137375883
 10
731.9142212954099
 20
1979.580270980395
 10
732.1407644900293
 20
1979.662725960012
 10
732.3898080540628
 20
1979.753370404356
 10
732.6609535709341
 20
1979.852059301651
 10
732.9537672656579
 20
1979.958634770717
 10
733.267780698786
 20
1980.072926313535
 10
733.6024915158114
 20
1980.194751088019
 10
733.9573642508281
 20
1980.323914200518
 10
734.3318311831621
 20
1980.460209017605
 10
734.7252932456038
 20
1980.603417496647
 10
735.1371209827875
 20
1980.753310534626
 10
735.5666555581852
 20
1980.90964833466
 10
736.0132098081058
 20
1981.072180789616
 10
736.4760693410093
 20
1981.240647882239
 10
736.9544936803808
 20
1981.414780101118
 10
737.4477174493359
 20
1981.594298871851
 10
737.9549515950598
 20
1981.778917002698
 10
738.4753846511235
 20
1981.968339144033
 10
739.0081840356571
 20
1982.162262260838
 10
739.5524973833028
 20
1982.360376117496
 10
740.1074539088187
 20
1982.562363774095
 10
740.6721658001486
 20
1982.767902093475
 10
741.2457296387314
 20
1982.97666225817
 10
741.8272278447793
 20
1983.188310296451
 10
742.415730145209
 20
1983.402507616605
 10
743.0102950618802
 20
1983.618911548612
 10
743.6099714177601
 20
1983.837175892346
 10
744.2137998586034
 20
1984.056951471416
 10
744.8208143877143
 20
1984.27788669178
 10
745.4300439113359
 20
1984.499628104214
 10
746.0405137921927
 20
1984.721820969762
 10
746.6512474087017
 20
1984.944109827237
 10
747.2612677173597
 20
1985.166139061887
 10
747.8695988158031
 20
1985.387553474298
 10
748.475267504045
 20
1985.607998848646
 10
749.0773048413869
 20
1985.827122519355
 10
749.6747476965161
 20
1986.044573935297
 10
750.266640288313
 20
1986.260005220594
 10
750.8520357148939
 20
1986.473071731145
 10
751.4299974684539
 20
1986.683432605985
 10
751.9996009334793
 20
1986.890751312589
 10
752.5599348659352
 20
1987.094696185252
 10
753.110102851061
 20
1987.294940955684
 10
753.6492247374435
 20
1987.491165274969
 10
754.1764380450711
 20
1987.683055226055
 10
754.6908993451173
 20
1987.870303825953
 10
755.1917856092485
 20
1988.05261151685
 10
755.6782955262921
 20
1988.229686645329
 10
756.1496507841637
 20
1988.401245928959
 10
756.6050973150012
 20
1988.567014909483
 10
757.0439065015123
 20
1988.726728391896
 10
757.4653763426057
 20
1988.880130868695
 10
757.868832576445
 20
1989.026976928641
 10
758.2536297591218
 20
1989.167031649366
 10
758.6191522972297
 20
1989.30007097319
 10
758.9648154326815
 20
1989.425882065578
 10
759.2900661781981
 20
1989.544263655619
 10
759.5943842019699
 20
1989.655026358022
 10
759.8772826600764
 20
1989.757992976093
 10
760.1383089753332
 20
1989.852998785207
 10
760.3770455613185
 20
1989.939891796336
 10
760.5931104904225
 20
1990.018532999198
 10
760.7861581048499
 20
1990.088796584646
 10
760.9558795695992
 20
1990.150570145931
 10
761.1020033665319
 20
1990.203754858532
 10
761.2242957287442
 20
1990.248265638255
 10
761.3225610145445
 20
1990.284031277349
 10
761.3384415816954
 20
1990.289811331095
  0
LINE
  5
18D
330
87
100
AcDbEntity
  8
P-SANR-FIXT
100
AcDbLine
 10
760.2826575510253
 20
2009.949999999996
 30
0.0
 11
767.6353337737438
 21
2035.59182925999
 31
0.0
  0
LWPOLYLINE
  5
18E
330
87
100
AcDbEntity
  8
P-SANR-FIXT
100
AcDbPolyline
 90
       41
 70
   128
 43
0.0
 10
770.1354998138059
 20
2036.991938836147
 10
770.0566434249058
 20
2037.012120962808
 10
769.9770430428982
 20
2037.029133531431
 10
769.8968260114138
 20
2037.042949325536
 10
769.8161206605911
 20
2037.0535462428
 10
769.7350561017753
 20
2037.060907330417
 10
769.6537620209673
 20
2037.065020812214
 10
769.5723684713548
 20
2037.065880107501
 10
769.491005665254
 20
2037.063483841587
 10
769.4098037657984
 20
2037.057835847986
 10
769.3288926787048
 20
2037.048945162284
 10
769.2484018444527
 20
2037.036826007681
 10
769.168460031206
 20
2037.021497772239
 10
769.0891951288128
 20
2037.002984977865
 10
769.0107339442083
 20
2036.981317241081
 10
768.9332019985497
 20
2036.956529225644
 10
768.8567233264113
 20
2036.928660587089
 10
768.7814202773538
 20
2036.897755909295
 10
768.7074133201918
 20
2036.863864633153
 10
768.6348208502697
 20
2036.827040977475
 10
768.5637590000535
 20
2036.787343852255
 10
768.4943414533448
 20
2036.744836764424
 10
768.4266792634097
 20
2036.699587716256
 10
768.3608806753185
 20
2036.651669096575
 10
768.2970509527759
 20
2036.60115756495
 10
768.2352922097215
 20
2036.548133929058
 10
768.1757032469699
 20
2036.492683015404
 10
768.1183793941496
 20
2036.434893533621
 10
768.0634123571969
 20
2036.374857934552
 10
768.0108900716452
 20
2036.312672262349
 10
767.9608965619474
 20
2036.248436000822
 10
767.9135118070537
 20
2036.182251914286
 10
767.8688116124645
 20
2036.114225883161
 10
767.8268674889551
 20
2036.044466734586
 10
767.7877465381757
 20
2035.973086068316
 10
767.7515113453022
 20
2035.900198078192
 10
767.7182198789133
 20
2035.825919369449
 10
767.6879253982534
 20
2035.750368772175
 10
767.6606763680293
 20
2035.673667151209
 10
767.6365163808765
 20
2035.595937212783
 10
767.6353337737438
 20
2035.59182925999
  0
LWPOLYLINE
  5
18F
330
87
100
AcDbEntity
  8
P-SANR-FIXT
100
AcDbPolyline
 90
       41
 70
   128
 43
0.0
 10
772.5925594395699
 20
2038.367908534198
 10
772.5689765172426
 20
2038.291469064768
 10
772.5423556952494
 20
2038.216033804123
 10
772.5127395612272
 20
2038.141723432588
 10
772.4801754946724
 20
2038.068656830904
 10
772.4447155911451
 20
2037.996950890049
 10
772.4064165789261
 20
2037.92672032423
 10
772.3653397282654
 20
2037.858077487371
 10
772.3215507533613
 20
2037.791132193369
 10
772.2751197072324
 20
2037.725991540413
 10
772.2261208696477
 20
2037.662759739651
 10
772.1746326282952
 20
2037.601537948477
 10
772.120737353377
 20
2037.542424108696
 10
772.0645212658362
 20
2037.485512789841
 10
772.0060742994207
 20
2037.430895037882
 10
771.9454899568088
 20
2037.378658229572
 10
771.8828651600247
 20
2037.32888593266
 10
771.8183000953838
 20
2037.281657772204
 10
771.7518980532165
 20
2037.237049303185
 10
771.6837652626253
 20
2037.195131889638
 10
771.6140107215411
 20
2037.155972590483
 10
771.5427460223492
 20
2037.119634052245
 10
771.4700851733659
 20
2037.086174408834
 10
771.3961444164496
 20
2037.055647188541
 10
771.3210420410383
 20
2037.028101228406
 10
771.2448981949113
 20
2037.003580596091
 10
771.1678346919797
 20
2036.982124519374
 10
771.0899748174085
 20
2036.963767323403
 10
771.0114431303877
 20
2036.948538375773
 10
770.9323652648645
 20
2036.936462039555
 10
770.8528677285544
 20
2036.927557634309
 10
770.7730777005568
 20
2036.921839405184
 10
770.6931228278959
 20
2036.919316500126
 10
770.6131310213113
 20
2036.919992955246
 10
770.5332302506299
 20
2036.92386768836
 10
770.4535483400404
 20
2036.930934500721
 10
770.3742127636011
 20
2036.941182086937
 10
770.295350441311
 20
2036.954594053057
 10
770.2170875360625
 20
2036.971148942794
 10
770.1395492518087
 20
2036.990820271858
 10
770.1354998138059
 20
2036.991938836147
  0
LINE
  5
190
330
87
100
AcDbEntity
  8
P-SANR-FIXT
100
AcDbLine
 10
772.5925594395699
 20
2038.367908534198
 30
0.0
 11
774.917365846886
 21
2046.475471978205
 31
0.0
  0
LINE
  5
191
330
87
100
AcDbEntity
  8
P-SANR-FIXT
100
AcDbLine
 10
757.6146553199962
 20
2051.436944382912
 30
0.0
 11
757.0592454557235
 21
2049.499999999996
 31
0.0
  0
LINE
  5
192
330
87
100
AcDbEntity
  8
P-SANR-FIXT
100
AcDbLine
 10
774.917365846886
 20
2046.475471978205
 30
0.0
 11
774.4965386243599
 21
2047.184646211133
 31
0.0
  0
LINE
  5
193
330
87
100
AcDbEntity
  8
P-SANR-FIXT
100
AcDbLine
 10
758.3473421325962
 20
2051.815353788859
 30
0.0
 11
757.6146553199962
 21
2051.436944382912
 31
0.0
  0
LINE
  5
194
330
87
100
AcDbEntity
  8
P-SANR-FIXT
100
AcDbLine
 10
705.9566239261487
 20
2019.855308969883
 30
0.0
 11
702.3513862998998
 21
2009.949999999996
 31
0.0
  0
LINE
  5
195
330
87
100
AcDbEntity
  8
P-SANR-FIXT
100
AcDbLine
 10
701.0219403784766
 20
1989.349999999995
 30
0.0
 11
701.0219403784766
 21
2010.649999999995
 31
0.0
  0
LINE
  5
196
330
87
100
AcDbEntity
  8
P-SANR-FIXT
100
AcDbLine
 10
762.8219403784766
 20
2010.649999999995
 30
0.0
 11
762.8219403784766
 21
1989.349999999995
 31
0.0
  0
SPLINE
  5
197
330
87
100
AcDbEntity
  8
P-SANR-FIXT
100
AcDbSpline
210
0.0
220
0.0
230
1.0
 70
     8
 71
     3
 72
    10
 73
     6
 74
     0
 42
0.000000001
 43
0.0000000001
 40
0.0
 40
0.0
 40
0.0
 40
0.0
 40
0.25
 40
0.5
 40
0.75
 40
0.75
 40
0.75
 40
0.75
 10
762.8219403784766
 20
1992.101637834841
 30
0.0
 10
762.7836491996817
 20
1991.86824718542
 30
0.0
 10
762.6622581444379
 20
1991.44336070525
 30
0.0
 10
762.3330333299536
 20
1990.928870602567
 30
0.0
 10
762.0408822431963
 20
1990.670491245213
 30
0.0
 10
761.8777685176598
 20
1990.560955605499
 30
0.0
  0
SPLINE
  5
198
330
87
100
AcDbEntity
  8
P-SANR-FIXT
100
AcDbSpline
210
0.0
220
0.0
230
1.0
 70
     8
 71
     3
 72
    26
 73
    22
 74
     0
 42
0.000000001
 43
0.0000000001
 40
0.0
 40
0.0
 40
0.0
 40
0.0
 40
0.125
 40
0.1875
 40
0.21875
 40
0.25
 40
0.28125
 40
0.3125
 40
0.34375
 40
0.375
 40
0.40625
 40
0.4375
 40
0.46875
 40
0.5
 40
0.53125
 40
0.5625
 40
0.625
 40
0.6875
 40
0.75
 40
0.875
 40
1.0
 40
1.0
 40
1.0
 40
1.0
 10
722.7383113814978
 20
1990.049999999995
 30
0.0
 10
722.7418348684177
 20
1990.049999999995
 30
0.0
 10
722.7606150043826
 20
1990.191081529995
 30
0.0
 10
722.8198619378338
 20
1990.594444071573
 30
0.0
 10
722.8601306895821
 20
1990.890422777527
 30
0.0
 10
722.8880984782186
 20
1991.144447053425
 30
0.0
 10
722.9173909927756
 20
1991.429577904641
 30
0.0
 10
722.9495218467949
 20
1991.744769050803
 30
0.0
 10
722.9790600308872
 20
1992.089021008256
 30
0.0
 10
722.9998883948375
 20
1992.461165909864
 30
0.0
 10
723.0155789746634
 20
1992.860199879805
 30
0.0
 10
723.0289335836133
 20
1993.284640791941
 30
0.0
 10
723.0332164744111
 20
1993.732733766531
 30
0.0
 10
723.0218473506274
 20
1994.202188843868
 30
0.0
 10
722.9971616729705
 20
1994.692219087616
 30
0.0
 10
722.9519006807188
 20
1995.371310885213
 30
0.0
 10
722.8542240233086
 20
1996.257076992485
 30
0.0
 10
722.6569169760193
 20
1997.364272979997
 30
0.0
 10
722.3034534386698
 20
1998.86904629863
 30
0.0
 10
721.6525106808234
 20
2000.744076491766
 30
0.0
 10
720.9987334906718
 20
2002.154383653181
 30
0.0
 10
720.6310865461804
 20
2002.823256365028
 30
0.0
  0
SPLINE
  5
199
330
87
100
AcDbEntity
  8
P-SANR-FIXT
100
AcDbSpline
210
0.0
220
0.0
230
1.0
 70
     8
 71
     3
 72
    10
 73
     6
 74
     0
 42
0.000000001
 43
0.0000000001
 40
0.0
 40
0.0
 40
0.0
 40
0.0
 40
0.3333333333333333
 40
0.6666666666666666
 40
1.0
 40
1.0
 40
1.0
 40
1.0
 10
720.6310865461804
 20
2002.823256365028
 30
0.0
 10
720.4841242695307
 20
2003.088363830455
 30
0.0
 10
720.1437292825354
 20
2003.57298567885
 30
0.0
 10
719.4674395358243
 20
2004.171148022022
 30
0.0
 10
718.9586867907991
 20
2004.481915916169
 30
0.0
 10
718.6854561956272
 20
2004.617136832457
 30
0.0
  0
SPLINE
  5
19A
330
87
100
AcDbEntity
  8
P-SANR-FIXT
100
AcDbSpline
210
0.0
220
0.0
230
1.0
 70
     8
 71
     3
 72
     9
 73
     5
 74
     0
 42
0.000000001
 43
0.0000000001
 40
0.0
 40
0.0
 40
0.0
 40
0.0
 40
0.5
 40
1.0
 40
1.0
 40
1.0
 40
1.0
 10
718.6854561956272
 20
2004.617136832457
 30
0.0
 10
717.9778453987916
 20
2004.966139205249
 30
0.0
 10
716.5786651421536
 20
2005.666840352387
 30
0.0
 10
715.2115675595825
 20
2006.351953718008
 30
0.0
 10
714.5360394368139
 20
2006.684336993307
 30
0.0
  0
SPLINE
  5
19B
330
87
100
AcDbEntity
  8
P-SANR-FIXT
100
AcDbSpline
210
0.0
220
0.0
230
1.0
 70
     8
 71
     3
 72
     9
 73
     5
 74
     0
 42
0.000000001
 43
0.0000000001
 40
0.0
 40
0.0
 40
0.0
 40
0.0
 40
0.5
 40
1.0
 40
1.0
 40
1.0
 40
1.0
 10
714.5360394368139
 20
2006.684336993307
 30
0.0
 10
713.8157633503514
 20
2006.309451639715
 30
0.0
 10
712.2991618749686
 20
2005.666096463032
 30
0.0
 10
710.6304617946699
 20
2005.338342841563
 30
0.0
 10
709.7580871032918
 20
2005.263382080192
 30
0.0
  0
SPLINE
  5
19C
330
87
100
AcDbEntity
  8
P-SANR-FIXT
100
AcDbSpline
210
0.0
220
0.0
230
1.0
 70
     8
 71
     3
 72
    11
 73
     7
 74
     0
 42
0.000000001
 43
0.0000000001
 40
0.0
 40
0.0
 40
0.0
 40
0.0
 40
0.2
 40
0.4
 40
0.7
 40
1.0
 40
1.0
 40
1.0
 40
1.0
 10
705.6750431207554
 20
2006.749488555034
 30
0.0
 10
705.2541708857106
 20
2007.072782044872
 30
0.0
 10
704.4889896525972
 20
2007.718603595815
 30
0.0
 10
703.419698196892
 20
2008.778619281511
 30
0.0
 10
702.5753116528999
 20
2009.694459621663
 30
0.0
 10
702.3542192801697
 20
2009.949999999995
 30
0.0
 10
702.3513862998985
 20
2009.949999999995
 30
0.0
  0
SPLINE
  5
19D
330
87
100
AcDbEntity
  8
P-SANR-FIXT
100
AcDbSpline
210
0.0
220
0.0
230
1.0
 70
     8
 71
     3
 72
    12
 73
     8
 74
     0
 42
0.000000001
 43
0.0000000001
 40
0.0
 40
0.0
 40
0.0
 40
0.0
 40
0.25
 40
0.375
 40
0.5
 40
0.75
 40
1.0
 40
1.0
 40
1.0
 40
1.0
 10
760.2826575510239
 20
2009.949999999995
 30
0.0
 10
760.2792658773909
 20
2009.949999999995
 30
0.0
 10
760.2164661931756
 20
2009.921184339203
 30
0.0
 10
760.003075692446
 20
2009.833327664065
 30
0.0
 10
759.7190250531025
 20
2009.717258730717
 30
0.0
 10
759.2378830281242
 20
2009.530604174631
 30
0.0
 10
758.7613082902073
 20
2009.361052014455
 30
0.0
 10
758.4965370704111
 20
2009.2755722675
 30
0.0
  0
SPLINE
  5
19E
330
87
100
AcDbEntity
  8
P-SANR-FIXT
100
AcDbSpline
210
0.0
220
0.0
230
1.0
 70
     8
 71
     3
 72
    25
 73
    21
 74
     0
 42
0.000000001
 43
0.0000000001
 40
0.0
 40
0.0
 40
0.0
 40
0.0
 40
0.125
 40
0.1875
 40
0.21875
 40
0.25
 40
0.28125
 40
0.3125
 40
0.34375
 40
0.375
 40
0.40625
 40
0.4375
 40
0.5
 40
0.625
 40
0.6875
 40
0.75
 40
0.78125
 40
0.8125
 40
0.875
 40
1.0
 40
1.0
 40
1.0
 40
1.0
 10
758.4965370704111
 20
2009.2755722675
 30
0.0
 10
758.4519550602378
 20
2009.002335843264
 30
0.0
 10
758.3987085309431
 20
2008.471630295831
 30
0.0
 10
758.3393569854715
 20
2007.664624997042
 30
0.0
 10
758.3128974519293
 20
2007.154424635691
 30
0.0
 10
758.3045889246129
 20
2006.748677277766
 30
0.0
 10
758.3043847344255
 20
2006.320646665119
 30
0.0
 10
758.3094920914931
 20
2005.871738501419
 30
0.0
 10
758.3258021097999
 20
2005.404087960347
 30
0.0
 10
758.3586781586399
 20
2004.920389229826
 30
0.0
 10
758.4069106822097
 20
2004.42134192329
 30
0.0
 10
758.4869538163925
 20
2003.736765457782
 30
0.0
 10
758.6852374609407
 20
2002.50477892361
 30
0.0
 10
759.0588239330345
 20
2001.047521032143
 30
0.0
 10
759.5675235224863
 20
1999.621417965023
 30
0.0
 10
759.9324208018543
 20
1998.74957383457
 30
0.0
 10
760.2442672291189
 20
1998.071333356001
 30
0.0
 10
760.5763443669356
 20
1997.407723516243
 30
0.0
 10
761.1827484258029
 20
1996.281357203379
 30
0.0
 10
761.7271905683159
 20
1995.383480809133
 30
0.0
 10
762.1087542756507
 20
1994.826893312675
 30
0.0
  0
SPLINE
  5
19F
330
87
100
AcDbEntity
  8
P-SANR-FIXT
100
AcDbSpline
210
0.0
220
0.0
230
1.0
 70
     8
 71
     3
 72
     9
 73
     5
 74
     0
 42
0.000000001
 43
0.0000000001
 40
0.0
 40
0.0
 40
0.0
 40
0.0
 40
0.5
 40
1.0
 40
1.0
 40
1.0
 40
1.0
 10
762.1087542756507
 20
1994.826893312675
 30
0.0
 10
762.3086454455118
 20
1994.518784326015
 30
0.0
 10
762.6274009658435
 20
1993.901361567803
 30
0.0
 10
762.7841028473954
 20
1993.298935159916
 30
0.0
 10
762.8219403784766
 20
1993.006614315759
 30
0.0
  0
SPLINE
  5
1A0
330
87
100
AcDbEntity
  8
P-SANR-FIXT
100
AcDbSpline
210
0.0
220
0.0
230
1.0
 70
     8
 71
     3
 72
    16
 73
    12
 74
     0
 42
0.000000001
 43
0.0000000001
 40
0.0
 40
0.0
 40
0.0
 40
0.0
 40
0.125
 40
0.25
 40
0.375
 40
0.4375
 40
0.5
 40
0.5625
 40
0.625
 40
0.75
 40
1.0
 40
1.0
 40
1.0
 40
1.0
 10
758.4965370704111
 20
2009.2755722675
 30
0.0
 10
758.3822604906089
 20
2009.505331688366
 30
0.0
 10
758.1511076277264
 20
2009.976090313219
 30
0.0
 10
757.8025695072191
 20
2010.713684568966
 30
0.0
 10
757.5122907582486
 20
2011.366278729679
 30
0.0
 10
757.2831669201672
 20
2011.903939509761
 30
0.0
 10
757.1141170163888
 20
2012.308899962188
 30
0.0
 10
756.9479044044917
 20
2012.717053046567
 30
0.0
 10
756.7296364255767
 20
2013.269608567202
 30
0.0
 10
756.3585454667844
 20
2014.244309483435
 30
0.0
 10
756.0608327794827
 20
2015.084013989829
 30
0.0
 10
755.8707206481833
 20
2015.649434244589
 30
0.0
  0
LWPOLYLINE
  5
1A1
330
87
100
AcDbEntity
  8
P-SANR-FIXT
100
AcDbPolyline
 90
        3
 70
   128
 43
0.0
 10
755.8441566958195
 20
2018.14179775854
 10
756.7569120362893
 20
2021.198331142815
 10
757.6647911869017
 20
2024.256323058073
  0
SPLINE
  5
1A2
330
87
100
AcDbEntity
  8
P-SANR-FIXT
100
AcDbSpline
210
0.0
220
0.0
230
1.0
 70
     8
 71
     3
 72
     9
 73
     5
 74
     0
 42
0.000000001
 43
0.0000000001
 40
-1.0
 40
-1.0
 40
-1.0
 40
-1.0
 40
-0.5
 40
0.0
 40
0.0
 40
0.0
 40
0.0
 10
712.9170307597419
 20
2007.969470212511
 30
0.0
 10
713.2049747286067
 20
2007.755740300876
 30
0.0
 10
713.7659077427547
 20
2007.326673460521
 30
0.0
 10
714.2873647698855
 20
2006.897874376163
 30
0.0
 10
714.5360394368139
 20
2006.684336993307
 30
0.0
  0
SPLINE
  5
1A3
330
87
100
AcDbEntity
  8
P-SANR-FIXT
100
AcDbSpline
210
0.0
220
0.0
230
1.0
 70
     8
 71
     3
 72
    10
 73
     6
 74
     0
 42
0.000000001
 43
0.0000000001
 40
0.0
 40
0.0
 40
0.0
 40
0.0
 40
0.3333333333333333
 40
0.6666666666666666
 40
0.8186412064815902
 40
0.8186412064815902
 40
0.8186412064815902
 40
0.8186412064815902
 10
757.6402476872624
 20
2026.749421956675
 30
0.0
 10
757.5223532800951
 20
2027.127350528511
 30
0.0
 10
757.2971737077004
 20
2027.870481890845
 30
0.0
 10
757.0377847121873
 20
2028.760954352989
 30
0.0
 10
756.8959846402
 20
2029.264885177505
 30
0.0
 10
756.8525073632628
 20
2029.420492236511
 30
0.0
  0
SPLINE
  5
1A4
330
87
100
AcDbEntity
  8
P-SANR-FIXT
100
AcDbSpline
210
0.0
220
0.0
230
1.0
 70
     8
 71
     3
 72
     8
 73
     4
 74
     0
 42
0.000000001
 43
0.0000000001
 40
0.9790830856945436
 40
0.9790830856945436
 40
0.9790830856945436
 40
0.9790830856945436
 40
1.0
 40
1.0
 40
1.0
 40
1.0
 10
756.717619801493
 20
2029.906145989853
 30
0.0
 10
756.7118675803792
 20
2029.926946805013
 30
0.0
 10
756.7061280016696
 20
2029.947708965499
 30
0.0
 10
756.7004004229078
 20
2029.968432863284
 30
0.0
  0
LINE
  5
1A5
330
87
100
AcDbEntity
  8
P-SANR-FIXT
100
AcDbLine
 10
756.6340374441185
 20
2029.832368592934
 30
0.0
 11
754.0917504989883
 21
2036.817244568454
 31
0.0
  0
SPLINE
  5
1A6
330
87
100
AcDbEntity
  8
P-SANR-FIXT
100
AcDbSpline
210
0.0
220
0.0
230
1.0
 70
     8
 71
     3
 72
    20
 73
    16
 74
     0
 42
0.000000001
 43
0.0000000001
 40
0.0
 40
0.0
 40
0.0
 40
0.0
 40
0.1
 40
0.2
 40
0.3
 40
0.35
 40
0.4
 40
0.475
 40
0.55
 40
0.5875
 40
0.625
 40
0.7
 40
0.775
 40
0.85
 40
1.0
 40
1.0
 40
1.0
 40
1.0
 10
706.6730512846961
 20
2019.558249506829
 30
0.0
 10
706.7927949767915
 20
2019.378525374234
 30
0.0
 10
707.0560908218327
 20
2018.983073626854
 30
0.0
 10
707.5044491562626
 20
2018.286387073025
 30
0.0
 10
707.9212736598236
 20
2017.591434926182
 30
0.0
 10
708.2685416761884
 20
2016.982719484121
 30
0.0
 10
708.5725734729331
 20
2016.436826875031
 30
0.0
 10
708.9216056867031
 20
2015.7809171473
 30
0.0
 10
709.2495289396282
 20
2015.12799195986
 30
0.0
 10
709.5073298805179
 20
2014.597293866017
 30
0.0
 10
709.7612631299085
 20
2014.06332683394
 30
0.0
 10
710.0738443977729
 20
2013.373493364004
 30
0.0
 10
710.4374708900485
 20
2012.52783444529
 30
0.0
 10
710.9041410392233
 20
2011.394644763801
 30
0.0
 10
711.2340234082612
 20
2010.524206214439
 30
0.0
 10
711.4446139130036
 20
2009.935586309782
 30
0.0
  0
SPLINE
  5
1A7
330
87
100
AcDbEntity
  8
P-SANR-FIXT
100
AcDbSpline
210
0.0
220
0.0
230
1.0
 70
     8
 71
     3
 72
     9
 73
     5
 74
     0
 42
0.000000001
 43
0.0000000001
 40
-1.0
 40
-1.0
 40
-1.0
 40
-1.0
 40
-0.5
 40
0.0
 40
0.0
 40
0.0
 40
0.0
 10
705.9638667596909
 20
2019.875208491496
 30
0.0
 10
705.9641216909932
 20
2019.875908909493
 30
0.0
 10
706.0855017751683
 20
2019.822717222729
 30
0.0
 10
706.4412180136267
 20
2019.663035431201
 30
0.0
 10
706.6730512846962
 20
2019.558249506829
 30
0.0
  0
LINE
  5
1A8
330
87
100
AcDbEntity
  8
P-SANR-FIXT
100
AcDbLine
 10
754.0917504989884
 20
2036.817244568454
 30
0.0
 11
706.6730512846961
 21
2019.558249506829
 31
0.0
  0
LINE
  5
1A9
330
87
100
AcDbEntity
  8
P-SANR-FIXT
100
AcDbLine
 10
754.0917504989817
 20
2036.817244568419
 30
0.0
 11
754.7809329562945
 21
2040.622323850118
 31
0.0
  0
SPLINE
  5
1AA
330
87
100
AcDbEntity
  8
P-SANR-FIXT
100
AcDbSpline
210
0.0
220
0.0
230
1.0
 70
     8
 71
     3
 72
    10
 73
     6
 74
     0
 42
0.000000001
 43
0.0000000001
 40
-1.0
 40
-1.0
 40
-1.0
 40
-1.0
 40
-0.6666666666666666
 40
-0.3333333333333333
 40
0.0
 40
0.0
 40
0.0
 40
0.0
 10
755.8707206481832
 20
2015.649434244589
 30
0.0
 10
755.7809930076875
 20
2015.919196004775
 30
0.0
 10
755.6611667818148
 20
2016.463260316247
 30
0.0
 10
755.6551100000779
 20
2017.316533721587
 30
0.0
 10
755.7627850928503
 20
2017.867211558105
 30
0.0
 10
755.8441566958195
 20
2018.14179775854
 30
0.0
  0
SPLINE
  5
1AB
330
87
100
AcDbEntity
  8
P-SANR-FIXT
100
AcDbSpline
210
0.0
220
0.0
230
1.0
 70
     8
 71
     3
 72
    10
 73
     6
 74
     0
 42
0.000000001
 43
0.0000000001
 40
-1.0
 40
-1.0
 40
-1.0
 40
-1.0
 40
-0.6666666666666666
 40
-0.3333333333333333
 40
0.0
 40
0.0
 40
0.0
 40
0.0
 10
757.6647911869015
 20
2024.256323058073
 30
0.0
 10
757.7457928879302
 20
2024.531781738214
 30
0.0
 10
757.8504125010805
 20
2025.084470988025
 30
0.0
 10
757.8384235850993
 20
2025.941251458947
 30
0.0
 10
757.7222134432591
 20
2026.482960043847
 30
0.0
 10
757.6402476872624
 20
2026.749421956675
 30
0.0
  0
SPLINE
  5
1AC
330
87
100
AcDbEntity
  8
P-SANR-FIXT
100
AcDbSpline
210
0.0
220
0.0
230
1.0
 70
     8
 71
     3
 72
    10
 73
     6
 74
     0
 42
0.000000001
 43
0.0000000001
 40
-1.0
 40
-1.0
 40
-1.0
 40
-1.0
 40
-0.6666666666666666
 40
-0.3333333333333333
 40
0.0
 40
0.0
 40
0.0
 40
0.0
 10
711.4446139130039
 20
2009.935586309782
 30
0.0
 10
711.5418648374916
 20
2009.669500855122
 30
0.0
 10
711.7824265641159
 20
2009.168298421154
 30
0.0
 10
712.2914662719516
 20
2008.496113474081
 30
0.0
 10
712.6970296740733
 20
2008.132214044751
 30
0.0
 10
712.9170307597419
 20
2007.969470212511
 30
0.0
  0
LINE
  5
1AD
330
87
100
AcDbEntity
  8
P-SANR-FIXT
100
AcDbLine
 10
759.7605083814809
 20
2037.849899104877
 30
0.0
 11
758.6420731434745
 21
2033.949451901353
 31
0.0
  0
SPLINE
  5
1AE
330
87
100
AcDbEntity
  8
P-SANR-FIXT
100
AcDbSpline
210
0.0
220
0.0
230
1.0
 70
     8
 71
     3
 72
    16
 73
    12
 74
     0
 42
0.000000001
 43
0.0000000001
 40
-1.0
 40
-1.0
 40
-1.0
 40
-1.0
 40
-0.5714285714285714
 40
-0.4642857142857144
 40
-0.3928571428571428
 40
-0.3214285714285714
 40
-0.2678571428571428
 40
-0.2142857142857143
 40
-0.1428571428571428
 40
-0.0714285714285714
 40
0.0
 40
0.0
 40
0.0
 40
0.0
 10
757.7492382077755
 20
2040.543642198477
 30
0.0
 10
758.2575283246829
 20
2040.391171321806
 30
0.0
 10
758.8279166335483
 20
2040.043591523004
 30
0.0
 10
759.3222280858096
 20
2039.482397590496
 30
0.0
 10
759.4941976916043
 20
2039.230783036245
 30
0.0
 10
759.6145094619897
 20
2039.018822225188
 30
0.0
 10
759.6975628026592
 20
2038.818937394988
 30
0.0
 10
759.7670545559467
 20
2038.608160548228
 30
0.0
 10
759.8123006624311
 20
2038.371144398081
 30
0.0
 10
759.8110509206695
 20
2038.1131402367
 30
0.0
 10
759.7823290520607
 20
2037.937976649797
 30
0.0
 10
759.7605083814809
 20
2037.849899104876
 30
0.0
  0
SPLINE
  5
1AF
330
87
100
AcDbEntity
  8
P-SANR-FIXT
100
AcDbSpline
210
0.0
220
0.0
230
1.0
 70
     8
 71
     3
 72
    10
 73
     6
 74
     0
 42
0.000000001
 43
0.0000000001
 40
-0.4180436625277448
 40
-0.4180436625277448
 40
-0.4180436625277448
 40
-0.4180436625277448
 40
-0.2857142857142857
 40
-0.1428571428571428
 40
0.0
 40
0.0
 40
0.0
 40
0.0
 10
756.5699332084538
 20
2041.271932502862
 30
0.0
 10
756.6684112667579
 20
2041.161260777594
 30
0.0
 10
756.8961993596139
 20
2040.9515490424
 30
0.0
 10
757.2975830378766
 20
2040.704985765817
 30
0.0
 10
757.5940453093929
 20
2040.588772991259
 30
0.0
 10
757.7492382077755
 20
2040.543642198477
 30
0.0
  0
LINE
  5
1B0
330
87
100
AcDbEntity
  8
P-SANR-FIXT
100
AcDbLine
 10
757.8745938735991
 20
2049.207899883779
 30
0.0
 11
756.3412103546071
 21
2043.860356051698
 31
0.0
  0
LINE
  5
1B1
330
87
100
AcDbEntity
  8
P-SANR-FIXT
100
AcDbLine
 10
774.9173658468844
 20
2046.475471978205
 30
0.0
 11
757.6146553199947
 21
2051.436944382911
 31
0.0
  0
LINE
  5
1B2
330
87
100
AcDbEntity
  8
P-SANR-FIXT
100
AcDbLine
 10
756.6340374441185
 20
2029.832368592934
 30
0.0
 11
758.6420731434745
 21
2033.949451901353
 31
0.0
  0
LINE
  5
1B3
330
87
100
AcDbEntity
  8
P-SANR-FIXT
100
AcDbLine
 10
757.8745938735991
 20
2049.207899883779
 30
0.0
 11
757.7682781258706
 21
2049.499999999995
 31
0.0
  0
LINE
  5
1B4
330
87
100
AcDbEntity
  8
P-SANR-FIXT
100
AcDbLine
 10
757.7682781258706
 20
2049.499999999995
 30
0.0
 11
754.2885478255676
 21
2049.499999999995
 31
0.0
  0
LINE
  5
1B5
330
87
100
AcDbEntity
  8
P-SANR-FIXT
100
AcDbLine
 10
709.7580871032919
 20
2005.263382080192
 30
0.0
 11
705.6750431207555
 21
2006.749488555034
 31
0.0
  0
LINE
  5
1B6
330
87
100
AcDbEntity
  8
P-SANR-FIXT
100
AcDbLine
 10
693.7114734120174
 20
2041.293488977725
 30
0.0
 11
701.0709501632968
 21
2021.073492784583
 31
0.0
  0
LINE
  5
1B7
330
87
100
AcDbEntity
  8
P-SANR-FIXT
100
AcDbLine
 10
754.5752140212881
 20
2049.499999999996
 30
0.0
 11
750.0930306591719
 21
2061.814697577265
 31
0.0
  0
LINE
  5
1B8
330
87
100
AcDbEntity
  8
P-SANR-FIXT
100
AcDbLine
 10
750.0930306591706
 20
2061.814697577264
 30
0.0
 11
693.7114734120159
 21
2041.293488977724
 31
0.0
  0
LINE
  5
1B9
330
87
100
AcDbEntity
  8
P-SANR-FIXT
100
AcDbLine
 10
701.0709501632955
 20
2021.073492784582
 30
0.0
 11
757.0527213686441
 21
2041.449191164829
 31
0.0
  0
ENDBLK
  5
1BB
330
87
100
AcDbEntity
  8
0
100
AcDbBlockEnd
  0
BLOCK
  5
2C6
330
1BD
100
AcDbEntity
  8
0
100
AcDbBlockBegin
  2
Automatic flow rate regulator valve_Caleffi_121 DN15 - 2___Pressure gauge H-V1-Est - Idraulica
 70
     0
 10
0.0
 20
0.0
 30
0.0
  3
Automatic flow rate regulator valve_Caleffi_121 DN15 - 2___Pressure gauge H-V1-Est - Idraulica
  1

  0
LWPOLYLINE
  5
1BE
330
1BD
100
AcDbEntity
  8
M-PIPE
100
AcDbPolyline
 90
        7
 70
   128
 43
0.0
 10
699.8866970995077
 20
1711.764424312903
 10
698.3045050440043
 20
1710.956291986842
 10
696.8101720411144
 20
1710.113218433586
 10
695.4061558005486
 20
1709.242856719642
 10
694.0939783744336
 20
1708.352811529268
 10
692.8742523429285
 20
1707.45053117754
 10
691.8155136242524
 20
1706.600771296558
1001
REVIT
1002
{
1070
     3
1000
923097
1002
}
  0
LWPOLYLINE
  5
1BF
330
1BD
100
AcDbEntity
  8
M-PIPE
100
AcDbPolyline
 90
        7
 70
   128
 43
0.0
 10
691.8155136242557
 20
1678.709761852629
 10
692.9488697012215
 20
1677.802549756811
 10
694.1744608541894
 20
1676.900828653759
 10
695.4924908698761
 20
1676.01180850741
 10
696.9022905202924
 20
1675.142950635364
 10
698.402279040186
 20
1674.301866061006
 10
699.8866970995123
 20
1673.546108836285
1001
REVIT
1002
{
1070
     3
1000
923097
1002
}
  0
LWPOLYLINE
  5
1C0
330
1BD
100
AcDbEntity
  8
M-PIPE
100
AcDbPolyline
 90
        7
 70
   128
 43
0.0
 10
691.8155136242514
 20
1706.600771296557
 10
691.2891681144433
 20
1706.143108274649
 10
690.7815324781182
 20
1705.664441002741
 10
690.2933386996616
 20
1705.165625177728
 10
689.8252780935692
 20
1704.647537848009
 10
689.3780017200359
 20
1704.111075141595
 10
689.1828895688218
 20
1703.862900360733
1001
REVIT
1002
{
1070
     3
1000
923097
1002
}
  0
LWPOLYLINE
  5
1C1
330
1BD
100
AcDbEntity
  8
M-PIPE
100
AcDbPolyline
 90
       11
 70
   128
 43
0.0
 10
686.4963904419586
 20
1698.955015242414
 10
686.2712128416533
 20
1698.291421463673
 10
686.0713861117345
 20
1697.619563098057
 10
685.8971475404722
 20
1696.940444351424
 10
685.7487023935659
 20
1696.255072789059
 10
685.6262243546011
 20
1695.564458761487
 10
685.529855901774
 20
1694.869614879204
 10
685.4597086194007
 20
1694.171555527148
 10
685.4158634432815
 20
1693.471296410383
 10
685.3983708393739
 20
1692.769854122969
 10
685.3980191668325
 20
1692.655266574595
1001
REVIT
1002
{
1070
     3
1000
923097
1002
}
  0
LWPOLYLINE
  5
1C2
330
1BD
100
AcDbEntity
  8
M-PIPE
100
AcDbPolyline
 90
       11
 70
   128
 43
0.0
 10
685.3980191668325
 20
1692.655266574595
 10
685.4112057088854
 20
1691.953727673814
 10
685.4507501786907
 20
1691.253205879065
 10
685.5166070736006
 20
1690.554717889803
 10
685.6087004439436
 20
1689.859279585216
 10
685.7269237252769
 20
1689.167905596145
 10
685.8711395038817
 20
1688.481608855088
 10
686.0411792160049
 20
1687.801400116349
 10
686.2368427816993
 20
1687.128287437854
 10
686.457898174645
 20
1686.463275615609
 10
686.4956023768866
 20
1686.357702991442
1001
REVIT
1002
{
1070
     3
1000
923097
1002
}
  0
LWPOLYLINE
  5
1C3
330
1BD
100
AcDbEntity
  8
M-PIPE
100
AcDbPolyline
 90
        7
 70
   128
 43
0.0
 10
689.1819267365454
 20
1681.448880323812
 10
689.6195610238507
 20
1680.904374069549
 10
690.0782620341466
 20
1680.377830544027
 10
690.5573968157775
 20
1679.870153836056
 10
691.0562923926423
 20
1679.382229929047
 10
691.5742352907978
 20
1678.914924507988
 10
691.815513624255
 20
1678.70976185263
1001
REVIT
1002
{
1070
     3
1000
923097
1002
}
  0
ELLIPSE
  5
1C4
330
1BD
100
AcDbEntity
  8
M-PIPE
100
AcDbEllipse
 10
708.0701245736928
 20
1692.655266574595
 30
0.0
 11
0.0
 21
21.00000000000045
 31
0.0
210
0.0
220
0.0
230
1.0
 40
0.9396926207859053
 41
4.712388980384695
 42
4.787052476394199
1001
REVIT
1002
{
1070
     3
1000
923097
1002
}
  0
ELLIPSE
  5
1C5
330
1BD
100
AcDbEntity
  8
M-PIPE
100
AcDbEllipse
 10
708.0701245736928
 20
1692.655266574595
 30
0.0
 11
0.0
 21
21.00000000000054
 31
0.0
210
0.0
220
0.0
230
1.0
 40
0.9396926207859024
 41
4.790928796724452
 42
4.861400620344653
1001
REVIT
1002
{
1070
     3
1000
923097
1002
}
  0
ELLIPSE
  5
1C6
330
1BD
100
AcDbEntity
  8
M-PIPE
100
AcDbEllipse
 10
708.0701245736928
 20
1692.655266574595
 30
0.0
 11
0.0
 21
21.00000000000043
 31
0.0
210
0.0
220
0.0
230
1.0
 40
0.939692620785912
 41
4.869468613064196
 42
5.009144482588752
1001
REVIT
1002
{
1070
     3
1000
923097
1002
}
  0
ELLIPSE
  5
1C7
330
1BD
100
AcDbEntity
  8
M-PIPE
100
AcDbEllipse
 10
708.0701245736928
 20
1692.655266574595
 30
0.0
 11
0.0
 21
21.00000000000053
 31
0.0
210
0.0
220
0.0
230
1.0
 40
0.9396926207859019
 41
5.026548245743677
 42
5.066241449279344
1001
REVIT
1002
{
1070
     3
1000
923097
1002
}
  0
ELLIPSE
  5
1C8
330
1BD
100
AcDbEntity
  8
M-PIPE
100
AcDbEllipse
 10
708.0701245736928
 20
1692.655266574595
 30
0.0
 11
0.0
 21
21.00000000000037
 31
0.0
210
0.0
220
0.0
230
0.9999999999999998
 40
0.939692620785911
 41
5.082534422739371
 42
5.105088062083422
1001
REVIT
1002
{
1070
     3
1000
923097
1002
}
  0
ELLIPSE
  5
1C9
330
1BD
100
AcDbEntity
  8
M-PIPE
100
AcDbEllipse
 10
708.0701245736928
 20
1692.655266574595
 30
0.0
 11
0.0
 21
21.00000000000058
 31
0.0
210
0.0
220
0.0
230
1.0
 40
0.9396926207859047
 41
5.155596842444515
 42
5.228111011705279
1001
REVIT
1002
{
1070
     3
1000
923097
1002
}
  0
ELLIPSE
  5
1CA
330
1BD
100
AcDbEntity
  8
M-PIPE
100
AcDbEllipse
 10
708.0701245736928
 20
1692.655266574595
 30
0.0
 11
0.0
 21
21.00000000000051
 31
0.0
210
0.0
220
0.0
230
1.0
 40
0.9396926207859019
 41
5.300021733771451
 42
5.340707511102657
1001
REVIT
1002
{
1070
     3
1000
923097
1002
}
  0
ELLIPSE
  5
1CB
330
1BD
100
AcDbEntity
  8
M-PIPE
100
AcDbEllipse
 10
708.0701245736928
 20
1692.655266574595
 30
0.0
 11
0.0
 21
21.00000000000055
 31
0.0
210
0.0
220
0.0
230
0.9999999999999998
 40
0.9396926207859035
 41
5.371568696831504
 42
5.4192473274424
1001
REVIT
1002
{
1070
     3
1000
923097
1002
}
  0
ELLIPSE
  5
1CC
330
1BD
100
AcDbEntity
  8
M-PIPE
100
AcDbEllipse
 10
708.0701245736928
 20
1692.655266574595
 30
0.0
 11
0.0
 21
21.0000000000004
 31
0.0
210
0.0
220
0.0
230
1.0
 40
0.9396926207859092
 41
5.442990396463046
 42
5.497787143782151
1001
REVIT
1002
{
1070
     3
1000
923097
1002
}
  0
ELLIPSE
  5
1CD
330
1BD
100
AcDbEntity
  8
M-PIPE
100
AcDbEllipse
 10
708.0701245736928
 20
1692.655266574595
 30
0.0
 11
0.0
 21
21.00000000000063
 31
0.0
210
0.0
220
0.0
230
1.0
 40
0.9396926207858985
 41
5.513513487342779
 42
5.584581141329452
1001
REVIT
1002
{
1070
     3
1000
923097
1002
}
  0
ELLIPSE
  5
1CE
330
1BD
100
AcDbEntity
  8
M-PIPE
100
AcDbEllipse
 10
708.0701245736928
 20
1692.655266574595
 30
0.0
 11
0.0
 21
21.00000000000041
 31
0.0
210
0.0
220
0.0
230
1.0
 40
0.9396926207859113
 41
5.585735060147804
 42
5.654866776461645
1001
REVIT
1002
{
1070
     3
1000
923097
1002
}
  0
ELLIPSE
  5
1CF
330
1BD
100
AcDbEntity
  8
M-PIPE
100
AcDbEllipse
 10
708.0701245736928
 20
1692.655266574595
 30
0.0
 11
0.0
 21
21.00000000000059
 31
0.0
210
0.0
220
0.0
230
1.0
 40
0.9396926207859024
 41
5.658318413546229
 42
5.730933039401
1001
REVIT
1002
{
1070
     3
1000
923097
1002
}
  0
ELLIPSE
  5
1D0
330
1BD
100
AcDbEntity
  8
M-PIPE
100
AcDbEllipse
 10
708.0701245736928
 20
1692.655266574595
 30
0.0
 11
0.0
 21
21.00000000000039
 31
0.0
210
0.0
220
0.0
230
1.0
 40
0.9396926207859049
 41
5.733406592801388
 42
5.80359620447276
1001
REVIT
1002
{
1070
     3
1000
923097
1002
}
  0
ELLIPSE
  5
1D1
330
1BD
100
AcDbEntity
  8
M-PIPE
100
AcDbEllipse
 10
708.0701245736928
 20
1692.655266574595
 30
0.0
 11
0.0
 21
21.00000000000014
 31
0.0
210
0.0
220
0.0
230
1.0
 40
0.9396926207859197
 41
5.811946409141131
 42
5.876490573380463
1001
REVIT
1002
{
1070
     3
1000
923097
1002
}
  0
ELLIPSE
  5
1D2
330
1BD
100
AcDbEntity
  8
M-PIPE
100
AcDbEllipse
 10
708.0701245736928
 20
1692.655266574595
 30
0.0
 11
0.0
 21
21.00000000000022
 31
0.0
210
0.0
220
0.0
230
1.0
 40
0.9396926207859145
 41
5.890486225480877
 42
5.949600968509185
1001
REVIT
1002
{
1070
     3
1000
923097
1002
}
  0
LINE
  5
1D3
330
1BD
100
AcDbEntity
  8
M-PIPE
100
AcDbLine
 10
714.1953193128268
 20
1712.618027306463
 30
0.0
 11
714.1681253492357
 21
1712.627453416794
 31
0.0
1001
REVIT
1002
{
1070
     3
1000
923097
1002
}
  0
ELLIPSE
  5
1D4
330
1BD
100
AcDbEntity
  8
M-PIPE
100
AcDbEllipse
 10
708.0701245736928
 20
1692.655266574595
 30
0.0
 11
0.0
 21
21.00000000000035
 31
0.0
210
0.0
220
0.0
230
1.0
 40
0.9396926207859108
 41
6.022915736667867
 42
6.546704398182782
1001
REVIT
1002
{
1070
     3
1000
923097
1002
}
  0
ELLIPSE
  5
1D5
330
1BD
100
AcDbEntity
  8
M-PIPE
100
AcDbEllipse
 10
708.0701245736928
 20
1692.655266574595
 30
0.0
 11
0.0
 21
21.00000000000054
 31
0.0
210
0.0
220
0.0
230
1.0
 40
0.9396926207859122
 41
0.2917778710626335
 42
0.3246049265701048
1001
REVIT
1002
{
1070
     3
1000
923097
1002
}
  0
ELLIPSE
  5
1D6
330
1BD
100
AcDbEntity
  8
M-PIPE
100
AcDbEllipse
 10
708.0701245736928
 20
1692.655266574595
 30
0.0
 11
0.0
 21
21.00000000000031
 31
0.0
210
0.0
220
0.0
230
1.0
 40
0.9396926207859197
 41
0.3364630152273125
 42
0.4712388980384878
1001
REVIT
1002
{
1070
     3
1000
923097
1002
}
  0
SPLINE
  5
1D7
330
1BD
100
AcDbEntity
  8
M-PIPE
100
AcDbSpline
210
0.0
220
0.0
230
1.0
 70
     8
 71
     3
 72
     9
 73
     5
 74
     0
 42
0.000000001
 43
0.0000000001
 40
-1.0
 40
-1.0
 40
-1.0
 40
-1.0
 40
-0.5
 40
0.0
 40
0.0
 40
0.0
 40
0.0
 10
699.2847508879862
 20
1710.124206163441
 30
0.0
 10
699.4173412569551
 20
1710.479158882607
 30
0.0
 10
700.0178039113127
 20
1711.353269767144
 30
0.0
 10
701.1718774239668
 20
1712.142446566687
 30
0.0
 10
701.8419264245157
 20
1712.461279450932
 30
0.0
1001
REVIT
1002
{
1070
     3
1000
923097
1002
}
  0
ELLIPSE
  5
1D8
330
1BD
100
AcDbEntity
  8
M-PIPE
100
AcDbEllipse
 10
707.2446307977559
 20
1692.655266574595
 30
0.0
 11
0.0
 21
20.62363164634436
 31
0.0
210
0.0
220
0.0
230
1.0
 40
0.9396926207859097
 41
6.000662711340984
 42
6.565707903017209
1001
REVIT
1002
{
1070
     3
1000
923097
1002
}
  0
SPLINE
  5
1D9
330
1BD
100
AcDbEntity
  8
M-PIPE
100
AcDbSpline
210
0.0
220
0.0
230
1.0
 70
     8
 71
     3
 72
     9
 73
     5
 74
     0
 42
0.000000001
 43
0.0000000001
 40
-1.0
 40
-1.0
 40
-1.0
 40
-1.0
 40
-0.5
 40
0.0
 40
0.0
 40
0.0
 40
0.0
 10
712.6473351710135
 20
1712.461279450927
 30
0.0
 10
711.5611344623082
 20
1712.142446566682
 30
0.0
 10
709.2417121939973
 20
1711.353269767138
 30
0.0
 10
706.446686342477
 20
1710.479158882603
 30
0.0
 10
704.9010342772791
 20
1710.124206163438
 30
0.0
1001
REVIT
1002
{
1070
     3
1000
923097
1002
}
  0
SPLINE
  5
1DA
330
1BD
100
AcDbEntity
  8
M-PIPE
100
AcDbSpline
210
0.0
220
0.0
230
1.0
 70
     8
 71
     3
 72
     9
 73
     5
 74
     0
 42
0.000000001
 43
0.0000000001
 40
-1.0
 40
-1.0
 40
-1.0
 40
-1.0
 40
-0.5
 40
0.0
 40
0.0
 40
0.0
 40
0.0
 10
714.9050042683081
 20
1703.977733753725
 30
0.0
 10
715.6797197611835
 20
1704.806352465057
 30
0.0
 10
717.5401726259118
 20
1706.254668098636
 30
0.0
 10
719.6278135771234
 20
1707.186252109706
 30
0.0
 10
720.661365966648
 20
1707.537432296227
 30
0.0
1001
REVIT
1002
{
1070
     3
1000
923097
1002
}
  0
ELLIPSE
  5
1DB
330
1BD
100
AcDbEntity
  8
M-PIPE
100
AcDbEllipse
 10
707.2446307977559
 20
1692.655266574595
 30
0.0
 11
0.0
 21
20.62363164634431
 31
0.0
210
0.0
220
0.0
230
1.0
 40
0.9396926207859078
 41
4.953465160145168
 42
5.518510351822521
1001
REVIT
1002
{
1070
     3
1000
923097
1002
}
  0
SPLINE
  5
1DC
330
1BD
100
AcDbEntity
  8
M-PIPE
100
AcDbSpline
210
0.0
220
0.0
230
1.0
 70
     8
 71
     3
 72
     9
 73
     5
 74
     0
 42
0.000000001
 43
0.0000000001
 40
-1.0
 40
-1.0
 40
-1.0
 40
-1.0
 40
-0.5
 40
0.0
 40
0.0
 40
0.0
 40
0.0
 10
726.0640703399153
 20
1697.579113729323
 30
0.0
 10
724.8224420963128
 20
1697.611461031598
 30
0.0
 10
722.1521267672752
 20
1697.753868243123
 30
0.0
 10
719.1943923039725
 20
1698.328072992165
 30
0.0
 10
717.7131459629874
 20
1698.801738984329
 30
0.0
1001
REVIT
1002
{
1070
     3
1000
923097
1002
}
  0
SPLINE
  5
1DD
330
1BD
100
AcDbEntity
  8
M-PIPE
100
AcDbSpline
210
0.0
220
0.0
230
1.0
 70
     8
 71
     3
 72
     9
 73
     5
 74
     0
 42
0.000000001
 43
0.0000000001
 40
-1.0
 40
-1.0
 40
-1.0
 40
-1.0
 40
-0.5
 40
0.0
 40
0.0
 40
0.0
 40
0.0
 10
717.7131459629877
 20
1686.50879416486
 30
0.0
 10
719.1943923039725
 20
1686.982460157025
 30
0.0
 10
722.1521267672754
 20
1687.556664906067
 30
0.0
 10
724.822442096313
 20
1687.699072117592
 30
0.0
 10
726.0640703399153
 20
1687.731419419867
 30
0.0
1001
REVIT
1002
{
1070
     3
1000
923097
1002
}
  0
ELLIPSE
  5
1DE
330
1BD
100
AcDbEntity
  8
M-PIPE
100
AcDbEllipse
 10
707.2446307977559
 20
1692.655266574595
 30
0.0
 11
0.0
 21
20.62363164634437
 31
0.0
210
0.0
220
0.0
230
1.0
 40
0.9396926207859051
 41
3.906267608946914
 42
4.471312800624234
1001
REVIT
1002
{
1070
     3
1000
923097
1002
}
  0
SPLINE
  5
1DF
330
1BD
100
AcDbEntity
  8
M-PIPE
100
AcDbSpline
210
0.0
220
0.0
230
1.0
 70
     8
 71
     3
 72
     9
 73
     5
 74
     0
 42
0.000000001
 43
0.0000000001
 40
-1.0
 40
-1.0
 40
-1.0
 40
-1.0
 40
-0.5
 40
0.0
 40
0.0
 40
0.0
 40
0.0
 10
720.6613659666486
 20
1677.773100852963
 30
0.0
 10
719.6278135771241
 20
1678.124281039484
 30
0.0
 10
717.5401726259126
 20
1679.055865050553
 30
0.0
 10
715.6797197611841
 20
1680.504180684132
 30
0.0
 10
714.9050042683085
 20
1681.332799395464
 30
0.0
1001
REVIT
1002
{
1070
     3
1000
923097
1002
}
  0
SPLINE
  5
1E0
330
1BD
100
AcDbEntity
  8
M-PIPE
100
AcDbSpline
210
0.0
220
0.0
230
1.0
 70
     8
 71
     3
 72
     9
 73
     5
 74
     0
 42
0.000000001
 43
0.0000000001
 40
-1.0
 40
-1.0
 40
-1.0
 40
-1.0
 40
-0.5
 40
0.0
 40
0.0
 40
0.0
 40
0.0
 10
704.9010342772804
 20
1675.186326985751
 30
0.0
 10
706.446686342478
 20
1674.831374266586
 30
0.0
 10
709.2417121939981
 20
1673.957263382051
 30
0.0
 10
711.5611344623089
 20
1673.168086582508
 30
0.0
 10
712.6473351710139
 20
1672.849253698264
 30
0.0
1001
REVIT
1002
{
1070
     3
1000
923097
1002
}
  0
ELLIPSE
  5
1E1
330
1BD
100
AcDbEntity
  8
M-PIPE
100
AcDbEllipse
 10
707.2446307977559
 20
1692.655266574595
 30
0.0
 11
0.0
 21
20.6236316463441
 31
0.0
210
0.0
220
0.0
230
1.0
 40
0.9396926207859255
 41
2.859070057752225
 42
3.424115249428434
1001
REVIT
1002
{
1070
     3
1000
923097
1002
}
  0
SPLINE
  5
1E2
330
1BD
100
AcDbEntity
  8
M-PIPE
100
AcDbSpline
210
0.0
220
0.0
230
1.0
 70
     8
 71
     3
 72
     9
 73
     5
 74
     0
 42
0.000000001
 43
0.0000000001
 40
-1.0
 40
-1.0
 40
-1.0
 40
-1.0
 40
-0.5
 40
0.0
 40
0.0
 40
0.0
 40
0.0
 10
701.8419264245165
 20
1672.849253698257
 30
0.0
 10
701.1718774239675
 20
1673.168086582502
 30
0.0
 10
700.0178039113133
 20
1673.957263382046
 30
0.0
 10
699.4173412569556
 20
1674.831374266582
 30
0.0
 10
699.2847508879862
 20
1675.186326985748
 30
0.0
1001
REVIT
1002
{
1070
     3
1000
923097
1002
}
  0
ELLIPSE
  5
1E3
330
1BD
100
AcDbEntity
  8
M-PIPE
100
AcDbEllipse
 10
708.0701245736928
 20
1692.655266574595
 30
0.0
 11
0.0
 21
21.00000000000004
 31
0.0
210
0.0
220
0.0
230
1.0
 40
0.9396926207859245
 41
2.67035375555133
 42
2.731946166587197
1001
REVIT
1002
{
1070
     3
1000
923097
1002
}
  0
ELLIPSE
  5
1E4
330
1BD
100
AcDbEntity
  8
M-PIPE
100
AcDbEllipse
 10
708.0701245736928
 20
1692.655266574595
 30
0.0
 11
0.0
 21
21.00000000000014
 31
0.0
210
0.0
220
0.0
230
1.0
 40
0.9396926207859184
 41
2.736118310181101
 42
2.804726745592424
1001
REVIT
1002
{
1070
     3
1000
923097
1002
}
  0
ELLIPSE
  5
1E5
330
1BD
100
AcDbEntity
  8
M-PIPE
100
AcDbEllipse
 10
708.0701245736928
 20
1692.655266574595
 30
0.0
 11
0.0
 21
21.00000000000025
 31
0.0
210
0.0
220
0.0
230
1.0
 40
0.939692620785912
 41
2.816758458303899
 42
2.850039545511044
1001
REVIT
1002
{
1070
     3
1000
923097
1002
}
  0
ELLIPSE
  5
1E6
330
1BD
100
AcDbEntity
  8
M-PIPE
100
AcDbEllipse
 10
708.0701245736928
 20
1692.655266574595
 30
0.0
 11
0.0
 21
20.99999999999995
 31
0.0
210
0.0
220
0.0
230
0.9999999999999998
 40
0.9396926207859305
 41
2.878073562586136
 42
3.401862224101549
1001
REVIT
1002
{
1070
     3
1000
923097
1002
}
  0
LINE
  5
1E7
330
1BD
100
AcDbEntity
  8
M-PIPE
100
AcDbLine
 10
714.1681253492363
 20
1672.683079732397
 30
0.0
 11
714.1953193128268
 21
1672.692505842726
 31
0.0
1001
REVIT
1002
{
1070
     3
1000
923097
1002
}
  0
ELLIPSE
  5
1E8
330
1BD
100
AcDbEntity
  8
M-PIPE
100
AcDbEllipse
 10
708.0701245736928
 20
1692.655266574595
 30
0.0
 11
0.0
 21
21.00000000000021
 31
0.0
210
0.0
220
0.0
230
1.0
 40
0.9396926207859182
 41
3.547597638305477
 42
3.612831551628264
1001
REVIT
1002
{
1070
     3
1000
923097
1002
}
  0
ELLIPSE
  5
1E9
330
1BD
100
AcDbEntity
  8
M-PIPE
100
AcDbEllipse
 10
708.0701245736928
 20
1692.655266574595
 30
0.0
 11
0.0
 21
21.00000000000016
 31
0.0
210
0.0
220
0.0
230
1.0
 40
0.9396926207859182
 41
3.620252362985141
 42
3.691371367968016
1001
REVIT
1002
{
1070
     3
1000
923097
1002
}
  0
ELLIPSE
  5
1EA
330
1BD
100
AcDbEntity
  8
M-PIPE
100
AcDbEllipse
 10
708.0701245736928
 20
1692.655266574595
 30
0.0
 11
0.0
 21
21.00000000000012
 31
0.0
210
0.0
220
0.0
230
1.0
 40
0.9396926207859232
 41
3.692746025874311
 42
3.765328223408207
1001
REVIT
1002
{
1070
     3
1000
923097
1002
}
  0
ELLIPSE
  5
1EB
330
1BD
100
AcDbEntity
  8
M-PIPE
100
AcDbEllipse
 10
708.0701245736928
 20
1692.655266574595
 30
0.0
 11
0.0
 21
21.0000000000002
 31
0.0
210
0.0
220
0.0
230
1.0
 40
0.9396926207859143
 41
3.769911184307764
 42
3.837897260845829
1001
REVIT
1002
{
1070
     3
1000
923097
1002
}
  0
ELLIPSE
  5
1EC
330
1BD
100
AcDbEntity
  8
M-PIPE
100
AcDbEllipse
 10
708.0701245736928
 20
1692.655266574595
 30
0.0
 11
0.0
 21
21.00000000000007
 31
0.0
210
0.0
220
0.0
230
1.0
 40
0.9396926207859188
 41
3.840196819439918
 42
3.9102231494829
1001
REVIT
1002
{
1070
     3
1000
923097
1002
}
  0
ELLIPSE
  5
1ED
330
1BD
100
AcDbEntity
  8
M-PIPE
100
AcDbEllipse
 10
708.0701245736928
 20
1692.655266574595
 30
0.0
 11
0.0
 21
21.00000000000017
 31
0.0
210
0.0
220
0.0
230
1.0
 40
0.9396926207859246
 41
3.926990816987258
 42
3.980954101506828
1001
REVIT
1002
{
1070
     3
1000
923097
1002
}
  0
ELLIPSE
  5
1EE
330
1BD
100
AcDbEntity
  8
M-PIPE
100
AcDbEllipse
 10
708.0701245736928
 20
1692.655266574595
 30
0.0
 11
0.0
 21
21.00000000000007
 31
0.0
210
0.0
220
0.0
230
1.0
 40
0.9396926207859262
 41
4.005530633326999
 42
4.0526990004007
1001
REVIT
1002
{
1070
     3
1000
923097
1002
}
  0
ELLIPSE
  5
1EF
330
1BD
100
AcDbEntity
  8
M-PIPE
100
AcDbEllipse
 10
708.0701245736928
 20
1692.655266574595
 30
0.0
 11
0.0
 21
21.0000000000003
 31
0.0
210
0.0
220
0.0
230
1.0
 40
0.9396926207859145
 41
4.084070449666739
 42
4.124576565713759
1001
REVIT
1002
{
1070
     3
1000
923097
1002
}
  0
ELLIPSE
  5
1F0
330
1BD
100
AcDbEntity
  8
M-PIPE
100
AcDbEllipse
 10
708.0701245736928
 20
1692.655266574595
 30
0.0
 11
0.0
 21
21.00000000000056
 31
0.0
210
0.0
220
0.0
230
1.0
 40
0.9396926207858966
 41
4.196766903061918
 42
4.269451736681862
1001
REVIT
1002
{
1070
     3
1000
923097
1002
}
  0
ELLIPSE
  5
1F1
330
1BD
100
AcDbEntity
  8
M-PIPE
100
AcDbEllipse
 10
708.0701245736928
 20
1692.655266574595
 30
0.0
 11
0.0
 21
21.00000000000011
 31
0.0
210
0.0
220
0.0
230
1.0
 40
0.9396926207859184
 41
4.342587296334581
 42
4.39822971502572
1001
REVIT
1002
{
1070
     3
1000
923097
1002
}
  0
ELLIPSE
  5
1F2
330
1BD
100
AcDbEntity
  8
M-PIPE
100
AcDbEllipse
 10
708.0701245736928
 20
1692.655266574595
 30
0.0
 11
0.0
 21
21.00000000000031
 31
0.0
210
0.0
220
0.0
230
1.0
 40
0.9396926207859053
 41
4.416003225797757
 42
4.555309347705207
1001
REVIT
1002
{
1070
     3
1000
923097
1002
}
  0
ELLIPSE
  5
1F3
330
1BD
100
AcDbEntity
  8
M-PIPE
100
AcDbEllipse
 10
708.0701245736928
 20
1692.655266574595
 30
0.0
 11
0.0
 21
21.00000000000017
 31
0.0
210
0.0
220
0.0
230
1.0
 40
0.9396926207859127
 41
4.563657602670662
 42
4.712388980384695
1001
REVIT
1002
{
1070
     3
1000
923097
1002
}
  0
SPLINE
  5
1F4
330
1BD
100
AcDbEntity
  8
M-PIPE
100
AcDbSpline
210
0.0
220
0.0
230
1.0
 70
     8
 71
     3
 72
    24
 73
    20
 74
     0
 42
0.000000001
 43
0.0000000001
 40
-1.0
 40
-1.0
 40
-1.0
 40
-1.0
 40
-0.925
 40
-0.85
 40
-0.8125
 40
-0.775
 40
-0.7
 40
-0.625
 40
-0.5875
 40
-0.55
 40
-0.475
 40
-0.4
 40
-0.35
 40
-0.3
 40
-0.25
 40
-0.2
 40
-0.15
 40
-0.1
 40
0.0
 40
0.0
 40
0.0
 40
0.0
 10
717.7131459629874
 20
1698.801738984329
 30
0.0
 10
717.5840544254882
 20
1698.848956770117
 30
0.0
 10
717.3190983371252
 20
1698.958781506114
 30
0.0
 10
716.9747739200734
 20
1699.140151830133
 30
0.0
 10
716.6953156456132
 20
1699.315104958168
 30
0.0
 10
716.4128969100017
 20
1699.512623623859
 30
0.0
 10
716.044196178414
 20
1699.818477356907
 30
0.0
 10
715.7009961272945
 20
1700.177033874915
 30
0.0
 10
715.464883893064
 20
1700.470447192609
 30
0.0
 10
715.2416846206616
 20
1700.78523723484
 30
0.0
 10
714.9951533139383
 20
1701.214446366983
 30
0.0
 10
714.8064559296376
 20
1701.674329502487
 30
0.0
 10
714.6930347379796
 20
1702.073489884003
 30
0.0
 10
714.6264652486629
 20
1702.424982914628
 30
0.0
 10
714.5962219088515
 20
1702.763018314181
 30
0.0
 10
714.6021620360748
 20
1703.068913946617
 30
0.0
 10
714.6399155184767
 20
1703.337860324555
 30
0.0
 10
714.7254251490058
 20
1703.663178309733
 30
0.0
 10
714.8255589453607
 20
1703.863579691048
 30
0.0
 10
714.9050042683081
 20
1703.977733753725
 30
0.0
1001
REVIT
1002
{
1070
     3
1000
923097
1002
}
  0
SPLINE
  5
1F5
330
1BD
100
AcDbEntity
  8
M-PIPE
100
AcDbSpline
210
0.0
220
0.0
230
1.0
 70
     8
 71
     3
 72
    24
 73
    20
 74
     0
 42
0.000000001
 43
0.0000000001
 40
-1.0
 40
-1.0
 40
-1.0
 40
-1.0
 40
-0.925
 40
-0.85
 40
-0.8125
 40
-0.775
 40
-0.7
 40
-0.625
 40
-0.5875
 40
-0.55
 40
-0.475
 40
-0.4
 40
-0.35
 40
-0.3
 40
-0.25
 40
-0.2
 40
-0.15
 40
-0.1
 40
0.0
 40
0.0
 40
0.0
 40
0.0
 10
704.9010342772791
 20
1710.124206163438
 30
0.0
 10
704.765522401949
 20
1710.088822408354
 30
0.0
 10
704.4832514686135
 20
1710.010912567249
 30
0.0
 10
704.0996147759548
 20
1709.902003021589
 30
0.0
 10
703.773416278797
 20
1709.81320193805
 30
0.0
 10
703.4319795916696
 20
1709.724465749022
 30
0.0
 10
702.9574031801396
 20
1709.613763124859
 30
0.0
 10
702.4649705446827
 20
1709.530273594196
 30
0.0
 10
702.0932184880804
 20
1709.486872949464
 30
0.0
 10
701.7157335360506
 20
1709.456463810193
 30
0.0
 10
701.2407234418129
 20
1709.448389057189
 30
0.0
 10
700.7832287915162
 20
1709.483955722345
 30
0.0
 10
700.4217401620278
 20
1709.54203571553
 30
0.0
 10
700.126680350641
 20
1709.611698324647
 30
0.0
 10
699.8674238458429
 20
1709.695782274111
 30
0.0
 10
699.658728496079
 20
1709.785504892822
 30
0.0
 10
699.5022674593392
 20
1709.874536652928
 30
0.0
 10
699.347028949076
 20
1709.992968041169
 30
0.0
 10
699.2937674723521
 20
1710.075306356575
 30
0.0
 10
699.2847508879862
 20
1710.124206163441
 30
0.0
1001
REVIT
1002
{
1070
     3
1000
923097
1002
}
  0
SPLINE
  5
1F6
330
1BD
100
AcDbEntity
  8
M-PIPE
100
AcDbSpline
210
0.0
220
0.0
230
1.0
 70
     8
 71
     3
 72
    24
 73
    20
 74
     0
 42
0.000000001
 43
0.0000000001
 40
-0.9654951478909103
 40
-0.9654951478909103
 40
-0.9654951478909103
 40
-0.9654951478909103
 40
-0.925
 40
-0.85
 40
-0.8125
 40
-0.775
 40
-0.7
 40
-0.625
 40
-0.5875
 40
-0.55
 40
-0.475
 40
-0.4
 40
-0.35
 40
-0.3
 40
-0.25
 40
-0.2
 40
-0.15
 40
-0.1
 40
-0.0701673479191929
 40
-0.0701673479191929
 40
-0.0701673479191929
 40
-0.0701673479191929
 10
689.1835092042171
 20
1703.856588052927
 30
0.0
 10
689.1459597620694
 20
1703.806408014941
 30
0.0
 10
689.0403853504235
 20
1703.653978627897
 30
0.0
 10
688.9040656572278
 20
1703.417117766031
 30
0.0
 10
688.7691396146906
 20
1703.153363554553
 30
0.0
 10
688.6311474882508
 20
1702.867108699434
 30
0.0
 10
688.4426258389692
 20
1702.450552345264
 30
0.0
 10
688.2353129450125
 20
1702.008506286093
 30
0.0
 10
688.0698394308632
 20
1701.671692344935
 30
0.0
 10
687.8961338023787
 20
1701.326493076865
 30
0.0
 10
687.6627459236711
 20
1700.889209855192
 30
0.0
 10
687.4161567302444
 20
1700.464890943819
 30
0.0
 10
687.2082142037474
 20
1700.123816803128
 30
0.0
 10
687.0282305629384
 20
1699.841965354735
 30
0.0
 10
686.8612509737309
 20
1699.58809265708
 30
0.0
 10
686.7207170074213
 20
1699.371625660511
 30
0.0
 10
686.6152123146584
 20
1699.19280822163
 30
0.0
 10
686.5402619981964
 20
1699.054960843572
 30
0.0
 10
686.5197405465611
 20
1698.988942092628
 30
0.0
 10
686.5136948993431
 20
1698.965482245395
 30
0.0
1001
REVIT
1002
{
1070
     3
1000
923097
1002
}
  0
SPLINE
  5
1F7
330
1BD
100
AcDbEntity
  8
M-PIPE
100
AcDbSpline
210
0.0
220
0.0
230
1.0
 70
     8
 71
     3
 72
    24
 73
    20
 74
     0
 42
0.000000001
 43
0.0000000001
 40
-0.9285347889161942
 40
-0.9285347889161942
 40
-0.9285347889161942
 40
-0.9285347889161942
 40
-0.925
 40
-0.85
 40
-0.8125
 40
-0.775
 40
-0.7
 40
-0.625
 40
-0.5875
 40
-0.55
 40
-0.475
 40
-0.4
 40
-0.35
 40
-0.3
 40
-0.25
 40
-0.2
 40
-0.15
 40
-0.1
 40
-0.0338829013993489
 40
-0.0338829013993489
 40
-0.0338829013993489
 40
-0.0338829013993489
 10
686.5035421231128
 20
1686.351886037852
 30
0.0
 10
686.5046005836388
 20
1686.348921454626
 30
0.0
 10
686.5287083155042
 20
1686.28262274446
 30
0.0
 10
686.583675682688
 20
1686.170381319032
 30
0.0
 10
686.686762317197
 20
1685.995428191062
 30
0.0
 10
686.8112327041087
 20
1685.797909525113
 30
0.0
 10
687.0146414882855
 20
1685.492055794032
 30
0.0
 10
687.2416809503384
 20
1685.133499269239
 30
0.0
 10
687.4181257399177
 20
1684.840085965292
 30
0.0
 10
687.6024853633198
 20
1684.525295867109
 30
0.0
 10
687.8391965815195
 20
1684.0960871638
 30
0.0
 10
688.0723171239909
 20
1683.636202450549
 30
0.0
 10
688.2659701889728
 20
1683.237046107169
 30
0.0
 10
688.4296134506729
 20
1682.885539485902
 30
0.0
 10
688.5836976877931
 20
1682.54755498766
 30
0.0
 10
688.7268051890997
 20
1682.241469340619
 30
0.0
 10
688.8633191850349
 20
1681.973232119791
 30
0.0
 10
689.0134545675366
 20
1681.700096735282
 30
0.0
 10
689.1223975060644
 20
1681.546550211434
 30
0.0
 10
689.1847641067699
 20
1681.461931284374
 30
0.0
1001
REVIT
1002
{
1070
     3
1000
923097
1002
}
  0
SPLINE
  5
1F8
330
1BD
100
AcDbEntity
  8
M-PIPE
100
AcDbSpline
210
0.0
220
0.0
230
1.0
 70
     8
 71
     3
 72
    24
 73
    20
 74
     0
 42
0.000000001
 43
0.0000000001
 40
-1.0
 40
-1.0
 40
-1.0
 40
-1.0
 40
-0.925
 40
-0.85
 40
-0.8125
 40
-0.775
 40
-0.7
 40
-0.625
 40
-0.5875
 40
-0.55
 40
-0.475
 40
-0.4
 40
-0.35
 40
-0.3
 40
-0.25
 40
-0.2
 40
-0.15
 40
-0.1
 40
0.0
 40
0.0
 40
0.0
 40
0.0
 10
699.2847508879862
 20
1675.186326985748
 30
0.0
 10
699.2901012353628
 20
1675.221710740832
 30
0.0
 10
699.3307010741118
 20
1675.299620581936
 30
0.0
 10
699.4588348268388
 20
1675.408530127597
 30
0.0
 10
699.6086616840316
 20
1675.497331211136
 30
0.0
 10
699.7921500225142
 20
1675.586067400165
 30
0.0
 10
700.101434486228
 20
1675.696770024329
 30
0.0
 10
700.4777065340245
 20
1675.780259554992
 30
0.0
 10
700.7897911431301
 20
1675.823660199724
 30
0.0
 10
701.1284364577455
 20
1675.854069338996
 30
0.0
 10
701.5936263746674
 20
1675.862144092
 30
0.0
 10
702.0955445098161
 20
1675.826577426845
 30
0.0
 10
702.5372641765088
 20
1675.768497433661
 30
0.0
 10
702.9294005742985
 20
1675.698834824543
 30
0.0
 10
703.3124874369983
 20
1675.61475087508
 30
0.0
 10
703.6702697588959
 20
1675.525028256369
 30
0.0
 10
704.0008514389564
 20
1675.435996496264
 30
0.0
 10
704.4230887352559
 20
1675.317565108023
 30
0.0
 10
704.7153814301845
 20
1675.235226792617
 30
0.0
 10
704.9010342772804
 20
1675.186326985751
 30
0.0
1001
REVIT
1002
{
1070
     3
1000
923097
1002
}
  0
SPLINE
  5
1F9
330
1BD
100
AcDbEntity
  8
M-PIPE
100
AcDbSpline
210
0.0
220
0.0
230
1.0
 70
     8
 71
     3
 72
    24
 73
    20
 74
     0
 42
0.000000001
 43
0.0000000001
 40
-1.0
 40
-1.0
 40
-1.0
 40
-1.0
 40
-0.925
 40
-0.85
 40
-0.8125
 40
-0.775
 40
-0.7
 40
-0.625
 40
-0.5875
 40
-0.55
 40
-0.475
 40
-0.4
 40
-0.35
 40
-0.3
 40
-0.25
 40
-0.2
 40
-0.15
 40
-0.1
 40
0.0
 40
0.0
 40
0.0
 40
0.0
 10
714.9050042683085
 20
1681.332799395464
 30
0.0
 10
714.8463438421629
 20
1681.415400936336
 30
0.0
 10
714.742823139843
 20
1681.603135513439
 30
0.0
 10
714.6543839454865
 20
1681.893415383121
 30
0.0
 10
714.612938348204
 20
1682.157169594697
 30
0.0
 10
714.5929821254001
 20
1682.443424449419
 30
0.0
 10
714.6162118314391
 20
1682.859980806633
 30
0.0
 10
714.7073641219516
 20
1683.302026855306
 30
0.0
 10
714.8131702205793
 20
1683.638840817733
 30
0.0
 10
714.948036081504
 20
1683.984039999236
 30
0.0
 10
715.1716047803664
 20
1684.421323884384
 30
0.0
 10
715.4626137887943
 20
1684.845640354731
 30
0.0
 10
715.7507967452314
 20
1685.186720743062
 30
0.0
 10
716.0278253605071
 20
1685.468551164567
 30
0.0
 10
716.3187537044482
 20
1685.722502614656
 30
0.0
 10
716.6079326675055
 20
1685.938675628379
 30
0.0
 10
716.8892075083103
 20
1686.118590246209
 30
0.0
 10
717.2634550421244
 20
1686.325476843143
 30
0.0
 10
717.5363659243077
 20
1686.443539909051
 30
0.0
 10
717.7131459629877
 20
1686.50879416486
 30
0.0
1001
REVIT
1002
{
1070
     3
1000
923097
1002
}
  0
ELLIPSE
  5
1FA
330
1BD
100
AcDbEntity
  8
M-PIPE
100
AcDbEllipse
 10
707.2446307977665
 20
1716.45426877892
 30
0.0
 11
0.0
 21
7.000000000000063
 31
0.0
210
0.0
220
0.0
230
1.0
 40
0.9396926207859166
 41
2.177822022147362
 42
2.730680813411551
1001
REVIT
1002
{
1070
     3
1000
923097
1002
}
  0
ELLIPSE
  5
1FB
330
1BD
100
AcDbEntity
  8
M-PIPE
100
AcDbEllipse
 10
726.6122036100393
 20
1680.755765472425
 30
0.0
 11
0.0
 21
6.99999999999996
 31
0.0
210
0.0
220
0.0
230
0.9999999999999998
 40
0.9396926207859289
 41
0.0834269197511144
 42
2.010968182640445
1001
REVIT
1002
{
1070
     3
1000
923097
1002
}
  0
ELLIPSE
  5
1FC
330
1BD
100
AcDbEntity
  8
M-PIPE
100
AcDbEllipse
 10
726.6122036100386
 20
1704.554767676765
 30
0.0
 11
0.0
 21
7.000000000000079
 31
0.0
210
0.0
220
0.0
230
1.0
 40
0.9396926207858967
 41
1.130624470949386
 42
3.058165733838707
1001
REVIT
1002
{
1070
     3
1000
923097
1002
}
  0
ELLIPSE
  5
1FD
330
1BD
100
AcDbEntity
  8
M-PIPE
100
AcDbEllipse
 10
707.2446307977673
 20
1668.85626437027
 30
0.0
 11
0.0
 21
6.999999999999986
 31
0.0
210
0.0
220
0.0
230
0.9999999999999998
 40
0.9396926207859257
 41
0.4109452725117868
 42
0.9637706314423867
1001
REVIT
1002
{
1070
     3
1000
923097
1002
}
  0
LINE
  5
1FE
330
1BD
100
AcDbEntity
  8
M-PIPE
100
AcDbLine
 10
706.8542919551882
 20
1714.383212287462
 30
0.0
 11
704.9629878061846
 21
1713.798682023598
 31
0.0
1001
REVIT
1002
{
1070
     3
1000
923097
1002
}
  0
LWPOLYLINE
  5
1FF
330
1BD
100
AcDbEntity
  8
M-PIPE
100
AcDbPolyline
 90
        3
 70
   128
 43
0.0
 10
704.4736198366471
 20
1713.624577286645
 10
703.1394589085068
 20
1713.14991659795
 10
701.9721237981508
 20
1712.678600384147
1001
REVIT
1002
{
1070
     3
1000
923097
1002
}
  0
LINE
  5
200
330
1BD
100
AcDbEntity
  8
M-PIPE
100
AcDbLine
 10
701.9498811509415
 20
1712.669619826487
 30
0.0
 11
701.5593018428079
 21
1712.511921870634
 31
0.0
1001
REVIT
1002
{
1070
     3
1000
923097
1002
}
  0
LINE
  5
201
330
1BD
100
AcDbEntity
  8
M-PIPE
100
AcDbLine
 10
701.3899599862973
 20
1712.44354941962
 30
0.0
 11
700.1745701235458
 21
1711.901092076203
 31
0.0
1001
REVIT
1002
{
1070
     3
1000
923097
1002
}
  0
LINE
  5
202
330
1BD
100
AcDbEntity
  8
M-PIPE
100
AcDbLine
 10
700.1745701235479
 20
1673.409441073026
 30
0.0
 11
701.3926099434173
 21
1672.874305288205
 31
0.0
1001
REVIT
1002
{
1070
     3
1000
923097
1002
}
  0
LWPOLYLINE
  5
203
330
1BD
100
AcDbEntity
  8
M-PIPE
100
AcDbPolyline
 90
        4
 70
   128
 43
0.0
 10
701.5518446671261
 20
1672.804346820958
 10
701.8671617113461
 20
1672.665814868904
 10
703.6377577007552
 20
1671.9747231289
 10
704.473619836171
 20
1671.688266419035
1001
REVIT
1002
{
1070
     3
1000
923097
1002
}
  0
LWPOLYLINE
  5
204
330
1BD
100
AcDbEntity
  8
M-PIPE
100
AcDbPolyline
 90
        3
 70
   128
 43
0.0
 10
705.064221459195
 20
1671.485862469145
 10
705.4807362197424
 20
1671.343119494123
 10
706.8542919551916
 20
1670.927320861768
1001
REVIT
1002
{
1070
     3
1000
923097
1002
}
  0
ELLIPSE
  5
205
330
1BD
100
AcDbEntity
  8
M-PIPE
100
AcDbEllipse
 10
712.3453763652694
 20
1692.655266574615
 30
0.0
 11
0.0
 21
22.5
 31
0.0
210
0.0
220
0.0
230
1.0
 40
0.9396926207859198
 41
4.712388980384705
 42
6.518804756198837
1001
REVIT
1002
{
1070
     3
1000
923097
1002
}
  0
ELLIPSE
  5
206
330
1BD
100
AcDbEntity
  8
M-PIPE
100
AcDbEllipse
 10
775.4197897696201
 20
1473.969922269025
 30
0.0
 11
-68.55373994149134
 21
240.4166363250149
 31
0.0
210
0.0
220
0.0
230
1.0
 40
0.3303660895493472
 41
0.0103713125452951
 42
0.0506859024648776
1001
REVIT
1002
{
1070
     3
1000
923097
1002
}
  0
ELLIPSE
  5
207
330
1BD
100
AcDbEntity
  8
M-PIPE
100
AcDbEllipse
 10
711.4903260069641
 20
1692.655266574615
 30
0.0
 11
0.0
 21
22.25100234637519
 31
0.0
210
0.0
220
0.0
230
0.9999999999999998
 40
0.9396926207859051
 41
6.023002737595968
 42
6.546601513194667
1001
REVIT
1002
{
1070
     3
1000
923097
1002
}
  0
SPLINE
  5
208
330
1BD
100
AcDbEntity
  8
M-PIPE
100
AcDbSpline
210
0.0
220
0.0
230
1.0
 70
     8
 71
     3
 72
     9
 73
     5
 74
     0
 42
0.000000001
 43
0.0000000001
 40
-1.0
 40
-1.0
 40
-1.0
 40
-1.0
 40
-0.5
 40
0.0
 40
0.0
 40
0.0
 40
0.0
 10
716.8693386460248
 20
1714.157367534454
 30
0.0
 10
716.255329104749
 20
1713.98842319481
 30
0.0
 10
715.0205764686153
 20
1713.618082663732
 30
0.0
 10
713.7723567253178
 20
1713.182838429071
 30
0.0
 10
713.144880076878
 20
1712.948990385845
 30
0.0
1001
REVIT
1002
{
1070
     3
1000
923097
1002
}
  0
ELLIPSE
  5
209
330
1BD
100
AcDbEntity
  8
M-PIPE
100
AcDbEllipse
 10
665.2989660059326
 20
1911.321988430555
 30
0.0
 11
-68.55373994149942
 21
240.4166363250692
 31
0.0
210
0.0
220
0.0
230
1.0
 40
0.3303660895493497
 41
2.903056253178413
 42
2.943370843097982
1001
REVIT
1002
{
1070
     3
1000
923097
1002
}
  0
ELLIPSE
  5
20A
330
1BD
100
AcDbEntity
  8
M-PIPE
100
AcDbEllipse
 10
711.4903260069641
 20
1692.655266574615
 30
0.0
 11
0.0
 21
22.25100234637497
 31
0.0
210
0.0
220
0.0
230
1.0
 40
0.9396926207859173
 41
2.87817644757473
 42
3.401775223173422
1001
REVIT
1002
{
1070
     3
1000
923097
1002
}
  0
SPLINE
  5
20B
330
1BD
100
AcDbEntity
  8
M-PIPE
100
AcDbSpline
210
0.0
220
0.0
230
1.0
 70
     8
 71
     3
 72
     9
 73
     5
 74
     0
 42
0.000000001
 43
0.0000000001
 40
-1.0
 40
-1.0
 40
-1.0
 40
-1.0
 40
-0.5
 40
0.0
 40
0.0
 40
0.0
 40
0.0
 10
706.0460047979833
 20
1671.17178806448
 30
0.0
 10
705.517072206338
 20
1671.340732404124
 30
0.0
 10
704.4688155651288
 20
1671.711072935203
 30
0.0
 10
703.439776008082
 20
1672.146317169864
 30
0.0
 10
702.9300605005992
 20
1672.380165213089
 30
0.0
1001
REVIT
1002
{
1070
     3
1000
923097
1002
}
  0
ELLIPSE
  5
20C
330
1BD
100
AcDbEntity
  8
M-PIPE
100
AcDbEllipse
 10
712.3453763652694
 20
1692.655266574615
 30
0.0
 11
0.0
 21
22.50000000000007
 31
0.0
210
0.0
220
0.0
230
1.0
 40
0.9396926207859165
 41
2.905973204570559
 42
4.712388980384695
1001
REVIT
1002
{
1070
     3
1000
923097
1002
}
  0
ELLIPSE
  5
20D
330
1BD
100
AcDbEntity
  8
M-PIPE
100
AcDbEllipse
 10
708.0701245736984
 20
1692.655266574615
 30
0.0
 11
0.0
 21
20.99999999999965
 31
0.0
210
0.0
220
0.0
230
1.0
 40
0.9396926207859209
 41
5.993005752951924
 42
6.023099054039048
1001
REVIT
1002
{
1070
     3
1000
923097
1002
}
  0
ELLIPSE
  5
20E
330
1BD
100
AcDbEntity
  8
M-PIPE
100
AcDbEllipse
 10
708.0701245736984
 20
1692.655266574615
 30
0.0
 11
0.0
 21
20.99999999999977
 31
0.0
210
0.0
220
0.0
230
1.0
 40
0.9396926207859136
 41
5.417426733938997
 42
5.969215151519133
1001
REVIT
1002
{
1070
     3
1000
923097
1002
}
  0
ELLIPSE
  5
20F
330
1BD
100
AcDbEntity
  8
M-PIPE
100
AcDbEllipse
 10
708.0701245736984
 20
1692.655266574615
 30
0.0
 11
0.0
 21
20.99999999999997
 31
0.0
210
0.0
220
0.0
230
1.0
 40
0.9396926207859047
 41
5.337350653108937
 42
5.367744017211883
1001
REVIT
1002
{
1070
     3
1000
923097
1002
}
  0
ELLIPSE
  5
210
330
1BD
100
AcDbEntity
  8
M-PIPE
100
AcDbEllipse
 10
708.0701245736984
 20
1692.655266574615
 30
0.0
 11
0.0
 21
20.99999999999988
 31
0.0
210
0.0
220
0.0
230
1.0
 40
0.9396926207859101
 41
5.294926790897745
 42
5.335579306754288
1001
REVIT
1002
{
1070
     3
1000
923097
1002
}
  0
ELLIPSE
  5
211
330
1BD
100
AcDbEntity
  8
M-PIPE
100
AcDbEllipse
 10
708.0701245736984
 20
1692.655266574615
 30
0.0
 11
0.0
 21
20.99999999999967
 31
0.0
210
0.0
220
0.0
230
1.0
 40
0.9396926207859255
 41
5.212453003426247
 42
5.257470843977095
1001
REVIT
1002
{
1070
     3
1000
923097
1002
}
  0
ELLIPSE
  5
212
330
1BD
100
AcDbEntity
  8
M-PIPE
100
AcDbEllipse
 10
708.0701245736984
 20
1692.655266574615
 30
0.0
 11
0.0
 21
21.00000000000013
 31
0.0
210
0.0
220
0.0
230
1.0
 40
0.9396926207859007
 41
5.149292338269483
 42
5.178135034680931
1001
REVIT
1002
{
1070
     3
1000
923097
1002
}
  0
ELLIPSE
  5
213
330
1BD
100
AcDbEntity
  8
M-PIPE
100
AcDbEllipse
 10
708.0701245736984
 20
1692.655266574615
 30
0.0
 11
0.0
 21
21.00000000000019
 31
0.0
210
0.0
220
0.0
230
1.0
 40
0.9396926207858998
 41
4.712388980384695
 42
5.099462018090894
1001
REVIT
1002
{
1070
     3
1000
923097
1002
}
  0
LINE
  5
214
330
1BD
100
AcDbEntity
  8
M-PIPE
100
AcDbLine
 10
713.144880076878
 20
1712.948990385845
 30
0.0
 11
713.1415017425966
 21
1712.935573109914
 31
0.0
1001
REVIT
1002
{
1070
     3
1000
923097
1002
}
  0
LINE
  5
215
330
1BD
100
AcDbEntity
  8
M-PIPE
100
AcDbLine
 10
702.9336679142943
 20
1712.916040856308
 30
0.0
 11
702.9300605005987
 21
1712.93036793614
 31
0.0
1001
REVIT
1002
{
1070
     3
1000
923097
1002
}
  0
ELLIPSE
  5
216
330
1BD
100
AcDbEntity
  8
M-PIPE
100
AcDbEllipse
 10
708.070124573699
 20
1692.655266574615
 30
0.0
 11
0.0
 21
21.00000000000037
 31
0.0
210
0.0
220
0.0
230
0.9999999999999998
 40
0.9396926207859046
 41
0.471390300144938
 42
0.4813931565142962
1001
REVIT
1002
{
1070
     3
1000
923097
1002
}
  0
ELLIPSE
  5
217
330
1BD
100
AcDbEntity
  8
M-PIPE
100
AcDbEllipse
 10
708.070124573699
 20
1692.655266574615
 30
0.0
 11
0.0
 21
21.0000000000002
 31
0.0
210
0.0
220
0.0
230
1.0
 40
0.9396926207859106
 41
0.3927884040461251
 42
0.4505287147158973
1001
REVIT
1002
{
1070
     3
1000
923097
1002
}
  0
ELLIPSE
  5
218
330
1BD
100
AcDbEntity
  8
M-PIPE
100
AcDbEllipse
 10
708.070124573699
 20
1692.655266574615
 30
0.0
 11
0.0
 21
21.00000000000005
 31
0.0
210
0.0
220
0.0
230
1.0
 40
0.9396926207859188
 41
0.3142668632335954
 42
0.3687485830793056
1001
REVIT
1002
{
1070
     3
1000
923097
1002
}
  0
ELLIPSE
  5
219
330
1BD
100
AcDbEntity
  8
M-PIPE
100
AcDbEllipse
 10
708.070124573699
 20
1692.655266574615
 30
0.0
 11
0.0
 21
21.0000000000002
 31
0.0
210
0.0
220
0.0
230
1.0
 40
0.9396926207859149
 41
0.2635125224581718
 42
0.291750536665978
1001
REVIT
1002
{
1070
     3
1000
923097
1002
}
  0
ELLIPSE
  5
21A
330
1BD
100
AcDbEntity
  8
M-PIPE
100
AcDbEllipse
 10
708.0701245736984
 20
1692.655266574615
 30
0.0
 11
0.0
 21
20.99999999999986
 31
0.0
210
0.0
220
0.0
230
1.0
 40
0.939692620785915
 41
2.850219800204463
 42
2.878080131131654
1001
REVIT
1002
{
1070
     3
1000
923097
1002
}
  0
ELLIPSE
  5
21B
330
1BD
100
AcDbEntity
  8
M-PIPE
100
AcDbEllipse
 10
708.0701245736984
 20
1692.655266574615
 30
0.0
 11
0.0
 21
20.99999999999997
 31
0.0
210
0.0
220
0.0
230
1.0
 40
0.939692620785915
 41
2.773571113656066
 42
2.82760040919795
1001
REVIT
1002
{
1070
     3
1000
923097
1002
}
  0
ELLIPSE
  5
21C
330
1BD
100
AcDbEntity
  8
M-PIPE
100
AcDbEllipse
 10
708.0701245736984
 20
1692.655266574615
 30
0.0
 11
0.0
 21
20.99999999999999
 31
0.0
210
0.0
220
0.0
230
1.0
 40
0.9396926207859099
 41
2.729957678600996
 42
2.74944687312047
1001
REVIT
1002
{
1070
     3
1000
923097
1002
}
  0
LINE
  5
21D
330
1BD
100
AcDbEntity
  8
M-PIPE
100
AcDbLine
 10
702.9300605005992
 20
1672.380165213089
 30
0.0
 11
702.9336679142858
 21
1672.394492292885
 31
0.0
1001
REVIT
1002
{
1070
     3
1000
923097
1002
}
  0
LINE
  5
21E
330
1BD
100
AcDbEntity
  8
M-PIPE
100
AcDbLine
 10
713.1415017426064
 20
1672.374960039279
 30
0.0
 11
713.1448800768787
 21
1672.361542763384
 31
0.0
1001
REVIT
1002
{
1070
     3
1000
923097
1002
}
  0
ELLIPSE
  5
21F
330
1BD
100
AcDbEntity
  8
M-PIPE
100
AcDbEllipse
 10
708.070124573699
 20
1692.655266574615
 30
0.0
 11
0.0
 21
21.00000000000045
 31
0.0
210
0.0
220
0.0
230
1.0
 40
0.9396926207858944
 41
4.324992272199778
 42
4.712388980384685
1001
REVIT
1002
{
1070
     3
1000
923097
1002
}
  0
ELLIPSE
  5
220
330
1BD
100
AcDbEntity
  8
M-PIPE
100
AcDbEllipse
 10
708.070124573699
 20
1692.655266574615
 30
0.0
 11
0.0
 21
21.00000000000026
 31
0.0
210
0.0
220
0.0
230
1.0
 40
0.939692620785906
 41
4.246436138066693
 42
4.275485622499913
1001
REVIT
1002
{
1070
     3
1000
923097
1002
}
  0
ELLIPSE
  5
221
330
1BD
100
AcDbEntity
  8
M-PIPE
100
AcDbEllipse
 10
708.070124573699
 20
1692.655266574615
 30
0.0
 11
0.0
 21
21.00000000000013
 31
0.0
210
0.0
220
0.0
230
0.9999999999999998
 40
0.939692620785911
 41
4.167339934771487
 42
4.202668396185794
1001
REVIT
1002
{
1070
     3
1000
923097
1002
}
  0
ELLIPSE
  5
222
330
1BD
100
AcDbEntity
  8
M-PIPE
100
AcDbEllipse
 10
708.070124573699
 20
1692.655266574615
 30
0.0
 11
0.0
 21
20.99999999999993
 31
0.0
210
0.0
220
0.0
230
0.9999999999999998
 40
0.9396926207859237
 41
4.089575864953527
 42
4.129851169871661
1001
REVIT
1002
{
1070
     3
1000
923097
1002
}
  0
ELLIPSE
  5
223
330
1BD
100
AcDbEntity
  8
M-PIPE
100
AcDbEllipse
 10
708.070124573699
 20
1692.655266574615
 30
0.0
 11
0.0
 21
21.00000000000017
 31
0.0
210
0.0
220
0.0
230
1.0
 40
0.9396926207859126
 41
4.047110179592225
 42
4.087796678492899
1001
REVIT
1002
{
1070
     3
1000
923097
1002
}
  0
ELLIPSE
  5
224
330
1BD
100
AcDbEntity
  8
M-PIPE
100
AcDbEllipse
 10
708.070124573699
 20
1692.655266574615
 30
0.0
 11
0.0
 21
21.00000000000019
 31
0.0
210
0.0
220
0.0
230
1.0
 40
0.9396926207859095
 41
3.401678906730369
 42
4.008071472414898
1001
REVIT
1002
{
1070
     3
1000
923097
1002
}
  0
LINE
  5
225
330
1BD
100
AcDbEntity
  8
M-PIPE
100
AcDbLine
 10
706.0460047979827
 20
1714.138745084749
 30
0.0
 11
706.1944235739488
 21
1713.54929019232
 31
0.0
1001
REVIT
1002
{
1070
     3
1000
923097
1002
}
  0
LINE
  5
226
330
1BD
100
AcDbEntity
  8
M-PIPE
100
AcDbLine
 10
706.1944235739395
 20
1671.761242956871
 30
0.0
 11
706.0460047979833
 21
1671.17178806448
 31
0.0
1001
REVIT
1002
{
1070
     3
1000
923097
1002
}
  0
LINE
  5
227
330
1BD
100
AcDbEntity
  8
M-PIPE
100
AcDbLine
 10
721.9219403783958
 20
1719.155266574605
 30
0.0
 11
720.8958799484188
 21
1719.155266574605
 31
0.0
1001
REVIT
1002
{
1070
     3
1000
923097
1002
}
  0
LINE
  5
228
330
1BD
100
AcDbEntity
  8
M-PIPE
100
AcDbLine
 10
720.895879948421
 20
1666.155266574667
 30
0.0
 11
721.9219403783979
 21
1666.155266574667
 31
0.0
1001
REVIT
1002
{
1070
     3
1000
923097
1002
}
  0
LINE
  5
229
330
1BD
100
AcDbEntity
  8
M-PIPE
100
AcDbLine
 10
720.895879948419
 20
1718.22748773531
 30
0.0
 11
718.2268906840797
 21
1718.22748773531
 31
0.0
1001
REVIT
1002
{
1070
     3
1000
923097
1002
}
  0
LINE
  5
22A
330
1BD
100
AcDbEntity
  8
M-PIPE
100
AcDbLine
 10
718.2268906840818
 20
1667.083045413961
 30
0.0
 11
720.8958799484208
 21
1667.083045413962
 31
0.0
1001
REVIT
1002
{
1070
     3
1000
923097
1002
}
  0
LWPOLYLINE
  5
22B
330
1BD
100
AcDbEntity
  8
M-PIPE
100
AcDbPolyline
 90
        6
 70
   128
 43
0.0
 10
715.9756868534851
 20
1716.073368677741
 10
713.8774321451839
 20
1715.841470051348
 10
711.8099170801458
 20
1715.523616175915
 10
709.7824555386824
 20
1715.123279607182
 10
707.8038430325769
 20
1714.644789868556
 10
706.840234982954
 20
1714.379183675839
1001
REVIT
1002
{
1070
     3
1000
923097
1002
}
  0
LWPOLYLINE
  5
22C
330
1BD
100
AcDbEntity
  8
M-PIPE
100
AcDbPolyline
 90
        6
 70
   128
 43
0.0
 10
706.8402349829556
 20
1670.931349473432
 10
708.7914582797248
 20
1670.415836224954
 10
710.7956800938987
 20
1669.976026427093
 10
712.8444028859927
 20
1669.616647986397
 10
714.9285567387887
 20
1669.341608596036
 10
715.9756868534868
 20
1669.23716447153
1001
REVIT
1002
{
1070
     3
1000
923097
1002
}
  0
ELLIPSE
  5
22D
330
1BD
100
AcDbEntity
  8
M-PIPE
100
AcDbEllipse
 10
721.9219403783953
 20
1692.655266574635
 30
0.0
 11
0.0
 21
26.49999999996908
 31
0.0
210
0.0
220
0.0
230
1.0
 40
0.9396926207859202
 41
4.712388980384685
 42
6.204645490839846
1001
REVIT
1002
{
1070
     3
1000
923097
1002
}
  0
ELLIPSE
  5
22E
330
1BD
100
AcDbEntity
  8
M-PIPE
100
AcDbEllipse
 10
721.9219403783953
 20
1692.655266574635
 30
0.0
 11
0.0
 21
26.49999999996935
 31
0.0
210
0.0
220
0.0
230
1.0
 40
0.9396926207859136
 41
3.220132469929541
 42
4.712388980384676
1001
REVIT
1002
{
1070
     3
1000
923097
1002
}
  0
ELLIPSE
  5
22F
330
1BD
100
AcDbEntity
  8
M-PIPE
100
AcDbEllipse
 10
720.8958799484185
 20
1692.655266574635
 30
0.0
 11
0.0
 21
26.49999999996904
 31
0.0
210
0.0
220
0.0
230
1.0
 40
0.9396926207859138
 41
6.248278722139713
 42
6.897665783060989
1001
REVIT
1002
{
1070
     3
1000
923097
1002
}
  0
ELLIPSE
  5
230
330
1BD
100
AcDbEntity
  8
M-PIPE
100
AcDbEllipse
 10
720.8958799484185
 20
1692.655266574635
 30
0.0
 11
0.0
 21
26.49999999996891
 31
0.0
210
0.0
220
0.0
230
0.9999999999999998
 40
0.9396926207859211
 41
4.712388980384685
 42
6.239705935372352
1001
REVIT
1002
{
1070
     3
1000
923097
1002
}
  0
ELLIPSE
  5
231
330
1BD
100
AcDbEntity
  8
M-PIPE
100
AcDbEllipse
 10
720.8958799484185
 20
1692.655266574635
 30
0.0
 11
0.0
 21
26.49999999996931
 31
0.0
210
0.0
220
0.0
230
1.0
 40
0.9396926207859035
 41
3.185072806023795
 42
4.712388980384685
1001
REVIT
1002
{
1070
     3
1000
923097
1002
}
  0
ELLIPSE
  5
232
330
1BD
100
AcDbEntity
  8
M-PIPE
100
AcDbEllipse
 10
720.8958799484185
 20
1692.655266574635
 30
0.0
 11
0.0
 21
26.49999999996932
 31
0.0
210
0.0
220
0.0
230
1.0
 40
0.9396926207859056
 41
2.527097051799334
 42
3.176499238629684
1001
REVIT
1002
{
1070
     3
1000
923097
1002
}
  0
LINE
  5
233
330
1BD
100
AcDbEntity
  8
M-PIPE
100
AcDbLine
 10
724.9877591092044
 20
1717.854015340371
 30
0.0
 11
739.3566236864875
 21
1709.025737190537
 31
0.0
1001
REVIT
1002
{
1070
     3
1000
923097
1002
}
  0
LINE
  5
234
330
1BD
100
AcDbEntity
  8
M-PIPE
100
AcDbLine
 10
743.4485028472923
 20
1701.483544724412
 30
0.0
 11
743.4485028472916
 21
1683.826988424858
 31
0.0
1001
REVIT
1002
{
1070
     3
1000
923097
1002
}
  0
LINE
  5
235
330
1BD
100
AcDbEntity
  8
M-PIPE
100
AcDbLine
 10
739.3566236864365
 20
1676.284795958668
 30
0.0
 11
724.9877591092809
 21
1667.456517808914
 31
0.0
1001
REVIT
1002
{
1070
     3
1000
923097
1002
}
  0
ELLIPSE
  5
236
330
1BD
100
AcDbEntity
  8
M-PIPE
100
AcDbEllipse
 10
720.8958799484185
 20
1692.655266574635
 30
0.0
 11
0.0
 21
25.57222116067396
 31
0.0
210
0.0
220
0.0
230
1.0
 40
0.9396926207859157
 41
6.112069549434881
 42
6.283185307178862
1001
REVIT
1002
{
1070
     3
1000
923097
1002
}
  0
LINE
  5
237
330
1BD
100
AcDbEntity
  8
M-PIPE
100
AcDbLine
 10
722.3187698448663
 20
1717.854015340371
 30
0.0
 11
724.9877591092054
 21
1717.854015340371
 31
0.0
1001
REVIT
1002
{
1070
     3
1000
923097
1002
}
  0
ELLIPSE
  5
238
330
1BD
100
AcDbEntity
  8
M-PIPE
100
AcDbEllipse
 10
720.8958799484185
 20
1692.655266574635
 30
0.0
 11
0.0
 21
25.57222116067415
 31
0.0
210
0.0
220
0.0
230
1.0
 40
0.9396926207859078
 41
5.064871998235921
 42
5.407103513727654
1001
REVIT
1002
{
1070
     3
1000
923097
1002
}
  0
LINE
  5
239
330
1BD
100
AcDbEntity
  8
M-PIPE
100
AcDbLine
 10
739.3566236864866
 20
1709.025737190539
 30
0.0
 11
736.6876344221475
 21
1709.025737190539
 31
0.0
1001
REVIT
1002
{
1070
     3
1000
923097
1002
}
  0
LINE
  5
23A
330
1BD
100
AcDbEntity
  8
M-PIPE
100
AcDbLine
 10
740.7795135829525
 20
1701.483544724413
 30
0.0
 11
743.4485028472916
 21
1701.483544724413
 31
0.0
1001
REVIT
1002
{
1070
     3
1000
923097
1002
}
  0
ELLIPSE
  5
23B
330
1BD
100
AcDbEntity
  8
M-PIPE
100
AcDbEllipse
 10
720.8958799484185
 20
1692.655266574635
 30
0.0
 11
0.0
 21
25.57222116067464
 31
0.0
210
0.0
220
0.0
230
1.0
 40
0.9396926207858909
 41
4.017674447038406
 42
4.359905962533391
1001
REVIT
1002
{
1070
     3
1000
923097
1002
}
  0
LINE
  5
23C
330
1BD
100
AcDbEntity
  8
M-PIPE
100
AcDbLine
 10
743.448502847291
 20
1683.826988424856
 30
0.0
 11
740.7795135829521
 21
1683.826988424856
 31
0.0
1001
REVIT
1002
{
1070
     3
1000
923097
1002
}
  0
LINE
  5
23D
330
1BD
100
AcDbEntity
  8
M-PIPE
100
AcDbLine
 10
736.687634422099
 20
1676.28479595867
 30
0.0
 11
739.3566236864382
 21
1676.28479595867
 31
0.0
1001
REVIT
1002
{
1070
     3
1000
923097
1002
}
  0
ELLIPSE
  5
23E
330
1BD
100
AcDbEntity
  8
M-PIPE
100
AcDbEllipse
 10
720.8958799484185
 20
1692.655266574635
 30
0.0
 11
0.0
 21
25.57222116067431
 31
0.0
210
0.0
220
0.0
230
1.0
 40
0.9396926207859088
 41
3.141592653590474
 42
3.312708411337733
1001
REVIT
1002
{
1070
     3
1000
923097
1002
}
  0
LINE
  5
23F
330
1BD
100
AcDbEntity
  8
M-PIPE
100
AcDbLine
 10
724.9877591092777
 20
1667.456517808913
 30
0.0
 11
722.3187698449387
 21
1667.456517808913
 31
0.0
1001
REVIT
1002
{
1070
     3
1000
923097
1002
}
  0
SPLINE
  5
240
330
1BD
100
AcDbEntity
  8
M-PIPE
100
AcDbSpline
210
0.0
220
0.0
230
1.0
 70
     8
 71
     3
 72
     9
 73
     5
 74
     0
 42
0.000000001
 43
0.0000000001
 40
-1.0
 40
-1.0
 40
-1.0
 40
-1.0
 40
-0.5
 40
0.0
 40
0.0
 40
0.0
 40
0.0
 10
740.4690542682726
 20
1692.655266574635
 30
0.0
 10
740.4708307122968
 20
1694.141338110918
 30
0.0
 10
740.5243503754343
 20
1697.09878933883
 30
0.0
 10
740.6778035887505
 20
1700.026856877436
 30
0.0
 10
740.779513582953
 20
1701.483544724412
 30
0.0
1001
REVIT
1002
{
1070
     3
1000
923097
1002
}
  0
ELLIPSE
  5
241
330
1BD
100
AcDbEntity
  8
M-PIPE
100
AcDbEllipse
 10
718.2268906840793
 20
1692.655266574635
 30
0.0
 11
0.0
 21
25.57222116067412
 31
0.0
210
0.0
220
0.0
230
1.0
 40
0.9396926207859117
 41
5.064871998235931
 42
5.407103513727663
1001
REVIT
1002
{
1070
     3
1000
923097
1002
}
  0
SPLINE
  5
242
330
1BD
100
AcDbEntity
  8
M-PIPE
100
AcDbSpline
210
0.0
220
0.0
230
1.0
 70
     8
 71
     3
 72
     9
 73
     5
 74
     0
 42
0.000000001
 43
0.0000000001
 40
-1.0
 40
-1.0
 40
-1.0
 40
-1.0
 40
-0.5
 40
0.0
 40
0.0
 40
0.0
 40
0.0
 10
736.6876344221481
 20
1709.025737190537
 30
0.0
 10
734.1206583268063
 20
1710.47573794295
 30
0.0
 10
729.1588714685839
 20
1713.397118387
 30
0.0
 10
724.5414152752845
 20
1716.361256709505
 30
0.0
 10
722.3187698448652
 20
1717.854015340371
 30
0.0
1001
REVIT
1002
{
1070
     3
1000
923097
1002
}
  0
ELLIPSE
  5
243
330
1BD
100
AcDbEntity
  8
M-PIPE
100
AcDbEllipse
 10
718.2268906840793
 20
1692.655266574635
 30
0.0
 11
0.0
 21
25.57222116067392
 31
0.0
210
0.0
220
0.0
230
1.0
 40
0.9396926207859209
 41
6.112069549434876
 42
6.454301064922852
1001
REVIT
1002
{
1070
     3
1000
923097
1002
}
  0
SPLINE
  5
244
330
1BD
100
AcDbEntity
  8
M-PIPE
100
AcDbSpline
210
0.0
220
0.0
230
1.0
 70
     8
 71
     3
 72
     8
 73
     4
 74
     0
 42
0.000000001
 43
0.0000000001
 40
-1.0
 40
-1.0
 40
-1.0
 40
-1.0
 40
-0.6784763839784061
 40
-0.6784763839784061
 40
-0.6784763839784061
 40
-0.6784763839784061
 10
714.1350115233276
 20
1717.854015340378
 30
0.0
 10
712.4843246504901
 20
1716.921596370075
 30
0.0
 10
710.8692337988116
 20
1715.984757199944
 30
0.0
 10
709.2897389682921
 20
1715.043497829984
 30
0.0
1001
REVIT
1002
{
1070
     3
1000
923097
1002
}
  0
SPLINE
  5
245
330
1BD
100
AcDbEntity
  8
M-PIPE
100
AcDbSpline
210
0.0
220
0.0
230
1.0
 70
     8
 71
     3
 72
     8
 73
     4
 74
     0
 42
0.000000001
 43
0.0000000001
 40
-0.3248984106245353
 40
-0.3248984106245353
 40
-0.3248984106245353
 40
-0.3248984106245353
 40
0.0
 40
0.0
 40
0.0
 40
0.0
 10
709.1484280711939
 20
1670.352946814825
 30
0.0
 10
710.7595831309382
 20
1669.391983957437
 30
0.0
 10
712.4217776149566
 20
1668.426507622131
 30
0.0
 10
714.1350115232494
 20
1667.456517808907
 30
0.0
1001
REVIT
1002
{
1070
     3
1000
923097
1002
}
  0
ELLIPSE
  5
246
330
1BD
100
AcDbEntity
  8
M-PIPE
100
AcDbEllipse
 10
718.2268906840794
 20
1692.655266574635
 30
0.0
 11
0.0
 21
25.572221160674
 31
0.0
210
0.0
220
0.0
230
0.9999999999999998
 40
0.9396926207859214
 41
2.970476895843228
 42
3.312708411337714
1001
REVIT
1002
{
1070
     3
1000
923097
1002
}
  0
SPLINE
  5
247
330
1BD
100
AcDbEntity
  8
M-PIPE
100
AcDbSpline
210
0.0
220
0.0
230
1.0
 70
     8
 71
     3
 72
     9
 73
     5
 74
     0
 42
0.000000001
 43
0.0000000001
 40
-1.0
 40
-1.0
 40
-1.0
 40
-1.0
 40
-0.5
 40
0.0
 40
0.0
 40
0.0
 40
0.0
 10
722.3187698449414
 20
1667.456517808914
 30
0.0
 10
724.4718227506528
 20
1668.906518561312
 30
0.0
 10
729.0196864192238
 20
1671.827899005337
 30
0.0
 10
734.0510658020903
 20
1674.792037327815
 30
0.0
 10
736.6876344220975
 20
1676.284795958668
 30
0.0
1001
REVIT
1002
{
1070
     3
1000
923097
1002
}
  0
ELLIPSE
  5
248
330
1BD
100
AcDbEntity
  8
M-PIPE
100
AcDbEllipse
 10
718.2268906840794
 20
1692.655266574635
 30
0.0
 11
0.0
 21
25.57222116067443
 31
0.0
210
0.0
220
0.0
230
1.0
 40
0.9396926207858992
 41
4.017674447038419
 42
4.359905962533385
1001
REVIT
1002
{
1070
     3
1000
923097
1002
}
  0
SPLINE
  5
249
330
1BD
100
AcDbEntity
  8
M-PIPE
100
AcDbSpline
210
0.0
220
0.0
230
1.0
 70
     8
 71
     3
 72
     9
 73
     5
 74
     0
 42
0.000000001
 43
0.0000000001
 40
-1.0
 40
-1.0
 40
-1.0
 40
-1.0
 40
-0.5
 40
0.0
 40
0.0
 40
0.0
 40
0.0
 10
740.7795135829525
 20
1683.826988424857
 30
0.0
 10
740.6778035887499
 20
1685.283676271833
 30
0.0
 10
740.524350375434
 20
1688.211743810439
 30
0.0
 10
740.4708307122966
 20
1691.169195038352
 30
0.0
 10
740.4690542682726
 20
1692.655266574635
 30
0.0
1001
REVIT
1002
{
1070
     3
1000
923097
1002
}
  0
ELLIPSE
  5
24A
330
1BD
100
AcDbEntity
  8
M-PIPE
100
AcDbEllipse
 10
717.8176986584885
 20
1692.655266574635
 30
0.0
 11
0.0
 21
23.49999999999981
 31
0.0
210
0.0
220
0.0
230
1.0
 40
0.9396926207859204
 41
4.712388980384695
 42
6.44026493985909
1001
REVIT
1002
{
1070
     3
1000
923097
1002
}
  0
ELLIPSE
  5
24B
330
1BD
100
AcDbEntity
  8
M-PIPE
100
AcDbEllipse
 10
717.8176986584885
 20
1692.655266574635
 30
0.0
 11
0.0
 21
23.50000000000023
 31
0.0
210
0.0
220
0.0
230
1.0
 40
0.9396926207858992
 41
3.058081660346871
 42
4.712388980384685
1001
REVIT
1002
{
1070
     3
1000
923097
1002
}
  0
ELLIPSE
  5
24C
330
1BD
100
AcDbEntity
  8
M-PIPE
100
AcDbEllipse
 10
712.345376365278
 20
1692.655266574635
 30
0.0
 11
0.0
 21
22.50000000000061
 31
0.0
210
0.0
220
0.0
230
1.0
 40
0.9396926207858975
 41
4.712388980384725
 42
6.518804756198835
1001
REVIT
1002
{
1070
     3
1000
923097
1002
}
  0
ELLIPSE
  5
24D
330
1BD
100
AcDbEntity
  8
M-PIPE
100
AcDbEllipse
 10
712.345376365278
 20
1692.655266574635
 30
0.0
 11
0.0000000000035336
 21
22.5
 31
0.0
210
0.0
220
0.0
230
1.0
 40
0.9396926207859198
 41
2.905973204570738
 42
4.712388980384861
1001
REVIT
1002
{
1070
     3
1000
923097
1002
}
  0
LWPOLYLINE
  5
24E
330
1BD
100
AcDbEntity
  8
P-SANR-FIXT
100
AcDbPolyline
 90
       32
 70
   128
 43
0.0
 10
775.8382786923537
 20
1705.155266574656
 10
775.8782680265404
 20
1705.154466681317
 10
775.9181933863231
 20
1705.152068280959
 10
775.9579908996427
 20
1705.14807521051
 10
775.9975968989683
 20
1705.142493858032
 10
776.0369480231489
 20
1705.135333152497
 10
776.075981318781
 20
1705.126604549508
 10
776.1146343409181
 20
1705.116322012967
 10
776.15284525297
 20
1705.104501992738
 10
776.1905529256288
 20
1705.091163398334
 10
776.2276970346626
 20
1705.076327568659
 10
776.2642181574199
 20
1705.060018237876
 10
776.3000578678953
 20
1705.042261497435
 10
776.3351588301975
 20
1705.023085754334
 10
776.3694648902748
 20
1705.002521685669
 10
776.4029211657487
 20
1704.980602189566
 10
776.4354741337163
 20
1704.95736233254
 10
776.4670717163724
 20
1704.932839293407
 10
776.4976633643254
 20
1704.907072303797
 10
776.5272001374644
 20
1704.880102585397
 10
776.5556347832535
 20
1704.851973284003
 10
776.5829218123248
 20
1704.822729400498
 10
776.6090175712528
 20
1704.792417718855
 10
776.6338803123901
 20
1704.7610867313
 10
776.6574702606548
 20
1704.728786560728
 10
776.6797496771617
 20
1704.695568880524
 10
776.7006829195971
 20
1704.661486831889
 10
776.7202364992386
 20
1704.62659493883
 10
776.7383791345303
 20
1704.590949020933
 10
776.7550818011256
 20
1704.554606104062
 10
776.7703177783211
 20
1704.517624329133
 10
776.7779713131399
 20
1704.497286717981
  0
LWPOLYLINE
  5
24F
330
1BD
100
AcDbEntity
  8
P-SANR-FIXT
100
AcDbPolyline
 90
       32
 70
   128
 43
0.0
 10
776.7779713131402
 20
1680.813246431331
 10
776.7635425014622
 20
1680.775942328719
 10
776.7476334650686
 20
1680.739245063984
 10
776.7302696550239
 20
1680.703213344919
 10
776.7114788497204
 20
1680.667904814589
 10
776.6912911104379
 20
1680.63337595911
 10
776.6697387332526
 20
1680.599682017284
 10
776.6468561973704
 20
1680.566876892233
 10
776.6226801099677
 20
1680.535013065157
 10
776.597249147627
 20
1680.504141511382
 10
776.5706039944627
 20
1680.474311618809
 10
776.5427872770364
 20
1680.445571108904
 10
776.5138434961612
 20
1680.417965960349
 10
776.4838189557132
 20
1680.391540335495
 10
776.4527616885516
 20
1680.366336509704
 10
776.4207213796788
 20
1680.342394803721
 10
776.387749286754
 20
1680.319753519168
 10
776.3538981580922
 20
1680.298448877271
 10
776.3192221482784
 20
1680.278514960911
 10
776.2837767315309
 20
1680.259983660103
 10
776.2476186129553
 20
1680.242884620975
 10
776.2108056378277
 20
1680.227245198341
 10
776.1733966990557
 20
1680.213090411943
 10
776.1354516429608
 20
1680.200442906417
 10
776.0970311735386
 20
1680.189322915077
 10
776.0581967553441
 20
1680.179748227534
 10
776.0190105151622
 20
1680.171734161248
 10
775.9795351426179
 20
1680.165293537013
 10
775.939833789886
 20
1680.160436658457
 10
775.8999699706622
 20
1680.157171295546
 10
775.8600074585533
 20
1680.155502672167
 10
775.8382786923541
 20
1680.155266574656
  0
LINE
  5
250
330
1BD
100
AcDbEntity
  8
P-SANR-FIXT
100
AcDbLine
 10
778.3219403784052
 20
1700.437312759269
 30
0.0
 11
776.7779713131399
 21
1704.497286717981
 31
0.0
  0
LINE
  5
251
330
1BD
100
AcDbEntity
  8
P-SANR-FIXT
100
AcDbLine
 10
776.7779713131402
 20
1680.813246431331
 30
0.0
 11
778.3219403784052
 21
1684.873220390042
 31
0.0
  0
LINE
  5
252
330
1BD
100
AcDbEntity
  8
P-SANR-FIXT
100
AcDbLine
 10
775.8382786923537
 20
1705.155266574656
 30
0.0
 11
774.3219403784681
 21
1705.155266574656
 31
0.0
  0
LINE
  5
253
330
1BD
100
AcDbEntity
  8
P-SANR-FIXT
100
AcDbLine
 10
774.3219403784682
 20
1680.155266574656
 30
0.0
 11
775.8382786923541
 21
1680.155266574656
 31
0.0
  0
LINE
  5
254
330
1BD
100
AcDbEntity
  8
P-SANR-FIXT
100
AcDbLine
 10
776.7779713131383
 20
1695.901539733126
 30
0.0
 11
776.7779713131382
 21
1704.497286717981
 31
0.0
  0
LINE
  5
255
330
1BD
100
AcDbEntity
  8
P-SANR-FIXT
100
AcDbLine
 10
776.7779713131384
 20
1680.81324643133
 30
0.0
 11
776.7779713131383
 21
1689.408993416186
 31
0.0
  0
LINE
  5
256
330
1BD
100
AcDbEntity
  8
P-SANR-FIXT
100
AcDbLine
 10
778.3219403784033
 20
1692.655266574655
 30
0.0
 11
778.3219403784033
 21
1700.437312759268
 31
0.0
  0
LINE
  5
257
330
1BD
100
AcDbEntity
  8
P-SANR-FIXT
100
AcDbLine
 10
778.3219403784033
 20
1684.873220390042
 30
0.0
 11
778.3219403784033
 21
1692.655266574655
 31
0.0
  0
LINE
  5
258
330
1BD
100
AcDbEntity
  8
P-SANR-FIXT
100
AcDbLine
 10
774.321940378466
 20
1699.705200104221
 30
0.0
 11
774.321940378466
 21
1700.264784437264
 31
0.0
  0
LINE
  5
259
330
1BD
100
AcDbEntity
  8
P-SANR-FIXT
100
AcDbLine
 10
774.321940378466
 20
1700.705960828187
 30
0.0
 11
774.321940378466
 21
1702.248359192648
 31
0.0
  0
LINE
  5
25A
330
1BD
100
AcDbEntity
  8
P-SANR-FIXT
100
AcDbLine
 10
774.321940378466
 20
1702.572183328296
 30
0.0
 11
774.321940378466
 21
1702.842724157989
 31
0.0
  0
LINE
  5
25B
330
1BD
100
AcDbEntity
  8
P-SANR-FIXT
100
AcDbLine
 10
774.321940378466
 20
1702.914961913425
 30
0.0
 11
774.321940378466
 21
1703.480584121961
 31
0.0
  0
LINE
  5
25C
330
1BD
100
AcDbEntity
  8
P-SANR-FIXT
100
AcDbLine
 10
774.3219403784658
 20
1705.023253584623
 30
0.0
 11
774.3219403784658
 21
1705.070772854504
 31
0.0
  0
LINE
  5
25D
330
1BD
100
AcDbEntity
  8
P-SANR-FIXT
100
AcDbLine
 10
774.3219403784658
 20
1705.14442610881
 30
0.0
 11
774.3219403784658
 21
1705.155266574655
 31
0.0
  0
LINE
  5
25E
330
1BD
100
AcDbEntity
  8
P-SANR-FIXT
100
AcDbLine
 10
774.3219403784661
 20
1680.155266574655
 30
0.0
 11
774.3219403784661
 21
1680.1661070405
 31
0.0
  0
LINE
  5
25F
330
1BD
100
AcDbEntity
  8
P-SANR-FIXT
100
AcDbLine
 10
774.3219403784661
 20
1680.239760294807
 30
0.0
 11
774.3219403784661
 21
1680.287279564687
 31
0.0
  0
LINE
  5
260
330
1BD
100
AcDbEntity
  8
P-SANR-FIXT
100
AcDbLine
 10
774.321940378466
 20
1681.82994902735
 30
0.0
 11
774.321940378466
 21
1682.395571235885
 31
0.0
  0
LINE
  5
261
330
1BD
100
AcDbEntity
  8
P-SANR-FIXT
100
AcDbLine
 10
774.321940378466
 20
1682.520109705055
 30
0.0
 11
774.321940378466
 21
1682.738349821015
 31
0.0
  0
LINE
  5
262
330
1BD
100
AcDbEntity
  8
P-SANR-FIXT
100
AcDbLine
 10
774.321940378466
 20
1683.062173956662
 30
0.0
 11
774.321940378466
 21
1684.604572321122
 31
0.0
  0
LINE
  5
263
330
1BD
100
AcDbEntity
  8
P-SANR-FIXT
100
AcDbLine
 10
774.321940378466
 20
1685.045748712046
 30
0.0
 11
774.321940378466
 21
1685.60533304509
 31
0.0
  0
LINE
  5
264
330
1BD
100
AcDbEntity
  8
P-SANR-FIXT
100
AcDbLine
 10
764.8219403784036
 20
1681.261322348746
 30
0.0
 11
764.8219403784036
 21
1683.403589194286
 31
0.0
  0
LINE
  5
265
330
1BD
100
AcDbEntity
  8
P-SANR-FIXT
100
AcDbLine
 10
764.8219403784036
 20
1701.906943955024
 30
0.0
 11
764.8219403784036
 21
1704.049210800485
 31
0.0
  0
LINE
  5
266
330
1BD
100
AcDbEntity
  8
P-SANR-FIXT
100
AcDbLine
 10
764.8219403784036
 20
1704.049210800485
 30
0.0
 11
764.8219403784034
 21
1705.155266574615
 31
0.0
  0
LINE
  5
267
330
1BD
100
AcDbEntity
  8
P-SANR-FIXT
100
AcDbLine
 10
764.8219403784037
 20
1680.155266574615
 30
0.0
 11
764.8219403784036
 21
1681.261322348745
 31
0.0
  0
LINE
  5
268
330
1BD
100
AcDbEntity
  8
P-SANR-FIXT
100
AcDbLine
 10
774.3219403784665
 20
1705.155266574655
 30
0.0
 11
774.3219403784665
 21
1705.070719242628
 31
0.0
  0
LINE
  5
269
330
1BD
100
AcDbEntity
  8
P-SANR-FIXT
100
AcDbLine
 10
774.3219403784665
 20
1705.023320514368
 30
0.0
 11
774.3219403784665
 21
1704.21472531078
 31
0.0
  0
LINE
  5
26A
330
1BD
100
AcDbEntity
  8
P-SANR-FIXT
100
AcDbLine
 10
774.3219403784665
 20
1704.133059349292
 30
0.0
 11
774.3219403784665
 21
1702.58161739521
 31
0.0
  0
LINE
  5
26B
330
1BD
100
AcDbEntity
  8
P-SANR-FIXT
100
AcDbLine
 10
774.3219403784665
 20
1702.230822113642
 30
0.0
 11
774.3219403784665
 21
1700.272027279493
 31
0.0
  0
LINE
  5
26C
330
1BD
100
AcDbEntity
  8
P-SANR-FIXT
100
AcDbLine
 10
774.3219403784665
 20
1699.929414639842
 30
0.0
 11
774.3219403784665
 21
1699.693857368365
 31
0.0
  0
LINE
  5
26D
330
1BD
100
AcDbEntity
  8
P-SANR-FIXT
100
AcDbLine
 10
774.3219403784665
 20
1685.616675780946
 30
0.0
 11
774.3219403784665
 21
1685.432332817643
 31
0.0
  0
LINE
  5
26E
330
1BD
100
AcDbEntity
  8
P-SANR-FIXT
100
AcDbLine
 10
774.3219403784665
 20
1685.038505869817
 30
0.0
 11
774.3219403784665
 21
1683.079711035668
 31
0.0
  0
LINE
  5
26F
330
1BD
100
AcDbEntity
  8
P-SANR-FIXT
100
AcDbLine
 10
774.3219403784665
 20
1682.7289157541
 30
0.0
 11
774.3219403784665
 21
1681.177473800018
 31
0.0
  0
LINE
  5
270
330
1BD
100
AcDbEntity
  8
P-SANR-FIXT
100
AcDbLine
 10
774.3219403784666
 20
1681.095807838531
 30
0.0
 11
774.3219403784666
 21
1680.287212634943
 31
0.0
  0
LINE
  5
271
330
1BD
100
AcDbEntity
  8
P-SANR-FIXT
100
AcDbLine
 10
774.3219403784666
 20
1680.239813906683
 30
0.0
 11
774.3219403784666
 21
1680.155266574656
 31
0.0
  0
LINE
  5
272
330
1BD
100
AcDbEntity
  8
P-SANR-FIXT
100
AcDbLine
 10
764.8219403784037
 20
1680.155266574615
 30
0.0
 11
773.5485726917253
 21
1680.155266574615
 31
0.0
  0
LINE
  5
273
330
1BD
100
AcDbEntity
  8
P-SANR-FIXT
100
AcDbLine
 10
773.5485726917455
 20
1680.155266574615
 30
0.0
 11
773.5485726917454
 21
1681.261322348745
 31
0.0
  0
SPLINE
  5
274
330
1BD
100
AcDbEntity
  8
P-SANR-FIXT
100
AcDbSpline
210
0.0
220
0.0
230
1.0
 70
    24
 71
     3
 72
     9
 73
     5
 74
     0
 42
0.000000001
 43
0.0000000001
 40
0.2316739688235199
 40
0.2316739688235199
 40
0.2316739688235199
 40
0.2316739688235199
 40
0.5
 40
1.0
 40
1.0
 40
1.0
 40
1.0
 10
774.2728541424845
 20
1680.155266574616
 30
0.0
 10
774.2387603427363
 20
1680.155266574616
 30
0.0
 10
774.0909150811646
 20
1680.155266574615
 30
0.0
 10
773.7992670173519
 20
1680.155266574615
 30
0.0
 10
773.5485726917253
 20
1680.155266574615
 30
0.0
  0
LINE
  5
275
330
1BD
100
AcDbEntity
  8
P-SANR-FIXT
100
AcDbLine
 10
764.8219403784034
 20
1705.155266574615
 30
0.0
 11
773.5485726917661
 21
1705.155266574615
 31
0.0
  0
SPLINE
  5
276
330
1BD
100
AcDbEntity
  8
P-SANR-FIXT
100
AcDbSpline
210
0.0
220
0.0
230
1.0
 70
    24
 71
     3
 72
     9
 73
     5
 74
     0
 42
0.000000001
 43
0.0000000001
 40
0.0
 40
0.0
 40
0.0
 40
0.0
 40
0.5
 40
0.7683260303000722
 40
0.7683260303000722
 40
0.7683260303000722
 40
0.7683260303000722
 10
773.5485726917661
 20
1705.155266574615
 30
0.0
 10
773.7992670174016
 20
1705.155266574615
 30
0.0
 10
774.0909150808833
 20
1705.155266574615
 30
0.0
 10
774.2387603424332
 20
1705.155266574616
 30
0.0
 10
774.2728541421764
 20
1705.155266574616
 30
0.0
  0
LINE
  5
277
330
1BD
100
AcDbEntity
  8
P-SANR-FIXT
100
AcDbLine
 10
764.8219403784036
 20
1704.049210800485
 30
0.0
 11
773.5485726917646
 21
1704.049210800485
 31
0.0
  0
LINE
  5
278
330
1BD
100
AcDbEntity
  8
P-SANR-FIXT
100
AcDbLine
 10
773.5485726917454
 20
1704.049210800485
 30
0.0
 11
773.5485726917453
 21
1705.155266574615
 31
0.0
  0
SPLINE
  5
279
330
1BD
100
AcDbEntity
  8
P-SANR-FIXT
100
AcDbSpline
210
0.0
220
0.0
230
1.0
 70
     8
 71
     3
 72
     9
 73
     5
 74
     0
 42
0.000000001
 43
0.0000000001
 40
0.1632211257322273
 40
0.1632211257322273
 40
0.1632211257322273
 40
0.1632211257322273
 40
0.5
 40
1.0
 40
1.0
 40
1.0
 40
1.0
 10
774.2955228539365
 20
1699.755744915449
 30
0.0
 10
774.2639629855438
 20
1700.339224421844
 30
0.0
 10
774.1168990233609
 20
1701.781487320636
 30
0.0
 10
773.7992670173952
 20
1703.205161003055
 30
0.0
 10
773.5485726917646
 20
1704.049210800485
 30
0.0
  0
LINE
  5
27A
330
1BD
100
AcDbEntity
  8
P-SANR-FIXT
100
AcDbLine
 10
773.548572691727
 20
1681.261322348745
 30
0.0
 11
764.8219403784036
 21
1681.261322348745
 31
0.0
  0
SPLINE
  5
27B
330
1BD
100
AcDbEntity
  8
P-SANR-FIXT
100
AcDbSpline
210
0.0
220
0.0
230
1.0
 70
     8
 71
     3
 72
     9
 73
     5
 74
     0
 42
0.000000001
 43
0.0000000001
 40
0.0
 40
0.0
 40
0.0
 40
0.0
 40
0.5
 40
0.836778874272467
 40
0.836778874272467
 40
0.836778874272467
 40
0.836778874272467
 10
773.548572691727
 20
1681.261322348745
 30
0.0
 10
773.7992670173587
 20
1682.105372146186
 30
0.0
 10
774.116899023332
 20
1683.529045828629
 30
0.0
 10
774.2639629855283
 20
1684.971308727446
 30
0.0
 10
774.2955228539273
 20
1685.554788233856
 30
0.0
  0
LWPOLYLINE
  5
27C
330
1BD
100
AcDbEntity
  8
P-SANR-FIXT
100
AcDbPolyline
 90
       32
 70
   128
 43
0.0
 10
687.0893647627384
 20
1704.497286717981
 10
687.1037935744164
 20
1704.534590820592
 10
687.1197026108101
 20
1704.571288085327
 10
687.1370664208545
 20
1704.607319804392
 10
687.1558572261581
 20
1704.642628334722
 10
687.1760449654408
 20
1704.677157190201
 10
687.197597342626
 20
1704.710851132027
 10
687.220479878508
 20
1704.743656257079
 10
687.2446559659107
 20
1704.775520084155
 10
687.2700869282517
 20
1704.806391637929
 10
687.2967320814161
 20
1704.836221530502
 10
687.3245487988424
 20
1704.864962040408
 10
687.3534925797173
 20
1704.892567188962
 10
687.3835171201656
 20
1704.918992813816
 10
687.4145743873271
 20
1704.944196639607
 10
687.4466146962
 20
1704.96813834559
 10
687.4795867891248
 20
1704.990779630143
 10
687.5134379177864
 20
1705.012084272041
 10
687.5481139276002
 20
1705.0320181884
 10
687.5835593443477
 20
1705.050549489208
 10
687.6197174629234
 20
1705.067648528336
 10
687.656530438051
 20
1705.083287950969
 10
687.6939393768231
 20
1705.097442737368
 10
687.7318844329177
 20
1705.110090242894
 10
687.7703049023401
 20
1705.121210234234
 10
687.8091393205345
 20
1705.130784921777
 10
687.8483255607164
 20
1705.138798988064
 10
687.8878009332607
 20
1705.145239612298
 10
687.9275022859925
 20
1705.150096490855
 10
687.9673661052164
 20
1705.153361853765
 10
688.0073286173253
 20
1705.155030477144
 10
688.0290573835242
 20
1705.155266574655
  0
LWPOLYLINE
  5
27D
330
1BD
100
AcDbEntity
  8
P-SANR-FIXT
100
AcDbPolyline
 90
       32
 70
   128
 43
0.0
 10
688.0290573835245
 20
1680.155266574655
 10
687.989068049338
 20
1680.156066467994
 10
687.9491426895555
 20
1680.158464868352
 10
687.9093451762356
 20
1680.162457938801
 10
687.8697391769103
 20
1680.168039291279
 10
687.8303880527294
 20
1680.175199996814
 10
687.7913547570975
 20
1680.183928599803
 10
687.7527017349605
 20
1680.194211136344
 10
687.7144908229084
 20
1680.206031156573
 10
687.6767831502495
 20
1680.219369750977
 10
687.639639041216
 20
1680.234205580652
 10
687.6031179184586
 20
1680.250514911435
 10
687.567278207983
 20
1680.268271651875
 10
687.5321772456808
 20
1680.287447394977
 10
687.4978711856037
 20
1680.308011463642
 10
687.4644149101294
 20
1680.329930959745
 10
687.4318619421622
 20
1680.353170816771
 10
687.4002643595062
 20
1680.377693855904
 10
687.3696727115532
 20
1680.403460845514
 10
687.340135938414
 20
1680.430430563914
 10
687.311701292625
 20
1680.458559865308
 10
687.2844142635536
 20
1680.487803748814
 10
687.2583185046257
 20
1680.518115430456
 10
687.2334557634882
 20
1680.549446418011
 10
687.2098658152236
 20
1680.581746588583
 10
687.1875863987167
 20
1680.614964268787
 10
687.1666531562813
 20
1680.649046317422
 10
687.1470995766396
 20
1680.683938210481
 10
687.128956941348
 20
1680.719584128378
 10
687.1122542747529
 20
1680.755927045249
 10
687.0970182975574
 20
1680.792908820178
 10
687.0893647627386
 20
1680.813246431329
  0
LINE
  5
27E
330
1BD
100
AcDbEntity
  8
P-SANR-FIXT
100
AcDbLine
 10
687.0893647627381
 20
1704.497286717981
 30
0.0
 11
685.5453956974733
 21
1700.437312759268
 31
0.0
  0
LINE
  5
27F
330
1BD
100
AcDbEntity
  8
P-SANR-FIXT
100
AcDbLine
 10
685.5453956974732
 20
1684.873220390042
 30
0.0
 11
687.0893647627386
 21
1680.813246431329
 31
0.0
  0
LINE
  5
280
330
1BD
100
AcDbEntity
  8
P-SANR-FIXT
100
AcDbLine
 10
689.54539569741
 20
1705.155266574655
 30
0.0
 11
688.0290573835242
 21
1705.155266574655
 31
0.0
  0
LINE
  5
281
330
1BD
100
AcDbEntity
  8
P-SANR-FIXT
100
AcDbLine
 10
688.0290573835245
 20
1680.155266574655
 30
0.0
 11
689.5453956974103
 21
1680.155266574655
 31
0.0
  0
LINE
  5
282
330
1BD
100
AcDbEntity
  8
P-SANR-FIXT
100
AcDbLine
 10
687.0893647627366
 20
1704.49728671798
 30
0.0
 11
687.0893647627367
 21
1699.946874243311
 31
0.0
  0
LINE
  5
283
330
1BD
100
AcDbEntity
  8
P-SANR-FIXT
100
AcDbLine
 10
687.0893647627367
 20
1685.363329881132
 30
0.0
 11
687.0893647627369
 21
1680.813246431329
 31
0.0
  0
LINE
  5
284
330
1BD
100
AcDbEntity
  8
P-SANR-FIXT
100
AcDbLine
 10
685.5453956974717
 20
1700.437312759268
 30
0.0
 11
685.5453956974717
 21
1694.22568832793
 31
0.0
  0
LINE
  5
285
330
1BD
100
AcDbEntity
  8
P-SANR-FIXT
100
AcDbLine
 10
685.5453956974717
 20
1691.084844821259
 30
0.0
 11
685.5453956974717
 21
1684.873220390042
 31
0.0
  0
LINE
  5
286
330
1BD
100
AcDbEntity
  8
P-SANR-FIXT
100
AcDbLine
 10
689.5453956974088
 20
1705.155266574655
 30
0.0
 11
689.5453956974088
 21
1705.144426108811
 31
0.0
  0
LINE
  5
287
330
1BD
100
AcDbEntity
  8
P-SANR-FIXT
100
AcDbLine
 10
689.5453956974088
 20
1705.070772854503
 30
0.0
 11
689.5453956974088
 21
1705.023253584624
 31
0.0
  0
LINE
  5
288
330
1BD
100
AcDbEntity
  8
P-SANR-FIXT
100
AcDbLine
 10
689.545395697409
 20
1680.287279564687
 30
0.0
 11
689.545395697409
 21
1680.239760294806
 31
0.0
  0
LINE
  5
289
330
1BD
100
AcDbEntity
  8
P-SANR-FIXT
100
AcDbLine
 10
689.545395697409
 20
1680.166107040497
 30
0.0
 11
689.545395697409
 21
1680.155266574655
 31
0.0
  0
LINE
  5
28A
330
1BD
100
AcDbEntity
  8
P-SANR-FIXT
100
AcDbLine
 10
689.5453956974083
 20
1704.296547622051
 30
0.0
 11
689.5453956974083
 21
1705.023320514367
 31
0.0
  0
LINE
  5
28B
330
1BD
100
AcDbEntity
  8
P-SANR-FIXT
100
AcDbLine
 10
689.5453956974083
 20
1705.070719242628
 30
0.0
 11
689.5453956974083
 21
1705.155266574655
 31
0.0
  0
LINE
  5
28C
330
1BD
100
AcDbEntity
  8
P-SANR-FIXT
100
AcDbLine
 10
689.5453956974087
 20
1680.155266574655
 30
0.0
 11
689.5453956974087
 21
1680.239813906682
 31
0.0
  0
LINE
  5
28D
330
1BD
100
AcDbEntity
  8
P-SANR-FIXT
100
AcDbLine
 10
689.5453956974087
 20
1680.287212634942
 30
0.0
 11
689.5453956974087
 21
1681.013985527143
 31
0.0
  0
LINE
  5
28E
330
1BD
100
AcDbEntity
  8
P-SANR-FIXT
100
AcDbLine
 10
690.3187633841296
 20
1680.170298532995
 30
0.0
 11
690.3187633841296
 21
1680.155266574615
 31
0.0
  0
SPLINE
  5
28F
330
1BD
100
AcDbEntity
  8
P-SANR-FIXT
100
AcDbSpline
210
0.0
220
0.0
230
1.0
 70
    24
 71
     3
 72
     9
 73
     5
 74
     0
 42
0.000000001
 43
0.0000000001
 40
0.0412364922307754
 40
0.0412364922307754
 40
0.0412364922307754
 40
0.0412364922307754
 40
0.5
 40
0.7683260311703477
 40
0.7683260311703477
 40
0.7683260311703477
 40
0.7683260311703477
 10
690.2579795411486
 20
1680.155266574615
 30
0.0
 10
690.0371774539876
 20
1680.155266574615
 30
0.0
 10
689.7488516051814
 20
1680.155266574615
 30
0.0
 10
689.6515437075734
 20
1680.155266574615
 30
0.0
 10
689.6217415145084
 20
1680.155266574615
 30
0.0
  0
SPLINE
  5
290
330
1BD
100
AcDbEntity
  8
P-SANR-FIXT
100
AcDbSpline
210
0.0
220
0.0
230
1.0
 70
    24
 71
     3
 72
     9
 73
     5
 74
     0
 42
0.000000001
 43
0.0000000001
 40
0.2316739697056191
 40
0.2316739697056191
 40
0.2316739697056191
 40
0.2316739697056191
 40
0.5
 40
0.958763507805299
 40
0.958763507805299
 40
0.958763507805299
 40
0.958763507805299
 10
689.5944819337005
 20
1705.155266574615
 30
0.0
 10
689.6285757334437
 20
1705.155266574615
 30
0.0
 10
689.7659353342931
 20
1705.155266574615
 30
0.0
 10
690.0458995161352
 20
1705.155266574615
 30
0.0
 10
690.2601047042241
 20
1705.155266574615
 30
0.0
  0
LINE
  5
291
330
1BD
100
AcDbEntity
  8
P-SANR-FIXT
100
AcDbLine
 10
690.3187633841294
 20
1705.155266574615
 30
0.0
 11
690.3187633841294
 21
1705.140234616196
 31
0.0
  0
LINE
  5
292
330
1BD
100
AcDbEntity
  8
P-SANR-FIXT
100
AcDbLine
 10
768.2130333078212
 20
1702.15526657465
 30
0.0
 11
766.8211819402118
 21
1702.15526657465
 31
0.0
  0
LINE
  5
293
330
1BD
100
AcDbEntity
  8
P-SANR-FIXT
100
AcDbLine
 10
766.8211819402119
 20
1683.155266574661
 30
0.0
 11
768.2130333078214
 21
1683.155266574661
 31
0.0
  0
ELLIPSE
  5
294
330
1BD
100
AcDbEntity
  8
P-SANR-FIXT
100
AcDbEllipse
 10
768.4750060751119
 20
1692.655266574655
 30
0.0
 11
0.0000000000028766
 21
8.549574516060829
 31
0.0
210
0.0
220
0.0
230
1.0
 40
0.961261695938322
 41
4.712388980385006
 42
7.853981633974832
  0
ELLIPSE
  5
295
330
1BD
100
AcDbEntity
  8
P-SANR-FIXT
100
AcDbEllipse
 10
768.4750060751119
 20
1692.655266574655
 30
0.0
 11
0.0
 21
8.549574516061056
 31
0.0
210
0.0
220
0.0
230
1.0
 40
0.9612616959383231
 41
1.570796326794918
 42
4.712388980384685
  0
ELLIPSE
  5
296
330
1BD
100
AcDbEntity
  8
P-SANR-FIXT
100
AcDbEllipse
 10
768.2130333078196
 20
1692.655266574655
 30
0.0
 11
0.0000000000014962
 21
9.499999999994315
 31
0.0
210
0.0
220
0.0
230
1.0
 40
0.9612616959383279
 41
4.712388980384835
 42
7.853981633974658
  0
ELLIPSE
  5
297
330
1BD
100
AcDbEntity
  8
P-SANR-FIXT
100
AcDbEllipse
 10
768.2130333078196
 20
1692.655266574655
 30
0.0
 11
0.0000000000028757
 21
9.499999999994315
 31
0.0
210
0.0
220
0.0
230
1.0
 40
0.9612616959383279
 41
1.570796326795211
 42
4.712388980384973
  0
ELLIPSE
  5
298
330
1BD
100
AcDbEntity
  8
P-SANR-FIXT
100
AcDbEllipse
 10
766.8211819402101
 20
1692.655266574655
 30
0.0
 11
0.0000000000028757
 21
9.499999999994315
 31
0.0
210
0.0
220
0.0
230
1.0
 40
0.9612616959383279
 41
0.0000000000003149
 42
1.570796326795211
  0
ELLIPSE
  5
299
330
1BD
100
AcDbEntity
  8
P-SANR-FIXT
100
AcDbEllipse
 10
766.8211819402101
 20
1692.655266574655
 30
0.0
 11
0.0000000000028757
 21
9.499999999994315
 31
0.0
210
0.0
220
0.0
230
1.0
 40
0.9612616959383279
 41
1.570796326795211
 42
3.141592653590101
  0
LINE
  5
29A
330
1BD
100
AcDbEntity
  8
P-SANR-FIXT
100
AcDbLine
 10
764.8219403784052
 20
1703.305266574656
 30
0.0
 11
762.8219403784068
 21
1703.305266574656
 31
0.0
  0
LINE
  5
29B
330
1BD
100
AcDbEntity
  8
P-SANR-FIXT
100
AcDbLine
 10
762.8219403784068
 20
1682.005266574655
 30
0.0
 11
764.8219403784054
 21
1682.005266574656
 31
0.0
  0
LINE
  5
29C
330
1BD
100
AcDbEntity
  8
P-SANR-FIXT
100
AcDbLine
 10
762.8219403784068
 20
1702.605266574655
 30
0.0
 11
759.435235315984
 21
1702.605266574655
 31
0.0
  0
LINE
  5
29D
330
1BD
100
AcDbEntity
  8
P-SANR-FIXT
100
AcDbLine
 10
759.435235315984
 20
1682.705266574655
 30
0.0
 11
762.8219403784068
 21
1682.705266574655
 31
0.0
  0
LINE
  5
29E
330
1BD
100
AcDbEntity
  8
P-SANR-FIXT
100
AcDbLine
 10
723.0394142967627
 20
1720.905266574656
 30
0.0
 11
722.2675048665871
 21
1720.905266574656
 31
0.0
  0
LINE
  5
29F
330
1BD
100
AcDbEntity
  8
P-SANR-FIXT
100
AcDbLine
 10
722.2675048665869
 20
1664.405266574655
 30
0.0
 11
723.0394142967626
 21
1664.405266574655
 31
0.0
  0
LWPOLYLINE
  5
2A0
330
1BD
100
AcDbEntity
  8
P-SANR-FIXT
100
AcDbPolyline
 90
       20
 70
   128
 43
0.0
 10
761.6219097585942
 20
1702.601396194751
 10
761.2891840183196
 20
1703.201261481134
 10
760.8771865201189
 20
1703.880446794926
 10
760.4394158548507
 20
1704.542433539118
 10
759.9764813177088
 20
1705.186148187825
 10
759.4890340335284
 20
1705.810535864882
 10
758.9777671891182
 20
1706.41456212502
 10
758.4434162108236
 20
1706.99721485214
 10
757.8867588687553
 20
1707.557506278668
 10
757.3086152871901
 20
1708.094475127636
 10
756.7098478389763
 20
1708.607188876342
 10
756.0913609004882
 20
1709.094746137128
 10
755.4541004428658
 20
1709.556279147076
 10
754.7990534351137
 20
1709.990956354265
 10
754.1272470351851
 20
1710.397985083872
 10
753.439747546588
 20
1710.7766142628
 10
752.7376591203553
 20
1711.126137177037
 10
752.0221221854875
 20
1711.445894231585
 10
751.2943115951888
 20
1711.735275678949
 10
750.8930509808749
 20
1711.875630877424
  0
LWPOLYLINE
  5
2A1
330
1BD
100
AcDbEntity
  8
P-SANR-FIXT
100
AcDbPolyline
 90
       21
 70
   128
 43
0.0
 10
750.8904204453888
 20
1673.431351303962
 10
750.9710509389927
 20
1673.457893657282
 10
751.7038729765271
 20
1673.733753309556
 10
752.424947752336
 20
1674.04023995652
 10
753.133085953239
 20
1674.376766592346
 10
753.8271317840066
 20
1674.742695184654
 10
754.5059649486894
 20
1675.137339377551
 10
755.1685023437327
 20
1675.559967242154
 10
755.8136994734215
 20
1676.009804039033
 10
756.4405516028119
 20
1676.486034960654
 10
757.0480946669889
 20
1676.987807826086
 10
757.6354059582175
 20
1677.51423570465
 10
758.2016046143508
 20
1678.064399449814
 10
758.7458519327726
 20
1678.637350129051
 10
759.2673515342974
 20
1679.232111339712
 10
759.7653494009031
 20
1679.84768140483
 10
760.2391338100869
 20
1680.483035446339
 10
760.68803518711
 20
1681.137127336162
 10
761.1114258945645
 20
1681.808891528211
 10
761.5087199766874
 20
1682.497244776333
 10
761.620306485322
 20
1682.709139463017
  0
LWPOLYLINE
  5
2A2
330
1BD
100
AcDbEntity
  8
P-SANR-FIXT
100
AcDbPolyline
 90
       11
 70
   128
 43
0.0
 10
757.5543974964624
 20
1698.742141420682
 10
757.4068652321288
 20
1699.360804991793
 10
757.1361559039217
 20
1700.331402326045
 10
756.8289999518432
 20
1701.29029656217
 10
756.4858192206115
 20
1702.236006206369
 10
756.1070871873046
 20
1703.167063070847
 10
755.6933290448613
 20
1704.082013941541
 10
755.2451217863393
 20
1704.979422297716
 10
754.7630942851928
 20
1705.857870091283
 10
754.2479273654004
 20
1706.715959593891
 10
753.73777163483
 20
1707.495163951425
  0
LWPOLYLINE
  5
2A3
330
1BD
100
AcDbEntity
  8
P-SANR-FIXT
100
AcDbPolyline
 90
       12
 70
   128
 43
0.0
 10
753.7510977590884
 20
1677.840691847591
 10
753.9470046989882
 20
1678.126147409282
 10
754.4803083736998
 20
1678.972304422404
 10
754.9808742264123
 20
1679.839588425862
 10
755.4479924845495
 20
1680.726613832918
 10
755.8810053578951
 20
1681.631973676309
 10
756.2793069773866
 20
1682.554241496609
 10
756.642343319627
 20
1683.491973158269
 10
756.9696121241712
 20
1684.44370860149
 10
757.2606628090972
 20
1685.407973537879
 10
757.5150963890292
 20
1686.383281097569
 10
757.5573594675814
 20
1686.574677985668
  0
LWPOLYLINE
  5
2A4
330
1BD
100
AcDbEntity
  8
P-SANR-FIXT
100
AcDbPolyline
 90
       26
 70
   128
 43
0.0
 10
763.6835309271151
 20
1701.649904754651
 10
763.5889263754817
 20
1701.647936166217
 10
763.2372448516912
 20
1701.625958711864
 10
762.8867543933505
 20
1701.589375466405
 10
762.5380468257965
 20
1701.538254995161
 10
762.1917095612904
 20
1701.472692888112
 10
761.8483241867293
 20
1701.39281136598
 10
761.5084650999103
 20
1701.298758784261
 10
761.1726982043285
 20
1701.190709042652
 10
760.8415796711766
 20
1701.068860908462
 10
760.515654775756
 20
1700.933437263545
 10
760.1954568139428
 20
1700.784684284913
 10
759.8815061027679
 20
1700.62287056962
 10
759.5743090675671
 20
1700.448286214566
 10
759.2743574166256
 20
1700.261241861796
 10
758.9821274028048
 20
1700.062067719452
 10
758.6980791703269
 20
1699.851112568013
 10
758.4226561837432
 20
1699.628742760707
 10
758.1562847351364
 20
1699.395341226157
 10
757.8993735248135
 20
1699.151306480333
 10
757.6523133101335
 20
1698.897051653943
 10
757.415476616707
 20
1698.633003540332
 10
757.189217505927
 20
1698.359601667988
 10
756.9738713927121
 20
1698.077297400754
 10
756.7697549073719
 20
1697.786553067972
 10
756.5771657956665
 20
1697.487841125903
  0
LWPOLYLINE
  5
2A5
330
1BD
100
AcDbEntity
  8
P-SANR-FIXT
100
AcDbPolyline
 90
       26
 70
   128
 43
0.0
 10
756.5895169069766
 20
1687.804865574218
 10
756.7421696336296
 20
1687.565214143398
 10
756.944694290042
 20
1687.273328896776
 10
757.1584912771498
 20
1686.9898183479
 10
757.3832465958185
 20
1686.715146289517
 10
757.6186274461925
 20
1686.449765667851
 10
757.8642823601452
 20
1686.194117717037
 10
758.119841377012
 20
1685.948631063412
 10
758.3849162686817
 20
1685.713720801713
 10
758.6591008201691
 20
1685.489787546197
 10
758.9419711717217
 20
1685.277216460604
 10
759.2330862282842
 20
1685.07637627193
 10
759.5319881417365
 20
1684.88761827396
 10
759.8382028707444
 20
1684.711275327534
 10
760.1512408222999
 20
1684.547660865456
 10
760.4705975780684
 20
1684.39706791083
 10
760.7957547075384
 20
1684.259768118358
 10
761.1261806686785
 20
1684.136010848702
 10
761.4613317953844
 20
1684.026022286431
 10
761.800653369475
 20
1683.930004612218
 10
762.1435807734101
 20
1683.848135239886
 10
762.4895407182997
 20
1683.780566128556
 10
762.8379525402132
 20
1683.727423179523
 10
763.1882295563151
 20
1683.688805726611
 10
763.5397804710184
 20
1683.664786127607
 10
763.8920108212024
 20
1683.655409463017
  0
LINE
  5
2A6
330
1BD
100
AcDbEntity
  8
P-SANR-FIXT
100
AcDbLine
 10
763.958419375042
 20
1701.655266574656
 30
0.0
 11
763.9412041760539
 21
1701.655266574656
 31
0.0
  0
LINE
  5
2A7
330
1BD
100
AcDbEntity
  8
P-SANR-FIXT
100
AcDbLine
 10
763.9412041760538
 20
1683.655266574656
 30
0.0
 11
763.958419375042
 21
1683.655266574656
 31
0.0
  0
LINE
  5
2A8
330
1BD
100
AcDbEntity
  8
P-SANR-FIXT
100
AcDbLine
 10
762.821940378405
 20
1703.305266574655
 30
0.0
 11
762.821940378405
 21
1701.575062537206
 31
0.0
  0
LINE
  5
2A9
330
1BD
100
AcDbEntity
  8
P-SANR-FIXT
100
AcDbLine
 10
762.821940378405
 20
1683.735346531992
 30
0.0
 11
762.821940378405
 21
1682.005266574655
 31
0.0
  0
SPLINE
  5
2AA
330
1BD
100
AcDbEntity
  8
P-SANR-FIXT
100
AcDbSpline
210
0.0
220
0.0
230
1.0
 70
     8
 71
     3
 72
    15
 73
    11
 74
     0
 42
0.000000001
 43
0.0000000001
 40
0.3345493334738215
 40
0.3345493334738215
 40
0.3345493334738215
 40
0.3345493334738215
 40
0.375
 40
0.5
 40
0.5625
 40
0.625
 40
0.6875
 40
0.75
 40
0.78125
 40
0.7860958686271607
 40
0.7860958686271607
 40
0.7860958686271607
 40
0.7860958686271607
 10
759.4356781978931
 20
1702.605299256595
 30
0.0
 10
759.3517102592333
 20
1702.6053223103
 30
0.0
 10
759.0264126729493
 20
1702.572782362189
 30
0.0
 10
758.6845023797596
 20
1702.335528469196
 30
0.0
 10
758.4597486680971
 20
1701.826597744513
 30
0.0
 10
758.3509804751988
 20
1701.323760134587
 30
0.0
 10
758.3037548572475
 20
1700.708205160499
 30
0.0
 10
758.3024218975241
 20
1700.105747530694
 30
0.0
 10
758.310535673111
 20
1699.689915898311
 30
0.0
 10
758.3163233561468
 20
1699.531882295959
 30
0.0
 10
758.3171442619937
 20
1699.51057310547
 30
0.0
  0
SPLINE
  5
2AB
330
1BD
100
AcDbEntity
  8
P-SANR-FIXT
100
AcDbSpline
210
0.0
220
0.0
230
1.0
 70
     8
 71
     3
 72
    18
 73
    14
 74
     0
 42
0.000000001
 43
0.0000000001
 40
0.2138926521457034
 40
0.2138926521457034
 40
0.2138926521457034
 40
0.2138926521457034
 40
0.21875
 40
0.25
 40
0.28125
 40
0.3125
 40
0.34375
 40
0.375
 40
0.40625
 40
0.4375
 40
0.5
 40
0.625
 40
0.6654506665261778
 40
0.6654506665261778
 40
0.6654506665261778
 40
0.6654506665261778
 10
758.3171426051214
 20
1685.799919647206
 30
0.0
 10
758.3163252555523
 20
1685.778630584081
 30
0.0
 10
758.3105584217557
 20
1685.62104603474
 30
0.0
 10
758.3045889247374
 20
1685.336450548817
 30
0.0
 10
758.3043847336568
 20
1684.963753303041
 30
0.0
 10
758.3094920940137
 20
1684.615820992235
 30
0.0
 10
758.3258021000564
 20
1684.294324842561
 30
0.0
 10
758.3586781946634
 20
1684.000863946831
 30
0.0
 10
758.4069105474291
 20
1683.735574822611
 30
0.0
 10
758.4869545315448
 20
1683.420195284763
 30
0.0
 10
758.685229105922
 20
1682.975069522983
 30
0.0
 10
759.0259198572984
 20
1682.737892366412
 30
0.0
 10
759.3519881277683
 20
1682.705110213719
 30
0.0
 10
759.4359388950302
 20
1682.705142903476
 30
0.0
  0
ELLIPSE
  5
2AC
330
1BD
100
AcDbEntity
  8
P-SANR-FIXT
100
AcDbEllipse
 10
721.9219403784051
 20
1692.655266574655
 30
0.0
 11
0.0
 21
26.49999999999977
 31
0.0
210
0.0
220
0.0
230
1.0
 40
0.9396926207859127
 41
4.712388980384685
 42
6.204645490839836
  0
ELLIPSE
  5
2AD
330
1BD
100
AcDbEntity
  8
P-SANR-FIXT
100
AcDbEllipse
 10
721.9219403784051
 20
1692.655266574655
 30
0.0
 11
0.0
 21
26.50000000000015
 31
0.0
210
0.0
220
0.0
230
1.0
 40
0.9396926207859054
 41
3.220132469929533
 42
4.712388980384668
  0
LWPOLYLINE
  5
2AE
330
1BD
100
AcDbEntity
  8
P-SANR-FIXT
100
AcDbPolyline
 90
        3
 70
   128
 43
0.0
 10
757.8769843054928
 20
1696.51231699768
 10
757.8210610867127
 20
1696.302810418736
 10
757.768278125799
 20
1696.090911333008
  0
LWPOLYLINE
  5
2AF
330
1BD
100
AcDbEntity
  8
P-SANR-FIXT
100
AcDbPolyline
 90
        3
 70
   128
 43
0.0
 10
757.768278125799
 20
1696.090911333008
 10
757.2382141234397
 20
1694.406565167534
 10
757.0592454556507
 20
1692.655266574655
  0
LWPOLYLINE
  5
2B0
330
1BD
100
AcDbEntity
  8
P-SANR-FIXT
100
AcDbPolyline
 90
        3
 70
   128
 43
0.0
 10
757.0592454556507
 20
1692.655266574655
 10
757.2382141234397
 20
1690.903967981776
 10
757.7682781257989
 20
1689.219621816302
  0
LWPOLYLINE
  5
2B1
330
1BD
100
AcDbEntity
  8
P-SANR-FIXT
100
AcDbPolyline
 90
        3
 70
   128
 43
0.0
 10
757.768278125799
 20
1689.219621816302
 10
757.8199302006306
 20
1689.012109830623
 10
757.8745938735274
 20
1688.806889027196
  0
ELLIPSE
  5
2B2
330
1BD
100
AcDbEntity
  8
P-SANR-FIXT
100
AcDbEllipse
 10
766.266010583368
 20
1692.655266574655
 30
0.0
 11
0.0000000000028763
 21
9.0
 31
0.0
210
0.0
220
0.0
230
1.0
 40
0.9612616959383078
 41
1.293801407402755
 42
1.570796326795229
  0
ELLIPSE
  5
2B3
330
1BD
100
AcDbEntity
  8
P-SANR-FIXT
100
AcDbEllipse
 10
766.266010583368
 20
1692.655266574655
 30
0.0
 11
0.0
 21
8.999999999999902
 31
0.0
210
0.0
220
0.0
230
1.0
 40
0.961261695938332
 41
1.154375510738974
 42
1.178097245096201
  0
ELLIPSE
  5
2B4
330
1BD
100
AcDbEntity
  8
P-SANR-FIXT
100
AcDbEllipse
 10
766.266010583368
 20
1692.655266574655
 30
0.0
 11
0.0
 21
8.999999999999836
 31
0.0
210
0.0
220
0.0
230
1.0
 40
0.961261695938332
 41
1.013765638418156
 42
1.047197551196616
  0
ELLIPSE
  5
2B5
330
1BD
100
AcDbEntity
  8
P-SANR-FIXT
100
AcDbEllipse
 10
766.266010583368
 20
1692.655266574655
 30
0.0
 11
0.0
 21
8.99999999999968
 31
0.0
210
0.0
220
0.0
230
1.0
 40
0.9612616959383567
 41
2.09439510239325
 42
2.12782701517171
  0
ELLIPSE
  5
2B6
330
1BD
100
AcDbEntity
  8
P-SANR-FIXT
100
AcDbEllipse
 10
766.266010583368
 20
1692.655266574655
 30
0.0
 11
0.0
 21
8.999999999999744
 31
0.0
210
0.0
220
0.0
230
1.0
 40
0.9612616959383357
 41
1.963495408493664
 42
1.987217142850891
  0
ELLIPSE
  5
2B7
330
1BD
100
AcDbEntity
  8
P-SANR-FIXT
100
AcDbEllipse
 10
766.266010583368
 20
1692.655266574655
 30
0.0
 11
0.0
 21
9.000000000000063
 31
0.0
210
0.0
220
0.0
230
1.0
 40
0.9612616959383013
 41
1.570796326794916
 42
1.847791246187444
  0
LINE
  5
2B8
330
1BD
100
AcDbEntity
  8
P-SANR-FIXT
100
AcDbLine
 10
757.8745938735274
 20
1688.806889027196
 30
0.0
 11
757.768278125799
 21
1688.806889027196
 31
0.0
  0
LINE
  5
2B9
330
1BD
100
AcDbEntity
  8
P-SANR-FIXT
100
AcDbLine
 10
757.768278125799
 20
1688.806889027196
 30
0.0
 11
754.2885478254962
 21
1688.806889027196
 31
0.0
  0
LINE
  5
2BA
330
1BD
100
AcDbEntity
  8
P-SANR-FIXT
100
AcDbLine
 10
754.2874554443856
 20
1696.51231699768
 30
0.0
 11
757.768278125799
 21
1696.51231699768
 31
0.0
  0
LINE
  5
2BB
330
1BD
100
AcDbEntity
  8
P-SANR-FIXT
100
AcDbLine
 10
757.768278125799
 20
1696.51231699768
 30
0.0
 11
757.8769843054928
 21
1696.51231699768
 31
0.0
  0
LINE
  5
2BC
330
1BD
100
AcDbEntity
  8
P-SANR-FIXT
100
AcDbLine
 10
757.768278125799
 20
1689.219621816302
 30
0.0
 11
757.768278125799
 21
1688.806889027196
 31
0.0
  0
LINE
  5
2BD
330
1BD
100
AcDbEntity
  8
P-SANR-FIXT
100
AcDbLine
 10
757.768278125799
 20
1696.51231699768
 30
0.0
 11
757.768278125799
 21
1696.090911333008
 31
0.0
  0
LINE
  5
2BE
330
1BD
100
AcDbEntity
  8
P-SANR-FIXT
100
AcDbLine
 10
729.2617287868028
 20
1722.655266574656
 30
0.0
 11
721.9022520355232
 21
1722.655266574656
 31
0.0
  0
LINE
  5
2BF
330
1BD
100
AcDbEntity
  8
P-SANR-FIXT
100
AcDbLine
 10
721.9022520355236
 20
1662.655266574655
 30
0.0
 11
729.2617287868031
 21
1662.655266574655
 31
0.0
  0
ELLIPSE
  5
2C0
330
1BD
100
AcDbEntity
  8
P-SANR-FIXT
100
AcDbEllipse
 10
721.9022520355217
 20
1692.655266574655
 30
0.0
 11
0.0
 21
29.9999999999997
 31
0.0
210
0.0
220
0.0
230
1.0
 40
0.939692620785922
 41
4.712388980384685
 42
7.154126537528306
  0
ELLIPSE
  5
2C1
330
1BD
100
AcDbEntity
  8
P-SANR-FIXT
100
AcDbEllipse
 10
721.9022520355217
 20
1692.655266574655
 30
0.0
 11
0.0
 21
30.00000000000023
 31
0.0
210
0.0
220
0.0
230
1.0
 40
0.9396926207859038
 41
2.270756208926226
 42
4.712388980384685
  0
ELLIPSE
  5
2C2
330
1BD
100
AcDbEntity
  8
P-SANR-FIXT
100
AcDbEllipse
 10
729.2617287868011
 20
1692.655266574655
 30
0.0
 11
0.0
 21
29.99999999999983
 31
0.0
210
0.0
220
0.0
230
1.0
 40
0.9396926207859204
 41
4.890901994732832
 42
6.283185307179588
  0
ELLIPSE
  5
2C3
330
1BD
100
AcDbEntity
  8
P-SANR-FIXT
100
AcDbEllipse
 10
729.2617287868011
 20
1692.655266574655
 30
0.0
 11
0.0
 21
30.00000000000023
 31
0.0
210
0.0
220
0.0
230
1.0
 40
0.9396926207859076
 41
3.141592653589796
 42
4.533882887599118
  0
ELLIPSE
  5
2C4
330
1BD
100
AcDbEntity
  8
P-SANR-FIXT
100
AcDbEllipse
 10
721.9022520355217
 20
1692.655266574655
 30
0.0
 11
0.0
 21
28.0
 31
0.0
210
0.0
220
0.0
230
1.0
 40
0.9396926207859094
 41
4.712388980384685
 42
7.007684348788878
  0
ELLIPSE
  5
2C5
330
1BD
100
AcDbEntity
  8
P-SANR-FIXT
100
AcDbEllipse
 10
721.9022520355217
 20
1692.655266574655
 30
0.0
 11
0.0
 21
28.00000000000039
 31
0.0
210
0.0
220
0.0
230
0.9999999999999998
 40
0.9396926207859001
 41
2.417093611955841
 42
4.712388980384685
  0
ENDBLK
  5
2C7
330
1BD
100
AcDbEntity
  8
0
100
AcDbBlockEnd
  0
BLOCK
  5
39D
330
2C9
100
AcDbEntity
  8
0
100
AcDbBlockBegin
  2
Automatic flow rate regulator valve_Caleffi_121 DN15 - 2___Pressure gauge H-V2-Est - Idraulica
 70
     0
 10
0.0
 20
0.0
 30
0.0
  3
Automatic flow rate regulator valve_Caleffi_121 DN15 - 2___Pressure gauge H-V2-Est - Idraulica
  1

  0
LINE
  5
2CA
330
2C9
100
AcDbEntity
  8
M-PIPE
100
AcDbLine
 10
1156.146067216803
 20
2089.934687969427
 30
0.0
 11
1156.457458707649
 21
2091.808135501196
 31
0.0
1001
REVIT
1002
{
1070
     3
1000
923097
1002
}
  0
LINE
  5
2CB
330
2C9
100
AcDbEntity
  8
M-PIPE
100
AcDbLine
 10
1156.466656125265
 20
2091.863470601342
 30
0.0
 11
1156.526138285318
 21
2092.221337496273
 31
0.0
1001
REVIT
1002
{
1070
     3
1000
923097
1002
}
  0
LINE
  5
2CC
330
2C9
100
AcDbEntity
  8
M-PIPE
100
AcDbLine
 10
1198.082640669477
 20
2089.934687969425
 30
0.0
 11
1197.77124917863
 21
2091.808135501196
 31
0.0
1001
REVIT
1002
{
1070
     3
1000
923097
1002
}
  0
LINE
  5
2CD
330
2C9
100
AcDbEntity
  8
M-PIPE
100
AcDbLine
 10
1197.762051761015
 20
2091.863470601341
 30
0.0
 11
1197.702569600962
 21
2092.221337496271
 31
0.0
1001
REVIT
1002
{
1070
     3
1000
923097
1002
}
  0
LWPOLYLINE
  5
2CE
330
2C9
100
AcDbEntity
  8
M-PIPE
100
AcDbPolyline
 90
       37
 70
   128
 43
0.0
 10
1159.826148068565
 20
2107.576415784869
 10
1160.125852407205
 20
2108.1823751017
 10
1160.463680999358
 20
2108.731059572105
 10
1160.82854073691
 20
2109.224828617886
 10
1161.212123130457
 20
2109.668425814596
 10
1161.608716296514
 20
2110.067600193628
 10
1162.014711487519
 20
2110.42818618185
 10
1162.428049562364
 20
2110.755585933435
 10
1162.847732368587
 20
2111.054536766733
 10
1163.273440966469
 20
2111.329053177327
 10
1163.705259110995
 20
2111.582462390621
 10
1164.143483406911
 20
2111.817481921363
 10
1164.588498463842
 20
2112.036309682569
 10
1165.040698084913
 20
2112.240711494019
 10
1165.500437810021
 20
2112.432099275225
 10
1165.968008195378
 20
2112.611597800695
 10
1166.443621463478
 20
2112.780100187077
 10
1166.927406556937
 20
2112.938313282997
 10
1167.419409317123
 20
2113.086794453666
 10
1167.919595660282
 20
2113.22598124158
 10
1168.427856394181
 20
2113.356215230796
 10
1168.94401282596
 20
2113.477761242572
 10
1169.467822642516
 20
2113.590822791463
 10
1169.998985757654
 20
2113.695554553108
 10
1170.537149955886
 20
2113.792072444238
 10
1171.081916247814
 20
2113.880461791591
 10
1171.632843904523
 20
2113.960783966642
 10
1172.189455169822
 20
2114.033081783464
 10
1172.751239667305
 20
2114.097383894005
 10
1173.317658528893
 20
2114.153708365222
 10
1173.888148276128
 20
2114.202065583148
 10
1174.462124486943
 20
2114.242460597771
 10
1175.038985280398
 20
2114.274894997698
 10
1175.618114650726
 20
2114.299368383661
 10
1176.198885680532
 20
2114.31587949364
 10
1176.780663661445
 20
2114.324427018981
 10
1177.114353943141
 20
2114.325735499309
1001
REVIT
1002
{
1070
     3
1000
923097
1002
}
  0
LWPOLYLINE
  5
2CF
330
2C9
100
AcDbEntity
  8
M-PIPE
100
AcDbPolyline
 90
       37
 70
   128
 43
0.0
 10
1194.403203297815
 20
2107.574937797647
 10
1194.103602713006
 20
2108.181030435656
 10
1193.765848979303
 20
2108.729846819441
 10
1193.40104147123
 20
2109.223738892586
 10
1193.017495127544
 20
2109.667446452391
 10
1192.620927367396
 20
2110.066717433114
 10
1192.214951184968
 20
2110.427386798852
 10
1191.801628725086
 20
2110.754858068203
 10
1191.381960124718
 20
2111.053870225072
 10
1190.956265546523
 20
2111.328439431698
 10
1190.524461923567
 20
2111.581894433449
 10
1190.0862529806
 20
2111.816954061674
 10
1189.641254206725
 20
2112.03581733524
 10
1189.189071755266
 20
2112.240250985284
 10
1188.729349959745
 20
2112.431667673579
 10
1188.261798092999
 20
2112.611192774819
 10
1187.786203741803
 20
2112.779719888881
 10
1187.302437768257
 20
2112.937956252483
 10
1186.81045414026
 20
2113.086459542071
 10
1186.310286760552
 20
2113.225667549505
 10
1185.802044652743
 20
2113.355922058438
 10
1185.285906354603
 20
2113.477488049682
 10
1184.762114037892
 20
2113.590569165072
 10
1184.230967660889
 20
2113.695320181472
 10
1183.692819324001
 20
2113.791857095742
 10
1183.148067913652
 20
2113.880265297632
 10
1182.597154067129
 20
2113.960606207713
 10
1182.040555459609
 20
2114.032922677829
 10
1181.478782396414
 20
2114.097243388471
 10
1180.912373683858
 20
2114.153586427641
 10
1180.341892747409
 20
2114.201962196342
 10
1179.767923964464
 20
2114.242375754644
 10
1179.191069179222
 20
2114.274828697359
 10
1178.611944368324
 20
2114.299320628418
 10
1178.031176427405
 20
2114.315850286748
 10
1177.449400050257
 20
2114.324416363075
 10
1177.114353943141
 20
2114.325735499309
1001
REVIT
1002
{
1070
     3
1000
923097
1002
}
  0
ELLIPSE
  5
2D0
330
2C9
100
AcDbEntity
  8
M-PIPE
100
AcDbEllipse
 10
1177.114353943138
 20
2089.540109991903
 30
0.0
 11
21.0000000000005
 21
0.0
 31
0.0
210
0.0
220
0.0
230
1.0
 40
0.3420201433256454
 41
3.086628371787376
 42
3.405301730738882
1001
REVIT
1002
{
1070
     3
1000
923097
1002
}
  0
ELLIPSE
  5
2D1
330
2C9
100
AcDbEntity
  8
M-PIPE
100
AcDbEllipse
 10
1177.114353943138
 20
2089.540109991903
 30
0.0
 11
21.00000000000039
 21
0.0
 31
0.0
210
0.0
220
0.0
230
1.0
 40
0.3420201433256573
 41
3.455751918948646
 42
3.465246563775016
1001
REVIT
1002
{
1070
     3
1000
923097
1002
}
  0
ELLIPSE
  5
2D2
330
2C9
100
AcDbEntity
  8
M-PIPE
100
AcDbEllipse
 10
1177.114353943138
 20
2089.540109991903
 30
0.0
 11
21.00000000000023
 21
0.0
 31
0.0
210
0.0
220
0.0
230
1.0
 40
0.3420201433256469
 41
3.476136082572523
 42
3.534291735288384
1001
REVIT
1002
{
1070
     3
1000
923097
1002
}
  0
ELLIPSE
  5
2D3
330
2C9
100
AcDbEntity
  8
M-PIPE
100
AcDbEllipse
 10
1177.114353943138
 20
2089.540109991903
 30
0.0
 11
21.0000000000002
 21
0.0
 31
0.0
210
0.0
220
0.0
230
1.0
 40
0.3420201433256443
 41
3.549352296350628
 42
3.612831551628189
1001
REVIT
1002
{
1070
     3
1000
923097
1002
}
  0
ELLIPSE
  5
2D4
330
2C9
100
AcDbEntity
  8
M-PIPE
100
AcDbEllipse
 10
1177.114353943138
 20
2089.540109991903
 30
0.0
 11
21.00000000000024
 21
0.0
 31
0.0
210
0.0
220
0.0
230
1.0
 40
0.3420201433256632
 41
3.622343444315152
 42
3.691371367967906
1001
REVIT
1002
{
1070
     3
1000
923097
1002
}
  0
ELLIPSE
  5
2D5
330
2C9
100
AcDbEntity
  8
M-PIPE
100
AcDbEllipse
 10
1177.114353943138
 20
2089.540109991903
 30
0.0
 11
21.00000000000026
 21
0.0
 31
0.0
210
0.0
220
0.0
230
1.0
 40
0.3420201433256571
 41
3.695152940250301
 42
3.839514378397432
1001
REVIT
1002
{
1070
     3
1000
923097
1002
}
  0
ELLIPSE
  5
2D6
330
2C9
100
AcDbEntity
  8
M-PIPE
100
AcDbEllipse
 10
1177.114353943138
 20
2089.540109991903
 30
0.0
 11
21.00000000000022
 21
0.0
 31
0.0
210
0.0
220
0.0
230
0.9999999999999998
 40
0.3420201433256503
 41
3.84845100064744
 42
3.91131223384486
1001
REVIT
1002
{
1070
     3
1000
923097
1002
}
  0
ELLIPSE
  5
2D7
330
2C9
100
AcDbEntity
  8
M-PIPE
100
AcDbEllipse
 10
1177.114353943138
 20
2089.540109991903
 30
0.0
 11
21.00000000000017
 21
0.0
 31
0.0
210
0.0
220
0.0
230
1.0
 40
0.3420201433256544
 41
3.926990816987186
 42
3.982892299804053
1001
REVIT
1002
{
1070
     3
1000
923097
1002
}
  0
ELLIPSE
  5
2D8
330
2C9
100
AcDbEntity
  8
M-PIPE
100
AcDbEllipse
 10
1177.114353943138
 20
2089.540109991903
 30
0.0
 11
21.00000000000034
 21
0.0
 31
0.0
210
0.0
220
0.0
230
1.0
 40
0.3420201433256434
 41
4.00553063332693
 42
4.054432902186436
1001
REVIT
1002
{
1070
     3
1000
923097
1002
}
  0
ELLIPSE
  5
2D9
330
2C9
100
AcDbEntity
  8
M-PIPE
100
AcDbEllipse
 10
1177.114353943138
 20
2089.540109991903
 30
0.0
 11
21.0000000000001
 21
0.0
 31
0.0
210
0.0
220
0.0
230
1.0
 40
0.3420201433256528
 41
4.126111796639861
 42
4.241150082346185
1001
REVIT
1002
{
1070
     3
1000
923097
1002
}
  0
ELLIPSE
  5
2DA
330
2C9
100
AcDbEntity
  8
M-PIPE
100
AcDbEllipse
 10
1177.114353943138
 20
2089.540109991903
 30
0.0
 11
21.00000000000016
 21
0.0
 31
0.0
210
0.0
220
0.0
230
1.0
 40
0.3420201433256643
 41
4.270599735171694
 42
4.319689898685904
1001
REVIT
1002
{
1070
     3
1000
923097
1002
}
  0
ELLIPSE
  5
2DB
330
2C9
100
AcDbEntity
  8
M-PIPE
100
AcDbEllipse
 10
1177.114353943138
 20
2089.540109991903
 30
0.0
 11
21.00000000000019
 21
0.0
 31
0.0
210
0.0
220
0.0
230
1.0
 40
0.3420201433256396
 41
4.343544134187207
 42
4.398229715025689
1001
REVIT
1002
{
1070
     3
1000
923097
1002
}
  0
ELLIPSE
  5
2DC
330
2C9
100
AcDbEntity
  8
M-PIPE
100
AcDbEllipse
 10
1177.114353943138
 20
2089.540109991903
 30
0.0
 11
21.00000000000005
 21
0.0
 31
0.0
210
0.0
220
0.0
230
1.0
 40
0.3420201433256485
 41
4.416769583969703
 42
4.476769531365429
1001
REVIT
1002
{
1070
     3
1000
923097
1002
}
  0
ELLIPSE
  5
2DD
330
2C9
100
AcDbEntity
  8
M-PIPE
100
AcDbEllipse
 10
1177.114353943138
 20
2089.540109991903
 30
0.0
 11
21.0000000000002
 21
0.0
 31
0.0
210
0.0
220
0.0
230
1.0
 40
0.3420201433256388
 41
4.49027048148034
 42
4.555309347705184
1001
REVIT
1002
{
1070
     3
1000
923097
1002
}
  0
ELLIPSE
  5
2DE
330
2C9
100
AcDbEntity
  8
M-PIPE
100
AcDbEllipse
 10
1177.114353943138
 20
2089.540109991903
 30
0.0
 11
21.00000000000017
 21
0.0
 31
0.0
210
0.0
220
0.0
230
0.9999999999999998
 40
0.3420201433256511
 41
4.564042631754569
 42
4.633849164044926
1001
REVIT
1002
{
1070
     3
1000
923097
1002
}
  0
ELLIPSE
  5
2DF
330
2C9
100
AcDbEntity
  8
M-PIPE
100
AcDbEllipse
 10
1177.114353943138
 20
2089.540109991903
 30
0.0
 11
21.00000000000003
 21
0.0
 31
0.0
210
0.0
220
0.0
230
1.0
 40
0.3420201433256631
 41
4.638082904734979
 42
4.712388980384661
1001
REVIT
1002
{
1070
     3
1000
923097
1002
}
  0
SPLINE
  5
2E0
330
2C9
100
AcDbEntity
  8
M-PIPE
100
AcDbSpline
210
0.0
220
0.0
230
1.0
 70
     8
 71
     3
 72
     9
 73
     5
 74
     0
 42
0.000000001
 43
0.0000000001
 40
-1.0
 40
-1.0
 40
-1.0
 40
-1.0
 40
-0.5
 40
0.0
 40
0.0
 40
0.0
 40
0.0
 10
1170.967881533403
 20
2100.277112636058
 30
0.0
 10
1171.441547525568
 20
2097.737931608161
 30
0.0
 10
1172.015752274609
 20
2092.614818677163
 30
0.0
 10
1172.158159486135
 20
2087.503352305464
 30
0.0
 10
1172.19050678841
 20
2084.958419682273
 30
0.0
1001
REVIT
1002
{
1070
     3
1000
923097
1002
}
  0
ELLIPSE
  5
2E1
330
2C9
100
AcDbEntity
  8
M-PIPE
100
AcDbEllipse
 10
1177.114353943138
 20
2091.80813550119
 30
0.0
 11
20.62363164634415
 21
0.0
 31
0.0
210
0.0
220
0.0
230
1.0
 40
0.34202014332564
 41
3.906267608946871
 42
4.471312800624225
1001
REVIT
1002
{
1070
     3
1000
923097
1002
}
  0
SPLINE
  5
2E2
330
2C9
100
AcDbEntity
  8
M-PIPE
100
AcDbSpline
210
0.0
220
0.0
230
1.0
 70
     8
 71
     3
 72
     9
 73
     5
 74
     0
 42
0.000000001
 43
0.0000000001
 40
-1.0
 40
-1.0
 40
-1.0
 40
-1.0
 40
-0.5
 40
0.0
 40
0.0
 40
0.0
 40
0.0
 10
1162.232188221506
 20
2086.924843258683
 30
0.0
 10
1162.583368408027
 20
2089.394042464519
 30
0.0
 10
1163.514952419097
 20
2094.29343270642
 30
0.0
 10
1164.963268052676
 20
2099.017167796928
 30
0.0
 10
1165.791886764009
 20
2101.299192626523
 30
0.0
1001
REVIT
1002
{
1070
     3
1000
923097
1002
}
  0
SPLINE
  5
2E3
330
2C9
100
AcDbEntity
  8
M-PIPE
100
AcDbSpline
210
0.0
220
0.0
230
1.0
 70
     8
 71
     3
 72
     9
 73
     5
 74
     0
 42
0.000000001
 43
0.0000000001
 40
-1.0
 40
-1.0
 40
-1.0
 40
-1.0
 40
-0.5
 40
0.0
 40
0.0
 40
0.0
 40
0.0
 10
1159.645414354292
 20
2104.940339927756
 30
0.0
 10
1159.290461635126
 20
2102.37771713333
 30
0.0
 10
1158.416350750589
 20
2097.31382529388
 30
0.0
 10
1157.627173951045
 20
2092.330073551696
 30
0.0
 10
1157.3083410668
 20
2089.841711924793
 30
0.0
1001
REVIT
1002
{
1070
     3
1000
923097
1002
}
  0
ELLIPSE
  5
2E4
330
2C9
100
AcDbEntity
  8
M-PIPE
100
AcDbEllipse
 10
1177.114353943138
 20
2091.80813550119
 30
0.0
 11
20.62363164634423
 21
0.0
 31
0.0
210
0.0
220
0.0
230
1.0
 40
0.3420201433256311
 41
2.859070057751092
 42
3.424115249427289
1001
REVIT
1002
{
1070
     3
1000
923097
1002
}
  0
SPLINE
  5
2E5
330
2C9
100
AcDbEntity
  8
M-PIPE
100
AcDbSpline
210
0.0
220
0.0
230
1.0
 70
     8
 71
     3
 72
     9
 73
     5
 74
     0
 42
0.000000001
 43
0.0000000001
 40
-1.0
 40
-1.0
 40
-1.0
 40
-1.0
 40
-0.5
 40
0.0
 40
0.0
 40
0.0
 40
0.0
 10
1157.308341066807
 20
2093.774559077598
 30
0.0
 10
1157.627173951051
 20
2096.111453869793
 30
0.0
 10
1158.416350750594
 20
2100.67105335238
 30
0.0
 10
1159.29046163513
 20
2104.936189510845
 30
0.0
 10
1159.645414354295
 20
2106.984499908662
 30
0.0
1001
REVIT
1002
{
1070
     3
1000
923097
1002
}
  0
SPLINE
  5
2E6
330
2C9
100
AcDbEntity
  8
M-PIPE
100
AcDbSpline
210
0.0
220
0.0
230
1.0
 70
     8
 71
     3
 72
     9
 73
     5
 74
     0
 42
0.000000001
 43
0.0000000001
 40
-1.0
 40
-1.0
 40
-1.0
 40
-1.0
 40
-0.5
 40
0.0
 40
0.0
 40
0.0
 40
0.0
 10
1194.583293531982
 20
2106.984499908661
 30
0.0
 10
1194.938246251147
 20
2104.936189510844
 30
0.0
 10
1195.812357135682
 20
2100.671053352378
 30
0.0
 10
1196.601533935225
 20
2096.111453869792
 30
0.0
 10
1196.920366819469
 20
2093.774559077596
 30
0.0
1001
REVIT
1002
{
1070
     3
1000
923097
1002
}
  0
ELLIPSE
  5
2E7
330
2C9
100
AcDbEntity
  8
M-PIPE
100
AcDbEllipse
 10
1177.114353943138
 20
2091.80813550119
 30
0.0
 11
20.62363164634426
 21
0.0
 31
0.0
210
0.0
220
0.0
230
1.0
 40
0.3420201433256382
 41
6.000662711341896
 42
6.565707903018092
1001
REVIT
1002
{
1070
     3
1000
923097
1002
}
  0
SPLINE
  5
2E8
330
2C9
100
AcDbEntity
  8
M-PIPE
100
AcDbSpline
210
0.0
220
0.0
230
1.0
 70
     8
 71
     3
 72
     9
 73
     5
 74
     0
 42
0.000000001
 43
0.0000000001
 40
-1.0
 40
-1.0
 40
-1.0
 40
-1.0
 40
-0.5
 40
0.0
 40
0.0
 40
0.0
 40
0.0
 10
1196.920366819475
 20
2089.841711924792
 30
0.0
 10
1196.60153393523
 20
2092.330073551696
 30
0.0
 10
1195.812357135687
 20
2097.313825293879
 30
0.0
 10
1194.938246251151
 20
2102.377717133329
 30
0.0
 10
1194.583293531985
 20
2104.940339927755
 30
0.0
1001
REVIT
1002
{
1070
     3
1000
923097
1002
}
  0
SPLINE
  5
2E9
330
2C9
100
AcDbEntity
  8
M-PIPE
100
AcDbSpline
210
0.0
220
0.0
230
1.0
 70
     8
 71
     3
 72
     9
 73
     5
 74
     0
 42
0.000000001
 43
0.0000000001
 40
-1.0
 40
-1.0
 40
-1.0
 40
-1.0
 40
-0.5
 40
0.0
 40
0.0
 40
0.0
 40
0.0
 10
1188.436821122268
 20
2101.299192626522
 30
0.0
 10
1189.2654398336
 20
2099.017167796928
 30
0.0
 10
1190.713755467179
 20
2094.293432706419
 30
0.0
 10
1191.645339478249
 20
2089.394042464518
 30
0.0
 10
1191.996519664769
 20
2086.924843258682
 30
0.0
1001
REVIT
1002
{
1070
     3
1000
923097
1002
}
  0
ELLIPSE
  5
2EA
330
2C9
100
AcDbEntity
  8
M-PIPE
100
AcDbEllipse
 10
1177.114353943138
 20
2091.80813550119
 30
0.0
 11
20.62363164634414
 21
0.0
 31
0.0
210
0.0
220
0.0
230
1.0
 40
0.3420201433256506
 41
4.953465160145132
 42
5.518510351822425
1001
REVIT
1002
{
1070
     3
1000
923097
1002
}
  0
SPLINE
  5
2EB
330
2C9
100
AcDbEntity
  8
M-PIPE
100
AcDbSpline
210
0.0
220
0.0
230
1.0
 70
     8
 71
     3
 72
     9
 73
     5
 74
     0
 42
0.000000001
 43
0.0000000001
 40
-1.0
 40
-1.0
 40
-1.0
 40
-1.0
 40
-0.5
 40
0.0
 40
0.0
 40
0.0
 40
0.0
 10
1182.038201097866
 20
2084.958419682273
 30
0.0
 10
1182.070548400141
 20
2087.503352305464
 30
0.0
 10
1182.212955611666
 20
2092.614818677163
 30
0.0
 10
1182.787160360708
 20
2097.737931608161
 30
0.0
 10
1183.260826352873
 20
2100.277112636058
 30
0.0
1001
REVIT
1002
{
1070
     3
1000
923097
1002
}
  0
ELLIPSE
  5
2EC
330
2C9
100
AcDbEntity
  8
M-PIPE
100
AcDbEllipse
 10
1177.114353943138
 20
2089.540109991903
 30
0.0
 11
-21.00000000000023
 21
0.0000000000008546
 31
0.0
210
0.0
220
0.0
230
1.0
 40
0.3420201433256467
 41
1.57079632679489
 42
1.645276606226073
1001
REVIT
1002
{
1070
     3
1000
923097
1002
}
  0
ELLIPSE
  5
2ED
330
2C9
100
AcDbEntity
  8
M-PIPE
100
AcDbEllipse
 10
1177.114353943138
 20
2089.540109991903
 30
0.0
 11
21.00000000000004
 21
0.0
 31
0.0
210
0.0
220
0.0
230
1.0
 40
0.3420201433256543
 41
4.790928796724419
 42
4.861032610083222
1001
REVIT
1002
{
1070
     3
1000
923097
1002
}
  0
ELLIPSE
  5
2EE
330
2C9
100
AcDbEntity
  8
M-PIPE
100
AcDbEllipse
 10
1177.114353943138
 20
2089.540109991903
 30
0.0
 11
21.00000000000032
 21
0.0
 31
0.0
210
0.0
220
0.0
230
1.0
 40
0.3420201433256333
 41
4.869468613064158
 42
4.934877297067153
1001
REVIT
1002
{
1070
     3
1000
923097
1002
}
  0
ELLIPSE
  5
2EF
330
2C9
100
AcDbEntity
  8
M-PIPE
100
AcDbEllipse
 10
1177.114353943138
 20
2089.540109991903
 30
0.0
 11
21.00000000000016
 21
0.0
 31
0.0
210
0.0
220
0.0
230
1.0
 40
0.3420201433256322
 41
4.948008429403895
 42
5.008400586423995
1001
REVIT
1002
{
1070
     3
1000
923097
1002
}
  0
ELLIPSE
  5
2F0
330
2C9
100
AcDbEntity
  8
M-PIPE
100
AcDbEllipse
 10
1177.114353943138
 20
2089.540109991903
 30
0.0
 11
21.00000000000029
 21
0.0
 31
0.0
210
0.0
220
0.0
230
1.0
 40
0.3420201433256524
 41
5.019632722440689
 42
5.081598461669862
1001
REVIT
1002
{
1070
     3
1000
923097
1002
}
  0
ELLIPSE
  5
2F1
330
2C9
100
AcDbEntity
  8
M-PIPE
100
AcDbEllipse
 10
1177.114353943138
 20
2089.540109991903
 30
0.0
 11
21.00000000000022
 21
0.0
 31
0.0
210
0.0
220
0.0
230
1.0
 40
0.3420201433256309
 41
5.105088062083382
 42
5.154465237885641
1001
REVIT
1002
{
1070
     3
1000
923097
1002
}
  0
ELLIPSE
  5
2F2
330
2C9
100
AcDbEntity
  8
M-PIPE
100
AcDbEllipse
 10
1177.114353943138
 20
2089.540109991903
 30
0.0
 11
21.00000000000024
 21
0.0
 31
0.0
210
0.0
220
0.0
230
0.9999999999999998
 40
0.3420201433256564
 41
5.183627878423108
 42
5.226776427508054
1001
REVIT
1002
{
1070
     3
1000
923097
1002
}
  0
ELLIPSE
  5
2F3
330
2C9
100
AcDbEntity
  8
M-PIPE
100
AcDbEllipse
 10
1177.114353943138
 20
2089.540109991903
 30
0.0
 11
21.00000000000019
 21
0.0
 31
0.0
210
0.0
220
0.0
230
1.0
 40
0.3420201433256464
 41
5.298474969277579
 42
5.419247327442342
1001
REVIT
1002
{
1070
     3
1000
923097
1002
}
  0
ELLIPSE
  5
2F4
330
2C9
100
AcDbEntity
  8
M-PIPE
100
AcDbEllipse
 10
1177.114353943138
 20
2089.540109991903
 30
0.0
 11
21.00000000000028
 21
0.0
 31
0.0
210
0.0
220
0.0
230
1.0
 40
0.3420201433256409
 41
5.440999336375042
 42
5.497787143782063
1001
REVIT
1002
{
1070
     3
1000
923097
1002
}
  0
ELLIPSE
  5
2F5
330
2C9
100
AcDbEntity
  8
M-PIPE
100
AcDbEllipse
 10
1177.114353943138
 20
2089.540109991903
 30
0.0
 11
21.00000000000032
 21
0.0
 31
0.0
210
0.0
220
0.0
230
1.0
 40
0.3420201433256356
 41
5.512306781781989
 42
5.72854611117846
1001
REVIT
1002
{
1070
     3
1000
923097
1002
}
  0
ELLIPSE
  5
2F6
330
2C9
100
AcDbEntity
  8
M-PIPE
100
AcDbEllipse
 10
1177.114353943138
 20
2089.540109991903
 30
0.0
 11
21.00000000000012
 21
0.0
 31
0.0
210
0.0
220
0.0
230
1.0
 40
0.342020143325629
 41
5.733406592801248
 42
5.801514727854756
1001
REVIT
1002
{
1070
     3
1000
923097
1002
}
  0
ELLIPSE
  5
2F7
330
2C9
100
AcDbEntity
  8
M-PIPE
100
AcDbEllipse
 10
1177.114353943138
 20
2089.540109991903
 30
0.0
 11
21.00000000000014
 21
0.0
 31
0.0
210
0.0
220
0.0
230
1.0
 40
0.3420201433256395
 41
5.811946409140997
 42
5.87473785785158
1001
REVIT
1002
{
1070
     3
1000
923097
1002
}
  0
ELLIPSE
  5
2F8
330
2C9
100
AcDbEntity
  8
M-PIPE
100
AcDbEllipse
 10
1177.114353943138
 20
2089.540109991903
 30
0.0
 11
21.00000000000009
 21
0.0
 31
0.0
210
0.0
220
0.0
230
1.0
 40
0.342020143325646
 41
5.890486225480739
 42
5.948259938928892
1001
REVIT
1002
{
1070
     3
1000
923097
1002
}
  0
ELLIPSE
  5
2F9
330
2C9
100
AcDbEntity
  8
M-PIPE
100
AcDbEllipse
 10
1177.114353943138
 20
2089.540109991903
 30
0.0
 11
21.00000000000008
 21
0.0
 31
0.0
210
0.0
220
0.0
230
1.0
 40
0.3420201433256433
 41
6.019476230030296
 42
6.33814958898175
1001
REVIT
1002
{
1070
     3
1000
923097
1002
}
  0
SPLINE
  5
2FA
330
2C9
100
AcDbEntity
  8
M-PIPE
100
AcDbSpline
210
0.0
220
0.0
230
1.0
 70
     8
 71
     3
 72
    24
 73
    20
 74
     0
 42
0.000000001
 43
0.0000000001
 40
-1.0
 40
-1.0
 40
-1.0
 40
-1.0
 40
-0.925
 40
-0.85
 40
-0.8125
 40
-0.775
 40
-0.7
 40
-0.625
 40
-0.5875
 40
-0.55
 40
-0.475
 40
-0.4
 40
-0.35
 40
-0.3
 40
-0.25
 40
-0.2
 40
-0.15
 40
-0.1
 40
0.0
 40
0.0
 40
0.0
 40
0.0
 10
1159.645414354295
 20
2106.984499908662
 30
0.0
 10
1159.680798109379
 20
2107.137673010031
 30
0.0
 10
1159.758707950483
 20
2107.410908272409
 30
0.0
 10
1159.867617496143
 20
2107.668767946994
 30
0.0
 10
1159.956418579683
 20
2107.824426966242
 30
0.0
 10
1160.045154768711
 20
2107.94587818464
 30
0.0
 10
1160.155857392874
 20
2108.030295118565
 30
0.0
 10
1160.239346923537
 20
2108.031778090843
 30
0.0
 10
1160.282747568269
 20
2107.989297477471
 30
0.0
 10
1160.31315670754
 20
2107.912327940401
 30
0.0
 10
1160.321231460544
 20
2107.754715888956
 30
0.0
 10
1160.285664795388
 20
2107.519090780057
 30
0.0
 10
1160.227584802203
 20
2107.262702342665
 30
0.0
 10
1160.157922193085
 20
2107.004284995495
 30
0.0
 10
1160.073838243621
 20
2106.717277506433
 30
0.0
 10
1159.984115624911
 20
2106.409380456266
 30
0.0
 10
1159.895083864805
 20
2106.081549662508
 30
0.0
 10
1159.776652476564
 20
2105.609671092382
 30
0.0
 10
1159.694314161158
 20
2105.218418938697
 30
0.0
 10
1159.645414354292
 20
2104.940339927756
 30
0.0
1001
REVIT
1002
{
1070
     3
1000
923097
1002
}
  0
SPLINE
  5
2FB
330
2C9
100
AcDbEntity
  8
M-PIPE
100
AcDbSpline
210
0.0
220
0.0
230
1.0
 70
     8
 71
     3
 72
    24
 73
    20
 74
     0
 42
0.000000001
 43
0.0000000001
 40
-1.0
 40
-1.0
 40
-1.0
 40
-1.0
 40
-0.925
 40
-0.85
 40
-0.8125
 40
-0.775
 40
-0.7
 40
-0.625
 40
-0.5875
 40
-0.55
 40
-0.475
 40
-0.4
 40
-0.35
 40
-0.3
 40
-0.25
 40
-0.2
 40
-0.15
 40
-0.1
 40
0.0
 40
0.0
 40
0.0
 40
0.0
 10
1165.791886764009
 20
2101.299192626523
 30
0.0
 10
1165.874488304881
 20
2101.475663744128
 30
0.0
 10
1166.062222881984
 20
2101.801354593606
 30
0.0
 10
1166.352502751665
 20
2102.13804037448
 30
0.0
 10
1166.616256963241
 20
2102.363316873795
 30
0.0
 10
1166.902511817963
 20
2102.558815856828
 30
0.0
 10
1167.319068175177
 20
2102.747348207918
 30
0.0
 10
1167.76111422385
 20
2102.85260628505
 30
0.0
 10
1168.097928186278
 20
2102.885204909462
 30
0.0
 10
1168.44312736778
 20
2102.882405027891
 30
0.0
 10
1168.880411252928
 20
2102.812735907788
 30
0.0
 10
1169.304727723275
 20
2102.653875443148
 30
0.0
 10
1169.645808111606
 20
2102.453369798156
 30
0.0
 10
1169.927638533111
 20
2102.236848257553
 30
0.0
 10
1170.181589983199
 20
2101.983383726151
 30
0.0
 10
1170.397762996922
 20
2101.700456256571
 30
0.0
 10
1170.577677614752
 20
2101.390571684646
 30
0.0
 10
1170.784564211686
 20
2100.936159959609
 30
0.0
 10
1170.902627277594
 20
2100.551962208844
 30
0.0
 10
1170.967881533403
 20
2100.277112636058
 30
0.0
1001
REVIT
1002
{
1070
     3
1000
923097
1002
}
  0
SPLINE
  5
2FC
330
2C9
100
AcDbEntity
  8
M-PIPE
100
AcDbSpline
210
0.0
220
0.0
230
1.0
 70
     8
 71
     3
 72
    24
 73
    20
 74
     0
 42
0.000000001
 43
0.0000000001
 40
-1.0
 40
-1.0
 40
-1.0
 40
-1.0
 40
-0.925
 40
-0.85
 40
-0.8125
 40
-0.775
 40
-0.7
 40
-0.625
 40
-0.5875
 40
-0.55
 40
-0.475
 40
-0.4
 40
-0.35
 40
-0.3
 40
-0.25
 40
-0.2
 40
-0.15
 40
-0.1
 40
0.0
 40
0.0
 40
0.0
 40
0.0
 10
1183.260826352873
 20
2100.277112636058
 30
0.0
 10
1183.308044138661
 20
2100.479218581761
 30
0.0
 10
1183.417868874657
 20
2100.863667106516
 30
0.0
 10
1183.599239198677
 20
2101.29348749184
 30
0.0
 10
1183.774192326711
 20
2101.605393521026
 30
0.0
 10
1183.971710992403
 20
2101.896421046332
 30
0.0
 10
1184.277564725451
 20
2102.227604410621
 30
0.0
 10
1184.636121243458
 20
2102.49095381129
 30
0.0
 10
1184.929534561153
 20
2102.648000531412
 30
0.0
 10
1185.244324603384
 20
2102.775525700302
 30
0.0
 10
1185.673533735527
 20
2102.87695898936
 30
0.0
 10
1186.133416871031
 20
2102.892697372861
 30
0.0
 10
1186.532577252547
 20
2102.838363683733
 30
0.0
 10
1186.884070283171
 20
2102.746901625752
 30
0.0
 10
1187.222105682725
 20
2102.610334027325
 30
0.0
 10
1187.528001315161
 20
2102.430497063177
 30
0.0
 10
1187.796947693098
 20
2102.209247017118
 30
0.0
 10
1188.122265678276
 20
2101.85992729438
 30
0.0
 10
1188.322667059592
 20
2101.538615260022
 30
0.0
 10
1188.436821122268
 20
2101.299192626522
 30
0.0
1001
REVIT
1002
{
1070
     3
1000
923097
1002
}
  0
SPLINE
  5
2FD
330
2C9
100
AcDbEntity
  8
M-PIPE
100
AcDbSpline
210
0.0
220
0.0
230
1.0
 70
     8
 71
     3
 72
    24
 73
    20
 74
     0
 42
0.000000001
 43
0.0000000001
 40
-1.0
 40
-1.0
 40
-1.0
 40
-1.0
 40
-0.925
 40
-0.85
 40
-0.8125
 40
-0.775
 40
-0.7
 40
-0.625
 40
-0.5875
 40
-0.55
 40
-0.475
 40
-0.4
 40
-0.35
 40
-0.3
 40
-0.25
 40
-0.2
 40
-0.15
 40
-0.1
 40
0.0
 40
0.0
 40
0.0
 40
0.0
 10
1194.583293531985
 20
2104.940339927755
 30
0.0
 10
1194.547909776901
 20
2105.144782685321
 30
0.0
 10
1194.469999935796
 20
2105.535533298253
 30
0.0
 10
1194.361090390136
 20
2105.979662181735
 30
0.0
 10
1194.272289306596
 20
2106.308580260723
 30
0.0
 10
1194.183553117567
 20
2106.621088563665
 30
0.0
 10
1194.072850493404
 20
2106.990807523984
 30
0.0
 10
1193.98936096274
 20
2107.308473143334
 30
0.0
 10
1193.945960318008
 20
2107.514888721379
 30
0.0
 10
1193.915551178737
 20
2107.698569285226
 30
0.0
 10
1193.907476425732
 20
2107.8831620521
 30
0.0
 10
1193.943043090888
 20
2107.996734639476
 30
0.0
 10
1194.001123084072
 20
2108.032690113811
 30
0.0
 10
1194.07078569319
 20
2108.024391731881
 30
0.0
 10
1194.154869642653
 20
2107.971178108766
 30
0.0
 10
1194.244592261364
 20
2107.869462069461
 30
0.0
 10
1194.333624021469
 20
2107.718900327435
 30
0.0
 10
1194.452055409709
 20
2107.457205761905
 30
0.0
 10
1194.534393725115
 20
2107.191725041028
 30
0.0
 10
1194.583293531982
 20
2106.984499908661
 30
0.0
1001
REVIT
1002
{
1070
     3
1000
923097
1002
}
  0
ELLIPSE
  5
2FE
330
2C9
100
AcDbEntity
  8
M-PIPE
100
AcDbEllipse
 10
1153.315351738812
 20
2091.808135501196
 30
0.0
 11
6.999999999999898
 21
0.0
 31
0.0
210
0.0
220
0.0
230
1.0
 40
0.3420201433256707
 41
0.8601695216994093
 42
0.9637706314413319
1001
REVIT
1002
{
1070
     3
1000
923097
1002
}
  0
ELLIPSE
  5
2FF
330
2C9
100
AcDbEntity
  8
M-PIPE
100
AcDbEllipse
 10
1189.013855045308
 20
2084.758915487537
 30
0.0
 11
6.99999999999997
 21
0.0
 31
0.0
210
0.0
220
0.0
230
1.0
 40
0.342020143325618
 41
1.130624470949342
 42
3.058165733838622
1001
REVIT
1002
{
1070
     3
1000
923097
1002
}
  0
ELLIPSE
  5
300
330
2C9
100
AcDbEntity
  8
M-PIPE
100
AcDbEllipse
 10
1165.214852840968
 20
2084.758915487537
 30
0.0
 11
6.99999999999996
 21
0.0
 31
0.0
210
0.0
220
0.0
230
0.9999999999999998
 40
0.3420201433256517
 41
0.0834269197509733
 42
2.010968182640378
1001
REVIT
1002
{
1070
     3
1000
923097
1002
}
  0
ELLIPSE
  5
301
330
2C9
100
AcDbEntity
  8
M-PIPE
100
AcDbEllipse
 10
1200.913356147463
 20
2091.808135501195
 30
0.0
 11
6.999999999999888
 21
0.0
 31
0.0
210
0.0
220
0.0
230
1.0
 40
0.3420201433256239
 41
2.177822022148451
 42
2.281467335578159
1001
REVIT
1002
{
1070
     3
1000
923097
1002
}
  0
LINE
  5
302
330
2C9
100
AcDbEntity
  8
M-PIPE
100
AcDbLine
 10
1154.627674553998
 20
2078.058714275567
 30
0.0
 11
1154.87950653566
 21
2080.433128561162
 31
0.0
1001
REVIT
1002
{
1070
     3
1000
923097
1002
}
  0
LINE
  5
303
330
2C9
100
AcDbEntity
  8
M-PIPE
100
AcDbLine
 10
1199.601033332242
 20
2078.058714275565
 30
0.0
 11
1199.34920135058
 21
2080.433128561161
 31
0.0
1001
REVIT
1002
{
1070
     3
1000
923097
1002
}
  0
ELLIPSE
  5
304
330
2C9
100
AcDbEntity
  8
M-PIPE
100
AcDbEllipse
 10
1177.114353943118
 20
2077.793952232061
 30
0.0
 11
22.50000000000008
 21
0.0
 31
0.0
210
0.0
220
0.0
230
0.9999999999999998
 40
0.3420201433256485
 41
3.107180865626356
 42
4.712388980384673
1001
REVIT
1002
{
1070
     3
1000
923097
1002
}
  0
ELLIPSE
  5
305
330
2C9
100
AcDbEntity
  8
M-PIPE
100
AcDbEllipse
 10
1395.799698248708
 20
2075.714412922589
 30
0.0
 11
196.7973242973386
 21
154.177130052445
 31
0.0
210
0.0
220
0.0
230
0.9999999999999998
 40
0.9076733711903681
 41
2.378844999662746
 42
2.419159589582328
1001
REVIT
1002
{
1070
     3
1000
923097
1002
}
  0
ELLIPSE
  5
306
330
2C9
100
AcDbEntity
  8
M-PIPE
100
AcDbEllipse
 10
1177.114353943118
 20
2080.143183784001
 30
0.0
 11
22.25100234637507
 21
0.0
 31
0.0
210
0.0
220
0.0
230
1.0
 40
0.3420201433256433
 41
2.881410084006141
 42
3.405008859604845
1001
REVIT
1002
{
1070
     3
1000
923097
1002
}
  0
SPLINE
  5
307
330
2C9
100
AcDbEntity
  8
M-PIPE
100
AcDbSpline
210
0.0
220
0.0
230
1.0
 70
     8
 71
     3
 72
     9
 73
     5
 74
     0
 42
0.000000001
 43
0.0000000001
 40
-1.0
 40
-1.0
 40
-1.0
 40
-1.0
 40
-0.5
 40
-0.3206157952126325
 40
-0.3206157952126325
 40
-0.3206157952126325
 40
-0.3206157952126325
 10
1155.612252983278
 20
2082.100984274363
 30
0.0
 10
1155.781197322922
 20
2083.655605386691
 30
0.0
 10
1156.03280083013
 20
2085.763271725634
 30
0.0
 10
1156.314361478835
 20
2087.864546802038
 30
0.0
 10
1156.390793102826
 20
2088.418920655616
 30
0.0
1001
REVIT
1002
{
1070
     3
1000
923097
1002
}
  0
ELLIPSE
  5
308
330
2C9
100
AcDbEntity
  8
M-PIPE
100
AcDbEllipse
 10
958.4476320871772
 20
2035.633710899741
 30
0.0
 11
196.7973242973912
 21
154.1771300524646
 31
0.0
210
0.0
220
0.0
230
0.9999999999999998
 40
0.9076733711903802
 41
5.769345366209282
 42
5.796734461827116
1001
REVIT
1002
{
1070
     3
1000
923097
1002
}
  0
ELLIPSE
  5
309
330
2C9
100
AcDbEntity
  8
M-PIPE
100
AcDbEllipse
 10
1177.114353943118
 20
2080.143183784001
 30
0.0
 11
22.25100234637469
 21
0.0
 31
0.0
210
0.0
220
0.0
230
1.0
 40
0.3420201433256743
 41
6.019769101164426
 42
6.543367876763102
1001
REVIT
1002
{
1070
     3
1000
923097
1002
}
  0
SPLINE
  5
30A
330
2C9
100
AcDbEntity
  8
M-PIPE
100
AcDbSpline
210
0.0
220
0.0
230
1.0
 70
     8
 71
     3
 72
     9
 73
     5
 74
     0
 42
0.000000001
 43
0.0000000001
 40
-1.0
 40
-1.0
 40
-1.0
 40
-1.0
 40
-0.5
 40
0.0
 40
0.0
 40
0.0
 40
0.0
 10
1198.597832453253
 20
2078.161612918149
 30
0.0
 10
1198.428888113609
 20
2079.747199507765
 30
0.0
 10
1198.05854758253
 20
2082.917397222199
 30
0.0
 10
1197.623303347869
 20
2086.085644007036
 30
0.0
 10
1197.389455304644
 20
2087.669279667056
 30
0.0
1001
REVIT
1002
{
1070
     3
1000
923097
1002
}
  0
ELLIPSE
  5
30B
330
2C9
100
AcDbEntity
  8
M-PIPE
100
AcDbEllipse
 10
1177.114353943118
 20
2077.793952232061
 30
0.0
 11
-22.50000000000023
 21
0.000000000000426
 31
0.0
210
0.0
220
0.0
230
1.0
 40
0.342020143325657
 41
1.570796326794894
 42
3.17600444155316
1001
REVIT
1002
{
1070
     3
1000
923097
1002
}
  0
LINE
  5
30C
330
2C9
100
AcDbEntity
  8
M-PIPE
100
AcDbLine
 10
1156.85357966144
 20
2087.670592658266
 30
0.0
 11
1156.839252581592
 21
2087.669279667057
 31
0.0
1001
REVIT
1002
{
1070
     3
1000
923097
1002
}
  0
ELLIPSE
  5
30D
330
2C9
100
AcDbEntity
  8
M-PIPE
100
AcDbEllipse
 10
1177.114353943118
 20
2089.540109991884
 30
0.0
 11
-21.0
 21
0.0000000000005142
 31
0.0
210
0.0
220
0.0
230
1.0
 40
0.3420201433256504
 41
1.498169448776191
 42
1.5707963267949
1001
REVIT
1002
{
1070
     3
1000
923097
1002
}
  0
ELLIPSE
  5
30E
330
2C9
100
AcDbEntity
  8
M-PIPE
100
AcDbEllipse
 10
1177.114353943118
 20
2089.540109991884
 30
0.0
 11
21.00000000000015
 21
0.0
 31
0.0
210
0.0
220
0.0
230
0.9999999999999998
 40
0.3420201433256451
 41
4.567135224347262
 42
4.635584900657957
1001
REVIT
1002
{
1070
     3
1000
923097
1002
}
  0
ELLIPSE
  5
30F
330
2C9
100
AcDbEntity
  8
M-PIPE
100
AcDbEllipse
 10
1177.114353943118
 20
2089.540109991884
 30
0.0
 11
20.9999999999999
 21
0.0
 31
0.0
210
0.0
220
0.0
230
1.0
 40
0.3420201433256567
 41
4.494508346328545
 42
4.558442731091703
1001
REVIT
1002
{
1070
     3
1000
923097
1002
}
  0
ELLIPSE
  5
310
330
2C9
100
AcDbEntity
  8
M-PIPE
100
AcDbEllipse
 10
1177.114353943118
 20
2089.540109991884
 30
0.0
 11
21.00000000000017
 21
0.0
 31
0.0
210
0.0
220
0.0
230
1.0
 40
0.3420201433256317
 41
4.349254590291145
 42
4.480961262040342
1001
REVIT
1002
{
1070
     3
1000
923097
1002
}
  0
ELLIPSE
  5
311
330
2C9
100
AcDbEntity
  8
M-PIPE
100
AcDbEllipse
 10
1177.114353943118
 20
2089.540109991884
 30
0.0
 11
20.99999999999996
 21
0.0
 31
0.0
210
0.0
220
0.0
230
1.0
 40
0.3420201433256569
 41
4.204000834253713
 42
4.324980995890769
1001
REVIT
1002
{
1070
     3
1000
923097
1002
}
  0
ELLIPSE
  5
312
330
2C9
100
AcDbEntity
  8
M-PIPE
100
AcDbEllipse
 10
1177.114353943118
 20
2089.540109991884
 30
0.0
 11
21.00000000000004
 21
0.0
 31
0.0
210
0.0
220
0.0
230
1.0
 40
0.3420201433256476
 41
4.087775977751252
 42
4.167318038254318
1001
REVIT
1002
{
1070
     3
1000
923097
1002
}
  0
ELLIPSE
  5
313
330
2C9
100
AcDbEntity
  8
M-PIPE
100
AcDbEllipse
 10
1177.114353943118
 20
2089.540109991884
 30
0.0
 11
21.00000000000004
 21
0.0
 31
0.0
210
0.0
220
0.0
230
1.0
 40
0.3420201433256649
 41
3.928446042648082
 42
4.058747078216283
1001
REVIT
1002
{
1070
     3
1000
923097
1002
}
  0
ELLIPSE
  5
314
330
2C9
100
AcDbEntity
  8
M-PIPE
100
AcDbEllipse
 10
1177.114353943118
 20
2089.540109991884
 30
0.0
 11
21.00000000000011
 21
0.0
 31
0.0
210
0.0
220
0.0
230
1.0
 40
0.342020143325656
 41
3.45585951682054
 42
3.913493322178839
1001
REVIT
1002
{
1070
     3
1000
923097
1002
}
  0
ELLIPSE
  5
315
330
2C9
100
AcDbEntity
  8
M-PIPE
100
AcDbEllipse
 10
1177.114353943118
 20
2089.540109991886
 30
0.0
 11
20.99999999999989
 21
0.0
 31
0.0
210
0.0
220
0.0
230
1.0
 40
0.3420201433256745
 41
5.511284638590418
 42
5.969193062790284
1001
REVIT
1002
{
1070
     3
1000
923097
1002
}
  0
ELLIPSE
  5
316
330
2C9
100
AcDbEntity
  8
M-PIPE
100
AcDbEllipse
 10
1177.114353943118
 20
2089.540109991886
 30
0.0
 11
21.0
 21
0.0
 31
0.0
210
0.0
220
0.0
230
1.0
 40
0.3420201433256788
 41
5.438657760571735
 42
5.497400722033784
1001
REVIT
1002
{
1070
     3
1000
923097
1002
}
  0
ELLIPSE
  5
317
330
2C9
100
AcDbEntity
  8
M-PIPE
100
AcDbEllipse
 10
1177.114353943118
 20
2089.540109991886
 30
0.0
 11
20.99999999999988
 21
0.0
 31
0.0
210
0.0
220
0.0
230
1.0
 40
0.3420201433256751
 41
5.366030882553058
 42
5.41748972961561
1001
REVIT
1002
{
1070
     3
1000
923097
1002
}
  0
ELLIPSE
  5
318
330
2C9
100
AcDbEntity
  8
M-PIPE
100
AcDbEllipse
 10
1177.114353943118
 20
2089.540109991886
 30
0.0
 11
20.99999999999994
 21
0.0
 31
0.0
210
0.0
220
0.0
230
1.0
 40
0.3420201433256738
 41
5.293404004534324
 42
5.337402076430251
1001
REVIT
1002
{
1070
     3
1000
923097
1002
}
  0
ELLIPSE
  5
319
330
2C9
100
AcDbEntity
  8
M-PIPE
100
AcDbEllipse
 10
1177.114353943118
 20
2089.540109991886
 30
0.0
 11
20.99999999999985
 21
0.0
 31
0.0
210
0.0
220
0.0
230
1.0
 40
0.3420201433256721
 41
5.099455029308026
 42
5.257501077025132
1001
REVIT
1002
{
1070
     3
1000
923097
1002
}
  0
ELLIPSE
  5
31A
330
2C9
100
AcDbEntity
  8
M-PIPE
100
AcDbEllipse
 10
1177.114353943118
 20
2089.540109991886
 30
0.0
 11
20.99999999999977
 21
0.0
 31
0.0
210
0.0
220
0.0
230
1.0
 40
0.3420201433256595
 41
5.021250582077051
 42
5.075523370478226
1001
REVIT
1002
{
1070
     3
1000
923097
1002
}
  0
ELLIPSE
  5
31B
330
2C9
100
AcDbEntity
  8
M-PIPE
100
AcDbEllipse
 10
1177.114353943118
 20
2089.540109991886
 30
0.0
 11
20.9999999999999
 21
0.0
 31
0.0
210
0.0
220
0.0
230
1.0
 40
0.3420201433256611
 41
4.943442875961991
 42
5.014256394440018
1001
REVIT
1002
{
1070
     3
1000
923097
1002
}
  0
ELLIPSE
  5
31C
330
2C9
100
AcDbEntity
  8
M-PIPE
100
AcDbEllipse
 10
1177.114353943118
 20
2089.540109991886
 30
0.0
 11
20.99999999999984
 21
0.0
 31
0.0
210
0.0
220
0.0
230
1.0
 40
0.3420201433256723
 41
4.866031523770352
 42
4.930269614440806
1001
REVIT
1002
{
1070
     3
1000
923097
1002
}
  0
ELLIPSE
  5
31D
330
2C9
100
AcDbEntity
  8
M-PIPE
100
AcDbEllipse
 10
1177.114353943118
 20
2089.540109991886
 30
0.0
 11
20.99999999999992
 21
0.0
 31
0.0
210
0.0
220
0.0
230
1.0
 40
0.3420201433256631
 41
4.789014596305479
 42
4.857642736422102
1001
REVIT
1002
{
1070
     3
1000
923097
1002
}
  0
ELLIPSE
  5
31E
330
2C9
100
AcDbEntity
  8
M-PIPE
100
AcDbEllipse
 10
1177.114353943118
 20
2089.540109991886
 30
0.0
 11
20.99999999999983
 21
0.0
 31
0.0
210
0.0
220
0.0
230
1.0
 40
0.3420201433256645
 41
4.712388980384683
 42
4.785015858403386
1001
REVIT
1002
{
1070
     3
1000
923097
1002
}
  0
LINE
  5
31F
330
2C9
100
AcDbEntity
  8
M-PIPE
100
AcDbLine
 10
1197.389455304644
 20
2087.669279667056
 30
0.0
 11
1197.375128224833
 21
2087.670592658262
 31
0.0
1001
REVIT
1002
{
1070
     3
1000
923097
1002
}
  0
LINE
  5
320
330
2C9
100
AcDbEntity
  8
M-PIPE
100
AcDbLine
 10
1156.085998527911
 20
2082.057568327627
 30
0.0
 11
1155.612252983278
 21
2082.100984274363
 31
0.0
1001
REVIT
1002
{
1070
     3
1000
923097
1002
}
  0
LINE
  5
321
330
2C9
100
AcDbEntity
  8
M-PIPE
100
AcDbLine
 10
1198.616454902958
 20
2082.100984274362
 30
0.0
 11
1198.142709358312
 21
2082.057568327626
 31
0.0
1001
REVIT
1002
{
1070
     3
1000
923097
1002
}
  0
LINE
  5
322
330
2C9
100
AcDbEntity
  8
M-PIPE
100
AcDbLine
 10
1150.61435394313
 20
2054.301636712395
 30
0.0
 11
1150.61435394313
 21
2051.482558850038
 31
0.0
1001
REVIT
1002
{
1070
     3
1000
923097
1002
}
  0
LINE
  5
323
330
2C9
100
AcDbEntity
  8
M-PIPE
100
AcDbLine
 10
1203.614353943069
 20
2051.482558850037
 30
0.0
 11
1203.614353943069
 21
2054.301636712394
 31
0.0
1001
REVIT
1002
{
1070
     3
1000
923097
1002
}
  0
LINE
  5
324
330
2C9
100
AcDbEntity
  8
M-PIPE
100
AcDbLine
 10
1151.542132782426
 20
2061.634624448934
 30
0.0
 11
1151.542132782426
 21
2054.301636712395
 31
0.0
1001
REVIT
1002
{
1070
     3
1000
923097
1002
}
  0
LINE
  5
325
330
2C9
100
AcDbEntity
  8
M-PIPE
100
AcDbLine
 10
1202.686575103774
 20
2054.301636712394
 30
0.0
 11
1202.686575103774
 21
2061.634624448933
 31
0.0
1001
REVIT
1002
{
1070
     3
1000
923097
1002
}
  0
LINE
  5
326
330
2C9
100
AcDbEntity
  8
M-PIPE
100
AcDbLine
 10
1153.615788745381
 20
2062.847686054833
 30
0.0
 11
1154.627742862143
 21
2078.059392056551
 31
0.0
1001
REVIT
1002
{
1070
     3
1000
923097
1002
}
  0
LINE
  5
327
330
2C9
100
AcDbEntity
  8
M-PIPE
100
AcDbLine
 10
1200.612919140819
 20
2062.847686054824
 30
0.0
 11
1199.600965024058
 21
2078.059392056541
 31
0.0
1001
REVIT
1002
{
1070
     3
1000
923097
1002
}
  0
ELLIPSE
  5
328
330
2C9
100
AcDbEntity
  8
M-PIPE
100
AcDbEllipse
 10
1177.114353943097
 20
2051.482558850036
 30
0.0
 11
26.49999999996908
 21
0.0
 31
0.0
210
0.0
220
0.0
230
1.0
 40
0.3420201433256662
 41
3.141592653589793
 42
4.712388980384674
1001
REVIT
1002
{
1070
     3
1000
923097
1002
}
  0
ELLIPSE
  5
329
330
2C9
100
AcDbEntity
  8
M-PIPE
100
AcDbEllipse
 10
1177.114353943097
 20
2051.482558850036
 30
0.0
 11
-26.49999999996908
 21
0.0000000000009431
 31
0.0
210
0.0
220
0.0
230
1.0
 40
0.3420201433256662
 41
1.570796326794895
 42
3.141592653589792
1001
REVIT
1002
{
1070
     3
1000
923097
1002
}
  0
ELLIPSE
  5
32A
330
2C9
100
AcDbEntity
  8
M-PIPE
100
AcDbEllipse
 10
1177.114353943097
 20
2054.301636712394
 30
0.0
 11
-26.49999999996908
 21
0.0000000000005135
 31
0.0
210
0.0
220
0.0
230
1.0
 40
0.3420201433256577
 41
6.018136098265202
 42
7.853981633974484
1001
REVIT
1002
{
1070
     3
1000
923097
1002
}
  0
ELLIPSE
  5
32B
330
2C9
100
AcDbEntity
  8
M-PIPE
100
AcDbEllipse
 10
1177.114353943097
 20
2054.301636712394
 30
0.0
 11
26.49999999996919
 21
0.0
 31
0.0
210
0.0
220
0.0
230
1.0
 40
0.3420201433256657
 41
4.712388980384683
 42
6.548229664189352
1001
REVIT
1002
{
1070
     3
1000
923097
1002
}
  0
LINE
  5
32C
330
2C9
100
AcDbEntity
  8
M-PIPE
100
AcDbLine
 10
1202.313102708825
 20
2052.812314495637
 30
0.0
 11
1193.484824559036
 21
2047.582475489331
 31
0.0
1001
REVIT
1002
{
1070
     3
1000
923097
1002
}
  0
LINE
  5
32D
330
2C9
100
AcDbEntity
  8
M-PIPE
100
AcDbLine
 10
1185.942632092941
 20
2046.093153272582
 30
0.0
 11
1168.286075793251
 21
2046.093153272583
 31
0.0
1001
REVIT
1002
{
1070
     3
1000
923097
1002
}
  0
LINE
  5
32E
330
2C9
100
AcDbEntity
  8
M-PIPE
100
AcDbLine
 10
1160.743883327222
 20
2047.582475489313
 30
0.0
 11
1151.915605177355
 21
2052.812314495666
 31
0.0
1001
REVIT
1002
{
1070
     3
1000
923097
1002
}
  0
ELLIPSE
  5
32F
330
2C9
100
AcDbEntity
  8
M-PIPE
100
AcDbEllipse
 10
1177.114353943097
 20
2054.301636712394
 30
0.0
 11
25.57222116067421
 21
0.0
 31
0.0
210
0.0
220
0.0
230
1.0
 40
0.3420201433256525
 41
4.017674447043084
 42
4.359905962530548
1001
REVIT
1002
{
1070
     3
1000
923097
1002
}
  0
LINE
  5
330
330
2C9
100
AcDbEntity
  8
M-PIPE
100
AcDbLine
 10
1168.286075793253
 20
2046.093153272582
 30
0.0
 11
1168.286075793253
 21
2053.426141009121
 31
0.0
1001
REVIT
1002
{
1070
     3
1000
923097
1002
}
  0
LINE
  5
331
330
2C9
100
AcDbEntity
  8
M-PIPE
100
AcDbLine
 10
1160.743883327219
 20
2054.915463225853
 30
0.0
 11
1160.743883327219
 21
2047.582475489314
 31
0.0
1001
REVIT
1002
{
1070
     3
1000
923097
1002
}
  0
ELLIPSE
  5
332
330
2C9
100
AcDbEntity
  8
M-PIPE
100
AcDbEllipse
 10
1177.114353943097
 20
2054.301636712394
 30
0.0
 11
25.57222116067408
 21
0.0
 31
0.0
210
0.0
220
0.0
230
1.0
 40
0.3420201433256637
 41
3.141592653589741
 42
3.312708411333018
1001
REVIT
1002
{
1070
     3
1000
923097
1002
}
  0
LINE
  5
333
330
2C9
100
AcDbEntity
  8
M-PIPE
100
AcDbLine
 10
1151.915605177356
 20
2052.812314495665
 30
0.0
 11
1151.915605177356
 21
2060.145302232204
 31
0.0
1001
REVIT
1002
{
1070
     3
1000
923097
1002
}
  0
ELLIPSE
  5
334
330
2C9
100
AcDbEntity
  8
M-PIPE
100
AcDbEllipse
 10
1177.114353943097
 20
2054.301636712394
 30
0.0
 11
25.57222116067421
 21
0.0
 31
0.0
210
0.0
220
0.0
230
1.0
 40
0.3420201433256566
 41
5.064871998238746
 42
5.407103513729485
1001
REVIT
1002
{
1070
     3
1000
923097
1002
}
  0
LINE
  5
335
330
2C9
100
AcDbEntity
  8
M-PIPE
100
AcDbLine
 10
1193.484824559035
 20
2047.582475489331
 30
0.0
 11
1193.484824559035
 21
2054.915463225869
 31
0.0
1001
REVIT
1002
{
1070
     3
1000
923097
1002
}
  0
LINE
  5
336
330
2C9
100
AcDbEntity
  8
M-PIPE
100
AcDbLine
 10
1185.94263209294
 20
2053.42614100912
 30
0.0
 11
1185.942632092939
 21
2046.093153272582
 31
0.0
1001
REVIT
1002
{
1070
     3
1000
923097
1002
}
  0
ELLIPSE
  5
337
330
2C9
100
AcDbEntity
  8
M-PIPE
100
AcDbEllipse
 10
1177.114353943097
 20
2054.301636712394
 30
0.0
 11
25.57222116067419
 21
0.0
 31
0.0
210
0.0
220
0.0
230
1.0
 40
0.3420201433256567
 41
6.112069549432969
 42
6.283185307179586
1001
REVIT
1002
{
1070
     3
1000
923097
1002
}
  0
LINE
  5
338
330
2C9
100
AcDbEntity
  8
M-PIPE
100
AcDbLine
 10
1202.313102708825
 20
2060.145302232176
 30
0.0
 11
1202.313102708825
 21
2052.812314495637
 31
0.0
1001
REVIT
1002
{
1070
     3
1000
923097
1002
}
  0
SPLINE
  5
339
330
2C9
100
AcDbEntity
  8
M-PIPE
100
AcDbSpline
210
0.0
220
0.0
230
1.0
 70
     8
 71
     3
 72
     8
 73
     4
 74
     0
 42
0.000000001
 43
0.0000000001
 40
-0.1945193871626596
 40
-0.1945193871626596
 40
-0.1945193871626596
 40
-0.1945193871626596
 40
0.0
 40
0.0
 40
0.0
 40
0.0
 10
1153.652974550577
 20
2064.687713696113
 30
0.0
 10
1153.075469289882
 20
2064.210447260965
 30
0.0
 10
1152.496346165477
 20
2063.689191584152
 30
0.0
 10
1151.915605177362
 20
2063.123946665673
 30
0.0
1001
REVIT
1002
{
1070
     3
1000
923097
1002
}
  0
ELLIPSE
  5
33A
330
2C9
100
AcDbEntity
  8
M-PIPE
100
AcDbEllipse
 10
1177.114353943097
 20
2061.634624448933
 30
0.0
 11
25.57222116067411
 21
0.0
 31
0.0
210
0.0
220
0.0
230
1.0
 40
0.3420201433256632
 41
2.970476895845033
 42
3.312708411333018
1001
REVIT
1002
{
1070
     3
1000
923097
1002
}
  0
SPLINE
  5
33B
330
2C9
100
AcDbEntity
  8
M-PIPE
100
AcDbSpline
210
0.0
220
0.0
230
1.0
 70
     8
 71
     3
 72
     9
 73
     5
 74
     0
 42
0.000000001
 43
0.0000000001
 40
-1.0
 40
-1.0
 40
-1.0
 40
-1.0
 40
-0.5
 40
0.0
 40
0.0
 40
0.0
 40
0.0
 10
1151.915605177355
 20
2060.145302232205
 30
0.0
 10
1153.365605929772
 20
2059.85494951
 30
0.0
 10
1156.286986373834
 20
2058.692956953404
 30
0.0
 10
1159.25112469635
 20
2056.368390172432
 30
0.0
 10
1160.743883327221
 20
2054.915463225852
 30
0.0
1001
REVIT
1002
{
1070
     3
1000
923097
1002
}
  0
ELLIPSE
  5
33C
330
2C9
100
AcDbEntity
  8
M-PIPE
100
AcDbEllipse
 10
1177.114353943097
 20
2061.634624448933
 30
0.0
 11
25.57222116067405
 21
0.0
 31
0.0
210
0.0
220
0.0
230
1.0
 40
0.3420201433256691
 41
4.017674447043036
 42
4.359905962530557
1001
REVIT
1002
{
1070
     3
1000
923097
1002
}
  0
SPLINE
  5
33D
330
2C9
100
AcDbEntity
  8
M-PIPE
100
AcDbSpline
210
0.0
220
0.0
230
1.0
 70
     8
 71
     3
 72
     9
 73
     5
 74
     0
 42
0.000000001
 43
0.0000000001
 40
-1.0
 40
-1.0
 40
-1.0
 40
-1.0
 40
-0.5
 40
0.0
 40
0.0
 40
0.0
 40
0.0
 10
1168.286075793252
 20
2053.426141009121
 30
0.0
 10
1169.742763640239
 20
2053.70558692153
 30
0.0
 10
1172.670831178867
 20
2054.127196160065
 30
0.0
 10
1175.628282406803
 20
2054.274240226034
 30
0.0
 10
1177.114353943097
 20
2054.279120965878
 30
0.0
1001
REVIT
1002
{
1070
     3
1000
923097
1002
}
  0
SPLINE
  5
33E
330
2C9
100
AcDbEntity
  8
M-PIPE
100
AcDbSpline
210
0.0
220
0.0
230
1.0
 70
     8
 71
     3
 72
     9
 73
     5
 74
     0
 42
0.000000001
 43
0.0000000001
 40
-1.0
 40
-1.0
 40
-1.0
 40
-1.0
 40
-0.5
 40
0.0
 40
0.0
 40
0.0
 40
0.0
 10
1177.114353943097
 20
2054.279120965878
 30
0.0
 10
1178.600425479392
 20
2054.274240226034
 30
0.0
 10
1181.557876707327
 20
2054.127196160065
 30
0.0
 10
1184.485944245954
 20
2053.705586921529
 30
0.0
 10
1185.942632092941
 20
2053.426141009121
 30
0.0
1001
REVIT
1002
{
1070
     3
1000
923097
1002
}
  0
ELLIPSE
  5
33F
330
2C9
100
AcDbEntity
  8
M-PIPE
100
AcDbEllipse
 10
1177.114353943097
 20
2061.634624448933
 30
0.0
 11
25.57222116067406
 21
0.0
 31
0.0
210
0.0
220
0.0
230
1.0
 40
0.3420201433256654
 41
5.064871998238754
 42
5.407103513729474
1001
REVIT
1002
{
1070
     3
1000
923097
1002
}
  0
SPLINE
  5
340
330
2C9
100
AcDbEntity
  8
M-PIPE
100
AcDbSpline
210
0.0
220
0.0
230
1.0
 70
     8
 71
     3
 72
     9
 73
     5
 74
     0
 42
0.000000001
 43
0.0000000001
 40
-1.0
 40
-1.0
 40
-1.0
 40
-1.0
 40
-0.5
 40
0.0
 40
0.0
 40
0.0
 40
0.0
 10
1193.484824559036
 20
2054.915463225869
 30
0.0
 10
1194.934825311441
 20
2056.343060564916
 30
0.0
 10
1197.856205755477
 20
2058.642297738348
 30
0.0
 10
1200.820344077967
 20
2059.829619902454
 30
0.0
 10
1202.313102708825
 20
2060.145302232176
 30
0.0
1001
REVIT
1002
{
1070
     3
1000
923097
1002
}
  0
ELLIPSE
  5
341
330
2C9
100
AcDbEntity
  8
M-PIPE
100
AcDbEllipse
 10
1177.114353943097
 20
2061.634624448933
 30
0.0
 11
25.57222116067419
 21
0.0
 31
0.0
210
0.0
220
0.0
230
1.0
 40
0.3420201433256513
 41
6.112069549432968
 42
6.454301064927517
1001
REVIT
1002
{
1070
     3
1000
923097
1002
}
  0
SPLINE
  5
342
330
2C9
100
AcDbEntity
  8
M-PIPE
100
AcDbSpline
210
0.0
220
0.0
230
1.0
 70
     8
 71
     3
 72
     8
 73
     4
 74
     0
 42
0.000000001
 43
0.0000000001
 40
-1.0
 40
-1.0
 40
-1.0
 40
-1.0
 40
-0.8015588586000655
 40
-0.8015588586000655
 40
-0.8015588586000655
 40
-0.8015588586000655
 10
1202.313102708819
 20
2063.1239466657
 30
0.0
 10
1201.737623100146
 20
2063.690534756537
 30
0.0
 10
1201.160459733825
 20
2064.213336872313
 30
0.0
 10
1200.581612609858
 20
2064.692353013029
 30
0.0
1001
REVIT
1002
{
1070
     3
1000
923097
1002
}
  0
ELLIPSE
  5
343
330
2C9
100
AcDbEntity
  8
M-PIPE
100
AcDbEllipse
 10
1177.114353943098
 20
2062.758870299464
 30
0.0
 11
-23.50000000000023
 21
0.0000000000004293
 31
0.0
210
0.0
220
0.0
230
1.0
 40
0.3420201433256503
 41
6.272134873927504
 42
7.853981633974481
1001
REVIT
1002
{
1070
     3
1000
923097
1002
}
  0
ELLIPSE
  5
344
330
2C9
100
AcDbEntity
  8
M-PIPE
100
AcDbEllipse
 10
1177.114353943098
 20
2062.758870299464
 30
0.0
 11
23.49999999999986
 21
0.0
 31
0.0
210
0.0
220
0.0
230
1.0
 40
0.3420201433256577
 41
4.712388980384673
 42
6.294235740431659
1001
REVIT
1002
{
1070
     3
1000
923097
1002
}
  0
ELLIPSE
  5
345
330
2C9
100
AcDbEntity
  8
M-PIPE
100
AcDbEllipse
 10
1177.114353943098
 20
2077.793952232038
 30
0.0
 11
-22.5
 21
0.000000000000516
 31
0.0
210
0.0
220
0.0
230
1.0
 40
0.3420201433256605
 41
6.248685391393859
 42
7.853981633974485
1001
REVIT
1002
{
1070
     3
1000
923097
1002
}
  0
ELLIPSE
  5
346
330
2C9
100
AcDbEntity
  8
M-PIPE
100
AcDbEllipse
 10
1177.114353943098
 20
2077.793952232038
 30
0.0
 11
22.50000000000035
 21
0.0
 31
0.0
210
0.0
220
0.0
230
1.0
 40
0.3420201433256474
 41
4.712388980384683
 42
6.317685222965258
1001
REVIT
1002
{
1070
     3
1000
923097
1002
}
  0
LWPOLYLINE
  5
347
330
2C9
100
AcDbEntity
  8
P-SANR-FIXT
100
AcDbPolyline
 90
       80
 70
   128
 43
0.0
 10
1177.114353943079
 20
2012.482558850011
 10
1176.614487265746
 20
2012.472560183274
 10
1176.115420268465
 20
2012.442580178795
 10
1175.617951351968
 20
2012.392666798185
 10
1175.122876360401
 20
2012.322899892207
 10
1174.630987308141
 20
2012.233391073027
 10
1174.14307111274
 20
2012.124283535662
 10
1173.659908336028
 20
2011.995751828896
 10
1173.182271935378
 20
2011.848001576042
 10
1172.710926027141
 20
2011.681269145986
 10
1172.246624664221
 20
2011.495821275048
 10
1171.790110629755
 20
2011.291954640261
 10
1171.342114248811
 20
2011.069995384753
 10
1170.903352220032
 20
2010.830298595982
 10
1170.474526469068
 20
2010.57324773768
 10
1170.056323025641
 20
2010.299254036382
 10
1169.64941092605
 20
2010.008755823565
 10
1169.254441142848
 20
2009.702217834398
 10
1168.872045543436
 20
2009.380130464273
 10
1168.502835879198
 20
2009.043008984273
 10
1168.147402806835
 20
2008.691392716851
 10
1167.806314943443
 20
2008.325844173028
 10
1167.480117956842
 20
2007.946948152494
 10
1167.169333692624
 20
2007.555310808055
 10
1166.874459339317
 20
2007.151558675917
 10
1166.595966632981
 20
2006.736337673364
 10
1166.334301102538
 20
2006.310312065421
 10
1166.089881357017
 20
2005.874163402184
 10
1165.863098415873
 20
2005.42858942847
 10
1165.654315083432
 20
2004.97430296759
 10
1165.463865368489
 20
2004.51203078097
 10
1165.29205394996
 20
2004.042512405496
 10
1165.139155689464
 20
2003.566498970411
 10
1165.005415191601
 20
2003.084751995666
 10
1164.891046412638
 20
2002.598042173654
 10
1164.796232318224
 20
2002.107148136265
 10
1164.721124590683
 20
2001.612855209239
 10
1164.665843386359
 20
2001.115954155816
 10
1164.630477143384
 20
2000.617239911681
 10
1164.615082440205
 20
2000.11751031324
 10
1164.61968390506
 20
1999.617564821246
 10
1164.64427417659
 20
1999.118203241835
 10
1164.688813915603
 20
1998.620224447013
 10
1164.75323186802
 20
1998.124425096619
 10
1164.837424978859
 20
1997.631598363851
 10
1164.941258557102
 20
1997.142532666348
 10
1165.064566491174
 20
1996.658010404899
 10
1165.207151514684
 20
1996.178806711764
 10
1165.368785522012
 20
1995.705688210625
 10
1165.549209933227
 20
1995.23941179016
 10
1165.748136107758
 20
1994.780723393172
 10
1165.965245806162
 20
1994.33035682325
 10
1166.200191699235
 20
1993.889032570832
 10
1166.452597923668
 20
1993.457456660578
 10
1166.722060683346
 20
1993.036319521879
 10
1167.008148895334
 20
1992.626294884319
 10
1167.310404879524
 20
1992.228038699853
 10
1167.628345090818
 20
1991.842188093417
 10
1167.961460892701
 20
1991.469360343672
 10
1168.309219370952
 20
1991.110151895485
 10
1168.67106418619
 20
1990.765137405746
 10
1169.0464164639
 20
1990.434868824039
 10
1169.434675720508
 20
1990.119874509642
 10
1169.835220824028
 20
1989.820658386263
 10
1170.24741098774
 20
1989.537699135869
 10
1170.670586795311
 20
1989.2714494329
 10
1171.104071255721
 20
1989.022335220083
 10
1171.547170886306
 20
1988.790755027018
 10
1171.999176822179
 20
1988.577079332612
 10
1172.459365950266
 20
1988.381649972395
 10
1172.927002066131
 20
1988.204779591653
 10
1173.401337051744
 20
1988.046751145266
 10
1173.881612072315
 20
1987.907817445037
 10
1174.367058790265
 20
1987.788200755248
 10
1174.856900594402
 20
1987.688092437086
 10
1175.350353842331
 20
1987.607652642506
 10
1175.846629114122
 20
1987.547010058018
 10
1176.344932475205
 20
1987.506261698822
 10
1176.844466746503
 20
1987.4854727536
 10
1177.114353943079
 20
1987.482558850011
  0
LWPOLYLINE
  5
348
330
2C9
100
AcDbEntity
  8
P-SANR-FIXT
100
AcDbPolyline
 90
       80
 70
   128
 43
0.0
 10
1177.114353943079
 20
1987.482558850011
 10
1177.614220620412
 20
1987.492557516749
 10
1178.113287617694
 20
1987.522537521229
 10
1178.610756534191
 20
1987.572450901838
 10
1179.105831525758
 20
1987.642217807816
 10
1179.597720578018
 20
1987.731726626996
 10
1180.085636773418
 20
1987.840834164361
 10
1180.568799550131
 20
1987.969365871127
 10
1181.046435950781
 20
1988.117116123981
 10
1181.517781859018
 20
1988.283848554037
 10
1181.982083221937
 20
1988.469296424975
 10
1182.438597256405
 20
1988.673163059762
 10
1182.886593637348
 20
1988.89512231527
 10
1183.325355666126
 20
1989.134819104041
 10
1183.75418141709
 20
1989.391869962344
 10
1184.172384860517
 20
1989.66586366364
 10
1184.579296960109
 20
1989.956361876458
 10
1184.97426674331
 20
1990.262899865625
 10
1185.356662342723
 20
1990.58498723575
 10
1185.725872006962
 20
1990.92210871575
 10
1186.081305079324
 20
1991.273724983171
 10
1186.422392942715
 20
1991.639273526995
 10
1186.748589929317
 20
1992.018169547529
 10
1187.059374193534
 20
1992.409806891968
 10
1187.354248546842
 20
1992.813559024105
 10
1187.632741253178
 20
1993.22878002666
 10
1187.894406783621
 20
1993.654805634602
 10
1188.138826529141
 20
1994.09095429784
 10
1188.365609470286
 20
1994.536528271552
 10
1188.574392802726
 20
1994.990814732433
 10
1188.76484251767
 20
1995.453086919053
 10
1188.936653936199
 20
1995.922605294526
 10
1189.089552196695
 20
1996.398618729612
 10
1189.223292694558
 20
1996.880365704357
 10
1189.337661473521
 20
1997.367075526369
 10
1189.432475567935
 20
1997.857969563759
 10
1189.507583295476
 20
1998.352262490785
 10
1189.5628644998
 20
1998.849163544208
 10
1189.598230742774
 20
1999.347877788341
 10
1189.613625445954
 20
1999.847607386783
 10
1189.609023981098
 20
2000.347552878778
 10
1189.584433709569
 20
2000.846914458187
 10
1189.539893970556
 20
2001.34489325301
 10
1189.475476018138
 20
2001.840692603404
 10
1189.3912829073
 20
2002.333519336172
 10
1189.287449329057
 20
2002.822585033675
 10
1189.164141394985
 20
2003.307107295124
 10
1189.021556371474
 20
2003.786310988259
 10
1188.859922364146
 20
2004.259429489398
 10
1188.679497952932
 20
2004.725705909864
 10
1188.480571778401
 20
2005.184394306851
 10
1188.263462079997
 20
2005.634760876773
 10
1188.028516186923
 20
2006.076085129191
 10
1187.776109962491
 20
2006.507661039445
 10
1187.506647202813
 20
2006.928798178145
 10
1187.220558990824
 20
2007.338822815704
 10
1186.918303006635
 20
2007.73707900017
 10
1186.600362795341
 20
2008.122929606606
 10
1186.267246993458
 20
2008.495757356351
 10
1185.919488515207
 20
2008.854965804538
 10
1185.557643699969
 20
2009.199980294277
 10
1185.182291422259
 20
2009.530248875984
 10
1184.794032165651
 20
2009.845243190381
 10
1184.393487062131
 20
2010.14445931376
 10
1183.981296898419
 20
2010.427418564154
 10
1183.558121090848
 20
2010.693668267124
 10
1183.124636630438
 20
2010.94278247994
 10
1182.681536999853
 20
2011.174362673005
 10
1182.22953106398
 20
2011.388038367411
 10
1181.769341935893
 20
2011.583467727628
 10
1181.301705820028
 20
2011.76033810837
 10
1180.827370834415
 20
2011.918366554757
 10
1180.347095813844
 20
2012.057300254987
 10
1179.861649095893
 20
2012.176916944775
 10
1179.371807291758
 20
2012.277025262937
 10
1178.878354043828
 20
2012.357465057517
 10
1178.382078772037
 20
2012.418107642005
 10
1177.883775410953
 20
2012.458856001201
 10
1177.384241139656
 20
2012.479644946424
 10
1177.114353943079
 20
2012.482558850011
  0
ARC
  5
349
330
2C9
100
AcDbEntity
  8
P-SANR-FIXT
100
AcDbCircle
 10
1177.114353943077
 20
1999.982558850011
 30
0.0
 40
11.8420201433255
100
AcDbArc
 50
90.0000000000011
 51
269.9999999999997
  0
ARC
  5
34A
330
2C9
100
AcDbEntity
  8
P-SANR-FIXT
100
AcDbCircle
 10
1177.114353943077
 20
1999.982558850011
 30
0.0
 40
11.84202014332527
100
AcDbArc
 50
269.9999999999997
 51
90.0
  0
ARC
  5
34B
330
2C9
100
AcDbEntity
  8
P-SANR-FIXT
100
AcDbCircle
 10
1177.114353943077
 20
1999.982558850011
 30
0.0
 40
7.782046184613363
100
AcDbArc
 50
90.0
 51
269.9999999999997
  0
ARC
  5
34C
330
2C9
100
AcDbEntity
  8
P-SANR-FIXT
100
AcDbCircle
 10
1177.114353943077
 20
1999.982558850011
 30
0.0
 40
7.500000000000227
100
AcDbArc
 50
90.0
 51
269.9999999999997
  0
ARC
  5
34D
330
2C9
100
AcDbEntity
  8
P-SANR-FIXT
100
AcDbCircle
 10
1177.114353943077
 20
1999.982558850011
 30
0.0
 40
7.782046184613136
100
AcDbArc
 50
269.9999999999997
 51
90.0
  0
ARC
  5
34E
330
2C9
100
AcDbEntity
  8
P-SANR-FIXT
100
AcDbCircle
 10
1177.114353943077
 20
1999.982558850011
 30
0.0
 40
7.5
100
AcDbArc
 50
269.9999999999997
 51
90.0
  0
ARC
  5
34F
330
2C9
100
AcDbEntity
  8
P-SANR-FIXT
100
AcDbCircle
 10
1177.114353943077
 20
1999.982558850011
 30
0.0
 40
12.49999999999957
100
AcDbArc
 50
94.99999999999891
 51
99.999999999999
  0
ARC
  5
350
330
2C9
100
AcDbEntity
  8
P-SANR-FIXT
100
AcDbCircle
 10
1177.114353943077
 20
1999.982558850011
 30
0.0
 40
12.4999999999995
100
AcDbArc
 50
109.9999999999983
 51
114.9999999999985
  0
ARC
  5
351
330
2C9
100
AcDbEntity
  8
P-SANR-FIXT
100
AcDbCircle
 10
1177.114353943077
 20
1999.982558850011
 30
0.0
 40
12.49999999999975
100
AcDbArc
 50
124.9999999999977
 51
129.9999999999972
  0
ARC
  5
352
330
2C9
100
AcDbEntity
  8
P-SANR-FIXT
100
AcDbCircle
 10
1177.114353943077
 20
1999.982558850011
 30
0.0
 40
12.49999999999963
100
AcDbArc
 50
139.9999999999975
 51
144.9999999999985
  0
ARC
  5
353
330
2C9
100
AcDbEntity
  8
P-SANR-FIXT
100
AcDbCircle
 10
1177.114353943077
 20
1999.982558850011
 30
0.0
 40
12.49999999999966
100
AcDbArc
 50
154.9999999999973
 51
159.9999999999978
  0
ARC
  5
354
330
2C9
100
AcDbEntity
  8
P-SANR-FIXT
100
AcDbCircle
 10
1177.114353943077
 20
1999.982558850011
 30
0.0
 40
12.49999999999965
100
AcDbArc
 50
169.9999999999977
 51
174.999999999998
  0
ARC
  5
355
330
2C9
100
AcDbEntity
  8
P-SANR-FIXT
100
AcDbCircle
 10
1177.114353943077
 20
1999.982558850011
 30
0.0
 40
12.49999999999955
100
AcDbArc
 50
184.9999999999973
 51
189.9999999999972
  0
ARC
  5
356
330
2C9
100
AcDbEntity
  8
P-SANR-FIXT
100
AcDbCircle
 10
1177.114353943077
 20
1999.982558850011
 30
0.0
 40
12.49999999999971
100
AcDbArc
 50
199.9999999999974
 51
204.999999999998
  0
ARC
  5
357
330
2C9
100
AcDbEntity
  8
P-SANR-FIXT
100
AcDbCircle
 10
1177.114353943077
 20
1999.982558850011
 30
0.0
 40
12.49999999999975
100
AcDbArc
 50
214.9999999999975
 51
219.9999999999969
  0
ARC
  5
358
330
2C9
100
AcDbEntity
  8
P-SANR-FIXT
100
AcDbCircle
 10
1177.114353943077
 20
1999.982558850011
 30
0.0
 40
12.4999999999998
100
AcDbArc
 50
229.9999999999969
 51
234.9999999999972
  0
ARC
  5
359
330
2C9
100
AcDbEntity
  8
P-SANR-FIXT
100
AcDbCircle
 10
1177.114353943077
 20
1999.982558850011
 30
0.0
 40
12.49999999999977
100
AcDbArc
 50
244.999999999998
 51
249.9999999999985
  0
ARC
  5
35A
330
2C9
100
AcDbEntity
  8
P-SANR-FIXT
100
AcDbCircle
 10
1177.114353943077
 20
1999.982558850011
 30
0.0
 40
12.49999999999983
100
AcDbArc
 50
259.9999999999986
 51
264.9999999999987
  0
ARC
  5
35B
330
2C9
100
AcDbEntity
  8
P-SANR-FIXT
100
AcDbCircle
 10
1177.114353943077
 20
1999.982558850011
 30
0.0
 40
12.49999999999981
100
AcDbArc
 50
274.9999999999995
 51
279.9999999999985
  0
ARC
  5
35C
330
2C9
100
AcDbEntity
  8
P-SANR-FIXT
100
AcDbCircle
 10
1177.114353943077
 20
1999.982558850011
 30
0.0
 40
12.49999999999993
100
AcDbArc
 50
289.9999999999971
 51
294.999999999997
  0
ARC
  5
35D
330
2C9
100
AcDbEntity
  8
P-SANR-FIXT
100
AcDbCircle
 10
1177.114353943077
 20
1999.982558850011
 30
0.0
 40
12.49999999999994
100
AcDbArc
 50
304.999999999996
 51
309.9999999999955
  0
ARC
  5
35E
330
2C9
100
AcDbEntity
  8
P-SANR-FIXT
100
AcDbCircle
 10
1177.114353943077
 20
1999.982558850011
 30
0.0
 40
12.49999999999995
100
AcDbArc
 50
319.9999999999957
 51
324.999999999996
  0
ARC
  5
35F
330
2C9
100
AcDbEntity
  8
P-SANR-FIXT
100
AcDbCircle
 10
1177.114353943077
 20
1999.982558850011
 30
0.0
 40
12.49999999999976
100
AcDbArc
 50
334.9999999999965
 51
339.9999999999954
  0
ARC
  5
360
330
2C9
100
AcDbEntity
  8
P-SANR-FIXT
100
AcDbCircle
 10
1177.114353943077
 20
1999.982558850011
 30
0.0
 40
12.49999999999995
100
AcDbArc
 50
349.9999999999961
 51
354.9999999999954
  0
ARC
  5
361
330
2C9
100
AcDbEntity
  8
P-SANR-FIXT
100
AcDbCircle
 10
1177.114353943077
 20
1999.982558850011
 30
0.0
 40
12.49999999999975
100
AcDbArc
 50
4.999999999995722
 51
9.999999999995754
  0
ARC
  5
362
330
2C9
100
AcDbEntity
  8
P-SANR-FIXT
100
AcDbCircle
 10
1177.114353943077
 20
1999.982558850011
 30
0.0
 40
12.49999999999985
100
AcDbArc
 50
19.99999999999654
 51
24.99999999999698
  0
ARC
  5
363
330
2C9
100
AcDbEntity
  8
P-SANR-FIXT
100
AcDbCircle
 10
1177.114353943077
 20
1999.982558850011
 30
0.0
 40
12.49999999999962
100
AcDbArc
 50
34.99999999999638
 51
39.99999999999673
  0
ARC
  5
364
330
2C9
100
AcDbEntity
  8
P-SANR-FIXT
100
AcDbCircle
 10
1177.114353943077
 20
1999.982558850011
 30
0.0
 40
12.49999999999963
100
AcDbArc
 50
49.9999999999966
 51
54.9999999999967
  0
ARC
  5
365
330
2C9
100
AcDbEntity
  8
P-SANR-FIXT
100
AcDbCircle
 10
1177.114353943077
 20
1999.982558850011
 30
0.0
 40
12.49999999999966
100
AcDbArc
 50
64.99999999999698
 51
69.99999999999748
  0
ARC
  5
366
330
2C9
100
AcDbEntity
  8
P-SANR-FIXT
100
AcDbCircle
 10
1177.114353943077
 20
1999.982558850011
 30
0.0
 40
12.49999999999965
100
AcDbArc
 50
79.99999999999778
 51
84.9999999999979
  0
ARC
  5
367
330
2C9
100
AcDbEntity
  8
P-SANR-FIXT
100
AcDbCircle
 10
1177.114353943117
 20
1999.98255885001
 30
0.0
 40
13.83944421807275
100
AcDbArc
 50
25.41600194800751
 51
34.58399805198658
  0
SPLINE
  5
368
330
2C9
100
AcDbEntity
  8
P-SANR-FIXT
100
AcDbSpline
210
0.0
220
0.0
230
1.0
 70
    24
 71
     3
 72
     9
 73
     5
 74
     0
 42
0.000000001
 43
0.0000000001
 40
0.0
 40
0.0
 40
0.0
 40
0.0
 40
0.5
 40
0.8179917035135634
 40
0.8179917035135634
 40
0.8179917035135634
 40
0.8179917035135634
 10
1189.614353943117
 20
2005.922274017014
 30
0.0
 10
1189.614353943117
 20
2004.947649261497
 30
0.0
 10
1189.614353943117
 20
2003.340641342803
 30
0.0
 10
1189.614353943117
 20
2001.713121479551
 30
0.0
 10
1189.614353943117
 20
2001.077328399021
 30
0.0
  0
SPLINE
  5
369
330
2C9
100
AcDbEntity
  8
P-SANR-FIXT
100
AcDbSpline
210
0.0
220
0.0
230
1.0
 70
    24
 71
     3
 72
     9
 73
     5
 74
     0
 42
0.000000001
 43
0.0000000001
 40
0.1820082964864081
 40
0.1820082964864081
 40
0.1820082964864081
 40
0.1820082964864081
 40
0.5
 40
1.0
 40
1.0
 40
1.0
 40
1.0
 10
1189.614353943117
 20
1998.887789300999
 30
0.0
 10
1189.614353943117
 20
1998.251996220469
 30
0.0
 10
1189.614353943117
 20
1996.624476357216
 30
0.0
 10
1189.614353943117
 20
1995.017468438522
 30
0.0
 10
1189.614353943117
 20
1994.042843683004
 30
0.0
  0
ARC
  5
36A
330
2C9
100
AcDbEntity
  8
P-SANR-FIXT
100
AcDbCircle
 10
1177.114353943117
 20
1999.98255885001
 30
0.0
 40
13.83944421807272
100
AcDbArc
 50
325.4160019480087
 51
334.5839980519876
  0
SPLINE
  5
36B
330
2C9
100
AcDbEntity
  8
P-SANR-FIXT
100
AcDbSpline
210
0.0
220
0.0
230
1.0
 70
    24
 71
     3
 72
     9
 73
     5
 74
     0
 42
0.000000001
 43
0.0000000001
 40
0.0
 40
0.0
 40
0.0
 40
0.0
 40
0.5
 40
0.8225797062513734
 40
0.8225797062513734
 40
0.8225797062513734
 40
0.8225797062513734
 10
1188.508298168987
 20
1992.127098886206
 30
0.0
 10
1187.664248371547
 20
1991.639786508445
 30
0.0
 10
1186.264732782055
 20
1990.831775806116
 30
0.0
 10
1184.84725349851
 20
1990.013393760191
 30
0.0
 10
1184.288617680192
 20
1989.690865220106
 30
0.0
  0
SPLINE
  5
36C
330
2C9
100
AcDbEntity
  8
P-SANR-FIXT
100
AcDbSpline
210
0.0
220
0.0
230
1.0
 70
    24
 71
     3
 72
     8
 73
     4
 74
     0
 42
0.000000001
 43
0.0000000001
 40
0.9807824520329917
 40
0.9807824520329917
 40
0.9807824520329917
 40
0.9807824520329917
 40
1.0
 40
1.0
 40
1.0
 40
1.0
 10
1183.464709113887
 20
1989.215181387563
 30
0.0
 10
1183.431267195017
 20
1989.195873686701
 30
0.0
 10
1183.397815471417
 20
1989.176560325075
 30
0.0
 10
1183.364353943087
 20
1989.157241302687
 30
0.0
  0
SPLINE
  5
36D
330
2C9
100
AcDbEntity
  8
P-SANR-FIXT
100
AcDbSpline
210
0.0
220
0.0
230
1.0
 70
    24
 71
     3
 72
     9
 73
     5
 74
     0
 42
0.000000001
 43
0.0000000001
 40
0.1865962992241559
 40
0.1865962992241559
 40
0.1865962992241559
 40
0.1865962992241559
 40
0.5
 40
1.0
 40
1.0
 40
1.0
 40
1.0
 10
1182.392424551763
 20
1988.596097606972
 30
0.0
 10
1181.849832216144
 20
1988.282831775943
 30
0.0
 10
1180.448363288527
 20
1987.473693313322
 30
0.0
 10
1179.064459514677
 20
1986.674696096958
 30
0.0
 10
1178.220409717246
 20
1986.187383719201
 30
0.0
  0
ARC
  5
36E
330
2C9
100
AcDbEntity
  8
P-SANR-FIXT
100
AcDbCircle
 10
1177.114353943117
 20
1999.98255885001
 30
0.0
 40
13.83944421807263
100
AcDbArc
 50
269.9999999998368
 51
274.5839980519878
  0
ARC
  5
36F
330
2C9
100
AcDbEntity
  8
P-SANR-FIXT
100
AcDbCircle
 10
1177.114353943117
 20
1999.98255885001
 30
0.0
 40
13.83944421807257
100
AcDbArc
 50
265.4160019480082
 51
269.9999999998363
  0
SPLINE
  5
370
330
2C9
100
AcDbEntity
  8
P-SANR-FIXT
100
AcDbSpline
210
0.0
220
0.0
230
1.0
 70
    24
 71
     3
 72
     9
 73
     5
 74
     0
 42
0.000000001
 43
0.0000000001
 40
0.0
 40
0.0
 40
0.0
 40
0.0
 40
0.5
 40
0.8134037007818671
 40
0.8134037007818671
 40
0.8134037007818671
 40
0.8134037007818671
 10
1176.008298168986
 20
1986.187383719202
 30
0.0
 10
1175.164248371547
 20
1986.674696096963
 30
0.0
 10
1173.780344597671
 20
1987.473693313343
 30
0.0
 10
1172.378875670028
 20
1988.282831775979
 30
0.0
 10
1171.836283334392
 20
1988.596097607018
 30
0.0
  0
SPLINE
  5
371
330
2C9
100
AcDbEntity
  8
P-SANR-FIXT
100
AcDbSpline
210
0.0
220
0.0
230
1.0
 70
    24
 71
     3
 72
     8
 73
     4
 74
     0
 42
0.000000001
 43
0.0000000001
 40
0.0
 40
0.0
 40
0.0
 40
0.0
 40
0.1016224176420376
 40
0.1016224176420376
 40
0.1016224176420376
 40
0.1016224176420376
 10
1170.864353943087
 20
1989.157241302722
 30
0.0
 10
1170.687409339506
 20
1989.25940031723
 30
0.0
 10
1170.510738905157
 20
1989.36140104006
 30
0.0
 10
1170.334342640038
 20
1989.46324347121
 30
0.0
  0
SPLINE
  5
372
330
2C9
100
AcDbEntity
  8
P-SANR-FIXT
100
AcDbSpline
210
0.0
220
0.0
230
1.0
 70
    24
 71
     3
 72
     9
 73
     5
 74
     0
 42
0.000000001
 43
0.0000000001
 40
0.1774202937544795
 40
0.1774202937544795
 40
0.1774202937544795
 40
0.1774202937544795
 40
0.5
 40
1.0
 40
1.0
 40
1.0
 40
1.0
 10
1169.940090205962
 20
1989.690865220153
 30
0.0
 10
1169.38145438766
 20
1990.013393760229
 30
0.0
 10
1167.963975104143
 20
1990.831775806138
 30
0.0
 10
1166.564459514677
 20
1991.639786508451
 30
0.0
 10
1165.720409717247
 20
1992.127098886207
 30
0.0
  0
ARC
  5
373
330
2C9
100
AcDbEntity
  8
P-SANR-FIXT
100
AcDbCircle
 10
1177.114353943117
 20
1999.98255885001
 30
0.0
 40
13.83944421807269
100
AcDbArc
 50
205.4160019480092
 51
214.5839980519866
  0
SPLINE
  5
374
330
2C9
100
AcDbEntity
  8
P-SANR-FIXT
100
AcDbSpline
210
0.0
220
0.0
230
1.0
 70
    24
 71
     3
 72
     9
 73
     5
 74
     0
 42
0.000000001
 43
0.0000000001
 40
0.0
 40
0.0
 40
0.0
 40
0.0
 40
0.5
 40
0.817991703513727
 40
0.817991703513727
 40
0.817991703513727
 40
0.817991703513727
 10
1164.614353943117
 20
1994.042843683005
 30
0.0
 10
1164.614353943117
 20
1995.017468438522
 30
0.0
 10
1164.614353943117
 20
1996.624476357215
 30
0.0
 10
1164.614353943117
 20
1998.251996220469
 30
0.0
 10
1164.614353943117
 20
1998.887789301
 30
0.0
  0
SPLINE
  5
375
330
2C9
100
AcDbEntity
  8
P-SANR-FIXT
100
AcDbSpline
210
0.0
220
0.0
230
1.0
 70
    24
 71
     3
 72
     9
 73
     5
 74
     0
 42
0.000000001
 43
0.0000000001
 40
0.1820082964863328
 40
0.1820082964863328
 40
0.1820082964863328
 40
0.1820082964863328
 40
0.5
 40
1.0
 40
1.0
 40
1.0
 40
1.0
 10
1164.614353943117
 20
2001.077328399023
 30
0.0
 10
1164.614353943117
 20
2001.713121479554
 30
0.0
 10
1164.614353943117
 20
2003.340641342806
 30
0.0
 10
1164.614353943117
 20
2004.947649261499
 30
0.0
 10
1164.614353943117
 20
2005.922274017015
 30
0.0
  0
ARC
  5
376
330
2C9
100
AcDbEntity
  8
P-SANR-FIXT
100
AcDbCircle
 10
1177.114353943117
 20
1999.98255885001
 30
0.0
 40
13.83944421807272
100
AcDbArc
 50
145.4160019480079
 51
154.5839980519862
  0
SPLINE
  5
377
330
2C9
100
AcDbEntity
  8
P-SANR-FIXT
100
AcDbSpline
210
0.0
220
0.0
230
1.0
 70
    24
 71
     3
 72
     9
 73
     5
 74
     0
 42
0.000000001
 43
0.0000000001
 40
0.0
 40
0.0
 40
0.0
 40
0.0
 40
0.5
 40
0.8225797062453708
 40
0.8225797062453708
 40
0.8225797062453708
 40
0.8225797062453708
 10
1165.720409717247
 20
2007.838018813813
 30
0.0
 10
1166.564459514678
 20
2008.325331191569
 30
0.0
 10
1167.963975104144
 20
2009.133341893882
 30
0.0
 10
1169.381454387661
 20
2009.951723939792
 30
0.0
 10
1169.940090205963
 20
2010.274252479867
 30
0.0
  0
SPLINE
  5
378
330
2C9
100
AcDbEntity
  8
P-SANR-FIXT
100
AcDbSpline
210
0.0
220
0.0
230
1.0
 70
    24
 71
     3
 72
     8
 73
     4
 74
     0
 42
0.000000001
 43
0.0000000001
 40
0.8983775823576294
 40
0.8983775823576294
 40
0.8983775823576294
 40
0.8983775823576294
 40
1.0
 40
1.0
 40
1.0
 40
1.0
 10
1170.334342640038
 20
2010.501874228809
 30
0.0
 10
1170.510738905157
 20
2010.60371665996
 30
0.0
 10
1170.687409339508
 20
2010.705717382789
 30
0.0
 10
1170.864353943088
 20
2010.807876397298
 30
0.0
  0
SPLINE
  5
379
330
2C9
100
AcDbEntity
  8
P-SANR-FIXT
100
AcDbSpline
210
0.0
220
0.0
230
1.0
 70
    24
 71
     3
 72
     9
 73
     5
 74
     0
 42
0.000000001
 43
0.0000000001
 40
0.1865962992179285
 40
0.1865962992179285
 40
0.1865962992179285
 40
0.1865962992179285
 40
0.5
 40
1.0
 40
1.0
 40
1.0
 40
1.0
 10
1171.836283334393
 20
2011.369020093002
 30
0.0
 10
1172.378875670029
 20
2011.682285924041
 30
0.0
 10
1173.780344597672
 20
2012.491424386677
 30
0.0
 10
1175.164248371548
 20
2013.290421603056
 30
0.0
 10
1176.008298168988
 20
2013.777733980818
 30
0.0
  0
ARC
  5
37A
330
2C9
100
AcDbEntity
  8
P-SANR-FIXT
100
AcDbCircle
 10
1177.114353943117
 20
1999.98255885001
 30
0.0
 40
13.83944421807282
100
AcDbArc
 50
90.00000000016378
 51
94.58399805198624
  0
ARC
  5
37B
330
2C9
100
AcDbEntity
  8
P-SANR-FIXT
100
AcDbCircle
 10
1177.114353943117
 20
1999.98255885001
 30
0.0
 40
13.83944421807296
100
AcDbArc
 50
85.41600194800844
 51
90.00000000016333
  0
SPLINE
  5
37C
330
2C9
100
AcDbEntity
  8
P-SANR-FIXT
100
AcDbSpline
210
0.0
220
0.0
230
1.0
 70
    24
 71
     3
 72
     9
 73
     5
 74
     0
 42
0.000000001
 43
0.0000000001
 40
0.0
 40
0.0
 40
0.0
 40
0.0
 40
0.5
 40
0.8134037007760037
 40
0.8134037007760037
 40
0.8134037007760037
 40
0.8134037007760037
 10
1178.220409717248
 20
2013.777733980818
 30
0.0
 10
1179.064459514678
 20
2013.290421603062
 30
0.0
 10
1180.448363288528
 20
2012.491424386697
 30
0.0
 10
1181.849832216145
 20
2011.682285924076
 30
0.0
 10
1182.392424551764
 20
2011.369020093046
 30
0.0
  0
SPLINE
  5
37D
330
2C9
100
AcDbEntity
  8
P-SANR-FIXT
100
AcDbSpline
210
0.0
220
0.0
230
1.0
 70
    24
 71
     3
 72
     8
 73
     4
 74
     0
 42
0.000000001
 43
0.0000000001
 40
0.0
 40
0.0
 40
0.0
 40
0.0
 40
0.0192175479669743
 40
0.0192175479669743
 40
0.0192175479669743
 40
0.0192175479669743
 10
1183.364353943088
 20
2010.807876397332
 30
0.0
 10
1183.397815471417
 20
2010.788557374944
 30
0.0
 10
1183.431267195017
 20
2010.769244013318
 30
0.0
 10
1183.464709113887
 20
2010.749936312456
 30
0.0
  0
SPLINE
  5
37E
330
2C9
100
AcDbEntity
  8
P-SANR-FIXT
100
AcDbSpline
210
0.0
220
0.0
230
1.0
 70
    24
 71
     3
 72
     9
 73
     5
 74
     0
 42
0.000000001
 43
0.0000000001
 40
0.1774202937488108
 40
0.1774202937488108
 40
0.1774202937488108
 40
0.1774202937488108
 40
0.5
 40
1.0
 40
1.0
 40
1.0
 40
1.0
 10
1184.288617680194
 20
2010.274252479911
 30
0.0
 10
1184.847253498511
 20
2009.951723939827
 30
0.0
 10
1186.264732782055
 20
2009.133341893902
 30
0.0
 10
1187.664248371547
 20
2008.325331191574
 30
0.0
 10
1188.508298168987
 20
2007.838018813812
 30
0.0
  0
LINE
  5
37F
330
2C9
100
AcDbEntity
  8
P-SANR-FIXT
100
AcDbLine
 10
1156.86435394308
 20
2008.906185143572
 30
0.0
 11
1156.86435394308
 21
1988.523153257355
 31
0.0
  0
LINE
  5
380
330
2C9
100
AcDbEntity
  8
P-SANR-FIXT
100
AcDbLine
 10
1197.36435394308
 20
1988.523153257355
 30
0.0
 11
1197.36435394308
 21
2008.75346781066
 31
0.0
  0
LINE
  5
381
330
2C9
100
AcDbEntity
  8
P-SANR-FIXT
100
AcDbLine
 10
1153.258836076815
 20
2013.701032979499
 30
0.0
 11
1156.848472103686
 21
2009.223555871161
 31
0.0
  0
LINE
  5
382
330
2C9
100
AcDbEntity
  8
P-SANR-FIXT
100
AcDbLine
 10
1197.380235782473
 20
2009.223555871161
 30
0.0
 11
1200.969871809344
 21
2013.701032979499
 31
0.0
  0
LINE
  5
383
330
2C9
100
AcDbEntity
  8
P-SANR-FIXT
100
AcDbLine
 10
1151.61435394308
 20
2025.914962340843
 30
0.0
 11
1151.61435394308
 21
2018.147605752786
 31
0.0
  0
LINE
  5
384
330
2C9
100
AcDbEntity
  8
P-SANR-FIXT
100
AcDbLine
 10
1202.61435394308
 20
2018.147605752786
 30
0.0
 11
1202.61435394308
 21
2025.914962340843
 31
0.0
  0
LWPOLYLINE
  5
385
330
2C9
100
AcDbEntity
  8
P-SANR-FIXT
100
AcDbPolyline
 90
       41
 70
   128
 43
0.0
 10
1156.86435394308
 20
1988.523153257355
 10
1156.904458986155
 20
1987.836012969488
 10
1157.021886610599
 20
1987.166126517557
 10
1157.208789836035
 20
1986.527843981846
 10
1157.454385050708
 20
1985.930789771726
 10
1157.747244620291
 20
1985.379539819096
 10
1158.07705313907
 20
1984.874467323946
 10
1158.435518733013
 20
1984.413097205235
 10
1158.816558420299
 20
1983.99141710461
 10
1159.216046821739
 20
1983.604870630406
 10
1159.631391062269
 20
1983.248987023694
 10
1160.061097077522
 20
1982.919715594061
 10
1160.504403461216
 20
1982.613560830969
 10
1160.961002901942
 20
1982.32760022725
 10
1161.430844098682
 20
1982.059442042837
 10
1161.91399773228
 20
1981.807158173964
 10
1162.410569525534
 20
1981.569211622515
 10
1162.92064621861
 20
1981.344388222623
 10
1163.44426375474
 20
1981.131736623165
 10
1163.981390045036
 20
1980.930517518219
 10
1164.531917069649
 20
1980.740161665605
 10
1165.095658804475
 20
1980.560235637715
 10
1165.672352668063
 20
1980.390414094569
 10
1166.261663000417
 20
1980.230457424154
 10
1166.863185629174
 20
1980.080193735163
 10
1167.476452935626
 20
1979.939504349433
 10
1168.100939064752
 20
1979.80831209633
 10
1168.73606507214
 20
1979.686571847188
 10
1169.381203895045
 20
1979.574262841827
 10
1170.03568509368
 20
1979.47138245207
 10
1170.69879934488
 20
1979.377941101777
 10
1171.369802691672
 20
1979.293958122268
 10
1172.04792056434
 20
1979.219458368937
 10
1172.732351594882
 20
1979.154469461981
 10
1173.422271249509
 20
1979.099019543487
 10
1174.116835304484
 20
1979.053135466387
 10
1174.815183190131
 20
1979.016841349409
 10
1175.516441226778
 20
1978.990157447062
 10
1176.219725775179
 20
1978.97309929598
 10
1176.924146322735
 20
1978.965677109069
 10
1177.114353943079
 20
1978.965325928313
  0
LWPOLYLINE
  5
386
330
2C9
100
AcDbEntity
  8
P-SANR-FIXT
100
AcDbPolyline
 90
       41
 70
   128
 43
0.0
 10
1197.36435394308
 20
1988.523153257355
 10
1197.324248900005
 20
1987.836012969488
 10
1197.20682127556
 20
1987.166126517557
 10
1197.019918050125
 20
1986.527843981846
 10
1196.774322835452
 20
1985.930789771726
 10
1196.481463265869
 20
1985.379539819096
 10
1196.15165474709
 20
1984.874467323946
 10
1195.793189153146
 20
1984.413097205235
 10
1195.412149465861
 20
1983.99141710461
 10
1195.01266106442
 20
1983.604870630406
 10
1194.597316823891
 20
1983.248987023694
 10
1194.167610808638
 20
1982.919715594061
 10
1193.724304424943
 20
1982.613560830969
 10
1193.267704984218
 20
1982.32760022725
 10
1192.797863787478
 20
1982.059442042837
 10
1192.314710153879
 20
1981.807158173964
 10
1191.818138360626
 20
1981.569211622515
 10
1191.308061667549
 20
1981.344388222623
 10
1190.784444131419
 20
1981.131736623165
 10
1190.247317841123
 20
1980.930517518219
 10
1189.696790816511
 20
1980.740161665605
 10
1189.133049081685
 20
1980.560235637715
 10
1188.556355218096
 20
1980.390414094569
 10
1187.967044885743
 20
1980.230457424154
 10
1187.365522256986
 20
1980.080193735163
 10
1186.752254950533
 20
1979.939504349433
 10
1186.127768821408
 20
1979.80831209633
 10
1185.49264281402
 20
1979.686571847188
 10
1184.847503991115
 20
1979.574262841827
 10
1184.193022792479
 20
1979.47138245207
 10
1183.529908541279
 20
1979.377941101777
 10
1182.858905194487
 20
1979.293958122268
 10
1182.180787321819
 20
1979.219458368937
 10
1181.496356291277
 20
1979.154469461981
 10
1180.80643663665
 20
1979.099019543487
 10
1180.111872581675
 20
1979.053135466387
 10
1179.413524696029
 20
1979.016841349409
 10
1178.712266659382
 20
1978.990157447062
 10
1178.008982110981
 20
1978.97309929598
 10
1177.304561563424
 20
1978.965677109069
 10
1177.114353943079
 20
1978.965325928313
  0
LWPOLYLINE
  5
387
330
2C9
100
AcDbEntity
  8
P-SANR-FIXT
100
AcDbPolyline
 90
        6
 70
   128
 43
0.0
 10
1156.86435394308
 20
2008.914784971839
 10
1156.856644580236
 20
2009.048000368402
 10
1156.836352170305
 20
2009.164848090688
 10
1156.811168298043
 20
2009.25186280241
 10
1156.79161785874
 20
2009.300302005114
 10
1156.787208804116
 20
2009.30916197063
  0
LWPOLYLINE
  5
388
330
2C9
100
AcDbEntity
  8
P-SANR-FIXT
100
AcDbPolyline
 90
        6
 70
   128
 43
0.0
 10
1197.36435394308
 20
2008.914784971839
 10
1197.372063305924
 20
2009.048000368402
 10
1197.392355715855
 20
2009.164848090688
 10
1197.417539588116
 20
2009.25186280241
 10
1197.43709002742
 20
2009.300302005114
 10
1197.441499082044
 20
2009.30916197063
  0
LWPOLYLINE
  5
389
330
2C9
100
AcDbEntity
  8
P-SANR-FIXT
100
AcDbPolyline
 90
        8
 70
   128
 43
0.0
 10
1151.61435394308
 20
2018.147605752786
 10
1151.658658426184
 20
2017.388660386416
 10
1151.78867765251
 20
2016.647083728791
 10
1151.996544497802
 20
2015.937340549228
 10
1152.271441812985
 20
2015.269169578889
 10
1152.601895086625
 20
2014.647260521313
 10
1152.977528771096
 20
2014.07209961599
 10
1153.258836076816
 20
2013.701032979499
  0
LWPOLYLINE
  5
38A
330
2C9
100
AcDbEntity
  8
P-SANR-FIXT
100
AcDbPolyline
 90
        8
 70
   128
 43
0.0
 10
1202.61435394308
 20
2018.147605752785
 10
1202.570049459975
 20
2017.388660386416
 10
1202.440030233649
 20
2016.647083728791
 10
1202.232163388358
 20
2015.937340549228
 10
1201.957266073174
 20
2015.269169578889
 10
1201.626812799535
 20
2014.647260521313
 10
1201.251179115063
 20
2014.07209961599
 10
1200.969871809344
 20
2013.701032979499
  0
LINE
  5
38B
330
2C9
100
AcDbEntity
  8
P-SANR-FIXT
100
AcDbLine
 10
1168.669634578039
 20
2010.074013141486
 30
0.0
 11
1168.669634578039
 21
2009.540754581094
 31
0.0
  0
LINE
  5
38C
330
2C9
100
AcDbEntity
  8
P-SANR-FIXT
100
AcDbLine
 10
1185.559073308121
 20
2009.540754581133
 30
0.0
 11
1185.559073308121
 21
2010.074013141486
 31
0.0
  0
ELLIPSE
  5
38D
330
2C9
100
AcDbEntity
  8
P-SANR-FIXT
100
AcDbEllipse
 10
1177.114353943078
 20
2051.482558850011
 30
0.0
 11
26.5
 21
0.0
 31
0.0
210
0.0
220
0.0
230
1.0
 40
0.342020143325679
 41
3.141592653589793
 42
4.712388980384674
  0
ELLIPSE
  5
38E
330
2C9
100
AcDbEntity
  8
P-SANR-FIXT
100
AcDbEllipse
 10
1177.114353943078
 20
2051.482558850011
 30
0.0
 11
26.5
 21
0.0
 31
0.0
210
0.0
220
0.0
230
1.0
 40
0.342020143325679
 41
4.712388980384674
 42
6.283185307179586
  0
SPLINE
  5
38F
330
2C9
100
AcDbEntity
  8
P-SANR-FIXT
100
AcDbSpline
210
0.0
220
0.0
230
1.0
 70
     8
 71
     3
 72
    19
 73
    15
 74
     0
 42
0.000000001
 43
0.0000000001
 40
0.0126222789107615
 40
0.0126222789107615
 40
0.0126222789107615
 40
0.0126222789107615
 40
0.2
 40
0.3
 40
0.35
 40
0.4
 40
0.475
 40
0.55
 40
0.5875
 40
0.625
 40
0.7
 40
0.775
 40
0.85
 40
1.0
 40
1.0
 40
1.0
 40
1.0
 10
1168.668544922306
 20
2010.066527026262
 30
0.0
 10
1168.663495231959
 20
2010.799727889065
 30
0.0
 10
1168.737006315404
 20
2011.900729929629
 30
0.0
 10
1168.957449308791
 20
2013.169440367025
 30
0.0
 10
1169.134754514089
 20
2013.908371755473
 30
0.0
 10
1169.323938951261
 20
2014.537439186462
 30
0.0
 10
1169.584137046707
 20
2015.243622657896
 30
0.0
 10
1169.878207080323
 20
2015.88706778968
 30
0.0
 10
1170.149644393544
 20
2016.377116910811
 30
0.0
 10
1170.446598832435
 20
2016.848895395157
 30
0.0
 10
1170.862069218435
 20
2017.426478481977
 30
0.0
 10
1171.431777724733
 20
2018.065219926102
 30
0.0
 10
1172.285270237985
 20
2018.806895001931
 30
0.0
 10
1173.033498916123
 20
2019.271222157952
 30
0.0
 10
1173.580806598276
 20
2019.540808356845
 30
0.0
  0
SPLINE
  5
390
330
2C9
100
AcDbEntity
  8
P-SANR-FIXT
100
AcDbSpline
210
0.0
220
0.0
230
1.0
 70
     8
 71
     3
 72
    20
 73
    16
 74
     0
 42
0.000000001
 43
0.0000000001
 40
0.0
 40
0.0
 40
0.0
 40
0.0
 40
0.1
 40
0.2
 40
0.3
 40
0.35
 40
0.4
 40
0.475
 40
0.55
 40
0.5875
 40
0.625
 40
0.7
 40
0.775
 40
0.85
 40
0.9873777210892363
 40
0.9873777210892363
 40
0.9873777210892363
 40
0.9873777210892363
 10
1180.647901287879
 20
2019.540808356845
 30
0.0
 10
1181.012773075981
 20
2019.36108422425
 30
0.0
 10
1181.699476023048
 20
2018.96563247687
 30
0.0
 10
1182.600640399633
 20
2018.26894592304
 30
0.0
 10
1183.246616723267
 20
2017.573993776197
 30
0.0
 10
1183.700305799803
 20
2016.965278334136
 30
0.0
 10
1184.060862098171
 20
2016.419385725046
 30
0.0
 10
1184.416966166107
 20
2015.763475997315
 30
0.0
 10
1184.693092026613
 20
2015.110550809875
 30
0.0
 10
1184.884797860041
 20
2014.579852716034
 30
0.0
 10
1185.058067592544
 20
2014.045885683956
 30
0.0
 10
1185.232149589654
 20
2013.356052214019
 30
0.0
 10
1185.386431617576
 20
2012.510393295306
 30
0.0
 10
1185.527368429679
 20
2011.424881734545
 30
0.0
 10
1185.564068206219
 20
2010.604361897856
 30
0.0
 10
1185.560188352237
 20
2010.066562271565
 30
0.0
  0
ELLIPSE
  5
391
330
2C9
100
AcDbEntity
  8
P-SANR-FIXT
100
AcDbEllipse
 10
1177.114353943078
 20
2028.17818185452
 30
0.0
 11
25.49999999999985
 21
0.0
 31
0.0
210
0.0
220
0.0
230
1.0
 40
0.3420201433256738
 41
3.501001722904711
 42
4.573371153353382
  0
SPLINE
  5
392
330
2C9
100
AcDbEntity
  8
P-SANR-FIXT
100
AcDbSpline
210
0.0
220
0.0
230
1.0
 70
     8
 71
     3
 72
     9
 73
     5
 74
     0
 42
0.000000001
 43
0.0000000001
 40
-1.0
 40
-1.0
 40
-1.0
 40
-1.0
 40
-0.5
 40
0.0
 40
0.0
 40
0.0
 40
0.0
 10
1173.580806598276
 20
2019.540808356845
 30
0.0
 10
1174.13146663043
 20
2019.645594281217
 30
0.0
 10
1175.288862810642
 20
2019.805276072744
 30
0.0
 10
1176.505393447436
 20
2019.858467759508
 30
0.0
 10
1177.114353943077
 20
2019.857767341511
 30
0.0
  0
SPLINE
  5
393
330
2C9
100
AcDbEntity
  8
P-SANR-FIXT
100
AcDbSpline
210
0.0
220
0.0
230
1.0
 70
     8
 71
     3
 72
     9
 73
     5
 74
     0
 42
0.000000001
 43
0.0000000001
 40
-1.0
 40
-1.0
 40
-1.0
 40
-1.0
 40
-0.5
 40
0.0
 40
0.0
 40
0.0
 40
0.0
 10
1177.114353943077
 20
2019.857767341511
 30
0.0
 10
1177.723314438719
 20
2019.858467759508
 30
0.0
 10
1178.939845075513
 20
2019.805276072744
 30
0.0
 10
1180.097241255725
 20
2019.645594281217
 30
0.0
 10
1180.647901287879
 20
2019.540808356845
 30
0.0
  0
ELLIPSE
  5
394
330
2C9
100
AcDbEntity
  8
P-SANR-FIXT
100
AcDbEllipse
 10
1177.114353943078
 20
2028.17818185452
 30
0.0
 11
25.49999999999999
 21
0.0
 31
0.0
210
0.0
220
0.0
230
1.0
 40
0.3420201433256762
 41
4.851406807415985
 42
5.92378803258844
  0
LINE
  5
395
330
2C9
100
AcDbEntity
  8
P-SANR-FIXT
100
AcDbLine
 10
1147.11435394308
 20
2051.536652127511
 30
0.0
 11
1147.11435394308
 21
2031.316655934368
 31
0.0
  0
LINE
  5
396
330
2C9
100
AcDbEntity
  8
P-SANR-FIXT
100
AcDbLine
 10
1207.11435394308
 20
2031.316655934368
 30
0.0
 11
1207.11435394308
 21
2051.536652127511
 31
0.0
  0
ELLIPSE
  5
397
330
2C9
100
AcDbEntity
  8
P-SANR-FIXT
100
AcDbEllipse
 10
1177.114353943078
 20
2051.536652127509
 30
0.0
 11
30.00000000000023
 21
0.0
 31
0.0
210
0.0
220
0.0
230
1.0
 40
0.3420201433256554
 41
2.59181393921154
 42
4.712388980384675
  0
ELLIPSE
  5
398
330
2C9
100
AcDbEntity
  8
P-SANR-FIXT
100
AcDbEllipse
 10
1177.114353943078
 20
2051.536652127509
 30
0.0
 11
30.00000000000008
 21
0.0
 31
0.0
210
0.0
220
0.0
230
1.0
 40
0.342020143325666
 41
4.712388980384683
 42
6.83296402155782
  0
ELLIPSE
  5
399
330
2C9
100
AcDbEntity
  8
P-SANR-FIXT
100
AcDbEllipse
 10
1177.114353943078
 20
2031.316655934368
 30
0.0
 11
30.00000000000023
 21
0.0
 31
0.0
210
0.0
220
0.0
230
1.0
 40
0.3420201433256706
 41
3.141592653589793
 42
4.712388980384675
  0
ELLIPSE
  5
39A
330
2C9
100
AcDbEntity
  8
P-SANR-FIXT
100
AcDbEllipse
 10
1177.114353943078
 20
2031.316655934368
 30
0.0
 11
30.0
 21
0.0
 31
0.0
210
0.0
220
0.0
230
1.0
 40
0.3420201433256731
 41
4.712388980384675
 42
6.283185307179586
  0
ELLIPSE
  5
39B
330
2C9
100
AcDbEntity
  8
P-SANR-FIXT
100
AcDbEllipse
 10
1177.114353943078
 20
2051.536652127509
 30
0.0
 11
27.99999999999994
 21
0.0
 31
0.0
210
0.0
220
0.0
230
1.0
 40
0.3420201433256633
 41
2.81259838924857
 42
4.712388980384675
  0
ELLIPSE
  5
39C
330
2C9
100
AcDbEntity
  8
P-SANR-FIXT
100
AcDbEllipse
 10
1177.114353943078
 20
2051.536652127509
 30
0.0
 11
28.0
 21
0.0
 31
0.0
210
0.0
220
0.0
230
1.0
 40
0.3420201433256612
 41
4.712388980384675
 42
6.61217948967433
  0
ENDBLK
  5
39E
330
2C9
100
AcDbEntity
  8
0
100
AcDbBlockEnd
  0
ENDSEC
  0
SECTION
  2
ENTITIES
  0
INSERT
  5
1BC
330
71
100
AcDbEntity
  8
P-SANR-FIXT
100
AcDbBlockReference
  2
Automatic flow rate regulator valve_Caleffi_121 DN15 - 2___Pressure gauge H-980146-Est - Idraulica
 10
0.0
 20
0.0
 30
0.0
1001
REVIT
1002
{
1070
     1
1000
863131
1002
}
1002
{
1070
     5
1000
980146
1002
}
1002
{
1070
     2
1000
-2001160
1002
}
  0
INSERT
  5
2C8
330
71
100
AcDbEntity
  8
P-SANR-FIXT
100
AcDbBlockReference
  2
Automatic flow rate regulator valve_Caleffi_121 DN15 - 2___Pressure gauge H-V1-Est - Idraulica
 10
0.0
 20
0.0
 30
0.0
1001
REVIT
1002
{
1070
     1
1000
863152
1002
}
1002
{
1070
     5
1000
980146
1002
}
1002
{
1070
     2
1000
-2001160
1002
}
  0
INSERT
  5
39F
330
71
100
AcDbEntity
  8
P-SANR-FIXT
100
AcDbBlockReference
  2
Automatic flow rate regulator valve_Caleffi_121 DN15 - 2___Pressure gauge H-V2-Est - Idraulica
 10
0.0
 20
0.0
 30
0.0
1001
REVIT
1002
{
1070
     1
1000
863172
1002
}
1002
{
1070
     5
1000
980146
1002
}
1002
{
1070
     2
1000
-2001160
1002
}
  0
ENDSEC
  0
SECTION
  2
OBJECTS
  0
DICTIONARY
  5
C
330
0
100
AcDbDictionary
281
     1
  3
ACAD_CIP_PREVIOUS_PRODUCT_INFO
350
7A
  3
ACAD_COLOR
350
63
  3
ACAD_DETAILVIEWSTYLE
350
6B
  3
ACAD_GROUP
350
D
  3
ACAD_IMAGE_VARS
350
7B
  3
ACAD_LAYOUT
350
62
  3
ACAD_MATERIAL
350
10
  3
ACAD_MLEADERSTYLE
350
66
  3
ACAD_MLINESTYLE
350
5F
  3
ACAD_PLOTSETTINGS
350
61
  3
ACAD_PLOTSTYLENAME
350
E
  3
ACAD_SCALELIST
350
42
  3
ACAD_SECTIONVIEWSTYLE
350
68
  3
ACAD_TABLESTYLE
350
64
  3
ACAD_VISUALSTYLE
350
29
  3
ACDB_RECOMPOSE_DATA
350
3AA
  3
AcDbVariableDictionary
350
7C
  3
REVIT_DICTIONARY
350
3A1
  0
DICTIONARY
  5
3A6
330
71
100
AcDbDictionary
280
     1
281
     1
  3
ACAD_SORTENTS
360
3A7
  0
XRECORD
  5
7A
102
{ACAD_REACTORS
330
C
102
}
330
C
100
AcDbXrecord
280
     1
300
RVT
300
2013
300
RVT2013
  0
DICTIONARY
  5
63
102
{ACAD_REACTORS
330
C
102
}
330
C
100
AcDbDictionary
281
     1
  0
DICTIONARY
  5
6B
102
{ACAD_REACTORS
330
C
102
}
330
C
100
AcDbDictionary
281
     1
  3
Imperial24
350
6C
  0
DICTIONARY
  5
D
102
{ACAD_REACTORS
330
C
102
}
330
C
100
AcDbDictionary
281
     1
  0
RASTERVARIABLES
  5
7B
102
{ACAD_REACTORS
330
C
102
}
330
C
100
AcDbRasterVariables
 90
        0
 70
     0
 71
     1
 72
     1
  0
DICTIONARY
  5
62
102
{ACAD_REACTORS
330
C
102
}
330
C
100
AcDbDictionary
281
     1
  3
Layout1
350
70
  3
Layout2
350
78
  3
Model
350
74
  0
DICTIONARY
  5
10
102
{ACAD_REACTORS
330
C
102
}
330
C
100
AcDbDictionary
281
     1
  3
ByBlock
350
19
  3
ByLayer
350
11
  3
Global
350
21
  0
DICTIONARY
  5
66
102
{ACAD_REACTORS
330
C
102
}
330
C
100
AcDbDictionary
281
     1
  3
Standard
350
67
  0
DICTIONARY
  5
5F
102
{ACAD_REACTORS
330
C
102
}
330
C
100
AcDbDictionary
281
     1
  3
Standard
350
60
  0
DICTIONARY
  5
61
102
{ACAD_REACTORS
330
C
102
}
330
C
100
AcDbDictionary
281
     1
  0
ACDBDICTIONARYWDFLT
  5
E
102
{ACAD_REACTORS
330
C
102
}
330
C
100
AcDbDictionary
281
     1
  3
Normal
350
F
100
AcDbDictionaryWithDefault
340
F
  0
DICTIONARY
  5
42
102
{ACAD_REACTORS
330
C
102
}
330
C
100
AcDbDictionary
281
     1
  3
A0
350
43
  3
A1
350
44
  3
A2
350
45
  3
A3
350
46
  3
A4
350
47
  3
A5
350
48
  3
A6
350
49
  3
A7
350
4A
  3
A8
350
4B
  3
A9
350
4C
  3
B0
350
4D
  3
B1
350
4E
  3
B2
350
4F
  3
B3
350
50
  3
B4
350
51
  3
B5
350
52
  3
B6
350
53
  0
DICTIONARY
  5
68
102
{ACAD_REACTORS
330
C
102
}
330
C
100
AcDbDictionary
281
     1
  3
Imperial24
350
6A
  0
DICTIONARY
  5
64
102
{ACAD_REACTORS
330
C
102
}
330
C
100
AcDbDictionary
281
     1
  3
Standard
350
65
  0
DICTIONARY
  5
29
102
{ACAD_REACTORS
330
C
102
}
330
C
100
AcDbDictionary
281
     1
  3
2dWireframe
350
2F
  3
Basic
350
2E
  3
Brighten
350
35
  3
ColorChange
350
39
  3
Conceptual
350
32
  3
Dim
350
34
  3
EdgeColorOff
350
41
  3
Facepattern
350
38
  3
Flat
350
2A
  3
FlatWithEdges
350
2B
  3
Gouraud
350
2C
  3
GouraudWithEdges
350
2D
  3
Hidden
350
31
  3
JitterOff
350
3F
  3
Linepattern
350
37
  3
OverhangOff
350
40
  3
Realistic
350
33
  3
Shaded
350
3E
  3
Shaded with edges
350
3D
  3
Shades of Gray
350
3A
  3
Sketchy
350
3B
  3
Thicken
350
36
  3
Wireframe
350
30
  3
X-Ray
350
3C
  0
XRECORD
  5
3AA
102
{ACAD_REACTORS
330
C
102
}
330
C
100
AcDbXrecord
280
     1
 90
        1
330
65
  0
DICTIONARY
  5
7C
102
{ACAD_REACTORS
330
C
102
}
330
C
100
AcDbDictionary
281
     1
  3
CANNOSCALE
350
81
  3
CMLEADERSTYLE
350
7E
  3
CTABLESTYLE
350
7D
  3
CVIEWDETAILSTYLE
350
7F
  3
CVIEWSECTIONSTYLE
350
80
  0
DICTIONARY
  5
3A1
102
{ACAD_REACTORS
330
C
102
}
330
C
100
AcDbDictionary
281
     1
  3
DRAWING_TOOL
350
3A5
  3
REVIT_CATEGORY_MAPPING
350
3A3
  3
REVIT_SUB_CATEGORY_MAPPING
350
3A4
  3
REVIT_TYPE_MAPPING
350
3A2
  0
SORTENTSTABLE
  5
3A7
102
{ACAD_REACTORS
330
3A6
102
}
330
3A6
100
AcDbSortentsTable
330
71
  0
ACDBDETAILVIEWSTYLE
  5
6C
102
{ACAD_REACTORS
330
6B
102
}
330
6B
100
AcDbModelDocViewStyle
 70
     0
  3
Imperial24
290
     1
100
AcDbDetailViewStyle
 70
     0
 71
     0
 90
        3
 71
     1
340
55
 62
   256
 40
0.24
340
0
 62
   256
 40
0.24
300

 40
0.36
280
     3
 71
     2
340
5D
 90
       25
 62
   256
 71
     3
340
55
 62
   256
 40
0.24
 90
        1
 40
0.75
 90
        1
300
%<\AcVar ViewType \f "%tc1">% %<\AcVar ViewDetailId>%\PSCALA %<\AcVar ViewScale \f "%sn">%
 71
     4
340
5D
 90
       25
 62
   256
340
5D
 90
       25
 62
   256
280
     0
  0
LAYOUT
  5
70
102
{ACAD_REACTORS
330
62
102
}
330
62
100
AcDbPlotSettings
  1

  2

  4

  6

 40
0.0
 41
0.0
 42
0.0
 43
0.0
 44
0.0
 45
0.0
 46
0.0
 47
0.0
 48
0.0
 49
0.0
140
0.0
141
0.0
142
1.0
143
1.0
 70
   688
 72
     0
 73
     0
 74
     5
  7

 75
    16
147
1.0
 76
     0
 77
     2
 78
   300
148
0.0
149
0.0
100
AcDbLayout
  1
Layout1
 70
     1
 71
     1
 10
0.0
 20
0.0
 11
12.0
 21
9.0
 12
0.0
 22
0.0
 32
0.0
 14
0.0
 24
0.0
 34
0.0
 15
0.0
 25
0.0
 35
0.0
146
0.0
 13
0.0
 23
0.0
 33
0.0
 16
1.0
 26
0.0
 36
0.0
 17
0.0
 27
1.0
 37
0.0
 76
     0
330
6D
  0
LAYOUT
  5
78
102
{ACAD_REACTORS
330
62
102
}
330
62
100
AcDbPlotSettings
  1

  2

  4

  6

 40
0.0
 41
0.0
 42
0.0
 43
0.0
 44
0.0
 45
0.0
 46
0.0
 47
0.0
 48
0.0
 49
0.0
140
0.0
141
0.0
142
1.0
143
1.0
 70
   688
 72
     0
 73
     0
 74
     5
  7

 75
    16
147
1.0
 76
     0
 77
     2
 78
   300
148
0.0
149
0.0
100
AcDbLayout
  1
Layout2
 70
     1
 71
     2
 10
0.0
 20
0.0
 11
12.0
 21
9.0
 12
0.0
 22
0.0
 32
0.0
 14
0.0
 24
0.0
 34
0.0
 15
0.0
 25
0.0
 35
0.0
146
0.0
 13
0.0
 23
0.0
 33
0.0
 16
1.0
 26
0.0
 36
0.0
 17
0.0
 27
1.0
 37
0.0
 76
     0
330
75
  0
LAYOUT
  5
74
102
{ACAD_REACTORS
330
62
102
}
330
62
100
AcDbPlotSettings
  1

  2

  4

  6

 40
0.0
 41
0.0
 42
0.0
 43
0.0
 44
0.0
 45
0.0
 46
0.0
 47
0.0
 48
0.0
 49
0.0
140
0.0
141
0.0
142
1.0
143
1.0
 70
  1712
 72
     0
 73
     0
 74
     0
  7

 75
     0
147
1.0
 76
     0
 77
     2
 78
   300
148
0.0
149
0.0
100
AcDbLayout
  1
Model
 70
     1
 71
     0
 10
0.0
 20
0.0
 11
12.0
 21
9.0
 12
0.0
 22
0.0
 32
0.0
 14
0.0
 24
0.0
 34
0.0
 15
0.0
 25
0.0
 35
0.0
146
0.0
 13
0.0
 23
0.0
 33
0.0
 16
1.0
 26
0.0
 36
0.0
 17
0.0
 27
1.0
 37
0.0
 76
     0
330
71
  0
MATERIAL
  5
19
102
{ACAD_XDICTIONARY
360
1A
102
}
102
{ACAD_REACTORS
330
10
102
}
330
10
100
AcDbMaterial
  1
ByBlock
 72
     0
 43
0.0208333333333333
 43
0.0
 43
0.0
 43
0.0
 43
0.0
 43
0.0208333333333333
 43
0.0
 43
0.0
 43
0.0
 43
0.0
 43
1.0
 43
0.0
 43
0.0
 43
0.0
 43
0.0
 43
1.0
 77
     0
 47
0.0208333333333333
 47
0.0
 47
0.0
 47
0.0
 47
0.0
 47
0.0208333333333333
 47
0.0
 47
0.0
 47
0.0
 47
0.0
 47
1.0
 47
0.0
 47
0.0
 47
0.0
 47
0.0
 47
1.0
171
     0
 49
0.0208333333333333
 49
0.0
 49
0.0
 49
0.0
 49
0.0
 49
0.0208333333333333
 49
0.0
 49
0.0
 49
0.0
 49
0.0
 49
1.0
 49
0.0
 49
0.0
 49
0.0
 49
0.0
 49
1.0
175
     0
142
0.0208333333333333
142
0.0
142
0.0
142
0.0
142
0.0
142
0.0208333333333333
142
0.0
142
0.0
142
0.0
142
0.0
142
1.0
142
0.0
142
0.0
142
0.0
142
0.0
142
1.0
179
     0
144
0.0208333333333333
144
0.0
144
0.0
144
0.0
144
0.0
144
0.0208333333333333
144
0.0
144
0.0
144
0.0
144
0.0
144
1.0
144
0.0
144
0.0
144
0.0
144
0.0
144
1.0
147
0.0208333333333333
147
0.0
147
0.0
147
0.0
147
0.0
147
0.0208333333333333
147
0.0
147
0.0
147
0.0
147
0.0
147
1.0
147
0.0
147
0.0
147
0.0
147
0.0
147
1.0
  0
MATERIAL
  5
11
102
{ACAD_XDICTIONARY
360
12
102
}
102
{ACAD_REACTORS
330
10
102
}
330
10
100
AcDbMaterial
  1
ByLayer
 72
     0
 43
0.0208333333333333
 43
0.0
 43
0.0
 43
0.0
 43
0.0
 43
0.0208333333333333
 43
0.0
 43
0.0
 43
0.0
 43
0.0
 43
1.0
 43
0.0
 43
0.0
 43
0.0
 43
0.0
 43
1.0
 77
     0
 47
0.0208333333333333
 47
0.0
 47
0.0
 47
0.0
 47
0.0
 47
0.0208333333333333
 47
0.0
 47
0.0
 47
0.0
 47
0.0
 47
1.0
 47
0.0
 47
0.0
 47
0.0
 47
0.0
 47
1.0
171
     0
 49
0.0208333333333333
 49
0.0
 49
0.0
 49
0.0
 49
0.0
 49
0.0208333333333333
 49
0.0
 49
0.0
 49
0.0
 49
0.0
 49
1.0
 49
0.0
 49
0.0
 49
0.0
 49
0.0
 49
1.0
175
     0
142
0.0208333333333333
142
0.0
142
0.0
142
0.0
142
0.0
142
0.0208333333333333
142
0.0
142
0.0
142
0.0
142
0.0
142
1.0
142
0.0
142
0.0
142
0.0
142
0.0
142
1.0
179
     0
144
0.0208333333333333
144
0.0
144
0.0
144
0.0
144
0.0
144
0.0208333333333333
144
0.0
144
0.0
144
0.0
144
0.0
144
1.0
144
0.0
144
0.0
144
0.0
144
0.0
144
1.0
147
0.0208333333333333
147
0.0
147
0.0
147
0.0
147
0.0
147
0.0208333333333333
147
0.0
147
0.0
147
0.0
147
0.0
147
1.0
147
0.0
147
0.0
147
0.0
147
0.0
147
1.0
  0
MATERIAL
  5
21
102
{ACAD_XDICTIONARY
360
22
102
}
102
{ACAD_REACTORS
330
10
102
}
330
10
100
AcDbMaterial
  1
Global
 72
     0
 43
0.0208333333333333
 43
0.0
 43
0.0
 43
0.0
 43
0.0
 43
0.0208333333333333
 43
0.0
 43
0.0
 43
0.0
 43
0.0
 43
1.0
 43
0.0
 43
0.0
 43
0.0
 43
0.0
 43
1.0
 77
     0
 47
0.0208333333333333
 47
0.0
 47
0.0
 47
0.0
 47
0.0
 47
0.0208333333333333
 47
0.0
 47
0.0
 47
0.0
 47
0.0
 47
1.0
 47
0.0
 47
0.0
 47
0.0
 47
0.0
 47
1.0
171
     0
 49
0.0208333333333333
 49
0.0
 49
0.0
 49
0.0
 49
0.0
 49
0.0208333333333333
 49
0.0
 49
0.0
 49
0.0
 49
0.0
 49
1.0
 49
0.0
 49
0.0
 49
0.0
 49
0.0
 49
1.0
175
     0
142
0.0208333333333333
142
0.0
142
0.0
142
0.0
142
0.0
142
0.0208333333333333
142
0.0
142
0.0
142
0.0
142
0.0
142
1.0
142
0.0
142
0.0
142
0.0
142
0.0
142
1.0
179
     0
144
0.0208333333333333
144
0.0
144
0.0
144
0.0
144
0.0
144
0.0208333333333333
144
0.0
144
0.0
144
0.0
144
0.0
144
1.0
144
0.0
144
0.0
144
0.0
144
0.0
144
1.0
147
0.0208333333333333
147
0.0
147
0.0
147
0.0
147
0.0
147
0.0208333333333333
147
0.0
147
0.0
147
0.0
147
0.0
147
1.0
147
0.0
147
0.0
147
0.0
147
0.0
147
1.0
  0
MLEADERSTYLE
  5
67
102
{ACAD_REACTORS
330
66
102
}
330
66
100
AcDbMLeaderStyle
179
     2
170
     2
171
     1
172
     0
 90
        2
 40
0.0
 41
0.0
173
     1
 91
-1056964608
340
5B
 92
       -2
290
     1
 42
0.09
291
     1
 43
0.36
  3
Standard
 44
0.18
300

342
55
174
     1
178
     6
175
     1
176
     0
 93
-1056964608
 45
0.18
292
     0
297
     0
 46
0.18
 94
-1056964608
 47
1.0
 49
1.0
140
1.0
293
     1
141
0.0
294
     1
177
     0
142
1.0
295
     1
296
     0
143
0.125
271
     0
272
     9
273
     9
298
     1
  0
MLINESTYLE
  5
60
102
{ACAD_REACTORS
330
5F
102
}
330
5F
100
AcDbMlineStyle
  2
STANDARD
 70
     0
  3

 62
   256
 51
90.0
 52
90.0
 71
     2
 49
0.5
 62
   256
  6
BYLAYER
 49
-0.5
 62
   256
  6
BYLAYER
  0
ACDBPLACEHOLDER
  5
F
102
{ACAD_REACTORS
330
E
102
}
330
E
  0
SCALE
  5
43
102
{ACAD_REACTORS
330
42
102
}
330
42
100
AcDbScale
 70
     0
300
1:1
140
1.0
141
1.0
290
     1
  0
SCALE
  5
44
102
{ACAD_REACTORS
330
42
102
}
330
42
100
AcDbScale
 70
     0
300
1/128" = 1'-0"
140
0.0078125
141
12.0
290
     0
  0
SCALE
  5
45
102
{ACAD_REACTORS
330
42
102
}
330
42
100
AcDbScale
 70
     0
300
1/64" = 1'-0"
140
0.015625
141
12.0
290
     0
  0
SCALE
  5
46
102
{ACAD_REACTORS
330
42
102
}
330
42
100
AcDbScale
 70
     0
300
1/32" = 1'-0"
140
0.03125
141
12.0
290
     0
  0
SCALE
  5
47
102
{ACAD_REACTORS
330
42
102
}
330
42
100
AcDbScale
 70
     0
300
1/16" = 1'-0"
140
0.0625
141
12.0
290
     0
  0
SCALE
  5
48
102
{ACAD_REACTORS
330
42
102
}
330
42
100
AcDbScale
 70
     0
300
3/32" = 1'-0"
140
0.09375
141
12.0
290
     0
  0
SCALE
  5
49
102
{ACAD_REACTORS
330
42
102
}
330
42
100
AcDbScale
 70
     0
300
1/8" = 1'-0"
140
0.125
141
12.0
290
     0
  0
SCALE
  5
4A
102
{ACAD_REACTORS
330
42
102
}
330
42
100
AcDbScale
 70
     0
300
3/16" = 1'-0"
140
0.1875
141
12.0
290
     0
  0
SCALE
  5
4B
102
{ACAD_REACTORS
330
42
102
}
330
42
100
AcDbScale
 70
     0
300
1/4" = 1'-0"
140
0.25
141
12.0
290
     0
  0
SCALE
  5
4C
102
{ACAD_REACTORS
330
42
102
}
330
42
100
AcDbScale
 70
     0
300
3/8" = 1'-0"
140
0.375
141
12.0
290
     0
  0
SCALE
  5
4D
102
{ACAD_REACTORS
330
42
102
}
330
42
100
AcDbScale
 70
     0
300
1/2" = 1'-0"
140
0.5
141
12.0
290
     0
  0
SCALE
  5
4E
102
{ACAD_REACTORS
330
42
102
}
330
42
100
AcDbScale
 70
     0
300
3/4" = 1'-0"
140
0.75
141
12.0
290
     0
  0
SCALE
  5
4F
102
{ACAD_REACTORS
330
42
102
}
330
42
100
AcDbScale
 70
     0
300
1" = 1'-0"
140
1.0
141
12.0
290
     0
  0
SCALE
  5
50
102
{ACAD_REACTORS
330
42
102
}
330
42
100
AcDbScale
 70
     0
300
1-1/2" = 1'-0"
140
1.5
141
12.0
290
     0
  0
SCALE
  5
51
102
{ACAD_REACTORS
330
42
102
}
330
42
100
AcDbScale
 70
     0
300
3" = 1'-0"
140
3.0
141
12.0
290
     0
  0
SCALE
  5
52
102
{ACAD_REACTORS
330
42
102
}
330
42
100
AcDbScale
 70
     0
300
6" = 1'-0"
140
6.0
141
12.0
290
     0
  0
SCALE
  5
53
102
{ACAD_REACTORS
330
42
102
}
330
42
100
AcDbScale
 70
     0
300
1'-0" = 1'-0"
140
12.0
141
12.0
290
     0
  0
ACDBSECTIONVIEWSTYLE
  5
6A
102
{ACAD_REACTORS
330
68
102
}
330
68
100
AcDbModelDocViewStyle
 70
     0
  3
Imperial24
290
     1
100
AcDbSectionViewStyle
 70
     0
 71
     0
 90
       78
 71
     1
340
55
 62
   256
 40
0.24
340
0
340
0
 62
   256
 40
0.24
300
I, O, Q, S, X, Z
 40
0.48
 90
        3
 40
0.18
 90
        1
 71
     2
340
69
 90
       25
 62
   256
340
5D
 90
       50
 62
   256
 40
0.24
 40
0.0
 40
0.24
 71
     3
340
55
 62
   256
 40
0.24
 90
        1
 40
0.75
 90
        1
300
%<\AcVar ViewType \f "%tc1">% %<\AcVar ViewSectionStartId>%-%<\AcVar ViewSectionEndId>%\PSCALA %<\AcVar ViewScale \f "%sn">%
 71
     4
 62
   256
 62
   257
300
ANSI31
 40
1.0
 90
        0
290
     0
290
     0
 90
        6
 40
0.0
 40
1.570796326794896
 40
0.2617993877991494
 40
1.308996938995747
 40
-0.2617993877991494
 40
1.832595714594046
  0
TABLESTYLE
  5
65
102
{ACAD_XDICTIONARY
360
3A8
102
}
102
{ACAD_REACTORS
330
64
102
}
330
64
100
AcDbTableStyle
280
     0
  3
Standard
 70
     0
 71
     0
 40
0.06
 41
0.06
280
     0
281
     0
  7
Standard
140
0.18
170
     2
 62
     0
 63
     7
283
     0
 90
      512
 91
        0
  1

274
    -2
284
     1
 64
     0
275
    -2
285
     1
 65
     0
276
    -2
286
     1
 66
     0
277
    -2
287
     1
 67
     0
278
    -2
288
     1
 68
     0
279
    -2
289
     1
 69
     0
  7
Standard
140
0.25
170
     5
 62
     0
 63
     7
283
     0
 90
      512
 91
        0
  1

274
    -2
284
     1
 64
     0
275
    -2
285
     1
 65
     0
276
    -2
286
     1
 66
     0
277
    -2
287
     1
 67
     0
278
    -2
288
     1
 68
     0
279
    -2
289
     1
 69
     0
  7
Standard
140
0.18
170
     5
 62
     0
 63
     7
283
     0
 90
      512
 91
        0
  1

274
    -2
284
     1
 64
     0
275
    -2
285
     1
 65
     0
276
    -2
286
     1
 66
     0
277
    -2
287
     1
 67
     0
278
    -2
288
     1
 68
     0
279
    -2
289
     1
 69
     0
  0
VISUALSTYLE
  5
2F
102
{ACAD_REACTORS
330
29
102
}
330
29
100
AcDbVisualStyle
  2
2dWireframe
 70
     4
177
     3
291
     0
 70
    58
 90
        0
176
     1
 90
        2
176
     1
 90
        0
176
     1
 90
        0
176
     1
 40
0.6
176
     1
 40
30.0
176
     1
 62
     7
420
 16777215
176
     1
 90
        1
176
     1
 90
        4
176
     1
 62
     7
176
     1
 62
   257
176
     1
 90
        1
176
     1
 90
        1
176
     1
 40
1.0
176
     1
 90
        0
176
     1
 62
   257
176
     1
 40
1.0
176
     1
 90
        1
176
     1
 90
        6
176
     1
 90
        2
176
     1
 62
     7
176
     1
 90
        5
176
     1
 90
        0
176
     1
 90
        0
176
     1
290
     0
176
     1
 90
        1
176
     1
 40
0.0
176
     1
 90
        0
176
     1
290
     1
176
     1
290
     1
176
     1
290
     0
176
     1
290
     0
176
     1
290
     0
176
     1
290
     0
176
     1
290
     0
176
     1
290
     0
176
     1
290
     0
176
     1
 90
       50
176
     1
 40
0.0
176
     1
 40
1.0
176
     1
 90
        0
176
     1
 62
    18
420
        0
176
     1
 90
       50
176
     1
 90
        3
176
     1
 62
     5
420
      255
176
     1
290
     0
176
     1
 90
       50
176
     1
 90
       50
176
     1
 90
       50
176
     1
290
     0
176
     1
 90
       50
176
     1
 62
   256
176
     0
 40
1.0
176
     0
 90
        2
176
     1
  1
strokes_ogs.tif
176
     1
290
     0
176
     1
 40
1.0
176
     1
 40
1.0
176
     1
  0
VISUALSTYLE
  5
2E
102
{ACAD_REACTORS
330
29
102
}
330
29
100
AcDbVisualStyle
  2
Basic
 70
     7
177
     3
291
     1
 70
    58
 90
        1
176
     1
 90
        0
176
     1
 90
        1
176
     1
 90
        0
176
     1
 40
0.6
176
     1
 40
30.0
176
     1
 62
     7
420
 16777215
176
     1
 90
        0
176
     1
 90
        4
176
     1
 62
     7
176
     1
 62
   257
176
     1
 90
        1
176
     1
 90
        1
176
     1
 40
1.0
176
     1
 90
        8
176
     1
 62
     7
176
     1
 40
1.0
176
     1
 90
        1
176
     1
 90
        6
176
     1
 90
        2
176
     1
 62
     7
176
     1
 90
        5
176
     1
 90
        0
176
     1
 90
        0
176
     1
290
     0
176
     1
 90
        1
176
     1
 40
0.0
176
     1
 90
        0
176
     1
290
     0
176
     1
290
     1
176
     1
290
     1
176
     1
290
     0
176
     1
290
     0
176
     1
290
     0
176
     1
290
     0
176
     1
290
     0
176
     1
290
     0
176
     1
 90
       50
176
     1
 40
0.0
176
     1
 40
1.0
176
     1
 90
        0
176
     1
 62
    18
420
        0
176
     1
 90
       50
176
     1
 90
        3
176
     1
 62
     5
420
      255
176
     1
290
     0
176
     1
 90
       50
176
     1
 90
       50
176
     1
 90
       50
176
     1
290
     0
176
     1
 90
       50
176
     1
 62
   256
176
     0
 40
1.0
176
     0
 90
        2
176
     1
  1
strokes_ogs.tif
176
     1
290
     0
176
     1
 40
1.0
176
     1
 40
1.0
176
     1
  0
VISUALSTYLE
  5
35
102
{ACAD_REACTORS
330
29
102
}
330
29
100
AcDbVisualStyle
  2
Brighten
 70
    12
177
     3
291
     1
 70
    58
 90
        2
176
     1
 90
        2
176
     1
 90
        0
176
     1
 90
        0
176
     1
 40
0.6
176
     1
 40
30.0
176
     1
 62
     7
420
 16777215
176
     1
 90
        1
176
     1
 90
        4
176
     1
 62
     7
176
     1
 62
   257
176
     1
 90
        1
176
     1
 90
        1
176
     1
 40
1.0
176
     1
 90
        8
176
     1
 62
     7
176
     1
 40
1.0
176
     1
 90
        1
176
     1
 90
        6
176
     1
 90
        2
176
     1
 62
     7
176
     1
 90
        5
176
     1
 90
        0
176
     1
 90
        0
176
     1
290
     0
176
     1
 90
        1
176
     1
 40
50.0
176
     1
 90
        0
176
     1
290
     0
176
     1
290
     1
176
     1
290
     1
176
     1
290
     0
176
     1
290
     0
176
     1
290
     0
176
     1
290
     0
176
     1
290
     0
176
     1
290
     0
176
     1
 90
       50
176
     1
 40
0.0
176
     1
 40
1.0
176
     1
 90
        0
176
     1
 62
    18
420
        0
176
     1
 90
       50
176
     1
 90
        3
176
     1
 62
     5
420
      255
176
     1
290
     0
176
     1
 90
       50
176
     1
 90
       50
176
     1
 90
       50
176
     1
290
     0
176
     1
 90
       50
176
     1
 62
   256
176
     0
 40
1.0
176
     0
 90
        2
176
     1
  1
strokes_ogs.tif
176
     1
290
     0
176
     1
 40
1.0
176
     1
 40
1.0
176
     1
  0
VISUALSTYLE
  5
39
102
{ACAD_REACTORS
330
29
102
}
330
29
100
AcDbVisualStyle
  2
ColorChange
 70
    16
177
     3
291
     1
 70
    58
 90
        2
176
     1
 90
        2
176
     1
 90
        3
176
     1
 90
        0
176
     1
 40
0.6
176
     1
 40
30.0
176
     1
 62
     8
420
  8421504
176
     1
 90
        1
176
     1
 90
        4
176
     1
 62
     7
176
     1
 62
   257
176
     1
 90
        1
176
     1
 90
        1
176
     1
 40
1.0
176
     1
 90
        8
176
     1
 62
     8
420
  8421504
176
     1
 40
1.0
176
     1
 90
        1
176
     1
 90
        6
176
     1
 90
        2
176
     1
 62
     7
176
     1
 90
        5
176
     1
 90
        0
176
     1
 90
        0
176
     1
290
     0
176
     1
 90
        1
176
     1
 40
0.0
176
     1
 90
        0
176
     1
290
     0
176
     1
290
     1
176
     1
290
     1
176
     1
290
     0
176
     1
290
     0
176
     1
290
     0
176
     1
290
     0
176
     1
290
     0
176
     1
290
     0
176
     1
 90
       50
176
     1
 40
0.0
176
     1
 40
1.0
176
     1
 90
        0
176
     1
 62
    18
420
        0
176
     1
 90
       50
176
     1
 90
        3
176
     1
 62
     5
420
      255
176
     1
290
     0
176
     1
 90
       50
176
     1
 90
       50
176
     1
 90
       50
176
     1
290
     0
176
     1
 90
       50
176
     1
 62
   256
176
     0
 40
1.0
176
     0
 90
        2
176
     1
  1
strokes_ogs.tif
176
     1
290
     0
176
     1
 40
1.0
176
     1
 40
1.0
176
     1
  0
VISUALSTYLE
  5
32
102
{ACAD_REACTORS
330
29
102
}
330
29
100
AcDbVisualStyle
  2
Conceptual
 70
     9
177
     3
291
     0
 70
    58
 90
        3
176
     1
 90
        2
176
     1
 90
        0
176
     1
 90
        0
176
     1
 40
0.6
176
     1
 40
30.0
176
     1
 62
     7
420
 16777215
176
     1
 90
        2
176
     1
 90
        2
176
     1
 62
     7
176
     1
 62
   257
176
     1
 90
        1
176
     1
 90
        1
176
     1
 40
179.0
176
     1
 90
        8
176
     1
 62
     7
176
     1
 40
1.0
176
     1
 90
        1
176
     1
 90
        6
176
     1
 90
        2
176
     1
 62
     7
176
     1
 90
        3
176
     1
 90
        0
176
     1
 90
        0
176
     1
290
     0
176
     1
 90
        1
176
     1
 40
0.0
176
     1
 90
        0
176
     1
290
     0
176
     1
290
     1
176
     1
290
     1
176
     1
290
     0
176
     1
290
     0
176
     1
290
     0
176
     1
290
     0
176
     1
290
     0
176
     1
290
     0
176
     1
 90
       50
176
     1
 40
0.0
176
     1
 40
1.0
176
     1
 90
        0
176
     1
 62
    18
420
        0
176
     1
 90
       50
176
     1
 90
        3
176
     1
 62
     5
420
      255
176
     1
290
     0
176
     1
 90
       50
176
     1
 90
       50
176
     1
 90
       50
176
     1
290
     0
176
     1
 90
       50
176
     1
 62
   256
176
     0
 40
1.0
176
     0
 90
        2
176
     1
  1
strokes_ogs.tif
176
     1
290
     0
176
     1
 40
1.0
176
     1
 40
1.0
176
     1
  0
VISUALSTYLE
  5
34
102
{ACAD_REACTORS
330
29
102
}
330
29
100
AcDbVisualStyle
  2
Dim
 70
    11
177
     3
291
     1
 70
    58
 90
        2
176
     1
 90
        2
176
     1
 90
        0
176
     1
 90
        0
176
     1
 40
0.6
176
     1
 40
30.0
176
     1
 62
     7
420
 16777215
176
     1
 90
        1
176
     1
 90
        4
176
     1
 62
     7
176
     1
 62
   257
176
     1
 90
        1
176
     1
 90
        1
176
     1
 40
1.0
176
     1
 90
        8
176
     1
 62
     7
176
     1
 40
1.0
176
     1
 90
        1
176
     1
 90
        6
176
     1
 90
        2
176
     1
 62
     7
176
     1
 90
        5
176
     1
 90
        0
176
     1
 90
        0
176
     1
290
     0
176
     1
 90
        1
176
     1
 40
-50.0
176
     1
 90
        0
176
     1
290
     0
176
     1
290
     1
176
     1
290
     1
176
     1
290
     0
176
     1
290
     0
176
     1
290
     0
176
     1
290
     0
176
     1
290
     0
176
     1
290
     0
176
     1
 90
       50
176
     1
 40
0.0
176
     1
 40
1.0
176
     1
 90
        0
176
     1
 62
    18
420
        0
176
     1
 90
       50
176
     1
 90
        3
176
     1
 62
     5
420
      255
176
     1
290
     0
176
     1
 90
       50
176
     1
 90
       50
176
     1
 90
       50
176
     1
290
     0
176
     1
 90
       50
176
     1
 62
   256
176
     0
 40
1.0
176
     0
 90
        2
176
     1
  1
strokes_ogs.tif
176
     1
290
     0
176
     1
 40
1.0
176
     1
 40
1.0
176
     1
  0
VISUALSTYLE
  5
41
102
{ACAD_REACTORS
330
29
102
}
330
29
100
AcDbVisualStyle
  2
EdgeColorOff
 70
    22
177
     3
291
     1
 70
    58
 90
        2
176
     0
 90
        2
176
     0
 90
        0
176
     0
 90
        0
176
     0
 40
0.6
176
     0
 40
30.0
176
     0
 62
     7
420
 16777215
176
     0
 90
        1
176
     0
 90
        4
176
     0
 62
     7
176
     0
 62
   257
176
     0
 90
        1
176
     0
 90
        1
176
     0
 40
1.0
176
     0
 90
        8
176
     2
 62
     7
176
     0
 40
1.0
176
     0
 90
        1
176
     0
 90
        6
176
     0
 90
        2
176
     0
 62
     7
176
     0
 90
        5
176
     0
 90
        0
176
     0
 90
        0
176
     0
290
     0
176
     0
 90
        1
176
     0
 40
0.0
176
     0
 90
        0
176
     0
290
     0
176
     0
290
     1
176
     0
290
     1
176
     0
290
     0
176
     0
290
     0
176
     0
290
     0
176
     0
290
     0
176
     0
290
     0
176
     0
290
     0
176
     0
 90
       50
176
     0
 40
0.0
176
     0
 40
1.0
176
     0
 90
        0
176
     0
 62
    18
420
        0
176
     0
 90
       50
176
     0
 90
        3
176
     0
 62
     5
420
      255
176
     0
290
     0
176
     0
 90
       50
176
     0
 90
       50
176
     0
 90
       50
176
     0
290
     0
176
     0
 90
       50
176
     0
 62
   256
176
     0
 40
1.0
176
     0
 90
        2
176
     0
  1
strokes_ogs.tif
176
     0
290
     0
176
     0
 40
1.0
176
     0
 40
1.0
176
     0
  0
VISUALSTYLE
  5
38
102
{ACAD_REACTORS
330
29
102
}
330
29
100
AcDbVisualStyle
  2
Facepattern
 70
    15
177
     3
291
     1
 70
    58
 90
        2
176
     1
 90
        2
176
     1
 90
        0
176
     1
 90
        0
176
     1
 40
0.6
176
     1
 40
30.0
176
     1
 62
     7
420
 16777215
176
     1
 90
        1
176
     1
 90
        4
176
     1
 62
     7
176
     1
 62
   257
176
     1
 90
        1
176
     1
 90
        1
176
     1
 40
1.0
176
     1
 90
        8
176
     1
 62
     7
176
     1
 40
1.0
176
     1
 90
        1
176
     1
 90
        6
176
     1
 90
        2
176
     1
 62
     7
176
     1
 90
        5
176
     1
 90
        0
176
     1
 90
        0
176
     1
290
     0
176
     1
 90
        1
176
     1
 40
0.0
176
     1
 90
        0
176
     1
290
     0
176
     1
290
     1
176
     1
290
     1
176
     1
290
     0
176
     1
290
     0
176
     1
290
     0
176
     1
290
     0
176
     1
290
     0
176
     1
290
     0
176
     1
 90
       50
176
     1
 40
0.0
176
     1
 40
1.0
176
     1
 90
        0
176
     1
 62
    18
420
        0
176
     1
 90
       50
176
     1
 90
        3
176
     1
 62
     5
420
      255
176
     1
290
     0
176
     1
 90
       50
176
     1
 90
       50
176
     1
 90
       50
176
     1
290
     0
176
     1
 90
       50
176
     1
 62
   256
176
     0
 40
1.0
176
     0
 90
        2
176
     1
  1
strokes_ogs.tif
176
     1
290
     0
176
     1
 40
1.0
176
     1
 40
1.0
176
     1
  0
VISUALSTYLE
  5
2A
102
{ACAD_REACTORS
330
29
102
}
330
29
100
AcDbVisualStyle
  2
Flat
 70
     0
177
     3
291
     1
 70
    58
 90
        2
176
     1
 90
        1
176
     1
 90
        1
176
     1
 90
        2
176
     1
 40
0.6
176
     1
 40
30.0
176
     1
 62
     7
420
 16777215
176
     1
 90
        0
176
     1
 90
        0
176
     1
 62
     7
176
     1
 62
   257
176
     1
 90
        1
176
     1
 90
        1
176
     1
 40
1.0
176
     1
 90
        8
176
     1
 62
     7
176
     1
 40
1.0
176
     1
 90
        1
176
     1
 90
        6
176
     1
 90
        2
176
     1
 62
     7
176
     1
 90
        5
176
     1
 90
        0
176
     1
 90
        0
176
     1
290
     0
176
     1
 90
       13
176
     1
 40
0.0
176
     1
 90
        0
176
     1
290
     0
176
     1
290
     1
176
     1
290
     1
176
     1
290
     0
176
     1
290
     0
176
     1
290
     0
176
     1
290
     0
176
     1
290
     0
176
     1
290
     0
176
     1
 90
       50
176
     1
 40
0.0
176
     1
 40
1.0
176
     1
 90
        0
176
     1
 62
    18
420
        0
176
     1
 90
       50
176
     1
 90
        3
176
     1
 62
     5
420
      255
176
     1
290
     0
176
     1
 90
       50
176
     1
 90
       50
176
     1
 90
       50
176
     1
290
     0
176
     1
 90
       50
176
     1
 62
   256
176
     0
 40
1.0
176
     0
 90
        2
176
     1
  1
strokes_ogs.tif
176
     1
290
     0
176
     1
 40
1.0
176
     1
 40
1.0
176
     1
  0
VISUALSTYLE
  5
2B
102
{ACAD_REACTORS
330
29
102
}
330
29
100
AcDbVisualStyle
  2
FlatWithEdges
 70
     1
177
     3
291
     1
 70
    58
 90
        2
176
     1
 90
        1
176
     1
 90
        1
176
     1
 90
        2
176
     1
 40
0.6
176
     1
 40
30.0
176
     1
 62
     7
420
 16777215
176
     1
 90
        1
176
     1
 90
        0
176
     1
 62
     7
176
     1
 62
   257
176
     1
 90
        1
176
     1
 90
        1
176
     1
 40
1.0
176
     1
 90
        0
176
     1
 62
   257
176
     1
 40
1.0
176
     1
 90
        1
176
     1
 90
        6
176
     1
 90
        2
176
     1
 62
     7
176
     1
 90
        5
176
     1
 90
        0
176
     1
 90
        0
176
     1
290
     0
176
     1
 90
       13
176
     1
 40
0.0
176
     1
 90
        0
176
     1
290
     0
176
     1
290
     1
176
     1
290
     1
176
     1
290
     0
176
     1
290
     0
176
     1
290
     0
176
     1
290
     0
176
     1
290
     0
176
     1
290
     0
176
     1
 90
       50
176
     1
 40
0.0
176
     1
 40
1.0
176
     1
 90
        0
176
     1
 62
    18
420
        0
176
     1
 90
       50
176
     1
 90
        3
176
     1
 62
     5
420
      255
176
     1
290
     0
176
     1
 90
       50
176
     1
 90
       50
176
     1
 90
       50
176
     1
290
     0
176
     1
 90
       50
176
     1
 62
   256
176
     0
 40
1.0
176
     0
 90
        2
176
     1
  1
strokes_ogs.tif
176
     1
290
     0
176
     1
 40
1.0
176
     1
 40
1.0
176
     1
  0
VISUALSTYLE
  5
2C
102
{ACAD_REACTORS
330
29
102
}
330
29
100
AcDbVisualStyle
  2
Gouraud
 70
     2
177
     3
291
     1
 70
    58
 90
        2
176
     1
 90
        2
176
     1
 90
        1
176
     1
 90
        2
176
     1
 40
0.6
176
     1
 40
30.0
176
     1
 62
     7
420
 16777215
176
     1
 90
        0
176
     1
 90
        0
176
     1
 62
     7
176
     1
 62
   257
176
     1
 90
        1
176
     1
 90
        1
176
     1
 40
1.0
176
     1
 90
        0
176
     1
 62
     7
176
     1
 40
1.0
176
     1
 90
        1
176
     1
 90
        6
176
     1
 90
        2
176
     1
 62
     7
176
     1
 90
        5
176
     1
 90
        0
176
     1
 90
        0
176
     1
290
     0
176
     1
 90
       13
176
     1
 40
0.0
176
     1
 90
        0
176
     1
290
     0
176
     1
290
     1
176
     1
290
     1
176
     1
290
     0
176
     1
290
     0
176
     1
290
     0
176
     1
290
     0
176
     1
290
     0
176
     1
290
     0
176
     1
 90
       50
176
     1
 40
0.0
176
     1
 40
1.0
176
     1
 90
        0
176
     1
 62
    18
420
        0
176
     1
 90
       50
176
     1
 90
        3
176
     1
 62
     5
420
      255
176
     1
290
     0
176
     1
 90
       50
176
     1
 90
       50
176
     1
 90
       50
176
     1
290
     0
176
     1
 90
       50
176
     1
 62
   256
176
     0
 40
1.0
176
     0
 90
        2
176
     1
  1
strokes_ogs.tif
176
     1
290
     0
176
     1
 40
1.0
176
     1
 40
1.0
176
     1
  0
VISUALSTYLE
  5
2D
102
{ACAD_REACTORS
330
29
102
}
330
29
100
AcDbVisualStyle
  2
GouraudWithEdges
 70
     3
177
     3
291
     1
 70
    58
 90
        2
176
     1
 90
        2
176
     1
 90
        1
176
     1
 90
        2
176
     1
 40
0.6
176
     1
 40
30.0
176
     1
 62
     7
420
 16777215
176
     1
 90
        1
176
     1
 90
        0
176
     1
 62
     7
176
     1
 62
   257
176
     1
 90
        1
176
     1
 90
        1
176
     1
 40
1.0
176
     1
 90
        0
176
     1
 62
   257
176
     1
 40
1.0
176
     1
 90
        1
176
     1
 90
        6
176
     1
 90
        2
176
     1
 62
     7
176
     1
 90
        5
176
     1
 90
        0
176
     1
 90
        0
176
     1
290
     0
176
     1
 90
       13
176
     1
 40
0.0
176
     1
 90
        0
176
     1
290
     0
176
     1
290
     1
176
     1
290
     1
176
     1
290
     0
176
     1
290
     0
176
     1
290
     0
176
     1
290
     0
176
     1
290
     0
176
     1
290
     0
176
     1
 90
       50
176
     1
 40
0.0
176
     1
 40
1.0
176
     1
 90
        0
176
     1
 62
    18
420
        0
176
     1
 90
       50
176
     1
 90
        3
176
     1
 62
     5
420
      255
176
     1
290
     0
176
     1
 90
       50
176
     1
 90
       50
176
     1
 90
       50
176
     1
290
     0
176
     1
 90
       50
176
     1
 62
   256
176
     0
 40
1.0
176
     0
 90
        2
176
     1
  1
strokes_ogs.tif
176
     1
290
     0
176
     1
 40
1.0
176
     1
 40
1.0
176
     1
  0
VISUALSTYLE
  5
31
102
{ACAD_REACTORS
330
29
102
}
330
29
100
AcDbVisualStyle
  2
Hidden
 70
     6
177
     3
291
     0
 70
    58
 90
        1
176
     1
 90
        2
176
     1
 90
        2
176
     1
 90
        0
176
     1
 40
0.6
176
     1
 40
30.0
176
     1
 62
     7
420
 16777215
176
     1
 90
        2
176
     1
 90
        2
176
     1
 62
     7
176
     1
 62
   257
176
     1
 90
        2
176
     1
 90
        1
176
     1
 40
40.0
176
     1
 90
        0
176
     1
 62
   257
176
     1
 40
1.0
176
     1
 90
        1
176
     1
 90
        6
176
     1
 90
        2
176
     1
 62
     7
176
     1
 90
        3
176
     1
 90
        0
176
     1
 90
        0
176
     1
290
     0
176
     1
 90
        1
176
     1
 40
0.0
176
     1
 90
        0
176
     1
290
     0
176
     1
290
     1
176
     1
290
     1
176
     1
290
     0
176
     1
290
     0
176
     1
290
     0
176
     1
290
     0
176
     1
290
     0
176
     1
290
     0
176
     1
 90
       50
176
     1
 40
0.0
176
     1
 40
1.0
176
     1
 90
        0
176
     1
 62
    18
420
        0
176
     1
 90
       50
176
     1
 90
        3
176
     1
 62
     5
420
      255
176
     1
290
     0
176
     1
 90
       50
176
     1
 90
       50
176
     1
 90
       50
176
     1
290
     0
176
     1
 90
       50
176
     1
 62
   256
176
     0
 40
1.0
176
     0
 90
        2
176
     1
  1
strokes_ogs.tif
176
     1
290
     0
176
     1
 40
1.0
176
     1
 40
1.0
176
     1
  0
VISUALSTYLE
  5
3F
102
{ACAD_REACTORS
330
29
102
}
330
29
100
AcDbVisualStyle
  2
JitterOff
 70
    20
177
     3
291
     1
 70
    58
 90
        2
176
     0
 90
        2
176
     0
 90
        0
176
     0
 90
        0
176
     0
 40
0.6
176
     0
 40
30.0
176
     0
 62
     7
420
 16777215
176
     0
 90
        1
176
     0
 90
        4
176
     0
 62
     7
176
     0
 62
   257
176
     0
 90
        1
176
     0
 90
        1
176
     0
 40
1.0
176
     0
 90
       10
176
     2
 62
     7
176
     0
 40
1.0
176
     0
 90
        1
176
     0
 90
        6
176
     0
 90
        2
176
     0
 62
     7
176
     0
 90
        5
176
     0
 90
        0
176
     0
 90
        0
176
     0
290
     0
176
     0
 90
        1
176
     0
 40
0.0
176
     0
 90
        0
176
     0
290
     0
176
     0
290
     1
176
     0
290
     1
176
     0
290
     0
176
     0
290
     0
176
     0
290
     0
176
     0
290
     0
176
     0
290
     0
176
     0
290
     0
176
     0
 90
       50
176
     0
 40
0.0
176
     0
 40
1.0
176
     0
 90
        0
176
     0
 62
    18
420
        0
176
     0
 90
       50
176
     0
 90
        3
176
     0
 62
     5
420
      255
176
     0
290
     0
176
     0
 90
       50
176
     0
 90
       50
176
     0
 90
       50
176
     0
290
     0
176
     0
 90
       50
176
     0
 62
   256
176
     0
 40
1.0
176
     0
 90
        2
176
     0
  1
strokes_ogs.tif
176
     0
290
     0
176
     0
 40
1.0
176
     0
 40
1.0
176
     0
  0
VISUALSTYLE
  5
37
102
{ACAD_REACTORS
330
29
102
}
330
29
100
AcDbVisualStyle
  2
Linepattern
 70
    14
177
     3
291
     1
 70
    58
 90
        2
176
     1
 90
        2
176
     1
 90
        0
176
     1
 90
        0
176
     1
 40
0.6
176
     1
 40
30.0
176
     1
 62
     7
420
 16777215
176
     1
 90
        1
176
     1
 90
        4
176
     1
 62
     7
176
     1
 62
   257
176
     1
 90
        7
176
     1
 90
        7
176
     1
 40
1.0
176
     1
 90
        8
176
     1
 62
     7
176
     1
 40
1.0
176
     1
 90
        1
176
     1
 90
        6
176
     1
 90
        2
176
     1
 62
     7
176
     1
 90
        5
176
     1
 90
        0
176
     1
 90
        0
176
     1
290
     0
176
     1
 90
        1
176
     1
 40
0.0
176
     1
 90
        0
176
     1
290
     0
176
     1
290
     1
176
     1
290
     1
176
     1
290
     0
176
     1
290
     0
176
     1
290
     0
176
     1
290
     0
176
     1
290
     0
176
     1
290
     0
176
     1
 90
       50
176
     1
 40
0.0
176
     1
 40
1.0
176
     1
 90
        0
176
     1
 62
    18
420
        0
176
     1
 90
       50
176
     1
 90
        3
176
     1
 62
     5
420
      255
176
     1
290
     0
176
     1
 90
       50
176
     1
 90
       50
176
     1
 90
       50
176
     1
290
     0
176
     1
 90
       50
176
     1
 62
   256
176
     0
 40
1.0
176
     0
 90
        2
176
     1
  1
strokes_ogs.tif
176
     1
290
     0
176
     1
 40
1.0
176
     1
 40
1.0
176
     1
  0
VISUALSTYLE
  5
40
102
{ACAD_REACTORS
330
29
102
}
330
29
100
AcDbVisualStyle
  2
OverhangOff
 70
    21
177
     3
291
     1
 70
    58
 90
        2
176
     0
 90
        2
176
     0
 90
        0
176
     0
 90
        0
176
     0
 40
0.6
176
     0
 40
30.0
176
     0
 62
     7
420
 16777215
176
     0
 90
        1
176
     0
 90
        4
176
     0
 62
     7
176
     0
 62
   257
176
     0
 90
        1
176
     0
 90
        1
176
     0
 40
1.0
176
     0
 90
        9
176
     2
 62
     7
176
     0
 40
1.0
176
     0
 90
        1
176
     0
 90
        6
176
     0
 90
        2
176
     0
 62
     7
176
     0
 90
        5
176
     0
 90
        0
176
     0
 90
        0
176
     0
290
     0
176
     0
 90
        1
176
     0
 40
0.0
176
     0
 90
        0
176
     0
290
     0
176
     0
290
     1
176
     0
290
     1
176
     0
290
     0
176
     0
290
     0
176
     0
290
     0
176
     0
290
     0
176
     0
290
     0
176
     0
290
     0
176
     0
 90
       50
176
     0
 40
0.0
176
     0
 40
1.0
176
     0
 90
        0
176
     0
 62
    18
420
        0
176
     0
 90
       50
176
     0
 90
        3
176
     0
 62
     5
420
      255
176
     0
290
     0
176
     0
 90
       50
176
     0
 90
       50
176
     0
 90
       50
176
     0
290
     0
176
     0
 90
       50
176
     0
 62
   256
176
     0
 40
1.0
176
     0
 90
        2
176
     0
  1
strokes_ogs.tif
176
     0
290
     0
176
     0
 40
1.0
176
     0
 40
1.0
176
     0
  0
VISUALSTYLE
  5
33
102
{ACAD_REACTORS
330
29
102
}
330
29
100
AcDbVisualStyle
  2
Realistic
 70
     8
177
     3
291
     0
 70
    58
 90
        2
176
     1
 90
        3
176
     1
 90
        0
176
     1
 90
        2
176
     1
 40
0.6
176
     1
 40
30.0
176
     1
 62
     7
420
 16777215
176
     1
 90
        0
176
     1
 90
        0
176
     1
 62
     7
176
     1
 62
   257
176
     1
 90
        1
176
     1
 90
        1
176
     1
 40
1.0
176
     1
 90
        8
176
     1
 62
   257
176
     1
 40
1.0
176
     1
 90
        1
176
     1
 90
        6
176
     1
 90
        2
176
     1
 62
     7
176
     1
 90
        3
176
     1
 90
        0
176
     1
 90
        0
176
     1
290
     0
176
     1
 90
       13
176
     1
 40
0.0
176
     1
 90
        0
176
     1
290
     0
176
     1
290
     1
176
     1
290
     1
176
     1
290
     0
176
     1
290
     0
176
     1
290
     0
176
     1
290
     0
176
     1
290
     0
176
     1
290
     0
176
     1
 90
       50
176
     1
 40
0.0
176
     1
 40
1.0
176
     1
 90
        0
176
     1
 62
    18
420
        0
176
     1
 90
       50
176
     1
 90
        3
176
     1
 62
     5
420
      255
176
     1
290
     0
176
     1
 90
       50
176
     1
 90
       50
176
     1
 90
       50
176
     1
290
     0
176
     1
 90
       50
176
     1
 62
   256
176
     0
 40
1.0
176
     0
 90
        2
176
     1
  1
strokes_ogs.tif
176
     1
290
     0
176
     1
 40
1.0
176
     1
 40
1.0
176
     1
  0
VISUALSTYLE
  5
3E
102
{ACAD_REACTORS
330
29
102
}
330
29
100
AcDbVisualStyle
  2
Shaded
 70
    27
177
     3
291
     0
 70
    58
 90
        2
176
     1
 90
        2
176
     1
 90
        1
176
     1
 90
        2
176
     1
 40
0.6
176
     1
 40
30.0
176
     1
 62
     7
420
 16777215
176
     1
 90
        0
176
     1
 90
        4
176
     1
 62
     7
176
     1
 62
   257
176
     1
 90
        1
176
     1
 90
        1
176
     1
 40
1.0
176
     1
 90
        8
176
     1
 62
   257
176
     1
 40
1.0
176
     1
 90
        1
176
     1
 90
        6
176
     1
 90
        2
176
     1
 62
     8
420
  7895160
176
     1
 90
        3
176
     1
 90
        0
176
     1
 90
        0
176
     1
290
     0
176
     1
 90
        5
176
     1
 40
0.0
176
     1
 90
        0
176
     1
290
     0
176
     1
290
     1
176
     1
290
     1
176
     1
290
     0
176
     1
290
     0
176
     1
290
     0
176
     1
290
     0
176
     1
290
     0
176
     1
290
     0
176
     1
 90
       50
176
     1
 40
0.0
176
     1
 40
1.0
176
     1
 90
        0
176
     1
 62
    18
420
        0
176
     1
 90
       50
176
     1
 90
        3
176
     1
 62
     5
420
      255
176
     1
290
     0
176
     1
 90
       50
176
     1
 90
       50
176
     1
 90
       50
176
     1
290
     0
176
     1
 90
       50
176
     1
 62
   256
176
     0
 40
1.0
176
     0
 90
        2
176
     1
  1
strokes_ogs.tif
176
     1
290
     0
176
     1
 40
1.0
176
     1
 40
1.0
176
     1
  0
VISUALSTYLE
  5
3D
102
{ACAD_REACTORS
330
29
102
}
330
29
100
AcDbVisualStyle
  2
Shaded with edges
 70
    26
177
     3
291
     0
 70
    58
 90
        2
176
     1
 90
        2
176
     1
 90
        1
176
     1
 90
        2
176
     1
 40
0.6
176
     1
 40
30.0
176
     1
 62
     7
420
 16777215
176
     1
 90
        1
176
     1
 90
       10
176
     1
 62
     7
176
     1
 62
   257
176
     1
 90
        2
176
     1
 90
        1
176
     1
 40
1.0
176
     1
 90
        8
176
     1
 62
   257
176
     1
 40
1.0
176
     1
 90
        1
176
     1
 90
        6
176
     1
 90
        2
176
     1
 62
     7
176
     1
 90
        3
176
     1
 90
        0
176
     1
 90
        0
176
     1
290
     0
176
     1
 90
        5
176
     1
 40
0.0
176
     1
 90
        0
176
     1
290
     0
176
     1
290
     1
176
     1
290
     1
176
     1
290
     0
176
     1
290
     0
176
     1
290
     0
176
     1
290
     0
176
     1
290
     0
176
     1
290
     0
176
     1
 90
       50
176
     1
 40
0.0
176
     1
 40
1.0
176
     1
 90
        0
176
     1
 62
    18
420
        0
176
     1
 90
       50
176
     1
 90
        3
176
     1
 62
     5
420
      255
176
     1
290
     0
176
     1
 90
       50
176
     1
 90
       50
176
     1
 90
       50
176
     1
290
     0
176
     1
 90
       50
176
     1
 62
   256
176
     0
 40
1.0
176
     0
 90
        2
176
     1
  1
strokes_ogs.tif
176
     1
290
     0
176
     1
 40
1.0
176
     1
 40
1.0
176
     1
  0
VISUALSTYLE
  5
3A
102
{ACAD_REACTORS
330
29
102
}
330
29
100
AcDbVisualStyle
  2
Shades of Gray
 70
    23
177
     3
291
     0
 70
    58
 90
        2
176
     1
 90
        2
176
     1
 90
        3
176
     1
 90
        0
176
     1
 40
0.6
176
     1
 40
30.0
176
     1
 62
     7
420
 16777215
176
     1
 90
        2
176
     1
 90
        2
176
     1
 62
     7
176
     1
 62
     7
176
     1
 90
        1
176
     1
 90
        1
176
     1
 40
40.0
176
     1
 90
        8
176
     1
 62
     7
176
     1
 40
1.0
176
     1
 90
        1
176
     1
 90
        6
176
     1
 90
        2
176
     1
 62
     7
176
     1
 90
        3
176
     1
 90
        0
176
     1
 90
        0
176
     1
290
     0
176
     1
 90
        1
176
     1
 40
0.0
176
     1
 90
        0
176
     1
290
     0
176
     1
290
     1
176
     1
290
     1
176
     1
290
     0
176
     1
290
     0
176
     1
290
     0
176
     1
290
     0
176
     1
290
     0
176
     1
290
     0
176
     1
 90
       50
176
     1
 40
0.0
176
     1
 40
1.0
176
     1
 90
        0
176
     1
 62
    18
420
        0
176
     1
 90
       50
176
     1
 90
        3
176
     1
 62
     5
420
      255
176
     1
290
     0
176
     1
 90
       50
176
     1
 90
       50
176
     1
 90
       50
176
     1
290
     0
176
     1
 90
       50
176
     1
 62
   256
176
     0
 40
1.0
176
     0
 90
        2
176
     1
  1
strokes_ogs.tif
176
     1
290
     0
176
     1
 40
1.0
176
     1
 40
1.0
176
     1
  0
VISUALSTYLE
  5
3B
102
{ACAD_REACTORS
330
29
102
}
330
29
100
AcDbVisualStyle
  2
Sketchy
 70
    24
177
     3
291
     0
 70
    58
 90
        1
176
     1
 90
        2
176
     1
 90
        2
176
     1
 90
        0
176
     1
 40
0.6
176
     1
 40
30.0
176
     1
 62
     7
420
 16777215
176
     1
 90
        2
176
     1
 90
        2
176
     1
 62
     7
176
     1
 62
     7
176
     1
 90
        1
176
     1
 90
        1
176
     1
 40
40.0
176
     1
 90
       11
176
     1
 62
     7
176
     1
 40
1.0
176
     1
 90
        1
176
     1
 90
        6
176
     1
 90
        2
176
     1
 62
     7
176
     1
 90
        6
176
     1
 90
        0
176
     1
 90
        0
176
     1
290
     0
176
     1
 90
        1
176
     1
 40
0.0
176
     1
 90
        0
176
     1
290
     0
176
     1
290
     1
176
     1
290
     1
176
     1
290
     0
176
     1
290
     0
176
     1
290
     0
176
     1
290
     0
176
     1
290
     0
176
     1
290
     0
176
     1
 90
       50
176
     1
 40
0.0
176
     1
 40
1.0
176
     1
 90
        0
176
     1
 62
    18
420
        0
176
     1
 90
       50
176
     1
 90
        3
176
     1
 62
     5
420
      255
176
     1
290
     0
176
     1
 90
       50
176
     1
 90
       50
176
     1
 90
       50
176
     1
290
     0
176
     1
 90
       50
176
     1
 62
   256
176
     0
 40
1.0
176
     0
 90
        2
176
     1
  1
strokes_ogs.tif
176
     1
290
     0
176
     1
 40
1.0
176
     1
 40
1.0
176
     1
  0
VISUALSTYLE
  5
36
102
{ACAD_REACTORS
330
29
102
}
330
29
100
AcDbVisualStyle
  2
Thicken
 70
    13
177
     3
291
     1
 70
    58
 90
        2
176
     1
 90
        2
176
     1
 90
        0
176
     1
 90
        0
176
     1
 40
0.6
176
     1
 40
30.0
176
     1
 62
     7
420
 16777215
176
     1
 90
        1
176
     1
 90
        4
176
     1
 62
     7
176
     1
 62
   257
176
     1
 90
        1
176
     1
 90
        1
176
     1
 40
1.0
176
     1
 90
       12
176
     1
 62
     7
176
     1
 40
1.0
176
     1
 90
        1
176
     1
 90
        6
176
     1
 90
        2
176
     1
 62
     7
176
     1
 90
        5
176
     1
 90
        0
176
     1
 90
        0
176
     1
290
     0
176
     1
 90
        1
176
     1
 40
0.0
176
     1
 90
        0
176
     1
290
     0
176
     1
290
     1
176
     1
290
     1
176
     1
290
     0
176
     1
290
     0
176
     1
290
     0
176
     1
290
     0
176
     1
290
     0
176
     1
290
     0
176
     1
 90
       50
176
     1
 40
0.0
176
     1
 40
1.0
176
     1
 90
        0
176
     1
 62
    18
420
        0
176
     1
 90
       50
176
     1
 90
        3
176
     1
 62
     5
420
      255
176
     1
290
     0
176
     1
 90
       50
176
     1
 90
       50
176
     1
 90
       50
176
     1
290
     0
176
     1
 90
       50
176
     1
 62
   256
176
     0
 40
1.0
176
     0
 90
        2
176
     1
  1
strokes_ogs.tif
176
     1
290
     0
176
     1
 40
1.0
176
     1
 40
1.0
176
     1
  0
VISUALSTYLE
  5
30
102
{ACAD_REACTORS
330
29
102
}
330
29
100
AcDbVisualStyle
  2
Wireframe
 70
     5
177
     3
291
     0
 70
    58
 90
        0
176
     1
 90
        2
176
     1
 90
        0
176
     1
 90
        0
176
     1
 40
0.6
176
     1
 40
30.0
176
     1
 62
     7
420
 16777215
176
     1
 90
        1
176
     1
 90
        4
176
     1
 62
     7
176
     1
 62
   257
176
     1
 90
        1
176
     1
 90
        1
176
     1
 40
1.0
176
     1
 90
        0
176
     1
 62
   257
176
     1
 40
1.0
176
     1
 90
        1
176
     1
 90
        6
176
     1
 90
        2
176
     1
 62
     7
176
     1
 90
        3
176
     1
 90
        0
176
     1
 90
        0
176
     1
290
     0
176
     1
 90
        1
176
     1
 40
0.0
176
     1
 90
        0
176
     1
290
     0
176
     1
290
     1
176
     1
290
     1
176
     1
290
     0
176
     1
290
     0
176
     1
290
     0
176
     1
290
     0
176
     1
290
     0
176
     1
290
     0
176
     1
 90
       50
176
     1
 40
0.0
176
     1
 40
1.0
176
     1
 90
        0
176
     1
 62
    18
420
        0
176
     1
 90
       50
176
     1
 90
        3
176
     1
 62
     5
420
      255
176
     1
290
     0
176
     1
 90
       50
176
     1
 90
       50
176
     1
 90
       50
176
     1
290
     0
176
     1
 90
       50
176
     1
 62
   256
176
     0
 40
1.0
176
     0
 90
        2
176
     1
  1
strokes_ogs.tif
176
     1
290
     0
176
     1
 40
1.0
176
     1
 40
1.0
176
     1
  0
VISUALSTYLE
  5
3C
102
{ACAD_REACTORS
330
29
102
}
330
29
100
AcDbVisualStyle
  2
X-Ray
 70
    25
177
     3
291
     0
 70
    58
 90
        2
176
     1
 90
        2
176
     1
 90
        1
176
     1
 90
        1
176
     1
 40
0.5
176
     1
 40
30.0
176
     1
 62
     7
420
 16777215
176
     1
 90
        1
176
     1
 90
        0
176
     1
 62
     7
176
     1
 62
   257
176
     1
 90
        1
176
     1
 90
        1
176
     1
 40
1.0
176
     1
 90
        8
176
     1
 62
     7
176
     1
 40
1.0
176
     1
 90
        1
176
     1
 90
        6
176
     1
 90
        2
176
     1
 62
     7
176
     1
 90
        3
176
     1
 90
        0
176
     1
 90
        0
176
     1
290
     0
176
     1
 90
       13
176
     1
 40
0.0
176
     1
 90
        0
176
     1
290
     0
176
     1
290
     1
176
     1
290
     1
176
     1
290
     0
176
     1
290
     0
176
     1
290
     0
176
     1
290
     0
176
     1
290
     0
176
     1
290
     0
176
     1
 90
       50
176
     1
 40
0.0
176
     1
 40
1.0
176
     1
 90
        0
176
     1
 62
    18
420
        0
176
     1
 90
       50
176
     1
 90
        3
176
     1
 62
     5
420
      255
176
     1
290
     0
176
     1
 90
       50
176
     1
 90
       50
176
     1
 90
       50
176
     1
290
     0
176
     1
 90
       50
176
     1
 62
   256
176
     0
 40
1.0
176
     0
 90
        2
176
     1
  1
strokes_ogs.tif
176
     1
290
     0
176
     1
 40
1.0
176
     1
 40
1.0
176
     1
  0
DICTIONARYVAR
  5
81
102
{ACAD_REACTORS
330
7C
102
}
330
7C
100
DictionaryVariables
280
     0
  1
1:1
  0
DICTIONARYVAR
  5
7E
102
{ACAD_REACTORS
330
7C
102
}
330
7C
100
DictionaryVariables
280
     0
  1
STANDARD
  0
DICTIONARYVAR
  5
7D
102
{ACAD_REACTORS
330
7C
102
}
330
7C
100
DictionaryVariables
280
     0
  1
STANDARD
  0
DICTIONARYVAR
  5
7F
102
{ACAD_REACTORS
330
7C
102
}
330
7C
100
DictionaryVariables
280
     0
  1
Imperial24
  0
DICTIONARYVAR
  5
80
102
{ACAD_REACTORS
330
7C
102
}
330
7C
100
DictionaryVariables
280
     0
  1
Imperial24
  0
XRECORD
  5
3A5
102
{ACAD_REACTORS
330
3A1
102
}
330
3A1
100
AcDbXrecord
280
     1
  1
BUILDING_ID
  1
Progetto per messa in tavola DXF, DWG
  1
FLOOR_ID
  1
694395
  0
XRECORD
  5
3A3
102
{ACAD_REACTORS
330
3A1
102
}
330
3A1
100
AcDbXrecord
280
     1
  1
-2001160
  1
Apparecchi idraulici
  0
XRECORD
  5
3A4
102
{ACAD_REACTORS
330
3A1
102
}
330
3A1
100
AcDbXrecord
280
     1
  1
923097
  1
Handle
  0
XRECORD
  5
3A2
102
{ACAD_REACTORS
330
3A1
102
}
330
3A1
100
AcDbXrecord
280
     1
  1
980146
  1
Automatic flow rate regulator valve_Caleffi_121 DN15 : 2''_Pressure gauge H
  0
DICTIONARY
  5
1A
330
19
100
AcDbDictionary
280
     1
281
     1
  3
BUMPTILE
360
1C
  3
DIFFUSETILE
360
1B
  3
OPACITYTILE
360
1F
  3
REFLECTIONTILE
360
1E
  3
REFRACTIONTILE
360
20
  3
SPECULARTILE
360
1D
  0
DICTIONARY
  5
12
330
11
100
AcDbDictionary
280
     1
281
     1
  3
BUMPTILE
360
14
  3
DIFFUSETILE
360
13
  3
OPACITYTILE
360
17
  3
REFLECTIONTILE
360
16
  3
REFRACTIONTILE
360
18
  3
SPECULARTILE
360
15
  0
DICTIONARY
  5
22
330
21
100
AcDbDictionary
280
     1
281
     1
  3
BUMPTILE
360
24
  3
DIFFUSETILE
360
23
  3
OPACITYTILE
360
27
  3
REFLECTIONTILE
360
26
  3
REFRACTIONTILE
360
28
  3
SPECULARTILE
360
25
  0
DICTIONARY
  5
3A8
330
65
100
AcDbDictionary
280
     1
281
     1
  3
ACAD_ROUNDTRIP_2008_TABLESTYLE_CELLSTYLEMAP
360
3A9
  0
XRECORD
  5
1C
102
{ACAD_REACTORS
330
1A
102
}
330
1A
100
AcDbXrecord
280
     1
270
     1
271
     1
  0
XRECORD
  5
1B
102
{ACAD_REACTORS
330
1A
102
}
330
1A
100
AcDbXrecord
280
     1
270
     1
271
     1
  0
XRECORD
  5
1F
102
{ACAD_REACTORS
330
1A
102
}
330
1A
100
AcDbXrecord
280
     1
270
     1
271
     1
  0
XRECORD
  5
1E
102
{ACAD_REACTORS
330
1A
102
}
330
1A
100
AcDbXrecord
280
     1
270
     1
271
     1
  0
XRECORD
  5
20
102
{ACAD_REACTORS
330
1A
102
}
330
1A
100
AcDbXrecord
280
     1
270
     1
271
     1
  0
XRECORD
  5
1D
102
{ACAD_REACTORS
330
1A
102
}
330
1A
100
AcDbXrecord
280
     1
270
     1
271
     1
  0
XRECORD
  5
14
102
{ACAD_REACTORS
330
12
102
}
330
12
100
AcDbXrecord
280
     1
270
     1
271
     1
  0
XRECORD
  5
13
102
{ACAD_REACTORS
330
12
102
}
330
12
100
AcDbXrecord
280
     1
270
     1
271
     1
  0
XRECORD
  5
17
102
{ACAD_REACTORS
330
12
102
}
330
12
100
AcDbXrecord
280
     1
270
     1
271
     1
  0
XRECORD
  5
16
102
{ACAD_REACTORS
330
12
102
}
330
12
100
AcDbXrecord
280
     1
270
     1
271
     1
  0
XRECORD
  5
18
102
{ACAD_REACTORS
330
12
102
}
330
12
100
AcDbXrecord
280
     1
270
     1
271
     1
  0
XRECORD
  5
15
102
{ACAD_REACTORS
330
12
102
}
330
12
100
AcDbXrecord
280
     1
270
     1
271
     1
  0
XRECORD
  5
24
102
{ACAD_REACTORS
330
22
102
}
330
22
100
AcDbXrecord
280
     1
270
     1
271
     1
  0
XRECORD
  5
23
102
{ACAD_REACTORS
330
22
102
}
330
22
100
AcDbXrecord
280
     1
270
     1
271
     1
  0
XRECORD
  5
27
102
{ACAD_REACTORS
330
22
102
}
330
22
100
AcDbXrecord
280
     1
270
     1
271
     1
  0
XRECORD
  5
26
102
{ACAD_REACTORS
330
22
102
}
330
22
100
AcDbXrecord
280
     1
270
     1
271
     1
  0
XRECORD
  5
28
102
{ACAD_REACTORS
330
22
102
}
330
22
100
AcDbXrecord
280
     1
270
     1
271
     1
  0
XRECORD
  5
25
102
{ACAD_REACTORS
330
22
102
}
330
22
100
AcDbXrecord
280
     1
270
     1
271
     1
  0
CELLSTYLEMAP
  5
3A9
102
{ACAD_REACTORS
330
3A8
102
}
330
3A8
100
AcDbCellStyleMap
 90
        3
300
CELLSTYLE
  1
TABLEFORMAT_BEGIN
 90
        5
170
     1
 91
        0
 92
    32768
 62
   257
 93
        1
300
CONTENTFORMAT
  1
CONTENTFORMAT_BEGIN
 90
        0
 91
        0
 92
      512
 93
        0
300

 40
0.0
140
1.0
 94
        5
 62
     0
340
55
144
0.25
309
CONTENTFORMAT_END
171
     0
 94
        0
309
TABLEFORMAT_END
  1
CELLSTYLE_BEGIN
 90
        1
 91
        1
300
_TITLE
309
CELLSTYLE_END
300
CELLSTYLE
  1
TABLEFORMAT_BEGIN
 90
        5
170
     1
 91
        0
 92
        0
 62
   257
 93
        1
300
CONTENTFORMAT
  1
CONTENTFORMAT_BEGIN
 90
        0
 91
        0
 92
      512
 93
        0
300

 40
0.0
140
1.0
 94
        5
 62
     0
340
55
144
0.18
309
CONTENTFORMAT_END
171
     0
 94
        0
309
TABLEFORMAT_END
  1
CELLSTYLE_BEGIN
 90
        2
 91
        1
300
_HEADER
309
CELLSTYLE_END
300
CELLSTYLE
  1
TABLEFORMAT_BEGIN
 90
        5
170
     1
 91
        0
 92
        0
 62
   257
 93
        1
300
CONTENTFORMAT
  1
CONTENTFORMAT_BEGIN
 90
        0
 91
        0
 92
      512
 93
        0
300

 40
0.0
140
1.0
 94
        2
 62
     0
340
55
144
0.18
309
CONTENTFORMAT_END
171
     0
 94
        0
309
TABLEFORMAT_END
  1
CELLSTYLE_BEGIN
 90
        3
 91
        2
300
_DATA
309
CELLSTYLE_END
  0
ENDSEC
  0
EOF
