  0
SECTION
  2
HEADER
  9
$ACADVER
  1
AC1027
  9
$ACADMAINTVER
 70
    20
  9
$DWGCODEPAGE
  3
ANSI_1252
  9
$REQUIREDVERSIONS
160
                 0
  9
$INSBASE
 10
0.0
 20
0.0
 30
0.0
  9
$EXTMIN
 10
749.1664074431874
 20
1729.748020738367
 30
-0.00000001
  9
$EXTMAX
 10
1091.1131568289
 20
2019.998183850034
 30
0.00000001
  9
$LIMMIN
 10
0.0
 20
0.0
  9
$LIMMAX
 10
12.0
 20
9.0
  9
$ORTHOMODE
 70
     0
  9
$REGENMODE
 70
     1
  9
$FILLMODE
 70
     1
  9
$QTEXTMODE
 70
     0
  9
$MIRRTEXT
 70
     0
  9
$LTSCALE
 40
1.0
  9
$ATTMODE
 70
     1
  9
$TEXTSIZE
 40
0.2
  9
$TRACEWID
 40
0.05
  9
$TEXTSTYLE
  7
Standard
  9
$CLAYER
  8
0
  9
$CELTYPE
  6
ByLayer
  9
$CECOLOR
 62
   256
  9
$CELTSCALE
 40
1.0
  9
$DISPSILH
 70
     0
  9
$DIMSCALE
 40
1.0
  9
$DIMASZ
 40
0.18
  9
$DIMEXO
 40
0.0625
  9
$DIMDLI
 40
0.38
  9
$DIMRND
 40
0.0
  9
$DIMDLE
 40
0.0
  9
$DIMEXE
 40
0.18
  9
$DIMTP
 40
0.0
  9
$DIMTM
 40
0.0
  9
$DIMTXT
 40
0.18
  9
$DIMCEN
 40
0.09
  9
$DIMTSZ
 40
0.0
  9
$DIMTOL
 70
     0
  9
$DIMLIM
 70
     0
  9
$DIMTIH
 70
     1
  9
$DIMTOH
 70
     1
  9
$DIMSE1
 70
     0
  9
$DIMSE2
 70
     0
  9
$DIMTAD
 70
     0
  9
$DIMZIN
 70
     0
  9
$DIMBLK
  1

  9
$DIMASO
 70
     1
  9
$DIMSHO
 70
     1
  9
$DIMPOST
  1

  9
$DIMAPOST
  1

  9
$DIMALT
 70
     0
  9
$DIMALTD
 70
     2
  9
$DIMALTF
 40
25.4
  9
$DIMLFAC
 40
1.0
  9
$DIMTOFL
 70
     0
  9
$DIMTVP
 40
0.0
  9
$DIMTIX
 70
     0
  9
$DIMSOXD
 70
     0
  9
$DIMSAH
 70
     0
  9
$DIMBLK1
  1

  9
$DIMBLK2
  1

  9
$DIMSTYLE
  2
Standard
  9
$DIMCLRD
 70
     0
  9
$DIMCLRE
 70
     0
  9
$DIMCLRT
 70
     0
  9
$DIMTFAC
 40
1.0
  9
$DIMGAP
 40
0.09
  9
$DIMJUST
 70
     0
  9
$DIMSD1
 70
     0
  9
$DIMSD2
 70
     0
  9
$DIMTOLJ
 70
     1
  9
$DIMTZIN
 70
     0
  9
$DIMALTZ
 70
     0
  9
$DIMALTTZ
 70
     0
  9
$DIMUPT
 70
     0
  9
$DIMDEC
 70
     4
  9
$DIMTDEC
 70
     4
  9
$DIMALTU
 70
     2
  9
$DIMALTTD
 70
     2
  9
$DIMTXSTY
  7
Standard
  9
$DIMAUNIT
 70
     0
  9
$DIMADEC
 70
     0
  9
$DIMALTRND
 40
0.0
  9
$DIMAZIN
 70
     0
  9
$DIMDSEP
 70
    46
  9
$DIMATFIT
 70
     3
  9
$DIMFRAC
 70
     0
  9
$DIMLDRBLK
  1

  9
$DIMLUNIT
 70
     2
  9
$DIMLWD
 70
    -2
  9
$DIMLWE
 70
    -2
  9
$DIMTMOVE
 70
     0
  9
$DIMFXL
 40
1.0
  9
$DIMFXLON
 70
     0
  9
$DIMJOGANG
 40
0.7853981633974483
  9
$DIMTFILL
 70
     0
  9
$DIMTFILLCLR
 70
     0
  9
$DIMARCSYM
 70
     0
  9
$DIMLTYPE
  6

  9
$DIMLTEX1
  6

  9
$DIMLTEX2
  6

  9
$DIMTXTDIRECTION
 70
     0
  9
$LUNITS
 70
     2
  9
$LUPREC
 70
     4
  9
$SKETCHINC
 40
0.1
  9
$FILLETRAD
 40
0.0
  9
$AUNITS
 70
     0
  9
$AUPREC
 70
     0
  9
$MENU
  1
.
  9
$ELEVATION
 40
0.0
  9
$PELEVATION
 40
0.0
  9
$THICKNESS
 40
0.0
  9
$LIMCHECK
 70
     0
  9
$CHAMFERA
 40
0.0
  9
$CHAMFERB
 40
0.0
  9
$CHAMFERC
 40
0.0
  9
$CHAMFERD
 40
0.0
  9
$SKPOLY
 70
     0
  9
$TDCREATE
 40
2457569.682836135
  9
$TDUCREATE
 40
2457569.599502801
  9
$TDUPDATE
 40
2457569.682836135
  9
$TDUUPDATE
 40
2457569.599502801
  9
$TDINDWG
 40
0.0000180208
  9
$TDUSRTIMER
 40
0.0000180208
  9
$USRTIMER
 70
     1
  9
$ANGBASE
 50
0.0
  9
$ANGDIR
 70
     0
  9
$PDMODE
 70
     0
  9
$PDSIZE
 40
0.0
  9
$PLINEWID
 40
0.0
  9
$SPLFRAME
 70
     0
  9
$SPLINETYPE
 70
     6
  9
$SPLINESEGS
 70
     8
  9
$HANDSEED
  5
2EB
  9
$SURFTAB1
 70
     6
  9
$SURFTAB2
 70
     6
  9
$SURFTYPE
 70
     6
  9
$SURFU
 70
     6
  9
$SURFV
 70
     6
  9
$UCSBASE
  2

  9
$UCSNAME
  2

  9
$UCSORG
 10
0.0
 20
0.0
 30
0.0
  9
$UCSXDIR
 10
1.0
 20
0.0
 30
0.0
  9
$UCSYDIR
 10
0.0
 20
1.0
 30
0.0
  9
$UCSORTHOREF
  2

  9
$UCSORTHOVIEW
 70
     0
  9
$UCSORGTOP
 10
0.0
 20
0.0
 30
0.0
  9
$UCSORGBOTTOM
 10
0.0
 20
0.0
 30
0.0
  9
$UCSORGLEFT
 10
0.0
 20
0.0
 30
0.0
  9
$UCSORGRIGHT
 10
0.0
 20
0.0
 30
0.0
  9
$UCSORGFRONT
 10
0.0
 20
0.0
 30
0.0
  9
$UCSORGBACK
 10
0.0
 20
0.0
 30
0.0
  9
$PUCSBASE
  2

  9
$PUCSNAME
  2

  9
$PUCSORG
 10
0.0
 20
0.0
 30
0.0
  9
$PUCSXDIR
 10
1.0
 20
0.0
 30
0.0
  9
$PUCSYDIR
 10
0.0
 20
1.0
 30
0.0
  9
$PUCSORTHOREF
  2

  9
$PUCSORTHOVIEW
 70
     0
  9
$PUCSORGTOP
 10
0.0
 20
0.0
 30
0.0
  9
$PUCSORGBOTTOM
 10
0.0
 20
0.0
 30
0.0
  9
$PUCSORGLEFT
 10
0.0
 20
0.0
 30
0.0
  9
$PUCSORGRIGHT
 10
0.0
 20
0.0
 30
0.0
  9
$PUCSORGFRONT
 10
0.0
 20
0.0
 30
0.0
  9
$PUCSORGBACK
 10
0.0
 20
0.0
 30
0.0
  9
$USERI1
 70
     0
  9
$USERI2
 70
     0
  9
$USERI3
 70
     0
  9
$USERI4
 70
     0
  9
$USERI5
 70
     0
  9
$USERR1
 40
0.0
  9
$USERR2
 40
0.0
  9
$USERR3
 40
0.0
  9
$USERR4
 40
0.0
  9
$USERR5
 40
0.0
  9
$WORLDVIEW
 70
     1
  9
$SHADEDGE
 70
     3
  9
$SHADEDIF
 70
    70
  9
$TILEMODE
 70
     1
  9
$MAXACTVP
 70
    64
  9
$PINSBASE
 10
0.0
 20
0.0
 30
0.0
  9
$PLIMCHECK
 70
     0
  9
$PEXTMIN
 10
1.000000000000000E+20
 20
1.000000000000000E+20
 30
1.000000000000000E+20
  9
$PEXTMAX
 10
-1.000000000000000E+20
 20
-1.000000000000000E+20
 30
-1.000000000000000E+20
  9
$PLIMMIN
 10
0.0
 20
0.0
  9
$PLIMMAX
 10
12.0
 20
9.0
  9
$UNITMODE
 70
     0
  9
$VISRETAIN
 70
     1
  9
$PLINEGEN
 70
     0
  9
$PSLTSCALE
 70
     1
  9
$TREEDEPTH
 70
  3020
  9
$CMLSTYLE
  2
Standard
  9
$CMLJUST
 70
     0
  9
$CMLSCALE
 40
1.0
  9
$PROXYGRAPHICS
 70
     1
  9
$MEASUREMENT
 70
     1
  9
$CELWEIGHT
370
    -1
  9
$ENDCAPS
280
     0
  9
$JOINSTYLE
280
     0
  9
$LWDISPLAY
290
     0
  9
$INSUNITS
 70
     4
  9
$HYPERLINKBASE
  1

  9
$STYLESHEET
  1

  9
$XEDIT
290
     1
  9
$CEPSNTYPE
380
     0
  9
$PSTYLEMODE
290
     1
  9
$FINGERPRINTGUID
  2
{DAC80D41-C162-4EF5-AC42-02B213B61E35}
  9
$VERSIONGUID
  2
{E15CB0B8-B6B6-4E72-92D3-D29756ABFB8C}
  9
$EXTNAMES
290
     1
  9
$PSVPSCALE
 40
0.0
  9
$OLESTARTUP
290
     0
  9
$SORTENTS
280
   127
  9
$INDEXCTL
280
     0
  9
$HIDETEXT
280
     1
  9
$XCLIPFRAME
280
     2
  9
$HALOGAP
280
     0
  9
$OBSCOLOR
 70
   257
  9
$OBSLTYPE
280
     0
  9
$INTERSECTIONDISPLAY
280
     0
  9
$INTERSECTIONCOLOR
 70
   257
  9
$DIMASSOC
280
     2
  9
$PROJECTNAME
  1

  9
$CAMERADISPLAY
290
     0
  9
$LENSLENGTH
 40
50.0
  9
$CAMERAHEIGHT
 40
0.0
  9
$STEPSPERSEC
 40
2.0
  9
$STEPSIZE
 40
6.0
  9
$3DDWFPREC
 40
2.0
  9
$PSOLWIDTH
 40
0.25
  9
$PSOLHEIGHT
 40
4.0
  9
$LOFTANG1
 40
1.570796326794896
  9
$LOFTANG2
 40
1.570796326794896
  9
$LOFTMAG1
 40
0.0
  9
$LOFTMAG2
 40
0.0
  9
$LOFTPARAM
 70
     7
  9
$LOFTNORMALS
280
     1
  9
$LATITUDE
 40
37.795
  9
$LONGITUDE
 40
-122.394
  9
$NORTHDIRECTION
 40
0.0
  9
$TIMEZONE
 70
 -8000
  9
$LIGHTGLYPHDISPLAY
280
     1
  9
$TILEMODELIGHTSYNCH
280
     1
  9
$CMATERIAL
347
11
  9
$SOLIDHIST
280
     0
  9
$SHOWHIST
280
     1
  9
$DWFFRAME
280
     2
  9
$DGNFRAME
280
     0
  9
$REALWORLDSCALE
290
     1
  9
$INTERFERECOLOR
 62
     1
  9
$INTERFEREOBJVS
345
33
  9
$INTERFEREVPVS
346
30
  9
$CSHADOW
280
     0
  9
$SHADOWPLANELOCATION
 40
0.0
  0
ENDSEC
  0
SECTION
  2
CLASSES
  0
CLASS
  1
ACDBDICTIONARYWDFLT
  2
AcDbDictionaryWithDefault
  3
ObjectDBX Classes
 90
        0
 91
        1
280
     0
281
     0
  0
CLASS
  1
MATERIAL
  2
AcDbMaterial
  3
ObjectDBX Classes
 90
     1153
 91
        3
280
     0
281
     0
  0
CLASS
  1
VISUALSTYLE
  2
AcDbVisualStyle
  3
ObjectDBX Classes
 90
     4095
 91
       24
280
     0
281
     0
  0
CLASS
  1
SCALE
  2
AcDbScale
  3
ObjectDBX Classes
 90
     1153
 91
       17
280
     0
281
     0
  0
CLASS
  1
TABLESTYLE
  2
AcDbTableStyle
  3
ObjectDBX Classes
 90
     4095
 91
        1
280
     0
281
     0
  0
CLASS
  1
MLEADERSTYLE
  2
AcDbMLeaderStyle
  3
ACDB_MLEADERSTYLE_CLASS
 90
     4095
 91
        1
280
     0
281
     0
  0
CLASS
  1
ACDBSECTIONVIEWSTYLE
  2
AcDbSectionViewStyle
  3
ObjectDBX Classes
 90
     1025
 91
        1
280
     0
281
     0
  0
CLASS
  1
ACDBDETAILVIEWSTYLE
  2
AcDbDetailViewStyle
  3
ObjectDBX Classes
 90
     1025
 91
        1
280
     0
281
     0
  0
CLASS
  1
RASTERVARIABLES
  2
AcDbRasterVariables
  3
ISM
 90
        0
 91
        1
280
     0
281
     0
  0
CLASS
  1
DICTIONARYVAR
  2
AcDbDictionaryVar
  3
ObjectDBX Classes
 90
        0
 91
        5
280
     0
281
     0
  0
CLASS
  1
CELLSTYLEMAP
  2
AcDbCellStyleMap
  3
ObjectDBX Classes
 90
     1152
 91
        2
280
     0
281
     0
  0
CLASS
  1
SORTENTSTABLE
  2
AcDbSortentsTable
  3
ObjectDBX Classes
 90
        0
 91
        1
280
     0
281
     0
  0
ENDSEC
  0
SECTION
  2
TABLES
  0
TABLE
  2
VPORT
  5
8
330
0
100
AcDbSymbolTable
 70
     1
  0
VPORT
  5
57
330
8
100
AcDbSymbolTableRecord
100
AcDbViewportTableRecord
  2
*Active
 70
     0
 10
0.0
 20
0.0
 11
1.0
 21
1.0
 12
920.1397821360442
 22
1874.873102294201
 13
0.0
 23
0.0
 14
1.0
 24
1.0
 15
0.0
 25
0.0
 16
0.0
 26
0.0
 36
1.0
 17
0.0
 27
0.0
 37
0.0
 40
290.2501631116672
 41
1.178110446932486
 42
50.0
 43
0.0
 44
0.0
 50
0.0
 51
0.0
 71
     0
 72
  1000
 73
     1
 74
     1
 75
     0
 76
     0
 77
     0
 78
     0
281
     0
 65
     1
110
0.0
120
0.0
130
0.0
111
1.0
121
0.0
131
0.0
112
0.0
122
1.0
132
0.0
 79
     0
146
0.0
 60
     3
 61
     5
292
     1
282
     1
141
0.0
142
0.0
 63
   250
421
  3355443
  0
ENDTAB
  0
TABLE
  2
LTYPE
  5
5
330
0
100
AcDbSymbolTable
 70
     3
  0
LTYPE
  5
5B
330
5
100
AcDbSymbolTableRecord
100
AcDbLinetypeTableRecord
  2
ByBlock
 70
     0
  3

 72
    65
 73
     0
 40
0.0
  0
LTYPE
  5
5C
330
5
100
AcDbSymbolTableRecord
100
AcDbLinetypeTableRecord
  2
ByLayer
 70
     0
  3

 72
    65
 73
     0
 40
0.0
  0
LTYPE
  5
5D
330
5
100
AcDbSymbolTableRecord
100
AcDbLinetypeTableRecord
  2
Continuous
 70
     0
  3
Solid line
 72
    65
 73
     0
 40
0.0
  0
LTYPE
  5
69
330
5
100
AcDbSymbolTableRecord
100
AcDbLinetypeTableRecord
  2
PHANTOM2
 70
     0
  3
___ _ _ ___ _ _ ___ _ _ ___ _ _
 72
    65
 73
     6
 40
1.25
 49
0.625
 74
     0
 49
-0.125
 74
     0
 49
0.125
 74
     0
 49
-0.125
 74
     0
 49
0.125
 74
     0
 49
-0.125
 74
     0
  0
LTYPE
  5
86
330
5
100
AcDbSymbolTableRecord
100
AcDbLinetypeTableRecord
  2
Nascosto 1_5 mm
 70
     0
  3

 72
    65
 73
     2
 40
2.2
 49
1.5
 74
     0
 49
-0.7000000000000001
 74
     0
  0
ENDTAB
  0
TABLE
  2
LAYER
  5
2
330
0
100
AcDbSymbolTable
 70
     4
  0
LAYER
  5
54
330
2
100
AcDbSymbolTableRecord
100
AcDbLayerTableRecord
  2
0
 70
     0
 62
     7
  6
Continuous
370
    -3
390
F
347
21
348
0
  0
LAYER
  5
85
330
2
100
AcDbSymbolTableRecord
100
AcDbLayerTableRecord
  2
P-SANR-FIXT
 70
     0
 62
     6
  6
Continuous
370
    18
390
F
347
21
348
0
  0
LAYER
  5
88
330
2
100
AcDbSymbolTableRecord
100
AcDbLayerTableRecord
  2
M-PIPE
 70
     0
 62
     3
  6
Continuous
370
    18
390
F
347
21
348
0
  0
ENDTAB
  0
TABLE
  2
STYLE
  5
3
330
0
100
AcDbSymbolTable
 70
     2
  0
STYLE
  5
55
330
3
100
AcDbSymbolTableRecord
100
AcDbTextStyleTableRecord
  2
Standard
 70
     0
 40
0.0
 41
1.0
 50
0.0
 71
     0
 42
0.2
  3
txt
  4

  0
STYLE
  5
5A
330
3
100
AcDbSymbolTableRecord
100
AcDbTextStyleTableRecord
  2
Annotative
 70
     0
 40
0.0
 41
1.0
 50
0.0
 71
     0
 42
0.2
  3
txt
  4

1001
AcadAnnotative
1000
AnnotativeData
1002
{
1070
     1
1070
     1
1002
}
  0
ENDTAB
  0
TABLE
  2
VIEW
  5
6
330
0
100
AcDbSymbolTable
 70
     0
  0
ENDTAB
  0
TABLE
  2
UCS
  5
7
330
0
100
AcDbSymbolTable
 70
     0
  0
ENDTAB
  0
TABLE
  2
APPID
  5
9
330
0
100
AcDbSymbolTable
 70
     3
  0
APPID
  5
56
330
9
100
AcDbSymbolTableRecord
100
AcDbRegAppTableRecord
  2
ACAD
 70
     0
  0
APPID
  5
5E
330
9
100
AcDbSymbolTableRecord
100
AcDbRegAppTableRecord
  2
AcadAnnotative
 70
     0
  0
APPID
  5
79
330
9
100
AcDbSymbolTableRecord
100
AcDbRegAppTableRecord
  2
REVIT
 70
     0
  0
ENDTAB
  0
TABLE
  2
DIMSTYLE
  5
A
330
0
100
AcDbSymbolTable
 70
     2
100
AcDbDimStyleTable
 71
     0
  0
DIMSTYLE
105
58
330
A
100
AcDbSymbolTableRecord
100
AcDbDimStyleTableRecord
  2
Standard
 70
     0
340
55
  0
DIMSTYLE
105
59
330
A
100
AcDbSymbolTableRecord
100
AcDbDimStyleTableRecord
  2
Annotative
 70
     0
340
55
1001
AcadAnnotative
1000
AnnotativeData
1002
{
1070
     1
1070
     1
1002
}
  0
ENDTAB
  0
TABLE
  2
BLOCK_RECORD
  5
1
330
0
100
AcDbSymbolTable
 70
     4
  0
BLOCK_RECORD
  5
71
102
{ACAD_XDICTIONARY
360
2E6
102
}
330
1
100
AcDbSymbolTableRecord
100
AcDbBlockTableRecord
  2
*Model_Space
340
74
 70
     0
280
     1
281
     0
  0
BLOCK_RECORD
  5
6D
330
1
100
AcDbSymbolTableRecord
100
AcDbBlockTableRecord
  2
*Paper_Space
340
70
 70
     0
280
     1
281
     0
  0
BLOCK_RECORD
  5
75
330
1
100
AcDbSymbolTableRecord
100
AcDbBlockTableRecord
  2
*Paper_Space0
340
78
 70
     0
280
     1
281
     0
  0
BLOCK_RECORD
  5
87
330
1
100
AcDbSymbolTableRecord
100
AcDbBlockTableRecord
  2
Automatic flow rate regulator valve_Caleffi_121 DN15 - 1_2__-859151-Est - Idraulica
340
0
102
{BLKREFS
331
168
102
}
 70
     0
280
     1
281
     0
  0
BLOCK_RECORD
  5
169
330
1
100
AcDbSymbolTableRecord
100
AcDbBlockTableRecord
  2
Automatic flow rate regulator valve_Caleffi_121 DN15 - 1_2__-V1-Est - Idraulica
340
0
102
{BLKREFS
331
236
102
}
 70
     0
280
     1
281
     0
  0
BLOCK_RECORD
  5
237
330
1
100
AcDbSymbolTableRecord
100
AcDbBlockTableRecord
  2
Automatic flow rate regulator valve_Caleffi_121 DN15 - 1_2__-V2-Est - Idraulica
340
0
102
{BLKREFS
331
2DF
102
}
 70
     0
280
     1
281
     0
  0
ENDTAB
  0
ENDSEC
  0
SECTION
  2
BLOCKS
  0
BLOCK
  5
72
330
71
100
AcDbEntity
  8
0
100
AcDbBlockBegin
  2
*Model_Space
 70
     0
 10
0.0
 20
0.0
 30
0.0
  3
*Model_Space
  1

  0
ENDBLK
  5
73
330
71
100
AcDbEntity
  8
0
100
AcDbBlockEnd
  0
BLOCK
  5
6E
330
6D
100
AcDbEntity
 67
     1
  8
0
100
AcDbBlockBegin
  2
*Paper_Space
 70
     0
 10
0.0
 20
0.0
 30
0.0
  3
*Paper_Space
  1

  0
ENDBLK
  5
6F
330
6D
100
AcDbEntity
 67
     1
  8
0
100
AcDbBlockEnd
  0
BLOCK
  5
76
330
75
100
AcDbEntity
 67
     1
  8
0
100
AcDbBlockBegin
  2
*Paper_Space0
 70
     0
 10
0.0
 20
0.0
 30
0.0
  3
*Paper_Space0
  1

  0
ENDBLK
  5
77
330
75
100
AcDbEntity
 67
     1
  8
0
100
AcDbBlockEnd
  0
BLOCK
  5
166
330
87
100
AcDbEntity
  8
0
100
AcDbBlockBegin
  2
Automatic flow rate regulator valve_Caleffi_121 DN15 - 1_2__-859151-Est - Idraulica
 70
     0
 10
0.0
 20
0.0
 30
0.0
  3
Automatic flow rate regulator valve_Caleffi_121 DN15 - 1_2__-859151-Est - Idraulica
  1

  0
LINE
  5
89
330
87
100
AcDbEntity
  8
M-PIPE
100
AcDbLine
 10
832.9164074431739
 20
1989.937500000021
 30
0.0
 11
832.9164074431739
 21
1993.756982010163
 31
0.0
1001
REVIT
1002
{
1070
     3
1000
938184
1002
}
  0
LINE
  5
8A
330
87
100
AcDbEntity
  8
M-PIPE
100
AcDbLine
 10
798.416407443205
 20
1993.756982010163
 30
0.0
 11
798.416407443205
 21
1989.937500000021
 31
0.0
1001
REVIT
1002
{
1070
     3
1000
938184
1002
}
  0
LWPOLYLINE
  5
8B
330
87
100
AcDbEntity
  8
M-PIPE
100
AcDbPolyline
 90
       15
 70
   128
 43
0.0
 10
798.4164074431914
 20
1993.756982010163
 10
798.4180072298695
 20
1993.836960678537
 10
798.4228040305862
 20
1993.916811398102
 10
798.4307901714837
 20
1993.996406424741
 10
798.4419528764402
 20
1994.075618423392
 10
798.4562742875091
 20
1994.154320671754
 10
798.4737314934875
 20
1994.232387263017
 10
798.4942965665701
 20
1994.309693307291
 10
798.5179366070267
 20
1994.386115131396
 10
798.5446137958359
 20
1994.461530476714
 10
798.5742854551861
 20
1994.535818694781
 10
798.6069041167519
 20
1994.608860940295
 10
798.6424175976333
 20
1994.680540361246
 10
798.6807690838365
 20
1994.750742285851
 10
798.6879327150121
 20
1994.763150541794
1001
REVIT
1002
{
1070
     3
1000
938184
1002
}
  0
LWPOLYLINE
  5
8C
330
87
100
AcDbEntity
  8
M-PIPE
100
AcDbPolyline
 90
       15
 70
   128
 43
0.0
 10
832.644882171367
 20
1994.763150541794
 10
832.6837355856048
 20
1994.693225160748
 10
832.7197616518246
 20
1994.621801990384
 10
832.7529027360053
 20
1994.548995292537
 10
832.7831058194826
 20
1994.474921542391
 10
832.8103225837656
 20
1994.399699242146
 10
832.8345094878375
 20
1994.323448731435
 10
832.855627837811
 20
1994.246291994811
 10
832.8736438488315
 20
1994.168352466591
 10
832.8885286991242
 20
1994.089754833396
 10
832.9002585761042
 20
1994.010624834671
 10
832.9088147144709
 20
1993.931089061534
 10
832.9141834262276
 20
1993.851274754257
 10
832.916356122581
 20
1993.771309598703
 10
832.9164074431878
 20
1993.756982010163
1001
REVIT
1002
{
1070
     3
1000
938184
1002
}
  0
LINE
  5
8D
330
87
100
AcDbEntity
  8
M-PIPE
100
AcDbLine
 10
832.644882171367
 20
1994.763150541794
 30
0.0
 11
832.021589686512
 21
1995.528308495084
 31
0.0
1001
REVIT
1002
{
1070
     3
1000
938184
1002
}
  0
LINE
  5
8E
330
87
100
AcDbEntity
  8
M-PIPE
100
AcDbLine
 10
799.3112251998671
 20
1995.528308495084
 30
0.0
 11
798.6879327150121
 21
1994.763150541794
 31
0.0
1001
REVIT
1002
{
1070
     3
1000
938184
1002
}
  0
LWPOLYLINE
  5
8F
330
87
100
AcDbEntity
  8
M-PIPE
100
AcDbPolyline
 90
       12
 70
   128
 43
0.0
 10
799.3112251998671
 20
1995.528308495084
 10
799.3554091343699
 20
1995.59499377565
 10
799.3968910264678
 20
1995.663392601226
 10
799.4356045139827
 20
1995.733395548282
 10
799.4714876635931
 20
1995.804890627038
 10
799.5044830699137
 20
1995.877763460617
 10
799.5345379473337
 20
1995.951897468032
 10
799.5616042144602
 20
1996.027174050686
 10
799.58563857104
 20
1996.103472782104
 10
799.6066025672289
 20
1996.180671600592
 10
799.6244626651059
 20
1996.258647004509
 10
799.6343299371873
 20
1996.309337505184
1001
REVIT
1002
{
1070
     3
1000
938184
1002
}
  0
LWPOLYLINE
  5
90
330
87
100
AcDbEntity
  8
M-PIPE
100
AcDbPolyline
 90
       12
 70
   128
 43
0.0
 10
831.6984849491918
 20
1996.309337505184
 10
831.7143258604623
 20
1996.230926968632
 10
831.7332896858435
 20
1996.153212619641
 10
831.7553460872597
 20
1996.076318784591
 10
831.7804597791743
 20
1996.000368477215
 10
831.8085905850372
 20
1995.925483201801
 10
831.8396935015599
 20
1995.851782758818
 10
831.873718770711
 20
1995.779385053251
 10
831.9106119593183
 20
1995.708405905985
 10
831.9503140461502
 20
1995.638958868515
 10
831.9927615163367
 20
1995.571155041286
 10
832.021589686512
 20
1995.528308495084
1001
REVIT
1002
{
1070
     3
1000
938184
1002
}
  0
LINE
  5
91
330
87
100
AcDbEntity
  8
M-PIPE
100
AcDbLine
 10
828.9809890384505
 20
2018.319117990773
 30
0.0
 11
829.2830072006683
 21
2016.769547448808
 31
0.0
1001
REVIT
1002
{
1070
     3
1000
938184
1002
}
  0
LWPOLYLINE
  5
92
330
87
100
AcDbEntity
  8
M-PIPE
100
AcDbPolyline
 90
        3
 70
   128
 43
0.0
 10
829.9952405482301
 20
2013.115277764225
 10
830.7251099769791
 20
2009.370522290037
 10
831.0851307882483
 20
2004.539600521326
1001
REVIT
1002
{
1070
     3
1000
938184
1002
}
  0
LINE
  5
93
330
87
100
AcDbEntity
  8
M-PIPE
100
AcDbLine
 10
831.1914757662989
 20
2003.112615598853
 30
0.0
 11
831.6984849491918
 21
1996.309337505184
 31
0.0
1001
REVIT
1002
{
1070
     3
1000
938184
1002
}
  0
LINE
  5
94
330
87
100
AcDbEntity
  8
M-PIPE
100
AcDbLine
 10
799.6343299371873
 20
1996.309337505184
 30
0.0
 11
800.1413391195843
 21
2003.112615592198
 31
0.0
1001
REVIT
1002
{
1070
     3
1000
938184
1002
}
  0
LWPOLYLINE
  5
95
330
87
100
AcDbEntity
  8
M-PIPE
100
AcDbPolyline
 90
        3
 70
   128
 43
0.0
 10
800.2476840977321
 20
2004.539600515977
 10
800.6077049094002
 20
2009.370522290037
 10
801.0852079181599
 20
2011.820456395455
1001
REVIT
1002
{
1070
     3
1000
938184
1002
}
  0
LINE
  5
96
330
87
100
AcDbEntity
  8
M-PIPE
100
AcDbLine
 10
801.794224835705
 20
2015.458223479109
 30
0.0
 11
802.3518258479292
 21
2018.319117990774
 31
0.0
1001
REVIT
1002
{
1070
     3
1000
938184
1002
}
  0
LWPOLYLINE
  5
97
330
87
100
AcDbEntity
  8
M-PIPE
100
AcDbPolyline
 90
        3
 70
   128
 43
0.0
 10
802.3518258479292
 20
2018.319117990774
 10
800.6077049094002
 20
2009.370522290037
 10
799.6343299371873
 20
1996.309337505184
1001
REVIT
1002
{
1070
     3
1000
938184
1002
}
  0
LWPOLYLINE
  5
98
330
87
100
AcDbEntity
  8
M-PIPE
100
AcDbPolyline
 90
        3
 70
   128
 43
0.0
 10
831.6984849491918
 20
1996.309337505184
 10
830.7251099769791
 20
2009.370522290037
 10
828.9809890384505
 20
2018.319117990773
1001
REVIT
1002
{
1070
     3
1000
938184
1002
}
  0
LWPOLYLINE
  5
99
330
87
100
AcDbEntity
  8
M-PIPE
100
AcDbPolyline
 90
       36
 70
   128
 43
0.0
 10
802.3518258479292
 20
2018.319117990774
 10
802.368656891384
 20
2018.397321972056
 10
802.3886017969413
 20
2018.474790336273
 10
802.4116286570071
 20
2018.551399150568
 10
802.4377006335177
 20
2018.62702585718
 10
802.4667760168718
 20
2018.701549469512
 10
802.498808292659
 20
2018.774850765681
 10
802.5337462160706
 20
2018.84681247925
 10
802.5715338938828
 20
2018.917319486829
 10
802.6121108738719
 20
2018.986258992247
 10
802.6554122415255
 20
2019.053520707
 10
802.701368723893
 20
2019.118997026693
 10
802.7499068004058
 20
2019.182583203182
 10
802.8009488204959
 20
2019.244177512151
 10
802.8544131278193
 20
2019.303681415843
 10
802.9102141908897
 20
2019.360999720706
 10
802.9682627399095
 20
2019.41604072968
 10
803.0284659095837
 20
2019.468716388892
 10
803.0907273876827
 20
2019.518942428524
 10
803.1549475691241
 20
2019.566638497626
 10
803.2210237153169
 20
2019.611728292663
 10
803.2888501185226
 20
2019.654139679582
 10
803.3583182709648
 20
2019.69380480921
 10
803.4293170384191
 20
2019.730660225802
 10
803.501732838003
 20
2019.764646968553
 10
803.5754498198848
 20
2019.795710665925
 10
803.6503500526189
 20
2019.823801622628
 10
803.7263137118111
 20
2019.848874899126
 10
803.8032192718114
 20
2019.870890383522
 10
803.8809437001292
 20
2019.88981285574
 10
803.9593626542599
 20
2019.90561204386
 10
804.0383506806049
 20
2019.918262672551
 10
804.1177814151724
 20
2019.927744503506
 10
804.1975277857311
 20
2019.934042367819
 10
804.2774622150997
 20
2019.937146190249
 10
804.2981780423442
 20
2019.937341029479
1001
REVIT
1002
{
1070
     3
1000
938184
1002
}
  0
LWPOLYLINE
  5
9A
330
87
100
AcDbEntity
  8
M-PIPE
100
AcDbPolyline
 90
       36
 70
   128
 43
0.0
 10
827.0365991537904
 20
2019.937122660062
 10
827.0977133399274
 20
2019.935900213342
 10
827.1775640594926
 20
2019.931103412625
 10
827.2571590861319
 20
2019.923117271728
 10
827.3363710847828
 20
2019.911954566772
 10
827.4150733331444
 20
2019.897633155703
 10
827.4931399244085
 20
2019.880175949725
 10
827.5704459686824
 20
2019.859610876642
 10
827.6468677927864
 20
2019.835970836186
 10
827.7222831381045
 20
2019.809293647377
 10
827.7965713561716
 20
2019.779621988027
 10
827.8696136016863
 20
2019.747003326461
 10
827.9412930226373
 20
2019.71148984558
 10
828.0114949472418
 20
2019.673138359376
 10
828.0801070673961
 20
2019.632010222048
 10
828.1470196183445
 20
2019.58817122984
 10
828.212125554279
 20
2019.541691515789
 10
828.2753207195913
 20
2019.492645437523
 10
828.3365040154972
 20
2019.441111458303
 10
828.3955775617757
 20
2019.387172021502
 10
828.4524468533534
 20
2019.330913418715
 10
828.5070209114962
 20
2019.272425651704
 10
828.5592124293525
 20
2019.211802288418
 10
828.6089379116273
 20
2019.149140313308
 10
828.6561178081566
 20
2019.084539972166
 10
828.7006766411703
 20
2019.018104611757
 10
828.7425431260412
 20
2018.949940514486
 10
828.7816502853244
 20
2018.880156728368
 10
828.8179355559076
 20
2018.808864892575
 10
828.8513408890983
 20
2018.736179058834
 10
828.8818128434892
 20
2018.662215508975
 10
828.909302670454
 20
2018.587092568898
 10
828.9337663921333
 20
2018.510930419285
 10
828.9551648717914
 20
2018.433850903326
 10
828.9734638764254
 20
2018.355977331804
 10
828.9809890384505
 20
2018.319117990773
1001
REVIT
1002
{
1070
     3
1000
938184
1002
}
  0
LWPOLYLINE
  5
9B
330
87
100
AcDbEntity
  8
M-PIPE
100
AcDbPolyline
 90
        4
 70
   128
 43
0.0
 10
804.3150802148247
 20
2019.937500000021
 10
804.3241600658637
 20
2019.937500000021
 10
804.3513850931558
 20
2019.937500000021
 10
804.3967117424656
 20
2019.937500000021
1001
REVIT
1002
{
1070
     3
1000
938184
1002
}
  0
LWPOLYLINE
  5
9C
330
87
100
AcDbEntity
  8
M-PIPE
100
AcDbPolyline
 90
        5
 70
   128
 43
0.0
 10
826.9206224935242
 20
2019.93750000002
 10
826.9592061313673
 20
2019.93750000002
 10
826.9962099681077
 20
2019.93750000002
 10
827.0150885377036
 20
2019.93750000002
 10
827.0177346715552
 20
2019.93750000002
1001
REVIT
1002
{
1070
     3
1000
938184
1002
}
  0
LWPOLYLINE
  5
9D
330
87
100
AcDbEntity
  8
M-PIPE
100
AcDbPolyline
 90
       80
 70
   128
 43
0.0
 10
827.0177346715552
 20
2019.93750000002
 10
827.0086548205162
 20
2019.93750000002
 10
826.9814297932239
 20
2019.93750000002
 10
826.9361031439141
 20
2019.93750000002
 10
826.8727473855568
 20
2019.93750000002
 10
826.7914638738499
 20
2019.93750000002
 10
826.6923826450728
 20
2019.93750000002
 10
826.5756622080553
 20
2019.93750000002
 10
826.4414892905978
 20
2019.93750000002
 10
826.2900785407458
 20
2019.93750000002
 10
826.1216721834001
 20
2019.93750000002
 10
825.9365396328075
 20
2019.93750000002
 10
825.734977061556
 20
2019.93750000002
 10
825.5173069267623
 20
2019.93750000002
 10
825.283877454208
 20
2019.93750000002
 10
825.0350620812536
 20
2019.93750000002
 10
824.7712588594181
 20
2019.93750000002
 10
824.4928898175812
 20
2019.93750000002
 10
824.2004002868279
 20
2019.93750000002
 10
823.8942581880127
 20
2019.93750000002
 10
823.5749532831871
 20
2019.93750000002
 10
823.2429963920839
 20
2019.93750000002
 10
822.8989185749153
 20
2019.93750000002
 10
822.5432702827893
 20
2019.93750000002
 10
822.1766204771059
 20
2019.93750000002
 10
821.7995557193395
 20
2019.93750000002
 10
821.4126792326663
 20
2019.93750000002
 10
821.0166099369359
 20
2019.93750000002
 10
820.6119814585315
 20
2019.93750000002
 10
820.1994411167017
 20
2019.93750000002
 10
819.7796488879902
 20
2019.93750000002
 10
819.3532763504116
 20
2019.93750000002
 10
818.9210056090715
 20
2019.93750000002
 10
818.483528204943
 20
2019.93750000002
 10
818.0415440085498
 20
2019.93750000002
 10
817.5957601003206
 20
2019.93750000002
 10
817.1468896394134
 20
2019.93750000002
 10
816.6956507228118
 20
2019.93750000002
 10
816.2427652365225
 20
2019.93750000002
 10
815.7889577007141
 20
2019.93750000002
 10
815.334954110636
 20
2019.93750000002
 10
814.881480775184
 20
2019.93750000002
 10
814.4292631549584
 20
2019.93750000002
 10
813.9790247016838
 20
2019.93750000002
 10
813.5314857008403
 20
2019.93750000002
 10
813.0873621193584
 20
2019.93750000002
 10
812.6473644602279
 20
2019.93750000002
 10
812.2121966258418
 20
2019.93750000002
 10
811.782554791905
 20
2019.93750000002
 10
811.3591262936987
 20
2019.93750000002
 10
810.9425885264942
 20
2019.93750000002
 10
810.5336078618618
 20
2019.93750000002
 10
810.1328385816211
 20
2019.93750000002
 10
809.7409218311268
 20
2019.93750000002
 10
809.3584845935758
 20
2019.93750000002
 10
808.9861386869658
 20
2019.93750000002
 10
808.6244797853176
 20
2019.93750000002
 10
808.2740864657244
 20
2019.93750000002
 10
807.9355192827506
 20
2019.93750000002
 10
807.6093198716655
 20
2019.93750000002
 10
807.2960100819411
 20
2019.93750000002
 10
806.996091142405
 20
2019.93750000002
 10
806.7100428593814
 20
2019.93750000002
 10
806.4383228491028
 20
2019.93750000002
 10
806.1813658056216
 20
2019.93750000002
 10
805.9395828053929
 20
2019.93750000002
 10
805.7133606496394
 20
2019.93750000002
 10
805.5030612455521
 20
2019.937500000021
 10
805.3090210273163
 20
2019.937500000021
 10
805.1315504178878
 20
2019.937500000021
 10
804.9709333323837
 20
2019.937500000021
 10
804.8274267238772
 20
2019.937500000021
 10
804.7012601723292
 20
2019.937500000021
 10
804.5926355173076
 20
2019.937500000021
 10
804.5017265350892
 20
2019.937500000021
 10
804.4286786606519
 20
2019.937500000021
 10
804.3736087550124
 20
2019.937500000021
 10
804.3366049182722
 20
2019.937500000021
 10
804.3177263486764
 20
2019.937500000021
 10
804.3150802148247
 20
2019.937500000021
1001
REVIT
1002
{
1070
     3
1000
938184
1002
}
  0
LINE
  5
9E
330
87
100
AcDbEntity
  8
M-PIPE
100
AcDbLine
 10
798.4164074432034
 20
1989.93750000002
 30
0.0
 11
832.9164074431723
 21
1989.93750000002
 31
0.0
1001
REVIT
1002
{
1070
     3
1000
938184
1002
}
  0
LINE
  5
9F
330
87
100
AcDbEntity
  8
M-PIPE
100
AcDbLine
 10
832.6448821713652
 20
1994.763150541793
 30
0.0
 11
798.6879327150104
 21
1994.763150541793
 31
0.0
1001
REVIT
1002
{
1070
     3
1000
938184
1002
}
  0
LINE
  5
A0
330
87
100
AcDbEntity
  8
M-PIPE
100
AcDbLine
 10
832.0215896865102
 20
1995.528308495083
 30
0.0
 11
799.3112251998655
 21
1995.528308495084
 31
0.0
1001
REVIT
1002
{
1070
     3
1000
938184
1002
}
  0
LINE
  5
A1
330
87
100
AcDbEntity
  8
M-PIPE
100
AcDbLine
 10
831.6984849491902
 20
1996.309337505183
 30
0.0
 11
799.6343299371856
 21
1996.309337505183
 31
0.0
1001
REVIT
1002
{
1070
     3
1000
938184
1002
}
  0
LINE
  5
A2
330
87
100
AcDbEntity
  8
M-PIPE
100
AcDbLine
 10
828.9809890384487
 20
2018.319117990772
 30
0.0
 11
802.3518258479276
 21
2018.319117990773
 31
0.0
1001
REVIT
1002
{
1070
     3
1000
938184
1002
}
  0
LINE
  5
A3
330
87
100
AcDbEntity
  8
P-SANR-FIXT
100
AcDbLine
 10
832.4164074431894
 20
1989.637499999998
 30
0.0
 11
832.4164074431894
 21
1989.937500000021
 31
0.0
  0
LINE
  5
A4
330
87
100
AcDbEntity
  8
P-SANR-FIXT
100
AcDbLine
 10
798.9164074431894
 20
1989.937500000021
 30
0.0
 11
798.9164074431894
 21
1989.637499999998
 31
0.0
  0
LINE
  5
A5
330
87
100
AcDbEntity
  8
P-SANR-FIXT
100
AcDbLine
 10
839.6664074431898
 20
1954.467844885405
 30
0.0
 11
849.9664074431894
 21
1954.467844885405
 31
0.0
  0
LINE
  5
A6
330
87
100
AcDbEntity
  8
P-SANR-FIXT
100
AcDbLine
 10
849.9664074431894
 20
1987.407155114591
 30
0.0
 11
839.6664074431898
 21
1987.407155114591
 31
0.0
  0
LINE
  5
A7
330
87
100
AcDbEntity
  8
P-SANR-FIXT
100
AcDbLine
 10
805.2164074431894
 20
1934.437499999998
 30
0.0
 11
805.2164074431894
 21
1923.737499999998
 31
0.0
  0
LINE
  5
A8
330
87
100
AcDbEntity
  8
P-SANR-FIXT
100
AcDbLine
 10
826.1164074431894
 20
1923.737499999998
 30
0.0
 11
826.1164074431894
 21
1934.437499999998
 31
0.0
  0
LWPOLYLINE
  5
A9
330
87
100
AcDbEntity
  8
P-SANR-FIXT
100
AcDbPolyline
 90
       41
 70
   128
 43
0.0
 10
829.6664074431893
 20
1936.437499999998
 10
829.6648076565114
 20
1936.357521331624
 10
829.6600108557946
 20
1936.27767061206
 10
829.6520247148968
 20
1936.19807558542
 10
829.6408620099406
 20
1936.118863586769
 10
829.6265405988718
 20
1936.040161338408
 10
829.6090833928934
 20
1935.962094747144
 10
829.5885183198109
 20
1935.88478870287
 10
829.5648782793543
 20
1935.808366878766
 10
829.5382010905452
 20
1935.732951533448
 10
829.5085294311951
 20
1935.658663315381
 10
829.4759107696291
 20
1935.585621069866
 10
829.4403972887479
 20
1935.513941648915
 10
829.4020458025444
 20
1935.443739724311
 10
829.3609176652163
 20
1935.375127604156
 10
829.3170786730087
 20
1935.308215053208
 10
829.2705989589578
 20
1935.243109117273
 10
829.2215528806911
 20
1935.179913951961
 10
829.1700189014711
 20
1935.118730656055
 10
829.116079464671
 20
1935.059657109777
 10
829.0598208618837
 20
1935.002787818199
 10
829.0013330948719
 20
1934.948213760056
 10
828.9407097315864
 20
1934.8960222422
 10
828.8780477564763
 20
1934.846296759926
 10
828.8134474153343
 20
1934.799116863396
 10
828.7470120549258
 20
1934.754558030382
 10
828.678847957655
 20
1934.712691545511
 10
828.6090641715368
 20
1934.673584386228
 10
828.5377723357427
 20
1934.637299115645
 10
828.4650865020021
 20
1934.603893782454
 10
828.3911229521427
 20
1934.573421828063
 10
828.3160000120668
 20
1934.545932001099
 10
828.2398378624533
 20
1934.52146827942
 10
828.162758346494
 20
1934.500069799761
 10
828.0848847749721
 20
1934.481770795127
 10
828.0063417289898
 20
1934.466600540021
 10
827.9272548606654
 20
1934.454583303615
 10
827.8477506921179
 20
1934.445738310923
 10
827.7679564130565
 20
1934.440079712047
 10
827.6879996773057
 20
1934.437616559538
 10
827.6664074431893
 20
1934.437499999998
  0
LWPOLYLINE
  5
AA
330
87
100
AcDbEntity
  8
P-SANR-FIXT
100
AcDbPolyline
 90
       41
 70
   128
 43
0.0
 10
803.6664074431893
 20
1934.437499999998
 10
803.5864287748163
 20
1934.439099786676
 10
803.506578055251
 20
1934.443896587393
 10
803.4269830286117
 20
1934.45188272829
 10
803.347771029961
 20
1934.463045433247
 10
803.2690687815993
 20
1934.477366844316
 10
803.1910021903351
 20
1934.494824050294
 10
803.1136961460612
 20
1934.515389123377
 10
803.0372743219572
 20
1934.539029163833
 10
802.9618589766391
 20
1934.565706352642
 10
802.887570758572
 20
1934.595378011992
 10
802.8145285130573
 20
1934.627996673558
 10
802.7428490921066
 20
1934.66351015444
 10
802.6726471675019
 20
1934.701861640643
 10
802.6040350473477
 20
1934.742989777971
 10
802.5371224963993
 20
1934.786828770179
 10
802.4720165604646
 20
1934.83330848423
 10
802.4088213951525
 20
1934.882354562496
 10
802.3476380992464
 20
1934.933888541716
 10
802.2885645529681
 20
1934.987827978516
 10
802.2316952613902
 20
1935.044086581304
 10
802.1771212032476
 20
1935.102574348315
 10
802.1249296853914
 20
1935.163197711601
 10
802.0752042031165
 20
1935.225859686711
 10
802.0280243065874
 20
1935.290460027853
 10
801.9834654735735
 20
1935.356895388262
 10
801.9415989887027
 20
1935.425059485532
 10
801.9024918294196
 20
1935.49484327165
 10
801.8662065588365
 20
1935.566135107445
 10
801.8328012256459
 20
1935.638820941186
 10
801.802329271255
 20
1935.712784491045
 10
801.7748394442904
 20
1935.787907431121
 10
801.7503757226108
 20
1935.864069580734
 10
801.728977242953
 20
1935.941149096693
 10
801.7106782383189
 20
1936.019022668215
 10
801.6955079832126
 20
1936.097565714198
 10
801.683490746806
 20
1936.176652582522
 10
801.6746457541142
 20
1936.256156751069
 10
801.6689871552383
 20
1936.33595103013
 10
801.6665240027295
 20
1936.415907765882
 10
801.6664074431895
 20
1936.437499999998
  0
LWPOLYLINE
  5
AB
330
87
100
AcDbEntity
  8
P-SANR-FIXT
100
AcDbPolyline
 90
        4
 70
   128
 43
0.0
 10
827.6664074431893
 20
1934.437499999998
 10
827.6568087231211
 20
1934.437499999998
 10
827.6280279188208
 20
1934.437499999998
 10
827.5801110734356
 20
1934.437499999998
  0
LWPOLYLINE
  5
AC
330
87
100
AcDbEntity
  8
P-SANR-FIXT
100
AcDbPolyline
 90
        5
 70
   128
 43
0.0
 10
803.7491748710809
 20
1934.437499999998
 10
803.7282806028759
 20
1934.437499999998
 10
803.6891621780476
 20
1934.437499999998
 10
803.6692047906344
 20
1934.437499999998
 10
803.6664074431893
 20
1934.437499999998
  0
LWPOLYLINE
  5
AD
330
87
100
AcDbEntity
  8
P-SANR-FIXT
100
AcDbPolyline
 90
       80
 70
   128
 43
0.0
 10
803.6664074431893
 20
1934.437499999998
 10
803.6760061632575
 20
1934.437499999998
 10
803.704786967558
 20
1934.437499999998
 10
803.7527038129431
 20
1934.437499999998
 10
803.8196800426819
 20
1934.437499999998
 10
803.9056085090946
 20
1934.437499999998
 10
804.0103517449651
 20
1934.437499999998
 10
804.1337421834603
 20
1934.437499999998
 10
804.2755824262002
 20
1934.437499999998
 10
804.4356455590541
 20
1934.437499999998
 10
804.6136755151547
 20
1934.437499999998
 10
804.8093874845498
 20
1934.437499999998
 10
805.0224683698379
 20
1934.437499999998
 10
805.2525772870577
 20
1934.437499999998
 10
805.4993461110283
 20
1934.437499999998
 10
805.7623800642733
 20
1934.437499999998
 10
806.041258348578
 20
1934.437499999998
 10
806.3355348181783
 20
1934.437499999998
 10
806.6447386934987
 20
1934.437499999998
 10
806.9683753142987
 20
1934.437499999998
 10
807.3059269310235
 20
1934.437499999998
 10
807.6568535330936
 20
1934.437499999998
 10
808.0205937128065
 20
1934.437499999998
 10
808.3965655634679
 20
1934.437499999998
 10
808.7841676103199
 20
1934.437499999998
 10
809.1827797727718
 20
1934.437499999998
 10
809.5917643563959
 20
1934.437499999998
 10
810.0104670731047
 20
1934.437499999998
 10
810.4382180878687
 20
1934.437499999998
 10
810.8743330903141
 20
1934.437499999998
 10
811.3181143894694
 20
1934.437499999998
 10
811.7688520299243
 20
1934.437499999998
 10
812.2258249276063
 20
1934.437499999998
 10
812.6883020233611
 20
1934.437499999998
 10
813.1555434524925
 20
1934.437499999998
 10
813.6268017283866
 20
1934.437499999998
 10
814.1013229383318
 20
1934.437499999998
 10
814.5783479496179
 20
1934.437499999998
 10
815.0571136239868
 20
1934.437499999998
 10
815.5368540384904
 20
1934.437499999998
 10
816.016801710805
 20
1934.437499999998
 10
816.4961888270383
 20
1934.437499999998
 10
816.974248470068
 20
1934.437499999998
 10
817.4502158464459
 20
1934.437499999998
 10
817.9233295099042
 20
1934.437499999998
 10
818.3928325795067
 20
1934.437499999998
 10
818.8579739504973
 20
1934.437499999998
 10
819.3180094959075
 20
1934.437499999998
 10
819.7722032570004
 20
1934.437499999998
 10
820.2198286206472
 20
1934.437499999998
 10
820.6601694817551
 20
1934.437499999998
 10
821.0925213888803
 20
1934.437499999998
 10
821.5161926712017
 20
1934.437499999998
 10
821.9305055450458
 20
1934.437499999998
 10
822.3347971981969
 20
1934.437499999998
 10
822.7284208502535
 20
1934.437499999998
 10
823.1107467873416
 20
1934.437499999998
 10
823.4811633695199
 20
1934.437499999998
 10
823.8390780092752
 20
1934.437499999998
 10
824.1839181195349
 20
1934.437499999998
 10
824.5151320296844
 20
1934.437499999998
 10
824.8321898681227
 20
1934.437499999998
 10
825.1345844099438
 20
1934.437499999998
 10
825.421831888388
 20
1934.437499999998
 10
825.6934727687664
 20
1934.437499999998
 10
825.9490724836167
 20
1934.437499999998
 10
826.1882221279208
 20
1934.437499999998
 10
826.4105391132632
 20
1934.437499999998
 10
826.6156677798928
 20
1934.437499999998
 10
826.8032799657014
 20
1934.437499999998
 10
826.9730755312131
 20
1934.437499999998
 10
827.1247828397449
 20
1934.437499999998
 10
827.2581591919651
 20
1934.437499999998
 10
827.3729912141623
 20
1934.437499999998
 10
827.4690951995975
 20
1934.437499999998
 10
827.5463174023947
 20
1934.437499999998
 10
827.6045342835029
 20
1934.437499999998
 10
827.6436527083312
 20
1934.437499999998
 10
827.6636100957446
 20
1934.437499999998
 10
827.6664074431893
 20
1934.437499999998
  0
LINE
  5
AE
330
87
100
AcDbEntity
  8
P-SANR-FIXT
100
AcDbLine
 10
805.2164074431894
 20
1923.737499999998
 30
0.0
 11
806.5164074431894
 21
1922.437499999998
 31
0.0
  0
LINE
  5
AF
330
87
100
AcDbEntity
  8
P-SANR-FIXT
100
AcDbLine
 10
824.8164074431892
 20
1922.437499999998
 30
0.0
 11
826.1164074431894
 21
1923.737499999998
 31
0.0
  0
LINE
  5
B0
330
87
100
AcDbEntity
  8
P-SANR-FIXT
100
AcDbLine
 10
798.1664074431892
 20
1989.137499999998
 30
0.0
 11
798.1664074431892
 21
1985.06002722717
 31
0.0
  0
LINE
  5
B1
330
87
100
AcDbEntity
  8
P-SANR-FIXT
100
AcDbLine
 10
833.1664074431895
 20
1985.06002722717
 30
0.0
 11
833.1664074431895
 21
1989.137499999998
 31
0.0
  0
LWPOLYLINE
  5
B2
330
87
100
AcDbEntity
  8
P-SANR-FIXT
100
AcDbPolyline
 90
       25
 70
   128
 43
0.0
 10
833.1664074431895
 20
1985.06002722717
 10
833.1680072298675
 20
1984.980048558797
 10
833.1728040305842
 20
1984.900197839232
 10
833.1807901714817
 20
1984.820602812593
 10
833.1919528764384
 20
1984.741390813942
 10
833.206274287507
 20
1984.66268856558
 10
833.2237314934854
 20
1984.584621974316
 10
833.2442965665679
 20
1984.507315930042
 10
833.2679366070246
 20
1984.430894105938
 10
833.2946137958336
 20
1984.35547876062
 10
833.3242854551837
 20
1984.281190542553
 10
833.3569041167494
 20
1984.208148297038
 10
833.3924175976308
 20
1984.136468876087
 10
833.4307690838341
 20
1984.066266951483
 10
833.4718972211627
 20
1983.997654831329
 10
833.5157362133701
 20
1983.93074228038
 10
833.5622159274208
 20
1983.865636344446
 10
833.6112620056876
 20
1983.802441179134
 10
833.6627959849076
 20
1983.741257883228
 10
833.7167354217076
 20
1983.682184336949
 10
833.7729940244951
 20
1983.625315045371
 10
833.8314817915067
 20
1983.570740987229
 10
833.8921051547924
 20
1983.518549469372
 10
833.9547671299026
 20
1983.468823987098
 10
833.9629245666895
 20
1983.462645317303
  0
LWPOLYLINE
  5
B3
330
87
100
AcDbEntity
  8
P-SANR-FIXT
100
AcDbPolyline
 90
       25
 70
   128
 43
0.0
 10
797.3698903196893
 20
1983.462645317303
 10
797.43280590077
 20
1983.512049531389
 10
797.4936955144693
 20
1983.56393017957
 10
797.5524617503943
 20
1983.618204263877
 10
797.6090105951036
 20
1983.674784957354
 10
797.6632515825087
 20
1983.733581742959
 10
797.7150979386006
 20
1983.794500558379
 10
797.7644667202696
 20
1983.857443946504
 10
797.8112789479961
 20
1983.922311211341
 10
797.8554597322024
 20
1983.988998579104
 10
797.8969383930581
 20
1984.057399364229
 10
797.9356485735544
 20
1984.127404140053
 10
797.97152834566
 20
1984.198900913867
 10
798.0045203093936
 20
1984.271775306085
 10
798.0345716846511
 20
1984.345910733226
 10
798.0616343956427
 20
1984.42118859442
 10
798.0856651478039
 20
1984.497488461148
 10
798.1066254970576
 20
1984.5746882699
 10
798.124481911316
 20
1984.65266451745
 10
798.1392058241257
 20
1984.731292458436
 10
798.1507736803674
 20
1984.810446304926
 10
798.1591669739383
 20
1984.889999427651
 10
798.1643722773594
 20
1984.969824558584
 10
798.1663812632556
 20
1985.049793994544
 10
798.1664074431892
 20
1985.06002722717
  0
LWPOLYLINE
  5
B4
330
87
100
AcDbEntity
  8
P-SANR-FIXT
100
AcDbPolyline
 90
       23
 70
   128
 43
0.0
 10
833.9629245666895
 20
1983.462645317303
 10
834.0356497267812
 20
1983.429325686425
 10
834.1069842846476
 20
1983.393124476967
 10
834.1768141202132
 20
1983.354099603143
 10
834.2450275206376
 20
1983.312313496423
 10
834.3115153590314
 20
1983.267833005668
 10
834.3761712690364
 20
1983.220729290171
 10
834.4388918149894
 20
1983.17107770583
 10
834.4995766573962
 20
1983.118957684589
 10
834.5581287134546
 20
1983.064452607362
 10
834.6144543123653
 20
1983.007649670646
 10
834.6684633451854
 20
1982.948639747023
 10
834.7200694089842
 20
1982.887517239782
 10
834.7691899450675
 20
1982.824379931896
 10
834.8157463710567
 20
1982.75932882959
 10
834.8596642066015
 20
1982.69246800075
 10
834.9008731925337
 20
1982.623904408438
 10
834.9393074032663
 20
1982.553747739778
 10
834.9749053522618
 20
1982.482110230472
 10
835.0076100903946
 20
1982.409106485254
 10
835.0373692970611
 20
1982.334853294543
 10
835.0641353638785
 20
1982.259469447605
 10
835.0865820277835
 20
1982.187499999998
  0
LWPOLYLINE
  5
B5
330
87
100
AcDbEntity
  8
P-SANR-FIXT
100
AcDbPolyline
 90
       23
 70
   128
 43
0.0
 10
796.2462328585953
 20
1982.187499999998
 10
796.2701388700581
 20
1982.263839041963
 10
796.2970785067222
 20
1982.339161035355
 10
796.3270086709158
 20
1982.413345481053
 10
796.3598814807608
 20
1982.486273699769
 10
796.3956443467743
 20
1982.55782902191
 10
796.4342400559989
 20
1982.627896974225
 10
796.4756068635341
 20
1982.696365462937
 10
796.5196785913117
 20
1982.76312495307
 10
796.5663847339691
 20
1982.828068643682
 10
796.615650571641
 20
1982.891092638721
 10
796.667397289497
 20
1982.952096113239
 10
796.7215421038272
 20
1983.010981474691
 10
796.7779983944788
 20
1983.06765451906
 10
796.8366758434302
 20
1983.122024581565
 10
796.8974805792802
 20
1983.174004681703
 10
796.9603153274225
 20
1983.223511662403
 10
797.0250795656643
 20
1983.270466323057
 10
797.0916696850395
 20
1983.314793546225
 10
797.1599791555631
 20
1983.356422417805
 10
797.2298986966531
 20
1983.395286340482
 10
797.3013164519601
 20
1983.431323140272
 10
797.3698903196893
 20
1983.462645317303
  0
LWPOLYLINE
  5
B6
330
87
100
AcDbEntity
  8
P-SANR-FIXT
100
AcDbPolyline
 90
       65
 70
   128
 43
0.0
 10
798.9721542284343
 20
1960.987093455621
 10
799.1954115173683
 20
1960.987093455621
 10
799.4450188861588
 20
1960.987093455621
 10
799.7205770162619
 20
1960.987093455621
 10
800.0216450734523
 20
1960.987093455621
 10
800.3477414130633
 20
1960.987093455621
 10
800.6983443505145
 20
1960.987093455621
 10
801.0728929958975
 20
1960.987093455621
 10
801.4707881512793
 20
1960.987093455621
 10
801.8913932692907
 20
1960.987093455621
 10
802.3340354714676
 20
1960.987093455621
 10
802.7980066247113
 20
1960.987093455621
 10
803.2825644741521
 20
1960.987093455621
 10
803.7869338305981
 20
1960.987093455621
 10
804.3103078106714
 20
1960.987093455621
 10
804.8518491276514
 20
1960.987093455621
 10
805.4106914309537
 20
1960.987093455621
 10
805.9859406921059
 20
1960.987093455621
 10
806.5766766350039
 20
1960.987093455621
 10
807.1819542081559
 20
1960.987093455621
 10
807.8008050965635
 20
1960.987093455621
 10
808.4322392708203
 20
1960.987093455621
 10
809.075246570946
 20
1960.987093455621
 10
809.728798322428
 20
1960.987093455621
 10
810.3918489818806
 20
1960.987093455621
 10
811.0633378096924
 20
1960.987093455621
 10
811.7421905669818
 20
1960.987093455621
 10
812.4273212341515
 20
1960.987093455621
 10
813.1176337482877
 20
1960.987093455621
 10
813.812023756626
 20
1960.987093455621
 10
814.5093803832823
 20
1960.987093455621
 10
815.208588006415
 20
1960.987093455621
 10
815.9085280429838
 20
1960.987093455621
 10
816.6080807382424
 20
1960.987093455621
 10
817.3061269571086
 20
1960.987093455621
 10
818.0015499745408
 20
1960.987093455621
 10
818.6932372620598
 20
1960.987093455621
 10
819.380082267558
 20
1960.987093455621
 10
820.0609861855458
 20
1960.987093455621
 10
820.7348597150055
 20
1960.987093455621
 10
821.4006248020426
 20
1960.987093455621
 10
822.05721636454
 20
1960.987093455621
 10
822.7035839960631
 20
1960.987093455621
 10
823.338693646286
 20
1960.987093455621
 10
823.961529275251
 20
1960.987093455621
 10
824.5710944788163
 20
1960.987093455621
 10
825.1664140826898
 20
1960.987093455621
 10
825.7465357025001
 20
1960.987093455621
 10
826.3105312674081
 20
1960.987093455621
 10
826.8574985048228
 20
1960.987093455621
 10
827.3865623838444
 20
1960.987093455621
 10
827.8968765151271
 20
1960.987093455621
 10
828.3876245049224
 20
1960.987093455621
 10
828.8580212611339
 20
1960.987093455621
 10
829.3073142492973
 20
1960.987093455621
 10
829.7347846964761
 20
1960.987093455621
 10
830.1397487411433
 20
1960.987093455621
 10
830.5215585272152
 20
1960.987093455621
 10
830.8796032404828
 20
1960.987093455621
 10
831.2133100857831
 20
1960.987093455621
 10
831.522145203351
 20
1960.987093455621
 10
831.8056145228798
 20
1960.987093455621
 10
832.0632645539282
 20
1960.987093455621
 10
832.2946831114091
 20
1960.987093455621
 10
832.3606606579444
 20
1960.987093455621
  0
LWPOLYLINE
  5
B7
330
87
100
AcDbEntity
  8
P-SANR-FIXT
100
AcDbPolyline
 90
       10
 70
   128
 43
0.0
 10
829.7930599920753
 20
1959.687499999997
 10
829.7665496788537
 20
1959.612025832197
 10
829.7430787327735
 20
1959.535551905907
 10
829.7226847023416
 20
1959.458200563094
 10
829.7054002136567
 20
1959.380095549407
 10
829.6912529182128
 20
1959.301361816206
 10
829.6802654486652
 20
1959.222125320668
 10
829.672455382621
 20
1959.142512824284
 10
829.6678352145201
 20
1959.062651690064
 10
829.6664074431893
 20
1958.987093455621
  0
LWPOLYLINE
  5
B8
330
87
100
AcDbEntity
  8
P-SANR-FIXT
100
AcDbPolyline
 90
       10
 70
   128
 43
0.0
 10
801.6664074431895
 20
1958.987093455621
 10
801.6648076565115
 20
1959.067072123994
 10
801.6600108557945
 20
1959.14692284356
 10
801.6520247148973
 20
1959.226517870199
 10
801.6408620099408
 20
1959.30572986885
 10
801.626540598872
 20
1959.384432117212
 10
801.6090833928934
 20
1959.462498708475
 10
801.5885183198108
 20
1959.539804752749
 10
801.5648782793542
 20
1959.616226576853
 10
801.5397548943033
 20
1959.687499999998
  0
LINE
  5
B9
330
87
100
AcDbEntity
  8
P-SANR-FIXT
100
AcDbLine
 10
801.6664074431895
 20
1958.987093455621
 30
0.0
 11
801.6664074431895
 21
1936.437499999998
 31
0.0
  0
LINE
  5
BA
330
87
100
AcDbEntity
  8
P-SANR-FIXT
100
AcDbLine
 10
829.6664074431893
 20
1936.437499999998
 30
0.0
 11
829.6664074431893
 21
1958.987093455621
 31
0.0
  0
LINE
  5
BB
330
87
100
AcDbEntity
  8
P-SANR-FIXT
100
AcDbLine
 10
798.6664074431895
 20
1989.637499999998
 30
0.0
 11
798.233000226584
 21
1989.204092783393
 31
0.0
  0
LINE
  5
BC
330
87
100
AcDbEntity
  8
P-SANR-FIXT
100
AcDbLine
 10
798.2135434212199
 20
1989.184635978029
 30
0.0
 11
798.1664074431892
 21
1989.137499999998
 31
0.0
  0
LINE
  5
BD
330
87
100
AcDbEntity
  8
P-SANR-FIXT
100
AcDbLine
 10
833.1664074431895
 20
1989.137499999998
 30
0.0
 11
833.1192714651589
 21
1989.184635978029
 31
0.0
  0
LINE
  5
BE
330
87
100
AcDbEntity
  8
P-SANR-FIXT
100
AcDbLine
 10
833.099814659795
 20
1989.204092783393
 30
0.0
 11
832.6664074431896
 21
1989.637499999998
 31
0.0
  0
LINE
  5
BF
330
87
100
AcDbEntity
  8
P-SANR-FIXT
100
AcDbLine
 10
838.6664074431894
 20
1984.087499999997
 30
0.0
 11
838.1467922009191
 21
1983.187499999998
 31
0.0
  0
LINE
  5
C0
330
87
100
AcDbEntity
  8
P-SANR-FIXT
100
AcDbLine
 10
838.1467922009189
 20
1958.687499999997
 30
0.0
 11
838.6664074431894
 21
1957.787499999998
 31
0.0
  0
LWPOLYLINE
  5
C1
330
87
100
AcDbEntity
  8
P-SANR-FIXT
100
AcDbPolyline
 90
       28
 70
   128
 43
0.0
 10
838.1467922009189
 20
1958.687499999997
 10
838.1054174108285
 20
1958.75596366523
 10
838.0613378997685
 20
1958.822718016526
 10
838.0146241855534
 20
1958.887656261162
 10
837.9653510001606
 20
1958.9506745118
 10
837.9135971701762
 20
1959.011671952681
 10
837.8594454906879
 20
1959.070551000914
 10
837.8029825928306
 20
1959.12721746258
 10
837.7442988051969
 20
1959.181580683429
 10
837.6834880093277
 20
1959.233553693905
 10
837.6206474895244
 20
1959.283053348278
 10
837.5558777772138
 20
1959.33000045766
 10
837.4892824901181
 20
1959.374319916691
 10
837.4209681664909
 20
1959.415940823692
 10
837.3510440946768
 20
1959.454796594089
 10
837.2796221382747
 20
1959.490825066938
 10
837.2068165571787
 20
1959.52396860437
 10
837.1327438247879
 20
1959.554174183793
 10
837.0575224416722
 20
1959.581393482725
 10
836.9812727459985
 20
1959.605582956093
 10
836.9041167210141
 20
1959.626703905901
 10
836.8261777998998
 20
1959.644722543134
 10
836.7475806683039
 20
1959.659610041817
 10
836.6684510648696
 20
1959.671342585128
 10
836.5889155800827
 20
1959.679901403499
 10
836.5091014537526
 20
1959.685272804648
 10
836.4291363714546
 20
1959.687448195477
 10
836.4147413933499
 20
1959.687499999997
  0
LWPOLYLINE
  5
C2
330
87
100
AcDbEntity
  8
P-SANR-FIXT
100
AcDbPolyline
 90
       28
 70
   128
 43
0.0
 10
836.4147413933503
 20
1982.187499999998
 10
836.4947200617235
 20
1982.189099786676
 10
836.5745707812886
 20
1982.193896587393
 10
836.6541658079281
 20
1982.20188272829
 10
836.7333778065786
 20
1982.213045433247
 10
836.8120800549403
 20
1982.227366844315
 10
836.8901466462045
 20
1982.244824050294
 10
836.9674526904786
 20
1982.265389123377
 10
837.0438745145825
 20
1982.289029163833
 10
837.1192898599005
 20
1982.315706352642
 10
837.1935780779676
 20
1982.345378011992
 10
837.2666203234821
 20
1982.377996673558
 10
837.3382997444332
 20
1982.413510154439
 10
837.4085016690377
 20
1982.451861640643
 10
837.477113789192
 20
1982.492989777972
 10
837.5440263401403
 20
1982.536828770179
 10
837.6091322760752
 20
1982.583308484229
 10
837.6723274413873
 20
1982.632354562496
 10
837.7335107372932
 20
1982.683888541716
 10
837.7925842835713
 20
1982.737827978516
 10
837.8494535751492
 20
1982.794086581304
 10
837.9040276332919
 20
1982.852574348315
 10
837.9562191511482
 20
1982.913197711601
 10
838.0059446334229
 20
1982.975859686711
 10
838.0531245299524
 20
1983.040460027853
 10
838.0976833629659
 20
1983.106895388262
 10
838.1395498478369
 20
1983.175059485533
 10
838.1467922009191
 20
1983.187499999998
  0
LINE
  5
C3
330
87
100
AcDbEntity
  8
P-SANR-FIXT
100
AcDbLine
 10
836.4147413933503
 20
1982.187499999998
 30
0.0
 11
835.0865820277835
 21
1982.187499999998
 31
0.0
  0
LINE
  5
C4
330
87
100
AcDbEntity
  8
P-SANR-FIXT
100
AcDbLine
 10
829.7930599920753
 20
1959.687499999997
 30
0.0
 11
836.4147413933499
 21
1959.687499999997
 31
0.0
  0
LINE
  5
C5
330
87
100
AcDbEntity
  8
P-SANR-FIXT
100
AcDbLine
 10
796.2462328585953
 20
1982.187499999998
 30
0.0
 11
794.9180734930287
 21
1982.187499999998
 31
0.0
  0
LINE
  5
C6
330
87
100
AcDbEntity
  8
P-SANR-FIXT
100
AcDbLine
 10
794.9180734930287
 20
1959.687499999998
 30
0.0
 11
801.5397548943033
 21
1959.687499999998
 31
0.0
  0
LWPOLYLINE
  5
C7
330
87
100
AcDbEntity
  8
P-SANR-FIXT
100
AcDbPolyline
 90
       28
 70
   128
 43
0.0
 10
794.9180734930287
 20
1959.687499999997
 10
794.8380948246554
 20
1959.685900213319
 10
794.7582441050903
 20
1959.681103412603
 10
794.6786490784508
 20
1959.673117271705
 10
794.5994370798
 20
1959.661954566749
 10
794.5207348314384
 20
1959.64763315568
 10
794.4426682401743
 20
1959.630175949701
 10
794.3653621959005
 20
1959.609610876619
 10
794.2889403717964
 20
1959.585970836162
 10
794.2135250264784
 20
1959.559293647353
 10
794.1392368084112
 20
1959.529621988003
 10
794.0661945628966
 20
1959.497003326438
 10
793.9945151419456
 20
1959.461489845556
 10
793.924313217341
 20
1959.423138359353
 10
793.8557010971869
 20
1959.382010222024
 10
793.7887885462387
 20
1959.338171229816
 10
793.7236826103038
 20
1959.291691515766
 10
793.6604874449916
 20
1959.242645437499
 10
793.5993041490856
 20
1959.191111458279
 10
793.5402306028075
 20
1959.137172021479
 10
793.4833613112295
 20
1959.080913418692
 10
793.4287872530868
 20
1959.02242565168
 10
793.3765957352306
 20
1958.961802288395
 10
793.3268702529558
 20
1958.899140313284
 10
793.2796903564266
 20
1958.834539972142
 10
793.2351315234129
 20
1958.768104611734
 10
793.1932650385419
 20
1958.699940514463
 10
793.1860226854598
 20
1958.687499999997
  0
LWPOLYLINE
  5
C8
330
87
100
AcDbEntity
  8
P-SANR-FIXT
100
AcDbPolyline
 90
       28
 70
   128
 43
0.0
 10
793.1860226854598
 20
1983.187499999998
 10
793.2273974755503
 20
1983.119036334765
 10
793.2714769866103
 20
1983.052281983469
 10
793.3181907008256
 20
1982.987343738833
 10
793.3674638862181
 20
1982.924325488196
 10
793.4192177162025
 20
1982.863328047314
 10
793.4733693956911
 20
1982.804448999082
 10
793.5298322935481
 20
1982.747782537416
 10
793.5885160811822
 20
1982.693419316566
 10
793.6493268770512
 20
1982.64144630609
 10
793.7121673968546
 20
1982.591946651717
 10
793.7769371091653
 20
1982.544999542335
 10
793.8435323962607
 20
1982.500680083304
 10
793.9118467198881
 20
1982.459059176303
 10
793.9817707917019
 20
1982.420203405906
 10
794.053192748104
 20
1982.384174933057
 10
794.1259983292001
 20
1982.351031395626
 10
794.2000710615912
 20
1982.320825816202
 10
794.2752924447066
 20
1982.29360651727
 10
794.3515421403804
 20
1982.269417043902
 10
794.4286981653649
 20
1982.248296094094
 10
794.5066370864789
 20
1982.230277456861
 10
794.585234218075
 20
1982.215389958177
 10
794.6643638215093
 20
1982.203657414867
 10
794.743899306296
 20
1982.195098596497
 10
794.8237134326263
 20
1982.189727195348
 10
794.9036785149244
 20
1982.187551804518
 10
794.9180734930287
 20
1982.187499999998
  0
LINE
  5
C9
330
87
100
AcDbEntity
  8
P-SANR-FIXT
100
AcDbLine
 10
793.1860226854598
 20
1983.187499999998
 30
0.0
 11
792.6664074431895
 21
1984.087499999998
 31
0.0
  0
LINE
  5
CA
330
87
100
AcDbEntity
  8
P-SANR-FIXT
100
AcDbLine
 10
792.6664074431895
 20
1957.787499999998
 30
0.0
 11
793.1860226854598
 21
1958.687499999997
 31
0.0
  0
LINE
  5
CB
330
87
100
AcDbEntity
  8
P-SANR-FIXT
100
AcDbLine
 10
838.6664074431894
 20
1955.467844885404
 30
0.0
 11
839.4734101286934
 21
1954.660842199901
 31
0.0
  0
LINE
  5
CC
330
87
100
AcDbEntity
  8
P-SANR-FIXT
100
AcDbLine
 10
839.5441762477709
 20
1954.590076080824
 30
0.0
 11
839.6664074431892
 21
1954.467844885405
 31
0.0
  0
LINE
  5
CD
330
87
100
AcDbEntity
  8
P-SANR-FIXT
100
AcDbLine
 10
839.6664074431894
 20
1987.407155114591
 30
0.0
 11
839.5441762477704
 21
1987.284923919172
 31
0.0
  0
LINE
  5
CE
330
87
100
AcDbEntity
  8
P-SANR-FIXT
100
AcDbLine
 10
839.4734101286937
 20
1987.214157800096
 30
0.0
 11
838.6664074431894
 21
1986.407155114591
 31
0.0
  0
LINE
  5
CF
330
87
100
AcDbEntity
  8
P-SANR-FIXT
100
AcDbLine
 10
851.9664074431895
 20
1983.943053499453
 30
0.0
 11
850.0757745384387
 21
1987.217725748944
 31
0.0
  0
LINE
  5
D0
330
87
100
AcDbEntity
  8
P-SANR-FIXT
100
AcDbLine
 10
850.0604438555939
 20
1987.244279270546
 30
0.0
 11
849.9664074431896
 21
1987.407155114591
 31
0.0
  0
LINE
  5
D1
330
87
100
AcDbEntity
  8
P-SANR-FIXT
100
AcDbLine
 10
849.9664074431894
 20
1954.467844885405
 30
0.0
 11
850.0604438555933
 21
1954.63072072945
 31
0.0
  0
LINE
  5
D2
330
87
100
AcDbEntity
  8
P-SANR-FIXT
100
AcDbLine
 10
850.0757745384387
 20
1954.657274251053
 30
0.0
 11
851.9664074431895
 21
1957.931946500543
 31
0.0
  0
LINE
  5
D3
330
87
100
AcDbEntity
  8
P-SANR-FIXT
100
AcDbLine
 10
791.6664074431897
 20
1954.467844885405
 30
0.0
 11
791.7886386386088
 21
1954.590076080824
 31
0.0
  0
LINE
  5
D4
330
87
100
AcDbEntity
  8
P-SANR-FIXT
100
AcDbLine
 10
791.8594047576744
 20
1954.66084219989
 30
0.0
 11
792.6664074431895
 21
1955.467844885404
 31
0.0
  0
LINE
  5
D5
330
87
100
AcDbEntity
  8
P-SANR-FIXT
100
AcDbLine
 10
792.6664074431895
 20
1986.407155114591
 30
0.0
 11
791.8594047576743
 21
1987.214157800107
 31
0.0
  0
LINE
  5
D6
330
87
100
AcDbEntity
  8
P-SANR-FIXT
100
AcDbLine
 10
791.7886386386091
 20
1987.284923919171
 30
0.0
 11
791.6664074431894
 21
1987.407155114591
 31
0.0
  0
LINE
  5
D7
330
87
100
AcDbEntity
  8
P-SANR-FIXT
100
AcDbLine
 10
781.3664074431894
 20
1954.467844885405
 30
0.0
 11
791.6664074431892
 21
1954.467844885405
 31
0.0
  0
LINE
  5
D8
330
87
100
AcDbEntity
  8
P-SANR-FIXT
100
AcDbLine
 10
791.6664074431894
 20
1987.407155114591
 30
0.0
 11
781.3664074431894
 21
1987.407155114591
 31
0.0
  0
LINE
  5
D9
330
87
100
AcDbEntity
  8
P-SANR-FIXT
100
AcDbLine
 10
779.3664074431895
 20
1957.931946500543
 30
0.0
 11
781.25704034794
 21
1954.657274251053
 31
0.0
  0
LINE
  5
DA
330
87
100
AcDbEntity
  8
P-SANR-FIXT
100
AcDbLine
 10
781.2723710307846
 20
1954.630720729451
 30
0.0
 11
781.3664074431893
 21
1954.467844885405
 31
0.0
  0
LINE
  5
DB
330
87
100
AcDbEntity
  8
P-SANR-FIXT
100
AcDbLine
 10
781.3664074431893
 20
1987.407155114591
 30
0.0
 11
781.2723710307844
 21
1987.244279270544
 31
0.0
  0
LINE
  5
DC
330
87
100
AcDbEntity
  8
P-SANR-FIXT
100
AcDbLine
 10
781.2570403479402
 20
1987.217725748944
 30
0.0
 11
779.3664074431895
 21
1983.943053499453
 31
0.0
  0
LINE
  5
DD
330
87
100
AcDbEntity
  8
P-SANR-FIXT
100
AcDbLine
 10
882.1664074431893
 20
1980.087499999998
 30
0.0
 11
880.8664074431895
 21
1981.387499999998
 31
0.0
  0
LINE
  5
DE
330
87
100
AcDbEntity
  8
P-SANR-FIXT
100
AcDbLine
 10
880.8664074431895
 20
1960.487499999998
 30
0.0
 11
882.1664074431893
 21
1961.787499999998
 31
0.0
  0
LINE
  5
DF
330
87
100
AcDbEntity
  8
P-SANR-FIXT
100
AcDbLine
 10
880.8664074431895
 20
1981.387499999998
 30
0.0
 11
870.9089334992141
 21
1981.387499999998
 31
0.0
  0
LINE
  5
E0
330
87
100
AcDbEntity
  8
P-SANR-FIXT
100
AcDbLine
 10
870.9089334992141
 20
1960.487499999998
 30
0.0
 11
880.8664074431895
 21
1960.487499999998
 31
0.0
  0
LINE
  5
E1
330
87
100
AcDbEntity
  8
P-SANR-FIXT
100
AcDbLine
 10
870.9089334992141
 20
1981.387499999998
 30
0.0
 11
870.1664074431892
 21
1981.687499999998
 31
0.0
  0
LINE
  5
E2
330
87
100
AcDbEntity
  8
P-SANR-FIXT
100
AcDbLine
 10
870.1664074431892
 20
1960.187499999998
 30
0.0
 11
870.9089334992141
 21
1960.487499999998
 31
0.0
  0
LINE
  5
E3
330
87
100
AcDbEntity
  8
P-SANR-FIXT
100
AcDbLine
 10
870.1664074431892
 20
1981.687499999998
 30
0.0
 11
868.6664074431895
 21
1981.687499999998
 31
0.0
  0
LINE
  5
E4
330
87
100
AcDbEntity
  8
P-SANR-FIXT
100
AcDbLine
 10
855.6664074431894
 20
1981.687499999998
 30
0.0
 11
852.1664074431894
 21
1981.687499999998
 31
0.0
  0
LINE
  5
E5
330
87
100
AcDbEntity
  8
P-SANR-FIXT
100
AcDbLine
 10
852.1664074431894
 20
1960.187499999998
 30
0.0
 11
855.6664074431894
 21
1960.187499999998
 31
0.0
  0
LINE
  5
E6
330
87
100
AcDbEntity
  8
P-SANR-FIXT
100
AcDbLine
 10
868.6664074431895
 20
1960.187499999998
 30
0.0
 11
870.1664074431892
 21
1960.187499999998
 31
0.0
  0
LINE
  5
E7
330
87
100
AcDbEntity
  8
P-SANR-FIXT
100
AcDbLine
 10
852.1664074431894
 20
1982.937499999998
 30
0.0
 11
851.9664074431895
 21
1982.937499999998
 31
0.0
  0
LINE
  5
E8
330
87
100
AcDbEntity
  8
P-SANR-FIXT
100
AcDbLine
 10
851.9664074431895
 20
1958.937499999998
 30
0.0
 11
852.1664074431894
 21
1958.937499999998
 31
0.0
  0
LINE
  5
E9
330
87
100
AcDbEntity
  8
P-SANR-FIXT
100
AcDbLine
 10
750.4664074431895
 20
1981.387499999998
 30
0.0
 11
749.1664074431895
 21
1980.087499999998
 31
0.0
  0
LINE
  5
EA
330
87
100
AcDbEntity
  8
P-SANR-FIXT
100
AcDbLine
 10
749.1664074431895
 20
1961.787499999998
 30
0.0
 11
750.4664074431895
 21
1960.487499999998
 31
0.0
  0
LINE
  5
EB
330
87
100
AcDbEntity
  8
P-SANR-FIXT
100
AcDbLine
 10
760.4238813871647
 20
1981.387499999998
 30
0.0
 11
750.4664074431895
 21
1981.387499999998
 31
0.0
  0
LINE
  5
EC
330
87
100
AcDbEntity
  8
P-SANR-FIXT
100
AcDbLine
 10
750.4664074431895
 20
1960.487499999998
 30
0.0
 11
760.4238813871647
 21
1960.487499999998
 31
0.0
  0
LINE
  5
ED
330
87
100
AcDbEntity
  8
P-SANR-FIXT
100
AcDbLine
 10
761.1664074431895
 20
1981.687499999998
 30
0.0
 11
760.4238813871647
 21
1981.387499999998
 31
0.0
  0
LINE
  5
EE
330
87
100
AcDbEntity
  8
P-SANR-FIXT
100
AcDbLine
 10
760.4238813871647
 20
1960.487499999998
 30
0.0
 11
761.1664074431895
 21
1960.187499999998
 31
0.0
  0
LINE
  5
EF
330
87
100
AcDbEntity
  8
P-SANR-FIXT
100
AcDbLine
 10
779.1664074431897
 20
1981.687499999998
 30
0.0
 11
775.6664074431894
 21
1981.687499999998
 31
0.0
  0
LINE
  5
F0
330
87
100
AcDbEntity
  8
P-SANR-FIXT
100
AcDbLine
 10
762.6664074431894
 20
1981.687499999998
 30
0.0
 11
761.1664074431895
 21
1981.687499999998
 31
0.0
  0
LINE
  5
F1
330
87
100
AcDbEntity
  8
P-SANR-FIXT
100
AcDbLine
 10
761.1664074431895
 20
1960.187499999998
 30
0.0
 11
762.6664074431894
 21
1960.187499999998
 31
0.0
  0
LINE
  5
F2
330
87
100
AcDbEntity
  8
P-SANR-FIXT
100
AcDbLine
 10
775.6664074431894
 20
1960.187499999998
 30
0.0
 11
779.1664074431897
 21
1960.187499999998
 31
0.0
  0
LINE
  5
F3
330
87
100
AcDbEntity
  8
P-SANR-FIXT
100
AcDbLine
 10
779.3664074431895
 20
1982.937499999998
 30
0.0
 11
779.1664074431897
 21
1982.937499999998
 31
0.0
  0
LINE
  5
F4
330
87
100
AcDbEntity
  8
P-SANR-FIXT
100
AcDbLine
 10
779.1664074431897
 20
1958.937499999998
 30
0.0
 11
779.3664074431895
 21
1958.937499999998
 31
0.0
  0
LINE
  5
F5
330
87
100
AcDbEntity
  8
P-SANR-FIXT
100
AcDbLine
 10
851.9664074431878
 20
1983.943053499453
 30
0.0
 11
851.9664074431876
 21
1957.931946500542
 31
0.0
  0
SPLINE
  5
F6
330
87
100
AcDbEntity
  8
P-SANR-FIXT
100
AcDbSpline
210
0.0
220
0.0
230
1.0
 70
     8
 71
     3
 72
     9
 73
     5
 74
     0
 42
0.000000001
 43
0.0000000001
 40
0.0
 40
0.0
 40
0.0
 40
0.0
 40
0.5
 40
1.0
 40
1.0
 40
1.0
 40
1.0
 10
839.1680808060405
 20
1981.18546727811
 30
0.0
 10
839.3312094883532
 20
1980.952631081557
 30
0.0
 10
839.5773926101906
 20
1980.376591274363
 30
0.0
 10
839.6634272464515
 20
1979.600368143625
 30
0.0
 10
839.6664074431877
 20
1979.172327557283
 30
0.0
  0
SPLINE
  5
F7
330
87
100
AcDbEntity
  8
P-SANR-FIXT
100
AcDbSpline
210
0.0
220
0.0
230
1.0
 70
     8
 71
     3
 72
     9
 73
     5
 74
     0
 42
0.000000001
 43
0.0000000001
 40
0.0
 40
0.0
 40
0.0
 40
0.0
 40
0.5
 40
1.0
 40
1.0
 40
1.0
 40
1.0
 10
839.6664074431877
 20
1979.172327557283
 30
0.0
 10
839.6634272464517
 20
1978.744286970946
 30
0.0
 10
839.5773926101925
 20
1977.834081252549
 30
0.0
 10
839.3312094883601
 20
1976.887999950397
 30
0.0
 10
839.1680808060504
 20
1976.422327557296
 30
0.0
  0
SPLINE
  5
F8
330
87
100
AcDbEntity
  8
P-SANR-FIXT
100
AcDbSpline
210
0.0
220
0.0
230
1.0
 70
     8
 71
     3
 72
     9
 73
     5
 74
     0
 42
0.000000001
 43
0.0000000001
 40
0.0
 40
0.0
 40
0.0
 40
0.0
 40
0.5
 40
1.0
 40
1.0
 40
1.0
 40
1.0
 10
850.2541164612834
 20
1976.422327557296
 30
0.0
 10
850.1590122236208
 20
1976.897100071143
 30
0.0
 10
850.0159564829424
 20
1977.851979524799
 30
0.0
 10
849.9672062115573
 20
1978.75216790669
 30
0.0
 10
849.9664074431876
 20
1979.172327557282
 30
0.0
  0
SPLINE
  5
F9
330
87
100
AcDbEntity
  8
P-SANR-FIXT
100
AcDbSpline
210
0.0
220
0.0
230
1.0
 70
     8
 71
     3
 72
     9
 73
     5
 74
     0
 42
0.000000001
 43
0.0000000001
 40
0.0
 40
0.0
 40
0.0
 40
0.0
 40
0.5
 40
1.0
 40
1.0
 40
1.0
 40
1.0
 10
849.9664074431876
 20
1979.172327557282
 30
0.0
 10
849.9672062115573
 20
1979.592487207881
 30
0.0
 10
850.0159564829434
 20
1980.363553869622
 30
0.0
 10
850.1590122236247
 20
1980.948081021184
 30
0.0
 10
850.2541164612891
 20
1981.18546727811
 30
0.0
  0
SPLINE
  5
FA
330
87
100
AcDbEntity
  8
P-SANR-FIXT
100
AcDbSpline
210
0.0
220
0.0
230
1.0
 70
     8
 71
     3
 72
     9
 73
     5
 74
     0
 42
0.000000001
 43
0.0000000001
 40
0.0
 40
0.0
 40
0.0
 40
0.0
 40
0.5
 40
1.0
 40
1.0
 40
1.0
 40
1.0
 10
838.6664074431879
 20
1967.154613620138
 30
0.0
 10
838.7371108984964
 20
1966.86716023103
 30
0.0
 10
838.8914265809493
 20
1966.296049979018
 30
0.0
 10
839.0715598070718
 20
1965.732532779408
 30
0.0
 10
839.1680808060504
 20
1965.452672442703
 30
0.0
  0
SPLINE
  5
FB
330
87
100
AcDbEntity
  8
P-SANR-FIXT
100
AcDbSpline
210
0.0
220
0.0
230
1.0
 70
     8
 71
     3
 72
     9
 73
     5
 74
     0
 42
0.000000001
 43
0.0000000001
 40
0.0
 40
0.0
 40
0.0
 40
0.0
 40
0.5
 40
1.0
 40
1.0
 40
1.0
 40
1.0
 10
850.2541164612834
 20
1965.452672442703
 30
0.0
 10
850.6279576968866
 20
1967.25255663354
 30
0.0
 10
851.0017989324897
 20
1970.88071667681
 30
0.0
 10
850.6279576968866
 20
1974.565660043269
 30
0.0
 10
850.2541164612834
 20
1976.422327557296
 30
0.0
  0
SPLINE
  5
FC
330
87
100
AcDbEntity
  8
P-SANR-FIXT
100
AcDbSpline
210
0.0
220
0.0
230
1.0
 70
     8
 71
     3
 72
     9
 73
     5
 74
     0
 42
0.000000001
 43
0.0000000001
 40
0.0
 40
0.0
 40
0.0
 40
0.0
 40
0.5
 40
1.0
 40
1.0
 40
1.0
 40
1.0
 10
839.1680808060504
 20
1976.422327557296
 30
0.0
 10
839.0715598070718
 20
1976.142467220591
 30
0.0
 10
838.8914265809493
 20
1975.578950020981
 30
0.0
 10
838.7371108984964
 20
1975.007839768968
 30
0.0
 10
838.6664074431879
 20
1974.720386379861
 30
0.0
  0
SPLINE
  5
FD
330
87
100
AcDbEntity
  8
P-SANR-FIXT
100
AcDbSpline
210
0.0
220
0.0
230
1.0
 70
     8
 71
     3
 72
     9
 73
     5
 74
     0
 42
0.000000001
 43
0.0000000001
 40
0.0
 40
0.0
 40
0.0
 40
0.0
 40
0.5
 40
1.0
 40
1.0
 40
1.0
 40
1.0
 10
839.1680808060504
 20
1965.452672442703
 30
0.0
 10
839.3312094883601
 20
1964.987000049602
 30
0.0
 10
839.5773926101925
 20
1964.04091874745
 30
0.0
 10
839.6634272464517
 20
1963.130713029052
 30
0.0
 10
839.6664074431877
 20
1962.702672442716
 30
0.0
  0
SPLINE
  5
FE
330
87
100
AcDbEntity
  8
P-SANR-FIXT
100
AcDbSpline
210
0.0
220
0.0
230
1.0
 70
     8
 71
     3
 72
     9
 73
     5
 74
     0
 42
0.000000001
 43
0.0000000001
 40
0.0
 40
0.0
 40
0.0
 40
0.0
 40
0.5
 40
1.0
 40
1.0
 40
1.0
 40
1.0
 10
839.6664074431877
 20
1962.702672442716
 30
0.0
 10
839.6634272464515
 20
1962.274631856374
 30
0.0
 10
839.5773926101906
 20
1961.498408725636
 30
0.0
 10
839.3312094883532
 20
1960.922368918441
 30
0.0
 10
839.1680808060403
 20
1960.689532721888
 30
0.0
  0
SPLINE
  5
FF
330
87
100
AcDbEntity
  8
P-SANR-FIXT
100
AcDbSpline
210
0.0
220
0.0
230
1.0
 70
     8
 71
     3
 72
     9
 73
     5
 74
     0
 42
0.000000001
 43
0.0000000001
 40
0.0
 40
0.0
 40
0.0
 40
0.0
 40
0.5
 40
1.0
 40
1.0
 40
1.0
 40
1.0
 10
850.2541164612891
 20
1960.689532721888
 30
0.0
 10
850.1590122236247
 20
1960.926918978814
 30
0.0
 10
850.0159564829434
 20
1961.511446130376
 30
0.0
 10
849.9672062115573
 20
1962.282512792117
 30
0.0
 10
849.9664074431876
 20
1962.702672442716
 30
0.0
  0
SPLINE
  5
100
330
87
100
AcDbEntity
  8
P-SANR-FIXT
100
AcDbSpline
210
0.0
220
0.0
230
1.0
 70
     8
 71
     3
 72
     9
 73
     5
 74
     0
 42
0.000000001
 43
0.0000000001
 40
0.0
 40
0.0
 40
0.0
 40
0.0
 40
0.5
 40
1.0
 40
1.0
 40
1.0
 40
1.0
 10
849.9664074431876
 20
1962.702672442716
 30
0.0
 10
849.9672062115569
 20
1963.122832093309
 30
0.0
 10
850.0159564829424
 20
1964.0230204752
 30
0.0
 10
850.1590122236208
 20
1964.977899928856
 30
0.0
 10
850.2541164612834
 20
1965.452672442703
 30
0.0
  0
SPLINE
  5
101
330
87
100
AcDbEntity
  8
P-SANR-FIXT
100
AcDbSpline
210
0.0
220
0.0
230
1.0
 70
     8
 71
     3
 72
     9
 73
     5
 74
     0
 42
0.000000001
 43
0.0000000001
 40
0.0
 40
0.0
 40
0.0
 40
0.0
 40
0.5
 40
1.0
 40
1.0
 40
1.0
 40
1.0
 10
838.6664074431879
 20
1956.055675753223
 30
0.0
 10
838.7371108984918
 20
1955.911949058684
 30
0.0
 10
838.8914265809317
 20
1955.626393932707
 30
0.0
 10
839.0715598070366
 20
1955.344635332929
 30
0.0
 10
839.1680808060051
 20
1955.20470516459
 30
0.0
  0
SPLINE
  5
102
330
87
100
AcDbEntity
  8
P-SANR-FIXT
100
AcDbSpline
210
0.0
220
0.0
230
1.0
 70
     8
 71
     3
 72
     9
 73
     5
 74
     0
 42
0.000000001
 43
0.0000000001
 40
0.0
 40
0.0
 40
0.0
 40
0.0
 40
0.5
 40
1.0
 40
1.0
 40
1.0
 40
1.0
 10
850.2541164613093
 20
1955.20470516459
 30
0.0
 10
850.6279576969101
 20
1956.104647260009
 30
0.0
 10
851.0017989325072
 20
1957.918727281645
 30
0.0
 10
850.6279576968964
 20
1959.761198964875
 30
0.0
 10
850.2541164612891
 20
1960.689532721888
 30
0.0
  0
SPLINE
  5
103
330
87
100
AcDbEntity
  8
P-SANR-FIXT
100
AcDbSpline
210
0.0
220
0.0
230
1.0
 70
     8
 71
     3
 72
     9
 73
     5
 74
     0
 42
0.000000001
 43
0.0000000001
 40
0.0
 40
0.0
 40
0.0
 40
0.0
 40
0.5
 40
1.0
 40
1.0
 40
1.0
 40
1.0
 10
839.1680808060403
 20
1960.689532721888
 30
0.0
 10
839.0715598070643
 20
1960.549602553541
 30
0.0
 10
838.8914265809463
 20
1960.267843953747
 30
0.0
 10
838.7371108984961
 20
1959.982288827751
 30
0.0
 10
838.6664074431879
 20
1959.838562133203
 30
0.0
  0
SPLINE
  5
104
330
87
100
AcDbEntity
  8
P-SANR-FIXT
100
AcDbSpline
210
0.0
220
0.0
230
1.0
 70
     8
 71
     3
 72
     9
 73
     5
 74
     0
 42
0.000000001
 43
0.0000000001
 40
0.0
 40
0.0
 40
0.0
 40
0.0
 40
0.5
 40
1.0
 40
1.0
 40
1.0
 40
1.0
 10
849.9664074431876
 20
1954.467844885404
 30
0.0
 10
849.9672062115717
 20
1954.467844885407
 30
0.0
 10
850.0159564829758
 20
1954.596966605568
 30
0.0
 10
850.1590122236528
 20
1954.967318907667
 30
0.0
 10
850.2541164613093
 20
1955.20470516459
 30
0.0
  0
SPLINE
  5
105
330
87
100
AcDbEntity
  8
P-SANR-FIXT
100
AcDbSpline
210
0.0
220
0.0
230
1.0
 70
     8
 71
     3
 72
     9
 73
     5
 74
     0
 42
0.000000001
 43
0.0000000001
 40
0.0
 40
0.0
 40
0.0
 40
0.0
 40
0.5
 40
1.0
 40
1.0
 40
1.0
 40
1.0
 10
839.1680808060051
 20
1955.20470516459
 30
0.0
 10
839.3312094883048
 20
1954.971868968039
 30
0.0
 10
839.5773926101348
 20
1954.601827473077
 30
0.0
 10
839.6634272464265
 20
1954.467844885407
 30
0.0
 10
839.6664074431877
 20
1954.467844885404
 30
0.0
  0
SPLINE
  5
106
330
87
100
AcDbEntity
  8
P-SANR-FIXT
100
AcDbSpline
210
0.0
220
0.0
230
1.0
 70
     8
 71
     3
 72
     9
 73
     5
 74
     0
 42
0.000000001
 43
0.0000000001
 40
0.0
 40
0.0
 40
0.0
 40
0.0
 40
0.5
 40
1.0
 40
1.0
 40
1.0
 40
1.0
 10
839.6664074431877
 20
1987.40715511459
 30
0.0
 10
839.6634272464265
 20
1987.407155114588
 30
0.0
 10
839.577392610135
 20
1987.273172526917
 30
0.0
 10
839.331209488305
 20
1986.903131031956
 30
0.0
 10
839.1680808060055
 20
1986.670294835405
 30
0.0
  0
SPLINE
  5
107
330
87
100
AcDbEntity
  8
P-SANR-FIXT
100
AcDbSpline
210
0.0
220
0.0
230
1.0
 70
     8
 71
     3
 72
     9
 73
     5
 74
     0
 42
0.000000001
 43
0.0000000001
 40
0.0
 40
0.0
 40
0.0
 40
0.0
 40
0.5
 40
1.0
 40
1.0
 40
1.0
 40
1.0
 10
850.2541164613093
 20
1986.670294835405
 30
0.0
 10
850.1590122236528
 20
1986.907681092328
 30
0.0
 10
850.0159564829759
 20
1987.278033394427
 30
0.0
 10
849.9672062115717
 20
1987.407155114588
 30
0.0
 10
849.9664074431878
 20
1987.40715511459
 30
0.0
  0
SPLINE
  5
108
330
87
100
AcDbEntity
  8
P-SANR-FIXT
100
AcDbSpline
210
0.0
220
0.0
230
1.0
 70
     8
 71
     3
 72
     9
 73
     5
 74
     0
 42
0.000000001
 43
0.0000000001
 40
0.0
 40
0.0
 40
0.0
 40
0.0
 40
0.5
 40
1.0
 40
1.0
 40
1.0
 40
1.0
 10
838.6664074431879
 20
1982.036437866794
 30
0.0
 10
838.7371108984961
 20
1981.892711172246
 30
0.0
 10
838.8914265809464
 20
1981.607156046251
 30
0.0
 10
839.0715598070643
 20
1981.325397446457
 30
0.0
 10
839.1680808060405
 20
1981.18546727811
 30
0.0
  0
SPLINE
  5
109
330
87
100
AcDbEntity
  8
P-SANR-FIXT
100
AcDbSpline
210
0.0
220
0.0
230
1.0
 70
     8
 71
     3
 72
     9
 73
     5
 74
     0
 42
0.000000001
 43
0.0000000001
 40
0.0
 40
0.0
 40
0.0
 40
0.0
 40
0.5
 40
1.0
 40
1.0
 40
1.0
 40
1.0
 10
850.2541164612891
 20
1981.18546727811
 30
0.0
 10
850.6279576968964
 20
1982.113801035123
 30
0.0
 10
851.0017989325072
 20
1983.956272718352
 30
0.0
 10
850.6279576969101
 20
1985.770352739987
 30
0.0
 10
850.2541164613093
 20
1986.670294835405
 30
0.0
  0
SPLINE
  5
10A
330
87
100
AcDbEntity
  8
P-SANR-FIXT
100
AcDbSpline
210
0.0
220
0.0
230
1.0
 70
     8
 71
     3
 72
     9
 73
     5
 74
     0
 42
0.000000001
 43
0.0000000001
 40
0.0
 40
0.0
 40
0.0
 40
0.0
 40
0.5
 40
1.0
 40
1.0
 40
1.0
 40
1.0
 10
839.1680808060055
 20
1986.670294835405
 30
0.0
 10
839.0715598070366
 20
1986.530364667066
 30
0.0
 10
838.8914265809317
 20
1986.248606067289
 30
0.0
 10
838.7371108984918
 20
1985.963050941311
 30
0.0
 10
838.6664074431879
 20
1985.819324246772
 30
0.0
  0
LINE
  5
10B
330
87
100
AcDbEntity
  8
P-SANR-FIXT
100
AcDbLine
 10
798.6664074431877
 20
1989.637499999997
 30
0.0
 11
832.6664074431878
 21
1989.637499999997
 31
0.0
  0
LINE
  5
10C
330
87
100
AcDbEntity
  8
P-SANR-FIXT
100
AcDbLine
 10
805.2164074431878
 20
1923.737499999997
 30
0.0
 11
826.1164074431876
 21
1923.737499999997
 31
0.0
  0
LINE
  5
10D
330
87
100
AcDbEntity
  8
P-SANR-FIXT
100
AcDbLine
 10
806.5164074431878
 20
1922.437499999997
 30
0.0
 11
824.8164074431876
 21
1922.437499999997
 31
0.0
  0
LINE
  5
10E
330
87
100
AcDbEntity
  8
P-SANR-FIXT
100
AcDbLine
 10
833.1664074431877
 20
1989.137499999997
 30
0.0
 11
798.1664074431878
 21
1989.137499999997
 31
0.0
  0
LINE
  5
10F
330
87
100
AcDbEntity
  8
P-SANR-FIXT
100
AcDbLine
 10
797.3698903196877
 20
1983.462645317302
 30
0.0
 11
833.9629245666881
 21
1983.462645317302
 31
0.0
  0
SPLINE
  5
110
330
87
100
AcDbEntity
  8
P-SANR-FIXT
100
AcDbSpline
210
0.0
220
0.0
230
1.0
 70
     8
 71
     3
 72
     9
 73
     5
 74
     0
 42
0.000000001
 43
0.0000000001
 40
-1.0
 40
-1.0
 40
-1.0
 40
-1.0
 40
-0.5
 40
0.0
 40
0.0
 40
0.0
 40
0.0
 10
796.2462328585936
 20
1982.187499999997
 30
0.0
 10
796.2372588714023
 20
1982.187499999997
 30
0.0
 10
796.2678621308112
 20
1982.091853366026
 30
0.0
 10
796.3955678578032
 20
1981.811602551599
 30
0.0
 10
796.4836963381952
 20
1981.628098923238
 30
0.0
  0
SPLINE
  5
111
330
87
100
AcDbEntity
  8
P-SANR-FIXT
100
AcDbSpline
210
0.0
220
0.0
230
1.0
 70
     8
 71
     3
 72
     9
 73
     5
 74
     0
 42
0.000000001
 43
0.0000000001
 40
-1.0
 40
-1.0
 40
-1.0
 40
-1.0
 40
-0.5
 40
0.0
 40
0.0
 40
0.0
 40
0.0
 10
834.8491185481803
 20
1981.628098923238
 30
0.0
 10
834.9372470285722
 20
1981.811602551599
 30
0.0
 10
835.0649527555642
 20
1982.091853366026
 30
0.0
 10
835.0955560149731
 20
1982.187499999997
 30
0.0
 10
835.0865820277819
 20
1982.187499999997
 30
0.0
  0
SPLINE
  5
112
330
87
100
AcDbEntity
  8
P-SANR-FIXT
100
AcDbSpline
210
0.0
220
0.0
230
1.0
 70
     8
 71
     3
 72
    23
 73
    19
 74
     0
 42
0.000000001
 43
0.0000000001
 40
0.0
 40
0.0
 40
0.0
 40
0.0
 40
0.1111111111111111
 40
0.2222222222222222
 40
0.3333333333333333
 40
0.3888888888888888
 40
0.4444444444444445
 40
0.4791666666666666
 40
0.5138888888888889
 40
0.5486111111111111
 40
0.5833333333333333
 40
0.6527777777777777
 40
0.6875
 40
0.7222222222222223
 40
0.7569444444444445
 40
0.7916666666666668
 40
0.861111111111111
 40
1.0
 40
1.0
 40
1.0
 40
1.0
 10
796.4836963381952
 20
1981.628098923238
 30
0.0
 10
796.634900365013
 20
1981.350491105504
 30
0.0
 10
797.0264927644092
 20
1980.644548200832
 30
0.0
 10
797.7920583880744
 20
1979.097118411452
 30
0.0
 10
798.4655222739335
 20
1977.491331455215
 30
0.0
 10
798.954412866277
 20
1976.034794128203
 30
0.0
 10
799.2353443225608
 20
1975.015422494935
 30
0.0
 10
799.431032971239
 20
1974.102909007205
 30
0.0
 10
799.5685602371396
 20
1973.312448527234
 30
0.0
 10
799.6686799061397
 20
1972.512797446336
 30
0.0
 10
799.7443579656596
 20
1971.438020256026
 30
0.0
 10
799.7419854436058
 20
1970.323751487444
 30
0.0
 10
799.6574880371411
 20
1969.255699204822
 30
0.0
 10
799.5509433470112
 20
1968.452314874835
 30
0.0
 10
799.4101557187599
 20
1967.665660428032
 30
0.0
 10
799.1899510456179
 20
1966.662089452521
 30
0.0
 10
798.6945709312038
 20
1964.971397913796
 30
0.0
 10
798.2000247634453
 20
1963.731272380984
 30
0.0
 10
797.8648214402256
 20
1962.98709345562
 30
0.0
  0
SPLINE
  5
113
330
87
100
AcDbEntity
  8
P-SANR-FIXT
100
AcDbSpline
210
0.0
220
0.0
230
1.0
 70
     8
 71
     3
 72
    21
 73
    17
 74
     0
 42
0.000000001
 43
0.0000000001
 40
0.0
 40
0.0
 40
0.0
 40
0.0
 40
0.1111111111111111
 40
0.1666666666666666
 40
0.2222222222222222
 40
0.25
 40
0.2777777777777778
 40
0.3333333333333333
 40
0.3888888888888888
 40
0.4444444444444445
 40
0.5138888888888889
 40
0.5833333333333333
 40
0.6527777777777777
 40
0.7222222222222223
 40
0.861111111111111
 40
1.0
 40
1.0
 40
1.0
 40
1.0
 10
833.4679934461497
 20
1962.98709345562
 30
0.0
 10
833.1998307875741
 20
1963.582436595911
 30
0.0
 10
832.8032434979617
 20
1964.553124173476
 30
0.0
 10
832.3216613937917
 20
1966.028406960019
 30
0.0
 10
832.0619481256644
 20
1967.008978663094
 30
0.0
 10
831.8938938792131
 20
1967.82251051307
 30
0.0
 10
831.7470740642791
 20
1968.664683617893
 30
0.0
 10
831.6205444611879
 20
1969.731842704096
 30
0.0
 10
831.5801669083969
 20
1971.046198262561
 30
0.0
 10
831.6428022659566
 20
1972.465439295853
 30
0.0
 10
831.8570890724464
 20
1973.957178529687
 30
0.0
 10
832.2026403181119
 20
1975.465180147778
 30
0.0
 10
832.6496691296982
 20
1976.871687786874
 30
0.0
 10
833.2970216662461
 20
1978.564064942982
 30
0.0
 10
834.1419004633056
 20
1980.344645003519
 30
0.0
 10
834.6601135146579
 20
1981.281089151071
 30
0.0
 10
834.8491185481803
 20
1981.628098923238
 30
0.0
  0
SPLINE
  5
114
330
87
100
AcDbEntity
  8
P-SANR-FIXT
100
AcDbSpline
210
0.0
220
0.0
230
1.0
 70
     8
 71
     3
 72
    19
 73
    15
 74
     0
 42
0.000000001
 43
0.0000000001
 40
-1.0
 40
-1.0
 40
-1.0
 40
-1.0
 40
-0.7857142857142857
 40
-0.6785714285714287
 40
-0.5357142857142857
 40
-0.4642857142857144
 40
-0.4107142857142857
 40
-0.3571428571428571
 40
-0.3035714285714286
 40
-0.25
 40
-0.1785714285714286
 40
-0.125
 40
-0.0714285714285714
 40
0.0
 40
0.0
 40
0.0
 40
0.0
 10
797.8648214402256
 20
1962.98709345562
 30
0.0
 10
797.7780176816511
 20
1962.792281156141
 30
0.0
 10
797.6915024712146
 20
1962.504770133148
 30
0.0
 10
797.662431247553
 20
1962.107784947482
 30
0.0
 10
797.6979065963726
 20
1961.849174995531
 30
0.0
 10
797.7678217137308
 20
1961.646479737129
 30
0.0
 10
797.8371641775702
 20
1961.520701671181
 30
0.0
 10
797.911948177817
 20
1961.41019885151
 30
0.0
 10
798.0053351625575
 20
1961.308191332354
 30
0.0
 10
798.1373150408377
 20
1961.207652385139
 30
0.0
 10
798.2960386394718
 20
1961.111829414386
 30
0.0
 10
798.4846864963596
 20
1961.04792040826
 30
0.0
 10
798.6983906179382
 20
1961.005182691743
 30
0.0
 10
798.8683638228113
 20
1960.990504338888
 30
0.0
 10
798.9721542284326
 20
1960.98709345562
 30
0.0
  0
SPLINE
  5
115
330
87
100
AcDbEntity
  8
P-SANR-FIXT
100
AcDbSpline
210
0.0
220
0.0
230
1.0
 70
     8
 71
     3
 72
    20
 73
    16
 74
     0
 42
0.000000001
 43
0.0000000001
 40
-1.0
 40
-1.0
 40
-1.0
 40
-1.0
 40
-0.9464285714285713
 40
-0.8928571428571427
 40
-0.8392857142857142
 40
-0.7857142857142857
 40
-0.71875
 40
-0.6785714285714287
 40
-0.5982142857142857
 40
-0.5535714285714287
 40
-0.5
 40
-0.4285714285714286
 40
-0.3571428571428571
 40
-0.2857142857142857
 40
0.0
 40
0.0
 40
0.0
 40
0.0
 10
832.3606606579428
 20
1960.98709345562
 30
0.0
 10
832.4385034621586
 20
1960.989651618071
 30
0.0
 10
832.5867024942475
 20
1961.000266243004
 30
0.0
 10
832.7864862513434
 20
1961.033479819252
 30
0.0
 10
832.9639204034268
 20
1961.08304860168
 30
0.0
 10
833.130994948711
 20
1961.164775661688
 30
0.0
 10
833.2610267654731
 20
1961.255291078195
 30
0.0
 10
833.3863810263867
 20
1961.364965193078
 30
0.0
 10
833.4686274431632
 20
1961.47742708881
 30
0.0
 10
833.5422009250661
 20
1961.601819671377
 30
0.0
 10
833.5949106009499
 20
1961.726924609213
 30
0.0
 10
833.6364752545472
 20
1961.87848744262
 30
0.0
 10
833.6603533837969
 20
1962.050749849789
 30
0.0
 10
833.6637949325286
 20
1962.40887686575
 30
0.0
 10
833.5837317909158
 20
1962.727343722981
 30
0.0
 10
833.4679934461497
 20
1962.98709345562
 30
0.0
  0
SPLINE
  5
116
330
87
100
AcDbEntity
  8
P-SANR-FIXT
100
AcDbSpline
210
0.0
220
0.0
230
1.0
 70
     8
 71
     3
 72
    25
 73
    21
 74
     0
 42
0.000000001
 43
0.0000000001
 40
-1.0
 40
-1.0
 40
-1.0
 40
-1.0
 40
-0.9
 40
-0.8
 40
-0.75
 40
-0.7
 40
-0.65
 40
-0.6
 40
-0.55
 40
-0.475
 40
-0.425
 40
-0.3875
 40
-0.35
 40
-0.3
 40
-0.225
 40
-0.1875
 40
-0.15
 40
-0.1
 40
-0.05
 40
0.0
 40
0.0
 40
0.0
 40
0.0
 10
829.7930599920736
 20
1959.687499999996
 30
0.0
 10
829.7915765207731
 20
1959.687499999996
 30
0.0
 10
829.7855758083152
 20
1959.698085437949
 30
0.0
 10
829.772497818323
 20
1959.737855377889
 30
0.0
 10
829.7550759812754
 20
1959.785674091784
 30
0.0
 10
829.7383309179798
 20
1959.829565676557
 30
0.0
 10
829.721178132369
 20
1959.881398005726
 30
0.0
 10
829.709196587623
 20
1959.940990525301
 30
0.0
 10
829.6929411096678
 20
1960.019544625044
 30
0.0
 10
829.6734325326559
 20
1960.109245195477
 30
0.0
 10
829.6710016934701
 20
1960.202957876717
 30
0.0
 10
829.6883245466229
 20
1960.279416124921
 30
0.0
 10
829.6993080970478
 20
1960.365497210973
 30
0.0
 10
829.7193768470652
 20
1960.487502710842
 30
0.0
 10
829.7771504092212
 20
1960.613588060046
 30
0.0
 10
829.9068860576774
 20
1960.711782367343
 30
0.0
 10
830.0449009070586
 20
1960.787079940802
 30
0.0
 10
830.2318013527932
 20
1960.862021090931
 30
0.0
 10
830.4804148107916
 20
1960.932073085478
 30
0.0
 10
830.6757934913157
 20
1960.970276666756
 30
0.0
 10
830.7809067864791
 20
1960.98709345562
 30
0.0
  0
SPLINE
  5
117
330
87
100
AcDbEntity
  8
P-SANR-FIXT
100
AcDbSpline
210
0.0
220
0.0
230
1.0
 70
     8
 71
     3
 72
    25
 73
    21
 74
     0
 42
0.000000001
 43
0.0000000001
 40
-1.0
 40
-1.0
 40
-1.0
 40
-1.0
 40
-0.95
 40
-0.875
 40
-0.825
 40
-0.7875000000000001
 40
-0.75
 40
-0.675
 40
-0.625
 40
-0.5875
 40
-0.55
 40
-0.5
 40
-0.45
 40
-0.4
 40
-0.35
 40
-0.3
 40
-0.25
 40
-0.2
 40
-0.1
 40
0.0
 40
0.0
 40
0.0
 40
0.0
 10
800.5519080998961
 20
1960.98709345562
 30
0.0
 10
800.6570213950595
 20
1960.970276666756
 30
0.0
 10
800.9012025793872
 20
1960.922510603531
 30
0.0
 10
801.1785218310057
 20
1960.837130396745
 30
0.0
 10
801.3746894435827
 20
1960.742606670997
 30
0.0
 10
801.495706991772
 20
1960.66407302905
 30
0.0
 10
801.5887348284023
 20
1960.556361210691
 30
0.0
 10
801.6264739810427
 20
1960.429701813921
 30
0.0
 10
801.6384770562027
 20
1960.312127566416
 30
0.0
 10
801.6565094325599
 20
1960.233108577243
 30
0.0
 10
801.661950873061
 20
1960.159067760818
 30
0.0
 10
801.6541679482889
 20
1960.083343781467
 30
0.0
 10
801.637430340228
 20
1960.008310341144
 30
0.0
 10
801.6236507807219
 20
1959.940993812917
 30
0.0
 10
801.6116280514719
 20
1959.881397124912
 30
0.0
 10
801.5944862965643
 20
1959.8295659122
 30
0.0
 10
801.5777382949591
 20
1959.78567403003
 30
0.0
 10
801.5603174212918
 20
1959.737855413642
 30
0.0
 10
801.5472389496094
 20
1959.698085424948
 30
0.0
 10
801.5412383656022
 20
1959.687499999996
 30
0.0
 10
801.5397548943017
 20
1959.687499999996
 30
0.0
  0
LINE
  5
118
330
87
100
AcDbEntity
  8
P-SANR-FIXT
100
AcDbLine
 10
838.6664074431879
 20
1985.819324246772
 30
0.0
 11
838.6664074431879
 21
1982.036437866794
 31
0.0
  0
LINE
  5
119
330
87
100
AcDbEntity
  8
P-SANR-FIXT
100
AcDbLine
 10
838.6664074431879
 20
1985.819324246772
 30
0.0
 11
838.6664074431879
 21
1986.40715511459
 31
0.0
  0
LINE
  5
11A
330
87
100
AcDbEntity
  8
P-SANR-FIXT
100
AcDbLine
 10
838.6664074431879
 20
1955.467844885404
 30
0.0
 11
838.6664074431879
 21
1956.055675753223
 31
0.0
  0
LINE
  5
11B
330
87
100
AcDbEntity
  8
P-SANR-FIXT
100
AcDbLine
 10
838.6664074431879
 20
1959.838562133203
 30
0.0
 11
838.6664074431879
 21
1956.055675753223
 31
0.0
  0
LINE
  5
11C
330
87
100
AcDbEntity
  8
P-SANR-FIXT
100
AcDbLine
 10
838.6664074431879
 20
1959.838562133203
 30
0.0
 11
838.6664074431879
 21
1967.154613620137
 31
0.0
  0
LINE
  5
11D
330
87
100
AcDbEntity
  8
P-SANR-FIXT
100
AcDbLine
 10
838.6664074431879
 20
1974.720386379861
 30
0.0
 11
838.6664074431879
 21
1967.154613620138
 31
0.0
  0
LINE
  5
11E
330
87
100
AcDbEntity
  8
P-SANR-FIXT
100
AcDbLine
 10
838.6664074431879
 20
1974.720386379861
 30
0.0
 11
838.6664074431879
 21
1982.036437866794
 31
0.0
  0
LINE
  5
11F
330
87
100
AcDbEntity
  8
P-SANR-FIXT
100
AcDbLine
 10
779.3664074431878
 20
1957.931946500542
 30
0.0
 11
779.3664074431878
 21
1983.943053499453
 31
0.0
  0
LINE
  5
120
330
87
100
AcDbEntity
  8
P-SANR-FIXT
100
AcDbLine
 10
792.6664074431877
 20
1974.720386379861
 30
0.0
 11
792.6664074431877
 21
1967.154613620138
 31
0.0
  0
LINE
  5
121
330
87
100
AcDbEntity
  8
P-SANR-FIXT
100
AcDbLine
 10
792.6664074431877
 20
1959.838562133203
 30
0.0
 11
792.6664074431877
 21
1967.154613620137
 31
0.0
  0
LINE
  5
122
330
87
100
AcDbEntity
  8
P-SANR-FIXT
100
AcDbLine
 10
792.6664074431877
 20
1959.838562133203
 30
0.0
 11
792.6664074431877
 21
1956.055675753223
 31
0.0
  0
LINE
  5
123
330
87
100
AcDbEntity
  8
P-SANR-FIXT
100
AcDbLine
 10
792.6664074431877
 20
1955.467844885404
 30
0.0
 11
792.6664074431877
 21
1956.055675753223
 31
0.0
  0
LINE
  5
124
330
87
100
AcDbEntity
  8
P-SANR-FIXT
100
AcDbLine
 10
792.6664074431877
 20
1985.819324246772
 30
0.0
 11
792.6664074431877
 21
1986.40715511459
 31
0.0
  0
LINE
  5
125
330
87
100
AcDbEntity
  8
P-SANR-FIXT
100
AcDbLine
 10
792.6664074431877
 20
1985.819324246772
 30
0.0
 11
792.6664074431877
 21
1982.036437866794
 31
0.0
  0
LINE
  5
126
330
87
100
AcDbEntity
  8
P-SANR-FIXT
100
AcDbLine
 10
792.6664074431877
 20
1974.720386379861
 30
0.0
 11
792.6664074431877
 21
1982.036437866794
 31
0.0
  0
SPLINE
  5
127
330
87
100
AcDbEntity
  8
P-SANR-FIXT
100
AcDbSpline
210
0.0
220
0.0
230
1.0
 70
     8
 71
     3
 72
     9
 73
     5
 74
     0
 42
0.000000001
 43
0.0000000001
 40
0.0
 40
0.0
 40
0.0
 40
0.0
 40
0.5
 40
1.0
 40
1.0
 40
1.0
 40
1.0
 10
781.3664074431878
 20
1979.172327557282
 30
0.0
 10
781.3656086748184
 20
1978.75216790669
 30
0.0
 10
781.3168584034331
 20
1977.851979524799
 30
0.0
 10
781.1738026627547
 20
1976.897100071143
 30
0.0
 10
781.0786984250922
 20
1976.422327557296
 30
0.0
  0
SPLINE
  5
128
330
87
100
AcDbEntity
  8
P-SANR-FIXT
100
AcDbSpline
210
0.0
220
0.0
230
1.0
 70
     8
 71
     3
 72
     9
 73
     5
 74
     0
 42
0.000000001
 43
0.0000000001
 40
-1.0
 40
-1.0
 40
-1.0
 40
-1.0
 40
-0.5
 40
0.0
 40
0.0
 40
0.0
 40
0.0
 10
791.6664074431878
 20
1979.172327557283
 30
0.0
 10
791.669387639924
 20
1978.744286970946
 30
0.0
 10
791.755422276183
 20
1977.834081252549
 30
0.0
 10
792.0016053980154
 20
1976.887999950397
 30
0.0
 10
792.1647340803251
 20
1976.422327557296
 30
0.0
  0
SPLINE
  5
129
330
87
100
AcDbEntity
  8
P-SANR-FIXT
100
AcDbSpline
210
0.0
220
0.0
230
1.0
 70
     8
 71
     3
 72
     9
 73
     5
 74
     0
 42
0.000000001
 43
0.0000000001
 40
-1.0
 40
-1.0
 40
-1.0
 40
-1.0
 40
-0.5
 40
0.0
 40
0.0
 40
0.0
 40
0.0
 10
792.1647340803351
 20
1981.18546727811
 30
0.0
 10
792.0016053980223
 20
1980.952631081557
 30
0.0
 10
791.7554222761848
 20
1980.376591274363
 30
0.0
 10
791.6693876399241
 20
1979.600368143625
 30
0.0
 10
791.6664074431878
 20
1979.172327557283
 30
0.0
  0
SPLINE
  5
12A
330
87
100
AcDbEntity
  8
P-SANR-FIXT
100
AcDbSpline
210
0.0
220
0.0
230
1.0
 70
     8
 71
     3
 72
     9
 73
     5
 74
     0
 42
0.000000001
 43
0.0000000001
 40
0.0
 40
0.0
 40
0.0
 40
0.0
 40
0.5
 40
1.0
 40
1.0
 40
1.0
 40
1.0
 10
781.0786984250865
 20
1981.18546727811
 30
0.0
 10
781.1738026627509
 20
1980.948081021184
 30
0.0
 10
781.3168584034321
 20
1980.363553869622
 30
0.0
 10
781.3656086748184
 20
1979.592487207881
 30
0.0
 10
781.3664074431877
 20
1979.172327557282
 30
0.0
  0
SPLINE
  5
12B
330
87
100
AcDbEntity
  8
P-SANR-FIXT
100
AcDbSpline
210
0.0
220
0.0
230
1.0
 70
     8
 71
     3
 72
     9
 73
     5
 74
     0
 42
0.000000001
 43
0.0000000001
 40
0.0
 40
0.0
 40
0.0
 40
0.0
 40
0.5
 40
1.0
 40
1.0
 40
1.0
 40
1.0
 10
781.0786984250922
 20
1976.422327557296
 30
0.0
 10
780.704857189489
 20
1974.565660043269
 30
0.0
 10
780.3310159538859
 20
1970.88071667681
 30
0.0
 10
780.704857189489
 20
1967.25255663354
 30
0.0
 10
781.0786984250922
 20
1965.452672442703
 30
0.0
  0
SPLINE
  5
12C
330
87
100
AcDbEntity
  8
P-SANR-FIXT
100
AcDbSpline
210
0.0
220
0.0
230
1.0
 70
     8
 71
     3
 72
     9
 73
     5
 74
     0
 42
0.000000001
 43
0.0000000001
 40
-1.0
 40
-1.0
 40
-1.0
 40
-1.0
 40
-0.5
 40
0.0
 40
0.0
 40
0.0
 40
0.0
 10
792.6664074431877
 20
1967.154613620138
 30
0.0
 10
792.595703987879
 20
1966.86716023103
 30
0.0
 10
792.4413883054263
 20
1966.296049979018
 30
0.0
 10
792.2612550793038
 20
1965.732532779408
 30
0.0
 10
792.1647340803251
 20
1965.452672442703
 30
0.0
  0
SPLINE
  5
12D
330
87
100
AcDbEntity
  8
P-SANR-FIXT
100
AcDbSpline
210
0.0
220
0.0
230
1.0
 70
     8
 71
     3
 72
     9
 73
     5
 74
     0
 42
0.000000001
 43
0.0000000001
 40
-1.0
 40
-1.0
 40
-1.0
 40
-1.0
 40
-0.5
 40
0.0
 40
0.0
 40
0.0
 40
0.0
 10
792.1647340803251
 20
1976.422327557296
 30
0.0
 10
792.2612550793038
 20
1976.142467220591
 30
0.0
 10
792.4413883054263
 20
1975.578950020981
 30
0.0
 10
792.595703987879
 20
1975.007839768968
 30
0.0
 10
792.6664074431877
 20
1974.720386379861
 30
0.0
  0
SPLINE
  5
12E
330
87
100
AcDbEntity
  8
P-SANR-FIXT
100
AcDbSpline
210
0.0
220
0.0
230
1.0
 70
     8
 71
     3
 72
     9
 73
     5
 74
     0
 42
0.000000001
 43
0.0000000001
 40
0.0
 40
0.0
 40
0.0
 40
0.0
 40
0.5
 40
1.0
 40
1.0
 40
1.0
 40
1.0
 10
781.0786984250922
 20
1965.452672442703
 30
0.0
 10
781.1738026627547
 20
1964.977899928856
 30
0.0
 10
781.3168584034331
 20
1964.0230204752
 30
0.0
 10
781.3656086748184
 20
1963.122832093309
 30
0.0
 10
781.3664074431878
 20
1962.702672442716
 30
0.0
  0
SPLINE
  5
12F
330
87
100
AcDbEntity
  8
P-SANR-FIXT
100
AcDbSpline
210
0.0
220
0.0
230
1.0
 70
     8
 71
     3
 72
     9
 73
     5
 74
     0
 42
0.000000001
 43
0.0000000001
 40
0.0
 40
0.0
 40
0.0
 40
0.0
 40
0.5
 40
1.0
 40
1.0
 40
1.0
 40
1.0
 10
781.3664074431878
 20
1962.702672442716
 30
0.0
 10
781.3656086748184
 20
1962.282512792117
 30
0.0
 10
781.3168584034319
 20
1961.511446130376
 30
0.0
 10
781.1738026627506
 20
1960.926918978814
 30
0.0
 10
781.0786984250864
 20
1960.689532721888
 30
0.0
  0
SPLINE
  5
130
330
87
100
AcDbEntity
  8
P-SANR-FIXT
100
AcDbSpline
210
0.0
220
0.0
230
1.0
 70
     8
 71
     3
 72
     9
 73
     5
 74
     0
 42
0.000000001
 43
0.0000000001
 40
-1.0
 40
-1.0
 40
-1.0
 40
-1.0
 40
-0.5
 40
0.0
 40
0.0
 40
0.0
 40
0.0
 10
791.6664074431878
 20
1962.702672442716
 30
0.0
 10
791.6693876399241
 20
1962.274631856374
 30
0.0
 10
791.755422276185
 20
1961.498408725636
 30
0.0
 10
792.0016053980226
 20
1960.922368918441
 30
0.0
 10
792.1647340803352
 20
1960.689532721888
 30
0.0
  0
SPLINE
  5
131
330
87
100
AcDbEntity
  8
P-SANR-FIXT
100
AcDbSpline
210
0.0
220
0.0
230
1.0
 70
     8
 71
     3
 72
     9
 73
     5
 74
     0
 42
0.000000001
 43
0.0000000001
 40
-1.0
 40
-1.0
 40
-1.0
 40
-1.0
 40
-0.5
 40
0.0
 40
0.0
 40
0.0
 40
0.0
 10
792.1647340803251
 20
1965.452672442703
 30
0.0
 10
792.0016053980154
 20
1964.987000049602
 30
0.0
 10
791.755422276183
 20
1964.04091874745
 30
0.0
 10
791.669387639924
 20
1963.130713029052
 30
0.0
 10
791.6664074431878
 20
1962.702672442716
 30
0.0
  0
SPLINE
  5
132
330
87
100
AcDbEntity
  8
P-SANR-FIXT
100
AcDbSpline
210
0.0
220
0.0
230
1.0
 70
     8
 71
     3
 72
     9
 73
     5
 74
     0
 42
0.000000001
 43
0.0000000001
 40
0.0
 40
0.0
 40
0.0
 40
0.0
 40
0.5
 40
1.0
 40
1.0
 40
1.0
 40
1.0
 10
781.0786984250864
 20
1960.689532721888
 30
0.0
 10
780.7048571894791
 20
1959.761198964875
 30
0.0
 10
780.3310159538683
 20
1957.918727281645
 30
0.0
 10
780.7048571894655
 20
1956.104647260009
 30
0.0
 10
781.0786984250661
 20
1955.20470516459
 30
0.0
  0
SPLINE
  5
133
330
87
100
AcDbEntity
  8
P-SANR-FIXT
100
AcDbSpline
210
0.0
220
0.0
230
1.0
 70
     8
 71
     3
 72
     9
 73
     5
 74
     0
 42
0.000000001
 43
0.0000000001
 40
-1.0
 40
-1.0
 40
-1.0
 40
-1.0
 40
-0.5
 40
0.0
 40
0.0
 40
0.0
 40
0.0
 10
792.6664074431877
 20
1956.055675753223
 30
0.0
 10
792.5957039878839
 20
1955.911949058684
 30
0.0
 10
792.4413883054438
 20
1955.626393932707
 30
0.0
 10
792.2612550793389
 20
1955.344635332929
 30
0.0
 10
792.1647340803704
 20
1955.20470516459
 30
0.0
  0
SPLINE
  5
134
330
87
100
AcDbEntity
  8
P-SANR-FIXT
100
AcDbSpline
210
0.0
220
0.0
230
1.0
 70
     8
 71
     3
 72
     9
 73
     5
 74
     0
 42
0.000000001
 43
0.0000000001
 40
-1.0
 40
-1.0
 40
-1.0
 40
-1.0
 40
-0.5
 40
0.0
 40
0.0
 40
0.0
 40
0.0
 10
792.1647340803352
 20
1960.689532721888
 30
0.0
 10
792.2612550793112
 20
1960.549602553541
 30
0.0
 10
792.4413883054293
 20
1960.267843953747
 30
0.0
 10
792.5957039878795
 20
1959.982288827751
 30
0.0
 10
792.6664074431877
 20
1959.838562133203
 30
0.0
  0
SPLINE
  5
135
330
87
100
AcDbEntity
  8
P-SANR-FIXT
100
AcDbSpline
210
0.0
220
0.0
230
1.0
 70
     8
 71
     3
 72
     9
 73
     5
 74
     0
 42
0.000000001
 43
0.0000000001
 40
-1.0
 40
-1.0
 40
-1.0
 40
-1.0
 40
-0.5
 40
0.0
 40
0.0
 40
0.0
 40
0.0
 10
792.1647340803704
 20
1955.20470516459
 30
0.0
 10
792.0016053980658
 20
1954.971868968033
 30
0.0
 10
791.7554222762306
 20
1954.601827473062
 30
0.0
 10
791.6693876399439
 20
1954.467844885399
 30
0.0
 10
791.6664074431876
 20
1954.467844885404
 30
0.0
  0
SPLINE
  5
136
330
87
100
AcDbEntity
  8
P-SANR-FIXT
100
AcDbSpline
210
0.0
220
0.0
230
1.0
 70
     8
 71
     3
 72
     9
 73
     5
 74
     0
 42
0.000000001
 43
0.0000000001
 40
0.0
 40
0.0
 40
0.0
 40
0.0
 40
0.5
 40
1.0
 40
1.0
 40
1.0
 40
1.0
 10
781.0786984250661
 20
1955.20470516459
 30
0.0
 10
781.1738026627226
 20
1954.967318907667
 30
0.0
 10
781.3168584033996
 20
1954.596966605568
 30
0.0
 10
781.3656086748038
 20
1954.467844885407
 30
0.0
 10
781.3664074431878
 20
1954.467844885404
 30
0.0
  0
SPLINE
  5
137
330
87
100
AcDbEntity
  8
P-SANR-FIXT
100
AcDbSpline
210
0.0
220
0.0
230
1.0
 70
     8
 71
     3
 72
     9
 73
     5
 74
     0
 42
0.000000001
 43
0.0000000001
 40
0.0
 40
0.0
 40
0.0
 40
0.0
 40
0.5
 40
1.0
 40
1.0
 40
1.0
 40
1.0
 10
781.3664074431878
 20
1987.40715511459
 30
0.0
 10
781.3656086748039
 20
1987.407155114588
 30
0.0
 10
781.3168584033996
 20
1987.278033394427
 30
0.0
 10
781.1738026627227
 20
1986.907681092328
 30
0.0
 10
781.0786984250661
 20
1986.670294835405
 30
0.0
  0
SPLINE
  5
138
330
87
100
AcDbEntity
  8
P-SANR-FIXT
100
AcDbSpline
210
0.0
220
0.0
230
1.0
 70
     8
 71
     3
 72
     9
 73
     5
 74
     0
 42
0.000000001
 43
0.0000000001
 40
-1.0
 40
-1.0
 40
-1.0
 40
-1.0
 40
-0.5
 40
0.0
 40
0.0
 40
0.0
 40
0.0
 10
791.6664074431878
 20
1987.40715511459
 30
0.0
 10
791.6693876399441
 20
1987.407155114595
 30
0.0
 10
791.7554222762309
 20
1987.273172526932
 30
0.0
 10
792.0016053980658
 20
1986.903131031962
 30
0.0
 10
792.1647340803701
 20
1986.670294835405
 30
0.0
  0
SPLINE
  5
139
330
87
100
AcDbEntity
  8
P-SANR-FIXT
100
AcDbSpline
210
0.0
220
0.0
230
1.0
 70
     8
 71
     3
 72
     9
 73
     5
 74
     0
 42
0.000000001
 43
0.0000000001
 40
0.0
 40
0.0
 40
0.0
 40
0.0
 40
0.5
 40
1.0
 40
1.0
 40
1.0
 40
1.0
 10
781.0786984250661
 20
1986.670294835405
 30
0.0
 10
780.7048571894657
 20
1985.741961078392
 30
0.0
 10
780.3310159538686
 20
1983.899489395163
 30
0.0
 10
780.7048571894791
 20
1982.085409373528
 30
0.0
 10
781.0786984250865
 20
1981.18546727811
 30
0.0
  0
SPLINE
  5
13A
330
87
100
AcDbEntity
  8
P-SANR-FIXT
100
AcDbSpline
210
0.0
220
0.0
230
1.0
 70
     8
 71
     3
 72
     9
 73
     5
 74
     0
 42
0.000000001
 43
0.0000000001
 40
-1.0
 40
-1.0
 40
-1.0
 40
-1.0
 40
-0.5
 40
0.0
 40
0.0
 40
0.0
 40
0.0
 10
792.6664074431877
 20
1982.036437866794
 30
0.0
 10
792.5957039878795
 20
1981.892711172246
 30
0.0
 10
792.4413883054292
 20
1981.607156046251
 30
0.0
 10
792.2612550793111
 20
1981.325397446457
 30
0.0
 10
792.1647340803351
 20
1981.18546727811
 30
0.0
  0
SPLINE
  5
13B
330
87
100
AcDbEntity
  8
P-SANR-FIXT
100
AcDbSpline
210
0.0
220
0.0
230
1.0
 70
     8
 71
     3
 72
     9
 73
     5
 74
     0
 42
0.000000001
 43
0.0000000001
 40
-1.0
 40
-1.0
 40
-1.0
 40
-1.0
 40
-0.5
 40
0.0
 40
0.0
 40
0.0
 40
0.0
 10
792.1647340803701
 20
1986.670294835405
 30
0.0
 10
792.2612550793388
 20
1986.530364667066
 30
0.0
 10
792.4413883054438
 20
1986.248606067289
 30
0.0
 10
792.5957039878839
 20
1985.963050941311
 30
0.0
 10
792.6664074431877
 20
1985.819324246772
 30
0.0
  0
LINE
  5
13C
330
87
100
AcDbEntity
  8
P-SANR-FIXT
100
AcDbLine
 10
882.1664074431877
 20
1961.787499999997
 30
0.0
 11
882.1664074431877
 21
1980.087499999997
 31
0.0
  0
LINE
  5
13D
330
87
100
AcDbEntity
  8
P-SANR-FIXT
100
AcDbLine
 10
880.8664074431877
 20
1981.387499999997
 30
0.0
 11
880.8664074431877
 21
1960.487499999997
 31
0.0
  0
LINE
  5
13E
330
87
100
AcDbEntity
  8
P-SANR-FIXT
100
AcDbLine
 10
870.9089334992125
 20
1981.387499999997
 30
0.0
 11
870.9089334992123
 21
1960.487499999997
 31
0.0
  0
LINE
  5
13F
330
87
100
AcDbEntity
  8
P-SANR-FIXT
100
AcDbLine
 10
870.1664074431876
 20
1981.687499999997
 30
0.0
 11
870.1664074431876
 21
1960.187499999997
 31
0.0
  0
LINE
  5
140
330
87
100
AcDbEntity
  8
P-SANR-FIXT
100
AcDbLine
 10
868.6664074431877
 20
1981.687499999997
 30
0.0
 11
868.6664074431877
 21
1980.937499999997
 31
0.0
  0
LINE
  5
141
330
87
100
AcDbEntity
  8
P-SANR-FIXT
100
AcDbLine
 10
868.6664074431877
 20
1980.937499999997
 30
0.0
 11
855.6664074431878
 21
1980.937499999997
 31
0.0
  0
LINE
  5
142
330
87
100
AcDbEntity
  8
P-SANR-FIXT
100
AcDbLine
 10
855.6664074431878
 20
1980.937499999997
 30
0.0
 11
855.6664074431878
 21
1981.687499999997
 31
0.0
  0
LINE
  5
143
330
87
100
AcDbEntity
  8
P-SANR-FIXT
100
AcDbLine
 10
855.6664074431878
 20
1960.187499999997
 30
0.0
 11
855.6664074431878
 21
1960.937499999997
 31
0.0
  0
LINE
  5
144
330
87
100
AcDbEntity
  8
P-SANR-FIXT
100
AcDbLine
 10
855.6664074431878
 20
1960.937499999997
 30
0.0
 11
868.6664074431877
 21
1960.937499999997
 31
0.0
  0
LINE
  5
145
330
87
100
AcDbEntity
  8
P-SANR-FIXT
100
AcDbLine
 10
868.6664074431877
 20
1960.937499999997
 30
0.0
 11
868.6664074431877
 21
1960.187499999997
 31
0.0
  0
LINE
  5
146
330
87
100
AcDbEntity
  8
P-SANR-FIXT
100
AcDbLine
 10
868.6664074431877
 20
1979.353912592176
 30
0.0
 11
868.6664074431877
 21
1972.521087407818
 31
0.0
  0
LINE
  5
147
330
87
100
AcDbEntity
  8
P-SANR-FIXT
100
AcDbLine
 10
868.6664074431877
 20
1972.521087407818
 30
0.0
 11
855.6664074431878
 21
1972.521087407818
 31
0.0
  0
LINE
  5
148
330
87
100
AcDbEntity
  8
P-SANR-FIXT
100
AcDbLine
 10
855.6664074431878
 20
1972.521087407818
 30
0.0
 11
855.6664074431878
 21
1979.353912592176
 31
0.0
  0
LINE
  5
149
330
87
100
AcDbEntity
  8
P-SANR-FIXT
100
AcDbLine
 10
855.6664074431878
 20
1979.353912592176
 30
0.0
 11
868.6664074431877
 21
1979.353912592176
 31
0.0
  0
LINE
  5
14A
330
87
100
AcDbEntity
  8
P-SANR-FIXT
100
AcDbLine
 10
868.6664074431877
 20
1969.353912592176
 30
0.0
 11
868.6664074431877
 21
1962.521087407818
 31
0.0
  0
LINE
  5
14B
330
87
100
AcDbEntity
  8
P-SANR-FIXT
100
AcDbLine
 10
868.6664074431877
 20
1962.521087407818
 30
0.0
 11
855.6664074431878
 21
1962.521087407818
 31
0.0
  0
LINE
  5
14C
330
87
100
AcDbEntity
  8
P-SANR-FIXT
100
AcDbLine
 10
855.6664074431878
 20
1962.521087407818
 30
0.0
 11
855.6664074431878
 21
1969.353912592176
 31
0.0
  0
LINE
  5
14D
330
87
100
AcDbEntity
  8
P-SANR-FIXT
100
AcDbLine
 10
855.6664074431878
 20
1969.353912592176
 30
0.0
 11
868.6664074431877
 21
1969.353912592176
 31
0.0
  0
LINE
  5
14E
330
87
100
AcDbEntity
  8
P-SANR-FIXT
100
AcDbLine
 10
852.1664074431877
 20
1982.937499999997
 30
0.0
 11
852.1664074431877
 21
1958.937499999997
 31
0.0
  0
LINE
  5
14F
330
87
100
AcDbEntity
  8
P-SANR-FIXT
100
AcDbLine
 10
868.6664074431877
 20
1969.353912592177
 30
0.0
 11
868.6664074431877
 21
1969.345141261569
 31
0.0
  0
LINE
  5
150
330
87
100
AcDbEntity
  8
P-SANR-FIXT
100
AcDbLine
 10
855.6664074431878
 20
1969.345141261569
 30
0.0
 11
855.6664074431878
 21
1969.353912592177
 31
0.0
  0
LINE
  5
151
330
87
100
AcDbEntity
  8
P-SANR-FIXT
100
AcDbLine
 10
762.6664074431878
 20
1969.345141261569
 30
0.0
 11
762.6664074431878
 21
1969.353912592177
 31
0.0
  0
LINE
  5
152
330
87
100
AcDbEntity
  8
P-SANR-FIXT
100
AcDbLine
 10
775.6664074431878
 20
1969.353912592177
 30
0.0
 11
775.6664074431878
 21
1969.345141261569
 31
0.0
  0
LINE
  5
153
330
87
100
AcDbEntity
  8
P-SANR-FIXT
100
AcDbLine
 10
750.4664074431879
 20
1960.487499999997
 30
0.0
 11
750.4664074431879
 21
1981.387499999997
 31
0.0
  0
LINE
  5
154
330
87
100
AcDbEntity
  8
P-SANR-FIXT
100
AcDbLine
 10
760.4238813871632
 20
1960.487499999997
 30
0.0
 11
760.4238813871631
 21
1981.387499999997
 31
0.0
  0
LINE
  5
155
330
87
100
AcDbEntity
  8
P-SANR-FIXT
100
AcDbLine
 10
761.1664074431878
 20
1960.187499999997
 30
0.0
 11
761.1664074431878
 21
1981.687499999997
 31
0.0
  0
LINE
  5
156
330
87
100
AcDbEntity
  8
P-SANR-FIXT
100
AcDbLine
 10
762.6664074431878
 20
1979.353912592176
 30
0.0
 11
762.6664074431878
 21
1972.521087407818
 31
0.0
  0
LINE
  5
157
330
87
100
AcDbEntity
  8
P-SANR-FIXT
100
AcDbLine
 10
775.6664074431878
 20
1979.353912592176
 30
0.0
 11
762.6664074431878
 21
1979.353912592176
 31
0.0
  0
LINE
  5
158
330
87
100
AcDbEntity
  8
P-SANR-FIXT
100
AcDbLine
 10
775.6664074431879
 20
1972.521087407818
 30
0.0
 11
775.6664074431878
 21
1979.353912592176
 31
0.0
  0
LINE
  5
159
330
87
100
AcDbEntity
  8
P-SANR-FIXT
100
AcDbLine
 10
762.6664074431878
 20
1972.521087407818
 30
0.0
 11
775.6664074431878
 21
1972.521087407818
 31
0.0
  0
LINE
  5
15A
330
87
100
AcDbEntity
  8
P-SANR-FIXT
100
AcDbLine
 10
762.6664074431878
 20
1969.353912592176
 30
0.0
 11
762.6664074431878
 21
1962.521087407818
 31
0.0
  0
LINE
  5
15B
330
87
100
AcDbEntity
  8
P-SANR-FIXT
100
AcDbLine
 10
775.6664074431878
 20
1969.353912592176
 30
0.0
 11
762.6664074431878
 21
1969.353912592176
 31
0.0
  0
LINE
  5
15C
330
87
100
AcDbEntity
  8
P-SANR-FIXT
100
AcDbLine
 10
775.6664074431879
 20
1962.521087407818
 30
0.0
 11
775.6664074431878
 21
1969.353912592176
 31
0.0
  0
LINE
  5
15D
330
87
100
AcDbEntity
  8
P-SANR-FIXT
100
AcDbLine
 10
762.6664074431878
 20
1962.521087407818
 30
0.0
 11
775.6664074431878
 21
1962.521087407818
 31
0.0
  0
LINE
  5
15E
330
87
100
AcDbEntity
  8
P-SANR-FIXT
100
AcDbLine
 10
762.6664074431878
 20
1960.937499999997
 30
0.0
 11
762.6664074431878
 21
1960.187499999997
 31
0.0
  0
LINE
  5
15F
330
87
100
AcDbEntity
  8
P-SANR-FIXT
100
AcDbLine
 10
775.6664074431878
 20
1960.937499999997
 30
0.0
 11
762.6664074431878
 21
1960.937499999997
 31
0.0
  0
LINE
  5
160
330
87
100
AcDbEntity
  8
P-SANR-FIXT
100
AcDbLine
 10
775.6664074431878
 20
1960.187499999997
 30
0.0
 11
775.6664074431878
 21
1960.937499999997
 31
0.0
  0
LINE
  5
161
330
87
100
AcDbEntity
  8
P-SANR-FIXT
100
AcDbLine
 10
775.6664074431878
 20
1980.937499999997
 30
0.0
 11
775.6664074431878
 21
1981.687499999997
 31
0.0
  0
LINE
  5
162
330
87
100
AcDbEntity
  8
P-SANR-FIXT
100
AcDbLine
 10
762.6664074431878
 20
1980.937499999997
 30
0.0
 11
775.6664074431878
 21
1980.937499999997
 31
0.0
  0
LINE
  5
163
330
87
100
AcDbEntity
  8
P-SANR-FIXT
100
AcDbLine
 10
762.6664074431878
 20
1981.687499999997
 30
0.0
 11
762.6664074431878
 21
1980.937499999997
 31
0.0
  0
LINE
  5
164
330
87
100
AcDbEntity
  8
P-SANR-FIXT
100
AcDbLine
 10
779.1664074431879
 20
1958.937499999997
 30
0.0
 11
779.1664074431878
 21
1982.937499999997
 31
0.0
  0
LINE
  5
165
330
87
100
AcDbEntity
  8
P-SANR-FIXT
100
AcDbLine
 10
749.1664074431879
 20
1980.087499999997
 30
0.0
 11
749.1664074431879
 21
1961.787499999997
 31
0.0
  0
ENDBLK
  5
167
330
87
100
AcDbEntity
  8
0
100
AcDbBlockEnd
  0
BLOCK
  5
234
330
169
100
AcDbEntity
  8
0
100
AcDbBlockBegin
  2
Automatic flow rate regulator valve_Caleffi_121 DN15 - 1_2__-V1-Est - Idraulica
 70
     0
 10
0.0
 20
0.0
 30
0.0
  3
Automatic flow rate regulator valve_Caleffi_121 DN15 - 1_2__-V1-Est - Idraulica
  1

  0
LWPOLYLINE
  5
16A
330
169
100
AcDbEntity
  8
M-PIPE
100
AcDbPolyline
 90
       80
 70
   128
 43
0.0
 10
832.9164074431872
 20
1749.247075844259
 10
832.9026092830892
 20
1749.936891858978
 10
832.8612368769073
 20
1750.625604315227
 10
832.7923564116666
 20
1751.312111419992
 10
832.6960780814166
 20
1751.995314908354
 10
832.5725559109486
 20
1752.674121800473
 10
832.4219875093847
 20
1753.347446150126
 10
832.2446137540479
 20
1754.014210781989
 10
832.0407184051095
 20
1754.673349014886
 10
831.8106276516315
 20
1755.323806368253
 10
831.554709589737
 20
1755.964542249082
 10
831.2733736337317
 20
1756.594531616646
 10
830.96706986113
 20
1757.212766622348
 10
830.6362882926269
 20
1757.818258222062
 10
830.281558108169
 20
1758.410037758393
 10
829.9034468003796
 20
1758.987158510322
 10
829.5025592666915
 20
1759.548697207759
 10
829.0795368416409
 20
1760.093755508576
 10
828.6350562708683
 20
1760.621461435765
 10
828.1698286284683
 20
1761.130970772414
 10
827.6845981794263
 20
1761.621468412274
 10
827.1801411889503
 20
1762.092169663755
 10
826.6572646806134
 20
1762.542321505264
 10
826.1168051452878
 20
1762.971203789884
 10
825.5596272029379
 20
1763.378130397449
 10
824.9866222194135
 20
1763.762450332193
 10
824.3987068804537
 20
1764.123548764205
 10
823.7968217251856
 20
1764.460848013023
 10
823.1819296414618
 20
1764.773808471802
 10
822.5550143254466
 20
1765.06192947057
 10
821.9170787079113
 20
1765.324750077192
 10
821.2691433497575
 20
1765.561849834762
 10
820.6122448093399
 20
1765.772849434246
 10
819.9474339841922
 20
1765.957411321297
 10
819.2757744298157
 20
1766.115240236266
 10
818.5983406582179
 20
1766.246083686558
 10
817.916216418922
 20
1766.349732350563
 10
817.2304929651984
 20
1766.426020412531
 10
816.5422673082934
 20
1766.474825827836
 10
815.8526404624444
 20
1766.496070518224
 10
815.1627156834919
 20
1766.489720496723
 10
814.4735967039068
 20
1766.455785922013
 10
813.7863859670515
 20
1766.394321082174
 10
813.1021828635086
 20
1766.305424307838
 10
812.4220819722873
 20
1766.18923781488
 10
811.7471713097339
 20
1766.045947476906
 10
811.0785305889349
 20
1765.875782527887
 10
810.4172294924078
 20
1765.679015195442
 10
809.764325960837
 20
1765.455960265329
 10
809.1208645005943
 20
1765.206974577853
 10
808.4878745127518
 20
1764.932456457
 10
807.8663686462594
 20
1764.632845073203
 10
807.2573411779224
 20
1764.308619740762
 10
806.6617664217714
 20
1763.960299151044
 10
806.0805971703672
 20
1763.588440542689
 10
805.5147631705356
 20
1763.193638810145
 10
804.9651696359715
 20
1762.776525551964
 10
804.43269579909
 20
1762.337768060378
 10
803.9181935044419
 20
1761.878068253779
 10
803.4224858459438
 20
1761.398161553793
 10
802.946365850104
 20
1760.898815708765
 10
802.4905952073487
 20
1760.380829565525
 10
802.055903053481
 20
1759.845031791406
 10
801.6429848032174
 20
1759.292279548548
 10
801.2525010376737
 20
1758.723457122625
 10
800.8850764475763
 20
1758.139474508178
 10
800.5412988338894
 20
1757.541265952812
 10
800.2217181674595
 20
1756.929788462605
 10
799.9268457091793
 20
1756.3060202711
 10
799.6571531920798
 20
1755.67095927434
 10
799.4130720666563
 20
1755.025621434447
 10
799.1949928106422
 20
1754.371039154301
 10
799.0032643043258
 20
1753.708259625912
 10
798.8381932724171
 20
1753.038343155141
 10
798.7000437933543
 20
1752.362361465434
 10
798.5890368768331
 20
1751.681395983291
 10
798.5053501102403
 20
1750.99653610822
 10
798.4491173745497
 20
1750.308877469924
 10
798.420428630143
 20
1749.619520175533
 10
798.416407443191
 20
1749.247075844259
1001
REVIT
1002
{
1070
     3
1000
938184
1002
}
  0
LWPOLYLINE
  5
16B
330
169
100
AcDbEntity
  8
M-PIPE
100
AcDbPolyline
 90
       80
 70
   128
 43
0.0
 10
798.416407443191
 20
1749.247075844259
 10
798.4302056032889
 20
1748.557259829539
 10
798.4715780094708
 20
1747.868547373291
 10
798.5404584747118
 20
1747.182040268525
 10
798.6367368049614
 20
1746.498836780163
 10
798.7602589754295
 20
1745.820029888044
 10
798.9108273769933
 20
1745.146705538391
 10
799.08820113233
 20
1744.479940906528
 10
799.2920964812688
 20
1743.820802673631
 10
799.5221872347465
 20
1743.170345320264
 10
799.778105296641
 20
1742.529609439435
 10
800.0594412526464
 20
1741.899620071871
 10
800.3657450252479
 20
1741.281385066169
 10
800.6965265937511
 20
1740.675893466455
 10
801.0512567782091
 20
1740.084113930124
 10
801.4293680859989
 20
1739.506993178195
 10
801.8302556196864
 20
1738.945454480759
 10
802.253278044737
 20
1738.400396179941
 10
802.6977586155101
 20
1737.872690252752
 10
803.1629862579098
 20
1737.363180916103
 10
803.6482167069518
 20
1736.872683276243
 10
804.1526736974278
 20
1736.401982024763
 10
804.6755502057648
 20
1735.951830183253
 10
805.2160097410903
 20
1735.522947898633
 10
805.7731876834401
 20
1735.116021291068
 10
806.3461926669644
 20
1734.731701356324
 10
806.9341080059244
 20
1734.370602924313
 10
807.5359931611929
 20
1734.033303675495
 10
808.1508852449164
 20
1733.720343216715
 10
808.7778005609315
 20
1733.432222217947
 10
809.415736178467
 20
1733.169401611325
 10
810.0636715366205
 20
1732.932301853756
 10
810.720570077038
 20
1732.721302254271
 10
811.3853809021859
 20
1732.53674036722
 10
812.0570404565622
 20
1732.378911452251
 10
812.73447422816
 20
1732.248068001959
 10
813.4165984674561
 20
1732.144419337954
 10
814.1023219211797
 20
1732.068131275986
 10
814.7905475780849
 20
1732.019325860681
 10
815.4801744239337
 20
1731.998081170293
 10
816.1700992028862
 20
1732.004431191795
 10
816.8592181824713
 20
1732.038365766505
 10
817.5464289193264
 20
1732.099830606344
 10
818.2306320228695
 20
1732.188727380679
 10
818.9107329140906
 20
1732.304913873636
 10
819.5856435766442
 20
1732.448204211612
 10
820.2542842974434
 20
1732.61836916063
 10
820.9155853939705
 20
1732.815136493075
 10
821.5684889255411
 20
1733.038191423188
 10
822.2119503857838
 20
1733.287177110664
 10
822.8449403736263
 20
1733.561695231517
 10
823.4664462401187
 20
1733.861306615315
 10
824.0754737084557
 20
1734.185531947755
 10
824.6710484646067
 20
1734.533852537473
 10
825.2522177160111
 20
1734.905711145828
 10
825.8180517158423
 20
1735.300512878372
 10
826.3676452504066
 20
1735.717626136554
 10
826.9001190872881
 20
1736.156383628139
 10
827.4146213819363
 20
1736.616083434738
 10
827.9103290404343
 20
1737.095990134724
 10
828.3864490362741
 20
1737.595335979752
 10
828.8422196790293
 20
1738.113322122992
 10
829.2769118328971
 20
1738.649119897111
 10
829.6898300831605
 20
1739.201872139969
 10
830.0803138487044
 20
1739.770694565892
 10
830.4477384388018
 20
1740.354677180339
 10
830.7915160524888
 20
1740.952885735705
 10
831.1110967189186
 20
1741.564363225912
 10
831.4059691771987
 20
1742.188131417417
 10
831.6756616942983
 20
1742.823192414177
 10
831.9197428197217
 20
1743.46853025407
 10
832.137822075736
 20
1744.123112534216
 10
832.3295505820523
 20
1744.785892062605
 10
832.4946216139609
 20
1745.455808533376
 10
832.632771093024
 20
1746.131790223083
 10
832.7437780095451
 20
1746.812755705226
 10
832.827464776138
 20
1747.497615580298
 10
832.8836975118285
 20
1748.185274218593
 10
832.9123862562354
 20
1748.874631512984
 10
832.9164074431872
 20
1749.247075844258
1001
REVIT
1002
{
1070
     3
1000
938184
1002
}
  0
ARC
  5
16C
330
169
100
AcDbEntity
  8
M-PIPE
100
AcDbCircle
 10
815.6664074431875
 20
1749.247075844258
 30
0.0
 40
16.97847472817739
100
AcDbArc
 50
0.0
 51
180.0
1001
REVIT
1002
{
1070
     3
1000
938184
1002
}
  0
ARC
  5
16D
330
169
100
AcDbEntity
  8
M-PIPE
100
AcDbCircle
 10
815.6664074431875
 20
1749.247075844258
 30
0.0
 40
16.97847472817744
100
AcDbArc
 50
179.9999999999998
 51
359.9999999999994
1001
REVIT
1002
{
1070
     3
1000
938184
1002
}
  0
ARC
  5
16E
330
169
100
AcDbEntity
  8
M-PIPE
100
AcDbCircle
 10
815.6664074431875
 20
1749.247075844258
 30
0.0
 40
16.35518224332236
100
AcDbArc
 50
0.0
 51
180.0
1001
REVIT
1002
{
1070
     3
1000
938184
1002
}
  0
ARC
  5
16F
330
169
100
AcDbEntity
  8
M-PIPE
100
AcDbCircle
 10
815.6664074431875
 20
1749.247075844258
 30
0.0
 40
16.35518224332242
100
AcDbArc
 50
179.9999999999998
 51
359.9999999999994
1001
REVIT
1002
{
1070
     3
1000
938184
1002
}
  0
ARC
  5
170
330
169
100
AcDbEntity
  8
M-PIPE
100
AcDbCircle
 10
815.6664074431875
 20
1749.247075844258
 30
0.0
 40
16.03207750600241
100
AcDbArc
 50
359.9999999999992
 51
180.0000000000004
1001
REVIT
1002
{
1070
     3
1000
938184
1002
}
  0
ARC
  5
171
330
169
100
AcDbEntity
  8
M-PIPE
100
AcDbCircle
 10
815.6664074431875
 20
1749.247075844258
 30
0.0
 40
16.03207750600236
100
AcDbArc
 50
180.0000000000006
 51
359.9999999999994
1001
REVIT
1002
{
1070
     3
1000
938184
1002
}
  0
ARC
  5
172
330
169
100
AcDbEntity
  8
M-PIPE
100
AcDbCircle
 10
815.6664074431878
 20
1749.247075844258
 30
0.0
 40
13.31458159526075
100
AcDbArc
 50
359.9999999999994
 51
180.0000000000007
1001
REVIT
1002
{
1070
     3
1000
938184
1002
}
  0
ARC
  5
173
330
169
100
AcDbEntity
  8
M-PIPE
100
AcDbCircle
 10
815.6664074431878
 20
1749.247075844258
 30
0.0
 40
13.31458159526062
100
AcDbArc
 50
180.0000000000006
 51
0.0
1001
REVIT
1002
{
1070
     3
1000
938184
1002
}
  0
LINE
  5
174
330
169
100
AcDbEntity
  8
M-PIPE
100
AcDbLine
 10
807.2031371867501
 20
1749.247075844258
 30
0.0
 11
811.4347723149704
 21
1756.576482885428
 31
0.0
1001
REVIT
1002
{
1070
     3
1000
938184
1002
}
  0
LINE
  5
175
330
169
100
AcDbEntity
  8
M-PIPE
100
AcDbLine
 10
811.4347723149704
 20
1756.576482885428
 30
0.0
 11
819.8980425714296
 21
1756.576482885428
 31
0.0
1001
REVIT
1002
{
1070
     3
1000
938184
1002
}
  0
LINE
  5
176
330
169
100
AcDbEntity
  8
M-PIPE
100
AcDbLine
 10
819.8980425714296
 20
1756.576482885428
 30
0.0
 11
824.1296776996543
 21
1749.247075844249
 31
0.0
1001
REVIT
1002
{
1070
     3
1000
938184
1002
}
  0
LINE
  5
177
330
169
100
AcDbEntity
  8
M-PIPE
100
AcDbLine
 10
824.1296776996687
 20
1749.247075844257
 30
0.0
 11
819.8980425714294
 21
1741.917668803054
 31
0.0
1001
REVIT
1002
{
1070
     3
1000
938184
1002
}
  0
LINE
  5
178
330
169
100
AcDbEntity
  8
M-PIPE
100
AcDbLine
 10
819.8980425714294
 20
1741.917668803054
 30
0.0
 11
811.4347723149702
 21
1741.917668803054
 31
0.0
1001
REVIT
1002
{
1070
     3
1000
938184
1002
}
  0
LINE
  5
179
330
169
100
AcDbEntity
  8
M-PIPE
100
AcDbLine
 10
811.4347723149702
 20
1741.917668803054
 30
0.0
 11
807.2031371867359
 21
1749.247075844249
 31
0.0
1001
REVIT
1002
{
1070
     3
1000
938184
1002
}
  0
LINE
  5
17A
330
169
100
AcDbEntity
  8
P-SANR-FIXT
100
AcDbLine
 10
839.1680808060513
 20
1734.247075844209
 30
0.0
 11
839.360969032795
 21
1734.247075844209
 31
0.0
  0
LINE
  5
17B
330
169
100
AcDbEntity
  8
P-SANR-FIXT
100
AcDbLine
 10
839.3810828050037
 20
1734.247075844209
 30
0.0
 11
850.1296531249922
 21
1734.247075844208
 31
0.0
  0
LINE
  5
17C
330
169
100
AcDbEntity
  8
P-SANR-FIXT
100
AcDbLine
 10
850.146615517953
 20
1734.247075844208
 30
0.0
 11
850.2541164612845
 21
1734.247075844208
 31
0.0
  0
LINE
  5
17D
330
169
100
AcDbEntity
  8
P-SANR-FIXT
100
AcDbLine
 10
850.2541164613488
 20
1764.247075844191
 30
0.0
 11
850.1466155180166
 21
1764.247075844191
 31
0.0
  0
LINE
  5
17E
330
169
100
AcDbEntity
  8
P-SANR-FIXT
100
AcDbLine
 10
850.1296531250542
 20
1764.247075844191
 30
0.0
 11
839.381082804897
 21
1764.247075844192
 31
0.0
  0
LINE
  5
17F
330
169
100
AcDbEntity
  8
P-SANR-FIXT
100
AcDbLine
 10
839.3609690326858
 20
1764.247075844192
 30
0.0
 11
839.1680808059415
 21
1764.247075844192
 31
0.0
  0
LWPOLYLINE
  5
180
330
169
100
AcDbEntity
  8
P-SANR-FIXT
100
AcDbPolyline
 90
       71
 70
   128
 43
0.0
 10
834.8491185481815
 20
1752.750444888819
 10
834.6936770298421
 20
1753.51474641224
 10
834.5077959390986
 20
1754.272220573139
 10
834.2917726460433
 20
1755.021655574446
 10
834.0459527418628
 20
1755.76185248003
 10
833.7707294859651
 20
1756.49162713274
 10
833.4665431768483
 20
1757.209812048811
 10
833.1338804477173
 20
1757.915258285582
 10
832.7732734879745
 20
1758.606837279559
 10
832.3852991918304
 20
1759.283442651884
 10
831.9705782353953
 20
1759.943991978293
 10
831.5297740837298
 20
1760.587428520775
 10
831.0635919294439
 20
1761.21272291812
 10
830.5727775645378
 20
1761.818874832683
 10
830.0581161872935
 20
1762.404914550705
 10
829.5204311461262
 20
1762.969904533652
 10
828.9605826224013
 20
1763.512940918077
 10
828.3794662543293
 20
1764.033154961607
 10
827.778011704134
 20
1764.529714432743
 10
827.1571811707925
 20
1765.001824942261
 10
826.5179678507209
 20
1765.448731214056
 10
825.8613943488732
 20
1765.869718293427
 10
825.1885110427915
 20
1766.264112690855
 10
824.5003944022236
 20
1766.631283459436
 10
823.7981452670052
 20
1766.970643204265
 10
823.0828870859465
 20
1767.281649022146
 10
822.3557641195572
 20
1767.563803370111
 10
821.6179396094728
 20
1767.816654861395
 10
820.8705939175143
 20
1768.039798987551
 10
820.1149226373646
 20
1768.232878765578
 10
819.35213468187
 20
1768.395585309019
 10
818.5834503490401
 20
1768.527658322115
 10
817.8100993698301
 20
1768.628886516217
 10
817.033318940834
 20
1768.69910794781
 10
816.2543517450339
 20
1768.738210277583
 10
815.4744439637724
 20
1768.746130950149
 10
814.6948432831278
 20
1768.722857294123
 10
813.9167968978833
 20
1768.668426542388
 10
813.1415495162812
 20
1768.582925772537
 10
812.3703413687543
 20
1768.466491767562
 10
811.6044062238234
 20
1768.319310797033
 10
810.8449694143294
 20
1768.141618319107
 10
810.0932458771628
 20
1767.933698603841
 10
809.3504382096242
 20
1767.695884278427
 10
808.6177347455244
 20
1767.428555795054
 10
807.8963076541043
 20
1767.132140822269
 10
807.1873110648137
 20
1766.807113560796
 10
806.491879220951
 20
1766.453993984917
 10
805.811124665116
 20
1766.073347010628
 10
805.1461364593773
 20
1765.665781591886
 10
804.4979784430083
 20
1765.231949746417
 10
803.8676875305682
 20
1764.77254551263
 10
803.2562720530622
 20
1764.288303839296
 10
802.6647101448261
 20
1763.779999409795
 10
802.0939481787202
 20
1763.248445402781
 10
801.5448992521335
 20
1762.694492191272
 10
801.018441726225
 20
1762.119025982238
 10
800.5154178207307
 20
1761.522967398853
 10
800.0366322665938
 20
1760.907270007697
 10
799.5828510185652
 20
1760.272918793255
 10
799.1548000298402
 20
1759.620928582149
 10
798.7531640906882
 20
1758.952342419633
 10
798.3785857329341
 20
1758.268229900943
 10
798.0316642020445
 20
1757.569685460173
 10
797.7129544984627
 20
1756.857826619412
 10
797.4229664897269
 20
1756.133792200951
 10
797.1621640947899
 20
1755.398740505407
 10
796.9309645418493
 20
1754.653847458691
 10
796.7297377008692
 20
1753.900304730775
 10
796.5588054918696
 20
1753.139317829276
 10
796.4836963381964
 20
1752.750444888819
  0
LWPOLYLINE
  5
181
330
169
100
AcDbEntity
  8
P-SANR-FIXT
100
AcDbPolyline
 90
       71
 70
   128
 43
0.0
 10
796.4836963381965
 20
1745.743706799697
 10
796.6391378565357
 20
1744.979405276277
 10
796.8250189472793
 20
1744.221931115377
 10
797.0410422403346
 20
1743.47249611407
 10
797.2868621445151
 20
1742.732299208487
 10
797.5620854004128
 20
1742.002524555777
 10
797.8662717095295
 20
1741.284339639705
 10
798.1989344386606
 20
1740.578893402935
 10
798.5595413984031
 20
1739.887314408957
 10
798.9475156945473
 20
1739.210709036633
 10
799.3622366509827
 20
1738.550159710223
 10
799.803040802648
 20
1737.906723167742
 10
800.2692229569339
 20
1737.281428770397
 10
800.76003732184
 20
1736.675276855834
 10
801.2746986990842
 20
1736.089237137812
 10
801.8123837402516
 20
1735.524247154864
 10
802.3722322639763
 20
1734.981210770439
 10
802.9533486320485
 20
1734.46099672691
 10
803.5548031822436
 20
1733.964437255773
 10
804.1756337155854
 20
1733.492326746256
 10
804.8148470356569
 20
1733.045420474461
 10
805.4714205375043
 20
1732.624433395089
 10
806.1443038435864
 20
1732.230038997661
 10
806.8324204841539
 20
1731.862868229081
 10
807.5346696193728
 20
1731.523508484251
 10
808.2499278004313
 20
1731.212502666371
 10
808.9770507668204
 20
1730.930348318406
 10
809.7148752769049
 20
1730.677496827121
 10
810.4622209688631
 20
1730.454352700965
 10
811.2178922490128
 20
1730.261272922939
 10
811.9806802045076
 20
1730.098566379497
 10
812.7493645373375
 20
1729.966493366402
 10
813.5227155165473
 20
1729.865265172299
 10
814.2994959455434
 20
1729.795043740706
 10
815.0784631413436
 20
1729.755941410934
 10
815.858370922605
 20
1729.748020738367
 10
816.6379716032498
 20
1729.771294394394
 10
817.4160179884941
 20
1729.825725146128
 10
818.1912653700965
 20
1729.911225915979
 10
818.9624735176231
 20
1730.027659920954
 10
819.7284086625543
 20
1730.174840891483
 10
820.4878454720484
 20
1730.352533369409
 10
821.2395690092149
 20
1730.560453084675
 10
821.9823766767534
 20
1730.798267410089
 10
822.7150801408532
 20
1731.065595893462
 10
823.4365072322734
 20
1731.362010866247
 10
824.1455038215638
 20
1731.687038127721
 10
824.8409356654264
 20
1732.040157703599
 10
825.5216902212618
 20
1732.420804677888
 10
826.1866784270001
 20
1732.828370096631
 10
826.8348364433695
 20
1733.262201942099
 10
827.4651273558095
 20
1733.721606175887
 10
828.0765428333152
 20
1734.20584784922
 10
828.6681047415513
 20
1734.714152278721
 10
829.2388667076576
 20
1735.245706285735
 10
829.7879156342442
 20
1735.799659497243
 10
830.3143731601528
 20
1736.375125706278
 10
830.817397065647
 20
1736.971184289663
 10
831.296182619784
 20
1737.58688168082
 10
831.7499638678127
 20
1738.221232895261
 10
832.1780148565377
 20
1738.873223106367
 10
832.5796507956896
 20
1739.541809268883
 10
832.9542291534437
 20
1740.225921787573
 10
833.3011506843334
 20
1740.924466228344
 10
833.6198603879152
 20
1741.636325069104
 10
833.9098483966509
 20
1742.360359487565
 10
834.170650791588
 20
1743.095411183108
 10
834.4018503445285
 20
1743.840304229825
 10
834.6030771855087
 20
1744.593846957741
 10
834.7740093945082
 20
1745.35483385924
 10
834.8491185481819
 20
1745.743706799697
  0
LINE
  5
182
330
169
100
AcDbEntity
  8
P-SANR-FIXT
100
AcDbLine
 10
838.6664074431891
 20
1762.397075844258
 30
0.0
 11
838.1467922009186
 21
1761.497075844259
 31
0.0
  0
LINE
  5
183
330
169
100
AcDbEntity
  8
P-SANR-FIXT
100
AcDbLine
 10
838.1467922009186
 20
1736.997075844257
 30
0.0
 11
838.6664074431891
 21
1736.097075844258
 31
0.0
  0
LWPOLYLINE
  5
184
330
169
100
AcDbEntity
  8
P-SANR-FIXT
100
AcDbPolyline
 90
       28
 70
   128
 43
0.0
 10
836.4147413933498
 20
1760.497075844259
 10
836.494720061723
 20
1760.498675630937
 10
836.574570781288
 20
1760.503472431653
 10
836.6541658079276
 20
1760.511458572551
 10
836.7333778065781
 20
1760.522621277507
 10
836.8120800549398
 20
1760.536942688576
 10
836.8901466462039
 20
1760.554399894555
 10
836.967452690478
 20
1760.574964967637
 10
837.0438745145818
 20
1760.598605008094
 10
837.1192898599
 20
1760.625282196903
 10
837.193578077967
 20
1760.654953856253
 10
837.2666203234819
 20
1760.687572517818
 10
837.3382997444327
 20
1760.7230859987
 10
837.408501669037
 20
1760.761437484903
 10
837.4771137891915
 20
1760.802565622232
 10
837.5440263401397
 20
1760.846404614439
 10
837.6091322760746
 20
1760.89288432849
 10
837.6723274413867
 20
1760.941930406757
 10
837.7335107372928
 20
1760.993464385977
 10
837.7925842835709
 20
1761.047403822777
 10
837.8494535751489
 20
1761.103662425564
 10
837.9040276332917
 20
1761.162150192576
 10
837.9562191511476
 20
1761.222773555861
 10
838.0059446334225
 20
1761.285435530972
 10
838.0531245299518
 20
1761.350035872114
 10
838.0976833629656
 20
1761.416471232523
 10
838.1395498478365
 20
1761.484635329793
 10
838.1467922009186
 20
1761.497075844259
  0
LWPOLYLINE
  5
185
330
169
100
AcDbEntity
  8
P-SANR-FIXT
100
AcDbPolyline
 90
       28
 70
   128
 43
0.0
 10
838.1467922009186
 20
1736.997075844257
 10
838.1054174108282
 20
1737.065539509491
 10
838.0613378997681
 20
1737.132293860786
 10
838.0146241855529
 20
1737.197232105422
 10
837.9653510001602
 20
1737.26025035606
 10
837.913597170176
 20
1737.321247796941
 10
837.8594454906874
 20
1737.380126845174
 10
837.8029825928301
 20
1737.43679330684
 10
837.7442988051964
 20
1737.491156527689
 10
837.6834880093273
 20
1737.543129538165
 10
837.6206474895239
 20
1737.592629192538
 10
837.5558777772132
 20
1737.639576301921
 10
837.4892824901175
 20
1737.683895760952
 10
837.4209681664904
 20
1737.725516667953
 10
837.3510440946766
 20
1737.764372438349
 10
837.2796221382744
 20
1737.800400911199
 10
837.2068165571784
 20
1737.83354444863
 10
837.1327438247874
 20
1737.863750028053
 10
837.0575224416716
 20
1737.890969326985
 10
836.9812727459981
 20
1737.915158800354
 10
836.9041167210136
 20
1737.936279750162
 10
836.8261777998997
 20
1737.954298387395
 10
836.7475806683033
 20
1737.969185886077
 10
836.6684510648692
 20
1737.980918429388
 10
836.5889155800825
 20
1737.989477247759
 10
836.5091014537522
 20
1737.994848648908
 10
836.4291363714542
 20
1737.997024039738
 10
836.4147413933498
 20
1737.997075844258
  0
LINE
  5
186
330
169
100
AcDbEntity
  8
P-SANR-FIXT
100
AcDbLine
 10
836.4147413933498
 20
1760.497075844259
 30
0.0
 11
831.597638076594
 21
1760.497075844259
 31
0.0
  0
LINE
  5
187
330
169
100
AcDbEntity
  8
P-SANR-FIXT
100
AcDbLine
 10
831.597638076594
 20
1737.997075844258
 30
0.0
 11
836.4147413933498
 21
1737.997075844258
 31
0.0
  0
LINE
  5
188
330
169
100
AcDbEntity
  8
P-SANR-FIXT
100
AcDbLine
 10
799.7351768097838
 20
1760.497075844259
 30
0.0
 11
794.9180734930281
 21
1760.497075844259
 31
0.0
  0
LINE
  5
189
330
169
100
AcDbEntity
  8
P-SANR-FIXT
100
AcDbLine
 10
794.9180734930282
 20
1737.997075844258
 30
0.0
 11
799.7351768097837
 21
1737.997075844258
 31
0.0
  0
LWPOLYLINE
  5
18A
330
169
100
AcDbEntity
  8
P-SANR-FIXT
100
AcDbPolyline
 90
       28
 70
   128
 43
0.0
 10
793.1860226854593
 20
1761.497075844259
 10
793.2273974755498
 20
1761.428612179025
 10
793.2714769866099
 20
1761.36185782773
 10
793.318190700825
 20
1761.296919583094
 10
793.3674638862176
 20
1761.233901332456
 10
793.4192177162019
 20
1761.172903891575
 10
793.4733693956906
 20
1761.114024843342
 10
793.5298322935477
 20
1761.057358381676
 10
793.5885160811816
 20
1761.002995160827
 10
793.6493268770507
 20
1760.951022150351
 10
793.712167396854
 20
1760.901522495978
 10
793.7769371091648
 20
1760.854575386596
 10
793.8435323962602
 20
1760.810255927564
 10
793.9118467198875
 20
1760.768635020564
 10
793.9817707917013
 20
1760.729779250167
 10
794.0531927481035
 20
1760.693750777317
 10
794.1259983291996
 20
1760.660607239886
 10
794.2000710615906
 20
1760.630401660463
 10
794.2752924447063
 20
1760.603182361531
 10
794.3515421403799
 20
1760.578992888162
 10
794.4286981653643
 20
1760.557871938354
 10
794.5066370864784
 20
1760.539853301121
 10
794.5852342180745
 20
1760.524965802438
 10
794.6643638215086
 20
1760.513233259128
 10
794.7438993062956
 20
1760.504674440757
 10
794.8237134326258
 20
1760.499303039608
 10
794.9036785149238
 20
1760.497127648778
 10
794.9180734930281
 20
1760.497075844259
  0
LWPOLYLINE
  5
18B
330
169
100
AcDbEntity
  8
P-SANR-FIXT
100
AcDbPolyline
 90
       28
 70
   128
 43
0.0
 10
794.9180734930282
 20
1737.997075844258
 10
794.8380948246549
 20
1737.99547605758
 10
794.7582441050899
 20
1737.990679256863
 10
794.6786490784504
 20
1737.982693115966
 10
794.5994370797996
 20
1737.971530411009
 10
794.520734831438
 20
1737.95720899994
 10
794.4426682401739
 20
1737.939751793962
 10
794.3653621959001
 20
1737.919186720879
 10
794.288940371796
 20
1737.895546680423
 10
794.2135250264781
 20
1737.868869491614
 10
794.1392368084109
 20
1737.839197832264
 10
794.0661945628963
 20
1737.806579170698
 10
793.9945151419452
 20
1737.771065689816
 10
793.9243132173408
 20
1737.732714203613
 10
793.8557010971863
 20
1737.691586066285
 10
793.7887885462381
 20
1737.647747074077
 10
793.7236826103034
 20
1737.601267360026
 10
793.6604874449914
 20
1737.55222128176
 10
793.5993041490855
 20
1737.50068730254
 10
793.5402306028071
 20
1737.44674786574
 10
793.4833613112291
 20
1737.390489262952
 10
793.4287872530866
 20
1737.332001495941
 10
793.3765957352302
 20
1737.271378132655
 10
793.3268702529554
 20
1737.208716157544
 10
793.2796903564263
 20
1737.144115816403
 10
793.2351315234125
 20
1737.077680455994
 10
793.1932650385416
 20
1737.009516358723
 10
793.1860226854594
 20
1736.997075844257
  0
LINE
  5
18C
330
169
100
AcDbEntity
  8
P-SANR-FIXT
100
AcDbLine
 10
793.1860226854593
 20
1761.497075844259
 30
0.0
 11
792.6664074431889
 21
1762.397075844258
 31
0.0
  0
LINE
  5
18D
330
169
100
AcDbEntity
  8
P-SANR-FIXT
100
AcDbLine
 10
792.6664074431889
 20
1736.097075844259
 30
0.0
 11
793.1860226854594
 21
1736.997075844257
 31
0.0
  0
LINE
  5
18E
330
169
100
AcDbEntity
  8
P-SANR-FIXT
100
AcDbLine
 10
851.966407443189
 20
1762.252629343713
 30
0.0
 11
850.8148415362841
 21
1764.247200002737
 31
0.0
  0
LINE
  5
18F
330
169
100
AcDbEntity
  8
P-SANR-FIXT
100
AcDbLine
 10
850.8148415362157
 20
1734.246951685661
 30
0.0
 11
851.966407443189
 21
1736.241522344802
 31
0.0
  0
LINE
  5
190
330
169
100
AcDbEntity
  8
P-SANR-FIXT
100
AcDbLine
 10
781.0786984250932
 20
1734.247075844209
 30
0.0
 11
781.1861993684246
 21
1734.247075844209
 31
0.0
  0
LINE
  5
191
330
169
100
AcDbEntity
  8
P-SANR-FIXT
100
AcDbLine
 10
781.2031617613857
 20
1734.247075844209
 30
0.0
 11
791.9517320813739
 21
1734.247075844209
 31
0.0
  0
LINE
  5
192
330
169
100
AcDbEntity
  8
P-SANR-FIXT
100
AcDbLine
 10
791.9718458535827
 20
1734.247075844209
 30
0.0
 11
792.1647340803265
 21
1734.247075844209
 31
0.0
  0
LINE
  5
193
330
169
100
AcDbEntity
  8
P-SANR-FIXT
100
AcDbLine
 10
792.1647340804369
 20
1764.247075844192
 30
0.0
 11
791.9718458536924
 21
1764.247075844192
 31
0.0
  0
LINE
  5
194
330
169
100
AcDbEntity
  8
P-SANR-FIXT
100
AcDbLine
 10
791.9517320814812
 20
1764.247075844192
 30
0.0
 11
781.203161761324
 21
1764.247075844192
 31
0.0
  0
LINE
  5
195
330
169
100
AcDbEntity
  8
P-SANR-FIXT
100
AcDbLine
 10
781.1861993683614
 20
1764.247075844192
 30
0.0
 11
781.0786984250296
 21
1764.247075844192
 31
0.0
  0
LINE
  5
196
330
169
100
AcDbEntity
  8
P-SANR-FIXT
100
AcDbLine
 10
780.5179733500943
 20
1764.247200002737
 30
0.0
 11
779.366407443189
 21
1762.252629343714
 31
0.0
  0
LINE
  5
197
330
169
100
AcDbEntity
  8
P-SANR-FIXT
100
AcDbLine
 10
779.366407443189
 20
1736.241522344803
 30
0.0
 11
780.517973350162
 21
1734.246951685662
 31
0.0
  0
LINE
  5
198
330
169
100
AcDbEntity
  8
P-SANR-FIXT
100
AcDbLine
 10
882.166407443189
 20
1758.397075844258
 30
0.0
 11
880.866407443189
 21
1759.697075844258
 31
0.0
  0
LINE
  5
199
330
169
100
AcDbEntity
  8
P-SANR-FIXT
100
AcDbLine
 10
880.8664074431892
 20
1738.797075844258
 30
0.0
 11
882.1664074431891
 21
1740.097075844258
 31
0.0
  0
LINE
  5
19A
330
169
100
AcDbEntity
  8
P-SANR-FIXT
100
AcDbLine
 10
880.866407443189
 20
1759.697075844258
 30
0.0
 11
870.9089334992135
 21
1759.697075844258
 31
0.0
  0
LINE
  5
19B
330
169
100
AcDbEntity
  8
P-SANR-FIXT
100
AcDbLine
 10
870.9089334992137
 20
1738.797075844258
 30
0.0
 11
880.8664074431892
 21
1738.797075844258
 31
0.0
  0
LINE
  5
19C
330
169
100
AcDbEntity
  8
P-SANR-FIXT
100
AcDbLine
 10
870.9089334992135
 20
1759.697075844258
 30
0.0
 11
870.1664074431889
 21
1759.997075844258
 31
0.0
  0
LINE
  5
19D
330
169
100
AcDbEntity
  8
P-SANR-FIXT
100
AcDbLine
 10
870.166407443189
 20
1738.497075844258
 30
0.0
 11
870.9089334992137
 21
1738.797075844258
 31
0.0
  0
LINE
  5
19E
330
169
100
AcDbEntity
  8
P-SANR-FIXT
100
AcDbLine
 10
870.1664074431889
 20
1759.997075844258
 30
0.0
 11
852.1664074431889
 21
1759.997075844258
 31
0.0
  0
LINE
  5
19F
330
169
100
AcDbEntity
  8
P-SANR-FIXT
100
AcDbLine
 10
852.1664074431889
 20
1738.497075844258
 30
0.0
 11
870.166407443189
 21
1738.497075844258
 31
0.0
  0
LINE
  5
1A0
330
169
100
AcDbEntity
  8
P-SANR-FIXT
100
AcDbLine
 10
852.1664074431889
 20
1761.247075844258
 30
0.0
 11
851.966407443189
 21
1761.247075844258
 31
0.0
  0
LINE
  5
1A1
330
169
100
AcDbEntity
  8
P-SANR-FIXT
100
AcDbLine
 10
851.966407443189
 20
1737.247075844258
 30
0.0
 11
852.1664074431889
 21
1737.247075844258
 31
0.0
  0
LINE
  5
1A2
330
169
100
AcDbEntity
  8
P-SANR-FIXT
100
AcDbLine
 10
750.4664074431889
 20
1759.697075844259
 30
0.0
 11
749.166407443189
 21
1758.397075844259
 31
0.0
  0
LINE
  5
1A3
330
169
100
AcDbEntity
  8
P-SANR-FIXT
100
AcDbLine
 10
749.166407443189
 20
1740.097075844258
 30
0.0
 11
750.4664074431891
 21
1738.797075844258
 31
0.0
  0
LINE
  5
1A4
330
169
100
AcDbEntity
  8
P-SANR-FIXT
100
AcDbLine
 10
760.4238813871643
 20
1759.697075844259
 30
0.0
 11
750.4664074431889
 21
1759.697075844259
 31
0.0
  0
LINE
  5
1A5
330
169
100
AcDbEntity
  8
P-SANR-FIXT
100
AcDbLine
 10
750.4664074431891
 20
1738.797075844258
 30
0.0
 11
760.4238813871644
 21
1738.797075844258
 31
0.0
  0
LINE
  5
1A6
330
169
100
AcDbEntity
  8
P-SANR-FIXT
100
AcDbLine
 10
761.166407443189
 20
1759.997075844259
 30
0.0
 11
760.4238813871643
 21
1759.697075844259
 31
0.0
  0
LINE
  5
1A7
330
169
100
AcDbEntity
  8
P-SANR-FIXT
100
AcDbLine
 10
760.4238813871644
 20
1738.797075844258
 30
0.0
 11
761.1664074431891
 21
1738.497075844259
 31
0.0
  0
LINE
  5
1A8
330
169
100
AcDbEntity
  8
P-SANR-FIXT
100
AcDbLine
 10
779.166407443189
 20
1759.997075844259
 30
0.0
 11
761.166407443189
 21
1759.997075844259
 31
0.0
  0
LINE
  5
1A9
330
169
100
AcDbEntity
  8
P-SANR-FIXT
100
AcDbLine
 10
761.1664074431891
 20
1738.497075844259
 30
0.0
 11
779.1664074431892
 21
1738.497075844259
 31
0.0
  0
LINE
  5
1AA
330
169
100
AcDbEntity
  8
P-SANR-FIXT
100
AcDbLine
 10
779.366407443189
 20
1761.247075844259
 30
0.0
 11
779.166407443189
 21
1761.247075844259
 31
0.0
  0
LINE
  5
1AB
330
169
100
AcDbEntity
  8
P-SANR-FIXT
100
AcDbLine
 10
779.1664074431892
 20
1737.247075844259
 30
0.0
 11
779.366407443189
 21
1737.247075844259
 31
0.0
  0
LINE
  5
1AC
330
169
100
AcDbEntity
  8
P-SANR-FIXT
100
AcDbLine
 10
851.9664074431874
 20
1762.252629343712
 30
0.0
 11
851.9664074431874
 21
1749.247075844257
 31
0.0
  0
LINE
  5
1AD
330
169
100
AcDbEntity
  8
P-SANR-FIXT
100
AcDbLine
 10
851.9664074431874
 20
1749.247075844257
 30
0.0
 11
851.9664074431874
 21
1736.241522344802
 31
0.0
  0
SPLINE
  5
1AE
330
169
100
AcDbEntity
  8
P-SANR-FIXT
100
AcDbSpline
210
0.0
220
0.0
230
1.0
 70
     8
 71
     3
 72
     9
 73
     5
 74
     0
 42
0.000000001
 43
0.0000000001
 40
0.0
 40
0.0
 40
0.0
 40
0.0
 40
0.5
 40
1.0
 40
1.0
 40
1.0
 40
1.0
 10
839.1680808060399
 20
1736.997075844208
 30
0.0
 10
839.3312094883528
 20
1736.593791721938
 30
0.0
 10
839.5773926101904
 20
1735.83392787073
 30
0.0
 10
839.663427246451
 20
1735.231065471133
 30
0.0
 10
839.6664074431873
 20
1734.983936123386
 30
0.0
  0
SPLINE
  5
1AF
330
169
100
AcDbEntity
  8
P-SANR-FIXT
100
AcDbSpline
210
0.0
220
0.0
230
1.0
 70
     8
 71
     3
 72
     9
 73
     5
 74
     0
 42
0.000000001
 43
0.0000000001
 40
0.0
 40
0.0
 40
0.0
 40
0.0
 40
0.5
 40
1.0
 40
1.0
 40
1.0
 40
1.0
 10
839.6664074431873
 20
1734.983936123386
 30
0.0
 10
839.663427246451
 20
1734.736806775642
 30
0.0
 10
839.577392610192
 20
1734.366009025223
 30
0.0
 10
839.3312094883595
 20
1734.247075844208
 30
0.0
 10
839.1680808060499
 20
1734.247075844208
 30
0.0
  0
SPLINE
  5
1B0
330
169
100
AcDbEntity
  8
P-SANR-FIXT
100
AcDbSpline
210
0.0
220
0.0
230
1.0
 70
     8
 71
     3
 72
     9
 73
     5
 74
     0
 42
0.000000001
 43
0.0000000001
 40
0.0
 40
0.0
 40
0.0
 40
0.0
 40
0.5
 40
1.0
 40
1.0
 40
1.0
 40
1.0
 10
850.2541164612829
 20
1734.247075844207
 30
0.0
 10
850.1590122236203
 20
1734.247075844207
 30
0.0
 10
850.0159564829418
 20
1734.370729751194
 30
0.0
 10
849.9672062115566
 20
1734.741356836015
 30
0.0
 10
849.9664074431873
 20
1734.983936123386
 30
0.0
  0
SPLINE
  5
1B1
330
169
100
AcDbEntity
  8
P-SANR-FIXT
100
AcDbSpline
210
0.0
220
0.0
230
1.0
 70
     8
 71
     3
 72
     9
 73
     5
 74
     0
 42
0.000000001
 43
0.0000000001
 40
0.0
 40
0.0
 40
0.0
 40
0.0
 40
0.5
 40
1.0
 40
1.0
 40
1.0
 40
1.0
 10
849.9664074431873
 20
1734.983936123386
 30
0.0
 10
849.9672062115566
 20
1735.22651541076
 30
0.0
 10
850.0159564829431
 20
1735.820787875262
 30
0.0
 10
850.1590122236244
 20
1736.585910786194
 30
0.0
 10
850.2541164612887
 20
1736.997075844208
 30
0.0
  0
SPLINE
  5
1B2
330
169
100
AcDbEntity
  8
P-SANR-FIXT
100
AcDbSpline
210
0.0
220
0.0
230
1.0
 70
    24
 71
     3
 72
     8
 73
     4
 74
     0
 42
0.000000001
 43
0.0000000001
 40
0.5
 40
0.5
 40
0.5
 40
0.5
 40
1.0
 40
1.0
 40
1.0
 40
1.0
 10
850.8148783146875
 20
1734.247075844207
 30
0.0
 10
850.8148783146875
 20
1734.247075844207
 30
0.0
 10
850.6279576968861
 20
1734.247075844207
 30
0.0
 10
850.2541164612829
 20
1734.247075844207
 30
0.0
  0
SPLINE
  5
1B3
330
169
100
AcDbEntity
  8
P-SANR-FIXT
100
AcDbSpline
210
0.0
220
0.0
230
1.0
 70
    24
 71
     3
 72
     9
 73
     5
 74
     0
 42
0.000000001
 43
0.0000000001
 40
0.0
 40
0.0
 40
0.0
 40
0.0
 40
0.5
 40
1.0
 40
1.0
 40
1.0
 40
1.0
 10
839.1680808060499
 20
1734.247075844208
 30
0.0
 10
839.0715598070713
 20
1734.247075844208
 30
0.0
 10
838.8914265809487
 20
1734.247075844207
 30
0.0
 10
838.7371108984961
 20
1734.247075844207
 30
0.0
 10
838.6664074431873
 20
1734.247075844207
 30
0.0
  0
SPLINE
  5
1B4
330
169
100
AcDbEntity
  8
P-SANR-FIXT
100
AcDbSpline
210
0.0
220
0.0
230
1.0
 70
    24
 71
     3
 72
     9
 73
     5
 74
     0
 42
0.000000001
 43
0.0000000001
 40
0.0
 40
0.0
 40
0.0
 40
0.0
 40
0.5
 40
1.0
 40
1.0
 40
1.0
 40
1.0
 10
838.6664074431875
 20
1764.24707584419
 30
0.0
 10
838.7371108984851
 20
1764.24707584419
 30
0.0
 10
838.8914265809082
 20
1764.24707584419
 30
0.0
 10
839.0715598069865
 20
1764.24707584419
 30
0.0
 10
839.1680808059396
 20
1764.24707584419
 30
0.0
  0
SPLINE
  5
1B5
330
169
100
AcDbEntity
  8
P-SANR-FIXT
100
AcDbSpline
210
0.0
220
0.0
230
1.0
 70
    24
 71
     3
 72
     9
 73
     5
 74
     0
 42
0.000000001
 43
0.0000000001
 40
0.0
 40
0.0
 40
0.0
 40
0.0
 40
0.5
 40
0.5040492782694763
 40
0.5040492782694763
 40
0.5040492782694763
 40
0.5040492782694763
 10
850.254116461347
 20
1764.24707584419
 30
0.0
 10
850.6279576969529
 20
1764.24707584419
 30
0.0
 10
850.8163921019475
 20
1764.24707584419
 30
0.0
 10
850.8148660552647
 20
1764.24707584419
 30
0.0
 10
850.8148415362825
 20
1764.24707584419
 30
0.0
  0
SPLINE
  5
1B6
330
169
100
AcDbEntity
  8
P-SANR-FIXT
100
AcDbSpline
210
0.0
220
0.0
230
1.0
 70
     8
 71
     3
 72
     9
 73
     5
 74
     0
 42
0.000000001
 43
0.0000000001
 40
0.0
 40
0.0
 40
0.0
 40
0.0
 40
0.5
 40
1.0
 40
1.0
 40
1.0
 40
1.0
 10
839.1680808059396
 20
1764.24707584419
 30
0.0
 10
839.3312094882354
 20
1764.247075844191
 30
0.0
 10
839.5773926100726
 20
1764.128142663172
 30
0.0
 10
839.6634272464007
 20
1763.757344912746
 30
0.0
 10
839.6664074431875
 20
1763.510215564998
 30
0.0
  0
SPLINE
  5
1B7
330
169
100
AcDbEntity
  8
P-SANR-FIXT
100
AcDbSpline
210
0.0
220
0.0
230
1.0
 70
     8
 71
     3
 72
     9
 73
     5
 74
     0
 42
0.000000001
 43
0.0000000001
 40
0.0
 40
0.0
 40
0.0
 40
0.0
 40
0.5
 40
1.0
 40
1.0
 40
1.0
 40
1.0
 10
839.6664074431875
 20
1763.510215564998
 30
0.0
 10
839.6634272464009
 20
1763.263086217253
 30
0.0
 10
839.5773926100746
 20
1762.660223817664
 30
0.0
 10
839.3312094882423
 20
1761.900359966461
 30
0.0
 10
839.1680808059495
 20
1761.497075844191
 30
0.0
  0
SPLINE
  5
1B8
330
169
100
AcDbEntity
  8
P-SANR-FIXT
100
AcDbSpline
210
0.0
220
0.0
230
1.0
 70
     8
 71
     3
 72
     9
 73
     5
 74
     0
 42
0.000000001
 43
0.0000000001
 40
0.0
 40
0.0
 40
0.0
 40
0.0
 40
0.5
 40
1.0
 40
1.0
 40
1.0
 40
1.0
 10
850.2541164613409
 20
1761.497075844191
 30
0.0
 10
850.1590122236885
 20
1761.908240902203
 30
0.0
 10
850.0159564830104
 20
1762.673363813128
 30
0.0
 10
849.9672062115861
 20
1763.267636277625
 30
0.0
 10
849.9664074431874
 20
1763.510215564998
 30
0.0
  0
SPLINE
  5
1B9
330
169
100
AcDbEntity
  8
P-SANR-FIXT
100
AcDbSpline
210
0.0
220
0.0
230
1.0
 70
     8
 71
     3
 72
     9
 73
     5
 74
     0
 42
0.000000001
 43
0.0000000001
 40
0.0
 40
0.0
 40
0.0
 40
0.0
 40
0.5
 40
1.0
 40
1.0
 40
1.0
 40
1.0
 10
849.9664074431874
 20
1763.510215564998
 30
0.0
 10
849.9672062115863
 20
1763.752794852373
 30
0.0
 10
850.0159564830115
 20
1764.123421937201
 30
0.0
 10
850.1590122236926
 20
1764.24707584419
 30
0.0
 10
850.254116461347
 20
1764.24707584419
 30
0.0
  0
SPLINE
  5
1BA
330
169
100
AcDbEntity
  8
P-SANR-FIXT
100
AcDbSpline
210
0.0
220
0.0
230
1.0
 70
     8
 71
     3
 72
     9
 73
     5
 74
     0
 42
0.000000001
 43
0.0000000001
 40
0.0
 40
0.0
 40
0.0
 40
0.0
 40
0.5
 40
1.0
 40
1.0
 40
1.0
 40
1.0
 10
838.6664074431875
 20
1753.471000139346
 30
0.0
 10
838.7371108984901
 20
1753.22205820202
 30
0.0
 10
838.8914265809255
 20
1752.727462215503
 30
0.0
 10
839.0715598070215
 20
1752.239442005256
 30
0.0
 10
839.1680808059847
 20
1751.997075844201
 30
0.0
  0
SPLINE
  5
1BB
330
169
100
AcDbEntity
  8
P-SANR-FIXT
100
AcDbSpline
210
0.0
220
0.0
230
1.0
 70
     8
 71
     3
 72
     9
 73
     5
 74
     0
 42
0.000000001
 43
0.0000000001
 40
0.0
 40
0.0
 40
0.0
 40
0.0
 40
0.5
 40
1.0
 40
1.0
 40
1.0
 40
1.0
 10
850.2541164613207
 20
1751.9970758442
 30
0.0
 10
850.6279576969292
 20
1753.555821277335
 30
0.0
 10
851.0017989325413
 20
1756.697900043802
 30
0.0
 10
850.6279576969429
 20
1759.889154610662
 30
0.0
 10
850.2541164613409
 20
1761.497075844191
 30
0.0
  0
SPLINE
  5
1BC
330
169
100
AcDbEntity
  8
P-SANR-FIXT
100
AcDbSpline
210
0.0
220
0.0
230
1.0
 70
     8
 71
     3
 72
     9
 73
     5
 74
     0
 42
0.000000001
 43
0.0000000001
 40
0.0
 40
0.0
 40
0.0
 40
0.0
 40
0.5
 40
1.0
 40
1.0
 40
1.0
 40
1.0
 10
839.1680808059495
 20
1761.497075844191
 30
0.0
 10
839.0715598069938
 20
1761.25470968315
 30
0.0
 10
838.8914265809109
 20
1760.766689472933
 30
0.0
 10
838.7371108984856
 20
1760.272093486445
 30
0.0
 10
838.6664074431875
 20
1760.023151549134
 30
0.0
  0
SPLINE
  5
1BD
330
169
100
AcDbEntity
  8
P-SANR-FIXT
100
AcDbSpline
210
0.0
220
0.0
230
1.0
 70
     8
 71
     3
 72
     9
 73
     5
 74
     0
 42
0.000000001
 43
0.0000000001
 40
0.0
 40
0.0
 40
0.0
 40
0.0
 40
0.5
 40
1.0
 40
1.0
 40
1.0
 40
1.0
 10
839.1680808059847
 20
1751.997075844201
 30
0.0
 10
839.3312094882906
 20
1751.593791721927
 30
0.0
 10
839.5773926101304
 20
1750.714994689695
 30
0.0
 10
839.6634272464257
 20
1749.741334539669
 30
0.0
 10
839.6664074431873
 20
1749.247075844171
 30
0.0
  0
SPLINE
  5
1BE
330
169
100
AcDbEntity
  8
P-SANR-FIXT
100
AcDbSpline
210
0.0
220
0.0
230
1.0
 70
     8
 71
     3
 72
     9
 73
     5
 74
     0
 42
0.000000001
 43
0.0000000001
 40
0.0
 40
0.0
 40
0.0
 40
0.0
 40
0.5
 40
1.0
 40
1.0
 40
1.0
 40
1.0
 10
839.6664074431873
 20
1749.247075844171
 30
0.0
 10
839.6634272464261
 20
1748.752817148685
 30
0.0
 10
839.5773926101345
 20
1747.779156998682
 30
0.0
 10
839.3312094883047
 20
1746.900359966467
 30
0.0
 10
839.168080806005
 20
1746.497075844201
 30
0.0
  0
SPLINE
  5
1BF
330
169
100
AcDbEntity
  8
P-SANR-FIXT
100
AcDbSpline
210
0.0
220
0.0
230
1.0
 70
     8
 71
     3
 72
     9
 73
     5
 74
     0
 42
0.000000001
 43
0.0000000001
 40
0.0
 40
0.0
 40
0.0
 40
0.0
 40
0.5
 40
1.0
 40
1.0
 40
1.0
 40
1.0
 10
850.254116461309
 20
1746.4970758442
 30
0.0
 10
850.1590122236525
 20
1746.90824090221
 30
0.0
 10
850.0159564829756
 20
1747.797017720118
 30
0.0
 10
849.9672062115712
 20
1748.76191726943
 30
0.0
 10
849.9664074431873
 20
1749.247075844171
 30
0.0
  0
SPLINE
  5
1C0
330
169
100
AcDbEntity
  8
P-SANR-FIXT
100
AcDbSpline
210
0.0
220
0.0
230
1.0
 70
     8
 71
     3
 72
     9
 73
     5
 74
     0
 42
0.000000001
 43
0.0000000001
 40
0.0
 40
0.0
 40
0.0
 40
0.0
 40
0.5
 40
1.0
 40
1.0
 40
1.0
 40
1.0
 10
849.9664074431873
 20
1749.247075844171
 30
0.0
 10
849.9672062115715
 20
1749.732234418923
 30
0.0
 10
850.0159564829779
 20
1750.697133968258
 30
0.0
 10
850.1590122236603
 20
1751.585910786184
 30
0.0
 10
850.2541164613207
 20
1751.9970758442
 30
0.0
  0
SPLINE
  5
1C1
330
169
100
AcDbEntity
  8
P-SANR-FIXT
100
AcDbSpline
210
0.0
220
0.0
230
1.0
 70
     8
 71
     3
 72
     9
 73
     5
 74
     0
 42
0.000000001
 43
0.0000000001
 40
0.0
 40
0.0
 40
0.0
 40
0.0
 40
0.5
 40
1.0
 40
1.0
 40
1.0
 40
1.0
 10
838.6664074431875
 20
1738.471000139557
 30
0.0
 10
838.7371108984956
 20
1738.222058202196
 30
0.0
 10
838.8914265809459
 20
1737.727462215611
 30
0.0
 10
839.071559807064
 20
1737.239442005297
 30
0.0
 10
839.1680808060399
 20
1736.997075844208
 30
0.0
  0
SPLINE
  5
1C2
330
169
100
AcDbEntity
  8
P-SANR-FIXT
100
AcDbSpline
210
0.0
220
0.0
230
1.0
 70
     8
 71
     3
 72
     9
 73
     5
 74
     0
 42
0.000000001
 43
0.0000000001
 40
0.0
 40
0.0
 40
0.0
 40
0.0
 40
0.5
 40
1.0
 40
1.0
 40
1.0
 40
1.0
 10
850.2541164612887
 20
1736.997075844208
 30
0.0
 10
850.627957696896
 20
1738.604997077737
 30
0.0
 10
851.0017989325069
 20
1741.796251644597
 30
0.0
 10
850.6279576969095
 20
1744.938330411065
 30
0.0
 10
850.254116461309
 20
1746.4970758442
 30
0.0
  0
SPLINE
  5
1C3
330
169
100
AcDbEntity
  8
P-SANR-FIXT
100
AcDbSpline
210
0.0
220
0.0
230
1.0
 70
     8
 71
     3
 72
     9
 73
     5
 74
     0
 42
0.000000001
 43
0.0000000001
 40
0.0
 40
0.0
 40
0.0
 40
0.0
 40
0.5
 40
1.0
 40
1.0
 40
1.0
 40
1.0
 10
839.168080806005
 20
1746.497075844201
 30
0.0
 10
839.0715598070363
 20
1746.254709683126
 30
0.0
 10
838.8914265809313
 20
1745.766689472842
 30
0.0
 10
838.7371108984913
 20
1745.272093486286
 30
0.0
 10
838.6664074431875
 20
1745.023151548941
 30
0.0
  0
ARC
  5
1C4
330
169
100
AcDbEntity
  8
P-SANR-FIXT
100
AcDbCircle
 10
815.6664074431873
 20
1749.247075844257
 30
0.0
 40
17.50000000000002
100
AcDbArc
 50
359.9999999999995
 51
179.9999999999998
  0
ARC
  5
1C5
330
169
100
AcDbEntity
  8
P-SANR-FIXT
100
AcDbCircle
 10
815.6664074431873
 20
1749.247075844257
 30
0.0
 40
17.5
100
AcDbArc
 50
180.0000000000004
 51
0.0
  0
ARC
  5
1C6
330
169
100
AcDbEntity
  8
P-SANR-FIXT
100
AcDbCircle
 10
815.6664074431873
 20
1749.247075844257
 30
0.0
 40
18.29651712350037
100
AcDbArc
 50
359.9999999999992
 51
179.9999999999994
  0
SPLINE
  5
1C7
330
169
100
AcDbEntity
  8
P-SANR-FIXT
100
AcDbSpline
210
0.0
220
0.0
230
1.0
 70
     8
 71
     3
 72
     9
 73
     5
 74
     0
 42
0.000000001
 43
0.0000000001
 40
-1.0
 40
-1.0
 40
-1.0
 40
-1.0
 40
-0.5
 40
0.0
 40
0.0
 40
0.0
 40
0.0
 10
835.0865820277816
 20
1749.247075844257
 30
0.0
 10
835.0955560149728
 20
1749.84534896333
 30
0.0
 10
835.0649527555638
 20
1751.037327605206
 30
0.0
 10
834.9372470285718
 20
1752.190479990229
 30
0.0
 10
834.8491185481799
 20
1752.750444888819
 30
0.0
  0
SPLINE
  5
1C8
330
169
100
AcDbEntity
  8
P-SANR-FIXT
100
AcDbSpline
210
0.0
220
0.0
230
1.0
 70
     8
 71
     3
 72
     9
 73
     5
 74
     0
 42
0.000000001
 43
0.0000000001
 40
-1.0
 40
-1.0
 40
-1.0
 40
-1.0
 40
-0.5
 40
0.0
 40
0.0
 40
0.0
 40
0.0
 10
796.4836963381947
 20
1752.750444888818
 30
0.0
 10
796.3955678578027
 20
1752.190479990229
 30
0.0
 10
796.2678621308108
 20
1751.037327605206
 30
0.0
 10
796.2372588714019
 20
1749.84534896333
 30
0.0
 10
796.2462328585933
 20
1749.247075844257
 30
0.0
  0
ARC
  5
1C9
330
169
100
AcDbEntity
  8
P-SANR-FIXT
100
AcDbCircle
 10
815.6664074431873
 20
1749.247075844257
 30
0.0
 40
18.29651712350019
100
AcDbArc
 50
179.9999999999998
 51
359.9999999999995
  0
SPLINE
  5
1CA
330
169
100
AcDbEntity
  8
P-SANR-FIXT
100
AcDbSpline
210
0.0
220
0.0
230
1.0
 70
     8
 71
     3
 72
     9
 73
     5
 74
     0
 42
0.000000001
 43
0.0000000001
 40
-1.0
 40
-1.0
 40
-1.0
 40
-1.0
 40
-0.5
 40
0.0
 40
0.0
 40
0.0
 40
0.0
 10
796.2462328585933
 20
1749.247075844257
 30
0.0
 10
796.2372588714019
 20
1748.648802725185
 30
0.0
 10
796.2678621308108
 20
1747.456824083309
 30
0.0
 10
796.3955678578027
 20
1746.303671698286
 30
0.0
 10
796.4836963381947
 20
1745.743706799696
 30
0.0
  0
SPLINE
  5
1CB
330
169
100
AcDbEntity
  8
P-SANR-FIXT
100
AcDbSpline
210
0.0
220
0.0
230
1.0
 70
     8
 71
     3
 72
     9
 73
     5
 74
     0
 42
0.000000001
 43
0.0000000001
 40
-1.0
 40
-1.0
 40
-1.0
 40
-1.0
 40
-0.5
 40
0.0
 40
0.0
 40
0.0
 40
0.0
 10
834.8491185481799
 20
1745.743706799696
 30
0.0
 10
834.9372470285718
 20
1746.303671698285
 30
0.0
 10
835.0649527555638
 20
1747.456824083309
 30
0.0
 10
835.0955560149728
 20
1748.648802725185
 30
0.0
 10
835.0865820277816
 20
1749.247075844257
 30
0.0
  0
SPLINE
  5
1CC
330
169
100
AcDbEntity
  8
P-SANR-FIXT
100
AcDbSpline
210
0.0
220
0.0
230
1.0
 70
     8
 71
     3
 72
     8
 73
     4
 74
     0
 42
0.000000001
 43
0.0000000001
 40
0.0555555555555556
 40
0.0555555555555556
 40
0.0555555555555556
 40
0.0555555555555556
 40
0.1111111111111111
 40
0.1111111111111111
 40
0.1111111111111111
 40
0.1111111111111111
 10
834.5907303785576
 20
1753.950896050695
 30
0.0
 10
834.4946942789734
 20
1754.337386900876
 30
0.0
 10
834.3893721361725
 20
1754.710367414654
 30
0.0
 10
834.2766259512041
 20
1755.070285189959
 30
0.0
  0
SPLINE
  5
1CD
330
169
100
AcDbEntity
  8
P-SANR-FIXT
100
AcDbSpline
210
0.0
220
0.0
230
1.0
 70
     8
 71
     3
 72
     8
 73
     4
 74
     0
 42
0.000000001
 43
0.0000000001
 40
0.1615511331169211
 40
0.1615511331169211
 40
0.1615511331169211
 40
0.1615511331169211
 40
0.1666666666666666
 40
0.1666666666666666
 40
0.1666666666666666
 40
0.1666666666666666
 10
833.9532869773961
 20
1756.016909645796
 30
0.0
 10
833.9418784431053
 20
1756.047724428434
 30
0.0
 10
833.9304287073774
 20
1756.078414036071
 30
0.0
 10
833.9189399754911
 20
1756.108977006207
 30
0.0
  0
SPLINE
  5
1CE
330
169
100
AcDbEntity
  8
P-SANR-FIXT
100
AcDbSpline
210
0.0
220
0.0
230
1.0
 70
     8
 71
     3
 72
     8
 73
     4
 74
     0
 42
0.000000001
 43
0.0000000001
 40
0.2222222222222222
 40
0.2222222222222222
 40
0.2222222222222222
 40
0.2222222222222222
 40
0.2777777777777778
 40
0.2777777777777778
 40
0.2777777777777778
 40
0.2777777777777778
 10
833.5336579917397
 20
1757.058052597216
 30
0.0
 10
833.4025144678482
 20
1757.358226222985
 30
0.0
 10
833.2695963142317
 20
1757.641590517275
 30
0.0
 10
833.1378692036851
 20
1757.907304466522
 30
0.0
  0
SPLINE
  5
1CF
330
169
100
AcDbEntity
  8
P-SANR-FIXT
100
AcDbSpline
210
0.0
220
0.0
230
1.0
 70
     8
 71
     3
 72
     8
 73
     4
 74
     0
 42
0.000000001
 43
0.0000000001
 40
0.3333333333333333
 40
0.3333333333333333
 40
0.3333333333333333
 40
0.3333333333333333
 40
0.3888888888888888
 40
0.3888888888888888
 40
0.3888888888888888
 40
0.3888888888888888
 10
832.7492266740508
 20
1758.650654265563
 30
0.0
 10
832.6228473162696
 20
1758.880226524284
 30
0.0
 10
832.5006246839793
 20
1759.091307406349
 30
0.0
 10
832.3860025905629
 20
1759.282270815351
 30
0.0
  0
SPLINE
  5
1D0
330
169
100
AcDbEntity
  8
P-SANR-FIXT
100
AcDbSpline
210
0.0
220
0.0
230
1.0
 70
     8
 71
     3
 72
    11
 73
     7
 74
     0
 42
0.000000001
 43
0.0000000001
 40
0.5000000000000001
 40
0.5000000000000001
 40
0.5000000000000001
 40
0.5000000000000001
 40
0.5138888888888889
 40
0.5486111111111111
 40
0.5833333333333333
 40
0.6111111111111113
 40
0.6111111111111113
 40
0.6111111111111113
 40
0.6111111111111113
 10
831.820884726236
 20
1760.1687350226
 30
0.0
 10
831.8031730426229
 20
1760.194934669124
 30
0.0
 10
831.7442305373706
 20
1760.281651964916
 30
0.0
 10
831.6641366336927
 20
1760.397356869583
 30
0.0
 10
831.6111548694427
 20
1760.472719889836
 30
0.0
 10
831.5981881892252
 20
1760.491171069476
 30
0.0
 10
831.5966727525189
 20
1760.493328870776
 30
0.0
  0
SPLINE
  5
1D1
330
169
100
AcDbEntity
  8
P-SANR-FIXT
100
AcDbSpline
210
0.0
220
0.0
230
1.0
 70
     8
 71
     3
 72
     9
 73
     5
 74
     0
 42
0.000000001
 43
0.0000000001
 40
0.3888888888888888
 40
0.3888888888888888
 40
0.3888888888888888
 40
0.3888888888888888
 40
0.4444444444444445
 40
0.5
 40
0.5
 40
0.5
 40
0.5
 10
799.7362821769909
 20
1760.493457884864
 30
0.0
 10
799.7333755602675
 20
1760.489350573152
 30
0.0
 10
799.6948285341182
 20
1760.434937987123
 30
0.0
 10
799.581708254625
 20
1760.272157955932
 30
0.0
 10
799.5115187409113
 20
1760.168243231443
 30
0.0
  0
SPLINE
  5
1D2
330
169
100
AcDbEntity
  8
P-SANR-FIXT
100
AcDbSpline
210
0.0
220
0.0
230
1.0
 70
     8
 71
     3
 72
     9
 73
     5
 74
     0
 42
0.000000001
 43
0.0000000001
 40
0.6111111111111112
 40
0.6111111111111112
 40
0.6111111111111112
 40
0.6111111111111112
 40
0.6527777777777777
 40
0.6666666666666668
 40
0.6666666666666668
 40
0.6666666666666668
 40
0.6666666666666668
 10
798.9472993382864
 20
1759.282895724853
 30
0.0
 10
798.8609309988892
 20
1759.138967583132
 30
0.0
 10
798.7392289440531
 20
1758.933031846632
 30
0.0
 10
798.6145999112689
 20
1758.705493181641
 30
0.0
 10
798.5832345625075
 20
1758.647451953862
 30
0.0
  0
SPLINE
  5
1D3
330
169
100
AcDbEntity
  8
P-SANR-FIXT
100
AcDbSpline
210
0.0
220
0.0
230
1.0
 70
     8
 71
     3
 72
     8
 73
     4
 74
     0
 42
0.000000001
 43
0.0000000001
 40
0.7222222222222223
 40
0.7222222222222223
 40
0.7222222222222223
 40
0.7222222222222223
 40
0.7777777777777779
 40
0.7777777777777779
 40
0.7777777777777779
 40
0.7777777777777779
 10
798.1952521458408
 20
1757.907834042937
 30
0.0
 10
798.0638782717912
 20
1757.642459529805
 30
0.0
 10
797.925413191321
 20
1757.369855740195
 30
0.0
 10
797.7896712372021
 20
1757.078384546403
 30
0.0
  0
SPLINE
  5
1D4
330
169
100
AcDbEntity
  8
P-SANR-FIXT
100
AcDbSpline
210
0.0
220
0.0
230
1.0
 70
     8
 71
     3
 72
     8
 73
     4
 74
     0
 42
0.000000001
 43
0.0000000001
 40
0.8333333333333335
 40
0.8333333333333335
 40
0.8333333333333335
 40
0.8333333333333335
 40
0.8384488668830856
 40
0.8384488668830856
 40
0.8384488668830856
 40
0.8384488668830856
 10
797.4137935179399
 20
1756.108511084641
 30
0.0
 10
797.4022894440592
 20
1756.077961746999
 30
0.0
 10
797.3907571289625
 20
1756.04740074599
 30
0.0
 10
797.3792368312087
 20
1756.016767545698
 30
0.0
  0
SPLINE
  5
1D5
330
169
100
AcDbEntity
  8
P-SANR-FIXT
100
AcDbSpline
210
0.0
220
0.0
230
1.0
 70
     8
 71
     3
 72
     8
 73
     4
 74
     0
 42
0.000000001
 43
0.0000000001
 40
0.8888888888888891
 40
0.8888888888888891
 40
0.8888888888888891
 40
0.8888888888888891
 40
0.9444444444444446
 40
0.9444444444444446
 40
0.9444444444444446
 40
0.9444444444444446
 10
797.0561956378467
 20
1755.071044114054
 30
0.0
 10
796.9435824923278
 20
1754.711503146796
 30
0.0
 10
796.8484931850054
 20
1754.324740732182
 30
0.0
 10
796.7575394052674
 20
1753.931169863536
 30
0.0
  0
SPLINE
  5
1D6
330
169
100
AcDbEntity
  8
P-SANR-FIXT
100
AcDbSpline
210
0.0
220
0.0
230
1.0
 70
     8
 71
     3
 72
     8
 73
     4
 74
     0
 42
0.000000001
 43
0.0000000001
 40
0.0555555555555556
 40
0.0555555555555556
 40
0.0555555555555556
 40
0.0555555555555556
 40
0.1111111111111111
 40
0.1111111111111111
 40
0.1111111111111111
 40
0.1111111111111111
 10
796.742084507817
 20
1744.54325563782
 30
0.0
 10
796.8381206074012
 20
1744.156764787639
 30
0.0
 10
796.9434427502022
 20
1743.783784273861
 30
0.0
 10
797.0561889351706
 20
1743.423866498556
 30
0.0
  0
SPLINE
  5
1D7
330
169
100
AcDbEntity
  8
P-SANR-FIXT
100
AcDbSpline
210
0.0
220
0.0
230
1.0
 70
     8
 71
     3
 72
     8
 73
     4
 74
     0
 42
0.000000001
 43
0.0000000001
 40
0.161551133116917
 40
0.161551133116917
 40
0.161551133116917
 40
0.161551133116917
 40
0.1666666666666644
 40
0.1666666666666644
 40
0.1666666666666644
 40
0.1666666666666644
 10
797.3795279089785
 20
1742.477242042719
 30
0.0
 10
797.3909364432691
 20
1742.446427260081
 30
0.0
 10
797.402386178997
 20
1742.415737652444
 30
0.0
 10
797.4138749108833
 20
1742.385174682308
 30
0.0
  0
SPLINE
  5
1D8
330
169
100
AcDbEntity
  8
P-SANR-FIXT
100
AcDbSpline
210
0.0
220
0.0
230
1.0
 70
     8
 71
     3
 72
     8
 73
     4
 74
     0
 42
0.000000001
 43
0.0000000001
 40
0.2222222222222222
 40
0.2222222222222222
 40
0.2222222222222222
 40
0.2222222222222222
 40
0.2777777777777778
 40
0.2777777777777778
 40
0.2777777777777778
 40
0.2777777777777778
 10
797.7991568946349
 20
1741.436099091299
 30
0.0
 10
797.9303004185263
 20
1741.13592546553
 30
0.0
 10
798.063218572143
 20
1740.85256117124
 30
0.0
 10
798.1949456826894
 20
1740.586847221993
 30
0.0
  0
SPLINE
  5
1D9
330
169
100
AcDbEntity
  8
P-SANR-FIXT
100
AcDbSpline
210
0.0
220
0.0
230
1.0
 70
     8
 71
     3
 72
     8
 73
     4
 74
     0
 42
0.000000001
 43
0.0000000001
 40
0.3333333333333333
 40
0.3333333333333333
 40
0.3333333333333333
 40
0.3333333333333333
 40
0.3888888888888888
 40
0.3888888888888888
 40
0.3888888888888888
 40
0.3888888888888888
 10
798.5835882123236
 20
1739.843497422953
 30
0.0
 10
798.7099675701049
 20
1739.613925164231
 30
0.0
 10
798.8321902023951
 20
1739.402844282166
 30
0.0
 10
798.9468122958117
 20
1739.211880873164
 30
0.0
  0
SPLINE
  5
1DA
330
169
100
AcDbEntity
  8
P-SANR-FIXT
100
AcDbSpline
210
0.0
220
0.0
230
1.0
 70
     8
 71
     3
 72
    11
 73
     7
 74
     0
 42
0.000000001
 43
0.0000000001
 40
0.5000000000000001
 40
0.5000000000000001
 40
0.5000000000000001
 40
0.5000000000000001
 40
0.5138888888888889
 40
0.5486111111111111
 40
0.5833333333333333
 40
0.6111111111111113
 40
0.6111111111111113
 40
0.6111111111111113
 40
0.6111111111111113
 10
799.5119301601386
 20
1738.325416665915
 30
0.0
 10
799.5296418437516
 20
1738.299217019391
 30
0.0
 10
799.5885843490039
 20
1738.212499723599
 30
0.0
 10
799.6686782526817
 20
1738.096794818932
 30
0.0
 10
799.721660016932
 20
1738.021431798679
 30
0.0
 10
799.7346266971494
 20
1738.002980619039
 30
0.0
 10
799.7361421338557
 20
1738.000822817738
 30
0.0
  0
SPLINE
  5
1DB
330
169
100
AcDbEntity
  8
P-SANR-FIXT
100
AcDbSpline
210
0.0
220
0.0
230
1.0
 70
     8
 71
     3
 72
     9
 73
     5
 74
     0
 42
0.000000001
 43
0.0000000001
 40
0.3888888888888888
 40
0.3888888888888888
 40
0.3888888888888888
 40
0.3888888888888888
 40
0.4444444444444445
 40
0.5
 40
0.5
 40
0.5
 40
0.5
 10
831.5965327093836
 20
1738.00069380365
 30
0.0
 10
831.5994393261073
 20
1738.004801115362
 30
0.0
 10
831.6379863522563
 20
1738.059213701391
 30
0.0
 10
831.7511066317496
 20
1738.221993732582
 30
0.0
 10
831.8212961454632
 20
1738.325908457072
 30
0.0
  0
SPLINE
  5
1DC
330
169
100
AcDbEntity
  8
P-SANR-FIXT
100
AcDbSpline
210
0.0
220
0.0
230
1.0
 70
     8
 71
     3
 72
     9
 73
     5
 74
     0
 42
0.000000001
 43
0.0000000001
 40
0.6111111111111112
 40
0.6111111111111112
 40
0.6111111111111112
 40
0.6111111111111112
 40
0.6527777777777777
 40
0.6666666666666668
 40
0.6666666666666668
 40
0.6666666666666668
 40
0.6666666666666668
 10
832.3855155480881
 20
1739.211255963661
 30
0.0
 10
832.4718838874852
 20
1739.355184105382
 30
0.0
 10
832.5935859423216
 20
1739.561119841883
 30
0.0
 10
832.7182149751056
 20
1739.788658506873
 30
0.0
 10
832.7495803238671
 20
1739.846699734653
 30
0.0
  0
SPLINE
  5
1DD
330
169
100
AcDbEntity
  8
P-SANR-FIXT
100
AcDbSpline
210
0.0
220
0.0
230
1.0
 70
     8
 71
     3
 72
     8
 73
     4
 74
     0
 42
0.000000001
 43
0.0000000001
 40
0.7222222222222223
 40
0.7222222222222223
 40
0.7222222222222223
 40
0.7222222222222223
 40
0.7777777777777779
 40
0.7777777777777779
 40
0.7777777777777779
 40
0.7777777777777779
 10
833.1375627405337
 20
1740.586317645577
 30
0.0
 10
833.2689366145832
 20
1740.851692158709
 30
0.0
 10
833.4074016950534
 20
1741.12429594832
 30
0.0
 10
833.5431436491726
 20
1741.415767142111
 30
0.0
  0
SPLINE
  5
1DE
330
169
100
AcDbEntity
  8
P-SANR-FIXT
100
AcDbSpline
210
0.0
220
0.0
230
1.0
 70
     8
 71
     3
 72
     8
 73
     4
 74
     0
 42
0.000000001
 43
0.0000000001
 40
0.8333333333333335
 40
0.8333333333333335
 40
0.8333333333333335
 40
0.8333333333333335
 40
0.838448866883081
 40
0.838448866883081
 40
0.838448866883081
 40
0.838448866883081
 10
833.9190213684346
 20
1742.385640603873
 30
0.0
 10
833.9305254423154
 20
1742.416189941516
 30
0.0
 10
833.942057757412
 20
1742.446750942524
 30
0.0
 10
833.953578055166
 20
1742.477384142817
 30
0.0
  0
SPLINE
  5
1DF
330
169
100
AcDbEntity
  8
P-SANR-FIXT
100
AcDbSpline
210
0.0
220
0.0
230
1.0
 70
     8
 71
     3
 72
     8
 73
     4
 74
     0
 42
0.000000001
 43
0.0000000001
 40
0.8888888888888891
 40
0.8888888888888891
 40
0.8888888888888891
 40
0.8888888888888891
 40
0.9444444444444446
 40
0.9444444444444446
 40
0.9444444444444446
 40
0.9444444444444446
 10
834.276619248528
 20
1743.42310757446
 30
0.0
 10
834.3892323940469
 20
1743.782648541719
 30
0.0
 10
834.4843217013693
 20
1744.169410956332
 30
0.0
 10
834.5752754811073
 20
1744.562981824978
 30
0.0
  0
LINE
  5
1E0
330
169
100
AcDbEntity
  8
P-SANR-FIXT
100
AcDbLine
 10
838.6664074431875
 20
1745.023151548941
 30
0.0
 11
838.6664074431875
 21
1738.471000139557
 31
0.0
  0
LINE
  5
1E1
330
169
100
AcDbEntity
  8
P-SANR-FIXT
100
AcDbLine
 10
838.6664074431875
 20
1745.02315154894
 30
0.0
 11
838.6664074431875
 21
1749.247075844257
 31
0.0
  0
LINE
  5
1E2
330
169
100
AcDbEntity
  8
P-SANR-FIXT
100
AcDbLine
 10
838.6664074431875
 20
1749.247075844257
 30
0.0
 11
838.6664074431875
 21
1753.471000139347
 31
0.0
  0
LINE
  5
1E3
330
169
100
AcDbEntity
  8
P-SANR-FIXT
100
AcDbLine
 10
838.6664074431875
 20
1760.023151549134
 30
0.0
 11
838.6664074431875
 21
1753.471000139346
 31
0.0
  0
LINE
  5
1E4
330
169
100
AcDbEntity
  8
P-SANR-FIXT
100
AcDbLine
 10
838.6664074431875
 20
1760.023151549134
 30
0.0
 11
838.6664074431875
 21
1764.24707584419
 31
0.0
  0
LINE
  5
1E5
330
169
100
AcDbEntity
  8
P-SANR-FIXT
100
AcDbLine
 10
838.6664074431873
 20
1734.247075844207
 30
0.0
 11
838.6664074431875
 21
1738.471000139557
 31
0.0
  0
LINE
  5
1E6
330
169
100
AcDbEntity
  8
P-SANR-FIXT
100
AcDbLine
 10
779.3664074431874
 20
1749.247075844258
 30
0.0
 11
779.3664074431874
 21
1762.252629343713
 31
0.0
  0
LINE
  5
1E7
330
169
100
AcDbEntity
  8
P-SANR-FIXT
100
AcDbLine
 10
779.3664074431874
 20
1736.241522344802
 30
0.0
 11
779.3664074431874
 21
1749.247075844257
 31
0.0
  0
LINE
  5
1E8
330
169
100
AcDbEntity
  8
P-SANR-FIXT
100
AcDbLine
 10
792.6664074431873
 20
1760.023151549134
 30
0.0
 11
792.6664074431875
 21
1764.24707584419
 31
0.0
  0
LINE
  5
1E9
330
169
100
AcDbEntity
  8
P-SANR-FIXT
100
AcDbLine
 10
792.6664074431873
 20
1760.023151549134
 30
0.0
 11
792.6664074431873
 21
1753.471000139346
 31
0.0
  0
LINE
  5
1EA
330
169
100
AcDbEntity
  8
P-SANR-FIXT
100
AcDbLine
 10
792.6664074431873
 20
1749.247075844257
 30
0.0
 11
792.6664074431873
 21
1753.471000139347
 31
0.0
  0
LINE
  5
1EB
330
169
100
AcDbEntity
  8
P-SANR-FIXT
100
AcDbLine
 10
792.6664074431873
 20
1745.02315154894
 30
0.0
 11
792.6664074431873
 21
1749.247075844257
 31
0.0
  0
LINE
  5
1EC
330
169
100
AcDbEntity
  8
P-SANR-FIXT
100
AcDbLine
 10
792.6664074431873
 20
1745.023151548941
 30
0.0
 11
792.6664074431873
 21
1738.471000139557
 31
0.0
  0
LINE
  5
1ED
330
169
100
AcDbEntity
  8
P-SANR-FIXT
100
AcDbLine
 10
792.6664074431872
 20
1734.247075844207
 30
0.0
 11
792.6664074431873
 21
1738.471000139557
 31
0.0
  0
SPLINE
  5
1EE
330
169
100
AcDbEntity
  8
P-SANR-FIXT
100
AcDbSpline
210
0.0
220
0.0
230
1.0
 70
     8
 71
     3
 72
     9
 73
     5
 74
     0
 42
0.000000001
 43
0.0000000001
 40
0.0
 40
0.0
 40
0.0
 40
0.0
 40
0.5
 40
1.0
 40
1.0
 40
1.0
 40
1.0
 10
781.3664074431873
 20
1734.983936123387
 30
0.0
 10
781.3656086748178
 20
1734.741356836015
 30
0.0
 10
781.3168584034325
 20
1734.370729751194
 30
0.0
 10
781.1738026627542
 20
1734.247075844208
 30
0.0
 10
781.0786984250917
 20
1734.247075844208
 30
0.0
  0
SPLINE
  5
1EF
330
169
100
AcDbEntity
  8
P-SANR-FIXT
100
AcDbSpline
210
0.0
220
0.0
230
1.0
 70
     8
 71
     3
 72
     9
 73
     5
 74
     0
 42
0.000000001
 43
0.0000000001
 40
-1.0
 40
-1.0
 40
-1.0
 40
-1.0
 40
-0.5
 40
0.0
 40
0.0
 40
0.0
 40
0.0
 10
791.6664074431873
 20
1734.983936123386
 30
0.0
 10
791.6693876399234
 20
1734.736806775642
 30
0.0
 10
791.7554222761824
 20
1734.366009025223
 30
0.0
 10
792.0016053980149
 20
1734.247075844208
 30
0.0
 10
792.1647340803246
 20
1734.247075844208
 30
0.0
  0
SPLINE
  5
1F0
330
169
100
AcDbEntity
  8
P-SANR-FIXT
100
AcDbSpline
210
0.0
220
0.0
230
1.0
 70
     8
 71
     3
 72
     9
 73
     5
 74
     0
 42
0.000000001
 43
0.0000000001
 40
-1.0
 40
-1.0
 40
-1.0
 40
-1.0
 40
-0.5
 40
0.0
 40
0.0
 40
0.0
 40
0.0
 10
792.1647340803347
 20
1736.997075844208
 30
0.0
 10
792.0016053980219
 20
1736.593791721938
 30
0.0
 10
791.7554222761845
 20
1735.83392787073
 30
0.0
 10
791.6693876399236
 20
1735.231065471133
 30
0.0
 10
791.6664074431873
 20
1734.983936123386
 30
0.0
  0
SPLINE
  5
1F1
330
169
100
AcDbEntity
  8
P-SANR-FIXT
100
AcDbSpline
210
0.0
220
0.0
230
1.0
 70
     8
 71
     3
 72
     9
 73
     5
 74
     0
 42
0.000000001
 43
0.0000000001
 40
0.0
 40
0.0
 40
0.0
 40
0.0
 40
0.5
 40
1.0
 40
1.0
 40
1.0
 40
1.0
 10
781.078698425086
 20
1736.997075844208
 30
0.0
 10
781.1738026627503
 20
1736.585910786194
 30
0.0
 10
781.3168584034317
 20
1735.820787875263
 30
0.0
 10
781.3656086748178
 20
1735.22651541076
 30
0.0
 10
781.3664074431873
 20
1734.983936123387
 30
0.0
  0
SPLINE
  5
1F2
330
169
100
AcDbEntity
  8
P-SANR-FIXT
100
AcDbSpline
210
0.0
220
0.0
230
1.0
 70
    24
 71
     3
 72
     8
 73
     4
 74
     0
 42
0.000000001
 43
0.0000000001
 40
0.0
 40
0.0
 40
0.0
 40
0.0
 40
0.5
 40
0.5
 40
0.5
 40
0.5
 10
781.0786984250917
 20
1734.247075844208
 30
0.0
 10
780.7048571894885
 20
1734.247075844208
 30
0.0
 10
780.5179365716869
 20
1734.247075844207
 30
0.0
 10
780.5179365716869
 20
1734.247075844207
 30
0.0
  0
SPLINE
  5
1F3
330
169
100
AcDbEntity
  8
P-SANR-FIXT
100
AcDbSpline
210
0.0
220
0.0
230
1.0
 70
    24
 71
     3
 72
     9
 73
     5
 74
     0
 42
0.000000001
 43
0.0000000001
 40
-1.0
 40
-1.0
 40
-1.0
 40
-1.0
 40
-0.5
 40
0.0
 40
0.0
 40
0.0
 40
0.0
 10
792.1647340803246
 20
1734.247075844208
 30
0.0
 10
792.2612550793033
 20
1734.247075844208
 30
0.0
 10
792.4413883054257
 20
1734.247075844207
 30
0.0
 10
792.5957039878784
 20
1734.247075844207
 30
0.0
 10
792.6664074431872
 20
1734.247075844207
 30
0.0
  0
SPLINE
  5
1F4
330
169
100
AcDbEntity
  8
P-SANR-FIXT
100
AcDbSpline
210
0.0
220
0.0
230
1.0
 70
    24
 71
     3
 72
     9
 73
     5
 74
     0
 42
0.000000001
 43
0.0000000001
 40
0.4959507217305079
 40
0.4959507217305079
 40
0.4959507217305079
 40
0.4959507217305079
 40
0.5
 40
1.0
 40
1.0
 40
1.0
 40
1.0
 10
780.5179733500925
 20
1764.24707584419
 30
0.0
 10
780.5179488311103
 20
1764.24707584419
 30
0.0
 10
780.5164227844272
 20
1764.24707584419
 30
0.0
 10
780.7048571894423
 20
1764.247075844199
 30
0.0
 10
781.0786984250279
 20
1764.247075844191
 30
0.0
  0
SPLINE
  5
1F5
330
169
100
AcDbEntity
  8
P-SANR-FIXT
100
AcDbSpline
210
0.0
220
0.0
230
1.0
 70
    24
 71
     3
 72
     9
 73
     5
 74
     0
 42
0.000000001
 43
0.0000000001
 40
-1.0
 40
-1.0
 40
-1.0
 40
-1.0
 40
-0.5
 40
0.0
 40
0.0
 40
0.0
 40
0.0
 10
792.6664074431875
 20
1764.24707584419
 30
0.0
 10
792.5957039878897
 20
1764.24707584419
 30
0.0
 10
792.4413883054668
 20
1764.24707584419
 30
0.0
 10
792.2612550793886
 20
1764.24707584419
 30
0.0
 10
792.1647340804355
 20
1764.24707584419
 30
0.0
  0
SPLINE
  5
1F6
330
169
100
AcDbEntity
  8
P-SANR-FIXT
100
AcDbSpline
210
0.0
220
0.0
230
1.0
 70
     8
 71
     3
 72
     9
 73
     5
 74
     0
 42
0.000000001
 43
0.0000000001
 40
0.0
 40
0.0
 40
0.0
 40
0.0
 40
0.5
 40
1.0
 40
1.0
 40
1.0
 40
1.0
 10
781.0786984250279
 20
1764.247075844191
 30
0.0
 10
781.1738026626824
 20
1764.247075844191
 30
0.0
 10
781.3168584033633
 20
1764.123421937202
 30
0.0
 10
781.3656086747887
 20
1763.752794852374
 30
0.0
 10
781.3664074431876
 20
1763.510215564998
 30
0.0
  0
SPLINE
  5
1F7
330
169
100
AcDbEntity
  8
P-SANR-FIXT
100
AcDbSpline
210
0.0
220
0.0
230
1.0
 70
     8
 71
     3
 72
     9
 73
     5
 74
     0
 42
0.000000001
 43
0.0000000001
 40
0.0
 40
0.0
 40
0.0
 40
0.0
 40
0.5
 40
1.0
 40
1.0
 40
1.0
 40
1.0
 10
781.3664074431876
 20
1763.510215564998
 30
0.0
 10
781.3656086747887
 20
1763.267636277626
 30
0.0
 10
781.3168584033643
 20
1762.673363813128
 30
0.0
 10
781.1738026626863
 20
1761.908240902203
 30
0.0
 10
781.0786984250338
 20
1761.497075844192
 30
0.0
  0
SPLINE
  5
1F8
330
169
100
AcDbEntity
  8
P-SANR-FIXT
100
AcDbSpline
210
0.0
220
0.0
230
1.0
 70
     8
 71
     3
 72
     9
 73
     5
 74
     0
 42
0.000000001
 43
0.0000000001
 40
-1.0
 40
-1.0
 40
-1.0
 40
-1.0
 40
-0.5
 40
0.0
 40
0.0
 40
0.0
 40
0.0
 10
791.6664074431876
 20
1763.510215564998
 30
0.0
 10
791.6693876399742
 20
1763.263086217253
 30
0.0
 10
791.7554222763002
 20
1762.660223817664
 30
0.0
 10
792.0016053981326
 20
1761.900359966461
 30
0.0
 10
792.1647340804253
 20
1761.497075844191
 30
0.0
  0
SPLINE
  5
1F9
330
169
100
AcDbEntity
  8
P-SANR-FIXT
100
AcDbSpline
210
0.0
220
0.0
230
1.0
 70
     8
 71
     3
 72
     9
 73
     5
 74
     0
 42
0.000000001
 43
0.0000000001
 40
-1.0
 40
-1.0
 40
-1.0
 40
-1.0
 40
-0.5
 40
0.0
 40
0.0
 40
0.0
 40
0.0
 10
792.1647340804355
 20
1764.24707584419
 30
0.0
 10
792.0016053981397
 20
1764.247075844191
 30
0.0
 10
791.7554222763024
 20
1764.128142663172
 30
0.0
 10
791.6693876399744
 20
1763.757344912746
 30
0.0
 10
791.6664074431876
 20
1763.510215564998
 30
0.0
  0
SPLINE
  5
1FA
330
169
100
AcDbEntity
  8
P-SANR-FIXT
100
AcDbSpline
210
0.0
220
0.0
230
1.0
 70
     8
 71
     3
 72
     9
 73
     5
 74
     0
 42
0.000000001
 43
0.0000000001
 40
0.0
 40
0.0
 40
0.0
 40
0.0
 40
0.5
 40
1.0
 40
1.0
 40
1.0
 40
1.0
 10
781.0786984250338
 20
1761.497075844192
 30
0.0
 10
780.7048571894319
 20
1759.889154610663
 30
0.0
 10
780.3310159538335
 20
1756.697900043802
 30
0.0
 10
780.7048571894454
 20
1753.555821277336
 30
0.0
 10
781.078698425054
 20
1751.997075844201
 30
0.0
  0
SPLINE
  5
1FB
330
169
100
AcDbEntity
  8
P-SANR-FIXT
100
AcDbSpline
210
0.0
220
0.0
230
1.0
 70
     8
 71
     3
 72
     9
 73
     5
 74
     0
 42
0.000000001
 43
0.0000000001
 40
-1.0
 40
-1.0
 40
-1.0
 40
-1.0
 40
-0.5
 40
0.0
 40
0.0
 40
0.0
 40
0.0
 10
792.6664074431873
 20
1753.471000139346
 30
0.0
 10
792.5957039878847
 20
1753.22205820202
 30
0.0
 10
792.4413883054492
 20
1752.727462215503
 30
0.0
 10
792.2612550793531
 20
1752.239442005256
 30
0.0
 10
792.16473408039
 20
1751.997075844201
 30
0.0
  0
SPLINE
  5
1FC
330
169
100
AcDbEntity
  8
P-SANR-FIXT
100
AcDbSpline
210
0.0
220
0.0
230
1.0
 70
     8
 71
     3
 72
     9
 73
     5
 74
     0
 42
0.000000001
 43
0.0000000001
 40
-1.0
 40
-1.0
 40
-1.0
 40
-1.0
 40
-0.5
 40
0.0
 40
0.0
 40
0.0
 40
0.0
 10
792.1647340804253
 20
1761.497075844191
 30
0.0
 10
792.261255079381
 20
1761.25470968315
 30
0.0
 10
792.4413883054638
 20
1760.766689472933
 30
0.0
 10
792.5957039878891
 20
1760.272093486445
 30
0.0
 10
792.6664074431873
 20
1760.023151549134
 30
0.0
  0
SPLINE
  5
1FD
330
169
100
AcDbEntity
  8
P-SANR-FIXT
100
AcDbSpline
210
0.0
220
0.0
230
1.0
 70
     8
 71
     3
 72
     9
 73
     5
 74
     0
 42
0.000000001
 43
0.0000000001
 40
0.0
 40
0.0
 40
0.0
 40
0.0
 40
0.5
 40
1.0
 40
1.0
 40
1.0
 40
1.0
 10
781.078698425054
 20
1751.997075844201
 30
0.0
 10
781.1738026627142
 20
1751.585910786185
 30
0.0
 10
781.3168584033967
 20
1750.69713396826
 30
0.0
 10
781.3656086748033
 20
1749.732234418925
 30
0.0
 10
781.3664074431875
 20
1749.247075844171
 30
0.0
  0
SPLINE
  5
1FE
330
169
100
AcDbEntity
  8
P-SANR-FIXT
100
AcDbSpline
210
0.0
220
0.0
230
1.0
 70
     8
 71
     3
 72
     9
 73
     5
 74
     0
 42
0.000000001
 43
0.0000000001
 40
0.0
 40
0.0
 40
0.0
 40
0.0
 40
0.5
 40
1.0
 40
1.0
 40
1.0
 40
1.0
 10
781.3664074431875
 20
1749.247075844171
 30
0.0
 10
781.3656086748035
 20
1748.761917269431
 30
0.0
 10
781.3168584033992
 20
1747.797017720118
 30
0.0
 10
781.1738026627223
 20
1746.90824090221
 30
0.0
 10
781.0786984250658
 20
1746.497075844201
 30
0.0
  0
SPLINE
  5
1FF
330
169
100
AcDbEntity
  8
P-SANR-FIXT
100
AcDbSpline
210
0.0
220
0.0
230
1.0
 70
     8
 71
     3
 72
     9
 73
     5
 74
     0
 42
0.000000001
 43
0.0000000001
 40
-1.0
 40
-1.0
 40
-1.0
 40
-1.0
 40
-0.5
 40
0.0
 40
0.0
 40
0.0
 40
0.0
 10
791.6664074431874
 20
1749.247075844257
 30
0.0
 10
791.6693876399437
 20
1748.752817148756
 30
0.0
 10
791.7554222762306
 20
1747.77915699872
 30
0.0
 10
792.0016053980654
 20
1746.900359966479
 30
0.0
 10
792.1647340803698
 20
1746.497075844201
 30
0.0
  0
SPLINE
  5
200
330
169
100
AcDbEntity
  8
P-SANR-FIXT
100
AcDbSpline
210
0.0
220
0.0
230
1.0
 70
     8
 71
     3
 72
     9
 73
     5
 74
     0
 42
0.000000001
 43
0.0000000001
 40
-1.0
 40
-1.0
 40
-1.0
 40
-1.0
 40
-0.5
 40
0.0
 40
0.0
 40
0.0
 40
0.0
 10
792.16473408039
 20
1751.997075844201
 30
0.0
 10
792.0016053980889
 20
1751.593791721938
 30
0.0
 10
791.7554222762539
 20
1750.714994689733
 30
0.0
 10
791.6693876399538
 20
1749.741334539739
 30
0.0
 10
791.6664074431874
 20
1749.247075844257
 30
0.0
  0
SPLINE
  5
201
330
169
100
AcDbEntity
  8
P-SANR-FIXT
100
AcDbSpline
210
0.0
220
0.0
230
1.0
 70
     8
 71
     3
 72
     9
 73
     5
 74
     0
 42
0.000000001
 43
0.0000000001
 40
0.0
 40
0.0
 40
0.0
 40
0.0
 40
0.5
 40
1.0
 40
1.0
 40
1.0
 40
1.0
 10
781.0786984250658
 20
1746.497075844201
 30
0.0
 10
780.7048571894653
 20
1744.889154610672
 30
0.0
 10
780.3310159538682
 20
1741.697900043811
 30
0.0
 10
780.7048571894787
 20
1738.555821277344
 30
0.0
 10
781.078698425086
 20
1736.997075844208
 30
0.0
  0
SPLINE
  5
202
330
169
100
AcDbEntity
  8
P-SANR-FIXT
100
AcDbSpline
210
0.0
220
0.0
230
1.0
 70
     8
 71
     3
 72
     9
 73
     5
 74
     0
 42
0.000000001
 43
0.0000000001
 40
-1.0
 40
-1.0
 40
-1.0
 40
-1.0
 40
-0.5
 40
0.0
 40
0.0
 40
0.0
 40
0.0
 10
792.6664074431873
 20
1738.471000139557
 30
0.0
 10
792.5957039878791
 20
1738.222058202196
 30
0.0
 10
792.4413883054287
 20
1737.727462215611
 30
0.0
 10
792.2612550793107
 20
1737.239442005297
 30
0.0
 10
792.1647340803347
 20
1736.997075844208
 30
0.0
  0
SPLINE
  5
203
330
169
100
AcDbEntity
  8
P-SANR-FIXT
100
AcDbSpline
210
0.0
220
0.0
230
1.0
 70
     8
 71
     3
 72
     9
 73
     5
 74
     0
 42
0.000000001
 43
0.0000000001
 40
-1.0
 40
-1.0
 40
-1.0
 40
-1.0
 40
-0.5
 40
0.0
 40
0.0
 40
0.0
 40
0.0
 10
792.1647340803698
 20
1746.497075844201
 30
0.0
 10
792.2612550793385
 20
1746.254709683126
 30
0.0
 10
792.4413883054434
 20
1745.766689472842
 30
0.0
 10
792.5957039878834
 20
1745.272093486286
 30
0.0
 10
792.6664074431873
 20
1745.023151548941
 30
0.0
  0
LINE
  5
204
330
169
100
AcDbEntity
  8
P-SANR-FIXT
100
AcDbLine
 10
882.1664074431872
 20
1749.247075844257
 30
0.0
 11
882.1664074431872
 21
1758.397075844257
 31
0.0
  0
LINE
  5
205
330
169
100
AcDbEntity
  8
P-SANR-FIXT
100
AcDbLine
 10
882.1664074431872
 20
1740.097075844257
 30
0.0
 11
882.1664074431872
 21
1749.247075844257
 31
0.0
  0
LINE
  5
206
330
169
100
AcDbEntity
  8
P-SANR-FIXT
100
AcDbLine
 10
880.8664074431872
 20
1759.697075844257
 30
0.0
 11
880.8664074431872
 21
1749.247075844257
 31
0.0
  0
LINE
  5
207
330
169
100
AcDbEntity
  8
P-SANR-FIXT
100
AcDbLine
 10
880.8664074431872
 20
1749.247075844257
 30
0.0
 11
880.8664074431872
 21
1738.797075844257
 31
0.0
  0
LINE
  5
208
330
169
100
AcDbEntity
  8
P-SANR-FIXT
100
AcDbLine
 10
870.9089334992119
 20
1759.697075844257
 30
0.0
 11
870.9089334992119
 21
1749.247075844257
 31
0.0
  0
LINE
  5
209
330
169
100
AcDbEntity
  8
P-SANR-FIXT
100
AcDbLine
 10
870.9089334992119
 20
1749.247075844257
 30
0.0
 11
870.9089334992119
 21
1738.797075844257
 31
0.0
  0
LINE
  5
20A
330
169
100
AcDbEntity
  8
P-SANR-FIXT
100
AcDbLine
 10
870.1664074431873
 20
1759.997075844257
 30
0.0
 11
870.1664074431873
 21
1749.247075844257
 31
0.0
  0
LINE
  5
20B
330
169
100
AcDbEntity
  8
P-SANR-FIXT
100
AcDbLine
 10
855.6664074431873
 20
1749.247075844257
 30
0.0
 11
855.6664074431873
 21
1753.192009303772
 31
0.0
  0
LINE
  5
20C
330
169
100
AcDbEntity
  8
P-SANR-FIXT
100
AcDbLine
 10
855.6664074431873
 20
1753.192009303772
 30
0.0
 11
868.6664074431874
 21
1753.192009303772
 31
0.0
  0
LINE
  5
20D
330
169
100
AcDbEntity
  8
P-SANR-FIXT
100
AcDbLine
 10
868.6664074431874
 20
1753.192009303772
 30
0.0
 11
868.6664074431874
 21
1749.247075844257
 31
0.0
  0
LINE
  5
20E
330
169
100
AcDbEntity
  8
P-SANR-FIXT
100
AcDbLine
 10
868.6664074431874
 20
1759.879796611859
 30
0.0
 11
868.6664074431874
 21
1755.934863152344
 31
0.0
  0
LINE
  5
20F
330
169
100
AcDbEntity
  8
P-SANR-FIXT
100
AcDbLine
 10
868.6664074431874
 20
1755.934863152344
 30
0.0
 11
855.6664074431873
 21
1755.934863152344
 31
0.0
  0
LINE
  5
210
330
169
100
AcDbEntity
  8
P-SANR-FIXT
100
AcDbLine
 10
855.6664074431873
 20
1755.934863152344
 30
0.0
 11
855.6664074431873
 21
1759.879796611859
 31
0.0
  0
LINE
  5
211
330
169
100
AcDbEntity
  8
P-SANR-FIXT
100
AcDbLine
 10
855.6664074431873
 20
1759.879796611859
 30
0.0
 11
868.6664074431874
 21
1759.879796611859
 31
0.0
  0
LINE
  5
212
330
169
100
AcDbEntity
  8
P-SANR-FIXT
100
AcDbLine
 10
870.1664074431873
 20
1749.247075844257
 30
0.0
 11
870.1664074431873
 21
1738.497075844257
 31
0.0
  0
LINE
  5
213
330
169
100
AcDbEntity
  8
P-SANR-FIXT
100
AcDbLine
 10
868.6664074431874
 20
1749.247075844257
 30
0.0
 11
868.6664074431874
 21
1745.302142384742
 31
0.0
  0
LINE
  5
214
330
169
100
AcDbEntity
  8
P-SANR-FIXT
100
AcDbLine
 10
868.6664074431874
 20
1745.302142384742
 30
0.0
 11
855.6664074431873
 21
1745.302142384742
 31
0.0
  0
LINE
  5
215
330
169
100
AcDbEntity
  8
P-SANR-FIXT
100
AcDbLine
 10
855.6664074431873
 20
1745.302142384742
 30
0.0
 11
855.6664074431873
 21
1749.247075844257
 31
0.0
  0
LINE
  5
216
330
169
100
AcDbEntity
  8
P-SANR-FIXT
100
AcDbLine
 10
868.6664074431874
 20
1742.55928853617
 30
0.0
 11
868.6664074431874
 21
1738.614355076655
 31
0.0
  0
LINE
  5
217
330
169
100
AcDbEntity
  8
P-SANR-FIXT
100
AcDbLine
 10
868.6664074431874
 20
1738.614355076655
 30
0.0
 11
855.6664074431873
 21
1738.614355076655
 31
0.0
  0
LINE
  5
218
330
169
100
AcDbEntity
  8
P-SANR-FIXT
100
AcDbLine
 10
855.6664074431873
 20
1738.614355076655
 30
0.0
 11
855.6664074431873
 21
1742.55928853617
 31
0.0
  0
LINE
  5
219
330
169
100
AcDbEntity
  8
P-SANR-FIXT
100
AcDbLine
 10
855.6664074431873
 20
1742.55928853617
 30
0.0
 11
868.6664074431874
 21
1742.55928853617
 31
0.0
  0
LINE
  5
21A
330
169
100
AcDbEntity
  8
P-SANR-FIXT
100
AcDbLine
 10
852.1664074431873
 20
1761.247075844257
 30
0.0
 11
852.1664074431873
 21
1749.247075844257
 31
0.0
  0
LINE
  5
21B
330
169
100
AcDbEntity
  8
P-SANR-FIXT
100
AcDbLine
 10
852.1664074431873
 20
1749.247075844257
 30
0.0
 11
852.1664074431873
 21
1737.247075844257
 31
0.0
  0
LINE
  5
21C
330
169
100
AcDbEntity
  8
P-SANR-FIXT
100
AcDbLine
 10
750.4664074431874
 20
1749.247075844258
 30
0.0
 11
750.4664074431874
 21
1759.697075844258
 31
0.0
  0
LINE
  5
21D
330
169
100
AcDbEntity
  8
P-SANR-FIXT
100
AcDbLine
 10
750.4664074431874
 20
1738.797075844258
 30
0.0
 11
750.4664074431874
 21
1749.247075844258
 31
0.0
  0
LINE
  5
21E
330
169
100
AcDbEntity
  8
P-SANR-FIXT
100
AcDbLine
 10
760.4238813871628
 20
1749.247075844258
 30
0.0
 11
760.4238813871628
 21
1759.697075844258
 31
0.0
  0
LINE
  5
21F
330
169
100
AcDbEntity
  8
P-SANR-FIXT
100
AcDbLine
 10
760.4238813871628
 20
1738.797075844258
 30
0.0
 11
760.4238813871628
 21
1749.247075844258
 31
0.0
  0
LINE
  5
220
330
169
100
AcDbEntity
  8
P-SANR-FIXT
100
AcDbLine
 10
761.1664074431875
 20
1749.247075844258
 30
0.0
 11
761.1664074431875
 21
1759.997075844258
 31
0.0
  0
LINE
  5
221
330
169
100
AcDbEntity
  8
P-SANR-FIXT
100
AcDbLine
 10
761.1664074431875
 20
1738.497075844257
 30
0.0
 11
761.1664074431875
 21
1749.247075844258
 31
0.0
  0
LINE
  5
222
330
169
100
AcDbEntity
  8
P-SANR-FIXT
100
AcDbLine
 10
762.6664074431873
 20
1759.87979661186
 30
0.0
 11
762.6664074431873
 21
1755.934863152345
 31
0.0
  0
LINE
  5
223
330
169
100
AcDbEntity
  8
P-SANR-FIXT
100
AcDbLine
 10
775.6664074431873
 20
1759.87979661186
 30
0.0
 11
762.6664074431873
 21
1759.87979661186
 31
0.0
  0
LINE
  5
224
330
169
100
AcDbEntity
  8
P-SANR-FIXT
100
AcDbLine
 10
775.6664074431873
 20
1755.934863152345
 30
0.0
 11
775.6664074431873
 21
1759.87979661186
 31
0.0
  0
LINE
  5
225
330
169
100
AcDbEntity
  8
P-SANR-FIXT
100
AcDbLine
 10
762.6664074431873
 20
1755.934863152345
 30
0.0
 11
775.6664074431873
 21
1755.934863152345
 31
0.0
  0
LINE
  5
226
330
169
100
AcDbEntity
  8
P-SANR-FIXT
100
AcDbLine
 10
762.6664074431873
 20
1753.192009303772
 30
0.0
 11
762.6664074431873
 21
1749.247075844258
 31
0.0
  0
LINE
  5
227
330
169
100
AcDbEntity
  8
P-SANR-FIXT
100
AcDbLine
 10
775.6664074431873
 20
1753.192009303773
 30
0.0
 11
762.6664074431873
 21
1753.192009303773
 31
0.0
  0
LINE
  5
228
330
169
100
AcDbEntity
  8
P-SANR-FIXT
100
AcDbLine
 10
775.6664074431873
 20
1749.247075844258
 30
0.0
 11
775.6664074431873
 21
1753.192009303772
 31
0.0
  0
LINE
  5
229
330
169
100
AcDbEntity
  8
P-SANR-FIXT
100
AcDbLine
 10
762.6664074431873
 20
1742.559288536171
 30
0.0
 11
762.6664074431873
 21
1738.614355076656
 31
0.0
  0
LINE
  5
22A
330
169
100
AcDbEntity
  8
P-SANR-FIXT
100
AcDbLine
 10
775.6664074431873
 20
1742.559288536171
 30
0.0
 11
762.6664074431873
 21
1742.559288536171
 31
0.0
  0
LINE
  5
22B
330
169
100
AcDbEntity
  8
P-SANR-FIXT
100
AcDbLine
 10
775.6664074431876
 20
1738.614355076656
 30
0.0
 11
775.6664074431873
 21
1742.55928853617
 31
0.0
  0
LINE
  5
22C
330
169
100
AcDbEntity
  8
P-SANR-FIXT
100
AcDbLine
 10
762.6664074431873
 20
1738.614355076656
 30
0.0
 11
775.6664074431873
 21
1738.614355076656
 31
0.0
  0
LINE
  5
22D
330
169
100
AcDbEntity
  8
P-SANR-FIXT
100
AcDbLine
 10
775.6664074431873
 20
1745.302142384742
 30
0.0
 11
775.6664074431873
 21
1749.247075844257
 31
0.0
  0
LINE
  5
22E
330
169
100
AcDbEntity
  8
P-SANR-FIXT
100
AcDbLine
 10
762.6664074431873
 20
1745.302142384742
 30
0.0
 11
775.6664074431873
 21
1745.302142384742
 31
0.0
  0
LINE
  5
22F
330
169
100
AcDbEntity
  8
P-SANR-FIXT
100
AcDbLine
 10
762.6664074431873
 20
1749.247075844258
 30
0.0
 11
762.6664074431873
 21
1745.302142384743
 31
0.0
  0
LINE
  5
230
330
169
100
AcDbEntity
  8
P-SANR-FIXT
100
AcDbLine
 10
779.1664074431874
 20
1749.247075844258
 30
0.0
 11
779.1664074431874
 21
1761.247075844258
 31
0.0
  0
LINE
  5
231
330
169
100
AcDbEntity
  8
P-SANR-FIXT
100
AcDbLine
 10
779.1664074431874
 20
1737.247075844258
 30
0.0
 11
779.1664074431874
 21
1749.247075844258
 31
0.0
  0
LINE
  5
232
330
169
100
AcDbEntity
  8
P-SANR-FIXT
100
AcDbLine
 10
749.1664074431874
 20
1758.397075844258
 30
0.0
 11
749.1664074431874
 21
1749.247075844258
 31
0.0
  0
LINE
  5
233
330
169
100
AcDbEntity
  8
P-SANR-FIXT
100
AcDbLine
 10
749.1664074431874
 20
1749.247075844258
 30
0.0
 11
749.1664074431874
 21
1740.097075844258
 31
0.0
  0
ENDBLK
  5
235
330
169
100
AcDbEntity
  8
0
100
AcDbBlockEnd
  0
BLOCK
  5
2DD
330
237
100
AcDbEntity
  8
0
100
AcDbBlockBegin
  2
Automatic flow rate regulator valve_Caleffi_121 DN15 - 1_2__-V2-Est - Idraulica
 70
     0
 10
0.0
 20
0.0
 30
0.0
  3
Automatic flow rate regulator valve_Caleffi_121 DN15 - 1_2__-V2-Est - Idraulica
  1

  0
LINE
  5
238
330
237
100
AcDbEntity
  8
M-PIPE
100
AcDbLine
 10
1054.363156828916
 20
1993.817665860177
 30
0.0
 11
1054.363156828916
 21
1989.998183850036
 31
0.0
1001
REVIT
1002
{
1070
     3
1000
938184
1002
}
  0
LINE
  5
239
330
237
100
AcDbEntity
  8
M-PIPE
100
AcDbLine
 10
1088.863156828885
 20
1989.998183850035
 30
0.0
 11
1088.863156828885
 21
1993.817665860177
 31
0.0
1001
REVIT
1002
{
1070
     3
1000
938184
1002
}
  0
LWPOLYLINE
  5
23A
330
237
100
AcDbEntity
  8
M-PIPE
100
AcDbPolyline
 90
       15
 70
   128
 43
0.0
 10
1054.363156828902
 20
1993.817665860177
 10
1054.36475661558
 20
1993.897644528551
 10
1054.369553416297
 20
1993.977495248116
 10
1054.377539557194
 20
1994.057090274755
 10
1054.388702262151
 20
1994.136302273406
 10
1054.40302367322
 20
1994.215004521768
 10
1054.420480879198
 20
1994.293071113032
 10
1054.441045952281
 20
1994.370377157306
 10
1054.464685992737
 20
1994.44679898141
 10
1054.491363181546
 20
1994.522214326728
 10
1054.521034840896
 20
1994.596502544794
 10
1054.553653502462
 20
1994.669544790309
 10
1054.589166983344
 20
1994.74122421126
 10
1054.627518469547
 20
1994.811426135865
 10
1054.634682100723
 20
1994.823834391808
1001
REVIT
1002
{
1070
     3
1000
938184
1002
}
  0
LWPOLYLINE
  5
23B
330
237
100
AcDbEntity
  8
M-PIPE
100
AcDbPolyline
 90
       15
 70
   128
 43
0.0
 10
1088.591631557078
 20
1994.823834391808
 10
1088.630484971315
 20
1994.753909010763
 10
1088.666511037535
 20
1994.682485840398
 10
1088.699652121716
 20
1994.60967914255
 10
1088.729855205193
 20
1994.535605392405
 10
1088.757071969476
 20
1994.46038309216
 10
1088.781258873548
 20
1994.38413258145
 10
1088.802377223522
 20
1994.306975844825
 10
1088.820393234542
 20
1994.229036316605
 10
1088.835278084835
 20
1994.15043868341
 10
1088.847007961815
 20
1994.071308684685
 10
1088.855564100182
 20
1993.991772911548
 10
1088.860932811938
 20
1993.911958604271
 10
1088.863105508292
 20
1993.831993448717
 10
1088.863156828898
 20
1993.817665860177
1001
REVIT
1002
{
1070
     3
1000
938184
1002
}
  0
LINE
  5
23C
330
237
100
AcDbEntity
  8
M-PIPE
100
AcDbLine
 10
1055.257974585578
 20
1995.588992345099
 30
0.0
 11
1054.634682100723
 21
1994.823834391808
 31
0.0
1001
REVIT
1002
{
1070
     3
1000
938184
1002
}
  0
LINE
  5
23D
330
237
100
AcDbEntity
  8
M-PIPE
100
AcDbLine
 10
1088.591631557078
 20
1994.823834391808
 30
0.0
 11
1087.968339072222
 21
1995.588992345098
 31
0.0
1001
REVIT
1002
{
1070
     3
1000
938184
1002
}
  0
LWPOLYLINE
  5
23E
330
237
100
AcDbEntity
  8
M-PIPE
100
AcDbPolyline
 90
       12
 70
   128
 43
0.0
 10
1055.257974585578
 20
1995.588992345099
 10
1055.30215852008
 20
1995.655677625664
 10
1055.343640412178
 20
1995.724076451239
 10
1055.382353899693
 20
1995.794079398296
 10
1055.418237049304
 20
1995.865574477052
 10
1055.451232455624
 20
1995.938447310631
 10
1055.481287333044
 20
1996.012581318046
 10
1055.508353600171
 20
1996.0878579007
 10
1055.53238795675
 20
1996.164156632118
 10
1055.55335195294
 20
1996.241355450606
 10
1055.571212050816
 20
1996.319330854523
 10
1055.581079322898
 20
1996.370021355198
1001
REVIT
1002
{
1070
     3
1000
938184
1002
}
  0
LWPOLYLINE
  5
23F
330
237
100
AcDbEntity
  8
M-PIPE
100
AcDbPolyline
 90
       12
 70
   128
 43
0.0
 10
1087.645234334903
 20
1996.370021355198
 10
1087.661075246173
 20
1996.291610818646
 10
1087.680039071554
 20
1996.213896469656
 10
1087.70209547297
 20
1996.137002634605
 10
1087.727209164885
 20
1996.061052327229
 10
1087.755339970748
 20
1995.986167051815
 10
1087.786442887271
 20
1995.912466608832
 10
1087.820468156422
 20
1995.840068903265
 10
1087.857361345029
 20
1995.769089755999
 10
1087.897063431861
 20
1995.699642718529
 10
1087.939510902047
 20
1995.6318388913
 10
1087.968339072222
 20
1995.588992345098
1001
REVIT
1002
{
1070
     3
1000
938184
1002
}
  0
LWPOLYLINE
  5
240
330
237
100
AcDbEntity
  8
M-PIPE
100
AcDbPolyline
 90
        3
 70
   128
 43
0.0
 10
1058.29857523364
 20
2018.379801840787
 10
1056.131807249082
 20
2005.392632780544
 10
1055.581079322898
 20
1996.370021355198
1001
REVIT
1002
{
1070
     3
1000
938184
1002
}
  0
LWPOLYLINE
  5
241
330
237
100
AcDbEntity
  8
M-PIPE
100
AcDbPolyline
 90
        3
 70
   128
 43
0.0
 10
1084.927738424161
 20
2018.379801840787
 10
1087.094506408718
 20
2005.392632780543
 10
1087.645234334903
 20
1996.370021355198
1001
REVIT
1002
{
1070
     3
1000
938184
1002
}
  0
LWPOLYLINE
  5
242
330
237
100
AcDbEntity
  8
M-PIPE
100
AcDbPolyline
 90
       36
 70
   128
 43
0.0
 10
1058.29857523364
 20
2018.379801840787
 10
1058.315406277094
 20
2018.45800582207
 10
1058.335351182652
 20
2018.535474186287
 10
1058.358378042718
 20
2018.612083000582
 10
1058.384450019228
 20
2018.687709707194
 10
1058.413525402583
 20
2018.762233319526
 10
1058.44555767837
 20
2018.835534615695
 10
1058.480495601782
 20
2018.907496329264
 10
1058.518283279594
 20
2018.978003336843
 10
1058.558860259583
 20
2019.046942842261
 10
1058.602161627236
 20
2019.114204557014
 10
1058.648118109603
 20
2019.179680876707
 10
1058.696656186116
 20
2019.243267053197
 10
1058.747698206206
 20
2019.304861362165
 10
1058.80116251353
 20
2019.364365265857
 10
1058.8569635766
 20
2019.421683570721
 10
1058.91501212562
 20
2019.476724579694
 10
1058.975215295294
 20
2019.529400238906
 10
1059.037476773393
 20
2019.579626278538
 10
1059.101696954835
 20
2019.62732234764
 10
1059.167773101028
 20
2019.672412142677
 10
1059.235599504233
 20
2019.714823529596
 10
1059.305067656676
 20
2019.754488659224
 10
1059.37606642413
 20
2019.791344075816
 10
1059.448482223714
 20
2019.825330818567
 10
1059.522199205595
 20
2019.856394515939
 10
1059.597099438329
 20
2019.884485472643
 10
1059.673063097522
 20
2019.90955874914
 10
1059.749968657522
 20
2019.931574233536
 10
1059.82769308584
 20
2019.950496705754
 10
1059.906112039971
 20
2019.966295893874
 10
1059.985100066316
 20
2019.978946522565
 10
1060.064530800883
 20
2019.98842835352
 10
1060.144277171442
 20
2019.994726217833
 10
1060.22421160081
 20
2019.997830040264
 10
1060.261829600536
 20
2019.998183850034
1001
REVIT
1002
{
1070
     3
1000
938184
1002
}
  0
LWPOLYLINE
  5
243
330
237
100
AcDbEntity
  8
M-PIPE
100
AcDbPolyline
 90
       41
 70
   128
 43
0.0
 10
1071.6131568289
 20
2019.998183850034
 10
1071.159224810903
 20
2019.998183850034
 10
1070.706018987302
 20
2019.998183850034
 10
1070.254264390734
 20
2019.998183850034
 10
1069.804683732185
 20
2019.998183850034
 10
1069.357996244805
 20
2019.998183850034
 10
1068.914916533284
 20
2019.998183850034
 10
1068.476153430642
 20
2019.998183850034
 10
1068.042408864245
 20
2019.998183850034
 10
1067.614376732873
 20
2019.998183850034
 10
1067.192741796627
 20
2019.998183850034
 10
1066.778178581461
 20
2019.998183850034
 10
1066.371350300084
 20
2019.998183850034
 10
1065.972907790961
 20
2019.998183850034
 10
1065.583488477109
 20
2019.998183850034
 10
1065.20371534636
 20
2019.998183850034
 10
1064.834195954708
 20
2019.998183850034
 10
1064.475521454353
 20
2019.998183850034
 10
1064.128265647984
 20
2019.998183850034
 10
1063.792984070812
 20
2019.998183850034
 10
1063.470213101839
 20
2019.998183850034
 10
1063.16046910576
 20
2019.998183850034
 10
1062.864247606895
 20
2019.998183850034
 10
1062.58202249645
 20
2019.998183850034
 10
1062.314245274398
 20
2019.998183850034
 10
1062.061344327172
 20
2019.998183850034
 10
1061.823724242336
 20
2019.998183850034
 10
1061.601765161338
 20
2019.998183850034
 10
1061.395822171359
 20
2019.998183850034
 10
1061.206224737249
 20
2019.998183850034
 10
1061.03327617446
 20
2019.998183850034
 10
1060.877253163797
 20
2019.998183850034
 10
1060.738405308794
 20
2019.998183850034
 10
1060.616954736399
 20
2019.998183850034
 10
1060.513095741622
 20
2019.998183850034
 10
1060.426994476697
 20
2019.998183850034
 10
1060.358788685282
 20
2019.998183850034
 10
1060.308587482093
 20
2019.998183850034
 10
1060.276471178346
 20
2019.998183850034
 10
1060.262491153276
 20
2019.998183850034
 10
1060.261829600535
 20
2019.998183850034
1001
REVIT
1002
{
1070
     3
1000
938184
1002
}
  0
LWPOLYLINE
  5
244
330
237
100
AcDbEntity
  8
M-PIPE
100
AcDbPolyline
 90
       23
 70
   128
 43
0.0
 10
1060.261829600535
 20
2019.998183850034
 10
1060.270909451574
 20
2019.998183850034
 10
1060.298134478867
 20
2019.998183850034
 10
1060.343461128176
 20
2019.998183850034
 10
1060.406816886534
 20
2019.998183850034
 10
1060.488100398241
 20
2019.998183850034
 10
1060.587181627018
 20
2019.998183850034
 10
1060.703902064035
 20
2019.998183850034
 10
1060.838074981493
 20
2019.998183850034
 10
1060.989485731345
 20
2019.998183850034
 10
1061.157892088691
 20
2019.998183850034
 10
1061.343024639283
 20
2019.998183850034
 10
1061.544587210534
 20
2019.998183850034
 10
1061.762257345328
 20
2019.998183850034
 10
1061.995686817882
 20
2019.998183850034
 10
1062.244502190837
 20
2019.998183850034
 10
1062.508305412672
 20
2019.998183850034
 10
1062.786674454509
 20
2019.998183850034
 10
1063.079163985262
 20
2019.998183850034
 10
1063.385306084077
 20
2019.998183850034
 10
1063.704610988903
 20
2019.998183850034
 10
1064.036567880006
 20
2019.998183850034
 10
1064.28374978773
 20
2019.998183850034
1001
REVIT
1002
{
1070
     3
1000
938184
1002
}
  0
LWPOLYLINE
  5
245
330
237
100
AcDbEntity
  8
M-PIPE
100
AcDbPolyline
 90
       36
 70
   128
 43
0.0
 10
1082.964484057264
 20
2019.998183850034
 10
1083.044462725638
 20
2019.996584063356
 10
1083.124313445203
 20
2019.99178726264
 10
1083.203908471843
 20
2019.983801121742
 10
1083.283120470494
 20
2019.972638416786
 10
1083.361822718855
 20
2019.958317005717
 10
1083.439889310119
 20
2019.940859799739
 10
1083.517195354393
 20
2019.920294726656
 10
1083.593617178497
 20
2019.896654686199
 10
1083.669032523815
 20
2019.86997749739
 10
1083.743320741882
 20
2019.84030583804
 10
1083.816362987397
 20
2019.807687176474
 10
1083.888042408348
 20
2019.772173695594
 10
1083.958244332952
 20
2019.73382220939
 10
1084.026856453107
 20
2019.692694072062
 10
1084.093769004055
 20
2019.648855079854
 10
1084.15887493999
 20
2019.602375365804
 10
1084.222070105302
 20
2019.553329287537
 10
1084.283253401208
 20
2019.501795308316
 10
1084.342326947486
 20
2019.447855871517
 10
1084.399196239064
 20
2019.391597268729
 10
1084.453770297207
 20
2019.333109501717
 10
1084.505961815063
 20
2019.272486138432
 10
1084.555687297338
 20
2019.209824163322
 10
1084.602867193867
 20
2019.14522382218
 10
1084.647426026881
 20
2019.078788461771
 10
1084.689292511752
 20
2019.010624364501
 10
1084.728399671035
 20
2018.940840578383
 10
1084.764684941619
 20
2018.869548742589
 10
1084.798090274809
 20
2018.796862908848
 10
1084.8285622292
 20
2018.722899358989
 10
1084.856052056164
 20
2018.647776418912
 10
1084.880515777844
 20
2018.571614269299
 10
1084.901914257502
 20
2018.49453475334
 10
1084.920213262136
 20
2018.416661181818
 10
1084.927738424161
 20
2018.379801840787
1001
REVIT
1002
{
1070
     3
1000
938184
1002
}
  0
LWPOLYLINE
  5
246
330
237
100
AcDbEntity
  8
M-PIPE
100
AcDbPolyline
 90
       24
 70
   128
 43
0.0
 10
1078.942563870104
 20
2019.998183850034
 10
1079.098048009817
 20
2019.998183850034
 10
1079.433329586989
 20
2019.998183850034
 10
1079.756100555962
 20
2019.998183850034
 10
1080.065844552041
 20
2019.998183850034
 10
1080.362066050906
 20
2019.998183850034
 10
1080.644291161351
 20
2019.998183850034
 10
1080.912068383403
 20
2019.998183850034
 10
1081.16496933063
 20
2019.998183850034
 10
1081.402589415465
 20
2019.998183850034
 10
1081.624548496463
 20
2019.998183850034
 10
1081.830491486442
 20
2019.998183850034
 10
1082.020088920551
 20
2019.998183850034
 10
1082.193037483341
 20
2019.998183850034
 10
1082.349060494004
 20
2019.998183850034
 10
1082.487908349007
 20
2019.998183850034
 10
1082.609358921402
 20
2019.998183850034
 10
1082.713217916179
 20
2019.998183850034
 10
1082.799319181104
 20
2019.998183850034
 10
1082.867524972519
 20
2019.998183850034
 10
1082.917726175708
 20
2019.998183850034
 10
1082.949842479455
 20
2019.998183850034
 10
1082.963822504525
 20
2019.998183850034
 10
1082.964484057266
 20
2019.998183850034
1001
REVIT
1002
{
1070
     3
1000
938184
1002
}
  0
LWPOLYLINE
  5
247
330
237
100
AcDbEntity
  8
M-PIPE
100
AcDbPolyline
 90
       41
 70
   128
 43
0.0
 10
1082.964484057266
 20
2019.998183850034
 10
1082.955404206227
 20
2019.998183850034
 10
1082.928179178934
 20
2019.998183850034
 10
1082.882852529625
 20
2019.998183850034
 10
1082.819496771267
 20
2019.998183850034
 10
1082.738213259561
 20
2019.998183850034
 10
1082.639132030783
 20
2019.998183850034
 10
1082.522411593766
 20
2019.998183850034
 10
1082.388238676308
 20
2019.998183850034
 10
1082.236827926457
 20
2019.998183850034
 10
1082.06842156911
 20
2019.998183850034
 10
1081.883289018518
 20
2019.998183850034
 10
1081.681726447267
 20
2019.998183850034
 10
1081.464056312473
 20
2019.998183850034
 10
1081.230626839919
 20
2019.998183850034
 10
1080.981811466964
 20
2019.998183850034
 10
1080.718008245129
 20
2019.998183850034
 10
1080.439639203292
 20
2019.998183850034
 10
1080.147149672538
 20
2019.998183850034
 10
1079.841007573723
 20
2019.998183850034
 10
1079.521702668897
 20
2019.998183850034
 10
1079.189745777794
 20
2019.998183850034
 10
1078.845667960626
 20
2019.998183850034
 10
1078.4900196685
 20
2019.998183850034
 10
1078.123369862816
 20
2019.998183850034
 10
1077.74630510505
 20
2019.998183850034
 10
1077.359428618377
 20
2019.998183850034
 10
1076.963359322647
 20
2019.998183850034
 10
1076.558730844242
 20
2019.998183850034
 10
1076.146190502412
 20
2019.998183850034
 10
1075.726398273701
 20
2019.998183850034
 10
1075.300025736122
 20
2019.998183850034
 10
1074.867754994782
 20
2019.998183850034
 10
1074.430277590654
 20
2019.998183850034
 10
1073.98829339426
 20
2019.998183850034
 10
1073.542509486031
 20
2019.998183850034
 10
1073.093639025124
 20
2019.998183850034
 10
1072.642400108522
 20
2019.998183850034
 10
1072.189514622233
 20
2019.998183850034
 10
1071.735707086425
 20
2019.998183850034
 10
1071.6131568289
 20
2019.998183850034
1001
REVIT
1002
{
1070
     3
1000
938184
1002
}
  0
LINE
  5
248
330
237
100
AcDbEntity
  8
M-PIPE
100
AcDbLine
 10
1054.363156828914
 20
1989.998183850034
 30
0.0
 11
1071.613156828898
 21
1989.998183850034
 31
0.0
1001
REVIT
1002
{
1070
     3
1000
938184
1002
}
  0
LINE
  5
249
330
237
100
AcDbEntity
  8
M-PIPE
100
AcDbLine
 10
1071.613156828898
 20
1989.998183850034
 30
0.0
 11
1088.863156828883
 21
1989.998183850034
 31
0.0
1001
REVIT
1002
{
1070
     3
1000
938184
1002
}
  0
LINE
  5
24A
330
237
100
AcDbEntity
  8
M-PIPE
100
AcDbLine
 10
1071.613156828898
 20
1994.823834391807
 30
0.0
 11
1054.634682100721
 21
1994.823834391807
 31
0.0
1001
REVIT
1002
{
1070
     3
1000
938184
1002
}
  0
LINE
  5
24B
330
237
100
AcDbEntity
  8
M-PIPE
100
AcDbLine
 10
1088.591631557076
 20
1994.823834391806
 30
0.0
 11
1071.613156828898
 21
1994.823834391807
 31
0.0
1001
REVIT
1002
{
1070
     3
1000
938184
1002
}
  0
LINE
  5
24C
330
237
100
AcDbEntity
  8
M-PIPE
100
AcDbLine
 10
1071.613156828898
 20
1995.588992345098
 30
0.0
 11
1055.257974585576
 21
1995.588992345098
 31
0.0
1001
REVIT
1002
{
1070
     3
1000
938184
1002
}
  0
LINE
  5
24D
330
237
100
AcDbEntity
  8
M-PIPE
100
AcDbLine
 10
1087.968339072221
 20
1995.588992345097
 30
0.0
 11
1071.613156828898
 21
1995.588992345098
 31
0.0
1001
REVIT
1002
{
1070
     3
1000
938184
1002
}
  0
LINE
  5
24E
330
237
100
AcDbEntity
  8
M-PIPE
100
AcDbLine
 10
1071.613156828898
 20
1996.370021355197
 30
0.0
 11
1055.581079322896
 21
1996.370021355197
 31
0.0
1001
REVIT
1002
{
1070
     3
1000
938184
1002
}
  0
LINE
  5
24F
330
237
100
AcDbEntity
  8
M-PIPE
100
AcDbLine
 10
1087.645234334901
 20
1996.370021355197
 30
0.0
 11
1071.613156828898
 21
1996.370021355197
 31
0.0
1001
REVIT
1002
{
1070
     3
1000
938184
1002
}
  0
LINE
  5
250
330
237
100
AcDbEntity
  8
M-PIPE
100
AcDbLine
 10
1071.613156828898
 20
2018.379801840787
 30
0.0
 11
1058.298575233638
 21
2018.379801840787
 31
0.0
1001
REVIT
1002
{
1070
     3
1000
938184
1002
}
  0
LINE
  5
251
330
237
100
AcDbEntity
  8
M-PIPE
100
AcDbLine
 10
1084.927738424159
 20
2018.379801840786
 30
0.0
 11
1071.613156828898
 21
2018.379801840787
 31
0.0
1001
REVIT
1002
{
1070
     3
1000
938184
1002
}
  0
LINE
  5
252
330
237
100
AcDbEntity
  8
P-SANR-FIXT
100
AcDbLine
 10
1054.863156828901
 20
1989.998183850036
 30
0.0
 11
1054.863156828901
 21
1989.698183850012
 31
0.0
  0
LINE
  5
253
330
237
100
AcDbEntity
  8
P-SANR-FIXT
100
AcDbLine
 10
1088.3631568289
 20
1989.698183850012
 30
0.0
 11
1088.3631568289
 21
1989.998183850035
 31
0.0
  0
LINE
  5
254
330
237
100
AcDbEntity
  8
P-SANR-FIXT
100
AcDbLine
 10
1061.163156828901
 20
1934.498183850012
 30
0.0
 11
1061.163156828901
 21
1923.798183850012
 31
0.0
  0
LINE
  5
255
330
237
100
AcDbEntity
  8
P-SANR-FIXT
100
AcDbLine
 10
1082.063156828901
 20
1923.798183850012
 30
0.0
 11
1082.063156828901
 21
1934.498183850012
 31
0.0
  0
LWPOLYLINE
  5
256
330
237
100
AcDbEntity
  8
P-SANR-FIXT
100
AcDbPolyline
 90
       41
 70
   128
 43
0.0
 10
1059.613156828901
 20
1934.498183850012
 10
1059.533178160528
 20
1934.49978363669
 10
1059.453327440962
 20
1934.504580437407
 10
1059.373732414323
 20
1934.512566578305
 10
1059.294520415672
 20
1934.523729283261
 10
1059.215818167311
 20
1934.53805069433
 10
1059.137751576046
 20
1934.555507900308
 10
1059.060445531772
 20
1934.57607297339
 10
1058.984023707669
 20
1934.599713013847
 10
1058.908608362351
 20
1934.626390202656
 10
1058.834320144284
 20
1934.656061862006
 10
1058.761277898769
 20
1934.688680523572
 10
1058.689598477817
 20
1934.724194004454
 10
1058.619396553213
 20
1934.762545490657
 10
1058.550784433059
 20
1934.803673627985
 10
1058.483871882111
 20
1934.847512620193
 10
1058.418765946176
 20
1934.893992334244
 10
1058.355570780864
 20
1934.94303841251
 10
1058.294387484958
 20
1934.99457239173
 10
1058.23531393868
 20
1935.04851182853
 10
1058.178444647102
 20
1935.104770431317
 10
1058.123870588959
 20
1935.163258198329
 10
1058.071679071103
 20
1935.223881561615
 10
1058.021953588828
 20
1935.286543536725
 10
1057.974773692299
 20
1935.351143877867
 10
1057.930214859285
 20
1935.417579238276
 10
1057.888348374414
 20
1935.485743335546
 10
1057.849241215131
 20
1935.555527121665
 10
1057.812955944548
 20
1935.626818957459
 10
1057.779550611357
 20
1935.6995047912
 10
1057.749078656966
 20
1935.773468341059
 10
1057.721588830002
 20
1935.848591281135
 10
1057.697125108322
 20
1935.924753430748
 10
1057.675726628664
 20
1936.001832946707
 10
1057.65742762403
 20
1936.079706518229
 10
1057.642257368923
 20
1936.158249564211
 10
1057.630240132517
 20
1936.237336432536
 10
1057.621395139825
 20
1936.316840601083
 10
1057.615736540949
 20
1936.396634880145
 10
1057.613273388441
 20
1936.476591615895
 10
1057.613156828901
 20
1936.498183850012
  0
LWPOLYLINE
  5
257
330
237
100
AcDbEntity
  8
P-SANR-FIXT
100
AcDbPolyline
 90
       15
 70
   128
 43
0.0
 10
1061.1631568289
 20
1934.498183850012
 10
1061.029663146281
 20
1934.498183850012
 10
1060.811951522783
 20
1934.498183850012
 10
1060.611519523639
 20
1934.498183850012
 10
1060.428687797294
 20
1934.498183850012
 10
1060.263748835506
 20
1934.498183850012
 10
1060.11696650543
 20
1934.498183850012
 10
1059.988575627482
 20
1934.498183850012
 10
1059.878781599677
 20
1934.498183850012
 10
1059.787760069039
 20
1934.498183850012
 10
1059.7156566506
 20
1934.498183850012
 10
1059.662586694449
 20
1934.498183850012
 10
1059.628635101194
 20
1934.498183850012
 10
1059.613856186141
 20
1934.498183850012
 10
1059.613156828901
 20
1934.498183850012
  0
LWPOLYLINE
  5
258
330
237
100
AcDbEntity
  8
P-SANR-FIXT
100
AcDbPolyline
 90
       41
 70
   128
 43
0.0
 10
1059.613156828901
 20
1934.498183850012
 10
1059.622755548969
 20
1934.498183850012
 10
1059.651536353269
 20
1934.498183850012
 10
1059.699453198654
 20
1934.498183850012
 10
1059.766429428393
 20
1934.498183850012
 10
1059.852357894806
 20
1934.498183850012
 10
1059.957101130676
 20
1934.498183850012
 10
1060.080491569172
 20
1934.498183850012
 10
1060.222331811911
 20
1934.498183850012
 10
1060.382394944766
 20
1934.498183850012
 10
1060.560424900866
 20
1934.498183850012
 10
1060.756136870261
 20
1934.498183850012
 10
1060.969217755549
 20
1934.498183850012
 10
1061.199326672769
 20
1934.498183850012
 10
1061.44609549674
 20
1934.498183850012
 10
1061.709129449984
 20
1934.498183850012
 10
1061.988007734289
 20
1934.498183850012
 10
1062.28228420389
 20
1934.498183850012
 10
1062.59148807921
 20
1934.498183850012
 10
1062.915124700009
 20
1934.498183850012
 10
1063.252676316735
 20
1934.498183850012
 10
1063.603602918805
 20
1934.498183850012
 10
1063.967343098517
 20
1934.498183850012
 10
1064.343314949179
 20
1934.498183850012
 10
1064.730916996031
 20
1934.498183850012
 10
1065.129529158483
 20
1934.498183850012
 10
1065.538513742107
 20
1934.498183850012
 10
1065.957216458816
 20
1934.498183850012
 10
1066.38496747358
 20
1934.498183850012
 10
1066.821082476026
 20
1934.498183850012
 10
1067.26486377518
 20
1934.498183850012
 10
1067.715601415635
 20
1934.498183850012
 10
1068.172574313317
 20
1934.498183850012
 10
1068.635051409072
 20
1934.498183850012
 10
1069.102292838204
 20
1934.498183850012
 10
1069.573551114098
 20
1934.498183850012
 10
1070.048072324043
 20
1934.498183850012
 10
1070.525097335329
 20
1934.498183850012
 10
1071.003863009698
 20
1934.498183850012
 10
1071.483603424201
 20
1934.498183850012
 10
1071.6131568289
 20
1934.498183850012
  0
LWPOLYLINE
  5
259
330
237
100
AcDbEntity
  8
P-SANR-FIXT
100
AcDbPolyline
 90
       41
 70
   128
 43
0.0
 10
1085.613156828901
 20
1936.498183850012
 10
1085.611557042223
 20
1936.418205181639
 10
1085.606760241506
 20
1936.338354462074
 10
1085.598774100608
 20
1936.258759435434
 10
1085.587611395652
 20
1936.179547436784
 10
1085.573289984583
 20
1936.100845188422
 10
1085.555832778605
 20
1936.022778597157
 10
1085.535267705522
 20
1935.945472552884
 10
1085.511627665066
 20
1935.869050728779
 10
1085.484950476256
 20
1935.793635383462
 10
1085.455278816906
 20
1935.719347165395
 10
1085.42266015534
 20
1935.646304919879
 10
1085.387146674459
 20
1935.574625498929
 10
1085.348795188256
 20
1935.504423574325
 10
1085.307667050927
 20
1935.43581145417
 10
1085.26382805872
 20
1935.368898903222
 10
1085.217348344669
 20
1935.303792967287
 10
1085.168302266402
 20
1935.240597801975
 10
1085.116768287182
 20
1935.179414506069
 10
1085.062828850382
 20
1935.120340959791
 10
1085.006570247595
 20
1935.063471668213
 10
1084.948082480583
 20
1935.008897610071
 10
1084.887459117298
 20
1934.956706092214
 10
1084.824797142188
 20
1934.906980609939
 10
1084.760196801045
 20
1934.85980071341
 10
1084.693761440637
 20
1934.815241880396
 10
1084.625597343366
 20
1934.773375395525
 10
1084.555813557248
 20
1934.734268236242
 10
1084.484521721454
 20
1934.697982965659
 10
1084.411835887713
 20
1934.664577632469
 10
1084.337872337854
 20
1934.634105678077
 10
1084.262749397778
 20
1934.606615851113
 10
1084.186587248164
 20
1934.582152129434
 10
1084.109507732206
 20
1934.560753649776
 10
1084.031634160684
 20
1934.542454645141
 10
1083.953091114701
 20
1934.527284390035
 10
1083.874004246377
 20
1934.515267153629
 10
1083.794500077829
 20
1934.506422160937
 10
1083.714705798768
 20
1934.500763562061
 10
1083.634749063017
 20
1934.498300409552
 10
1083.6131568289
 20
1934.498183850012
  0
LWPOLYLINE
  5
25A
330
237
100
AcDbEntity
  8
P-SANR-FIXT
100
AcDbPolyline
 90
       41
 70
   128
 43
0.0
 10
1071.6131568289
 20
1934.498183850012
 10
1072.09302883914
 20
1934.498183850012
 10
1072.572133156531
 20
1934.498183850012
 10
1073.049703316368
 20
1934.498183850012
 10
1073.524975308271
 20
1934.498183850012
 10
1073.997188798441
 20
1934.498183850012
 10
1074.465588346026
 20
1934.498183850012
 10
1074.92942461167
 20
1934.498183850012
 10
1075.387955556294
 20
1934.498183850012
 10
1075.840447628201
 20
1934.498183850012
 10
1076.286176936604
 20
1934.498183850012
 10
1076.724430409692
 20
1934.498183850012
 10
1077.154506935398
 20
1934.498183850012
 10
1077.575718483025
 20
1934.498183850012
 10
1077.987391203951
 20
1934.498183850012
 10
1078.388866509641
 20
1934.498183850012
 10
1078.779502125249
 20
1934.498183850012
 10
1079.158673117122
 20
1934.498183850012
 10
1079.525772892558
 20
1934.498183850012
 10
1079.880214170227
 20
1934.498183850012
 10
1080.221429919695
 20
1934.498183850012
 10
1080.548874268551
 20
1934.498183850012
 10
1080.862023375688
 20
1934.498183850012
 10
1081.160376269337
 20
1934.498183850012
 10
1081.443455648513
 20
1934.498183850012
 10
1081.710808646595
 20
1934.498183850012
 10
1081.962007555821
 20
1934.498183850012
 10
1082.19665051152
 20
1934.498183850012
 10
1082.414362135019
 20
1934.498183850012
 10
1082.614794134162
 20
1934.498183850012
 10
1082.797625860507
 20
1934.498183850012
 10
1082.962564822295
 20
1934.498183850012
 10
1083.109347152371
 20
1934.498183850012
 10
1083.237738030319
 20
1934.498183850012
 10
1083.347532058124
 20
1934.498183850012
 10
1083.438553588762
 20
1934.498183850012
 10
1083.510657007201
 20
1934.498183850012
 10
1083.563726963352
 20
1934.498183850012
 10
1083.597678556608
 20
1934.498183850012
 10
1083.61245747166
 20
1934.498183850012
 10
1083.6131568289
 20
1934.498183850012
  0
LWPOLYLINE
  5
25B
330
237
100
AcDbEntity
  8
P-SANR-FIXT
100
AcDbPolyline
 90
       14
 70
   128
 43
0.0
 10
1083.6131568289
 20
1934.498183850012
 10
1083.603558108832
 20
1934.498183850012
 10
1083.574777304532
 20
1934.498183850012
 10
1083.526860459147
 20
1934.498183850012
 10
1083.459884229408
 20
1934.498183850012
 10
1083.373955762995
 20
1934.498183850012
 10
1083.269212527125
 20
1934.498183850012
 10
1083.14582208863
 20
1934.498183850012
 10
1083.00398184589
 20
1934.498183850012
 10
1082.843918713036
 20
1934.498183850012
 10
1082.665888756935
 20
1934.498183850012
 10
1082.47017678754
 20
1934.498183850012
 10
1082.257095902252
 20
1934.498183850012
 10
1082.0631568289
 20
1934.498183850012
  0
LINE
  5
25C
330
237
100
AcDbEntity
  8
P-SANR-FIXT
100
AcDbLine
 10
1061.163156828901
 20
1923.798183850012
 30
0.0
 11
1062.463156828901
 21
1922.498183850012
 31
0.0
  0
LINE
  5
25D
330
237
100
AcDbEntity
  8
P-SANR-FIXT
100
AcDbLine
 10
1080.763156828901
 20
1922.498183850012
 30
0.0
 11
1082.063156828901
 21
1923.798183850012
 31
0.0
  0
LINE
  5
25E
330
237
100
AcDbEntity
  8
P-SANR-FIXT
100
AcDbLine
 10
1054.113156828901
 20
1989.198183850012
 30
0.0
 11
1054.113156828901
 21
1985.120711077184
 31
0.0
  0
LINE
  5
25F
330
237
100
AcDbEntity
  8
P-SANR-FIXT
100
AcDbLine
 10
1089.113156828901
 20
1985.120711077184
 30
0.0
 11
1089.113156828901
 21
1989.198183850012
 31
0.0
  0
LWPOLYLINE
  5
260
330
237
100
AcDbEntity
  8
P-SANR-FIXT
100
AcDbPolyline
 90
       25
 70
   128
 43
0.0
 10
1053.3166397054
 20
1983.523329167317
 10
1053.379555286481
 20
1983.572733381403
 10
1053.44044490018
 20
1983.624614029584
 10
1053.499211136105
 20
1983.678888113891
 10
1053.555759980815
 20
1983.735468807368
 10
1053.61000096822
 20
1983.794265592973
 10
1053.661847324312
 20
1983.855184408393
 10
1053.71121610598
 20
1983.918127796518
 10
1053.758028333707
 20
1983.982995061355
 10
1053.802209117914
 20
1984.049682429117
 10
1053.84368777877
 20
1984.118083214243
 10
1053.882397959266
 20
1984.188087990067
 10
1053.918277731371
 20
1984.259584763881
 10
1053.951269695104
 20
1984.332459156099
 10
1053.981321070362
 20
1984.40659458324
 10
1054.008383781354
 20
1984.481872444433
 10
1054.032414533515
 20
1984.558172311162
 10
1054.053374882768
 20
1984.635372119914
 10
1054.071231297027
 20
1984.713348367464
 10
1054.085955209837
 20
1984.79197630845
 10
1054.097523066078
 20
1984.871130154941
 10
1054.10591635965
 20
1984.950683277665
 10
1054.11112166307
 20
1985.030508408598
 10
1054.113130648967
 20
1985.110477844558
 10
1054.113156828901
 20
1985.120711077184
  0
LWPOLYLINE
  5
261
330
237
100
AcDbEntity
  8
P-SANR-FIXT
100
AcDbPolyline
 90
       25
 70
   128
 43
0.0
 10
1089.113156828901
 20
1985.120711077184
 10
1089.114756615579
 20
1985.040732408811
 10
1089.119553416295
 20
1984.960881689246
 10
1089.127539557193
 20
1984.881286662607
 10
1089.138702262149
 20
1984.802074663956
 10
1089.153023673218
 20
1984.723372415594
 10
1089.170480879197
 20
1984.64530582433
 10
1089.191045952279
 20
1984.567999780056
 10
1089.214685992736
 20
1984.491577955952
 10
1089.241363181544
 20
1984.416162610634
 10
1089.271034840895
 20
1984.341874392567
 10
1089.303653502461
 20
1984.268832147053
 10
1089.339166983342
 20
1984.197152726101
 10
1089.377518469545
 20
1984.126950801497
 10
1089.418646606874
 20
1984.058338681343
 10
1089.462485599081
 20
1983.991426130394
 10
1089.508965313132
 20
1983.926320194459
 10
1089.558011391399
 20
1983.863125029148
 10
1089.609545370619
 20
1983.801941733241
 10
1089.663484807419
 20
1983.742868186963
 10
1089.719743410206
 20
1983.685998895385
 10
1089.778231177218
 20
1983.631424837243
 10
1089.838854540503
 20
1983.579233319386
 10
1089.901516515614
 20
1983.529507837111
 10
1089.909673952401
 20
1983.523329167317
  0
LWPOLYLINE
  5
262
330
237
100
AcDbEntity
  8
P-SANR-FIXT
100
AcDbPolyline
 90
       31
 70
   128
 43
0.0
 10
1052.113156828901
 20
1981.688782773253
 10
1052.114756615579
 20
1981.768761441627
 10
1052.119553416295
 20
1981.848612161192
 10
1052.127539557193
 20
1981.928207187831
 10
1052.138702262149
 20
1982.007419186482
 10
1052.153023673218
 20
1982.086121434844
 10
1052.170480879197
 20
1982.164188026108
 10
1052.191045952279
 20
1982.241494070382
 10
1052.214685992736
 20
1982.317915894486
 10
1052.241363181545
 20
1982.393331239804
 10
1052.271034840895
 20
1982.467619457871
 10
1052.303653502461
 20
1982.540661703385
 10
1052.339166983342
 20
1982.612341124336
 10
1052.377518469545
 20
1982.682543048941
 10
1052.418646606874
 20
1982.751155169095
 10
1052.462485599081
 20
1982.818067720043
 10
1052.508965313132
 20
1982.883173655978
 10
1052.558011391399
 20
1982.946368821291
 10
1052.609545370619
 20
1983.007552117197
 10
1052.663484807419
 20
1983.066625663474
 10
1052.719743410206
 20
1983.123494955053
 10
1052.778231177218
 20
1983.178069013195
 10
1052.838854540503
 20
1983.230260531051
 10
1052.901516515614
 20
1983.279986013326
 10
1052.966116856756
 20
1983.327165909855
 10
1053.032552217164
 20
1983.371724742869
 10
1053.100716314435
 20
1983.41359122774
 10
1053.170500100553
 20
1983.452698387023
 10
1053.241791936347
 20
1983.488983657607
 10
1053.314477770088
 20
1983.522388990797
 10
1053.3166397054
 20
1983.523329167317
  0
LWPOLYLINE
  5
263
330
237
100
AcDbEntity
  8
P-SANR-FIXT
100
AcDbPolyline
 90
       31
 70
   128
 43
0.0
 10
1089.909673952401
 20
1983.523329167317
 10
1089.982399112493
 20
1983.490009536439
 10
1090.053733670359
 20
1983.453808326981
 10
1090.123563505924
 20
1983.414783453157
 10
1090.191776906349
 20
1983.372997346438
 10
1090.258264744742
 20
1983.328516855682
 10
1090.322920654748
 20
1983.281413140185
 10
1090.3856412007
 20
1983.231761555844
 10
1090.446326043107
 20
1983.179641534603
 10
1090.504878099166
 20
1983.125136457376
 10
1090.561203698077
 20
1983.06833352066
 10
1090.615212730897
 20
1983.009323597037
 10
1090.666818794695
 20
1982.948201089796
 10
1090.715939330779
 20
1982.88506378191
 10
1090.762495756768
 20
1982.820012679604
 10
1090.806413592313
 20
1982.753151850763
 10
1090.847622578245
 20
1982.684588258452
 10
1090.886056788978
 20
1982.614431589792
 10
1090.921654737973
 20
1982.542794080486
 10
1090.954359476106
 20
1982.469790335268
 10
1090.984118682772
 20
1982.395537144557
 10
1091.01088474959
 20
1982.320153297619
 10
1091.034614856561
 20
1982.243759392526
 10
1091.055271040578
 20
1982.166477643231
 10
1091.072820256151
 20
1982.088431684047
 10
1091.08723442828
 20
1982.00974637186
 10
1091.098490497363
 20
1981.930547586384
 10
1091.106570456093
 20
1981.85096202878
 10
1091.111461378258
 20
1981.771117018963
 10
1091.113155439426
 20
1981.691140291918
 10
1091.1131568289
 20
1981.688782773253
  0
LINE
  5
264
330
237
100
AcDbEntity
  8
P-SANR-FIXT
100
AcDbLine
 10
1052.113156828901
 20
1981.688782773253
 30
0.0
 11
1052.113156828901
 21
1963.047777305635
 31
0.0
  0
LINE
  5
265
330
237
100
AcDbEntity
  8
P-SANR-FIXT
100
AcDbLine
 10
1091.1131568289
 20
1963.047777305635
 30
0.0
 11
1091.1131568289
 21
1981.688782773253
 31
0.0
  0
LWPOLYLINE
  5
266
330
237
100
AcDbEntity
  8
P-SANR-FIXT
100
AcDbPolyline
 90
       41
 70
   128
 43
0.0
 10
1054.113156828901
 20
1961.047777305635
 10
1054.033178160527
 20
1961.049377092313
 10
1053.953327440962
 20
1961.05417389303
 10
1053.873732414323
 20
1961.062160033927
 10
1053.794520415672
 20
1961.073322738884
 10
1053.71581816731
 20
1961.087644149953
 10
1053.637751576046
 20
1961.105101355931
 10
1053.560445531772
 20
1961.125666429014
 10
1053.484023707668
 20
1961.14930646947
 10
1053.40860836235
 20
1961.175983658279
 10
1053.334320144283
 20
1961.205655317629
 10
1053.261277898768
 20
1961.238273979195
 10
1053.189598477818
 20
1961.273787460077
 10
1053.119396553213
 20
1961.31213894628
 10
1053.050784433059
 20
1961.353267083608
 10
1052.983871882111
 20
1961.397106075816
 10
1052.918765946176
 20
1961.443585789867
 10
1052.855570780864
 20
1961.492631868133
 10
1052.794387484958
 20
1961.544165847353
 10
1052.735313938679
 20
1961.598105284154
 10
1052.678444647102
 20
1961.654363886941
 10
1052.623870588959
 20
1961.712851653953
 10
1052.571679071103
 20
1961.773475017238
 10
1052.521953588828
 20
1961.836136992348
 10
1052.474773692299
 20
1961.90073733349
 10
1052.430214859285
 20
1961.967172693899
 10
1052.388348374414
 20
1962.03533679117
 10
1052.349241215131
 20
1962.105120577288
 10
1052.312955944548
 20
1962.176412413082
 10
1052.279550611357
 20
1962.249098246823
 10
1052.249078656966
 20
1962.323061796682
 10
1052.221588830001
 20
1962.398184736757
 10
1052.197125108322
 20
1962.474346886371
 10
1052.175726628664
 20
1962.55142640233
 10
1052.15742762403
 20
1962.629299973852
 10
1052.142257368924
 20
1962.707843019835
 10
1052.130240132517
 20
1962.786929888159
 10
1052.121395139825
 20
1962.866434056707
 10
1052.115736540949
 20
1962.946228335768
 10
1052.113273388441
 20
1963.026185071518
 10
1052.113156828901
 20
1963.047777305635
  0
LWPOLYLINE
  5
267
330
237
100
AcDbEntity
  8
P-SANR-FIXT
100
AcDbPolyline
 90
       12
 70
   128
 43
0.0
 10
1055.613166496901
 20
1961.047777305635
 10
1055.401846013417
 20
1961.047777305635
 10
1055.151237198157
 20
1961.047777305635
 10
1054.926963942618
 20
1961.047777305635
 10
1054.729385036165
 20
1961.047777305635
 10
1054.558816562901
 20
1961.047777305635
 10
1054.415531395998
 20
1961.047777305635
 10
1054.299758761156
 20
1961.047777305635
 10
1054.211683869895
 20
1961.047777305635
 10
1054.151447623252
 20
1961.047777305635
 10
1054.119146386372
 20
1961.047777305635
 10
1054.113156828901
 20
1961.047777305635
  0
LWPOLYLINE
  5
268
330
237
100
AcDbEntity
  8
P-SANR-FIXT
100
AcDbPolyline
 90
       20
 70
   128
 43
0.0
 10
1054.113156828901
 20
1961.047777305635
 10
1054.127154962333
 20
1961.047777305635
 10
1054.169126968605
 20
1961.047777305635
 10
1054.239005701458
 20
1961.047777305635
 10
1054.336679369827
 20
1961.047777305635
 10
1054.461991716679
 20
1961.047777305635
 10
1054.61474226899
 20
1961.047777305635
 10
1054.794686658462
 20
1961.047777305635
 10
1055.001537012458
 20
1961.047777305635
 10
1055.234962414537
 20
1961.047777305635
 10
1055.49458943385
 20
1961.047777305635
 10
1055.780002722551
 20
1961.047777305635
 10
1056.090745680263
 20
1961.047777305635
 10
1056.426321184542
 20
1961.047777305635
 10
1056.786192386166
 20
1961.047777305635
 10
1057.169783567981
 20
1961.047777305635
 10
1057.576481065925
 20
1961.047777305635
 10
1058.005634250759
 20
1961.047777305635
 10
1058.456556568935
 20
1961.047777305635
 10
1058.917320020466
 20
1961.047777305635
  0
LINE
  5
269
330
237
100
AcDbEntity
  8
P-SANR-FIXT
100
AcDbLine
 10
1064.919515439211
 20
1961.047777305635
 30
0.0
 11
1064.951809285057
 21
1961.047777305635
 31
0.0
  0
LWPOLYLINE
  5
26A
330
237
100
AcDbEntity
  8
P-SANR-FIXT
100
AcDbPolyline
 90
       41
 70
   128
 43
0.0
 10
1091.1131568289
 20
1963.047777305635
 10
1091.111557042222
 20
1962.967798637262
 10
1091.106760241506
 20
1962.887947917697
 10
1091.098774100608
 20
1962.808352891057
 10
1091.087611395652
 20
1962.729140892407
 10
1091.073289984583
 20
1962.650438644045
 10
1091.055832778605
 20
1962.572372052781
 10
1091.035267705522
 20
1962.495066008507
 10
1091.011627665065
 20
1962.418644184403
 10
1090.984950476257
 20
1962.343228839085
 10
1090.955278816907
 20
1962.268940621018
 10
1090.922660155341
 20
1962.195898375503
 10
1090.887146674459
 20
1962.124218954552
 10
1090.848795188256
 20
1962.054017029948
 10
1090.807667050927
 20
1961.985404909794
 10
1090.76382805872
 20
1961.918492358845
 10
1090.717348344669
 20
1961.85338642291
 10
1090.668302266402
 20
1961.790191257598
 10
1090.616768287183
 20
1961.729007961692
 10
1090.562828850383
 20
1961.669934415414
 10
1090.506570247595
 20
1961.613065123836
 10
1090.448082480583
 20
1961.558491065693
 10
1090.387459117298
 20
1961.506299547837
 10
1090.324797142187
 20
1961.456574065562
 10
1090.260196801046
 20
1961.409394169033
 10
1090.193761440637
 20
1961.364835336019
 10
1090.125597343366
 20
1961.322968851149
 10
1090.055813557248
 20
1961.283861691865
 10
1089.984521721454
 20
1961.247576421282
 10
1089.911835887713
 20
1961.214171088091
 10
1089.837872337854
 20
1961.183699133701
 10
1089.762749397778
 20
1961.156209306736
 10
1089.686587248165
 20
1961.131745585056
 10
1089.609507732205
 20
1961.110347105399
 10
1089.531634160683
 20
1961.092048100764
 10
1089.453091114701
 20
1961.076877845658
 10
1089.374004246377
 20
1961.064860609252
 10
1089.294500077829
 20
1961.05601561656
 10
1089.214705798768
 20
1961.050357017684
 10
1089.134749063017
 20
1961.047893865175
 10
1089.113156828901
 20
1961.047777305635
  0
LINE
  5
26B
330
237
100
AcDbEntity
  8
P-SANR-FIXT
100
AcDbLine
 10
1078.274504372743
 20
1961.047777305635
 30
0.0
 11
1078.30679821859
 21
1961.047777305635
 31
0.0
  0
LWPOLYLINE
  5
26C
330
237
100
AcDbEntity
  8
P-SANR-FIXT
100
AcDbPolyline
 90
       21
 70
   128
 43
0.0
 10
1084.30899363745
 20
1961.047777305635
 10
1084.463374986105
 20
1961.047777305635
 10
1084.928148422451
 20
1961.047777305635
 10
1085.371620712628
 20
1961.047777305635
 10
1085.793082395573
 20
1961.047777305635
 10
1086.191859222501
 20
1961.047777305635
 10
1086.567313235556
 20
1961.047777305635
 10
1086.918843788411
 20
1961.047777305635
 10
1087.245888507169
 20
1961.047777305635
 10
1087.547924190047
 20
1961.047777305635
 10
1087.824467644384
 20
1961.047777305635
 10
1088.075076459644
 20
1961.047777305635
 10
1088.299349715183
 20
1961.047777305635
 10
1088.496928621636
 20
1961.047777305635
 10
1088.6674970949
 20
1961.047777305635
 10
1088.810782261803
 20
1961.047777305635
 10
1088.926554896645
 20
1961.047777305635
 10
1089.014629787906
 20
1961.047777305635
 10
1089.074866034549
 20
1961.047777305635
 10
1089.107167271429
 20
1961.047777305635
 10
1089.113156828901
 20
1961.047777305635
  0
LWPOLYLINE
  5
26D
330
237
100
AcDbEntity
  8
P-SANR-FIXT
100
AcDbPolyline
 90
       12
 70
   128
 43
0.0
 10
1089.113156828901
 20
1961.047777305635
 10
1089.099158695468
 20
1961.047777305635
 10
1089.057186689196
 20
1961.047777305635
 10
1088.987307956343
 20
1961.047777305635
 10
1088.889634287974
 20
1961.047777305635
 10
1088.764321941122
 20
1961.047777305635
 10
1088.611571388811
 20
1961.047777305635
 10
1088.431626999339
 20
1961.047777305635
 10
1088.224776645343
 20
1961.047777305635
 10
1087.991351243264
 20
1961.047777305635
 10
1087.731724223951
 20
1961.047777305635
 10
1087.6131471609
 20
1961.047777305635
  0
LWPOLYLINE
  5
26E
330
237
100
AcDbEntity
  8
P-SANR-FIXT
100
AcDbPolyline
 90
       41
 70
   128
 43
0.0
 10
1057.613156828901
 20
1959.047777305635
 10
1057.611557042223
 20
1959.127755974008
 10
1057.606760241506
 20
1959.207606693574
 10
1057.598774100608
 20
1959.287201720213
 10
1057.587611395652
 20
1959.366413718863
 10
1057.573289984583
 20
1959.445115967225
 10
1057.555832778605
 20
1959.52318255849
 10
1057.535267705522
 20
1959.600488602763
 10
1057.511627665066
 20
1959.676910426868
 10
1057.484950476257
 20
1959.752325772186
 10
1057.455278816907
 20
1959.826613990253
 10
1057.422660155341
 20
1959.899656235768
 10
1057.387146674459
 20
1959.971335656718
 10
1057.348795188256
 20
1960.041537581323
 10
1057.307667050928
 20
1960.110149701477
 10
1057.26382805872
 20
1960.177062252425
 10
1057.217348344669
 20
1960.24216818836
 10
1057.168302266402
 20
1960.305363353672
 10
1057.116768287183
 20
1960.366546649578
 10
1057.062828850382
 20
1960.425620195857
 10
1057.006570247595
 20
1960.482489487435
 10
1056.948082480583
 20
1960.537063545577
 10
1056.887459117298
 20
1960.589255063433
 10
1056.824797142188
 20
1960.638980545708
 10
1056.760196801046
 20
1960.686160442237
 10
1056.693761440637
 20
1960.730719275251
 10
1056.625597343366
 20
1960.772585760122
 10
1056.555813557248
 20
1960.811692919405
 10
1056.484521721454
 20
1960.847978189988
 10
1056.411835887713
 20
1960.881383523179
 10
1056.337872337854
 20
1960.91185547757
 10
1056.262749397778
 20
1960.939345304534
 10
1056.186587248165
 20
1960.963809026214
 10
1056.109507732205
 20
1960.985207505872
 10
1056.031634160683
 20
1961.003506510506
 10
1055.953091114701
 20
1961.018676765612
 10
1055.874004246377
 20
1961.030694002019
 10
1055.794500077829
 20
1961.039538994711
 10
1055.714705798768
 20
1961.045197593586
 10
1055.634749063017
 20
1961.047660746095
 10
1055.6131568289
 20
1961.047777305635
  0
LWPOLYLINE
  5
26F
330
237
100
AcDbEntity
  8
P-SANR-FIXT
100
AcDbPolyline
 90
       41
 70
   128
 43
0.0
 10
1087.554916808197
 20
1961.04661234989
 10
1087.533178160527
 20
1961.046177518957
 10
1087.453327440962
 20
1961.04138071824
 10
1087.373732414323
 20
1961.033394577343
 10
1087.294520415672
 20
1961.022231872387
 10
1087.215818167311
 20
1961.007910461318
 10
1087.137751576046
 20
1960.990453255339
 10
1087.060445531773
 20
1960.969888182257
 10
1086.984023707668
 20
1960.9462481418
 10
1086.90860836235
 20
1960.919570952991
 10
1086.834320144283
 20
1960.889899293641
 10
1086.761277898769
 20
1960.857280632075
 10
1086.689598477818
 20
1960.821767151194
 10
1086.619396553213
 20
1960.783415664991
 10
1086.550784433059
 20
1960.742287527662
 10
1086.48387188211
 20
1960.698448535455
 10
1086.418765946176
 20
1960.651968821404
 10
1086.355570780864
 20
1960.602922743137
 10
1086.294387484957
 20
1960.551388763917
 10
1086.235313938679
 20
1960.497449327117
 10
1086.178444647102
 20
1960.441190724329
 10
1086.123870588959
 20
1960.382702957318
 10
1086.071679071103
 20
1960.322079594032
 10
1086.021953588828
 20
1960.259417618922
 10
1085.974773692299
 20
1960.19481727778
 10
1085.930214859285
 20
1960.128381917372
 10
1085.888348374414
 20
1960.060217820101
 10
1085.849241215131
 20
1959.990434033983
 10
1085.812955944548
 20
1959.919142198189
 10
1085.779550611357
 20
1959.846456364448
 10
1085.749078656966
 20
1959.772492814589
 10
1085.721588830002
 20
1959.697369874513
 10
1085.697125108322
 20
1959.621207724899
 10
1085.675726628664
 20
1959.54412820894
 10
1085.65742762403
 20
1959.466254637418
 10
1085.642257368924
 20
1959.387711591436
 10
1085.630240132517
 20
1959.308624723112
 10
1085.621395139825
 20
1959.229120554564
 10
1085.615736540949
 20
1959.149326275502
 10
1085.613273388441
 20
1959.069369539752
 10
1085.613156828901
 20
1959.047777305635
  0
LINE
  5
270
330
237
100
AcDbEntity
  8
P-SANR-FIXT
100
AcDbLine
 10
1057.613156828901
 20
1959.047777305635
 30
0.0
 11
1057.613156828901
 21
1936.498183850012
 31
0.0
  0
LINE
  5
271
330
237
100
AcDbEntity
  8
P-SANR-FIXT
100
AcDbLine
 10
1085.613156828901
 20
1936.498183850012
 30
0.0
 11
1085.613156828901
 21
1959.047777305635
 31
0.0
  0
LINE
  5
272
330
237
100
AcDbEntity
  8
P-SANR-FIXT
100
AcDbLine
 10
1054.6131568289
 20
1989.698183850012
 30
0.0
 11
1054.179749612295
 21
1989.264776633407
 31
0.0
  0
LINE
  5
273
330
237
100
AcDbEntity
  8
P-SANR-FIXT
100
AcDbLine
 10
1054.160292806932
 20
1989.245319828043
 30
0.0
 11
1054.113156828901
 21
1989.198183850012
 31
0.0
  0
LINE
  5
274
330
237
100
AcDbEntity
  8
P-SANR-FIXT
100
AcDbLine
 10
1089.113156828901
 20
1989.198183850012
 30
0.0
 11
1089.06602085087
 21
1989.245319828043
 31
0.0
  0
LINE
  5
275
330
237
100
AcDbEntity
  8
P-SANR-FIXT
100
AcDbLine
 10
1089.046564045506
 20
1989.264776633407
 30
0.0
 11
1088.613156828901
 21
1989.698183850012
 31
0.0
  0
LINE
  5
276
330
237
100
AcDbEntity
  8
P-SANR-FIXT
100
AcDbLine
 10
1054.613156828899
 20
1989.698183850011
 30
0.0
 11
1071.613156828898
 21
1989.698183850011
 31
0.0
  0
LINE
  5
277
330
237
100
AcDbEntity
  8
P-SANR-FIXT
100
AcDbLine
 10
1071.613156828899
 20
1989.698183850011
 30
0.0
 11
1088.613156828899
 21
1989.698183850011
 31
0.0
  0
LINE
  5
278
330
237
100
AcDbEntity
  8
P-SANR-FIXT
100
AcDbLine
 10
1061.163156828899
 20
1923.798183850011
 30
0.0
 11
1071.613156828899
 21
1923.798183850011
 31
0.0
  0
LINE
  5
279
330
237
100
AcDbEntity
  8
P-SANR-FIXT
100
AcDbLine
 10
1071.613156828899
 20
1923.798183850011
 30
0.0
 11
1082.063156828898
 21
1923.798183850011
 31
0.0
  0
LINE
  5
27A
330
237
100
AcDbEntity
  8
P-SANR-FIXT
100
AcDbLine
 10
1062.463156828899
 20
1922.498183850011
 30
0.0
 11
1071.613156828899
 21
1922.498183850011
 31
0.0
  0
LINE
  5
27B
330
237
100
AcDbEntity
  8
P-SANR-FIXT
100
AcDbLine
 10
1071.613156828899
 20
1922.498183850011
 30
0.0
 11
1080.763156828899
 21
1922.498183850011
 31
0.0
  0
LINE
  5
27C
330
237
100
AcDbEntity
  8
P-SANR-FIXT
100
AcDbLine
 10
1071.613156828899
 20
1989.198183850011
 30
0.0
 11
1054.113156828899
 21
1989.198183850011
 31
0.0
  0
LINE
  5
27D
330
237
100
AcDbEntity
  8
P-SANR-FIXT
100
AcDbLine
 10
1089.113156828899
 20
1989.198183850011
 30
0.0
 11
1071.613156828899
 21
1989.198183850011
 31
0.0
  0
LINE
  5
27E
330
237
100
AcDbEntity
  8
P-SANR-FIXT
100
AcDbLine
 10
1053.316639705398
 20
1983.523329167316
 30
0.0
 11
1063.301267094037
 21
1983.523329167316
 31
0.0
  0
LINE
  5
27F
330
237
100
AcDbEntity
  8
P-SANR-FIXT
100
AcDbLine
 10
1079.925046563876
 20
1983.523329167316
 30
0.0
 11
1089.909673952399
 21
1983.523329167316
 31
0.0
  0
ARC
  5
280
330
237
100
AcDbEntity
  8
P-SANR-FIXT
100
AcDbCircle
 10
1071.613156828898
 20
1970.998183850011
 30
0.0
 40
13.0055534994553
100
AcDbArc
 50
90.00000000000049
 51
269.9999999999992
  0
ARC
  5
281
330
237
100
AcDbEntity
  8
P-SANR-FIXT
100
AcDbCircle
 10
1071.613156828898
 20
1970.998183850011
 30
0.0
 40
13.00555349945534
100
AcDbArc
 50
269.9999999999997
 51
89.999999999999
  0
ARC
  5
282
330
237
100
AcDbEntity
  8
P-SANR-FIXT
100
AcDbCircle
 10
1071.613156828898
 20
1970.998183850011
 30
0.0
 40
12.00000000000012
100
AcDbArc
 50
259.9999999999998
 51
264.9999999999999
  0
ARC
  5
283
330
237
100
AcDbEntity
  8
P-SANR-FIXT
100
AcDbCircle
 10
1071.613156828898
 20
1970.998183850011
 30
0.0
 40
12.00000000000007
100
AcDbArc
 50
244.9999999999994
 51
249.9999999999997
  0
ARC
  5
284
330
237
100
AcDbEntity
  8
P-SANR-FIXT
100
AcDbCircle
 10
1071.613156828898
 20
1970.998183850011
 30
0.0
 40
11.99999999999999
100
AcDbArc
 50
229.9999999999995
 51
234.9999999999999
  0
ARC
  5
285
330
237
100
AcDbEntity
  8
P-SANR-FIXT
100
AcDbCircle
 10
1071.613156828898
 20
1970.998183850011
 30
0.0
 40
11.99999999999991
100
AcDbArc
 50
214.9999999999991
 51
219.9999999999993
  0
ARC
  5
286
330
237
100
AcDbEntity
  8
P-SANR-FIXT
100
AcDbCircle
 10
1071.613156828898
 20
1970.998183850011
 30
0.0
 40
12.00000000000005
100
AcDbArc
 50
199.9999999999997
 51
204.9999999999996
  0
ARC
  5
287
330
237
100
AcDbEntity
  8
P-SANR-FIXT
100
AcDbCircle
 10
1071.613156828898
 20
1970.998183850011
 30
0.0
 40
11.99999999999999
100
AcDbArc
 50
184.9999999999994
 51
189.9999999999993
  0
ARC
  5
288
330
237
100
AcDbEntity
  8
P-SANR-FIXT
100
AcDbCircle
 10
1071.613156828898
 20
1970.998183850011
 30
0.0
 40
12.00000000000012
100
AcDbArc
 50
170.0000000000001
 51
174.9999999999991
  0
ARC
  5
289
330
237
100
AcDbEntity
  8
P-SANR-FIXT
100
AcDbCircle
 10
1071.613156828898
 20
1970.998183850011
 30
0.0
 40
11.99999999999999
100
AcDbArc
 50
154.9999999999997
 51
160.0000000000005
  0
ARC
  5
28A
330
237
100
AcDbEntity
  8
P-SANR-FIXT
100
AcDbCircle
 10
1071.613156828898
 20
1970.998183850011
 30
0.0
 40
11.99999999999999
100
AcDbArc
 50
139.9999999999995
 51
145.0000000000006
  0
ARC
  5
28B
330
237
100
AcDbEntity
  8
P-SANR-FIXT
100
AcDbCircle
 10
1071.613156828898
 20
1970.998183850011
 30
0.0
 40
11.99999999999991
100
AcDbArc
 50
125.0000000000005
 51
130.0000000000002
  0
ARC
  5
28C
330
237
100
AcDbEntity
  8
P-SANR-FIXT
100
AcDbCircle
 10
1071.613156828898
 20
1970.998183850011
 30
0.0
 40
12.00000000000005
100
AcDbArc
 50
110.0000000000003
 51
115.0000000000008
  0
ARC
  5
28D
330
237
100
AcDbEntity
  8
P-SANR-FIXT
100
AcDbCircle
 10
1071.613156828898
 20
1970.998183850011
 30
0.0
 40
11.99999999999999
100
AcDbArc
 50
94.99999999999984
 51
100.0000000000007
  0
ARC
  5
28E
330
237
100
AcDbEntity
  8
P-SANR-FIXT
100
AcDbCircle
 10
1071.613156828898
 20
1970.998183850011
 30
0.0
 40
11.99999999999989
100
AcDbArc
 50
80.00000000000033
 51
85.00000000000017
  0
ARC
  5
28F
330
237
100
AcDbEntity
  8
P-SANR-FIXT
100
AcDbCircle
 10
1071.613156828898
 20
1970.998183850011
 30
0.0
 40
11.99999999999999
100
AcDbArc
 50
64.9999999999998
 51
70.00000000000115
  0
ARC
  5
290
330
237
100
AcDbEntity
  8
P-SANR-FIXT
100
AcDbCircle
 10
1071.613156828898
 20
1970.998183850011
 30
0.0
 40
11.99999999999999
100
AcDbArc
 50
50.00000000000048
 51
55.00000000000073
  0
ARC
  5
291
330
237
100
AcDbEntity
  8
P-SANR-FIXT
100
AcDbCircle
 10
1071.613156828898
 20
1970.998183850011
 30
0.0
 40
11.99999999999991
100
AcDbArc
 50
35.00000000000033
 51
40.00000000000058
  0
ARC
  5
292
330
237
100
AcDbEntity
  8
P-SANR-FIXT
100
AcDbCircle
 10
1071.613156828898
 20
1970.998183850011
 30
0.0
 40
12.00000000000005
100
AcDbArc
 50
20.00000000000124
 51
25.00000000000117
  0
ARC
  5
293
330
237
100
AcDbEntity
  8
P-SANR-FIXT
100
AcDbCircle
 10
1071.613156828898
 20
1970.998183850011
 30
0.0
 40
11.99999999999999
100
AcDbArc
 50
5.000000000001012
 51
10.00000000000093
  0
ARC
  5
294
330
237
100
AcDbEntity
  8
P-SANR-FIXT
100
AcDbCircle
 10
1071.613156828898
 20
1970.998183850011
 30
0.0
 40
11.99999999999989
100
AcDbArc
 50
350.0000000000012
 51
354.9999999999999
  0
ARC
  5
295
330
237
100
AcDbEntity
  8
P-SANR-FIXT
100
AcDbCircle
 10
1071.613156828898
 20
1970.998183850011
 30
0.0
 40
11.99999999999999
100
AcDbArc
 50
334.9999999999998
 51
340.0000000000007
  0
ARC
  5
296
330
237
100
AcDbEntity
  8
P-SANR-FIXT
100
AcDbCircle
 10
1071.613156828898
 20
1970.998183850011
 30
0.0
 40
11.99999999999999
100
AcDbArc
 50
319.9999999999992
 51
325.0000000000005
  0
LINE
  5
297
330
237
100
AcDbEntity
  8
P-SANR-FIXT
100
AcDbLine
 10
1080.46716721592
 20
1962.898399898169
 30
0.0
 11
1080.461579652264
 21
1962.892296265117
 31
0.0
  0
ARC
  5
298
330
237
100
AcDbEntity
  8
P-SANR-FIXT
100
AcDbCircle
 10
1071.613156828898
 20
1970.998183850011
 30
0.0
 40
11.99999999999991
100
AcDbArc
 50
305.0
 51
309.9999999999998
  0
ARC
  5
299
330
237
100
AcDbEntity
  8
P-SANR-FIXT
100
AcDbCircle
 10
1071.613156828898
 20
1970.998183850011
 30
0.0
 40
12.00000000000005
100
AcDbArc
 50
290.0000000000005
 51
295.0000000000003
  0
ARC
  5
29A
330
237
100
AcDbEntity
  8
P-SANR-FIXT
100
AcDbCircle
 10
1071.613156828898
 20
1970.998183850011
 30
0.0
 40
11.99999999999999
100
AcDbArc
 50
274.9999999999995
 51
280.0000000000003
  0
SPLINE
  5
29B
330
237
100
AcDbEntity
  8
P-SANR-FIXT
100
AcDbSpline
210
0.0
220
0.0
230
1.0
 70
     8
 71
     3
 72
     9
 73
     5
 74
     0
 42
0.000000001
 43
0.0000000001
 40
0.0
 40
0.0
 40
0.0
 40
0.0
 40
0.5
 40
1.0
 40
1.0
 40
1.0
 40
1.0
 10
1085.876296549769
 20
1979.233011407297
 30
0.0
 10
1086.118875837141
 20
1978.812851756703
 30
0.0
 10
1086.489502921962
 20
1977.912663374812
 30
0.0
 10
1086.613156828948
 20
1976.957783921157
 30
0.0
 10
1086.613156828948
 20
1976.48301140731
 30
0.0
  0
SPLINE
  5
29C
330
237
100
AcDbEntity
  8
P-SANR-FIXT
100
AcDbSpline
210
0.0
220
0.0
230
1.0
 70
     8
 71
     3
 72
     8
 73
     4
 74
     0
 42
0.000000001
 43
0.0000000001
 40
-0.5048016615661975
 40
-0.5048016615661975
 40
-0.5048016615661975
 40
-0.5048016615661975
 40
-0.5
 40
-0.5
 40
-0.5
 40
-0.5
 10
1086.427712802456
 20
1977.899163602226
 30
0.0
 10
1086.428900176413
 20
1977.894708641521
 30
0.0
 10
1086.430087336392
 20
1977.890252910752
 30
0.0
 10
1086.431257505582
 20
1977.885796206624
 30
0.0
  0
SPLINE
  5
29D
330
237
100
AcDbEntity
  8
P-SANR-FIXT
100
AcDbSpline
210
0.0
220
0.0
230
1.0
 70
     8
 71
     3
 72
     9
 73
     5
 74
     0
 42
0.000000001
 43
0.0000000001
 40
0.0
 40
0.0
 40
0.0
 40
0.0
 40
0.5
 40
1.0
 40
1.0
 40
1.0
 40
1.0
 10
1083.863156828948
 20
1981.246151128124
 30
0.0
 10
1084.274321886962
 20
1981.008764871198
 30
0.0
 10
1085.039444797893
 20
1980.424237719636
 30
0.0
 10
1085.633717262396
 20
1979.653171057895
 30
0.0
 10
1085.876296549769
 20
1979.233011407297
 30
0.0
  0
SPLINE
  5
29E
330
237
100
AcDbEntity
  8
P-SANR-FIXT
100
AcDbSpline
210
0.0
220
0.0
230
1.0
 70
    24
 71
     3
 72
     9
 73
     5
 74
     0
 42
0.000000001
 43
0.0000000001
 40
0.0
 40
0.0
 40
0.0
 40
0.0
 40
0.5
 40
1.0
 40
1.0
 40
1.0
 40
1.0
 10
1086.613156828948
 20
1976.48301140731
 30
0.0
 10
1086.613156828948
 20
1974.626343893283
 30
0.0
 10
1086.613156828949
 20
1970.941400526824
 30
0.0
 10
1086.613156828949
 20
1967.313240483554
 30
0.0
 10
1086.61315682895
 20
1965.513356292717
 30
0.0
  0
SPLINE
  5
29F
330
237
100
AcDbEntity
  8
P-SANR-FIXT
100
AcDbSpline
210
0.0
220
0.0
230
1.0
 70
     8
 71
     3
 72
     9
 73
     5
 74
     0
 42
0.000000001
 43
0.0000000001
 40
0.0
 40
0.0
 40
0.0
 40
0.0
 40
0.5
 40
1.0
 40
1.0
 40
1.0
 40
1.0
 10
1086.61315682895
 20
1965.513356292717
 30
0.0
 10
1086.61315682895
 20
1965.03858377887
 30
0.0
 10
1086.489502921963
 20
1964.083704325214
 30
0.0
 10
1086.118875837143
 20
1963.183515943323
 30
0.0
 10
1085.876296549772
 20
1962.76335629273
 30
0.0
  0
SPLINE
  5
2A0
330
237
100
AcDbEntity
  8
P-SANR-FIXT
100
AcDbSpline
210
0.0
220
0.0
230
1.0
 70
     8
 71
     3
 72
     9
 73
     5
 74
     0
 42
0.000000001
 43
0.0000000001
 40
0.0
 40
0.0
 40
0.0
 40
0.0
 40
0.5
 40
1.0
 40
1.0
 40
1.0
 40
1.0
 10
1085.876296549772
 20
1962.76335629273
 30
0.0
 10
1085.633717262398
 20
1962.343196642131
 30
0.0
 10
1085.039444797896
 20
1961.57212998039
 30
0.0
 10
1084.274321886965
 20
1960.987602828828
 30
0.0
 10
1083.86315682895
 20
1960.750216571902
 30
0.0
  0
SPLINE
  5
2A1
330
237
100
AcDbEntity
  8
P-SANR-FIXT
100
AcDbSpline
210
0.0
220
0.0
230
1.0
 70
     8
 71
     3
 72
     8
 73
     4
 74
     0
 42
0.000000001
 43
0.0000000001
 40
-0.5
 40
-0.5
 40
-0.5
 40
-0.5
 40
-0.4951983384337569
 40
-0.4951983384337569
 40
-0.4951983384337569
 40
-0.4951983384337569
 10
1086.431257505584
 20
1964.110571493403
 30
0.0
 10
1086.430081744488
 20
1964.106114862381
 30
0.0
 10
1086.428888787939
 20
1964.101662365397
 30
0.0
 10
1086.427678965133
 20
1964.097213923203
 30
0.0
  0
SPLINE
  5
2A2
330
237
100
AcDbEntity
  8
P-SANR-FIXT
100
AcDbSpline
210
0.0
220
0.0
230
1.0
 70
    24
 71
     3
 72
     9
 73
     5
 74
     0
 42
0.000000001
 43
0.0000000001
 40
0.0
 40
0.0
 40
0.0
 40
0.0
 40
0.5
 40
1.0
 40
1.0
 40
1.0
 40
1.0
 10
1083.86315682895
 20
1960.750216571902
 30
0.0
 10
1082.255235595422
 20
1959.821882814889
 30
0.0
 10
1079.063981028562
 20
1957.979411131659
 30
0.0
 10
1075.921902262095
 20
1956.165331110023
 30
0.0
 10
1074.363156828959
 20
1955.265389014604
 30
0.0
  0
SPLINE
  5
2A3
330
237
100
AcDbEntity
  8
P-SANR-FIXT
100
AcDbSpline
210
0.0
220
0.0
230
1.0
 70
     8
 71
     3
 72
     9
 73
     5
 74
     0
 42
0.000000001
 43
0.0000000001
 40
0.0
 40
0.0
 40
0.0
 40
0.0
 40
0.5
 40
1.0
 40
1.0
 40
1.0
 40
1.0
 10
1071.613156828989
 20
1954.528528735418
 30
0.0
 10
1071.127998254236
 20
1954.528528735416
 30
0.0
 10
1070.163098704901
 20
1954.657650455572
 30
0.0
 10
1069.274321886976
 20
1955.028002757676
 30
0.0
 10
1068.863156828959
 20
1955.265389014603
 30
0.0
  0
SPLINE
  5
2A4
330
237
100
AcDbEntity
  8
P-SANR-FIXT
100
AcDbSpline
210
0.0
220
0.0
230
1.0
 70
     8
 71
     3
 72
     8
 73
     4
 74
     0
 42
0.000000001
 43
0.0000000001
 40
-0.5046378596582726
 40
-0.5046378596582726
 40
-0.5046378596582726
 40
-0.5046378596582726
 40
-0.5
 40
-0.5
 40
-0.5
 40
-0.5
 10
1070.181847025968
 20
1954.718034899543
 30
0.0
 10
1070.177547239787
 20
1954.719193534525
 30
0.0
 10
1070.173246930881
 20
1954.720352699897
 30
0.0
 10
1070.168953762872
 20
1954.721526049918
 30
0.0
  0
SPLINE
  5
2A5
330
237
100
AcDbEntity
  8
P-SANR-FIXT
100
AcDbSpline
210
0.0
220
0.0
230
1.0
 70
     8
 71
     3
 72
     8
 73
     4
 74
     0
 42
0.000000001
 43
0.0000000001
 40
-0.5
 40
-0.5
 40
-0.5
 40
-0.5
 40
-0.4953621403710386
 40
-0.4953621403710386
 40
-0.4953621403710386
 40
-0.4953621403710386
 10
1073.05735989499
 20
1954.721526049903
 30
0.0
 10
1073.0530641768
 20
1954.72035725343
 30
0.0
 10
1073.04876377623
 20
1954.719204281697
 30
0.0
 10
1073.044458779795
 20
1954.718066842005
 30
0.0
  0
SPLINE
  5
2A6
330
237
100
AcDbEntity
  8
P-SANR-FIXT
100
AcDbSpline
210
0.0
220
0.0
230
1.0
 70
     8
 71
     3
 72
     9
 73
     5
 74
     0
 42
0.000000001
 43
0.0000000001
 40
0.0
 40
0.0
 40
0.0
 40
0.0
 40
0.5
 40
1.0
 40
1.0
 40
1.0
 40
1.0
 10
1074.363156828959
 20
1955.265389014604
 30
0.0
 10
1073.95199177095
 20
1955.028002757681
 30
0.0
 10
1073.063214953042
 20
1954.657650455582
 30
0.0
 10
1072.09831540373
 20
1954.528528735421
 30
0.0
 10
1071.613156828989
 20
1954.528528735418
 30
0.0
  0
SPLINE
  5
2A7
330
237
100
AcDbEntity
  8
P-SANR-FIXT
100
AcDbSpline
210
0.0
220
0.0
230
1.0
 70
    24
 71
     3
 72
     9
 73
     5
 74
     0
 42
0.000000001
 43
0.0000000001
 40
0.0
 40
0.0
 40
0.0
 40
0.0
 40
0.5
 40
1.0
 40
1.0
 40
1.0
 40
1.0
 10
1068.863156828959
 20
1955.265389014603
 30
0.0
 10
1067.255235595431
 20
1956.193722771617
 30
0.0
 10
1064.06398102857
 20
1958.036194454846
 30
0.0
 10
1060.921902262103
 20
1959.85027447648
 30
0.0
 10
1059.363156828967
 20
1960.750216571899
 30
0.0
  0
SPLINE
  5
2A8
330
237
100
AcDbEntity
  8
P-SANR-FIXT
100
AcDbSpline
210
0.0
220
0.0
230
1.0
 70
     8
 71
     3
 72
     9
 73
     5
 74
     0
 42
0.000000001
 43
0.0000000001
 40
0.0
 40
0.0
 40
0.0
 40
0.0
 40
0.5
 40
1.0
 40
1.0
 40
1.0
 40
1.0
 10
1059.363156828967
 20
1960.750216571899
 30
0.0
 10
1058.951991770956
 20
1960.987602828823
 30
0.0
 10
1058.186868860031
 20
1961.572129980379
 30
0.0
 10
1057.592596395533
 20
1962.343196642109
 30
0.0
 10
1057.35001710816
 20
1962.7633562927
 30
0.0
  0
SPLINE
  5
2A9
330
237
100
AcDbEntity
  8
P-SANR-FIXT
100
AcDbSpline
210
0.0
220
0.0
230
1.0
 70
     8
 71
     3
 72
     9
 73
     5
 74
     0
 42
0.000000001
 43
0.0000000001
 40
0.0
 40
0.0
 40
0.0
 40
0.0
 40
0.5
 40
1.0
 40
1.0
 40
1.0
 40
1.0
 10
1057.35001710816
 20
1962.7633562927
 30
0.0
 10
1057.107437820784
 20
1963.183515943295
 30
0.0
 10
1056.736810735956
 20
1964.083704325193
 30
0.0
 10
1056.613156828967
 20
1965.038583778859
 30
0.0
 10
1056.613156828967
 20
1965.513356292712
 30
0.0
  0
SPLINE
  5
2AA
330
237
100
AcDbEntity
  8
P-SANR-FIXT
100
AcDbSpline
210
0.0
220
0.0
230
1.0
 70
     8
 71
     3
 72
     8
 73
     4
 74
     0
 42
0.000000001
 43
0.0000000001
 40
-0.5048016615652773
 40
-0.5048016615652773
 40
-0.5048016615652773
 40
-0.5048016615652773
 40
-0.5
 40
-0.5
 40
-0.5
 40
-0.5
 10
1056.798600855463
 20
1964.097204097781
 30
0.0
 10
1056.797413481507
 20
1964.101659058485
 30
0.0
 10
1056.796226321528
 20
1964.106114789253
 30
0.0
 10
1056.795056152338
 20
1964.11057149338
 30
0.0
  0
SPLINE
  5
2AB
330
237
100
AcDbEntity
  8
P-SANR-FIXT
100
AcDbSpline
210
0.0
220
0.0
230
1.0
 70
    24
 71
     3
 72
     9
 73
     5
 74
     0
 42
0.000000001
 43
0.0000000001
 40
0.0
 40
0.0
 40
0.0
 40
0.0
 40
0.5
 40
1.0
 40
1.0
 40
1.0
 40
1.0
 10
1056.613156828967
 20
1965.513356292712
 30
0.0
 10
1056.613156828966
 20
1967.370023806739
 30
0.0
 10
1056.613156828966
 20
1971.054967173199
 30
0.0
 10
1056.613156828965
 20
1974.683127216468
 30
0.0
 10
1056.613156828965
 20
1976.483011407306
 30
0.0
  0
SPLINE
  5
2AC
330
237
100
AcDbEntity
  8
P-SANR-FIXT
100
AcDbSpline
210
0.0
220
0.0
230
1.0
 70
     8
 71
     3
 72
     9
 73
     5
 74
     0
 42
0.000000001
 43
0.0000000001
 40
0.0
 40
0.0
 40
0.0
 40
0.0
 40
0.5
 40
1.0
 40
1.0
 40
1.0
 40
1.0
 10
1056.613156828965
 20
1976.483011407306
 30
0.0
 10
1056.613156828965
 20
1976.957783921159
 30
0.0
 10
1056.736810735954
 20
1977.912663374825
 30
0.0
 10
1057.107437820782
 20
1978.812851756723
 30
0.0
 10
1057.350017108158
 20
1979.233011407319
 30
0.0
  0
SPLINE
  5
2AD
330
237
100
AcDbEntity
  8
P-SANR-FIXT
100
AcDbSpline
210
0.0
220
0.0
230
1.0
 70
     8
 71
     3
 72
     9
 73
     5
 74
     0
 42
0.000000001
 43
0.0000000001
 40
0.0
 40
0.0
 40
0.0
 40
0.0
 40
0.5
 40
1.0
 40
1.0
 40
1.0
 40
1.0
 10
1057.350017108158
 20
1979.233011407319
 30
0.0
 10
1057.59259639553
 20
1979.65317105791
 30
0.0
 10
1058.186868860028
 20
1980.424237719639
 30
0.0
 10
1058.951991770953
 20
1981.008764871196
 30
0.0
 10
1059.363156828964
 20
1981.24615112812
 30
0.0
  0
SPLINE
  5
2AE
330
237
100
AcDbEntity
  8
P-SANR-FIXT
100
AcDbSpline
210
0.0
220
0.0
230
1.0
 70
     8
 71
     3
 72
     8
 73
     4
 74
     0
 42
0.000000001
 43
0.0000000001
 40
-0.5
 40
-0.5
 40
-0.5
 40
-0.5
 40
-0.4951983384346845
 40
-0.4951983384346845
 40
-0.4951983384346845
 40
-0.4951983384346845
 10
1056.795056152336
 20
1977.885796206638
 30
0.0
 10
1056.796231913431
 20
1977.890252837658
 30
0.0
 10
1056.79742486998
 20
1977.894705334642
 30
0.0
 10
1056.798634692786
 20
1977.899153776835
 30
0.0
  0
SPLINE
  5
2AF
330
237
100
AcDbEntity
  8
P-SANR-FIXT
100
AcDbSpline
210
0.0
220
0.0
230
1.0
 70
    24
 71
     3
 72
     9
 73
     5
 74
     0
 42
0.000000001
 43
0.0000000001
 40
0.0
 40
0.0
 40
0.0
 40
0.0
 40
0.5
 40
1.0
 40
1.0
 40
1.0
 40
1.0
 10
1059.363156828964
 20
1981.24615112812
 30
0.0
 10
1060.971078062493
 20
1982.174484885134
 30
0.0
 10
1064.162332629354
 20
1984.016956568364
 30
0.0
 10
1067.30441139582
 20
1985.831036589999
 30
0.0
 10
1068.863156828955
 20
1986.730978685418
 30
0.0
  0
SPLINE
  5
2B0
330
237
100
AcDbEntity
  8
P-SANR-FIXT
100
AcDbSpline
210
0.0
220
0.0
230
1.0
 70
     8
 71
     3
 72
     9
 73
     5
 74
     0
 42
0.000000001
 43
0.0000000001
 40
0.0
 40
0.0
 40
0.0
 40
0.0
 40
0.5
 40
1.0
 40
1.0
 40
1.0
 40
1.0
 10
1068.863156828955
 20
1986.730978685418
 30
0.0
 10
1069.274321886971
 20
1986.968364942345
 30
0.0
 10
1070.163098704896
 20
1987.33871724445
 30
0.0
 10
1071.127998254232
 20
1987.467838964607
 30
0.0
 10
1071.613156828985
 20
1987.467838964604
 30
0.0
  0
SPLINE
  5
2B1
330
237
100
AcDbEntity
  8
P-SANR-FIXT
100
AcDbSpline
210
0.0
220
0.0
230
1.0
 70
     8
 71
     3
 72
     9
 73
     5
 74
     0
 42
0.000000001
 43
0.0000000001
 40
0.0
 40
0.0
 40
0.0
 40
0.0
 40
0.5
 40
1.0
 40
1.0
 40
1.0
 40
1.0
 10
1071.613156828985
 20
1987.467838964604
 30
0.0
 10
1072.098315403725
 20
1987.467838964602
 30
0.0
 10
1073.063214953038
 20
1987.338717244441
 30
0.0
 10
1073.951991770946
 20
1986.968364942342
 30
0.0
 10
1074.363156828955
 20
1986.730978685419
 30
0.0
  0
SPLINE
  5
2B2
330
237
100
AcDbEntity
  8
P-SANR-FIXT
100
AcDbSpline
210
0.0
220
0.0
230
1.0
 70
     8
 71
     3
 72
     8
 73
     4
 74
     0
 42
0.000000001
 43
0.0000000001
 40
-0.5046378596296848
 40
-0.5046378596296848
 40
-0.5046378596296848
 40
-0.5046378596296848
 40
-0.5
 40
-0.5
 40
-0.5
 40
-0.5
 10
1073.04446663197
 20
1987.278332800473
 30
0.0
 10
1073.048766418125
 20
1987.277174165498
 30
0.0
 10
1073.053066727005
 20
1987.276015000134
 30
0.0
 10
1073.057359894987
 20
1987.274841650119
 30
0.0
  0
SPLINE
  5
2B3
330
237
100
AcDbEntity
  8
P-SANR-FIXT
100
AcDbSpline
210
0.0
220
0.0
230
1.0
 70
     8
 71
     3
 72
     8
 73
     4
 74
     0
 42
0.000000001
 43
0.0000000001
 40
-0.5
 40
-0.5
 40
-0.5
 40
-0.5
 40
-0.4953621403426882
 40
-0.4953621403426882
 40
-0.4953621403426882
 40
-0.4953621403426882
 10
1070.16895376287
 20
1987.274841650105
 30
0.0
 10
1070.173249481086
 20
1987.276010446584
 30
0.0
 10
1070.177549881682
 20
1987.277163418325
 30
0.0
 10
1070.181854878144
 20
1987.278300858023
 30
0.0
  0
SPLINE
  5
2B4
330
237
100
AcDbEntity
  8
P-SANR-FIXT
100
AcDbSpline
210
0.0
220
0.0
230
1.0
 70
    24
 71
     3
 72
     9
 73
     5
 74
     0
 42
0.000000001
 43
0.0000000001
 40
0.0
 40
0.0
 40
0.0
 40
0.0
 40
0.5
 40
1.0
 40
1.0
 40
1.0
 40
1.0
 10
1074.363156828955
 20
1986.730978685419
 30
0.0
 10
1075.971078062484
 20
1985.802644928406
 30
0.0
 10
1079.162332629345
 20
1983.960173245177
 30
0.0
 10
1082.304411395812
 20
1982.146093223542
 30
0.0
 10
1083.863156828948
 20
1981.246151128124
 30
0.0
  0
LINE
  5
2B5
330
237
100
AcDbEntity
  8
P-SANR-FIXT
100
AcDbLine
 10
1064.925369520811
 20
1962.581771257832
 30
0.0
 11
1064.909230911308
 21
1962.609724149455
 31
0.0
  0
LINE
  5
2B6
330
237
100
AcDbEntity
  8
P-SANR-FIXT
100
AcDbLine
 10
1060.9965746708
 20
1969.386643550567
 30
0.0
 11
1060.980436061297
 21
1969.41459644219
 31
0.0
  0
LINE
  5
2B7
330
237
100
AcDbEntity
  8
P-SANR-FIXT
100
AcDbLine
 10
1060.980436061297
 20
1972.581771257832
 30
0.0
 11
1060.9965746708
 21
1972.609724149456
 31
0.0
  0
LINE
  5
2B8
330
237
100
AcDbEntity
  8
P-SANR-FIXT
100
AcDbLine
 10
1064.909230911308
 20
1979.386643550567
 30
0.0
 11
1064.925369520811
 21
1979.41459644219
 31
0.0
  0
LINE
  5
2B9
330
237
100
AcDbEntity
  8
P-SANR-FIXT
100
AcDbLine
 10
1067.668223369383
 20
1980.998183850011
 30
0.0
 11
1067.70050058839
 21
1980.998183850011
 31
0.0
  0
LINE
  5
2BA
330
237
100
AcDbEntity
  8
P-SANR-FIXT
100
AcDbLine
 10
1075.525813069406
 20
1980.998183850011
 30
0.0
 11
1075.558090288413
 21
1980.998183850011
 31
0.0
  0
LINE
  5
2BB
330
237
100
AcDbEntity
  8
P-SANR-FIXT
100
AcDbLine
 10
1078.300944136985
 20
1979.41459644219
 30
0.0
 11
1078.317082746488
 21
1979.386643550567
 31
0.0
  0
LINE
  5
2BC
330
237
100
AcDbEntity
  8
P-SANR-FIXT
100
AcDbLine
 10
1082.229738986997
 20
1972.609724149456
 30
0.0
 11
1082.2458775965
 21
1972.581771257832
 31
0.0
  0
LINE
  5
2BD
330
237
100
AcDbEntity
  8
P-SANR-FIXT
100
AcDbLine
 10
1082.2458775965
 20
1969.414596442191
 30
0.0
 11
1082.229738986997
 21
1969.386643550567
 31
0.0
  0
LINE
  5
2BE
330
237
100
AcDbEntity
  8
P-SANR-FIXT
100
AcDbLine
 10
1078.317082746489
 20
1962.609724149455
 30
0.0
 11
1078.300944136985
 21
1962.581771257832
 31
0.0
  0
LINE
  5
2BF
330
237
100
AcDbEntity
  8
P-SANR-FIXT
100
AcDbLine
 10
1075.558090288413
 20
1960.998183850011
 30
0.0
 11
1075.525813069407
 21
1960.998183850011
 31
0.0
  0
LINE
  5
2C0
330
237
100
AcDbEntity
  8
P-SANR-FIXT
100
AcDbLine
 10
1067.70050058839
 20
1960.998183850011
 30
0.0
 11
1067.668223369384
 21
1960.998183850011
 31
0.0
  0
ARC
  5
2C1
330
237
100
AcDbEntity
  8
P-SANR-FIXT
100
AcDbCircle
 10
1071.613156828898
 20
1970.998183850011
 30
0.0
 40
10.45000000000004
100
AcDbArc
 50
90.0
 51
269.9999999999997
  0
ARC
  5
2C2
330
237
100
AcDbEntity
  8
P-SANR-FIXT
100
AcDbCircle
 10
1071.613156828898
 20
1970.998183850011
 30
0.0
 40
10.45
100
AcDbArc
 50
269.999999999999
 51
89.99999999999937
  0
ARC
  5
2C3
330
237
100
AcDbEntity
  8
P-SANR-FIXT
100
AcDbCircle
 10
1071.613156828898
 20
1970.998183850011
 30
0.0
 40
10.75
100
AcDbArc
 50
90.0
 51
269.9999999999997
  0
ARC
  5
2C4
330
237
100
AcDbEntity
  8
P-SANR-FIXT
100
AcDbCircle
 10
1071.613156828898
 20
1970.998183850011
 30
0.0
 40
10.75
100
AcDbArc
 50
269.9999999999997
 51
89.99999999999879
  0
ARC
  5
2C5
330
237
100
AcDbEntity
  8
P-SANR-FIXT
100
AcDbCircle
 10
1071.613156828898
 20
1970.998183850011
 30
0.0
 40
10.75000000000007
100
AcDbArc
 50
195.0085122929665
 51
195.6473970629522
  0
ARC
  5
2C6
330
237
100
AcDbEntity
  8
P-SANR-FIXT
100
AcDbCircle
 10
1071.613156828898
 20
1970.998183850011
 30
0.0
 40
10.75000000000002
100
AcDbArc
 50
202.5071224951654
 51
202.8236985314763
  0
ARC
  5
2C7
330
237
100
AcDbEntity
  8
P-SANR-FIXT
100
AcDbCircle
 10
1071.613156828898
 20
1970.998183850011
 30
0.0
 40
10.74999999999999
100
AcDbArc
 50
217.1763014685244
 51
217.516320985755
  0
ARC
  5
2C8
330
237
100
AcDbEntity
  8
P-SANR-FIXT
100
AcDbCircle
 10
1071.613156828898
 20
1970.998183850011
 30
0.0
 40
10.75000000000007
100
AcDbArc
 50
224.3526029370483
 51
224.9660839681733
  0
ARC
  5
2C9
330
237
100
AcDbEntity
  8
P-SANR-FIXT
100
AcDbCircle
 10
1071.613156828898
 20
1970.998183850011
 30
0.0
 40
10.75
100
AcDbArc
 50
135.0339160318271
 51
135.647397062953
  0
ARC
  5
2CA
330
237
100
AcDbEntity
  8
P-SANR-FIXT
100
AcDbCircle
 10
1071.613156828898
 20
1970.998183850011
 30
0.0
 40
10.75000000000008
100
AcDbArc
 50
142.4836790142454
 51
142.823698531476
  0
ARC
  5
2CB
330
237
100
AcDbEntity
  8
P-SANR-FIXT
100
AcDbCircle
 10
1071.613156828898
 20
1970.998183850011
 30
0.0
 40
10.75000000000005
100
AcDbArc
 50
157.1763014685241
 51
157.4928775048334
  0
ARC
  5
2CC
330
237
100
AcDbEntity
  8
P-SANR-FIXT
100
AcDbCircle
 10
1071.613156828898
 20
1970.998183850011
 30
0.0
 40
10.74999999999997
100
AcDbArc
 50
164.3526029370486
 51
164.991487707032
  0
ARC
  5
2CD
330
237
100
AcDbEntity
  8
P-SANR-FIXT
100
AcDbCircle
 10
1071.613156828898
 20
1970.998183850011
 30
0.0
 40
10.75000000000012
100
AcDbArc
 50
97.52277721845246
 51
105.0683046804851
  0
ARC
  5
2CE
330
237
100
AcDbEntity
  8
P-SANR-FIXT
100
AcDbCircle
 10
1071.613156828898
 20
1970.998183850011
 30
0.0
 40
10.74999999999999
100
AcDbArc
 50
254.9316953195142
 51
262.477222781547
  0
ARC
  5
2CF
330
237
100
AcDbEntity
  8
P-SANR-FIXT
100
AcDbCircle
 10
1071.613156828898
 20
1970.998183850011
 30
0.0
 40
10.74999999999985
100
AcDbArc
 50
15.00851229296772
 51
15.64739706295191
  0
ARC
  5
2D0
330
237
100
AcDbEntity
  8
P-SANR-FIXT
100
AcDbCircle
 10
1071.613156828898
 20
1970.998183850011
 30
0.0
 40
10.74999999999993
100
AcDbArc
 50
22.50712249516615
 51
22.82369853147659
  0
ARC
  5
2D1
330
237
100
AcDbEntity
  8
P-SANR-FIXT
100
AcDbCircle
 10
1071.613156828898
 20
1970.998183850011
 30
0.0
 40
10.74999999999999
100
AcDbArc
 50
37.17630146852427
 51
37.51632098575417
  0
ARC
  5
2D2
330
237
100
AcDbEntity
  8
P-SANR-FIXT
100
AcDbCircle
 10
1071.613156828898
 20
1970.998183850011
 30
0.0
 40
10.74999999999991
100
AcDbArc
 50
44.35260293704827
 51
44.96608396817497
  0
ARC
  5
2D3
330
237
100
AcDbEntity
  8
P-SANR-FIXT
100
AcDbCircle
 10
1071.613156828898
 20
1970.998183850011
 30
0.0
 40
10.75
100
AcDbArc
 50
315.0339160318242
 51
315.6473970629518
  0
ARC
  5
2D4
330
237
100
AcDbEntity
  8
P-SANR-FIXT
100
AcDbCircle
 10
1071.613156828898
 20
1970.998183850011
 30
0.0
 40
10.75000000000004
100
AcDbArc
 50
322.4836790142444
 51
322.823698531475
  0
ARC
  5
2D5
330
237
100
AcDbEntity
  8
P-SANR-FIXT
100
AcDbCircle
 10
1071.613156828898
 20
1970.998183850011
 30
0.0
 40
10.75000000000014
100
AcDbArc
 50
337.176301468524
 51
337.4928775048334
  0
ARC
  5
2D6
330
237
100
AcDbEntity
  8
P-SANR-FIXT
100
AcDbCircle
 10
1071.613156828898
 20
1970.998183850011
 30
0.0
 40
10.74999999999997
100
AcDbArc
 50
344.3526029370472
 51
344.9914877070314
  0
ARC
  5
2D7
330
237
100
AcDbEntity
  8
P-SANR-FIXT
100
AcDbCircle
 10
1071.613156828898
 20
1970.998183850011
 30
0.0
 40
10.75000000000006
100
AcDbArc
 50
277.5227772184497
 51
285.068304680484
  0
ARC
  5
2D8
330
237
100
AcDbEntity
  8
P-SANR-FIXT
100
AcDbCircle
 10
1071.613156828898
 20
1970.998183850011
 30
0.0
 40
10.74999999999999
100
AcDbArc
 50
74.93169531951448
 51
82.47722278154737
  0
ARC
  5
2D9
330
237
100
AcDbEntity
  8
P-SANR-FIXT
100
AcDbCircle
 10
1071.613156828898
 20
1970.998183850011
 30
0.0
 40
12.0
100
AcDbArc
 50
90.0
 51
269.9999999999997
  0
ARC
  5
2DA
330
237
100
AcDbEntity
  8
P-SANR-FIXT
100
AcDbCircle
 10
1071.613156828898
 20
1970.998183850011
 30
0.0
 40
12.0
100
AcDbArc
 50
269.9999999999997
 51
89.99999999999891
  0
ARC
  5
2DB
330
237
100
AcDbEntity
  8
P-SANR-FIXT
100
AcDbCircle
 10
1071.613156828898
 20
1970.998183850011
 30
0.0
 40
9.150000000000204
100
AcDbArc
 50
90.00000000000072
 51
270.0000000000003
  0
ARC
  5
2DC
330
237
100
AcDbEntity
  8
P-SANR-FIXT
100
AcDbCircle
 10
1071.613156828898
 20
1970.998183850011
 30
0.0
 40
9.15000000000009
100
AcDbArc
 50
269.9999999999997
 51
90.0
  0
ENDBLK
  5
2DE
330
237
100
AcDbEntity
  8
0
100
AcDbBlockEnd
  0
ENDSEC
  0
SECTION
  2
ENTITIES
  0
INSERT
  5
168
330
71
100
AcDbEntity
  8
P-SANR-FIXT
100
AcDbBlockReference
  2
Automatic flow rate regulator valve_Caleffi_121 DN15 - 1_2__-859151-Est - Idraulica
 10
0.0
 20
0.0
 30
0.0
1001
REVIT
1002
{
1070
     1
1000
863131
1002
}
1002
{
1070
     5
1000
859151
1002
}
1002
{
1070
     2
1000
-2001160
1002
}
  0
INSERT
  5
236
330
71
100
AcDbEntity
  8
P-SANR-FIXT
100
AcDbBlockReference
  2
Automatic flow rate regulator valve_Caleffi_121 DN15 - 1_2__-V1-Est - Idraulica
 10
0.0
 20
0.0
 30
0.0
1001
REVIT
1002
{
1070
     1
1000
863152
1002
}
1002
{
1070
     5
1000
859151
1002
}
1002
{
1070
     2
1000
-2001160
1002
}
  0
INSERT
  5
2DF
330
71
100
AcDbEntity
  8
P-SANR-FIXT
100
AcDbBlockReference
  2
Automatic flow rate regulator valve_Caleffi_121 DN15 - 1_2__-V2-Est - Idraulica
 10
0.0
 20
0.0
 30
0.0
1001
REVIT
1002
{
1070
     1
1000
863172
1002
}
1002
{
1070
     5
1000
859151
1002
}
1002
{
1070
     2
1000
-2001160
1002
}
  0
ENDSEC
  0
SECTION
  2
OBJECTS
  0
DICTIONARY
  5
C
330
0
100
AcDbDictionary
281
     1
  3
ACAD_CIP_PREVIOUS_PRODUCT_INFO
350
7A
  3
ACAD_COLOR
350
63
  3
ACAD_DETAILVIEWSTYLE
350
6B
  3
ACAD_GROUP
350
D
  3
ACAD_IMAGE_VARS
350
7B
  3
ACAD_LAYOUT
350
62
  3
ACAD_MATERIAL
350
10
  3
ACAD_MLEADERSTYLE
350
66
  3
ACAD_MLINESTYLE
350
5F
  3
ACAD_PLOTSETTINGS
350
61
  3
ACAD_PLOTSTYLENAME
350
E
  3
ACAD_SCALELIST
350
42
  3
ACAD_SECTIONVIEWSTYLE
350
68
  3
ACAD_TABLESTYLE
350
64
  3
ACAD_VISUALSTYLE
350
29
  3
ACDB_RECOMPOSE_DATA
350
2EA
  3
AcDbVariableDictionary
350
7C
  3
REVIT_DICTIONARY
350
2E1
  0
DICTIONARY
  5
2E6
330
71
100
AcDbDictionary
280
     1
281
     1
  3
ACAD_SORTENTS
360
2E7
  0
XRECORD
  5
7A
102
{ACAD_REACTORS
330
C
102
}
330
C
100
AcDbXrecord
280
     1
300
RVT
300
2013
300
RVT2013
  0
DICTIONARY
  5
63
102
{ACAD_REACTORS
330
C
102
}
330
C
100
AcDbDictionary
281
     1
  0
DICTIONARY
  5
6B
102
{ACAD_REACTORS
330
C
102
}
330
C
100
AcDbDictionary
281
     1
  3
Imperial24
350
6C
  0
DICTIONARY
  5
D
102
{ACAD_REACTORS
330
C
102
}
330
C
100
AcDbDictionary
281
     1
  0
RASTERVARIABLES
  5
7B
102
{ACAD_REACTORS
330
C
102
}
330
C
100
AcDbRasterVariables
 90
        0
 70
     0
 71
     1
 72
     1
  0
DICTIONARY
  5
62
102
{ACAD_REACTORS
330
C
102
}
330
C
100
AcDbDictionary
281
     1
  3
Layout1
350
70
  3
Layout2
350
78
  3
Model
350
74
  0
DICTIONARY
  5
10
102
{ACAD_REACTORS
330
C
102
}
330
C
100
AcDbDictionary
281
     1
  3
ByBlock
350
19
  3
ByLayer
350
11
  3
Global
350
21
  0
DICTIONARY
  5
66
102
{ACAD_REACTORS
330
C
102
}
330
C
100
AcDbDictionary
281
     1
  3
Standard
350
67
  0
DICTIONARY
  5
5F
102
{ACAD_REACTORS
330
C
102
}
330
C
100
AcDbDictionary
281
     1
  3
Standard
350
60
  0
DICTIONARY
  5
61
102
{ACAD_REACTORS
330
C
102
}
330
C
100
AcDbDictionary
281
     1
  0
ACDBDICTIONARYWDFLT
  5
E
102
{ACAD_REACTORS
330
C
102
}
330
C
100
AcDbDictionary
281
     1
  3
Normal
350
F
100
AcDbDictionaryWithDefault
340
F
  0
DICTIONARY
  5
42
102
{ACAD_REACTORS
330
C
102
}
330
C
100
AcDbDictionary
281
     1
  3
A0
350
43
  3
A1
350
44
  3
A2
350
45
  3
A3
350
46
  3
A4
350
47
  3
A5
350
48
  3
A6
350
49
  3
A7
350
4A
  3
A8
350
4B
  3
A9
350
4C
  3
B0
350
4D
  3
B1
350
4E
  3
B2
350
4F
  3
B3
350
50
  3
B4
350
51
  3
B5
350
52
  3
B6
350
53
  0
DICTIONARY
  5
68
102
{ACAD_REACTORS
330
C
102
}
330
C
100
AcDbDictionary
281
     1
  3
Imperial24
350
6A
  0
DICTIONARY
  5
64
102
{ACAD_REACTORS
330
C
102
}
330
C
100
AcDbDictionary
281
     1
  3
Standard
350
65
  0
DICTIONARY
  5
29
102
{ACAD_REACTORS
330
C
102
}
330
C
100
AcDbDictionary
281
     1
  3
2dWireframe
350
2F
  3
Basic
350
2E
  3
Brighten
350
35
  3
ColorChange
350
39
  3
Conceptual
350
32
  3
Dim
350
34
  3
EdgeColorOff
350
41
  3
Facepattern
350
38
  3
Flat
350
2A
  3
FlatWithEdges
350
2B
  3
Gouraud
350
2C
  3
GouraudWithEdges
350
2D
  3
Hidden
350
31
  3
JitterOff
350
3F
  3
Linepattern
350
37
  3
OverhangOff
350
40
  3
Realistic
350
33
  3
Shaded
350
3E
  3
Shaded with edges
350
3D
  3
Shades of Gray
350
3A
  3
Sketchy
350
3B
  3
Thicken
350
36
  3
Wireframe
350
30
  3
X-Ray
350
3C
  0
XRECORD
  5
2EA
102
{ACAD_REACTORS
330
C
102
}
330
C
100
AcDbXrecord
280
     1
 90
        1
330
65
  0
DICTIONARY
  5
7C
102
{ACAD_REACTORS
330
C
102
}
330
C
100
AcDbDictionary
281
     1
  3
CANNOSCALE
350
81
  3
CMLEADERSTYLE
350
7E
  3
CTABLESTYLE
350
7D
  3
CVIEWDETAILSTYLE
350
7F
  3
CVIEWSECTIONSTYLE
350
80
  0
DICTIONARY
  5
2E1
102
{ACAD_REACTORS
330
C
102
}
330
C
100
AcDbDictionary
281
     1
  3
DRAWING_TOOL
350
2E5
  3
REVIT_CATEGORY_MAPPING
350
2E3
  3
REVIT_SUB_CATEGORY_MAPPING
350
2E4
  3
REVIT_TYPE_MAPPING
350
2E2
  0
SORTENTSTABLE
  5
2E7
102
{ACAD_REACTORS
330
2E6
102
}
330
2E6
100
AcDbSortentsTable
330
71
  0
ACDBDETAILVIEWSTYLE
  5
6C
102
{ACAD_REACTORS
330
6B
102
}
330
6B
100
AcDbModelDocViewStyle
 70
     0
  3
Imperial24
290
     1
100
AcDbDetailViewStyle
 70
     0
 71
     0
 90
        3
 71
     1
340
55
 62
   256
 40
0.24
340
0
 62
   256
 40
0.24
300

 40
0.36
280
     3
 71
     2
340
5D
 90
       25
 62
   256
 71
     3
340
55
 62
   256
 40
0.24
 90
        1
 40
0.75
 90
        1
300
%<\AcVar ViewType \f "%tc1">% %<\AcVar ViewDetailId>%\PSCALA %<\AcVar ViewScale \f "%sn">%
 71
     4
340
5D
 90
       25
 62
   256
340
5D
 90
       25
 62
   256
280
     0
  0
LAYOUT
  5
70
102
{ACAD_REACTORS
330
62
102
}
330
62
100
AcDbPlotSettings
  1

  2

  4

  6

 40
0.0
 41
0.0
 42
0.0
 43
0.0
 44
0.0
 45
0.0
 46
0.0
 47
0.0
 48
0.0
 49
0.0
140
0.0
141
0.0
142
1.0
143
1.0
 70
   688
 72
     0
 73
     0
 74
     5
  7

 75
    16
147
1.0
 76
     0
 77
     2
 78
   300
148
0.0
149
0.0
100
AcDbLayout
  1
Layout1
 70
     1
 71
     1
 10
0.0
 20
0.0
 11
12.0
 21
9.0
 12
0.0
 22
0.0
 32
0.0
 14
0.0
 24
0.0
 34
0.0
 15
0.0
 25
0.0
 35
0.0
146
0.0
 13
0.0
 23
0.0
 33
0.0
 16
1.0
 26
0.0
 36
0.0
 17
0.0
 27
1.0
 37
0.0
 76
     0
330
6D
  0
LAYOUT
  5
78
102
{ACAD_REACTORS
330
62
102
}
330
62
100
AcDbPlotSettings
  1

  2

  4

  6

 40
0.0
 41
0.0
 42
0.0
 43
0.0
 44
0.0
 45
0.0
 46
0.0
 47
0.0
 48
0.0
 49
0.0
140
0.0
141
0.0
142
1.0
143
1.0
 70
   688
 72
     0
 73
     0
 74
     5
  7

 75
    16
147
1.0
 76
     0
 77
     2
 78
   300
148
0.0
149
0.0
100
AcDbLayout
  1
Layout2
 70
     1
 71
     2
 10
0.0
 20
0.0
 11
12.0
 21
9.0
 12
0.0
 22
0.0
 32
0.0
 14
0.0
 24
0.0
 34
0.0
 15
0.0
 25
0.0
 35
0.0
146
0.0
 13
0.0
 23
0.0
 33
0.0
 16
1.0
 26
0.0
 36
0.0
 17
0.0
 27
1.0
 37
0.0
 76
     0
330
75
  0
LAYOUT
  5
74
102
{ACAD_REACTORS
330
62
102
}
330
62
100
AcDbPlotSettings
  1

  2

  4

  6

 40
0.0
 41
0.0
 42
0.0
 43
0.0
 44
0.0
 45
0.0
 46
0.0
 47
0.0
 48
0.0
 49
0.0
140
0.0
141
0.0
142
1.0
143
1.0
 70
  1712
 72
     0
 73
     0
 74
     0
  7

 75
     0
147
1.0
 76
     0
 77
     2
 78
   300
148
0.0
149
0.0
100
AcDbLayout
  1
Model
 70
     1
 71
     0
 10
0.0
 20
0.0
 11
12.0
 21
9.0
 12
0.0
 22
0.0
 32
0.0
 14
0.0
 24
0.0
 34
0.0
 15
0.0
 25
0.0
 35
0.0
146
0.0
 13
0.0
 23
0.0
 33
0.0
 16
1.0
 26
0.0
 36
0.0
 17
0.0
 27
1.0
 37
0.0
 76
     0
330
71
  0
MATERIAL
  5
19
102
{ACAD_XDICTIONARY
360
1A
102
}
102
{ACAD_REACTORS
330
10
102
}
330
10
100
AcDbMaterial
  1
ByBlock
 72
     0
 43
0.0208333333333333
 43
0.0
 43
0.0
 43
0.0
 43
0.0
 43
0.0208333333333333
 43
0.0
 43
0.0
 43
0.0
 43
0.0
 43
1.0
 43
0.0
 43
0.0
 43
0.0
 43
0.0
 43
1.0
 77
     0
 47
0.0208333333333333
 47
0.0
 47
0.0
 47
0.0
 47
0.0
 47
0.0208333333333333
 47
0.0
 47
0.0
 47
0.0
 47
0.0
 47
1.0
 47
0.0
 47
0.0
 47
0.0
 47
0.0
 47
1.0
171
     0
 49
0.0208333333333333
 49
0.0
 49
0.0
 49
0.0
 49
0.0
 49
0.0208333333333333
 49
0.0
 49
0.0
 49
0.0
 49
0.0
 49
1.0
 49
0.0
 49
0.0
 49
0.0
 49
0.0
 49
1.0
175
     0
142
0.0208333333333333
142
0.0
142
0.0
142
0.0
142
0.0
142
0.0208333333333333
142
0.0
142
0.0
142
0.0
142
0.0
142
1.0
142
0.0
142
0.0
142
0.0
142
0.0
142
1.0
179
     0
144
0.0208333333333333
144
0.0
144
0.0
144
0.0
144
0.0
144
0.0208333333333333
144
0.0
144
0.0
144
0.0
144
0.0
144
1.0
144
0.0
144
0.0
144
0.0
144
0.0
144
1.0
147
0.0208333333333333
147
0.0
147
0.0
147
0.0
147
0.0
147
0.0208333333333333
147
0.0
147
0.0
147
0.0
147
0.0
147
1.0
147
0.0
147
0.0
147
0.0
147
0.0
147
1.0
  0
MATERIAL
  5
11
102
{ACAD_XDICTIONARY
360
12
102
}
102
{ACAD_REACTORS
330
10
102
}
330
10
100
AcDbMaterial
  1
ByLayer
 72
     0
 43
0.0208333333333333
 43
0.0
 43
0.0
 43
0.0
 43
0.0
 43
0.0208333333333333
 43
0.0
 43
0.0
 43
0.0
 43
0.0
 43
1.0
 43
0.0
 43
0.0
 43
0.0
 43
0.0
 43
1.0
 77
     0
 47
0.0208333333333333
 47
0.0
 47
0.0
 47
0.0
 47
0.0
 47
0.0208333333333333
 47
0.0
 47
0.0
 47
0.0
 47
0.0
 47
1.0
 47
0.0
 47
0.0
 47
0.0
 47
0.0
 47
1.0
171
     0
 49
0.0208333333333333
 49
0.0
 49
0.0
 49
0.0
 49
0.0
 49
0.0208333333333333
 49
0.0
 49
0.0
 49
0.0
 49
0.0
 49
1.0
 49
0.0
 49
0.0
 49
0.0
 49
0.0
 49
1.0
175
     0
142
0.0208333333333333
142
0.0
142
0.0
142
0.0
142
0.0
142
0.0208333333333333
142
0.0
142
0.0
142
0.0
142
0.0
142
1.0
142
0.0
142
0.0
142
0.0
142
0.0
142
1.0
179
     0
144
0.0208333333333333
144
0.0
144
0.0
144
0.0
144
0.0
144
0.0208333333333333
144
0.0
144
0.0
144
0.0
144
0.0
144
1.0
144
0.0
144
0.0
144
0.0
144
0.0
144
1.0
147
0.0208333333333333
147
0.0
147
0.0
147
0.0
147
0.0
147
0.0208333333333333
147
0.0
147
0.0
147
0.0
147
0.0
147
1.0
147
0.0
147
0.0
147
0.0
147
0.0
147
1.0
  0
MATERIAL
  5
21
102
{ACAD_XDICTIONARY
360
22
102
}
102
{ACAD_REACTORS
330
10
102
}
330
10
100
AcDbMaterial
  1
Global
 72
     0
 43
0.0208333333333333
 43
0.0
 43
0.0
 43
0.0
 43
0.0
 43
0.0208333333333333
 43
0.0
 43
0.0
 43
0.0
 43
0.0
 43
1.0
 43
0.0
 43
0.0
 43
0.0
 43
0.0
 43
1.0
 77
     0
 47
0.0208333333333333
 47
0.0
 47
0.0
 47
0.0
 47
0.0
 47
0.0208333333333333
 47
0.0
 47
0.0
 47
0.0
 47
0.0
 47
1.0
 47
0.0
 47
0.0
 47
0.0
 47
0.0
 47
1.0
171
     0
 49
0.0208333333333333
 49
0.0
 49
0.0
 49
0.0
 49
0.0
 49
0.0208333333333333
 49
0.0
 49
0.0
 49
0.0
 49
0.0
 49
1.0
 49
0.0
 49
0.0
 49
0.0
 49
0.0
 49
1.0
175
     0
142
0.0208333333333333
142
0.0
142
0.0
142
0.0
142
0.0
142
0.0208333333333333
142
0.0
142
0.0
142
0.0
142
0.0
142
1.0
142
0.0
142
0.0
142
0.0
142
0.0
142
1.0
179
     0
144
0.0208333333333333
144
0.0
144
0.0
144
0.0
144
0.0
144
0.0208333333333333
144
0.0
144
0.0
144
0.0
144
0.0
144
1.0
144
0.0
144
0.0
144
0.0
144
0.0
144
1.0
147
0.0208333333333333
147
0.0
147
0.0
147
0.0
147
0.0
147
0.0208333333333333
147
0.0
147
0.0
147
0.0
147
0.0
147
1.0
147
0.0
147
0.0
147
0.0
147
0.0
147
1.0
  0
MLEADERSTYLE
  5
67
102
{ACAD_REACTORS
330
66
102
}
330
66
100
AcDbMLeaderStyle
179
     2
170
     2
171
     1
172
     0
 90
        2
 40
0.0
 41
0.0
173
     1
 91
-1056964608
340
5B
 92
       -2
290
     1
 42
0.09
291
     1
 43
0.36
  3
Standard
 44
0.18
300

342
55
174
     1
178
     6
175
     1
176
     0
 93
-1056964608
 45
0.18
292
     0
297
     0
 46
0.18
 94
-1056964608
 47
1.0
 49
1.0
140
1.0
293
     1
141
0.0
294
     1
177
     0
142
1.0
295
     1
296
     0
143
0.125
271
     0
272
     9
273
     9
298
     1
  0
MLINESTYLE
  5
60
102
{ACAD_REACTORS
330
5F
102
}
330
5F
100
AcDbMlineStyle
  2
STANDARD
 70
     0
  3

 62
   256
 51
90.0
 52
90.0
 71
     2
 49
0.5
 62
   256
  6
BYLAYER
 49
-0.5
 62
   256
  6
BYLAYER
  0
ACDBPLACEHOLDER
  5
F
102
{ACAD_REACTORS
330
E
102
}
330
E
  0
SCALE
  5
43
102
{ACAD_REACTORS
330
42
102
}
330
42
100
AcDbScale
 70
     0
300
1:1
140
1.0
141
1.0
290
     1
  0
SCALE
  5
44
102
{ACAD_REACTORS
330
42
102
}
330
42
100
AcDbScale
 70
     0
300
1/128" = 1'-0"
140
0.0078125
141
12.0
290
     0
  0
SCALE
  5
45
102
{ACAD_REACTORS
330
42
102
}
330
42
100
AcDbScale
 70
     0
300
1/64" = 1'-0"
140
0.015625
141
12.0
290
     0
  0
SCALE
  5
46
102
{ACAD_REACTORS
330
42
102
}
330
42
100
AcDbScale
 70
     0
300
1/32" = 1'-0"
140
0.03125
141
12.0
290
     0
  0
SCALE
  5
47
102
{ACAD_REACTORS
330
42
102
}
330
42
100
AcDbScale
 70
     0
300
1/16" = 1'-0"
140
0.0625
141
12.0
290
     0
  0
SCALE
  5
48
102
{ACAD_REACTORS
330
42
102
}
330
42
100
AcDbScale
 70
     0
300
3/32" = 1'-0"
140
0.09375
141
12.0
290
     0
  0
SCALE
  5
49
102
{ACAD_REACTORS
330
42
102
}
330
42
100
AcDbScale
 70
     0
300
1/8" = 1'-0"
140
0.125
141
12.0
290
     0
  0
SCALE
  5
4A
102
{ACAD_REACTORS
330
42
102
}
330
42
100
AcDbScale
 70
     0
300
3/16" = 1'-0"
140
0.1875
141
12.0
290
     0
  0
SCALE
  5
4B
102
{ACAD_REACTORS
330
42
102
}
330
42
100
AcDbScale
 70
     0
300
1/4" = 1'-0"
140
0.25
141
12.0
290
     0
  0
SCALE
  5
4C
102
{ACAD_REACTORS
330
42
102
}
330
42
100
AcDbScale
 70
     0
300
3/8" = 1'-0"
140
0.375
141
12.0
290
     0
  0
SCALE
  5
4D
102
{ACAD_REACTORS
330
42
102
}
330
42
100
AcDbScale
 70
     0
300
1/2" = 1'-0"
140
0.5
141
12.0
290
     0
  0
SCALE
  5
4E
102
{ACAD_REACTORS
330
42
102
}
330
42
100
AcDbScale
 70
     0
300
3/4" = 1'-0"
140
0.75
141
12.0
290
     0
  0
SCALE
  5
4F
102
{ACAD_REACTORS
330
42
102
}
330
42
100
AcDbScale
 70
     0
300
1" = 1'-0"
140
1.0
141
12.0
290
     0
  0
SCALE
  5
50
102
{ACAD_REACTORS
330
42
102
}
330
42
100
AcDbScale
 70
     0
300
1-1/2" = 1'-0"
140
1.5
141
12.0
290
     0
  0
SCALE
  5
51
102
{ACAD_REACTORS
330
42
102
}
330
42
100
AcDbScale
 70
     0
300
3" = 1'-0"
140
3.0
141
12.0
290
     0
  0
SCALE
  5
52
102
{ACAD_REACTORS
330
42
102
}
330
42
100
AcDbScale
 70
     0
300
6" = 1'-0"
140
6.0
141
12.0
290
     0
  0
SCALE
  5
53
102
{ACAD_REACTORS
330
42
102
}
330
42
100
AcDbScale
 70
     0
300
1'-0" = 1'-0"
140
12.0
141
12.0
290
     0
  0
ACDBSECTIONVIEWSTYLE
  5
6A
102
{ACAD_REACTORS
330
68
102
}
330
68
100
AcDbModelDocViewStyle
 70
     0
  3
Imperial24
290
     1
100
AcDbSectionViewStyle
 70
     0
 71
     0
 90
       78
 71
     1
340
55
 62
   256
 40
0.24
340
0
340
0
 62
   256
 40
0.24
300
I, O, Q, S, X, Z
 40
0.48
 90
        3
 40
0.18
 90
        1
 71
     2
340
69
 90
       25
 62
   256
340
5D
 90
       50
 62
   256
 40
0.24
 40
0.0
 40
0.24
 71
     3
340
55
 62
   256
 40
0.24
 90
        1
 40
0.75
 90
        1
300
%<\AcVar ViewType \f "%tc1">% %<\AcVar ViewSectionStartId>%-%<\AcVar ViewSectionEndId>%\PSCALA %<\AcVar ViewScale \f "%sn">%
 71
     4
 62
   256
 62
   257
300
ANSI31
 40
1.0
 90
        0
290
     0
290
     0
 90
        6
 40
0.0
 40
1.570796326794896
 40
0.2617993877991494
 40
1.308996938995747
 40
-0.2617993877991494
 40
1.832595714594046
  0
TABLESTYLE
  5
65
102
{ACAD_XDICTIONARY
360
2E8
102
}
102
{ACAD_REACTORS
330
64
102
}
330
64
100
AcDbTableStyle
280
     0
  3
Standard
 70
     0
 71
     0
 40
0.06
 41
0.06
280
     0
281
     0
  7
Standard
140
0.18
170
     2
 62
     0
 63
     7
283
     0
 90
      512
 91
        0
  1

274
    -2
284
     1
 64
     0
275
    -2
285
     1
 65
     0
276
    -2
286
     1
 66
     0
277
    -2
287
     1
 67
     0
278
    -2
288
     1
 68
     0
279
    -2
289
     1
 69
     0
  7
Standard
140
0.25
170
     5
 62
     0
 63
     7
283
     0
 90
      512
 91
        0
  1

274
    -2
284
     1
 64
     0
275
    -2
285
     1
 65
     0
276
    -2
286
     1
 66
     0
277
    -2
287
     1
 67
     0
278
    -2
288
     1
 68
     0
279
    -2
289
     1
 69
     0
  7
Standard
140
0.18
170
     5
 62
     0
 63
     7
283
     0
 90
      512
 91
        0
  1

274
    -2
284
     1
 64
     0
275
    -2
285
     1
 65
     0
276
    -2
286
     1
 66
     0
277
    -2
287
     1
 67
     0
278
    -2
288
     1
 68
     0
279
    -2
289
     1
 69
     0
  0
VISUALSTYLE
  5
2F
102
{ACAD_REACTORS
330
29
102
}
330
29
100
AcDbVisualStyle
  2
2dWireframe
 70
     4
177
     3
291
     0
 70
    58
 90
        0
176
     1
 90
        2
176
     1
 90
        0
176
     1
 90
        0
176
     1
 40
0.6
176
     1
 40
30.0
176
     1
 62
     7
420
 16777215
176
     1
 90
        1
176
     1
 90
        4
176
     1
 62
     7
176
     1
 62
   257
176
     1
 90
        1
176
     1
 90
        1
176
     1
 40
1.0
176
     1
 90
        0
176
     1
 62
   257
176
     1
 40
1.0
176
     1
 90
        1
176
     1
 90
        6
176
     1
 90
        2
176
     1
 62
     7
176
     1
 90
        5
176
     1
 90
        0
176
     1
 90
        0
176
     1
290
     0
176
     1
 90
        1
176
     1
 40
0.0
176
     1
 90
        0
176
     1
290
     1
176
     1
290
     1
176
     1
290
     0
176
     1
290
     0
176
     1
290
     0
176
     1
290
     0
176
     1
290
     0
176
     1
290
     0
176
     1
290
     0
176
     1
 90
       50
176
     1
 40
0.0
176
     1
 40
1.0
176
     1
 90
        0
176
     1
 62
    18
420
        0
176
     1
 90
       50
176
     1
 90
        3
176
     1
 62
     5
420
      255
176
     1
290
     0
176
     1
 90
       50
176
     1
 90
       50
176
     1
 90
       50
176
     1
290
     0
176
     1
 90
       50
176
     1
 62
   256
176
     0
 40
1.0
176
     0
 90
        2
176
     1
  1
strokes_ogs.tif
176
     1
290
     0
176
     1
 40
1.0
176
     1
 40
1.0
176
     1
  0
VISUALSTYLE
  5
2E
102
{ACAD_REACTORS
330
29
102
}
330
29
100
AcDbVisualStyle
  2
Basic
 70
     7
177
     3
291
     1
 70
    58
 90
        1
176
     1
 90
        0
176
     1
 90
        1
176
     1
 90
        0
176
     1
 40
0.6
176
     1
 40
30.0
176
     1
 62
     7
420
 16777215
176
     1
 90
        0
176
     1
 90
        4
176
     1
 62
     7
176
     1
 62
   257
176
     1
 90
        1
176
     1
 90
        1
176
     1
 40
1.0
176
     1
 90
        8
176
     1
 62
     7
176
     1
 40
1.0
176
     1
 90
        1
176
     1
 90
        6
176
     1
 90
        2
176
     1
 62
     7
176
     1
 90
        5
176
     1
 90
        0
176
     1
 90
        0
176
     1
290
     0
176
     1
 90
        1
176
     1
 40
0.0
176
     1
 90
        0
176
     1
290
     0
176
     1
290
     1
176
     1
290
     1
176
     1
290
     0
176
     1
290
     0
176
     1
290
     0
176
     1
290
     0
176
     1
290
     0
176
     1
290
     0
176
     1
 90
       50
176
     1
 40
0.0
176
     1
 40
1.0
176
     1
 90
        0
176
     1
 62
    18
420
        0
176
     1
 90
       50
176
     1
 90
        3
176
     1
 62
     5
420
      255
176
     1
290
     0
176
     1
 90
       50
176
     1
 90
       50
176
     1
 90
       50
176
     1
290
     0
176
     1
 90
       50
176
     1
 62
   256
176
     0
 40
1.0
176
     0
 90
        2
176
     1
  1
strokes_ogs.tif
176
     1
290
     0
176
     1
 40
1.0
176
     1
 40
1.0
176
     1
  0
VISUALSTYLE
  5
35
102
{ACAD_REACTORS
330
29
102
}
330
29
100
AcDbVisualStyle
  2
Brighten
 70
    12
177
     3
291
     1
 70
    58
 90
        2
176
     1
 90
        2
176
     1
 90
        0
176
     1
 90
        0
176
     1
 40
0.6
176
     1
 40
30.0
176
     1
 62
     7
420
 16777215
176
     1
 90
        1
176
     1
 90
        4
176
     1
 62
     7
176
     1
 62
   257
176
     1
 90
        1
176
     1
 90
        1
176
     1
 40
1.0
176
     1
 90
        8
176
     1
 62
     7
176
     1
 40
1.0
176
     1
 90
        1
176
     1
 90
        6
176
     1
 90
        2
176
     1
 62
     7
176
     1
 90
        5
176
     1
 90
        0
176
     1
 90
        0
176
     1
290
     0
176
     1
 90
        1
176
     1
 40
50.0
176
     1
 90
        0
176
     1
290
     0
176
     1
290
     1
176
     1
290
     1
176
     1
290
     0
176
     1
290
     0
176
     1
290
     0
176
     1
290
     0
176
     1
290
     0
176
     1
290
     0
176
     1
 90
       50
176
     1
 40
0.0
176
     1
 40
1.0
176
     1
 90
        0
176
     1
 62
    18
420
        0
176
     1
 90
       50
176
     1
 90
        3
176
     1
 62
     5
420
      255
176
     1
290
     0
176
     1
 90
       50
176
     1
 90
       50
176
     1
 90
       50
176
     1
290
     0
176
     1
 90
       50
176
     1
 62
   256
176
     0
 40
1.0
176
     0
 90
        2
176
     1
  1
strokes_ogs.tif
176
     1
290
     0
176
     1
 40
1.0
176
     1
 40
1.0
176
     1
  0
VISUALSTYLE
  5
39
102
{ACAD_REACTORS
330
29
102
}
330
29
100
AcDbVisualStyle
  2
ColorChange
 70
    16
177
     3
291
     1
 70
    58
 90
        2
176
     1
 90
        2
176
     1
 90
        3
176
     1
 90
        0
176
     1
 40
0.6
176
     1
 40
30.0
176
     1
 62
     8
420
  8421504
176
     1
 90
        1
176
     1
 90
        4
176
     1
 62
     7
176
     1
 62
   257
176
     1
 90
        1
176
     1
 90
        1
176
     1
 40
1.0
176
     1
 90
        8
176
     1
 62
     8
420
  8421504
176
     1
 40
1.0
176
     1
 90
        1
176
     1
 90
        6
176
     1
 90
        2
176
     1
 62
     7
176
     1
 90
        5
176
     1
 90
        0
176
     1
 90
        0
176
     1
290
     0
176
     1
 90
        1
176
     1
 40
0.0
176
     1
 90
        0
176
     1
290
     0
176
     1
290
     1
176
     1
290
     1
176
     1
290
     0
176
     1
290
     0
176
     1
290
     0
176
     1
290
     0
176
     1
290
     0
176
     1
290
     0
176
     1
 90
       50
176
     1
 40
0.0
176
     1
 40
1.0
176
     1
 90
        0
176
     1
 62
    18
420
        0
176
     1
 90
       50
176
     1
 90
        3
176
     1
 62
     5
420
      255
176
     1
290
     0
176
     1
 90
       50
176
     1
 90
       50
176
     1
 90
       50
176
     1
290
     0
176
     1
 90
       50
176
     1
 62
   256
176
     0
 40
1.0
176
     0
 90
        2
176
     1
  1
strokes_ogs.tif
176
     1
290
     0
176
     1
 40
1.0
176
     1
 40
1.0
176
     1
  0
VISUALSTYLE
  5
32
102
{ACAD_REACTORS
330
29
102
}
330
29
100
AcDbVisualStyle
  2
Conceptual
 70
     9
177
     3
291
     0
 70
    58
 90
        3
176
     1
 90
        2
176
     1
 90
        0
176
     1
 90
        0
176
     1
 40
0.6
176
     1
 40
30.0
176
     1
 62
     7
420
 16777215
176
     1
 90
        2
176
     1
 90
        2
176
     1
 62
     7
176
     1
 62
   257
176
     1
 90
        1
176
     1
 90
        1
176
     1
 40
179.0
176
     1
 90
        8
176
     1
 62
     7
176
     1
 40
1.0
176
     1
 90
        1
176
     1
 90
        6
176
     1
 90
        2
176
     1
 62
     7
176
     1
 90
        3
176
     1
 90
        0
176
     1
 90
        0
176
     1
290
     0
176
     1
 90
        1
176
     1
 40
0.0
176
     1
 90
        0
176
     1
290
     0
176
     1
290
     1
176
     1
290
     1
176
     1
290
     0
176
     1
290
     0
176
     1
290
     0
176
     1
290
     0
176
     1
290
     0
176
     1
290
     0
176
     1
 90
       50
176
     1
 40
0.0
176
     1
 40
1.0
176
     1
 90
        0
176
     1
 62
    18
420
        0
176
     1
 90
       50
176
     1
 90
        3
176
     1
 62
     5
420
      255
176
     1
290
     0
176
     1
 90
       50
176
     1
 90
       50
176
     1
 90
       50
176
     1
290
     0
176
     1
 90
       50
176
     1
 62
   256
176
     0
 40
1.0
176
     0
 90
        2
176
     1
  1
strokes_ogs.tif
176
     1
290
     0
176
     1
 40
1.0
176
     1
 40
1.0
176
     1
  0
VISUALSTYLE
  5
34
102
{ACAD_REACTORS
330
29
102
}
330
29
100
AcDbVisualStyle
  2
Dim
 70
    11
177
     3
291
     1
 70
    58
 90
        2
176
     1
 90
        2
176
     1
 90
        0
176
     1
 90
        0
176
     1
 40
0.6
176
     1
 40
30.0
176
     1
 62
     7
420
 16777215
176
     1
 90
        1
176
     1
 90
        4
176
     1
 62
     7
176
     1
 62
   257
176
     1
 90
        1
176
     1
 90
        1
176
     1
 40
1.0
176
     1
 90
        8
176
     1
 62
     7
176
     1
 40
1.0
176
     1
 90
        1
176
     1
 90
        6
176
     1
 90
        2
176
     1
 62
     7
176
     1
 90
        5
176
     1
 90
        0
176
     1
 90
        0
176
     1
290
     0
176
     1
 90
        1
176
     1
 40
-50.0
176
     1
 90
        0
176
     1
290
     0
176
     1
290
     1
176
     1
290
     1
176
     1
290
     0
176
     1
290
     0
176
     1
290
     0
176
     1
290
     0
176
     1
290
     0
176
     1
290
     0
176
     1
 90
       50
176
     1
 40
0.0
176
     1
 40
1.0
176
     1
 90
        0
176
     1
 62
    18
420
        0
176
     1
 90
       50
176
     1
 90
        3
176
     1
 62
     5
420
      255
176
     1
290
     0
176
     1
 90
       50
176
     1
 90
       50
176
     1
 90
       50
176
     1
290
     0
176
     1
 90
       50
176
     1
 62
   256
176
     0
 40
1.0
176
     0
 90
        2
176
     1
  1
strokes_ogs.tif
176
     1
290
     0
176
     1
 40
1.0
176
     1
 40
1.0
176
     1
  0
VISUALSTYLE
  5
41
102
{ACAD_REACTORS
330
29
102
}
330
29
100
AcDbVisualStyle
  2
EdgeColorOff
 70
    22
177
     3
291
     1
 70
    58
 90
        2
176
     0
 90
        2
176
     0
 90
        0
176
     0
 90
        0
176
     0
 40
0.6
176
     0
 40
30.0
176
     0
 62
     7
420
 16777215
176
     0
 90
        1
176
     0
 90
        4
176
     0
 62
     7
176
     0
 62
   257
176
     0
 90
        1
176
     0
 90
        1
176
     0
 40
1.0
176
     0
 90
        8
176
     2
 62
     7
176
     0
 40
1.0
176
     0
 90
        1
176
     0
 90
        6
176
     0
 90
        2
176
     0
 62
     7
176
     0
 90
        5
176
     0
 90
        0
176
     0
 90
        0
176
     0
290
     0
176
     0
 90
        1
176
     0
 40
0.0
176
     0
 90
        0
176
     0
290
     0
176
     0
290
     1
176
     0
290
     1
176
     0
290
     0
176
     0
290
     0
176
     0
290
     0
176
     0
290
     0
176
     0
290
     0
176
     0
290
     0
176
     0
 90
       50
176
     0
 40
0.0
176
     0
 40
1.0
176
     0
 90
        0
176
     0
 62
    18
420
        0
176
     0
 90
       50
176
     0
 90
        3
176
     0
 62
     5
420
      255
176
     0
290
     0
176
     0
 90
       50
176
     0
 90
       50
176
     0
 90
       50
176
     0
290
     0
176
     0
 90
       50
176
     0
 62
   256
176
     0
 40
1.0
176
     0
 90
        2
176
     0
  1
strokes_ogs.tif
176
     0
290
     0
176
     0
 40
1.0
176
     0
 40
1.0
176
     0
  0
VISUALSTYLE
  5
38
102
{ACAD_REACTORS
330
29
102
}
330
29
100
AcDbVisualStyle
  2
Facepattern
 70
    15
177
     3
291
     1
 70
    58
 90
        2
176
     1
 90
        2
176
     1
 90
        0
176
     1
 90
        0
176
     1
 40
0.6
176
     1
 40
30.0
176
     1
 62
     7
420
 16777215
176
     1
 90
        1
176
     1
 90
        4
176
     1
 62
     7
176
     1
 62
   257
176
     1
 90
        1
176
     1
 90
        1
176
     1
 40
1.0
176
     1
 90
        8
176
     1
 62
     7
176
     1
 40
1.0
176
     1
 90
        1
176
     1
 90
        6
176
     1
 90
        2
176
     1
 62
     7
176
     1
 90
        5
176
     1
 90
        0
176
     1
 90
        0
176
     1
290
     0
176
     1
 90
        1
176
     1
 40
0.0
176
     1
 90
        0
176
     1
290
     0
176
     1
290
     1
176
     1
290
     1
176
     1
290
     0
176
     1
290
     0
176
     1
290
     0
176
     1
290
     0
176
     1
290
     0
176
     1
290
     0
176
     1
 90
       50
176
     1
 40
0.0
176
     1
 40
1.0
176
     1
 90
        0
176
     1
 62
    18
420
        0
176
     1
 90
       50
176
     1
 90
        3
176
     1
 62
     5
420
      255
176
     1
290
     0
176
     1
 90
       50
176
     1
 90
       50
176
     1
 90
       50
176
     1
290
     0
176
     1
 90
       50
176
     1
 62
   256
176
     0
 40
1.0
176
     0
 90
        2
176
     1
  1
strokes_ogs.tif
176
     1
290
     0
176
     1
 40
1.0
176
     1
 40
1.0
176
     1
  0
VISUALSTYLE
  5
2A
102
{ACAD_REACTORS
330
29
102
}
330
29
100
AcDbVisualStyle
  2
Flat
 70
     0
177
     3
291
     1
 70
    58
 90
        2
176
     1
 90
        1
176
     1
 90
        1
176
     1
 90
        2
176
     1
 40
0.6
176
     1
 40
30.0
176
     1
 62
     7
420
 16777215
176
     1
 90
        0
176
     1
 90
        0
176
     1
 62
     7
176
     1
 62
   257
176
     1
 90
        1
176
     1
 90
        1
176
     1
 40
1.0
176
     1
 90
        8
176
     1
 62
     7
176
     1
 40
1.0
176
     1
 90
        1
176
     1
 90
        6
176
     1
 90
        2
176
     1
 62
     7
176
     1
 90
        5
176
     1
 90
        0
176
     1
 90
        0
176
     1
290
     0
176
     1
 90
       13
176
     1
 40
0.0
176
     1
 90
        0
176
     1
290
     0
176
     1
290
     1
176
     1
290
     1
176
     1
290
     0
176
     1
290
     0
176
     1
290
     0
176
     1
290
     0
176
     1
290
     0
176
     1
290
     0
176
     1
 90
       50
176
     1
 40
0.0
176
     1
 40
1.0
176
     1
 90
        0
176
     1
 62
    18
420
        0
176
     1
 90
       50
176
     1
 90
        3
176
     1
 62
     5
420
      255
176
     1
290
     0
176
     1
 90
       50
176
     1
 90
       50
176
     1
 90
       50
176
     1
290
     0
176
     1
 90
       50
176
     1
 62
   256
176
     0
 40
1.0
176
     0
 90
        2
176
     1
  1
strokes_ogs.tif
176
     1
290
     0
176
     1
 40
1.0
176
     1
 40
1.0
176
     1
  0
VISUALSTYLE
  5
2B
102
{ACAD_REACTORS
330
29
102
}
330
29
100
AcDbVisualStyle
  2
FlatWithEdges
 70
     1
177
     3
291
     1
 70
    58
 90
        2
176
     1
 90
        1
176
     1
 90
        1
176
     1
 90
        2
176
     1
 40
0.6
176
     1
 40
30.0
176
     1
 62
     7
420
 16777215
176
     1
 90
        1
176
     1
 90
        0
176
     1
 62
     7
176
     1
 62
   257
176
     1
 90
        1
176
     1
 90
        1
176
     1
 40
1.0
176
     1
 90
        0
176
     1
 62
   257
176
     1
 40
1.0
176
     1
 90
        1
176
     1
 90
        6
176
     1
 90
        2
176
     1
 62
     7
176
     1
 90
        5
176
     1
 90
        0
176
     1
 90
        0
176
     1
290
     0
176
     1
 90
       13
176
     1
 40
0.0
176
     1
 90
        0
176
     1
290
     0
176
     1
290
     1
176
     1
290
     1
176
     1
290
     0
176
     1
290
     0
176
     1
290
     0
176
     1
290
     0
176
     1
290
     0
176
     1
290
     0
176
     1
 90
       50
176
     1
 40
0.0
176
     1
 40
1.0
176
     1
 90
        0
176
     1
 62
    18
420
        0
176
     1
 90
       50
176
     1
 90
        3
176
     1
 62
     5
420
      255
176
     1
290
     0
176
     1
 90
       50
176
     1
 90
       50
176
     1
 90
       50
176
     1
290
     0
176
     1
 90
       50
176
     1
 62
   256
176
     0
 40
1.0
176
     0
 90
        2
176
     1
  1
strokes_ogs.tif
176
     1
290
     0
176
     1
 40
1.0
176
     1
 40
1.0
176
     1
  0
VISUALSTYLE
  5
2C
102
{ACAD_REACTORS
330
29
102
}
330
29
100
AcDbVisualStyle
  2
Gouraud
 70
     2
177
     3
291
     1
 70
    58
 90
        2
176
     1
 90
        2
176
     1
 90
        1
176
     1
 90
        2
176
     1
 40
0.6
176
     1
 40
30.0
176
     1
 62
     7
420
 16777215
176
     1
 90
        0
176
     1
 90
        0
176
     1
 62
     7
176
     1
 62
   257
176
     1
 90
        1
176
     1
 90
        1
176
     1
 40
1.0
176
     1
 90
        0
176
     1
 62
     7
176
     1
 40
1.0
176
     1
 90
        1
176
     1
 90
        6
176
     1
 90
        2
176
     1
 62
     7
176
     1
 90
        5
176
     1
 90
        0
176
     1
 90
        0
176
     1
290
     0
176
     1
 90
       13
176
     1
 40
0.0
176
     1
 90
        0
176
     1
290
     0
176
     1
290
     1
176
     1
290
     1
176
     1
290
     0
176
     1
290
     0
176
     1
290
     0
176
     1
290
     0
176
     1
290
     0
176
     1
290
     0
176
     1
 90
       50
176
     1
 40
0.0
176
     1
 40
1.0
176
     1
 90
        0
176
     1
 62
    18
420
        0
176
     1
 90
       50
176
     1
 90
        3
176
     1
 62
     5
420
      255
176
     1
290
     0
176
     1
 90
       50
176
     1
 90
       50
176
     1
 90
       50
176
     1
290
     0
176
     1
 90
       50
176
     1
 62
   256
176
     0
 40
1.0
176
     0
 90
        2
176
     1
  1
strokes_ogs.tif
176
     1
290
     0
176
     1
 40
1.0
176
     1
 40
1.0
176
     1
  0
VISUALSTYLE
  5
2D
102
{ACAD_REACTORS
330
29
102
}
330
29
100
AcDbVisualStyle
  2
GouraudWithEdges
 70
     3
177
     3
291
     1
 70
    58
 90
        2
176
     1
 90
        2
176
     1
 90
        1
176
     1
 90
        2
176
     1
 40
0.6
176
     1
 40
30.0
176
     1
 62
     7
420
 16777215
176
     1
 90
        1
176
     1
 90
        0
176
     1
 62
     7
176
     1
 62
   257
176
     1
 90
        1
176
     1
 90
        1
176
     1
 40
1.0
176
     1
 90
        0
176
     1
 62
   257
176
     1
 40
1.0
176
     1
 90
        1
176
     1
 90
        6
176
     1
 90
        2
176
     1
 62
     7
176
     1
 90
        5
176
     1
 90
        0
176
     1
 90
        0
176
     1
290
     0
176
     1
 90
       13
176
     1
 40
0.0
176
     1
 90
        0
176
     1
290
     0
176
     1
290
     1
176
     1
290
     1
176
     1
290
     0
176
     1
290
     0
176
     1
290
     0
176
     1
290
     0
176
     1
290
     0
176
     1
290
     0
176
     1
 90
       50
176
     1
 40
0.0
176
     1
 40
1.0
176
     1
 90
        0
176
     1
 62
    18
420
        0
176
     1
 90
       50
176
     1
 90
        3
176
     1
 62
     5
420
      255
176
     1
290
     0
176
     1
 90
       50
176
     1
 90
       50
176
     1
 90
       50
176
     1
290
     0
176
     1
 90
       50
176
     1
 62
   256
176
     0
 40
1.0
176
     0
 90
        2
176
     1
  1
strokes_ogs.tif
176
     1
290
     0
176
     1
 40
1.0
176
     1
 40
1.0
176
     1
  0
VISUALSTYLE
  5
31
102
{ACAD_REACTORS
330
29
102
}
330
29
100
AcDbVisualStyle
  2
Hidden
 70
     6
177
     3
291
     0
 70
    58
 90
        1
176
     1
 90
        2
176
     1
 90
        2
176
     1
 90
        0
176
     1
 40
0.6
176
     1
 40
30.0
176
     1
 62
     7
420
 16777215
176
     1
 90
        2
176
     1
 90
        2
176
     1
 62
     7
176
     1
 62
   257
176
     1
 90
        2
176
     1
 90
        1
176
     1
 40
40.0
176
     1
 90
        0
176
     1
 62
   257
176
     1
 40
1.0
176
     1
 90
        1
176
     1
 90
        6
176
     1
 90
        2
176
     1
 62
     7
176
     1
 90
        3
176
     1
 90
        0
176
     1
 90
        0
176
     1
290
     0
176
     1
 90
        1
176
     1
 40
0.0
176
     1
 90
        0
176
     1
290
     0
176
     1
290
     1
176
     1
290
     1
176
     1
290
     0
176
     1
290
     0
176
     1
290
     0
176
     1
290
     0
176
     1
290
     0
176
     1
290
     0
176
     1
 90
       50
176
     1
 40
0.0
176
     1
 40
1.0
176
     1
 90
        0
176
     1
 62
    18
420
        0
176
     1
 90
       50
176
     1
 90
        3
176
     1
 62
     5
420
      255
176
     1
290
     0
176
     1
 90
       50
176
     1
 90
       50
176
     1
 90
       50
176
     1
290
     0
176
     1
 90
       50
176
     1
 62
   256
176
     0
 40
1.0
176
     0
 90
        2
176
     1
  1
strokes_ogs.tif
176
     1
290
     0
176
     1
 40
1.0
176
     1
 40
1.0
176
     1
  0
VISUALSTYLE
  5
3F
102
{ACAD_REACTORS
330
29
102
}
330
29
100
AcDbVisualStyle
  2
JitterOff
 70
    20
177
     3
291
     1
 70
    58
 90
        2
176
     0
 90
        2
176
     0
 90
        0
176
     0
 90
        0
176
     0
 40
0.6
176
     0
 40
30.0
176
     0
 62
     7
420
 16777215
176
     0
 90
        1
176
     0
 90
        4
176
     0
 62
     7
176
     0
 62
   257
176
     0
 90
        1
176
     0
 90
        1
176
     0
 40
1.0
176
     0
 90
       10
176
     2
 62
     7
176
     0
 40
1.0
176
     0
 90
        1
176
     0
 90
        6
176
     0
 90
        2
176
     0
 62
     7
176
     0
 90
        5
176
     0
 90
        0
176
     0
 90
        0
176
     0
290
     0
176
     0
 90
        1
176
     0
 40
0.0
176
     0
 90
        0
176
     0
290
     0
176
     0
290
     1
176
     0
290
     1
176
     0
290
     0
176
     0
290
     0
176
     0
290
     0
176
     0
290
     0
176
     0
290
     0
176
     0
290
     0
176
     0
 90
       50
176
     0
 40
0.0
176
     0
 40
1.0
176
     0
 90
        0
176
     0
 62
    18
420
        0
176
     0
 90
       50
176
     0
 90
        3
176
     0
 62
     5
420
      255
176
     0
290
     0
176
     0
 90
       50
176
     0
 90
       50
176
     0
 90
       50
176
     0
290
     0
176
     0
 90
       50
176
     0
 62
   256
176
     0
 40
1.0
176
     0
 90
        2
176
     0
  1
strokes_ogs.tif
176
     0
290
     0
176
     0
 40
1.0
176
     0
 40
1.0
176
     0
  0
VISUALSTYLE
  5
37
102
{ACAD_REACTORS
330
29
102
}
330
29
100
AcDbVisualStyle
  2
Linepattern
 70
    14
177
     3
291
     1
 70
    58
 90
        2
176
     1
 90
        2
176
     1
 90
        0
176
     1
 90
        0
176
     1
 40
0.6
176
     1
 40
30.0
176
     1
 62
     7
420
 16777215
176
     1
 90
        1
176
     1
 90
        4
176
     1
 62
     7
176
     1
 62
   257
176
     1
 90
        7
176
     1
 90
        7
176
     1
 40
1.0
176
     1
 90
        8
176
     1
 62
     7
176
     1
 40
1.0
176
     1
 90
        1
176
     1
 90
        6
176
     1
 90
        2
176
     1
 62
     7
176
     1
 90
        5
176
     1
 90
        0
176
     1
 90
        0
176
     1
290
     0
176
     1
 90
        1
176
     1
 40
0.0
176
     1
 90
        0
176
     1
290
     0
176
     1
290
     1
176
     1
290
     1
176
     1
290
     0
176
     1
290
     0
176
     1
290
     0
176
     1
290
     0
176
     1
290
     0
176
     1
290
     0
176
     1
 90
       50
176
     1
 40
0.0
176
     1
 40
1.0
176
     1
 90
        0
176
     1
 62
    18
420
        0
176
     1
 90
       50
176
     1
 90
        3
176
     1
 62
     5
420
      255
176
     1
290
     0
176
     1
 90
       50
176
     1
 90
       50
176
     1
 90
       50
176
     1
290
     0
176
     1
 90
       50
176
     1
 62
   256
176
     0
 40
1.0
176
     0
 90
        2
176
     1
  1
strokes_ogs.tif
176
     1
290
     0
176
     1
 40
1.0
176
     1
 40
1.0
176
     1
  0
VISUALSTYLE
  5
40
102
{ACAD_REACTORS
330
29
102
}
330
29
100
AcDbVisualStyle
  2
OverhangOff
 70
    21
177
     3
291
     1
 70
    58
 90
        2
176
     0
 90
        2
176
     0
 90
        0
176
     0
 90
        0
176
     0
 40
0.6
176
     0
 40
30.0
176
     0
 62
     7
420
 16777215
176
     0
 90
        1
176
     0
 90
        4
176
     0
 62
     7
176
     0
 62
   257
176
     0
 90
        1
176
     0
 90
        1
176
     0
 40
1.0
176
     0
 90
        9
176
     2
 62
     7
176
     0
 40
1.0
176
     0
 90
        1
176
     0
 90
        6
176
     0
 90
        2
176
     0
 62
     7
176
     0
 90
        5
176
     0
 90
        0
176
     0
 90
        0
176
     0
290
     0
176
     0
 90
        1
176
     0
 40
0.0
176
     0
 90
        0
176
     0
290
     0
176
     0
290
     1
176
     0
290
     1
176
     0
290
     0
176
     0
290
     0
176
     0
290
     0
176
     0
290
     0
176
     0
290
     0
176
     0
290
     0
176
     0
 90
       50
176
     0
 40
0.0
176
     0
 40
1.0
176
     0
 90
        0
176
     0
 62
    18
420
        0
176
     0
 90
       50
176
     0
 90
        3
176
     0
 62
     5
420
      255
176
     0
290
     0
176
     0
 90
       50
176
     0
 90
       50
176
     0
 90
       50
176
     0
290
     0
176
     0
 90
       50
176
     0
 62
   256
176
     0
 40
1.0
176
     0
 90
        2
176
     0
  1
strokes_ogs.tif
176
     0
290
     0
176
     0
 40
1.0
176
     0
 40
1.0
176
     0
  0
VISUALSTYLE
  5
33
102
{ACAD_REACTORS
330
29
102
}
330
29
100
AcDbVisualStyle
  2
Realistic
 70
     8
177
     3
291
     0
 70
    58
 90
        2
176
     1
 90
        3
176
     1
 90
        0
176
     1
 90
        2
176
     1
 40
0.6
176
     1
 40
30.0
176
     1
 62
     7
420
 16777215
176
     1
 90
        0
176
     1
 90
        0
176
     1
 62
     7
176
     1
 62
   257
176
     1
 90
        1
176
     1
 90
        1
176
     1
 40
1.0
176
     1
 90
        8
176
     1
 62
   257
176
     1
 40
1.0
176
     1
 90
        1
176
     1
 90
        6
176
     1
 90
        2
176
     1
 62
     7
176
     1
 90
        3
176
     1
 90
        0
176
     1
 90
        0
176
     1
290
     0
176
     1
 90
       13
176
     1
 40
0.0
176
     1
 90
        0
176
     1
290
     0
176
     1
290
     1
176
     1
290
     1
176
     1
290
     0
176
     1
290
     0
176
     1
290
     0
176
     1
290
     0
176
     1
290
     0
176
     1
290
     0
176
     1
 90
       50
176
     1
 40
0.0
176
     1
 40
1.0
176
     1
 90
        0
176
     1
 62
    18
420
        0
176
     1
 90
       50
176
     1
 90
        3
176
     1
 62
     5
420
      255
176
     1
290
     0
176
     1
 90
       50
176
     1
 90
       50
176
     1
 90
       50
176
     1
290
     0
176
     1
 90
       50
176
     1
 62
   256
176
     0
 40
1.0
176
     0
 90
        2
176
     1
  1
strokes_ogs.tif
176
     1
290
     0
176
     1
 40
1.0
176
     1
 40
1.0
176
     1
  0
VISUALSTYLE
  5
3E
102
{ACAD_REACTORS
330
29
102
}
330
29
100
AcDbVisualStyle
  2
Shaded
 70
    27
177
     3
291
     0
 70
    58
 90
        2
176
     1
 90
        2
176
     1
 90
        1
176
     1
 90
        2
176
     1
 40
0.6
176
     1
 40
30.0
176
     1
 62
     7
420
 16777215
176
     1
 90
        0
176
     1
 90
        4
176
     1
 62
     7
176
     1
 62
   257
176
     1
 90
        1
176
     1
 90
        1
176
     1
 40
1.0
176
     1
 90
        8
176
     1
 62
   257
176
     1
 40
1.0
176
     1
 90
        1
176
     1
 90
        6
176
     1
 90
        2
176
     1
 62
     8
420
  7895160
176
     1
 90
        3
176
     1
 90
        0
176
     1
 90
        0
176
     1
290
     0
176
     1
 90
        5
176
     1
 40
0.0
176
     1
 90
        0
176
     1
290
     0
176
     1
290
     1
176
     1
290
     1
176
     1
290
     0
176
     1
290
     0
176
     1
290
     0
176
     1
290
     0
176
     1
290
     0
176
     1
290
     0
176
     1
 90
       50
176
     1
 40
0.0
176
     1
 40
1.0
176
     1
 90
        0
176
     1
 62
    18
420
        0
176
     1
 90
       50
176
     1
 90
        3
176
     1
 62
     5
420
      255
176
     1
290
     0
176
     1
 90
       50
176
     1
 90
       50
176
     1
 90
       50
176
     1
290
     0
176
     1
 90
       50
176
     1
 62
   256
176
     0
 40
1.0
176
     0
 90
        2
176
     1
  1
strokes_ogs.tif
176
     1
290
     0
176
     1
 40
1.0
176
     1
 40
1.0
176
     1
  0
VISUALSTYLE
  5
3D
102
{ACAD_REACTORS
330
29
102
}
330
29
100
AcDbVisualStyle
  2
Shaded with edges
 70
    26
177
     3
291
     0
 70
    58
 90
        2
176
     1
 90
        2
176
     1
 90
        1
176
     1
 90
        2
176
     1
 40
0.6
176
     1
 40
30.0
176
     1
 62
     7
420
 16777215
176
     1
 90
        1
176
     1
 90
       10
176
     1
 62
     7
176
     1
 62
   257
176
     1
 90
        2
176
     1
 90
        1
176
     1
 40
1.0
176
     1
 90
        8
176
     1
 62
   257
176
     1
 40
1.0
176
     1
 90
        1
176
     1
 90
        6
176
     1
 90
        2
176
     1
 62
     7
176
     1
 90
        3
176
     1
 90
        0
176
     1
 90
        0
176
     1
290
     0
176
     1
 90
        5
176
     1
 40
0.0
176
     1
 90
        0
176
     1
290
     0
176
     1
290
     1
176
     1
290
     1
176
     1
290
     0
176
     1
290
     0
176
     1
290
     0
176
     1
290
     0
176
     1
290
     0
176
     1
290
     0
176
     1
 90
       50
176
     1
 40
0.0
176
     1
 40
1.0
176
     1
 90
        0
176
     1
 62
    18
420
        0
176
     1
 90
       50
176
     1
 90
        3
176
     1
 62
     5
420
      255
176
     1
290
     0
176
     1
 90
       50
176
     1
 90
       50
176
     1
 90
       50
176
     1
290
     0
176
     1
 90
       50
176
     1
 62
   256
176
     0
 40
1.0
176
     0
 90
        2
176
     1
  1
strokes_ogs.tif
176
     1
290
     0
176
     1
 40
1.0
176
     1
 40
1.0
176
     1
  0
VISUALSTYLE
  5
3A
102
{ACAD_REACTORS
330
29
102
}
330
29
100
AcDbVisualStyle
  2
Shades of Gray
 70
    23
177
     3
291
     0
 70
    58
 90
        2
176
     1
 90
        2
176
     1
 90
        3
176
     1
 90
        0
176
     1
 40
0.6
176
     1
 40
30.0
176
     1
 62
     7
420
 16777215
176
     1
 90
        2
176
     1
 90
        2
176
     1
 62
     7
176
     1
 62
     7
176
     1
 90
        1
176
     1
 90
        1
176
     1
 40
40.0
176
     1
 90
        8
176
     1
 62
     7
176
     1
 40
1.0
176
     1
 90
        1
176
     1
 90
        6
176
     1
 90
        2
176
     1
 62
     7
176
     1
 90
        3
176
     1
 90
        0
176
     1
 90
        0
176
     1
290
     0
176
     1
 90
        1
176
     1
 40
0.0
176
     1
 90
        0
176
     1
290
     0
176
     1
290
     1
176
     1
290
     1
176
     1
290
     0
176
     1
290
     0
176
     1
290
     0
176
     1
290
     0
176
     1
290
     0
176
     1
290
     0
176
     1
 90
       50
176
     1
 40
0.0
176
     1
 40
1.0
176
     1
 90
        0
176
     1
 62
    18
420
        0
176
     1
 90
       50
176
     1
 90
        3
176
     1
 62
     5
420
      255
176
     1
290
     0
176
     1
 90
       50
176
     1
 90
       50
176
     1
 90
       50
176
     1
290
     0
176
     1
 90
       50
176
     1
 62
   256
176
     0
 40
1.0
176
     0
 90
        2
176
     1
  1
strokes_ogs.tif
176
     1
290
     0
176
     1
 40
1.0
176
     1
 40
1.0
176
     1
  0
VISUALSTYLE
  5
3B
102
{ACAD_REACTORS
330
29
102
}
330
29
100
AcDbVisualStyle
  2
Sketchy
 70
    24
177
     3
291
     0
 70
    58
 90
        1
176
     1
 90
        2
176
     1
 90
        2
176
     1
 90
        0
176
     1
 40
0.6
176
     1
 40
30.0
176
     1
 62
     7
420
 16777215
176
     1
 90
        2
176
     1
 90
        2
176
     1
 62
     7
176
     1
 62
     7
176
     1
 90
        1
176
     1
 90
        1
176
     1
 40
40.0
176
     1
 90
       11
176
     1
 62
     7
176
     1
 40
1.0
176
     1
 90
        1
176
     1
 90
        6
176
     1
 90
        2
176
     1
 62
     7
176
     1
 90
        6
176
     1
 90
        0
176
     1
 90
        0
176
     1
290
     0
176
     1
 90
        1
176
     1
 40
0.0
176
     1
 90
        0
176
     1
290
     0
176
     1
290
     1
176
     1
290
     1
176
     1
290
     0
176
     1
290
     0
176
     1
290
     0
176
     1
290
     0
176
     1
290
     0
176
     1
290
     0
176
     1
 90
       50
176
     1
 40
0.0
176
     1
 40
1.0
176
     1
 90
        0
176
     1
 62
    18
420
        0
176
     1
 90
       50
176
     1
 90
        3
176
     1
 62
     5
420
      255
176
     1
290
     0
176
     1
 90
       50
176
     1
 90
       50
176
     1
 90
       50
176
     1
290
     0
176
     1
 90
       50
176
     1
 62
   256
176
     0
 40
1.0
176
     0
 90
        2
176
     1
  1
strokes_ogs.tif
176
     1
290
     0
176
     1
 40
1.0
176
     1
 40
1.0
176
     1
  0
VISUALSTYLE
  5
36
102
{ACAD_REACTORS
330
29
102
}
330
29
100
AcDbVisualStyle
  2
Thicken
 70
    13
177
     3
291
     1
 70
    58
 90
        2
176
     1
 90
        2
176
     1
 90
        0
176
     1
 90
        0
176
     1
 40
0.6
176
     1
 40
30.0
176
     1
 62
     7
420
 16777215
176
     1
 90
        1
176
     1
 90
        4
176
     1
 62
     7
176
     1
 62
   257
176
     1
 90
        1
176
     1
 90
        1
176
     1
 40
1.0
176
     1
 90
       12
176
     1
 62
     7
176
     1
 40
1.0
176
     1
 90
        1
176
     1
 90
        6
176
     1
 90
        2
176
     1
 62
     7
176
     1
 90
        5
176
     1
 90
        0
176
     1
 90
        0
176
     1
290
     0
176
     1
 90
        1
176
     1
 40
0.0
176
     1
 90
        0
176
     1
290
     0
176
     1
290
     1
176
     1
290
     1
176
     1
290
     0
176
     1
290
     0
176
     1
290
     0
176
     1
290
     0
176
     1
290
     0
176
     1
290
     0
176
     1
 90
       50
176
     1
 40
0.0
176
     1
 40
1.0
176
     1
 90
        0
176
     1
 62
    18
420
        0
176
     1
 90
       50
176
     1
 90
        3
176
     1
 62
     5
420
      255
176
     1
290
     0
176
     1
 90
       50
176
     1
 90
       50
176
     1
 90
       50
176
     1
290
     0
176
     1
 90
       50
176
     1
 62
   256
176
     0
 40
1.0
176
     0
 90
        2
176
     1
  1
strokes_ogs.tif
176
     1
290
     0
176
     1
 40
1.0
176
     1
 40
1.0
176
     1
  0
VISUALSTYLE
  5
30
102
{ACAD_REACTORS
330
29
102
}
330
29
100
AcDbVisualStyle
  2
Wireframe
 70
     5
177
     3
291
     0
 70
    58
 90
        0
176
     1
 90
        2
176
     1
 90
        0
176
     1
 90
        0
176
     1
 40
0.6
176
     1
 40
30.0
176
     1
 62
     7
420
 16777215
176
     1
 90
        1
176
     1
 90
        4
176
     1
 62
     7
176
     1
 62
   257
176
     1
 90
        1
176
     1
 90
        1
176
     1
 40
1.0
176
     1
 90
        0
176
     1
 62
   257
176
     1
 40
1.0
176
     1
 90
        1
176
     1
 90
        6
176
     1
 90
        2
176
     1
 62
     7
176
     1
 90
        3
176
     1
 90
        0
176
     1
 90
        0
176
     1
290
     0
176
     1
 90
        1
176
     1
 40
0.0
176
     1
 90
        0
176
     1
290
     0
176
     1
290
     1
176
     1
290
     1
176
     1
290
     0
176
     1
290
     0
176
     1
290
     0
176
     1
290
     0
176
     1
290
     0
176
     1
290
     0
176
     1
 90
       50
176
     1
 40
0.0
176
     1
 40
1.0
176
     1
 90
        0
176
     1
 62
    18
420
        0
176
     1
 90
       50
176
     1
 90
        3
176
     1
 62
     5
420
      255
176
     1
290
     0
176
     1
 90
       50
176
     1
 90
       50
176
     1
 90
       50
176
     1
290
     0
176
     1
 90
       50
176
     1
 62
   256
176
     0
 40
1.0
176
     0
 90
        2
176
     1
  1
strokes_ogs.tif
176
     1
290
     0
176
     1
 40
1.0
176
     1
 40
1.0
176
     1
  0
VISUALSTYLE
  5
3C
102
{ACAD_REACTORS
330
29
102
}
330
29
100
AcDbVisualStyle
  2
X-Ray
 70
    25
177
     3
291
     0
 70
    58
 90
        2
176
     1
 90
        2
176
     1
 90
        1
176
     1
 90
        1
176
     1
 40
0.5
176
     1
 40
30.0
176
     1
 62
     7
420
 16777215
176
     1
 90
        1
176
     1
 90
        0
176
     1
 62
     7
176
     1
 62
   257
176
     1
 90
        1
176
     1
 90
        1
176
     1
 40
1.0
176
     1
 90
        8
176
     1
 62
     7
176
     1
 40
1.0
176
     1
 90
        1
176
     1
 90
        6
176
     1
 90
        2
176
     1
 62
     7
176
     1
 90
        3
176
     1
 90
        0
176
     1
 90
        0
176
     1
290
     0
176
     1
 90
       13
176
     1
 40
0.0
176
     1
 90
        0
176
     1
290
     0
176
     1
290
     1
176
     1
290
     1
176
     1
290
     0
176
     1
290
     0
176
     1
290
     0
176
     1
290
     0
176
     1
290
     0
176
     1
290
     0
176
     1
 90
       50
176
     1
 40
0.0
176
     1
 40
1.0
176
     1
 90
        0
176
     1
 62
    18
420
        0
176
     1
 90
       50
176
     1
 90
        3
176
     1
 62
     5
420
      255
176
     1
290
     0
176
     1
 90
       50
176
     1
 90
       50
176
     1
 90
       50
176
     1
290
     0
176
     1
 90
       50
176
     1
 62
   256
176
     0
 40
1.0
176
     0
 90
        2
176
     1
  1
strokes_ogs.tif
176
     1
290
     0
176
     1
 40
1.0
176
     1
 40
1.0
176
     1
  0
DICTIONARYVAR
  5
81
102
{ACAD_REACTORS
330
7C
102
}
330
7C
100
DictionaryVariables
280
     0
  1
1:1
  0
DICTIONARYVAR
  5
7E
102
{ACAD_REACTORS
330
7C
102
}
330
7C
100
DictionaryVariables
280
     0
  1
STANDARD
  0
DICTIONARYVAR
  5
7D
102
{ACAD_REACTORS
330
7C
102
}
330
7C
100
DictionaryVariables
280
     0
  1
STANDARD
  0
DICTIONARYVAR
  5
7F
102
{ACAD_REACTORS
330
7C
102
}
330
7C
100
DictionaryVariables
280
     0
  1
Imperial24
  0
DICTIONARYVAR
  5
80
102
{ACAD_REACTORS
330
7C
102
}
330
7C
100
DictionaryVariables
280
     0
  1
Imperial24
  0
XRECORD
  5
2E5
102
{ACAD_REACTORS
330
2E1
102
}
330
2E1
100
AcDbXrecord
280
     1
  1
BUILDING_ID
  1
Progetto per messa in tavola DXF, DWG
  1
FLOOR_ID
  1
694395
  0
XRECORD
  5
2E3
102
{ACAD_REACTORS
330
2E1
102
}
330
2E1
100
AcDbXrecord
280
     1
  1
-2001160
  1
Apparecchi idraulici
  0
XRECORD
  5
2E4
102
{ACAD_REACTORS
330
2E1
102
}
330
2E1
100
AcDbXrecord
280
     1
  1
938184
  1
Handle
  0
XRECORD
  5
2E2
102
{ACAD_REACTORS
330
2E1
102
}
330
2E1
100
AcDbXrecord
280
     1
  1
859151
  1
Automatic flow rate regulator valve_Caleffi_121 DN15 : 1/2''
  0
DICTIONARY
  5
1A
330
19
100
AcDbDictionary
280
     1
281
     1
  3
BUMPTILE
360
1C
  3
DIFFUSETILE
360
1B
  3
OPACITYTILE
360
1F
  3
REFLECTIONTILE
360
1E
  3
REFRACTIONTILE
360
20
  3
SPECULARTILE
360
1D
  0
DICTIONARY
  5
12
330
11
100
AcDbDictionary
280
     1
281
     1
  3
BUMPTILE
360
14
  3
DIFFUSETILE
360
13
  3
OPACITYTILE
360
17
  3
REFLECTIONTILE
360
16
  3
REFRACTIONTILE
360
18
  3
SPECULARTILE
360
15
  0
DICTIONARY
  5
22
330
21
100
AcDbDictionary
280
     1
281
     1
  3
BUMPTILE
360
24
  3
DIFFUSETILE
360
23
  3
OPACITYTILE
360
27
  3
REFLECTIONTILE
360
26
  3
REFRACTIONTILE
360
28
  3
SPECULARTILE
360
25
  0
DICTIONARY
  5
2E8
330
65
100
AcDbDictionary
280
     1
281
     1
  3
ACAD_ROUNDTRIP_2008_TABLESTYLE_CELLSTYLEMAP
360
2E9
  0
XRECORD
  5
1C
102
{ACAD_REACTORS
330
1A
102
}
330
1A
100
AcDbXrecord
280
     1
270
     1
271
     1
  0
XRECORD
  5
1B
102
{ACAD_REACTORS
330
1A
102
}
330
1A
100
AcDbXrecord
280
     1
270
     1
271
     1
  0
XRECORD
  5
1F
102
{ACAD_REACTORS
330
1A
102
}
330
1A
100
AcDbXrecord
280
     1
270
     1
271
     1
  0
XRECORD
  5
1E
102
{ACAD_REACTORS
330
1A
102
}
330
1A
100
AcDbXrecord
280
     1
270
     1
271
     1
  0
XRECORD
  5
20
102
{ACAD_REACTORS
330
1A
102
}
330
1A
100
AcDbXrecord
280
     1
270
     1
271
     1
  0
XRECORD
  5
1D
102
{ACAD_REACTORS
330
1A
102
}
330
1A
100
AcDbXrecord
280
     1
270
     1
271
     1
  0
XRECORD
  5
14
102
{ACAD_REACTORS
330
12
102
}
330
12
100
AcDbXrecord
280
     1
270
     1
271
     1
  0
XRECORD
  5
13
102
{ACAD_REACTORS
330
12
102
}
330
12
100
AcDbXrecord
280
     1
270
     1
271
     1
  0
XRECORD
  5
17
102
{ACAD_REACTORS
330
12
102
}
330
12
100
AcDbXrecord
280
     1
270
     1
271
     1
  0
XRECORD
  5
16
102
{ACAD_REACTORS
330
12
102
}
330
12
100
AcDbXrecord
280
     1
270
     1
271
     1
  0
XRECORD
  5
18
102
{ACAD_REACTORS
330
12
102
}
330
12
100
AcDbXrecord
280
     1
270
     1
271
     1
  0
XRECORD
  5
15
102
{ACAD_REACTORS
330
12
102
}
330
12
100
AcDbXrecord
280
     1
270
     1
271
     1
  0
XRECORD
  5
24
102
{ACAD_REACTORS
330
22
102
}
330
22
100
AcDbXrecord
280
     1
270
     1
271
     1
  0
XRECORD
  5
23
102
{ACAD_REACTORS
330
22
102
}
330
22
100
AcDbXrecord
280
     1
270
     1
271
     1
  0
XRECORD
  5
27
102
{ACAD_REACTORS
330
22
102
}
330
22
100
AcDbXrecord
280
     1
270
     1
271
     1
  0
XRECORD
  5
26
102
{ACAD_REACTORS
330
22
102
}
330
22
100
AcDbXrecord
280
     1
270
     1
271
     1
  0
XRECORD
  5
28
102
{ACAD_REACTORS
330
22
102
}
330
22
100
AcDbXrecord
280
     1
270
     1
271
     1
  0
XRECORD
  5
25
102
{ACAD_REACTORS
330
22
102
}
330
22
100
AcDbXrecord
280
     1
270
     1
271
     1
  0
CELLSTYLEMAP
  5
2E9
102
{ACAD_REACTORS
330
2E8
102
}
330
2E8
100
AcDbCellStyleMap
 90
        3
300
CELLSTYLE
  1
TABLEFORMAT_BEGIN
 90
        5
170
     1
 91
        0
 92
    32768
 62
   257
 93
        1
300
CONTENTFORMAT
  1
CONTENTFORMAT_BEGIN
 90
        0
 91
        0
 92
      512
 93
        0
300

 40
0.0
140
1.0
 94
        5
 62
     0
340
55
144
0.25
309
CONTENTFORMAT_END
171
     0
 94
        0
309
TABLEFORMAT_END
  1
CELLSTYLE_BEGIN
 90
        1
 91
        1
300
_TITLE
309
CELLSTYLE_END
300
CELLSTYLE
  1
TABLEFORMAT_BEGIN
 90
        5
170
     1
 91
        0
 92
        0
 62
   257
 93
        1
300
CONTENTFORMAT
  1
CONTENTFORMAT_BEGIN
 90
        0
 91
        0
 92
      512
 93
        0
300

 40
0.0
140
1.0
 94
        5
 62
     0
340
55
144
0.18
309
CONTENTFORMAT_END
171
     0
 94
        0
309
TABLEFORMAT_END
  1
CELLSTYLE_BEGIN
 90
        2
 91
        1
300
_HEADER
309
CELLSTYLE_END
300
CELLSTYLE
  1
TABLEFORMAT_BEGIN
 90
        5
170
     1
 91
        0
 92
        0
 62
   257
 93
        1
300
CONTENTFORMAT
  1
CONTENTFORMAT_BEGIN
 90
        0
 91
        0
 92
      512
 93
        0
300

 40
0.0
140
1.0
 94
        2
 62
     0
340
55
144
0.18
309
CONTENTFORMAT_END
171
     0
 94
        0
309
TABLEFORMAT_END
  1
CELLSTYLE_BEGIN
 90
        3
 91
        2
300
_DATA
309
CELLSTYLE_END
  0
ENDSEC
  0
EOF
