  0
SECTION
  2
HEADER
  9
$ACADVER
  1
AC1027
  9
$ACADMAINTVER
 70
    20
  9
$DWGCODEPAGE
  3
ANSI_1252
  9
$REQUIREDVERSIONS
160
                 0
  9
$INSBASE
 10
0.0
 20
0.0
 30
0.0
  9
$EXTMIN
 10
749.1664074431915
 20
1729.748751452263
 30
-0.00000001
  9
$EXTMAX
 10
1091.1131568289
 20
2019.498183850028
 30
0.00000001
  9
$LIMMIN
 10
0.0
 20
0.0
  9
$LIMMAX
 10
12.0
 20
9.0
  9
$ORTHOMODE
 70
     0
  9
$REGENMODE
 70
     1
  9
$FILLMODE
 70
     1
  9
$QTEXTMODE
 70
     0
  9
$MIRRTEXT
 70
     0
  9
$LTSCALE
 40
1.0
  9
$ATTMODE
 70
     1
  9
$TEXTSIZE
 40
0.2
  9
$TRACEWID
 40
0.05
  9
$TEXTSTYLE
  7
Standard
  9
$CLAYER
  8
0
  9
$CELTYPE
  6
ByLayer
  9
$CECOLOR
 62
   256
  9
$CELTSCALE
 40
1.0
  9
$DISPSILH
 70
     0
  9
$DIMSCALE
 40
1.0
  9
$DIMASZ
 40
0.18
  9
$DIMEXO
 40
0.0625
  9
$DIMDLI
 40
0.38
  9
$DIMRND
 40
0.0
  9
$DIMDLE
 40
0.0
  9
$DIMEXE
 40
0.18
  9
$DIMTP
 40
0.0
  9
$DIMTM
 40
0.0
  9
$DIMTXT
 40
0.18
  9
$DIMCEN
 40
0.09
  9
$DIMTSZ
 40
0.0
  9
$DIMTOL
 70
     0
  9
$DIMLIM
 70
     0
  9
$DIMTIH
 70
     1
  9
$DIMTOH
 70
     1
  9
$DIMSE1
 70
     0
  9
$DIMSE2
 70
     0
  9
$DIMTAD
 70
     0
  9
$DIMZIN
 70
     0
  9
$DIMBLK
  1

  9
$DIMASO
 70
     1
  9
$DIMSHO
 70
     1
  9
$DIMPOST
  1

  9
$DIMAPOST
  1

  9
$DIMALT
 70
     0
  9
$DIMALTD
 70
     2
  9
$DIMALTF
 40
25.4
  9
$DIMLFAC
 40
1.0
  9
$DIMTOFL
 70
     0
  9
$DIMTVP
 40
0.0
  9
$DIMTIX
 70
     0
  9
$DIMSOXD
 70
     0
  9
$DIMSAH
 70
     0
  9
$DIMBLK1
  1

  9
$DIMBLK2
  1

  9
$DIMSTYLE
  2
Standard
  9
$DIMCLRD
 70
     0
  9
$DIMCLRE
 70
     0
  9
$DIMCLRT
 70
     0
  9
$DIMTFAC
 40
1.0
  9
$DIMGAP
 40
0.09
  9
$DIMJUST
 70
     0
  9
$DIMSD1
 70
     0
  9
$DIMSD2
 70
     0
  9
$DIMTOLJ
 70
     1
  9
$DIMTZIN
 70
     0
  9
$DIMALTZ
 70
     0
  9
$DIMALTTZ
 70
     0
  9
$DIMUPT
 70
     0
  9
$DIMDEC
 70
     4
  9
$DIMTDEC
 70
     4
  9
$DIMALTU
 70
     2
  9
$DIMALTTD
 70
     2
  9
$DIMTXSTY
  7
Standard
  9
$DIMAUNIT
 70
     0
  9
$DIMADEC
 70
     0
  9
$DIMALTRND
 40
0.0
  9
$DIMAZIN
 70
     0
  9
$DIMDSEP
 70
    46
  9
$DIMATFIT
 70
     3
  9
$DIMFRAC
 70
     0
  9
$DIMLDRBLK
  1

  9
$DIMLUNIT
 70
     2
  9
$DIMLWD
 70
    -2
  9
$DIMLWE
 70
    -2
  9
$DIMTMOVE
 70
     0
  9
$DIMFXL
 40
1.0
  9
$DIMFXLON
 70
     0
  9
$DIMJOGANG
 40
0.7853981633974483
  9
$DIMTFILL
 70
     0
  9
$DIMTFILLCLR
 70
     0
  9
$DIMARCSYM
 70
     0
  9
$DIMLTYPE
  6

  9
$DIMLTEX1
  6

  9
$DIMLTEX2
  6

  9
$DIMTXTDIRECTION
 70
     0
  9
$LUNITS
 70
     2
  9
$LUPREC
 70
     4
  9
$SKETCHINC
 40
0.1
  9
$FILLETRAD
 40
0.0
  9
$AUNITS
 70
     0
  9
$AUPREC
 70
     0
  9
$MENU
  1
.
  9
$ELEVATION
 40
0.0
  9
$PELEVATION
 40
0.0
  9
$THICKNESS
 40
0.0
  9
$LIMCHECK
 70
     0
  9
$CHAMFERA
 40
0.0
  9
$CHAMFERB
 40
0.0
  9
$CHAMFERC
 40
0.0
  9
$CHAMFERD
 40
0.0
  9
$SKPOLY
 70
     0
  9
$TDCREATE
 40
2457569.687148982
  9
$TDUCREATE
 40
2457569.603815648
  9
$TDUPDATE
 40
2457569.687148982
  9
$TDUUPDATE
 40
2457569.603815648
  9
$TDINDWG
 40
0.0000161806
  9
$TDUSRTIMER
 40
0.0000161806
  9
$USRTIMER
 70
     1
  9
$ANGBASE
 50
0.0
  9
$ANGDIR
 70
     0
  9
$PDMODE
 70
     0
  9
$PDSIZE
 40
0.0
  9
$PLINEWID
 40
0.0
  9
$SPLFRAME
 70
     0
  9
$SPLINETYPE
 70
     6
  9
$SPLINESEGS
 70
     8
  9
$HANDSEED
  5
307
  9
$SURFTAB1
 70
     6
  9
$SURFTAB2
 70
     6
  9
$SURFTYPE
 70
     6
  9
$SURFU
 70
     6
  9
$SURFV
 70
     6
  9
$UCSBASE
  2

  9
$UCSNAME
  2

  9
$UCSORG
 10
0.0
 20
0.0
 30
0.0
  9
$UCSXDIR
 10
1.0
 20
0.0
 30
0.0
  9
$UCSYDIR
 10
0.0
 20
1.0
 30
0.0
  9
$UCSORTHOREF
  2

  9
$UCSORTHOVIEW
 70
     0
  9
$UCSORGTOP
 10
0.0
 20
0.0
 30
0.0
  9
$UCSORGBOTTOM
 10
0.0
 20
0.0
 30
0.0
  9
$UCSORGLEFT
 10
0.0
 20
0.0
 30
0.0
  9
$UCSORGRIGHT
 10
0.0
 20
0.0
 30
0.0
  9
$UCSORGFRONT
 10
0.0
 20
0.0
 30
0.0
  9
$UCSORGBACK
 10
0.0
 20
0.0
 30
0.0
  9
$PUCSBASE
  2

  9
$PUCSNAME
  2

  9
$PUCSORG
 10
0.0
 20
0.0
 30
0.0
  9
$PUCSXDIR
 10
1.0
 20
0.0
 30
0.0
  9
$PUCSYDIR
 10
0.0
 20
1.0
 30
0.0
  9
$PUCSORTHOREF
  2

  9
$PUCSORTHOVIEW
 70
     0
  9
$PUCSORGTOP
 10
0.0
 20
0.0
 30
0.0
  9
$PUCSORGBOTTOM
 10
0.0
 20
0.0
 30
0.0
  9
$PUCSORGLEFT
 10
0.0
 20
0.0
 30
0.0
  9
$PUCSORGRIGHT
 10
0.0
 20
0.0
 30
0.0
  9
$PUCSORGFRONT
 10
0.0
 20
0.0
 30
0.0
  9
$PUCSORGBACK
 10
0.0
 20
0.0
 30
0.0
  9
$USERI1
 70
     0
  9
$USERI2
 70
     0
  9
$USERI3
 70
     0
  9
$USERI4
 70
     0
  9
$USERI5
 70
     0
  9
$USERR1
 40
0.0
  9
$USERR2
 40
0.0
  9
$USERR3
 40
0.0
  9
$USERR4
 40
0.0
  9
$USERR5
 40
0.0
  9
$WORLDVIEW
 70
     1
  9
$SHADEDGE
 70
     3
  9
$SHADEDIF
 70
    70
  9
$TILEMODE
 70
     1
  9
$MAXACTVP
 70
    64
  9
$PINSBASE
 10
0.0
 20
0.0
 30
0.0
  9
$PLIMCHECK
 70
     0
  9
$PEXTMIN
 10
1.000000000000000E+20
 20
1.000000000000000E+20
 30
1.000000000000000E+20
  9
$PEXTMAX
 10
-1.000000000000000E+20
 20
-1.000000000000000E+20
 30
-1.000000000000000E+20
  9
$PLIMMIN
 10
0.0
 20
0.0
  9
$PLIMMAX
 10
12.0
 20
9.0
  9
$UNITMODE
 70
     0
  9
$VISRETAIN
 70
     1
  9
$PLINEGEN
 70
     0
  9
$PSLTSCALE
 70
     1
  9
$TREEDEPTH
 70
  3020
  9
$CMLSTYLE
  2
Standard
  9
$CMLJUST
 70
     0
  9
$CMLSCALE
 40
1.0
  9
$PROXYGRAPHICS
 70
     1
  9
$MEASUREMENT
 70
     1
  9
$CELWEIGHT
370
    -1
  9
$ENDCAPS
280
     0
  9
$JOINSTYLE
280
     0
  9
$LWDISPLAY
290
     0
  9
$INSUNITS
 70
     4
  9
$HYPERLINKBASE
  1

  9
$STYLESHEET
  1

  9
$XEDIT
290
     1
  9
$CEPSNTYPE
380
     0
  9
$PSTYLEMODE
290
     1
  9
$FINGERPRINTGUID
  2
{B45065E8-8698-4E28-8BD7-E4129B4A993A}
  9
$VERSIONGUID
  2
{8FD30EC4-873C-4DD4-945E-1930F09F30A6}
  9
$EXTNAMES
290
     1
  9
$PSVPSCALE
 40
0.0
  9
$OLESTARTUP
290
     0
  9
$SORTENTS
280
   127
  9
$INDEXCTL
280
     0
  9
$HIDETEXT
280
     1
  9
$XCLIPFRAME
280
     2
  9
$HALOGAP
280
     0
  9
$OBSCOLOR
 70
   257
  9
$OBSLTYPE
280
     0
  9
$INTERSECTIONDISPLAY
280
     0
  9
$INTERSECTIONCOLOR
 70
   257
  9
$DIMASSOC
280
     2
  9
$PROJECTNAME
  1

  9
$CAMERADISPLAY
290
     0
  9
$LENSLENGTH
 40
50.0
  9
$CAMERAHEIGHT
 40
0.0
  9
$STEPSPERSEC
 40
2.0
  9
$STEPSIZE
 40
6.0
  9
$3DDWFPREC
 40
2.0
  9
$PSOLWIDTH
 40
0.25
  9
$PSOLHEIGHT
 40
4.0
  9
$LOFTANG1
 40
1.570796326794896
  9
$LOFTANG2
 40
1.570796326794896
  9
$LOFTMAG1
 40
0.0
  9
$LOFTMAG2
 40
0.0
  9
$LOFTPARAM
 70
     7
  9
$LOFTNORMALS
280
     1
  9
$LATITUDE
 40
37.795
  9
$LONGITUDE
 40
-122.394
  9
$NORTHDIRECTION
 40
0.0
  9
$TIMEZONE
 70
 -8000
  9
$LIGHTGLYPHDISPLAY
280
     1
  9
$TILEMODELIGHTSYNCH
280
     1
  9
$CMATERIAL
347
11
  9
$SOLIDHIST
280
     0
  9
$SHOWHIST
280
     1
  9
$DWFFRAME
280
     2
  9
$DGNFRAME
280
     0
  9
$REALWORLDSCALE
290
     1
  9
$INTERFERECOLOR
 62
     1
  9
$INTERFEREOBJVS
345
33
  9
$INTERFEREVPVS
346
30
  9
$CSHADOW
280
     0
  9
$SHADOWPLANELOCATION
 40
0.0
  0
ENDSEC
  0
SECTION
  2
CLASSES
  0
CLASS
  1
ACDBDICTIONARYWDFLT
  2
AcDbDictionaryWithDefault
  3
ObjectDBX Classes
 90
        0
 91
        1
280
     0
281
     0
  0
CLASS
  1
MATERIAL
  2
AcDbMaterial
  3
ObjectDBX Classes
 90
     1153
 91
        3
280
     0
281
     0
  0
CLASS
  1
VISUALSTYLE
  2
AcDbVisualStyle
  3
ObjectDBX Classes
 90
     4095
 91
       24
280
     0
281
     0
  0
CLASS
  1
SCALE
  2
AcDbScale
  3
ObjectDBX Classes
 90
     1153
 91
       17
280
     0
281
     0
  0
CLASS
  1
TABLESTYLE
  2
AcDbTableStyle
  3
ObjectDBX Classes
 90
     4095
 91
        1
280
     0
281
     0
  0
CLASS
  1
MLEADERSTYLE
  2
AcDbMLeaderStyle
  3
ACDB_MLEADERSTYLE_CLASS
 90
     4095
 91
        1
280
     0
281
     0
  0
CLASS
  1
ACDBSECTIONVIEWSTYLE
  2
AcDbSectionViewStyle
  3
ObjectDBX Classes
 90
     1025
 91
        1
280
     0
281
     0
  0
CLASS
  1
ACDBDETAILVIEWSTYLE
  2
AcDbDetailViewStyle
  3
ObjectDBX Classes
 90
     1025
 91
        1
280
     0
281
     0
  0
CLASS
  1
RASTERVARIABLES
  2
AcDbRasterVariables
  3
ISM
 90
        0
 91
        1
280
     0
281
     0
  0
CLASS
  1
DICTIONARYVAR
  2
AcDbDictionaryVar
  3
ObjectDBX Classes
 90
        0
 91
        5
280
     0
281
     0
  0
CLASS
  1
CELLSTYLEMAP
  2
AcDbCellStyleMap
  3
ObjectDBX Classes
 90
     1152
 91
        2
280
     0
281
     0
  0
CLASS
  1
SORTENTSTABLE
  2
AcDbSortentsTable
  3
ObjectDBX Classes
 90
        0
 91
        1
280
     0
281
     0
  0
ENDSEC
  0
SECTION
  2
TABLES
  0
TABLE
  2
VPORT
  5
8
330
0
100
AcDbSymbolTable
 70
     1
  0
VPORT
  5
57
330
8
100
AcDbSymbolTableRecord
100
AcDbViewportTableRecord
  2
*Active
 70
     0
 10
0.0
 20
0.0
 11
1.0
 21
1.0
 12
920.1397821360462
 22
1874.623467651146
 13
0.0
 23
0.0
 14
1.0
 24
1.0
 15
0.0
 25
0.0
 16
0.0
 26
0.0
 36
1.0
 17
0.0
 27
0.0
 37
0.0
 40
289.7494323977653
 41
1.180146399445876
 42
50.0
 43
0.0
 44
0.0
 50
0.0
 51
0.0
 71
     0
 72
  1000
 73
     1
 74
     1
 75
     0
 76
     0
 77
     0
 78
     0
281
     0
 65
     1
110
0.0
120
0.0
130
0.0
111
1.0
121
0.0
131
0.0
112
0.0
122
1.0
132
0.0
 79
     0
146
0.0
 60
     3
 61
     5
292
     1
282
     1
141
0.0
142
0.0
 63
   250
421
  3355443
  0
ENDTAB
  0
TABLE
  2
LTYPE
  5
5
330
0
100
AcDbSymbolTable
 70
     3
  0
LTYPE
  5
5B
330
5
100
AcDbSymbolTableRecord
100
AcDbLinetypeTableRecord
  2
ByBlock
 70
     0
  3

 72
    65
 73
     0
 40
0.0
  0
LTYPE
  5
5C
330
5
100
AcDbSymbolTableRecord
100
AcDbLinetypeTableRecord
  2
ByLayer
 70
     0
  3

 72
    65
 73
     0
 40
0.0
  0
LTYPE
  5
5D
330
5
100
AcDbSymbolTableRecord
100
AcDbLinetypeTableRecord
  2
Continuous
 70
     0
  3
Solid line
 72
    65
 73
     0
 40
0.0
  0
LTYPE
  5
69
330
5
100
AcDbSymbolTableRecord
100
AcDbLinetypeTableRecord
  2
PHANTOM2
 70
     0
  3
___ _ _ ___ _ _ ___ _ _ ___ _ _
 72
    65
 73
     6
 40
1.25
 49
0.625
 74
     0
 49
-0.125
 74
     0
 49
0.125
 74
     0
 49
-0.125
 74
     0
 49
0.125
 74
     0
 49
-0.125
 74
     0
  0
LTYPE
  5
86
330
5
100
AcDbSymbolTableRecord
100
AcDbLinetypeTableRecord
  2
Nascosto 1_5 mm
 70
     0
  3

 72
    65
 73
     2
 40
2.2
 49
1.5
 74
     0
 49
-0.7000000000000001
 74
     0
  0
ENDTAB
  0
TABLE
  2
LAYER
  5
2
330
0
100
AcDbSymbolTable
 70
     4
  0
LAYER
  5
54
330
2
100
AcDbSymbolTableRecord
100
AcDbLayerTableRecord
  2
0
 70
     0
 62
     7
  6
Continuous
370
    -3
390
F
347
21
348
0
  0
LAYER
  5
85
330
2
100
AcDbSymbolTableRecord
100
AcDbLayerTableRecord
  2
P-SANR-FIXT
 70
     0
 62
     6
  6
Continuous
370
    18
390
F
347
21
348
0
  0
LAYER
  5
88
330
2
100
AcDbSymbolTableRecord
100
AcDbLayerTableRecord
  2
M-PIPE
 70
     0
 62
     3
  6
Continuous
370
    18
390
F
347
21
348
0
  0
ENDTAB
  0
TABLE
  2
STYLE
  5
3
330
0
100
AcDbSymbolTable
 70
     2
  0
STYLE
  5
55
330
3
100
AcDbSymbolTableRecord
100
AcDbTextStyleTableRecord
  2
Standard
 70
     0
 40
0.0
 41
1.0
 50
0.0
 71
     0
 42
0.2
  3
txt
  4

  0
STYLE
  5
5A
330
3
100
AcDbSymbolTableRecord
100
AcDbTextStyleTableRecord
  2
Annotative
 70
     0
 40
0.0
 41
1.0
 50
0.0
 71
     0
 42
0.2
  3
txt
  4

1001
AcadAnnotative
1000
AnnotativeData
1002
{
1070
     1
1070
     1
1002
}
  0
ENDTAB
  0
TABLE
  2
VIEW
  5
6
330
0
100
AcDbSymbolTable
 70
     0
  0
ENDTAB
  0
TABLE
  2
UCS
  5
7
330
0
100
AcDbSymbolTable
 70
     0
  0
ENDTAB
  0
TABLE
  2
APPID
  5
9
330
0
100
AcDbSymbolTable
 70
     3
  0
APPID
  5
56
330
9
100
AcDbSymbolTableRecord
100
AcDbRegAppTableRecord
  2
ACAD
 70
     0
  0
APPID
  5
5E
330
9
100
AcDbSymbolTableRecord
100
AcDbRegAppTableRecord
  2
AcadAnnotative
 70
     0
  0
APPID
  5
79
330
9
100
AcDbSymbolTableRecord
100
AcDbRegAppTableRecord
  2
REVIT
 70
     0
  0
ENDTAB
  0
TABLE
  2
DIMSTYLE
  5
A
330
0
100
AcDbSymbolTable
 70
     2
100
AcDbDimStyleTable
 71
     0
  0
DIMSTYLE
105
58
330
A
100
AcDbSymbolTableRecord
100
AcDbDimStyleTableRecord
  2
Standard
 70
     0
340
55
  0
DIMSTYLE
105
59
330
A
100
AcDbSymbolTableRecord
100
AcDbDimStyleTableRecord
  2
Annotative
 70
     0
340
55
1001
AcadAnnotative
1000
AnnotativeData
1002
{
1070
     1
1070
     1
1002
}
  0
ENDTAB
  0
TABLE
  2
BLOCK_RECORD
  5
1
330
0
100
AcDbSymbolTable
 70
     4
  0
BLOCK_RECORD
  5
71
102
{ACAD_XDICTIONARY
360
302
102
}
330
1
100
AcDbSymbolTableRecord
100
AcDbBlockTableRecord
  2
*Model_Space
340
74
 70
     0
280
     1
281
     0
  0
BLOCK_RECORD
  5
6D
330
1
100
AcDbSymbolTableRecord
100
AcDbBlockTableRecord
  2
*Paper_Space
340
70
 70
     0
280
     1
281
     0
  0
BLOCK_RECORD
  5
75
330
1
100
AcDbSymbolTableRecord
100
AcDbBlockTableRecord
  2
*Paper_Space0
340
78
 70
     0
280
     1
281
     0
  0
BLOCK_RECORD
  5
87
330
1
100
AcDbSymbolTableRecord
100
AcDbBlockTableRecord
  2
Automatic flow rate regulator valve_Caleffi_121 DN15 - 1_2__-859151-Est - Idraulica
340
0
102
{BLKREFS
331
16D
102
}
 70
     0
280
     1
281
     0
  0
BLOCK_RECORD
  5
16E
330
1
100
AcDbSymbolTableRecord
100
AcDbBlockTableRecord
  2
Automatic flow rate regulator valve_Caleffi_121 DN15 - 1_2__-V1-Est - Idraulica
340
0
102
{BLKREFS
331
265
102
}
 70
     0
280
     1
281
     0
  0
BLOCK_RECORD
  5
266
330
1
100
AcDbSymbolTableRecord
100
AcDbBlockTableRecord
  2
Automatic flow rate regulator valve_Caleffi_121 DN15 - 1_2__-V2-Est - Idraulica
340
0
102
{BLKREFS
331
2FB
102
}
 70
     0
280
     1
281
     0
  0
ENDTAB
  0
ENDSEC
  0
SECTION
  2
BLOCKS
  0
BLOCK
  5
72
330
71
100
AcDbEntity
  8
0
100
AcDbBlockBegin
  2
*Model_Space
 70
     0
 10
0.0
 20
0.0
 30
0.0
  3
*Model_Space
  1

  0
ENDBLK
  5
73
330
71
100
AcDbEntity
  8
0
100
AcDbBlockEnd
  0
BLOCK
  5
6E
330
6D
100
AcDbEntity
 67
     1
  8
0
100
AcDbBlockBegin
  2
*Paper_Space
 70
     0
 10
0.0
 20
0.0
 30
0.0
  3
*Paper_Space
  1

  0
ENDBLK
  5
6F
330
6D
100
AcDbEntity
 67
     1
  8
0
100
AcDbBlockEnd
  0
BLOCK
  5
76
330
75
100
AcDbEntity
 67
     1
  8
0
100
AcDbBlockBegin
  2
*Paper_Space0
 70
     0
 10
0.0
 20
0.0
 30
0.0
  3
*Paper_Space0
  1

  0
ENDBLK
  5
77
330
75
100
AcDbEntity
 67
     1
  8
0
100
AcDbBlockEnd
  0
BLOCK
  5
16B
330
87
100
AcDbEntity
  8
0
100
AcDbBlockBegin
  2
Automatic flow rate regulator valve_Caleffi_121 DN15 - 1_2__-859151-Est - Idraulica
 70
     0
 10
0.0
 20
0.0
 30
0.0
  3
Automatic flow rate regulator valve_Caleffi_121 DN15 - 1_2__-859151-Est - Idraulica
  1

  0
LINE
  5
89
330
87
100
AcDbEntity
  8
M-PIPE
100
AcDbLine
 10
832.9164074431739
 20
1989.437500000015
 30
0.0
 11
832.9164074431739
 21
1993.256982010157
 31
0.0
1001
REVIT
1002
{
1070
     3
1000
938184
1002
}
  0
LINE
  5
8A
330
87
100
AcDbEntity
  8
M-PIPE
100
AcDbLine
 10
798.416407443205
 20
1993.256982010158
 30
0.0
 11
798.416407443205
 21
1989.437500000016
 31
0.0
1001
REVIT
1002
{
1070
     3
1000
938184
1002
}
  0
LWPOLYLINE
  5
8B
330
87
100
AcDbEntity
  8
M-PIPE
100
AcDbPolyline
 90
       15
 70
   128
 43
0.0
 10
798.4164074431914
 20
1993.256982010158
 10
798.4180072298695
 20
1993.336960678531
 10
798.4228040305862
 20
1993.416811398096
 10
798.4307901714837
 20
1993.496406424736
 10
798.4419528764402
 20
1993.575618423386
 10
798.4562742875088
 20
1993.654320671748
 10
798.4737314934875
 20
1993.732387263012
 10
798.49429656657
 20
1993.809693307285
 10
798.5179366070267
 20
1993.88611513139
 10
798.5446137958359
 20
1993.961530476708
 10
798.5742854551858
 20
1994.035818694775
 10
798.6069041167519
 20
1994.10886094029
 10
798.6424175976332
 20
1994.18054036124
 10
798.6807690838365
 20
1994.250742285845
 10
798.6879327150121
 20
1994.263150541788
1001
REVIT
1002
{
1070
     3
1000
938184
1002
}
  0
LWPOLYLINE
  5
8C
330
87
100
AcDbEntity
  8
M-PIPE
100
AcDbPolyline
 90
       15
 70
   128
 43
0.0
 10
832.644882171367
 20
1994.263150541788
 10
832.6837355856046
 20
1994.193225160743
 10
832.7197616518246
 20
1994.121801990378
 10
832.7529027360053
 20
1994.048995292531
 10
832.7831058194826
 20
1993.974921542385
 10
832.8103225837656
 20
1993.89969924214
 10
832.8345094878375
 20
1993.82344873143
 10
832.855627837811
 20
1993.746291994805
 10
832.8736438488315
 20
1993.668352466585
 10
832.8885286991242
 20
1993.58975483339
 10
832.9002585761042
 20
1993.510624834665
 10
832.9088147144709
 20
1993.431089061528
 10
832.9141834262275
 20
1993.351274754251
 10
832.9163561225808
 20
1993.271309598697
 10
832.9164074431878
 20
1993.256982010157
1001
REVIT
1002
{
1070
     3
1000
938184
1002
}
  0
LINE
  5
8D
330
87
100
AcDbEntity
  8
M-PIPE
100
AcDbLine
 10
832.644882171367
 20
1994.263150541788
 30
0.0
 11
832.0215896865116
 21
1995.028308495078
 31
0.0
1001
REVIT
1002
{
1070
     3
1000
938184
1002
}
  0
LINE
  5
8E
330
87
100
AcDbEntity
  8
M-PIPE
100
AcDbLine
 10
799.3112251998671
 20
1995.028308495079
 30
0.0
 11
798.6879327150121
 21
1994.263150541788
 31
0.0
1001
REVIT
1002
{
1070
     3
1000
938184
1002
}
  0
LWPOLYLINE
  5
8F
330
87
100
AcDbEntity
  8
M-PIPE
100
AcDbPolyline
 90
       12
 70
   128
 43
0.0
 10
799.3112251998671
 20
1995.028308495079
 10
799.3554091343699
 20
1995.094993775644
 10
799.3968910264678
 20
1995.16339260122
 10
799.4356045139827
 20
1995.233395548277
 10
799.4714876635931
 20
1995.304890627032
 10
799.5044830699137
 20
1995.377763460611
 10
799.5345379473337
 20
1995.451897468026
 10
799.56160421446
 20
1995.52717405068
 10
799.58563857104
 20
1995.603472782098
 10
799.6066025672289
 20
1995.680671600586
 10
799.6244626651059
 20
1995.758647004503
 10
799.6343299371872
 20
1995.809337505178
1001
REVIT
1002
{
1070
     3
1000
938184
1002
}
  0
LWPOLYLINE
  5
90
330
87
100
AcDbEntity
  8
M-PIPE
100
AcDbPolyline
 90
       12
 70
   128
 43
0.0
 10
831.6984849491918
 20
1995.809337505178
 10
831.7143258604623
 20
1995.730926968626
 10
831.7332896858435
 20
1995.653212619635
 10
831.7553460872597
 20
1995.576318784585
 10
831.7804597791743
 20
1995.500368477209
 10
831.808590585037
 20
1995.425483201796
 10
831.8396935015599
 20
1995.351782758812
 10
831.873718770711
 20
1995.279385053245
 10
831.9106119593183
 20
1995.208405905979
 10
831.9503140461502
 20
1995.138958868509
 10
831.9927615163367
 20
1995.07115504128
 10
832.021589686512
 20
1995.028308495078
1001
REVIT
1002
{
1070
     3
1000
938184
1002
}
  0
LINE
  5
91
330
87
100
AcDbEntity
  8
M-PIPE
100
AcDbLine
 10
828.9809890384505
 20
2017.819117990768
 30
0.0
 11
829.2830072006683
 21
2016.269547448803
 31
0.0
1001
REVIT
1002
{
1070
     3
1000
938184
1002
}
  0
LWPOLYLINE
  5
92
330
87
100
AcDbEntity
  8
M-PIPE
100
AcDbPolyline
 90
        3
 70
   128
 43
0.0
 10
829.9952405482304
 20
2012.615277764218
 10
830.7251099769791
 20
2008.870522290031
 10
831.0851307882483
 20
2004.03960052132
1001
REVIT
1002
{
1070
     3
1000
938184
1002
}
  0
LINE
  5
93
330
87
100
AcDbEntity
  8
M-PIPE
100
AcDbLine
 10
831.1914757662979
 20
2002.612615598864
 30
0.0
 11
831.6984849491918
 21
1995.809337505178
 31
0.0
1001
REVIT
1002
{
1070
     3
1000
938184
1002
}
  0
LINE
  5
94
330
87
100
AcDbEntity
  8
M-PIPE
100
AcDbLine
 10
799.6343299371872
 20
1995.809337505178
 30
0.0
 11
800.1413391195836
 21
2002.612615592182
 31
0.0
1001
REVIT
1002
{
1070
     3
1000
938184
1002
}
  0
LWPOLYLINE
  5
95
330
87
100
AcDbEntity
  8
M-PIPE
100
AcDbPolyline
 90
        3
 70
   128
 43
0.0
 10
800.2476840977321
 20
2004.039600515971
 10
800.6077049094002
 20
2008.870522290031
 10
801.0852079181596
 20
2011.320456395447
1001
REVIT
1002
{
1070
     3
1000
938184
1002
}
  0
LINE
  5
96
330
87
100
AcDbEntity
  8
M-PIPE
100
AcDbLine
 10
801.7942248357057
 20
2014.958223479107
 30
0.0
 11
802.3518258479292
 21
2017.819117990768
 31
0.0
1001
REVIT
1002
{
1070
     3
1000
938184
1002
}
  0
LWPOLYLINE
  5
97
330
87
100
AcDbEntity
  8
M-PIPE
100
AcDbPolyline
 90
        3
 70
   128
 43
0.0
 10
802.3518258479292
 20
2017.819117990768
 10
800.6077049094002
 20
2008.870522290031
 10
799.6343299371872
 20
1995.809337505178
1001
REVIT
1002
{
1070
     3
1000
938184
1002
}
  0
LWPOLYLINE
  5
98
330
87
100
AcDbEntity
  8
M-PIPE
100
AcDbPolyline
 90
        3
 70
   128
 43
0.0
 10
831.6984849491918
 20
1995.809337505178
 10
830.7251099769791
 20
2008.870522290031
 10
828.9809890384505
 20
2017.819117990768
1001
REVIT
1002
{
1070
     3
1000
938184
1002
}
  0
LWPOLYLINE
  5
99
330
87
100
AcDbEntity
  8
M-PIPE
100
AcDbPolyline
 90
       36
 70
   128
 43
0.0
 10
802.3518258479292
 20
2017.819117990768
 10
802.368656891384
 20
2017.89732197205
 10
802.3886017969413
 20
2017.974790336267
 10
802.4116286570071
 20
2018.051399150562
 10
802.4377006335177
 20
2018.127025857174
 10
802.4667760168718
 20
2018.201549469506
 10
802.4988082926586
 20
2018.274850765676
 10
802.5337462160706
 20
2018.346812479245
 10
802.5715338938828
 20
2018.417319486824
 10
802.6121108738719
 20
2018.486258992241
 10
802.6554122415255
 20
2018.553520706994
 10
802.701368723893
 20
2018.618997026687
 10
802.7499068004058
 20
2018.682583203177
 10
802.8009488204958
 20
2018.744177512145
 10
802.8544131278191
 20
2018.803681415838
 10
802.9102141908897
 20
2018.8609997207
 10
802.9682627399095
 20
2018.916040729675
 10
803.0284659095835
 20
2018.968716388886
 10
803.0907273876827
 20
2019.018942428518
 10
803.1549475691241
 20
2019.066638497621
 10
803.2210237153169
 20
2019.111728292657
 10
803.2888501185226
 20
2019.154139679576
 10
803.3583182709648
 20
2019.193804809204
 10
803.4293170384191
 20
2019.230660225796
 10
803.5017328380028
 20
2019.264646968547
 10
803.5754498198846
 20
2019.295710665919
 10
803.6503500526189
 20
2019.323801622623
 10
803.726313711811
 20
2019.34887489912
 10
803.8032192718114
 20
2019.370890383517
 10
803.8809437001292
 20
2019.389812855735
 10
803.9593626542599
 20
2019.405612043854
 10
804.0383506806049
 20
2019.418262672545
 10
804.1177814151723
 20
2019.4277445035
 10
804.1975277857311
 20
2019.434042367813
 10
804.2774622150997
 20
2019.437146190243
 10
804.2981780423442
 20
2019.437341029473
1001
REVIT
1002
{
1070
     3
1000
938184
1002
}
  0
LWPOLYLINE
  5
9A
330
87
100
AcDbEntity
  8
M-PIPE
100
AcDbPolyline
 90
       36
 70
   128
 43
0.0
 10
827.0365991537904
 20
2019.437122660056
 10
827.0977133399274
 20
2019.435900213336
 10
827.1775640594924
 20
2019.431103412619
 10
827.2571590861319
 20
2019.423117271722
 10
827.3363710847826
 20
2019.411954566766
 10
827.4150733331444
 20
2019.397633155697
 10
827.4931399244085
 20
2019.380175949719
 10
827.5704459686824
 20
2019.359610876636
 10
827.6468677927864
 20
2019.33597083618
 10
827.7222831381044
 20
2019.309293647371
 10
827.7965713561716
 20
2019.279621988021
 10
827.8696136016863
 20
2019.247003326455
 10
827.9412930226373
 20
2019.211489845574
 10
828.0114949472418
 20
2019.17313835937
 10
828.0801070673961
 20
2019.132010222042
 10
828.1470196183445
 20
2019.088171229834
 10
828.212125554279
 20
2019.041691515784
 10
828.2753207195913
 20
2018.992645437517
 10
828.3365040154972
 20
2018.941111458297
 10
828.3955775617757
 20
2018.887172021497
 10
828.4524468533534
 20
2018.830913418709
 10
828.5070209114962
 20
2018.772425651698
 10
828.5592124293524
 20
2018.711802288412
 10
828.6089379116273
 20
2018.649140313302
 10
828.6561178081566
 20
2018.58453997216
 10
828.7006766411703
 20
2018.518104611751
 10
828.7425431260412
 20
2018.44994051448
 10
828.7816502853244
 20
2018.380156728363
 10
828.8179355559076
 20
2018.308864892569
 10
828.8513408890983
 20
2018.236179058828
 10
828.8818128434892
 20
2018.162215508969
 10
828.909302670454
 20
2018.087092568892
 10
828.9337663921333
 20
2018.010930419279
 10
828.9551648717914
 20
2017.93385090332
 10
828.9734638764254
 20
2017.855977331798
 10
828.9809890384505
 20
2017.819117990768
1001
REVIT
1002
{
1070
     3
1000
938184
1002
}
  0
LWPOLYLINE
  5
9B
330
87
100
AcDbEntity
  8
M-PIPE
100
AcDbPolyline
 90
        4
 70
   128
 43
0.0
 10
804.3150802148247
 20
2019.437500000015
 10
804.3241600658637
 20
2019.437500000015
 10
804.3513850931558
 20
2019.437500000015
 10
804.3967117424656
 20
2019.437500000015
1001
REVIT
1002
{
1070
     3
1000
938184
1002
}
  0
LWPOLYLINE
  5
9C
330
87
100
AcDbEntity
  8
M-PIPE
100
AcDbPolyline
 90
        5
 70
   128
 43
0.0
 10
826.9206224935242
 20
2019.437500000014
 10
826.9592061313673
 20
2019.437500000014
 10
826.9962099681075
 20
2019.437500000014
 10
827.0150885377036
 20
2019.437500000014
 10
827.017734671555
 20
2019.437500000014
1001
REVIT
1002
{
1070
     3
1000
938184
1002
}
  0
LWPOLYLINE
  5
9D
330
87
100
AcDbEntity
  8
M-PIPE
100
AcDbPolyline
 90
       80
 70
   128
 43
0.0
 10
827.017734671555
 20
2019.437500000014
 10
827.008654820516
 20
2019.437500000014
 10
826.9814297932237
 20
2019.437500000014
 10
826.9361031439141
 20
2019.437500000014
 10
826.8727473855568
 20
2019.437500000014
 10
826.7914638738499
 20
2019.437500000014
 10
826.6923826450728
 20
2019.437500000014
 10
826.5756622080553
 20
2019.437500000014
 10
826.4414892905978
 20
2019.437500000014
 10
826.2900785407456
 20
2019.437500000014
 10
826.1216721833999
 20
2019.437500000014
 10
825.9365396328075
 20
2019.437500000014
 10
825.734977061556
 20
2019.437500000014
 10
825.5173069267623
 20
2019.437500000014
 10
825.2838774542079
 20
2019.437500000014
 10
825.0350620812536
 20
2019.437500000014
 10
824.7712588594181
 20
2019.437500000014
 10
824.4928898175812
 20
2019.437500000014
 10
824.2004002868279
 20
2019.437500000014
 10
823.8942581880127
 20
2019.437500000014
 10
823.5749532831871
 20
2019.437500000014
 10
823.2429963920839
 20
2019.437500000014
 10
822.8989185749153
 20
2019.437500000014
 10
822.5432702827891
 20
2019.437500000014
 10
822.1766204771055
 20
2019.437500000014
 10
821.7995557193393
 20
2019.437500000014
 10
821.4126792326663
 20
2019.437500000014
 10
821.0166099369359
 20
2019.437500000014
 10
820.6119814585315
 20
2019.437500000014
 10
820.1994411167017
 20
2019.437500000014
 10
819.77964888799
 20
2019.437500000014
 10
819.3532763504116
 20
2019.437500000014
 10
818.9210056090715
 20
2019.437500000014
 10
818.483528204943
 20
2019.437500000014
 10
818.0415440085498
 20
2019.437500000014
 10
817.5957601003206
 20
2019.437500000014
 10
817.1468896394133
 20
2019.437500000014
 10
816.6956507228118
 20
2019.437500000014
 10
816.2427652365225
 20
2019.437500000014
 10
815.7889577007139
 20
2019.437500000014
 10
815.3349541106358
 20
2019.437500000014
 10
814.881480775184
 20
2019.437500000014
 10
814.4292631549584
 20
2019.437500000014
 10
813.9790247016838
 20
2019.437500000014
 10
813.5314857008403
 20
2019.437500000014
 10
813.0873621193584
 20
2019.437500000014
 10
812.6473644602279
 20
2019.437500000014
 10
812.2121966258418
 20
2019.437500000014
 10
811.782554791905
 20
2019.437500000014
 10
811.3591262936987
 20
2019.437500000014
 10
810.9425885264942
 20
2019.437500000014
 10
810.5336078618618
 20
2019.437500000014
 10
810.1328385816211
 20
2019.437500000014
 10
809.7409218311268
 20
2019.437500000014
 10
809.3584845935758
 20
2019.437500000014
 10
808.9861386869657
 20
2019.437500000014
 10
808.6244797853176
 20
2019.437500000014
 10
808.2740864657244
 20
2019.437500000014
 10
807.9355192827506
 20
2019.437500000014
 10
807.6093198716655
 20
2019.437500000014
 10
807.2960100819409
 20
2019.437500000014
 10
806.996091142405
 20
2019.437500000014
 10
806.7100428593814
 20
2019.437500000014
 10
806.4383228491028
 20
2019.437500000014
 10
806.1813658056216
 20
2019.437500000014
 10
805.9395828053929
 20
2019.437500000014
 10
805.7133606496394
 20
2019.437500000014
 10
805.5030612455521
 20
2019.437500000014
 10
805.3090210273163
 20
2019.437500000014
 10
805.1315504178878
 20
2019.437500000014
 10
804.9709333323836
 20
2019.437500000015
 10
804.827426723877
 20
2019.437500000015
 10
804.7012601723292
 20
2019.437500000015
 10
804.5926355173076
 20
2019.437500000015
 10
804.5017265350892
 20
2019.437500000015
 10
804.4286786606516
 20
2019.437500000015
 10
804.3736087550124
 20
2019.437500000015
 10
804.3366049182722
 20
2019.437500000015
 10
804.3177263486763
 20
2019.437500000015
 10
804.3150802148247
 20
2019.437500000015
1001
REVIT
1002
{
1070
     3
1000
938184
1002
}
  0
LINE
  5
9E
330
87
100
AcDbEntity
  8
M-PIPE
100
AcDbLine
 10
798.4164074432034
 20
1989.437500000015
 30
0.0
 11
832.9164074431723
 21
1989.437500000014
 31
0.0
1001
REVIT
1002
{
1070
     3
1000
938184
1002
}
  0
LINE
  5
9F
330
87
100
AcDbEntity
  8
M-PIPE
100
AcDbLine
 10
832.6448821713652
 20
1994.263150541787
 30
0.0
 11
798.6879327150104
 21
1994.263150541787
 31
0.0
1001
REVIT
1002
{
1070
     3
1000
938184
1002
}
  0
LINE
  5
A0
330
87
100
AcDbEntity
  8
M-PIPE
100
AcDbLine
 10
832.0215896865102
 20
1995.028308495077
 30
0.0
 11
799.3112251998655
 21
1995.028308495078
 31
0.0
1001
REVIT
1002
{
1070
     3
1000
938184
1002
}
  0
LINE
  5
A1
330
87
100
AcDbEntity
  8
M-PIPE
100
AcDbLine
 10
831.6984849491902
 20
1995.809337505177
 30
0.0
 11
799.6343299371856
 21
1995.809337505177
 31
0.0
1001
REVIT
1002
{
1070
     3
1000
938184
1002
}
  0
LINE
  5
A2
330
87
100
AcDbEntity
  8
M-PIPE
100
AcDbLine
 10
828.9809890384487
 20
2017.819117990766
 30
0.0
 11
802.3518258479276
 21
2017.819117990767
 31
0.0
1001
REVIT
1002
{
1070
     3
1000
938184
1002
}
  0
LINE
  5
A3
330
87
100
AcDbEntity
  8
P-SANR-FIXT
100
AcDbLine
 10
795.3100009826377
 20
1929.865703230275
 30
0.0
 11
795.3100009826377
 21
1917.35694341639
 31
0.0
  0
LINE
  5
A4
330
87
100
AcDbEntity
  8
P-SANR-FIXT
100
AcDbLine
 10
836.022813903741
 20
1917.35694341639
 30
0.0
 11
836.022813903741
 21
1929.865703230275
 31
0.0
  0
LINE
  5
A5
330
87
100
AcDbEntity
  8
P-SANR-FIXT
100
AcDbLine
 10
836.022813903741
 20
1929.865703230275
 30
0.0
 11
835.8479498113748
 21
1929.966661061075
 31
0.0
  0
LINE
  5
A6
330
87
100
AcDbEntity
  8
P-SANR-FIXT
100
AcDbLine
 10
835.7988463689933
 20
1929.995010946752
 30
0.0
 11
834.1664074431898
 21
1930.9375
 31
0.0
  0
LINE
  5
A7
330
87
100
AcDbEntity
  8
P-SANR-FIXT
100
AcDbLine
 10
797.1664074431891
 20
1930.9375
 30
0.0
 11
795.5339685173851
 21
1929.995010946752
 31
0.0
  0
LINE
  5
A8
330
87
100
AcDbEntity
  8
P-SANR-FIXT
100
AcDbLine
 10
795.4848650750037
 20
1929.966661061075
 30
0.0
 11
795.3100009826377
 21
1929.865703230275
 31
0.0
  0
LINE
  5
A9
330
87
100
AcDbEntity
  8
P-SANR-FIXT
100
AcDbLine
 10
831.8322149805158
 20
1914.9375
 30
0.0
 11
835.7988463689933
 21
1917.227635699913
 31
0.0
  0
LINE
  5
AA
330
87
100
AcDbEntity
  8
P-SANR-FIXT
100
AcDbLine
 10
835.8479915540486
 20
1917.256009685734
 30
0.0
 11
836.022813903741
 21
1917.35694341639
 31
0.0
  0
LINE
  5
AB
330
87
100
AcDbEntity
  8
P-SANR-FIXT
100
AcDbLine
 10
795.3100009826377
 20
1917.35694341639
 30
0.0
 11
795.4848233323297
 21
1917.256009685735
 31
0.0
  0
LINE
  5
AC
330
87
100
AcDbEntity
  8
P-SANR-FIXT
100
AcDbLine
 10
795.5339685173851
 20
1917.227635699913
 30
0.0
 11
799.500599905863
 21
1914.9375
 31
0.0
  0
LINE
  5
AD
330
87
100
AcDbEntity
  8
P-SANR-FIXT
100
AcDbLine
 10
797.1664074431876
 20
1930.937499999999
 30
0.0
 11
799.6449374731753
 21
1930.937499999999
 31
0.0
  0
LINE
  5
AE
330
87
100
AcDbEntity
  8
P-SANR-FIXT
100
AcDbLine
 10
799.6449374731753
 20
1930.937499999999
 30
0.0
 11
815.6664074431876
 21
1930.937499999999
 31
0.0
  0
LINE
  5
AF
330
87
100
AcDbEntity
  8
P-SANR-FIXT
100
AcDbLine
 10
815.6664074431876
 20
1930.937499999999
 30
0.0
 11
831.6878774132002
 21
1930.937499999999
 31
0.0
  0
LINE
  5
B0
330
87
100
AcDbEntity
  8
P-SANR-FIXT
100
AcDbLine
 10
831.6878774132002
 20
1930.937499999999
 30
0.0
 11
834.1664074431882
 21
1930.937499999999
 31
0.0
  0
LINE
  5
B1
330
87
100
AcDbEntity
  8
P-SANR-FIXT
100
AcDbLine
 10
831.832214980514
 20
1914.937499999999
 30
0.0
 11
799.5005999058614
 21
1914.937499999999
 31
0.0
  0
SPLINE
  5
B2
330
87
100
AcDbEntity
  8
P-SANR-FIXT
100
AcDbSpline
210
0.0
220
0.0
230
1.0
 70
     8
 71
     3
 72
     9
 73
     5
 74
     0
 42
0.000000001
 43
0.0000000001
 40
0.0
 40
0.0
 40
0.0
 40
0.0
 40
0.5
 40
1.0
 40
1.0
 40
1.0
 40
1.0
 10
795.3100009826361
 20
1917.356943416389
 30
0.0
 10
795.3100009826361
 20
1917.355937808913
 30
0.0
 10
795.4627305252954
 20
1917.297037422141
 30
0.0
 10
795.9004120363074
 20
1917.124358691725
 30
0.0
 10
796.1808358580372
 20
1917.009574740607
 30
0.0
  0
SPLINE
  5
B3
330
87
100
AcDbEntity
  8
P-SANR-FIXT
100
AcDbSpline
210
0.0
220
0.0
230
1.0
 70
     8
 71
     3
 72
     9
 73
     5
 74
     0
 42
0.000000001
 43
0.0000000001
 40
0.0
 40
0.0
 40
0.0
 40
0.0
 40
0.5
 40
1.0
 40
1.0
 40
1.0
 40
1.0
 10
796.1808358580372
 20
1930.213071906057
 30
0.0
 10
795.9004120363074
 20
1930.098287954938
 30
0.0
 10
795.4627305252954
 20
1929.925609224523
 30
0.0
 10
795.3100009826361
 20
1929.86670883775
 30
0.0
 10
795.3100009826361
 20
1929.865703230275
 30
0.0
  0
SPLINE
  5
B4
330
87
100
AcDbEntity
  8
P-SANR-FIXT
100
AcDbSpline
210
0.0
220
0.0
230
1.0
 70
     8
 71
     3
 72
     9
 73
     5
 74
     0
 42
0.000000001
 43
0.0000000001
 40
0.0
 40
0.0
 40
0.0
 40
0.0
 40
0.5
 40
1.0
 40
1.0
 40
1.0
 40
1.0
 10
796.1808358580372
 20
1917.009574740607
 30
0.0
 10
797.3539623372427
 20
1916.526654464813
 30
0.0
 10
799.6817893548272
 20
1916.043734189019
 30
0.0
 10
801.9727644907598
 20
1916.526654464813
 30
0.0
 10
803.1090390883131
 20
1917.009574740607
 30
0.0
  0
SPLINE
  5
B5
330
87
100
AcDbEntity
  8
P-SANR-FIXT
100
AcDbSpline
210
0.0
220
0.0
230
1.0
 70
     8
 71
     3
 72
     9
 73
     5
 74
     0
 42
0.000000001
 43
0.0000000001
 40
0.0
 40
0.0
 40
0.0
 40
0.0
 40
0.5
 40
1.0
 40
1.0
 40
1.0
 40
1.0
 10
803.1090390883131
 20
1930.213071906057
 30
0.0
 10
802.5376393188878
 20
1930.450261148788
 30
0.0
 10
801.388889280273
 20
1930.808188407177
 30
0.0
 10
800.2282382421292
 20
1930.933213211416
 30
0.0
 10
799.6449374731749
 20
1930.937499999999
 30
0.0
  0
SPLINE
  5
B6
330
87
100
AcDbEntity
  8
P-SANR-FIXT
100
AcDbSpline
210
0.0
220
0.0
230
1.0
 70
     8
 71
     3
 72
     9
 73
     5
 74
     0
 42
0.000000001
 43
0.0000000001
 40
0.0
 40
0.0
 40
0.0
 40
0.0
 40
0.5
 40
1.0
 40
1.0
 40
1.0
 40
1.0
 10
799.6449374731749
 20
1930.937499999999
 30
0.0
 10
799.0616367042208
 20
1930.933213211416
 30
0.0
 10
797.9009856660771
 20
1930.808188407177
 30
0.0
 10
796.7522356274623
 20
1930.450261148788
 30
0.0
 10
796.1808358580372
 20
1930.213071906057
 30
0.0
  0
SPLINE
  5
B7
330
87
100
AcDbEntity
  8
P-SANR-FIXT
100
AcDbSpline
210
0.0
220
0.0
230
1.0
 70
     8
 71
     3
 72
    10
 73
     6
 74
     0
 42
0.000000001
 43
0.0000000001
 40
0.0
 40
0.0
 40
0.0
 40
0.0
 40
0.4
 40
0.7
 40
1.0
 40
1.0
 40
1.0
 40
1.0
 10
803.1090390883131
 20
1917.009574740607
 30
0.0
 10
803.5574379097392
 20
1917.192575460546
 30
0.0
 10
804.6398231708336
 20
1917.390211325462
 30
0.0
 10
806.7101305272874
 20
1917.341467997461
 30
0.0
 10
808.0669938807998
 20
1917.146620209495
 30
0.0
 10
808.7382042129117
 20
1917.009574740607
 30
0.0
  0
SPLINE
  5
B8
330
87
100
AcDbEntity
  8
P-SANR-FIXT
100
AcDbSpline
210
0.0
220
0.0
230
1.0
 70
     8
 71
     3
 72
    10
 73
     6
 74
     0
 42
0.000000001
 43
0.0000000001
 40
0.0
 40
0.0
 40
0.0
 40
0.0
 40
0.4
 40
0.7
 40
1.0
 40
1.0
 40
1.0
 40
1.0
 10
808.7382042129117
 20
1930.213071906056
 30
0.0
 10
807.8432571034291
 20
1930.030344614207
 30
0.0
 10
806.2522783894175
 20
1929.832553480324
 30
0.0
 10
804.3064292405807
 20
1929.880954867258
 30
0.0
 10
803.4453382043825
 20
1930.075821366103
 30
0.0
 10
803.1090390883131
 20
1930.213071906057
 30
0.0
  0
SPLINE
  5
B9
330
87
100
AcDbEntity
  8
P-SANR-FIXT
100
AcDbSpline
210
0.0
220
0.0
230
1.0
 70
     8
 71
     3
 72
     9
 73
     5
 74
     0
 42
0.000000001
 43
0.0000000001
 40
0.0
 40
0.0
 40
0.0
 40
0.0
 40
0.5
 40
1.0
 40
1.0
 40
1.0
 40
1.0
 10
808.7382042129117
 20
1917.009574740607
 30
0.0
 10
811.0844571713224
 20
1916.526654464813
 30
0.0
 10
815.7401112064919
 20
1916.043734189019
 30
0.0
 10
820.3220614783568
 20
1916.526654464813
 30
0.0
 10
822.5946106734632
 20
1917.009574740607
 30
0.0
  0
SPLINE
  5
BA
330
87
100
AcDbEntity
  8
P-SANR-FIXT
100
AcDbSpline
210
0.0
220
0.0
230
1.0
 70
     8
 71
     3
 72
     9
 73
     5
 74
     0
 42
0.000000001
 43
0.0000000001
 40
0.0
 40
0.0
 40
0.0
 40
0.0
 40
0.5
 40
1.0
 40
1.0
 40
1.0
 40
1.0
 10
822.5946106734632
 20
1930.213071906057
 30
0.0
 10
821.451811134613
 20
1930.450261148788
 30
0.0
 10
819.1543110573837
 20
1930.808188407176
 30
0.0
 10
816.8330089810961
 20
1930.933213211416
 30
0.0
 10
815.6664074431876
 20
1930.937499999999
 30
0.0
  0
SPLINE
  5
BB
330
87
100
AcDbEntity
  8
P-SANR-FIXT
100
AcDbSpline
210
0.0
220
0.0
230
1.0
 70
     8
 71
     3
 72
     9
 73
     5
 74
     0
 42
0.000000001
 43
0.0000000001
 40
0.0
 40
0.0
 40
0.0
 40
0.0
 40
0.5
 40
1.0
 40
1.0
 40
1.0
 40
1.0
 10
815.6664074431876
 20
1930.937499999999
 30
0.0
 10
814.4998059052793
 20
1930.933213211416
 30
0.0
 10
812.1785038289916
 20
1930.808188407176
 30
0.0
 10
809.8810037517619
 20
1930.450261148788
 30
0.0
 10
808.7382042129117
 20
1930.213071906056
 30
0.0
  0
SPLINE
  5
BC
330
87
100
AcDbEntity
  8
P-SANR-FIXT
100
AcDbSpline
210
0.0
220
0.0
230
1.0
 70
     8
 71
     3
 72
    10
 73
     6
 74
     0
 42
0.000000001
 43
0.0000000001
 40
0.0
 40
0.0
 40
0.0
 40
0.0
 40
0.4
 40
0.7
 40
1.0
 40
1.0
 40
1.0
 40
1.0
 10
822.5946106734632
 20
1917.009574740607
 30
0.0
 10
823.4914083163157
 20
1917.192575460546
 30
0.0
 10
825.0818882887667
 20
1917.390211325462
 30
0.0
 10
827.0280350298516
 20
1917.341467997461
 30
0.0
 10
827.888170632006
 20
1917.146620209495
 30
0.0
 10
828.2237757980622
 20
1917.009574740607
 30
0.0
  0
SPLINE
  5
BD
330
87
100
AcDbEntity
  8
P-SANR-FIXT
100
AcDbSpline
210
0.0
220
0.0
230
1.0
 70
     8
 71
     3
 72
    10
 73
     6
 74
     0
 42
0.000000001
 43
0.0000000001
 40
0.0
 40
0.0
 40
0.0
 40
0.0
 40
0.4
 40
0.7
 40
1.0
 40
1.0
 40
1.0
 40
1.0
 10
828.2237757980622
 20
1930.213071906057
 30
0.0
 10
827.7763022433207
 20
1930.030344614207
 30
0.0
 10
826.694183727046
 20
1929.832553480324
 30
0.0
 10
824.6247262546042
 20
1929.880954867259
 30
0.0
 10
823.2672089056025
 20
1930.075821366103
 30
0.0
 10
822.5946106734632
 20
1930.213071906057
 30
0.0
  0
SPLINE
  5
BE
330
87
100
AcDbEntity
  8
P-SANR-FIXT
100
AcDbSpline
210
0.0
220
0.0
230
1.0
 70
     8
 71
     3
 72
     9
 73
     5
 74
     0
 42
0.000000001
 43
0.0000000001
 40
0.0
 40
0.0
 40
0.0
 40
0.0
 40
0.5
 40
1.0
 40
1.0
 40
1.0
 40
1.0
 10
828.2237757980622
 20
1917.009574740607
 30
0.0
 10
829.3969022772676
 20
1916.526654464813
 30
0.0
 10
831.7247292948522
 20
1916.043734189018
 30
0.0
 10
834.0157044307847
 20
1916.526654464813
 30
0.0
 10
835.1519790283379
 20
1917.009574740606
 30
0.0
  0
SPLINE
  5
BF
330
87
100
AcDbEntity
  8
P-SANR-FIXT
100
AcDbSpline
210
0.0
220
0.0
230
1.0
 70
     8
 71
     3
 72
     9
 73
     5
 74
     0
 42
0.000000001
 43
0.0000000001
 40
0.0
 40
0.0
 40
0.0
 40
0.0
 40
0.5
 40
1.0
 40
1.0
 40
1.0
 40
1.0
 10
835.1519790283379
 20
1930.213071906057
 30
0.0
 10
834.5805792589128
 20
1930.450261148788
 30
0.0
 10
833.4318292202983
 20
1930.808188407177
 30
0.0
 10
832.2711781821544
 20
1930.933213211416
 30
0.0
 10
831.6878774132003
 20
1930.937499999999
 30
0.0
  0
SPLINE
  5
C0
330
87
100
AcDbEntity
  8
P-SANR-FIXT
100
AcDbSpline
210
0.0
220
0.0
230
1.0
 70
     8
 71
     3
 72
     9
 73
     5
 74
     0
 42
0.000000001
 43
0.0000000001
 40
0.0
 40
0.0
 40
0.0
 40
0.0
 40
0.5
 40
1.0
 40
1.0
 40
1.0
 40
1.0
 10
831.6878774132003
 20
1930.937499999999
 30
0.0
 10
831.1045766442463
 20
1930.933213211416
 30
0.0
 10
829.9439256061022
 20
1930.808188407177
 30
0.0
 10
828.7951755674873
 20
1930.450261148788
 30
0.0
 10
828.2237757980622
 20
1930.213071906057
 30
0.0
  0
SPLINE
  5
C1
330
87
100
AcDbEntity
  8
P-SANR-FIXT
100
AcDbSpline
210
0.0
220
0.0
230
1.0
 70
     8
 71
     3
 72
     9
 73
     5
 74
     0
 42
0.000000001
 43
0.0000000001
 40
0.0
 40
0.0
 40
0.0
 40
0.0
 40
0.5
 40
1.0
 40
1.0
 40
1.0
 40
1.0
 10
835.1519790283379
 20
1917.009574740606
 30
0.0
 10
835.4324028500681
 20
1917.124358691725
 30
0.0
 10
835.8700843610799
 20
1917.297037422141
 30
0.0
 10
836.0228139037394
 20
1917.355937808913
 30
0.0
 10
836.0228139037392
 20
1917.356943416389
 30
0.0
  0
SPLINE
  5
C2
330
87
100
AcDbEntity
  8
P-SANR-FIXT
100
AcDbSpline
210
0.0
220
0.0
230
1.0
 70
     8
 71
     3
 72
     9
 73
     5
 74
     0
 42
0.000000001
 43
0.0000000001
 40
0.0
 40
0.0
 40
0.0
 40
0.0
 40
0.5
 40
1.0
 40
1.0
 40
1.0
 40
1.0
 10
836.0228139037392
 20
1929.865703230275
 30
0.0
 10
836.0228139037394
 20
1929.86670883775
 30
0.0
 10
835.8700843610799
 20
1929.925609224523
 30
0.0
 10
835.4324028500681
 20
1930.098287954938
 30
0.0
 10
835.1519790283379
 20
1930.213071906057
 30
0.0
  0
LINE
  5
C3
330
87
100
AcDbEntity
  8
P-SANR-FIXT
100
AcDbLine
 10
762.1664074431936
 20
1984.387500000011
 30
0.0
 11
750.4664074431936
 21
1984.387500000011
 31
0.0
  0
LINE
  5
C4
330
87
100
AcDbEntity
  8
P-SANR-FIXT
100
AcDbLine
 10
750.4664074431936
 20
1957.487499999985
 30
0.0
 11
762.1664074431936
 21
1957.487499999985
 31
0.0
  0
LINE
  5
C5
330
87
100
AcDbEntity
  8
P-SANR-FIXT
100
AcDbLine
 10
750.4664074431936
 20
1984.387500000011
 30
0.0
 11
749.1664074431934
 21
1983.087500000011
 31
0.0
  0
LINE
  5
C6
330
87
100
AcDbEntity
  8
P-SANR-FIXT
100
AcDbLine
 10
749.1664074431934
 20
1958.787499999985
 30
0.0
 11
750.4664074431936
 21
1957.487499999986
 31
0.0
  0
LINE
  5
C7
330
87
100
AcDbEntity
  8
P-SANR-FIXT
100
AcDbLine
 10
882.1664074431851
 20
1983.087500000009
 30
0.0
 11
880.9311728694407
 21
1984.322734573753
 31
0.0
  0
LINE
  5
C8
330
87
100
AcDbEntity
  8
P-SANR-FIXT
100
AcDbLine
 10
880.9150994990259
 20
1984.338807944168
 30
0.0
 11
880.8664074431851
 21
1984.387500000009
 31
0.0
  0
LINE
  5
C9
330
87
100
AcDbEntity
  8
P-SANR-FIXT
100
AcDbLine
 10
880.8664074431851
 20
1957.487499999987
 30
0.0
 11
880.9150994990259
 21
1957.536192055828
 31
0.0
  0
LINE
  5
CA
330
87
100
AcDbEntity
  8
P-SANR-FIXT
100
AcDbLine
 10
880.9311728694408
 20
1957.552265426243
 30
0.0
 11
882.1664074431851
 21
1958.787499999987
 31
0.0
  0
LINE
  5
CB
330
87
100
AcDbEntity
  8
P-SANR-FIXT
100
AcDbLine
 10
880.8664074431851
 20
1984.387500000012
 30
0.0
 11
869.1664074431852
 21
1984.387500000012
 31
0.0
  0
LINE
  5
CC
330
87
100
AcDbEntity
  8
P-SANR-FIXT
100
AcDbLine
 10
869.1664074431852
 20
1957.487499999984
 30
0.0
 11
880.8664074431851
 21
1957.487499999984
 31
0.0
  0
LINE
  5
CD
330
87
100
AcDbEntity
  8
P-SANR-FIXT
100
AcDbLine
 10
762.1664074431918
 20
1972.607372981121
 30
0.0
 11
773.5127405322712
 21
1972.607372981121
 31
0.0
  0
LINE
  5
CE
330
87
100
AcDbEntity
  8
P-SANR-FIXT
100
AcDbLine
 10
762.1664074431918
 20
1969.267627018891
 30
0.0
 11
773.5127405322712
 21
1969.267627018891
 31
0.0
  0
LINE
  5
CF
330
87
100
AcDbEntity
  8
P-SANR-FIXT
100
AcDbLine
 10
762.1664074431918
 20
1960.607372981118
 30
0.0
 11
773.5127405322712
 21
1960.607372981118
 31
0.0
  0
LINE
  5
D0
330
87
100
AcDbEntity
  8
P-SANR-FIXT
100
AcDbLine
 10
762.1664074431918
 20
1958.937500000003
 30
0.0
 11
773.5127405322712
 21
1958.937500000003
 31
0.0
  0
LINE
  5
D1
330
87
100
AcDbEntity
  8
P-SANR-FIXT
100
AcDbLine
 10
762.1664074431918
 20
1982.93750000001
 30
0.0
 11
773.5127405322712
 21
1982.93750000001
 31
0.0
  0
LINE
  5
D2
330
87
100
AcDbEntity
  8
P-SANR-FIXT
100
AcDbLine
 10
773.5127405322712
 20
1981.267627018894
 30
0.0
 11
762.1664074431918
 21
1981.267627018894
 31
0.0
  0
LINE
  5
D3
330
87
100
AcDbEntity
  8
P-SANR-FIXT
100
AcDbLine
 10
749.1664074431919
 20
1958.787499999985
 30
0.0
 11
749.1664074431919
 21
1983.08750000001
 31
0.0
  0
LINE
  5
D4
330
87
100
AcDbEntity
  8
P-SANR-FIXT
100
AcDbLine
 10
762.166407443192
 20
1984.38750000001
 30
0.0
 11
762.166407443192
 21
1957.487499999984
 31
0.0
  0
LINE
  5
D5
330
87
100
AcDbEntity
  8
P-SANR-FIXT
100
AcDbLine
 10
750.4664074431921
 20
1984.38750000001
 30
0.0
 11
750.4664074431921
 21
1957.487499999985
 31
0.0
  0
LINE
  5
D6
330
87
100
AcDbEntity
  8
P-SANR-FIXT
100
AcDbLine
 10
882.1664074431835
 20
1958.787499999986
 30
0.0
 11
882.1664074431835
 21
1983.087500000008
 31
0.0
  0
LINE
  5
D7
330
87
100
AcDbEntity
  8
P-SANR-FIXT
100
AcDbLine
 10
880.8664074431835
 20
1984.387500000012
 30
0.0
 11
880.8664074431835
 21
1957.487499999983
 31
0.0
  0
LINE
  5
D8
330
87
100
AcDbEntity
  8
P-SANR-FIXT
100
AcDbLine
 10
869.1664074431836
 20
1984.387500000012
 30
0.0
 11
869.1664074431836
 21
1957.487499999983
 31
0.0
  0
LINE
  5
D9
330
87
100
AcDbEntity
  8
P-SANR-FIXT
100
AcDbLine
 10
869.1664074431837
 20
1981.267627018894
 30
0.0
 11
857.8200743541044
 21
1981.267627018894
 31
0.0
  0
LINE
  5
DA
330
87
100
AcDbEntity
  8
P-SANR-FIXT
100
AcDbLine
 10
857.8200743541044
 20
1972.607372981121
 30
0.0
 11
869.1664074431837
 21
1972.607372981121
 31
0.0
  0
LINE
  5
DB
330
87
100
AcDbEntity
  8
P-SANR-FIXT
100
AcDbLine
 10
857.8200743541044
 20
1969.267627018891
 30
0.0
 11
869.1664074431837
 21
1969.267627018891
 31
0.0
  0
LINE
  5
DC
330
87
100
AcDbEntity
  8
P-SANR-FIXT
100
AcDbLine
 10
857.8200743541044
 20
1960.607372981118
 30
0.0
 11
869.1664074431837
 21
1960.607372981118
 31
0.0
  0
LINE
  5
DD
330
87
100
AcDbEntity
  8
P-SANR-FIXT
100
AcDbLine
 10
857.8200743541044
 20
1958.937500000003
 30
0.0
 11
869.1664074431837
 21
1958.937500000003
 31
0.0
  0
LINE
  5
DE
330
87
100
AcDbEntity
  8
P-SANR-FIXT
100
AcDbLine
 10
857.8200743541044
 20
1982.93750000001
 30
0.0
 11
869.1664074431837
 21
1982.93750000001
 31
0.0
  0
LINE
  5
DF
330
87
100
AcDbEntity
  8
P-SANR-FIXT
100
AcDbLine
 10
829.1164074432021
 20
1890.737500000059
 30
0.0
 11
829.1164074432021
 21
1902.437500000059
 31
0.0
  0
LINE
  5
E0
330
87
100
AcDbEntity
  8
P-SANR-FIXT
100
AcDbLine
 10
802.2164074431769
 20
1902.437500000059
 30
0.0
 11
802.2164074431769
 21
1890.737500000059
 31
0.0
  0
LINE
  5
E1
330
87
100
AcDbEntity
  8
P-SANR-FIXT
100
AcDbLine
 10
827.8164074432018
 20
1889.43750000006
 30
0.0
 11
829.0516420169428
 21
1890.6727345738
 31
0.0
  0
LINE
  5
E2
330
87
100
AcDbEntity
  8
P-SANR-FIXT
100
AcDbLine
 10
829.0677153873577
 20
1890.688807944215
 30
0.0
 11
829.1164074432019
 21
1890.737500000059
 31
0.0
  0
LINE
  5
E3
330
87
100
AcDbEntity
  8
P-SANR-FIXT
100
AcDbLine
 10
802.2164074431769
 20
1890.737500000059
 30
0.0
 11
802.2650994990213
 21
1890.688807944215
 31
0.0
  0
LINE
  5
E4
330
87
100
AcDbEntity
  8
P-SANR-FIXT
100
AcDbLine
 10
802.281172869436
 20
1890.6727345738
 30
0.0
 11
803.516407443177
 21
1889.43750000006
 31
0.0
  0
LINE
  5
E5
330
87
100
AcDbEntity
  8
P-SANR-FIXT
100
AcDbLine
 10
828.666407443182
 20
1914.437500000079
 30
0.0
 11
828.666407443182
 21
1914.9375
 31
0.0
  0
LINE
  5
E6
330
87
100
AcDbEntity
  8
P-SANR-FIXT
100
AcDbLine
 10
802.6664074431968
 20
1914.9375
 30
0.0
 11
802.6664074431968
 21
1914.437500000079
 31
0.0
  0
LINE
  5
E7
330
87
100
AcDbEntity
  8
P-SANR-FIXT
100
AcDbLine
 10
827.6664074431915
 20
1914.437500000079
 30
0.0
 11
827.6664074431915
 21
1902.437500000059
 31
0.0
  0
LINE
  5
E8
330
87
100
AcDbEntity
  8
P-SANR-FIXT
100
AcDbLine
 10
817.3362804243035
 20
1914.437500000079
 30
0.0
 11
817.3362804243035
 21
1902.437500000059
 31
0.0
  0
LINE
  5
E9
330
87
100
AcDbEntity
  8
P-SANR-FIXT
100
AcDbLine
 10
813.9965344620723
 20
1914.437500000079
 30
0.0
 11
813.9965344620723
 21
1902.437500000059
 31
0.0
  0
LINE
  5
EA
330
87
100
AcDbEntity
  8
P-SANR-FIXT
100
AcDbLine
 10
805.3362804242999
 20
1914.437500000079
 30
0.0
 11
805.3362804242999
 21
1902.437500000059
 31
0.0
  0
LINE
  5
EB
330
87
100
AcDbEntity
  8
P-SANR-FIXT
100
AcDbLine
 10
803.6664074431843
 20
1902.437500000059
 30
0.0
 11
803.6664074431843
 21
1914.437500000079
 31
0.0
  0
LINE
  5
EC
330
87
100
AcDbEntity
  8
P-SANR-FIXT
100
AcDbLine
 10
825.9965344620757
 20
1902.437500000059
 30
0.0
 11
825.9965344620757
 21
1914.437500000079
 31
0.0
  0
LINE
  5
ED
330
87
100
AcDbEntity
  8
P-SANR-FIXT
100
AcDbLine
 10
802.2164074431753
 20
1902.437500000059
 30
0.0
 11
829.1164074432005
 21
1902.437500000059
 31
0.0
  0
LINE
  5
EE
330
87
100
AcDbEntity
  8
P-SANR-FIXT
100
AcDbLine
 10
802.2164074431753
 20
1890.737500000058
 30
0.0
 11
829.1164074432002
 21
1890.737500000058
 31
0.0
  0
LINE
  5
EF
330
87
100
AcDbEntity
  8
P-SANR-FIXT
100
AcDbLine
 10
827.8164074432003
 20
1889.437500000059
 30
0.0
 11
803.5164074431753
 21
1889.437500000059
 31
0.0
  0
LINE
  5
F0
330
87
100
AcDbEntity
  8
P-SANR-FIXT
100
AcDbLine
 10
803.6664074432001
 20
1914.437500000079
 30
0.0
 11
802.6664074431952
 21
1914.437500000079
 31
0.0
  0
LINE
  5
F1
330
87
100
AcDbEntity
  8
P-SANR-FIXT
100
AcDbLine
 10
813.996534462079
 20
1914.437500000079
 30
0.0
 11
805.3362804243239
 21
1914.437500000079
 31
0.0
  0
LINE
  5
F2
330
87
100
AcDbEntity
  8
P-SANR-FIXT
100
AcDbLine
 10
825.9965344620518
 20
1914.437500000079
 30
0.0
 11
817.3362804242966
 21
1914.437500000079
 31
0.0
  0
LINE
  5
F3
330
87
100
AcDbEntity
  8
P-SANR-FIXT
100
AcDbLine
 10
828.6664074431806
 20
1914.437500000079
 30
0.0
 11
827.6664074431755
 21
1914.437500000079
 31
0.0
  0
LINE
  5
F4
330
87
100
AcDbEntity
  8
P-SANR-FIXT
100
AcDbLine
 10
775.9321839486461
 20
1950.581093539465
 30
0.0
 11
788.4322665734718
 21
1950.581093539465
 31
0.0
  0
LINE
  5
F5
330
87
100
AcDbEntity
  8
P-SANR-FIXT
100
AcDbLine
 10
788.4322665734615
 20
1991.293906460549
 30
0.0
 11
775.9321839486564
 21
1991.293906460549
 31
0.0
  0
LINE
  5
F6
330
87
100
AcDbEntity
  8
P-SANR-FIXT
100
AcDbLine
 10
773.5127405322726
 20
1954.771692462662
 30
0.0
 11
775.8028762321742
 21
1950.805061074206
 31
0.0
  0
LINE
  5
F7
330
87
100
AcDbEntity
  8
P-SANR-FIXT
100
AcDbLine
 10
775.831250217998
 20
1950.755915889145
 30
0.0
 11
775.9321839486461
 21
1950.581093539465
 31
0.0
  0
LINE
  5
F8
330
87
100
AcDbEntity
  8
P-SANR-FIXT
100
AcDbLine
 10
775.9321839486564
 20
1991.293906460549
 30
0.0
 11
775.8312502180082
 21
1991.119084110868
 31
0.0
  0
LINE
  5
F9
330
87
100
AcDbEntity
  8
P-SANR-FIXT
100
AcDbLine
 10
775.8028762321845
 20
1991.069938925809
 30
0.0
 11
773.5127405322726
 21
1987.103307537334
 31
0.0
  0
LINE
  5
FA
330
87
100
AcDbEntity
  8
P-SANR-FIXT
100
AcDbLine
 10
789.5127405322727
 20
1989.422470667632
 30
0.0
 11
788.5615742899334
 21
1991.069938925809
 31
0.0
  0
LINE
  5
FB
330
87
100
AcDbEntity
  8
P-SANR-FIXT
100
AcDbLine
 10
788.5332242593184
 20
1991.11904261923
 30
0.0
 11
788.4322665734615
 21
1991.293906460549
 31
0.0
  0
LINE
  5
FC
330
87
100
AcDbEntity
  8
P-SANR-FIXT
100
AcDbLine
 10
788.4322665734718
 20
1950.581093539465
 30
0.0
 11
788.5332242593286
 21
1950.755957380784
 31
0.0
  0
LINE
  5
FD
330
87
100
AcDbEntity
  8
P-SANR-FIXT
100
AcDbLine
 10
788.5615742899436
 20
1950.805061074206
 30
0.0
 11
789.5127405322727
 21
1952.452529332364
 31
0.0
  0
LINE
  5
FE
330
87
100
AcDbEntity
  8
P-SANR-FIXT
100
AcDbLine
 10
773.512740532271
 20
1954.771692462661
 30
0.0
 11
773.512740532271
 21
1987.103307537333
 31
0.0
  0
LINE
  5
FF
330
87
100
AcDbEntity
  8
P-SANR-FIXT
100
AcDbLine
 10
789.5127405322711
 20
1989.422470667631
 30
0.0
 11
789.5127405322711
 21
1952.452529332363
 31
0.0
  0
SPLINE
  5
100
330
87
100
AcDbEntity
  8
P-SANR-FIXT
100
AcDbSpline
210
0.0
220
0.0
230
1.0
 70
     8
 71
     3
 72
    10
 73
     6
 74
     0
 42
0.000000001
 43
0.0000000001
 40
0.0
 40
0.0
 40
0.0
 40
0.0
 40
0.4
 40
0.7
 40
1.0
 40
1.0
 40
1.0
 40
1.0
 10
788.7796352492138
 20
1977.865703230277
 30
0.0
 10
788.5966345292756
 20
1978.762500873129
 30
0.0
 10
788.3989986643598
 20
1980.35298084558
 30
0.0
 10
788.4477419923621
 20
1982.299127586665
 30
0.0
 10
788.6425897803299
 20
1983.15926318882
 30
0.0
 10
788.7796352492178
 20
1983.494868354876
 30
0.0
  0
SPLINE
  5
101
330
87
100
AcDbEntity
  8
P-SANR-FIXT
100
AcDbSpline
210
0.0
220
0.0
230
1.0
 70
     8
 71
     3
 72
    10
 73
     6
 74
     0
 42
0.000000001
 43
0.0000000001
 40
0.0
 40
0.0
 40
0.0
 40
0.0
 40
0.4
 40
0.7
 40
1.0
 40
1.0
 40
1.0
 40
1.0
 10
775.5848152728969
 20
1983.494868354876
 30
0.0
 10
775.7675425647476
 20
1983.047394800134
 30
0.0
 10
775.9653336986314
 20
1981.96527628386
 30
0.0
 10
775.9169323116982
 20
1979.895818811418
 30
0.0
 10
775.7220658128545
 20
1978.538301462416
 30
0.0
 10
775.584815272901
 20
1977.865703230277
 30
0.0
  0
SPLINE
  5
102
330
87
100
AcDbEntity
  8
P-SANR-FIXT
100
AcDbSpline
210
0.0
220
0.0
230
1.0
 70
     8
 71
     3
 72
     9
 73
     5
 74
     0
 42
0.000000001
 43
0.0000000001
 40
0.0
 40
0.0
 40
0.0
 40
0.0
 40
0.5
 40
1.0
 40
1.0
 40
1.0
 40
1.0
 10
775.584815272901
 20
1977.865703230277
 30
0.0
 10
775.1018949971079
 20
1975.519450271868
 30
0.0
 10
774.6189747213144
 20
1970.863796236702
 30
0.0
 10
775.1018949971055
 20
1966.28184596484
 30
0.0
 10
775.5848152728974
 20
1964.009296769735
 30
0.0
  0
SPLINE
  5
103
330
87
100
AcDbEntity
  8
P-SANR-FIXT
100
AcDbSpline
210
0.0
220
0.0
230
1.0
 70
     8
 71
     3
 72
     9
 73
     5
 74
     0
 42
0.000000001
 43
0.0000000001
 40
0.0
 40
0.0
 40
0.0
 40
0.0
 40
0.5
 40
1.0
 40
1.0
 40
1.0
 40
1.0
 10
788.7796352492173
 20
1964.009296769735
 30
0.0
 10
789.2625555250091
 20
1966.28184596484
 30
0.0
 10
789.7454758008002
 20
1970.863796236702
 30
0.0
 10
789.2625555250067
 20
1975.519450271868
 30
0.0
 10
788.7796352492138
 20
1977.865703230277
 30
0.0
  0
SPLINE
  5
104
330
87
100
AcDbEntity
  8
P-SANR-FIXT
100
AcDbSpline
210
0.0
220
0.0
230
1.0
 70
     8
 71
     3
 72
    10
 73
     6
 74
     0
 42
0.000000001
 43
0.0000000001
 40
0.0
 40
0.0
 40
0.0
 40
0.0
 40
0.4
 40
0.7
 40
1.0
 40
1.0
 40
1.0
 40
1.0
 10
775.5848152728974
 20
1964.009296769735
 30
0.0
 10
775.7678159928351
 20
1963.112499126882
 30
0.0
 10
775.96545185775
 20
1961.522019154432
 30
0.0
 10
775.9167085297467
 20
1959.575872413347
 30
0.0
 10
775.7218607417786
 20
1958.715736811192
 30
0.0
 10
775.5848152728904
 20
1958.380131645137
 30
0.0
  0
SPLINE
  5
105
330
87
100
AcDbEntity
  8
P-SANR-FIXT
100
AcDbSpline
210
0.0
220
0.0
230
1.0
 70
     8
 71
     3
 72
    10
 73
     6
 74
     0
 42
0.000000001
 43
0.0000000001
 40
0.0
 40
0.0
 40
0.0
 40
0.0
 40
0.4
 40
0.7
 40
1.0
 40
1.0
 40
1.0
 40
1.0
 10
788.7796352492243
 20
1958.380131645137
 30
0.0
 10
788.5969079573734
 20
1958.827605199878
 30
0.0
 10
788.3991168234888
 20
1959.909723716152
 30
0.0
 10
788.447518210421
 20
1961.979181188594
 30
0.0
 10
788.642384709264
 20
1963.336698537596
 30
0.0
 10
788.7796352492173
 20
1964.009296769735
 30
0.0
  0
SPLINE
  5
106
330
87
100
AcDbEntity
  8
P-SANR-FIXT
100
AcDbSpline
210
0.0
220
0.0
230
1.0
 70
     8
 71
     3
 72
     9
 73
     5
 74
     0
 42
0.000000001
 43
0.0000000001
 40
0.0
 40
0.0
 40
0.0
 40
0.0
 40
0.5
 40
1.0
 40
1.0
 40
1.0
 40
1.0
 10
775.5848152728904
 20
1958.380131645137
 30
0.0
 10
775.1018949970934
 20
1957.207005165932
 30
0.0
 10
774.6189747212924
 20
1954.879178148349
 30
0.0
 10
775.1018949970784
 20
1952.588203012418
 30
0.0
 10
775.584815272868
 20
1951.451928414866
 30
0.0
  0
SPLINE
  5
107
330
87
100
AcDbEntity
  8
P-SANR-FIXT
100
AcDbSpline
210
0.0
220
0.0
230
1.0
 70
     8
 71
     3
 72
     9
 73
     5
 74
     0
 42
0.000000001
 43
0.0000000001
 40
0.0
 40
0.0
 40
0.0
 40
0.0
 40
0.5
 40
1.0
 40
1.0
 40
1.0
 40
1.0
 10
788.7796352492467
 20
1951.451928414866
 30
0.0
 10
789.2625555250361
 20
1952.588203012418
 30
0.0
 10
789.7454758008222
 20
1954.879178148349
 30
0.0
 10
789.2625555250213
 20
1957.207005165932
 30
0.0
 10
788.7796352492243
 20
1958.380131645137
 30
0.0
  0
SPLINE
  5
108
330
87
100
AcDbEntity
  8
P-SANR-FIXT
100
AcDbSpline
210
0.0
220
0.0
230
1.0
 70
     8
 71
     3
 72
     9
 73
     5
 74
     0
 42
0.000000001
 43
0.0000000001
 40
0.0
 40
0.0
 40
0.0
 40
0.0
 40
0.5
 40
1.0
 40
1.0
 40
1.0
 40
1.0
 10
775.584815272868
 20
1951.451928414866
 30
0.0
 10
775.6995992239875
 20
1951.171504593131
 30
0.0
 10
775.8722779544032
 20
1950.733823082114
 30
0.0
 10
775.9311783411718
 20
1950.581093539459
 30
0.0
 10
775.9321839486444
 20
1950.581093539465
 30
0.0
  0
SPLINE
  5
109
330
87
100
AcDbEntity
  8
P-SANR-FIXT
100
AcDbSpline
210
0.0
220
0.0
230
1.0
 70
     8
 71
     3
 72
     9
 73
     5
 74
     0
 42
0.000000001
 43
0.0000000001
 40
0.0
 40
0.0
 40
0.0
 40
0.0
 40
0.5
 40
1.0
 40
1.0
 40
1.0
 40
1.0
 10
788.4322665734702
 20
1950.581093539465
 30
0.0
 10
788.4332721809428
 20
1950.581093539459
 30
0.0
 10
788.4921725677115
 20
1950.733823082114
 30
0.0
 10
788.664851298127
 20
1951.171504593131
 30
0.0
 10
788.7796352492467
 20
1951.451928414866
 30
0.0
  0
SPLINE
  5
10A
330
87
100
AcDbEntity
  8
P-SANR-FIXT
100
AcDbSpline
210
0.0
220
0.0
230
1.0
 70
     8
 71
     3
 72
     8
 73
     4
 74
     0
 42
0.000000001
 43
0.0000000001
 40
0.5041356436723144
 40
0.5041356436723144
 40
0.5041356436723144
 40
0.5041356436723144
 40
0.5082712873432519
 40
0.5082712873432519
 40
0.5082712873432519
 40
0.5082712873432519
 10
789.5039661050691
 20
1970.935468880997
 30
0.0
 10
789.5039330664675
 20
1970.916364639912
 30
0.0
 10
789.5038507455145
 20
1970.897256638066
 30
0.0
 10
789.5037199619682
 20
1970.878144938017
 30
0.0
  0
SPLINE
  5
10B
330
87
100
AcDbEntity
  8
P-SANR-FIXT
100
AcDbSpline
210
0.0
220
0.0
230
1.0
 70
     8
 71
     3
 72
     9
 73
     5
 74
     0
 42
0.000000001
 43
0.0000000001
 40
0.0
 40
0.0
 40
0.0
 40
0.0
 40
0.5
 40
1.0
 40
1.0
 40
1.0
 40
1.0
 10
775.9321839486548
 20
1991.293906460548
 30
0.0
 10
775.9311783411821
 20
1991.293906460553
 30
0.0
 10
775.8722779544134
 20
1991.141176917899
 30
0.0
 10
775.6995992239978
 20
1990.703495406881
 30
0.0
 10
775.5848152728782
 20
1990.423071585146
 30
0.0
  0
SPLINE
  5
10C
330
87
100
AcDbEntity
  8
P-SANR-FIXT
100
AcDbSpline
210
0.0
220
0.0
230
1.0
 70
     8
 71
     3
 72
     9
 73
     5
 74
     0
 42
0.000000001
 43
0.0000000001
 40
0.0
 40
0.0
 40
0.0
 40
0.0
 40
0.5
 40
1.0
 40
1.0
 40
1.0
 40
1.0
 10
788.7796352492365
 20
1990.423071585146
 30
0.0
 10
788.6648512981168
 20
1990.703495406881
 30
0.0
 10
788.4921725677012
 20
1991.141176917899
 30
0.0
 10
788.4332721809325
 20
1991.293906460553
 30
0.0
 10
788.4322665734599
 20
1991.293906460548
 30
0.0
  0
SPLINE
  5
10D
330
87
100
AcDbEntity
  8
P-SANR-FIXT
100
AcDbSpline
210
0.0
220
0.0
230
1.0
 70
     8
 71
     3
 72
     9
 73
     5
 74
     0
 42
0.000000001
 43
0.0000000001
 40
0.0
 40
0.0
 40
0.0
 40
0.0
 40
0.5
 40
1.0
 40
1.0
 40
1.0
 40
1.0
 10
775.5848152728782
 20
1990.423071585146
 30
0.0
 10
775.1018949970885
 20
1989.249945105942
 30
0.0
 10
774.6189747213019
 20
1986.922118088359
 30
0.0
 10
775.1018949971008
 20
1984.631142952428
 30
0.0
 10
775.5848152728969
 20
1983.494868354876
 30
0.0
  0
SPLINE
  5
10E
330
87
100
AcDbEntity
  8
P-SANR-FIXT
100
AcDbSpline
210
0.0
220
0.0
230
1.0
 70
     8
 71
     3
 72
     9
 73
     5
 74
     0
 42
0.000000001
 43
0.0000000001
 40
0.0
 40
0.0
 40
0.0
 40
0.0
 40
0.5
 40
1.0
 40
1.0
 40
1.0
 40
1.0
 10
788.7796352492178
 20
1983.494868354876
 30
0.0
 10
789.2625555250138
 20
1984.631142952428
 30
0.0
 10
789.7454758008128
 20
1986.922118088359
 30
0.0
 10
789.2625555250262
 20
1989.249945105942
 30
0.0
 10
788.7796352492365
 20
1990.423071585146
 30
0.0
  0
LINE
  5
10F
330
87
100
AcDbEntity
  8
P-SANR-FIXT
100
AcDbLine
 10
842.9005483129071
 20
1950.581093539465
 30
0.0
 11
855.4006309377326
 21
1950.581093539465
 31
0.0
  0
LINE
  5
110
330
87
100
AcDbEntity
  8
P-SANR-FIXT
100
AcDbLine
 10
855.4006309377225
 20
1991.293906460549
 30
0.0
 11
842.9005483129174
 21
1991.293906460549
 31
0.0
  0
LINE
  5
111
330
87
100
AcDbEntity
  8
P-SANR-FIXT
100
AcDbLine
 10
857.8200743541062
 20
1987.103307537334
 30
0.0
 11
855.5299386541943
 21
1991.069938925809
 31
0.0
  0
LINE
  5
112
330
87
100
AcDbEntity
  8
P-SANR-FIXT
100
AcDbLine
 10
855.5015646683706
 20
1991.119084110868
 30
0.0
 11
855.4006309377225
 21
1991.293906460549
 31
0.0
  0
LINE
  5
113
330
87
100
AcDbEntity
  8
P-SANR-FIXT
100
AcDbLine
 10
855.4006309377326
 20
1950.581093539465
 30
0.0
 11
855.5015646683809
 21
1950.755915889145
 31
0.0
  0
LINE
  5
114
330
87
100
AcDbEntity
  8
P-SANR-FIXT
100
AcDbLine
 10
855.5299386542046
 20
1950.805061074206
 30
0.0
 11
857.8200743541062
 21
1954.771692462662
 31
0.0
  0
LINE
  5
115
330
87
100
AcDbEntity
  8
P-SANR-FIXT
100
AcDbLine
 10
841.820074354106
 20
1952.452529332364
 30
0.0
 11
842.7712405964351
 21
1950.805061074206
 31
0.0
  0
LINE
  5
116
330
87
100
AcDbEntity
  8
P-SANR-FIXT
100
AcDbLine
 10
842.7995906270501
 20
1950.755957380784
 30
0.0
 11
842.9005483129071
 21
1950.581093539465
 31
0.0
  0
LINE
  5
117
330
87
100
AcDbEntity
  8
P-SANR-FIXT
100
AcDbLine
 10
842.9005483129174
 20
1991.293906460549
 30
0.0
 11
842.7995906270604
 21
1991.11904261923
 31
0.0
  0
LINE
  5
118
330
87
100
AcDbEntity
  8
P-SANR-FIXT
100
AcDbLine
 10
842.7712405964454
 20
1991.069938925809
 30
0.0
 11
841.820074354106
 21
1989.422470667632
 31
0.0
  0
LINE
  5
119
330
87
100
AcDbEntity
  8
P-SANR-FIXT
100
AcDbLine
 10
857.8200743541046
 20
1987.103307537333
 30
0.0
 11
857.8200743541046
 21
1954.771692462661
 31
0.0
  0
LINE
  5
11A
330
87
100
AcDbEntity
  8
P-SANR-FIXT
100
AcDbLine
 10
841.8200743541044
 20
1952.452529332363
 30
0.0
 11
841.8200743541044
 21
1989.422470667631
 31
0.0
  0
SPLINE
  5
11B
330
87
100
AcDbEntity
  8
P-SANR-FIXT
100
AcDbSpline
210
0.0
220
0.0
230
1.0
 70
     8
 71
     3
 72
    10
 73
     6
 74
     0
 42
0.000000001
 43
0.0000000001
 40
0.0
 40
0.0
 40
0.0
 40
0.0
 40
0.4
 40
0.7
 40
1.0
 40
1.0
 40
1.0
 40
1.0
 10
842.5531796371577
 20
1983.494868354876
 30
0.0
 10
842.736180357097
 20
1983.04646953345
 30
0.0
 10
842.9338162220144
 20
1981.964084272355
 30
0.0
 10
842.8850728940153
 20
1979.893776915901
 30
0.0
 10
842.6902251060491
 20
1978.536913562389
 30
0.0
 10
842.5531796371618
 20
1977.865703230277
 30
0.0
  0
SPLINE
  5
11C
330
87
100
AcDbEntity
  8
P-SANR-FIXT
100
AcDbSpline
210
0.0
220
0.0
230
1.0
 70
     8
 71
     3
 72
    10
 73
     6
 74
     0
 42
0.000000001
 43
0.0000000001
 40
0.0
 40
0.0
 40
0.0
 40
0.0
 40
0.4
 40
0.7
 40
1.0
 40
1.0
 40
1.0
 40
1.0
 10
855.7479996134746
 20
1977.865703230277
 30
0.0
 10
855.5652723216249
 20
1978.76065033976
 30
0.0
 10
855.3674811877431
 20
1980.351629053771
 30
0.0
 10
855.4158825746791
 20
1982.297478202609
 30
0.0
 10
855.6107490735243
 20
1983.158569238806
 30
0.0
 10
855.7479996134787
 20
1983.494868354876
 30
0.0
  0
SPLINE
  5
11D
330
87
100
AcDbEntity
  8
P-SANR-FIXT
100
AcDbSpline
210
0.0
220
0.0
230
1.0
 70
     8
 71
     3
 72
     9
 73
     5
 74
     0
 42
0.000000001
 43
0.0000000001
 40
0.0
 40
0.0
 40
0.0
 40
0.0
 40
0.5
 40
1.0
 40
1.0
 40
1.0
 40
1.0
 10
842.5531796371618
 20
1977.865703230277
 30
0.0
 10
842.070259361369
 20
1975.519450271868
 30
0.0
 10
841.5873390855754
 20
1970.863796236702
 30
0.0
 10
842.0702593613665
 20
1966.28184596484
 30
0.0
 10
842.5531796371583
 20
1964.009296769735
 30
0.0
  0
SPLINE
  5
11E
330
87
100
AcDbEntity
  8
P-SANR-FIXT
100
AcDbSpline
210
0.0
220
0.0
230
1.0
 70
     8
 71
     3
 72
     9
 73
     5
 74
     0
 42
0.000000001
 43
0.0000000001
 40
0.0
 40
0.0
 40
0.0
 40
0.0
 40
0.5
 40
1.0
 40
1.0
 40
1.0
 40
1.0
 10
855.7479996134782
 20
1964.009296769735
 30
0.0
 10
856.2309198892702
 20
1966.28184596484
 30
0.0
 10
856.7138401650611
 20
1970.863796236702
 30
0.0
 10
856.2309198892675
 20
1975.519450271868
 30
0.0
 10
855.7479996134746
 20
1977.865703230277
 30
0.0
  0
SPLINE
  5
11F
330
87
100
AcDbEntity
  8
P-SANR-FIXT
100
AcDbSpline
210
0.0
220
0.0
230
1.0
 70
     8
 71
     3
 72
    10
 73
     6
 74
     0
 42
0.000000001
 43
0.0000000001
 40
0.0
 40
0.0
 40
0.0
 40
0.0
 40
0.4
 40
0.7
 40
1.0
 40
1.0
 40
1.0
 40
1.0
 10
842.5531796371583
 20
1964.009296769735
 30
0.0
 10
842.736180357096
 20
1963.112499126883
 30
0.0
 10
842.933816222011
 20
1961.522019154432
 30
0.0
 10
842.8850728940078
 20
1959.575872413347
 30
0.0
 10
842.6902251060395
 20
1958.715736811192
 30
0.0
 10
842.5531796371512
 20
1958.380131645137
 30
0.0
  0
SPLINE
  5
120
330
87
100
AcDbEntity
  8
P-SANR-FIXT
100
AcDbSpline
210
0.0
220
0.0
230
1.0
 70
     8
 71
     3
 72
    10
 73
     6
 74
     0
 42
0.000000001
 43
0.0000000001
 40
0.0
 40
0.0
 40
0.0
 40
0.0
 40
0.4
 40
0.7
 40
1.0
 40
1.0
 40
1.0
 40
1.0
 10
855.7479996134853
 20
1958.380131645137
 30
0.0
 10
855.5652723216342
 20
1958.827605199878
 30
0.0
 10
855.3674811877497
 20
1959.909723716152
 30
0.0
 10
855.4158825746819
 20
1961.979181188594
 30
0.0
 10
855.610749073525
 20
1963.336698537596
 30
0.0
 10
855.7479996134782
 20
1964.009296769735
 30
0.0
  0
SPLINE
  5
121
330
87
100
AcDbEntity
  8
P-SANR-FIXT
100
AcDbSpline
210
0.0
220
0.0
230
1.0
 70
     8
 71
     3
 72
     9
 73
     5
 74
     0
 42
0.000000001
 43
0.0000000001
 40
0.0
 40
0.0
 40
0.0
 40
0.0
 40
0.5
 40
1.0
 40
1.0
 40
1.0
 40
1.0
 10
842.5531796371512
 20
1958.380131645137
 30
0.0
 10
842.0702593613542
 20
1957.207005165932
 30
0.0
 10
841.5873390855534
 20
1954.879178148349
 30
0.0
 10
842.0702593613393
 20
1952.588203012418
 30
0.0
 10
842.553179637129
 20
1951.451928414866
 30
0.0
  0
SPLINE
  5
122
330
87
100
AcDbEntity
  8
P-SANR-FIXT
100
AcDbSpline
210
0.0
220
0.0
230
1.0
 70
     8
 71
     3
 72
     9
 73
     5
 74
     0
 42
0.000000001
 43
0.0000000001
 40
0.0
 40
0.0
 40
0.0
 40
0.0
 40
0.5
 40
1.0
 40
1.0
 40
1.0
 40
1.0
 10
855.7479996135075
 20
1951.451928414866
 30
0.0
 10
856.2309198892972
 20
1952.588203012418
 30
0.0
 10
856.7138401650831
 20
1954.879178148349
 30
0.0
 10
856.2309198892823
 20
1957.207005165932
 30
0.0
 10
855.7479996134853
 20
1958.380131645137
 30
0.0
  0
SPLINE
  5
123
330
87
100
AcDbEntity
  8
P-SANR-FIXT
100
AcDbSpline
210
0.0
220
0.0
230
1.0
 70
     8
 71
     3
 72
     9
 73
     5
 74
     0
 42
0.000000001
 43
0.0000000001
 40
0.0
 40
0.0
 40
0.0
 40
0.0
 40
0.5
 40
1.0
 40
1.0
 40
1.0
 40
1.0
 10
842.553179637129
 20
1951.451928414866
 30
0.0
 10
842.6679635882486
 20
1951.171504593131
 30
0.0
 10
842.840642318664
 20
1950.733823082114
 30
0.0
 10
842.8995427054328
 20
1950.581093539459
 30
0.0
 10
842.9005483129055
 20
1950.581093539465
 30
0.0
  0
SPLINE
  5
124
330
87
100
AcDbEntity
  8
P-SANR-FIXT
100
AcDbSpline
210
0.0
220
0.0
230
1.0
 70
     8
 71
     3
 72
     9
 73
     5
 74
     0
 42
0.000000001
 43
0.0000000001
 40
0.0
 40
0.0
 40
0.0
 40
0.0
 40
0.5
 40
1.0
 40
1.0
 40
1.0
 40
1.0
 10
855.400630937731
 20
1950.581093539465
 30
0.0
 10
855.4016365452039
 20
1950.581093539459
 30
0.0
 10
855.4605369319725
 20
1950.733823082114
 30
0.0
 10
855.6332156623881
 20
1951.171504593131
 30
0.0
 10
855.7479996135075
 20
1951.451928414866
 30
0.0
  0
SPLINE
  5
125
330
87
100
AcDbEntity
  8
P-SANR-FIXT
100
AcDbSpline
210
0.0
220
0.0
230
1.0
 70
     8
 71
     3
 72
     8
 73
     4
 74
     0
 42
0.000000001
 43
0.0000000001
 40
0.4917287126567528
 40
0.4917287126567528
 40
0.4917287126567528
 40
0.4917287126567528
 40
0.4958643563276889
 40
0.4958643563276889
 40
0.4958643563276889
 40
0.4958643563276889
 10
841.8289974550136
 20
1970.878152375954
 30
0.0
 10
841.8289313778103
 20
1970.897259138231
 30
0.0
 10
841.8288654350195
 20
1970.916365890251
 30
0.0
 10
841.8288242039738
 20
1970.935470756505
 30
0.0
  0
SPLINE
  5
126
330
87
100
AcDbEntity
  8
P-SANR-FIXT
100
AcDbSpline
210
0.0
220
0.0
230
1.0
 70
     8
 71
     3
 72
     9
 73
     5
 74
     0
 42
0.000000001
 43
0.0000000001
 40
0.0
 40
0.0
 40
0.0
 40
0.0
 40
0.5
 40
1.0
 40
1.0
 40
1.0
 40
1.0
 10
842.9005483129156
 20
1991.293906460548
 30
0.0
 10
842.8995427054431
 20
1991.293906460553
 30
0.0
 10
842.8406423186745
 20
1991.141176917899
 30
0.0
 10
842.6679635882587
 20
1990.703495406881
 30
0.0
 10
842.5531796371391
 20
1990.423071585147
 30
0.0
  0
SPLINE
  5
127
330
87
100
AcDbEntity
  8
P-SANR-FIXT
100
AcDbSpline
210
0.0
220
0.0
230
1.0
 70
     8
 71
     3
 72
     9
 73
     5
 74
     0
 42
0.000000001
 43
0.0000000001
 40
0.0
 40
0.0
 40
0.0
 40
0.0
 40
0.5
 40
1.0
 40
1.0
 40
1.0
 40
1.0
 10
855.7479996134974
 20
1990.423071585147
 30
0.0
 10
855.6332156623779
 20
1990.703495406881
 30
0.0
 10
855.460536931962
 20
1991.141176917899
 30
0.0
 10
855.4016365451934
 20
1991.293906460553
 30
0.0
 10
855.4006309377209
 20
1991.293906460548
 30
0.0
  0
SPLINE
  5
128
330
87
100
AcDbEntity
  8
P-SANR-FIXT
100
AcDbSpline
210
0.0
220
0.0
230
1.0
 70
     8
 71
     3
 72
     9
 73
     5
 74
     0
 42
0.000000001
 43
0.0000000001
 40
0.0
 40
0.0
 40
0.0
 40
0.0
 40
0.5
 40
1.0
 40
1.0
 40
1.0
 40
1.0
 10
855.7479996134787
 20
1983.494868354876
 30
0.0
 10
856.2309198892748
 20
1984.66799483408
 30
0.0
 10
856.7138401650739
 20
1986.995821851663
 30
0.0
 10
856.2309198892872
 20
1989.286796987594
 30
0.0
 10
855.7479996134974
 20
1990.423071585147
 30
0.0
  0
SPLINE
  5
129
330
87
100
AcDbEntity
  8
P-SANR-FIXT
100
AcDbSpline
210
0.0
220
0.0
230
1.0
 70
     8
 71
     3
 72
     9
 73
     5
 74
     0
 42
0.000000001
 43
0.0000000001
 40
0.0
 40
0.0
 40
0.0
 40
0.0
 40
0.5
 40
1.0
 40
1.0
 40
1.0
 40
1.0
 10
842.5531796371391
 20
1990.423071585147
 30
0.0
 10
842.0702593613492
 20
1989.286796987594
 30
0.0
 10
841.5873390855626
 20
1986.995821851663
 30
0.0
 10
842.0702593613617
 20
1984.66799483408
 30
0.0
 10
842.5531796371577
 20
1983.494868354876
 30
0.0
  0
LWPOLYLINE
  5
12A
330
87
100
AcDbEntity
  8
P-SANR-FIXT
100
AcDbPolyline
 90
       63
 70
   128
 43
0.0
 10
832.7807289313469
 20
1983.637499999998
 10
832.5314413642857
 20
1983.637499999998
 10
832.2551733406328
 20
1983.637499999998
 10
831.952366830292
 20
1983.637499999998
 10
831.6235062590845
 20
1983.637499999998
 10
831.2691177337713
 20
1983.637499999998
 10
830.8897682003937
 20
1983.637499999998
 10
830.4860645372816
 20
1983.637499999998
 10
830.0586525841774
 20
1983.637499999998
 10
829.6082161090293
 20
1983.637499999998
 10
829.1354757141098
 20
1983.637499999998
 10
828.6411876832048
 20
1983.637499999998
 10
828.1261427717213
 20
1983.637499999998
 10
827.5911649416473
 20
1983.637499999998
 10
827.0371100433884
 20
1983.637499999998
 10
826.4648644465895
 20
1983.637499999998
 10
825.8753436221333
 20
1983.637499999998
 10
825.2694906775808
 20
1983.637499999998
 10
824.6482748484021
 20
1983.637499999998
 10
824.0126899474043
 20
1983.637499999998
 10
823.3637527748452
 20
1983.637499999998
 10
822.7025014917684
 20
1983.637499999998
 10
822.0299939591669
 20
1983.637499999998
 10
821.3473060456328
 20
1983.637499999998
 10
820.655529906195
 20
1983.637499999998
 10
819.9557722351057
 20
1983.637499999998
 10
819.2491524953652
 20
1983.637499999998
 10
818.5368011278193
 20
1983.637499999998
 10
817.8198577426961
 20
1983.637499999998
 10
817.0994692964718
 20
1983.637499999998
 10
816.3767882569858
 20
1983.637499999998
 10
815.6529707597377
 20
1983.637499999998
 10
814.9291747583168
 20
1983.637499999998
 10
814.2065581719235
 20
1983.637499999998
 10
813.4862770329466
 20
1983.637499999998
 10
812.7694836375562
 20
1983.637499999998
 10
812.0573247022774
 20
1983.637499999998
 10
811.3509395294876
 20
1983.637499999998
 10
810.6514581847758
 20
1983.637499999998
 10
809.9599996890781
 20
1983.637499999998
 10
809.2776702284854
 20
1983.637499999998
 10
808.6055613845783
 20
1983.637499999998
 10
807.9447483881313
 20
1983.637499999998
 10
807.2962883989729
 20
1983.637499999998
 10
806.6612188147555
 20
1983.637499999998
 10
806.0405556113389
 20
1983.637499999998
 10
805.4352917174476
 20
1983.637499999998
 10
804.846395426196
 20
1983.637499999998
 10
804.2748088460253
 20
1983.637499999998
 10
803.7214463935322
 20
1983.637499999998
 10
803.1871933305961
 20
1983.637499999998
 10
802.6729043481497
 20
1983.637499999998
 10
802.1794021988558
 20
1983.637499999998
 10
801.7074763808786
 20
1983.637499999998
 10
801.2578818748544
 20
1983.637499999998
 10
800.8313379360847
 20
1983.637499999998
 10
800.4285269438808
 20
1983.637499999998
 10
800.0500933099008
 20
1983.637499999998
 10
799.6966424472316
 20
1983.637499999998
 10
799.3687398018544
 20
1983.637499999998
 10
799.066909948053
 20
1983.637499999998
 10
798.7916357492068
 20
1983.637499999998
 10
798.5520859550319
 20
1983.637499999998
  0
LINE
  5
12B
330
87
100
AcDbEntity
  8
P-SANR-FIXT
100
AcDbLine
 10
832.9164074431893
 20
1984.937499999998
 30
0.0
 11
832.9164074431893
 21
1989.137499999998
 31
0.0
  0
LINE
  5
12C
330
87
100
AcDbEntity
  8
P-SANR-FIXT
100
AcDbLine
 10
798.4164074431894
 20
1989.137499999998
 30
0.0
 11
798.4164074431894
 21
1984.937499999998
 31
0.0
  0
LINE
  5
12D
330
87
100
AcDbEntity
  8
P-SANR-FIXT
100
AcDbLine
 10
841.820074354106
 20
1987.787499999998
 30
0.0
 11
840.3200743541079
 21
1987.787499999998
 31
0.0
  0
LINE
  5
12E
330
87
100
AcDbEntity
  8
P-SANR-FIXT
100
AcDbLine
 10
840.3200743541079
 20
1954.087499999998
 30
0.0
 11
841.820074354106
 21
1954.087499999998
 31
0.0
  0
LINE
  5
12F
330
87
100
AcDbEntity
  8
P-SANR-FIXT
100
AcDbLine
 10
840.3200743541079
 20
1987.787499999998
 30
0.0
 11
840.2826598179522
 21
1987.722696122435
 31
0.0
  0
LINE
  5
130
330
87
100
AcDbEntity
  8
P-SANR-FIXT
100
AcDbLine
 10
840.2732296800262
 20
1987.706362644425
 30
0.0
 11
839.2519763561072
 21
1985.937499999998
 31
0.0
  0
LINE
  5
131
330
87
100
AcDbEntity
  8
P-SANR-FIXT
100
AcDbLine
 10
839.2519763561072
 20
1955.937499999998
 30
0.0
 11
840.2732296800262
 21
1954.168637355572
 31
0.0
  0
LINE
  5
132
330
87
100
AcDbEntity
  8
P-SANR-FIXT
100
AcDbLine
 10
840.2826598179522
 20
1954.152303877561
 30
0.0
 11
840.3200743541079
 21
1954.087499999998
 31
0.0
  0
LWPOLYLINE
  5
133
330
87
100
AcDbEntity
  8
P-SANR-FIXT
100
AcDbPolyline
 90
       28
 70
   128
 43
0.0
 10
839.2519763561072
 20
1955.937499999998
 10
839.2106015660164
 20
1956.005963665231
 10
839.1665220549564
 20
1956.072718016526
 10
839.1198083407413
 20
1956.137656261162
 10
839.0705351553487
 20
1956.2006745118
 10
839.0187813253643
 20
1956.261671952682
 10
838.9646296458758
 20
1956.320551000914
 10
838.9081667480187
 20
1956.377217462581
 10
838.8494829603848
 20
1956.43158068343
 10
838.7886721645156
 20
1956.483553693906
 10
838.7258316447125
 20
1956.533053348279
 10
838.6610619324015
 20
1956.580000457661
 10
838.594466645306
 20
1956.624319916693
 10
838.5261523216788
 20
1956.665940823693
 10
838.4562282498649
 20
1956.70479659409
 10
838.3848062934628
 20
1956.740825066939
 10
838.3120007123668
 20
1956.77396860437
 10
838.2379279799758
 20
1956.804174183794
 10
838.1627065968601
 20
1956.831393482725
 10
838.0864569011864
 20
1956.855582956094
 10
838.009300876202
 20
1956.876703905902
 10
837.9313619550879
 20
1956.894722543135
 10
837.8527648234918
 20
1956.909610041818
 10
837.7736352200578
 20
1956.921342585129
 10
837.694099735271
 20
1956.9299014035
 10
837.6142856089405
 20
1956.935272804648
 10
837.5343205266426
 20
1956.937448195478
 10
837.5199255485384
 20
1956.937499999998
  0
LWPOLYLINE
  5
134
330
87
100
AcDbEntity
  8
P-SANR-FIXT
100
AcDbPolyline
 90
       28
 70
   128
 43
0.0
 10
837.5199255485384
 20
1984.937499999998
 10
837.5999042169116
 20
1984.939099786676
 10
837.6797549364765
 20
1984.943896587393
 10
837.759349963116
 20
1984.95188272829
 10
837.8385619617667
 20
1984.963045433247
 10
837.9172642101282
 20
1984.977366844315
 10
837.9953308013924
 20
1984.994824050294
 10
838.0726368456665
 20
1985.015389123377
 10
838.1490586697704
 20
1985.039029163833
 10
838.2244740150884
 20
1985.065706352642
 10
838.2987622331555
 20
1985.095378011992
 10
838.3718044786702
 20
1985.127996673558
 10
838.4434838996211
 20
1985.16351015444
 10
838.5136858242256
 20
1985.201861640643
 10
838.5822979443798
 20
1985.242989777971
 10
838.6492104953283
 20
1985.286828770179
 10
838.7143164312629
 20
1985.333308484229
 10
838.7775115965752
 20
1985.382354562496
 10
838.8386948924813
 20
1985.433888541716
 10
838.8977684387592
 20
1985.487827978516
 10
838.9546377303371
 20
1985.544086581304
 10
839.0092117884799
 20
1985.602574348315
 10
839.0614033063361
 20
1985.663197711601
 10
839.111128788611
 20
1985.725859686711
 10
839.1583086851401
 20
1985.790460027853
 10
839.202867518154
 20
1985.856895388262
 10
839.2447340030249
 20
1985.925059485532
 10
839.2519763561072
 20
1985.937499999998
  0
LINE
  5
135
330
87
100
AcDbEntity
  8
P-SANR-FIXT
100
AcDbLine
 10
837.519925548538
 20
1984.937499999998
 30
0.0
 11
832.9164074431893
 21
1984.937499999998
 31
0.0
  0
LINE
  5
136
330
87
100
AcDbEntity
  8
P-SANR-FIXT
100
AcDbLine
 10
829.6664074431895
 20
1956.937499999998
 30
0.0
 11
837.519925548538
 21
1956.937499999998
 31
0.0
  0
LINE
  5
137
330
87
100
AcDbEntity
  8
P-SANR-FIXT
100
AcDbLine
 10
798.4164074431894
 20
1984.937499999998
 30
0.0
 11
793.8128893378405
 21
1984.937499999998
 31
0.0
  0
LINE
  5
138
330
87
100
AcDbEntity
  8
P-SANR-FIXT
100
AcDbLine
 10
793.8128893378405
 20
1956.937499999998
 30
0.0
 11
801.6664074431892
 21
1956.937499999998
 31
0.0
  0
LWPOLYLINE
  5
139
330
87
100
AcDbEntity
  8
P-SANR-FIXT
100
AcDbPolyline
 90
       28
 70
   128
 43
0.0
 10
793.8128893378405
 20
1956.937499999998
 10
793.7329106694672
 20
1956.93590021332
 10
793.6530599499023
 20
1956.931103412603
 10
793.5734649232629
 20
1956.923117271706
 10
793.4942529246121
 20
1956.911954566749
 10
793.4155506762505
 20
1956.89763315568
 10
793.3374840849864
 20
1956.880175949702
 10
793.2601780407122
 20
1956.85961087662
 10
793.1837562166085
 20
1956.835970836163
 10
793.1083408712906
 20
1956.809293647354
 10
793.0340526532233
 20
1956.779621988004
 10
792.9610104077087
 20
1956.747003326438
 10
792.8893309867577
 20
1956.711489845557
 10
792.8191290621531
 20
1956.673138359353
 10
792.750516941999
 20
1956.632010222025
 10
792.6836043910505
 20
1956.588171229817
 10
792.6184984551159
 20
1956.541691515766
 10
792.5553032898037
 20
1956.4926454375
 10
792.4941199938976
 20
1956.44111145828
 10
792.4350464476195
 20
1956.38717202148
 10
792.3781771560416
 20
1956.330913418693
 10
792.323603097899
 20
1956.27242565168
 10
792.2714115800427
 20
1956.211802288395
 10
792.2216860977679
 20
1956.149140313285
 10
792.1745062012387
 20
1956.084539972143
 10
792.129947368225
 20
1956.018104611734
 10
792.0880808833539
 20
1955.949940514463
 10
792.0808385302716
 20
1955.937499999998
  0
LWPOLYLINE
  5
13A
330
87
100
AcDbEntity
  8
P-SANR-FIXT
100
AcDbPolyline
 90
       28
 70
   128
 43
0.0
 10
792.0808385302716
 20
1985.937499999998
 10
792.1222133203623
 20
1985.869036334765
 10
792.1662928314224
 20
1985.80228198347
 10
792.2130065456375
 20
1985.737343738833
 10
792.2622797310302
 20
1985.674325488196
 10
792.3140335610146
 20
1985.613328047314
 10
792.3681852405031
 20
1985.554448999081
 10
792.4246481383602
 20
1985.497782537416
 10
792.483331925994
 20
1985.443419316566
 10
792.5441427218633
 20
1985.39144630609
 10
792.6069832416664
 20
1985.341946651717
 10
792.6717529539772
 20
1985.294999542335
 10
792.7383482410728
 20
1985.250680083304
 10
792.8066625647
 20
1985.209059176304
 10
792.876586636514
 20
1985.170203405906
 10
792.948008592916
 20
1985.134174933057
 10
793.020814174012
 20
1985.101031395625
 10
793.0948869064029
 20
1985.070825816202
 10
793.1701082895187
 20
1985.04360651727
 10
793.2463579851924
 20
1985.019417043902
 10
793.3235140101767
 20
1984.998296094094
 10
793.4014529312909
 20
1984.980277456861
 10
793.4800500628871
 20
1984.965389958178
 10
793.5591796663212
 20
1984.953657414867
 10
793.638715151108
 20
1984.945098596496
 10
793.7185292774383
 20
1984.939727195348
 10
793.7984943597362
 20
1984.937551804518
 10
793.8128893378405
 20
1984.937499999998
  0
LINE
  5
13B
330
87
100
AcDbEntity
  8
P-SANR-FIXT
100
AcDbLine
 10
792.0808385302716
 20
1985.937499999998
 30
0.0
 11
791.0595852063525
 21
1987.706362644425
 31
0.0
  0
LINE
  5
13C
330
87
100
AcDbEntity
  8
P-SANR-FIXT
100
AcDbLine
 10
791.0501550684264
 20
1987.722696122435
 30
0.0
 11
791.0127405322708
 21
1987.787499999998
 31
0.0
  0
LINE
  5
13D
330
87
100
AcDbEntity
  8
P-SANR-FIXT
100
AcDbLine
 10
791.0127405322708
 20
1954.087499999998
 30
0.0
 11
791.0501550684264
 21
1954.152303877561
 31
0.0
  0
LINE
  5
13E
330
87
100
AcDbEntity
  8
P-SANR-FIXT
100
AcDbLine
 10
791.0595852063525
 20
1954.168637355572
 30
0.0
 11
792.0808385302716
 21
1955.937499999998
 31
0.0
  0
LINE
  5
13F
330
87
100
AcDbEntity
  8
P-SANR-FIXT
100
AcDbLine
 10
798.7164074432065
 20
1989.437500000015
 30
0.0
 11
798.4164074431894
 21
1989.137499999998
 31
0.0
  0
LINE
  5
140
330
87
100
AcDbEntity
  8
P-SANR-FIXT
100
AcDbLine
 10
832.9164074431893
 20
1989.137499999998
 30
0.0
 11
832.6164074431723
 21
1989.437500000015
 31
0.0
  0
LINE
  5
141
330
87
100
AcDbEntity
  8
P-SANR-FIXT
100
AcDbLine
 10
832.5164074431894
 20
1930.9375
 30
0.0
 11
832.5164074431894
 21
1932.437499999998
 31
0.0
  0
LINE
  5
142
330
87
100
AcDbEntity
  8
P-SANR-FIXT
100
AcDbLine
 10
798.8164074431891
 20
1932.437499999998
 30
0.0
 11
798.8164074431891
 21
1930.9375
 31
0.0
  0
LINE
  5
143
330
87
100
AcDbEntity
  8
P-SANR-FIXT
100
AcDbLine
 10
832.5164074431894
 20
1932.437499999998
 30
0.0
 11
832.4516035656264
 21
1932.474914536154
 31
0.0
  0
LINE
  5
144
330
87
100
AcDbEntity
  8
P-SANR-FIXT
100
AcDbLine
 10
832.4352700876159
 20
1932.48434467408
 30
0.0
 11
830.6664074431894
 21
1933.505597997999
 31
0.0
  0
LINE
  5
145
330
87
100
AcDbEntity
  8
P-SANR-FIXT
100
AcDbLine
 10
800.6664074431892
 20
1933.505597997999
 30
0.0
 11
798.8975447987625
 21
1932.48434467408
 31
0.0
  0
LINE
  5
146
330
87
100
AcDbEntity
  8
P-SANR-FIXT
100
AcDbLine
 10
798.8812113207521
 20
1932.474914536154
 30
0.0
 11
798.8164074431891
 21
1932.437499999998
 31
0.0
  0
LWPOLYLINE
  5
147
330
87
100
AcDbEntity
  8
P-SANR-FIXT
100
AcDbPolyline
 90
       28
 70
   128
 43
0.0
 10
800.6664074431892
 20
1933.505597997999
 10
800.7348711084222
 20
1933.546972788089
 10
800.8016254597178
 20
1933.591052299149
 10
800.8665637043534
 20
1933.637766013364
 10
800.9295819549915
 20
1933.687039198757
 10
800.9905793958733
 20
1933.738793028742
 10
801.0494584441056
 20
1933.79294470823
 10
801.1061249057716
 20
1933.849407606087
 10
801.160488126621
 20
1933.908091393721
 10
801.2124611370969
 20
1933.96890218959
 10
801.2619607914698
 20
1934.031742709393
 10
801.3089079008521
 20
1934.096512421704
 10
801.3532273598835
 20
1934.1631077088
 10
801.394848266884
 20
1934.231422032427
 10
801.4337040372808
 20
1934.301346104241
 10
801.4697325101304
 20
1934.372768060643
 10
801.5028760475617
 20
1934.445573641739
 10
801.533081626985
 20
1934.51964637413
 10
801.5603009259169
 20
1934.594867757246
 10
801.5844903992853
 20
1934.67111745292
 10
801.6056113490932
 20
1934.748273477904
 10
801.6236299863265
 20
1934.826212399018
 10
801.6385174850094
 20
1934.904809530614
 10
801.6502500283197
 20
1934.983939134048
 10
801.6588088466912
 20
1935.063474618835
 10
801.6641802478396
 20
1935.143288745165
 10
801.6663556386697
 20
1935.223253827463
 10
801.6664074431892
 20
1935.237648805568
  0
LWPOLYLINE
  5
148
330
87
100
AcDbEntity
  8
P-SANR-FIXT
100
AcDbPolyline
 90
       28
 70
   128
 43
0.0
 10
829.6664074431895
 20
1935.237648805568
 10
829.6680072298675
 20
1935.157670137194
 10
829.6728040305843
 20
1935.077819417629
 10
829.6807901714815
 20
1934.99822439099
 10
829.691952876438
 20
1934.919012392339
 10
829.7062742875068
 20
1934.840310143977
 10
829.7237314934855
 20
1934.762243552713
 10
829.7442965665679
 20
1934.684937508439
 10
829.7679366070246
 20
1934.608515684335
 10
829.7946137958335
 20
1934.533100339017
 10
829.8242854551835
 20
1934.45881212095
 10
829.8569041167494
 20
1934.385769875436
 10
829.8924175976308
 20
1934.314090454485
 10
829.9307690838341
 20
1934.24388852988
 10
829.9718972211627
 20
1934.175276409726
 10
830.0157362133703
 20
1934.108363858777
 10
830.0622159274208
 20
1934.043257922843
 10
830.1112620056876
 20
1933.980062757531
 10
830.1627959849076
 20
1933.918879461625
 10
830.2167354217075
 20
1933.859805915346
 10
830.2729940244951
 20
1933.802936623768
 10
830.3314817915067
 20
1933.748362565626
 10
830.3921051547924
 20
1933.69617104777
 10
830.4547671299024
 20
1933.646445565495
 10
830.5193674710446
 20
1933.599265668966
 10
830.5858028314531
 20
1933.554706835952
 10
830.6539669287239
 20
1933.512840351081
 10
830.6664074431894
 20
1933.505597997999
  0
LINE
  5
149
330
87
100
AcDbEntity
  8
P-SANR-FIXT
100
AcDbLine
 10
829.6664074431895
 20
1935.237648805568
 30
0.0
 11
829.6664074431895
 21
1938.280865948499
 31
0.0
  0
LINE
  5
14A
330
87
100
AcDbEntity
  8
P-SANR-FIXT
100
AcDbLine
 10
801.6664074431892
 20
1938.280865948499
 30
0.0
 11
801.6664074431892
 21
1935.237648805568
 31
0.0
  0
LINE
  5
14B
330
87
100
AcDbEntity
  8
P-SANR-FIXT
100
AcDbLine
 10
829.6664074431895
 20
1938.280865948499
 30
0.0
 11
829.6664074431895
 21
1956.937499999998
 31
0.0
  0
LINE
  5
14C
330
87
100
AcDbEntity
  8
P-SANR-FIXT
100
AcDbLine
 10
801.6664074431892
 20
1956.937499999998
 30
0.0
 11
801.6664074431892
 21
1938.280865948499
 31
0.0
  0
LWPOLYLINE
  5
14D
330
87
100
AcDbEntity
  8
P-SANR-FIXT
100
AcDbPolyline
 90
       63
 70
   128
 43
0.0
 10
798.5520859550319
 20
1958.237499999998
 10
798.8013735220931
 20
1958.237499999998
 10
799.077641545746
 20
1958.237499999998
 10
799.3804480560868
 20
1958.237499999998
 10
799.7093086272943
 20
1958.237499999998
 10
800.0636971526077
 20
1958.237499999998
 10
800.4430466859854
 20
1958.237499999998
 10
800.8467503490974
 20
1958.237499999998
 10
801.2741623022018
 20
1958.237499999998
 10
801.7245987773497
 20
1958.237499999998
 10
802.1973391722694
 20
1958.237499999998
 10
802.6916272031742
 20
1958.237499999998
 10
803.2066721146579
 20
1958.237499999998
 10
803.7416499447319
 20
1958.237499999998
 10
804.295704842991
 20
1958.237499999998
 10
804.8679504397897
 20
1958.237499999998
 10
805.4574712642461
 20
1958.237499999998
 10
806.0633242087984
 20
1958.237499999998
 10
806.6845400379772
 20
1958.237499999998
 10
807.3201249389748
 20
1958.237499999998
 10
807.9690621115341
 20
1958.237499999998
 10
808.630313394611
 20
1958.237499999998
 10
809.3028209272125
 20
1958.237499999998
 10
809.9855088407466
 20
1958.237499999998
 10
810.6772849801846
 20
1958.237499999998
 10
811.3770426512736
 20
1958.237499999998
 10
812.0836623910141
 20
1958.237499999998
 10
812.7960137585599
 20
1958.237499999998
 10
813.5129571436833
 20
1958.237499999998
 10
814.2333455899077
 20
1958.237499999998
 10
814.9560266293935
 20
1958.237499999998
 10
815.6798441266415
 20
1958.237499999998
 10
816.4036401280627
 20
1958.237499999998
 10
817.1262567144559
 20
1958.237499999998
 10
817.8465378534328
 20
1958.237499999998
 10
818.5633312488231
 20
1958.237499999998
 10
819.275490184102
 20
1958.237499999998
 10
819.9818753568916
 20
1958.237499999998
 10
820.6813567016038
 20
1958.237499999998
 10
821.3728151973011
 20
1958.237499999998
 10
822.0551446578941
 20
1958.237499999998
 10
822.7272535018011
 20
1958.237499999998
 10
823.388066498248
 20
1958.237499999998
 10
824.0365264874062
 20
1958.237499999998
 10
824.6715960716239
 20
1958.237499999998
 10
825.2922592750405
 20
1958.237499999998
 10
825.8975231689317
 20
1958.237499999998
 10
826.4864194601834
 20
1958.237499999998
 10
827.0580060403538
 20
1958.237499999998
 10
827.6113684928471
 20
1958.237499999998
 10
828.1456215557833
 20
1958.237499999998
 10
828.6599105382297
 20
1958.237499999998
 10
829.1534126875236
 20
1958.237499999998
 10
829.6253385055008
 20
1958.237499999998
 10
830.0749330115246
 20
1958.237499999998
 10
830.5014769502941
 20
1958.237499999998
 10
830.9042879424984
 20
1958.237499999998
 10
831.282721576478
 20
1958.237499999998
 10
831.6361724391473
 20
1958.237499999998
 10
831.9640750845245
 20
1958.237499999998
 10
832.2659049383258
 20
1958.237499999998
 10
832.5411791371722
 20
1958.237499999998
 10
832.7807289313467
 20
1958.237499999998
  0
LINE
  5
14E
330
87
100
AcDbEntity
  8
P-SANR-FIXT
100
AcDbLine
 10
791.0127405322708
 20
1987.787499999998
 30
0.0
 11
789.5127405322727
 21
1987.787499999998
 31
0.0
  0
LINE
  5
14F
330
87
100
AcDbEntity
  8
P-SANR-FIXT
100
AcDbLine
 10
789.5127405322727
 20
1954.087499999998
 30
0.0
 11
791.0127405322708
 21
1954.087499999998
 31
0.0
  0
SPLINE
  5
150
330
87
100
AcDbEntity
  8
P-SANR-FIXT
100
AcDbSpline
210
0.0
220
0.0
230
1.0
 70
     8
 71
     3
 72
    18
 73
    14
 74
     0
 42
0.000000001
 43
0.0000000001
 40
0.0
 40
0.0
 40
0.0
 40
0.0
 40
0.125
 40
0.1875
 40
0.25
 40
0.3125
 40
0.375
 40
0.4375
 40
0.5
 40
0.5625
 40
0.625
 40
0.75
 40
1.0
 40
1.0
 40
1.0
 40
1.0
 10
829.2402794036862
 20
1970.937499999997
 30
0.0
 10
829.2528366479096
 20
1971.531709758918
 30
0.0
 10
829.3155068110843
 20
1972.402673727621
 30
0.0
 10
829.4854381487439
 20
1973.523794696336
 30
0.0
 10
829.652557864868
 20
1974.343479228495
 30
0.0
 10
829.8666731629113
 20
1975.146303698008
 30
0.0
 10
830.1233686047931
 20
1975.931374967751
 30
0.0
 10
830.4082815149868
 20
1976.692897002194
 30
0.0
 10
830.7062482692018
 20
1977.424512366855
 30
0.0
 10
831.0184925987956
 20
1978.127012121457
 30
0.0
 10
831.4603041310535
 20
1979.030408453196
 30
0.0
 10
832.2525353934061
 20
1980.509177422676
 30
0.0
 10
832.9156280984289
 20
1981.592979589722
 30
0.0
 10
833.3282306786298
 20
1982.237499999997
 30
0.0
  0
SPLINE
  5
151
330
87
100
AcDbEntity
  8
P-SANR-FIXT
100
AcDbSpline
210
0.0
220
0.0
230
1.0
 70
     8
 71
     3
 72
    17
 73
    13
 74
     0
 42
0.000000001
 43
0.0000000001
 40
0.0
 40
0.0
 40
0.0
 40
0.0
 40
0.25
 40
0.375
 40
0.5
 40
0.5625
 40
0.625
 40
0.6875
 40
0.75
 40
0.8125
 40
0.875
 40
1.0
 40
1.0
 40
1.0
 40
1.0
 10
798.0045842077457
 20
1982.237499999997
 30
0.0
 10
798.4171867879467
 20
1981.592979589722
 30
0.0
 10
799.0792321396907
 20
1980.509653037431
 30
0.0
 10
799.9874322387421
 20
1978.818363052013
 30
0.0
 10
800.5281759462766
 20
1977.667961114022
 30
0.0
 10
800.9243579127863
 20
1976.692976679894
 30
0.0
 10
801.2094932952628
 20
1975.931353618317
 30
0.0
 10
801.4661291273464
 20
1975.146309418045
 30
0.0
 10
801.6802603922998
 20
1974.343477697781
 30
0.0
 10
801.8473758505813
 20
1973.523795099156
 30
0.0
 10
802.0173086075217
 20
1972.402673485929
 30
0.0
 10
802.0799782384656
 20
1971.531709758918
 30
0.0
 10
802.0925354826895
 20
1970.937499999997
 30
0.0
  0
SPLINE
  5
152
330
87
100
AcDbEntity
  8
P-SANR-FIXT
100
AcDbSpline
210
0.0
220
0.0
230
1.0
 70
     8
 71
     3
 72
    21
 73
    17
 74
     0
 42
0.000000001
 43
0.0000000001
 40
-1.0
 40
-1.0
 40
-1.0
 40
-1.0
 40
-0.7857142857142857
 40
-0.7321428571428572
 40
-0.6785714285714287
 40
-0.625
 40
-0.5357142857142857
 40
-0.4642857142857144
 40
-0.4107142857142857
 40
-0.3571428571428571
 40
-0.3035714285714286
 40
-0.25
 40
-0.1785714285714286
 40
-0.125
 40
-0.0714285714285714
 40
0.0
 40
0.0
 40
0.0
 40
0.0
 10
833.3282306786301
 20
1982.237499999997
 30
0.0
 10
833.4086175593295
 20
1982.362948769352
 30
0.0
 10
833.486038020743
 20
1982.518434487143
 30
0.0
 10
833.5440722119249
 20
1982.701590487294
 30
0.0
 10
833.5651108970631
 20
1982.791742479973
 30
0.0
 10
833.5825890603823
 20
1982.900895079827
 30
0.0
 10
833.584931242867
 20
1983.01658482128
 30
0.0
 10
833.5723142133105
 20
1983.129772127211
 30
0.0
 10
833.5440096337059
 20
1983.21965025796
 30
0.0
 10
833.5108698131184
 20
1983.299881360927
 30
0.0
 10
833.462603794512
 20
1983.375648572318
 30
0.0
 10
833.3843868020508
 20
1983.453304566644
 30
0.0
 10
833.2865594308882
 20
1983.530966233605
 30
0.0
 10
833.1545766292208
 20
1983.583485079243
 30
0.0
 10
832.9957545901338
 20
1983.619689248291
 30
0.0
 10
832.8633712312177
 20
1983.633449566504
 30
0.0
 10
832.7807289313451
 20
1983.637499999997
 30
0.0
  0
SPLINE
  5
153
330
87
100
AcDbEntity
  8
P-SANR-FIXT
100
AcDbSpline
210
0.0
220
0.0
230
1.0
 70
     8
 71
     3
 72
    20
 73
    16
 74
     0
 42
0.000000001
 43
0.0000000001
 40
-1.0
 40
-1.0
 40
-1.0
 40
-1.0
 40
-0.9464285714285713
 40
-0.8928571428571427
 40
-0.8392857142857142
 40
-0.7857142857142857
 40
-0.7321428571428572
 40
-0.6785714285714287
 40
-0.625
 40
-0.5535714285714287
 40
-0.5
 40
-0.4285714285714286
 40
-0.3571428571428571
 40
-0.2857142857142857
 40
0.0
 40
0.0
 40
0.0
 40
0.0
 10
798.5520859550305
 20
1983.637499999997
 30
0.0
 10
798.4901042301262
 20
1983.634462174877
 30
0.0
 10
798.3739577948694
 20
1983.624189329942
 30
0.0
 10
798.2234220577671
 20
1983.595540491475
 30
0.0
 10
798.0958716200684
 20
1983.554556239489
 30
0.0
 10
797.9953759129872
 20
1983.493121787043
 30
0.0
 10
797.9156182603997
 20
1983.421728704291
 30
0.0
 10
797.8515164763568
 20
1983.351477417235
 30
0.0
 10
797.8054475867367
 20
1983.264481840146
 30
0.0
 10
797.7721809019616
 20
1983.175287391517
 30
0.0
 10
797.7526397223572
 20
1983.07352474496
 30
0.0
 10
797.7474438253015
 20
1982.968648250456
 30
0.0
 10
797.7561643016681
 20
1982.851638849697
 30
0.0
 10
797.8039379063769
 20
1982.612077040607
 30
0.0
 10
797.8974017001462
 20
1982.404765025803
 30
0.0
 10
798.0045842077457
 20
1982.237499999997
 30
0.0
  0
SPLINE
  5
154
330
87
100
AcDbEntity
  8
P-SANR-FIXT
100
AcDbSpline
210
0.0
220
0.0
230
1.0
 70
     8
 71
     3
 72
     9
 73
     5
 74
     0
 42
0.000000001
 43
0.0000000001
 40
0.0
 40
0.0
 40
0.0
 40
0.0
 40
0.5
 40
1.0
 40
1.0
 40
1.0
 40
1.0
 10
831.8791339258002
 20
1983.637499999997
 30
0.0
 10
832.2051372775048
 20
1984.061632385168
 30
0.0
 10
832.7244119031975
 20
1984.702431437007
 30
0.0
 10
832.9164074431878
 20
1984.928299051835
 30
0.0
 10
832.9164074431878
 20
1984.937499999997
 30
0.0
  0
LINE
  5
155
330
87
100
AcDbEntity
  8
P-SANR-FIXT
100
AcDbLine
 10
832.9164074431878
 20
1989.137499999997
 30
0.0
 11
798.4164074431878
 21
1989.137499999997
 31
0.0
  0
SPLINE
  5
156
330
87
100
AcDbEntity
  8
P-SANR-FIXT
100
AcDbSpline
210
0.0
220
0.0
230
1.0
 70
     8
 71
     3
 72
     9
 73
     5
 74
     0
 42
0.000000001
 43
0.0000000001
 40
0.0
 40
0.0
 40
0.0
 40
0.0
 40
0.5
 40
1.0
 40
1.0
 40
1.0
 40
1.0
 10
798.4164074431878
 20
1984.937499999997
 30
0.0
 10
798.4164074431878
 20
1984.928299051835
 30
0.0
 10
798.6084029831781
 20
1984.702431437007
 30
0.0
 10
799.1276776088708
 20
1984.061632385168
 30
0.0
 10
799.4536809605754
 20
1983.637499999997
 30
0.0
  0
LINE
  5
157
330
87
100
AcDbEntity
  8
P-SANR-FIXT
100
AcDbLine
 10
841.8200743541044
 20
1987.515607528543
 30
0.0
 11
841.8200743541044
 21
1987.061944657085
 31
0.0
  0
LINE
  5
158
330
87
100
AcDbEntity
  8
P-SANR-FIXT
100
AcDbLine
 10
841.8200743541044
 20
1987.053758911902
 30
0.0
 11
841.8200743541044
 21
1986.436700546599
 31
0.0
  0
LINE
  5
159
330
87
100
AcDbEntity
  8
P-SANR-FIXT
100
AcDbLine
 10
841.8200743541044
 20
1971.997074651125
 30
0.0
 11
841.8200743541044
 21
1969.773794158113
 31
0.0
  0
LINE
  5
15A
330
87
100
AcDbEntity
  8
P-SANR-FIXT
100
AcDbLine
 10
841.8200743541044
 20
1955.438299453412
 30
0.0
 11
841.8200743541044
 21
1954.359392471451
 31
0.0
  0
LINE
  5
15B
330
87
100
AcDbEntity
  8
P-SANR-FIXT
100
AcDbLine
 10
840.3200743541063
 20
1987.787499999997
 30
0.0
 11
840.3200743541063
 21
1954.087499999997
 31
0.0
  0
LINE
  5
15C
330
87
100
AcDbEntity
  8
P-SANR-FIXT
100
AcDbLine
 10
789.5127405322711
 20
1954.359392471451
 30
0.0
 11
789.5127405322711
 21
1955.438299453412
 31
0.0
  0
LINE
  5
15D
330
87
100
AcDbEntity
  8
P-SANR-FIXT
100
AcDbLine
 10
789.5127405322711
 20
1969.773794158113
 30
0.0
 11
789.5127405322711
 21
1971.997074651125
 31
0.0
  0
LINE
  5
15E
330
87
100
AcDbEntity
  8
P-SANR-FIXT
100
AcDbLine
 10
789.5127405322711
 20
1986.388475311991
 30
0.0
 11
789.5127405322711
 21
1987.053758911902
 31
0.0
  0
LINE
  5
15F
330
87
100
AcDbEntity
  8
P-SANR-FIXT
100
AcDbLine
 10
789.5127405322711
 20
1987.061944657085
 30
0.0
 11
789.5127405322711
 21
1987.495537466844
 31
0.0
  0
LINE
  5
160
330
87
100
AcDbEntity
  8
P-SANR-FIXT
100
AcDbLine
 10
831.9920940404294
 20
1930.937499999999
 30
0.0
 11
831.4193013641371
 21
1930.937499999999
 31
0.0
  0
LINE
  5
161
330
87
100
AcDbEntity
  8
P-SANR-FIXT
100
AcDbLine
 10
816.2366421042129
 20
1930.937499999999
 30
0.0
 11
815.0961727821528
 21
1930.937499999999
 31
0.0
  0
LINE
  5
162
330
87
100
AcDbEntity
  8
P-SANR-FIXT
100
AcDbLine
 10
799.9135135222759
 20
1930.937499999999
 30
0.0
 11
799.3407208459
 21
1930.937499999999
 31
0.0
  0
LINE
  5
163
330
87
100
AcDbEntity
  8
P-SANR-FIXT
100
AcDbLine
 10
832.5164074431878
 20
1932.437499999997
 30
0.0
 11
798.8164074431876
 21
1932.437499999997
 31
0.0
  0
SPLINE
  5
164
330
87
100
AcDbEntity
  8
P-SANR-FIXT
100
AcDbSpline
210
0.0
220
0.0
230
1.0
 70
     8
 71
     3
 72
     9
 73
     5
 74
     0
 42
0.000000001
 43
0.0000000001
 40
-1.0
 40
-1.0
 40
-1.0
 40
-1.0
 40
-0.5
 40
0.0
 40
0.0
 40
0.0
 40
0.0
 10
828.3664074431879
 20
1958.237499999997
 30
0.0
 10
828.7733091114516
 20
1957.816889477775
 30
0.0
 10
829.4247881757225
 20
1957.179612288886
 30
0.0
 10
829.6664074431879
 20
1956.950222811109
 30
0.0
 10
829.6664074431879
 20
1956.937499999997
 30
0.0
  0
SPLINE
  5
165
330
87
100
AcDbEntity
  8
P-SANR-FIXT
100
AcDbSpline
210
0.0
220
0.0
230
1.0
 70
     8
 71
     3
 72
     9
 73
     5
 74
     0
 42
0.000000001
 43
0.0000000001
 40
-1.0
 40
-1.0
 40
-1.0
 40
-1.0
 40
-0.5
 40
0.0
 40
0.0
 40
0.0
 40
0.0
 10
801.6664074431876
 20
1956.937499999997
 30
0.0
 10
801.6664074431876
 20
1956.950222811108
 30
0.0
 10
801.9080267106529
 20
1957.179612288886
 30
0.0
 10
802.5595057749239
 20
1957.816889477775
 30
0.0
 10
802.9664074431876
 20
1958.237499999997
 30
0.0
  0
SPLINE
  5
166
330
87
100
AcDbEntity
  8
P-SANR-FIXT
100
AcDbSpline
210
0.0
220
0.0
230
1.0
 70
     8
 71
     3
 72
    20
 73
    16
 74
     0
 42
0.000000001
 43
0.0000000001
 40
0.0
 40
0.0
 40
0.0
 40
0.0
 40
0.2857142857142857
 40
0.3571428571428571
 40
0.4285714285714286
 40
0.5
 40
0.5535714285714287
 40
0.625
 40
0.6785714285714287
 40
0.7321428571428572
 40
0.7857142857142857
 40
0.8392857142857142
 40
0.8928571428571427
 40
0.9464285714285713
 40
1.0
 40
1.0
 40
1.0
 40
1.0
 10
833.3282306786298
 20
1959.637499999997
 30
0.0
 10
833.435348513109
 20
1959.470405506034
 30
0.0
 10
833.5289236625463
 20
1959.262902065478
 30
0.0
 10
833.576674627856
 20
1959.023138992669
 30
0.0
 10
833.5853798075488
 20
1958.906072415691
 30
0.0
 10
833.5801395446084
 20
1958.801245789046
 30
0.0
 10
833.560577320318
 20
1958.699573166332
 30
0.0
 10
833.5273756785525
 20
1958.610531299208
 30
0.0
 10
833.481424388886
 20
1958.523746689528
 30
0.0
 10
833.417499237373
 20
1958.453606337062
 30
0.0
 10
833.3382597523367
 20
1958.38232856254
 30
0.0
 10
833.2381786538919
 20
1958.320946712898
 30
0.0
 10
833.1105006354594
 20
1958.279881757379
 30
0.0
 10
832.9595853498137
 20
1958.251072788084
 30
0.0
 10
832.8429850552634
 20
1958.240634811651
 30
0.0
 10
832.7807289313451
 20
1958.237499999997
 30
0.0
  0
SPLINE
  5
167
330
87
100
AcDbEntity
  8
P-SANR-FIXT
100
AcDbSpline
210
0.0
220
0.0
230
1.0
 70
     8
 71
     3
 72
    20
 73
    16
 74
     0
 42
0.000000001
 43
0.0000000001
 40
0.0
 40
0.0
 40
0.0
 40
0.0
 40
0.0714285714285714
 40
0.125
 40
0.1785714285714286
 40
0.25
 40
0.3035714285714286
 40
0.3571428571428571
 40
0.4107142857142857
 40
0.4642857142857144
 40
0.5357142857142857
 40
0.6428571428571428
 40
0.7142857142857143
 40
0.8571428571428571
 40
1.0
 40
1.0
 40
1.0
 40
1.0
 10
798.5520859550305
 20
1958.237499999997
 30
0.0
 10
798.4690777898062
 20
1958.241679748869
 30
0.0
 10
798.3362078795636
 20
1958.255620624622
 30
0.0
 10
798.177051111144
 20
1958.291974341767
 30
0.0
 10
798.0451108424384
 20
1958.344537828185
 30
0.0
 10
797.9479498341532
 20
1958.422078875723
 30
0.0
 10
797.8700438787738
 20
1958.499622125407
 30
0.0
 10
797.821898873378
 20
1958.575219758347
 30
0.0
 10
797.7888212927734
 20
1958.65527114599
 30
0.0
 10
797.7605843755401
 20
1958.745052205049
 30
0.0
 10
797.7466982942408
 20
1958.867518583927
 30
0.0
 10
797.7521270456813
 20
1959.003154605261
 30
0.0
 10
797.7879371726879
 20
1959.182928639728
 30
0.0
 10
797.8605414270235
 20
1959.387923216576
 30
0.0
 10
797.9510252905062
 20
1959.553952753015
 30
0.0
 10
798.0045842077458
 20
1959.637499999997
 30
0.0
  0
SPLINE
  5
168
330
87
100
AcDbEntity
  8
P-SANR-FIXT
100
AcDbSpline
210
0.0
220
0.0
230
1.0
 70
     8
 71
     3
 72
    17
 73
    13
 74
     0
 42
0.000000001
 43
0.0000000001
 40
-1.0
 40
-1.0
 40
-1.0
 40
-1.0
 40
-0.75
 40
-0.625
 40
-0.5
 40
-0.4375
 40
-0.375
 40
-0.3125
 40
-0.25
 40
-0.1875
 40
-0.125
 40
0.0
 40
0.0
 40
0.0
 40
0.0
 10
798.0045842077457
 20
1959.637499999997
 30
0.0
 10
798.4171867879467
 20
1960.282020410273
 30
0.0
 10
799.0792321396907
 20
1961.365346962564
 30
0.0
 10
799.9874322387421
 20
1963.056636947982
 30
0.0
 10
800.5281759462766
 20
1964.207038885973
 30
0.0
 10
800.9243579127863
 20
1965.182023320101
 30
0.0
 10
801.2094932952628
 20
1965.943646381677
 30
0.0
 10
801.4661291273464
 20
1966.72869058195
 30
0.0
 10
801.6802603922998
 20
1967.531522302213
 30
0.0
 10
801.8473758505813
 20
1968.351204900839
 30
0.0
 10
802.0173086075217
 20
1969.472326514065
 30
0.0
 10
802.0799782384656
 20
1970.343290241077
 30
0.0
 10
802.0925354826895
 20
1970.937499999997
 30
0.0
  0
SPLINE
  5
169
330
87
100
AcDbEntity
  8
P-SANR-FIXT
100
AcDbSpline
210
0.0
220
0.0
230
1.0
 70
     8
 71
     3
 72
    18
 73
    14
 74
     0
 42
0.000000001
 43
0.0000000001
 40
-1.0
 40
-1.0
 40
-1.0
 40
-1.0
 40
-0.875
 40
-0.8125
 40
-0.75
 40
-0.6875
 40
-0.625
 40
-0.5625
 40
-0.5
 40
-0.4375
 40
-0.375
 40
-0.25
 40
0.0
 40
0.0
 40
0.0
 40
0.0
 10
829.2402794036862
 20
1970.937499999997
 30
0.0
 10
829.2528366479096
 20
1970.343290241077
 30
0.0
 10
829.3155068110843
 20
1969.472326272374
 30
0.0
 10
829.4854381487439
 20
1968.351205303658
 30
0.0
 10
829.652557864868
 20
1967.531520771499
 30
0.0
 10
829.8666731629111
 20
1966.728696301987
 30
0.0
 10
830.1233686047931
 20
1965.943625032243
 30
0.0
 10
830.4082815149868
 20
1965.1821029978
 30
0.0
 10
830.7062482692018
 20
1964.450487633139
 30
0.0
 10
831.0184925987954
 20
1963.747987878537
 30
0.0
 10
831.4603041310535
 20
1962.844591546798
 30
0.0
 10
832.2525353934059
 20
1961.365822577318
 30
0.0
 10
832.9156280984289
 20
1960.282020410273
 30
0.0
 10
833.3282306786298
 20
1959.637499999997
 30
0.0
  0
LINE
  5
16A
330
87
100
AcDbEntity
  8
P-SANR-FIXT
100
AcDbLine
 10
791.0127405322693
 20
1987.787499999997
 30
0.0
 11
791.0127405322693
 21
1954.087499999997
 31
0.0
  0
ENDBLK
  5
16C
330
87
100
AcDbEntity
  8
0
100
AcDbBlockEnd
  0
BLOCK
  5
263
330
16E
100
AcDbEntity
  8
0
100
AcDbBlockBegin
  2
Automatic flow rate regulator valve_Caleffi_121 DN15 - 1_2__-V1-Est - Idraulica
 70
     0
 10
0.0
 20
0.0
 30
0.0
  3
Automatic flow rate regulator valve_Caleffi_121 DN15 - 1_2__-V1-Est - Idraulica
  1

  0
LWPOLYLINE
  5
16F
330
16E
100
AcDbEntity
  8
M-PIPE
100
AcDbPolyline
 90
       80
 70
   128
 43
0.0
 10
832.916407443187
 20
1749.247075844259
 10
832.902609283089
 20
1749.936891858978
 10
832.8612368769071
 20
1750.625604315227
 10
832.7923564116662
 20
1751.312111419992
 10
832.6960780814165
 20
1751.995314908354
 10
832.5725559109484
 20
1752.674121800473
 10
832.4219875093845
 20
1753.347446150126
 10
832.2446137540479
 20
1754.014210781989
 10
832.0407184051092
 20
1754.673349014886
 10
831.8106276516314
 20
1755.323806368253
 10
831.5547095897368
 20
1755.964542249083
 10
831.2733736337317
 20
1756.594531616646
 10
830.9670698611297
 20
1757.212766622348
 10
830.6362882926267
 20
1757.818258222062
 10
830.2815581081688
 20
1758.410037758393
 10
829.9034468003792
 20
1758.987158510322
 10
829.5025592666915
 20
1759.548697207759
 10
829.0795368416409
 20
1760.093755508576
 10
828.635056270868
 20
1760.621461435765
 10
828.1698286284681
 20
1761.130970772414
 10
827.6845981794261
 20
1761.621468412274
 10
827.1801411889502
 20
1762.092169663755
 10
826.6572646806132
 20
1762.542321505264
 10
826.1168051452877
 20
1762.971203789884
 10
825.5596272029377
 20
1763.378130397449
 10
824.9866222194134
 20
1763.762450332193
 10
824.3987068804534
 20
1764.123548764205
 10
823.7968217251852
 20
1764.460848013023
 10
823.1819296414615
 20
1764.773808471802
 10
822.5550143254464
 20
1765.06192947057
 10
821.9170787079111
 20
1765.324750077192
 10
821.2691433497573
 20
1765.561849834762
 10
820.6122448093397
 20
1765.772849434246
 10
819.947433984192
 20
1765.957411321297
 10
819.2757744298157
 20
1766.115240236266
 10
818.5983406582179
 20
1766.246083686558
 10
817.9162164189218
 20
1766.349732350564
 10
817.2304929651982
 20
1766.426020412531
 10
816.5422673082932
 20
1766.474825827836
 10
815.8526404624442
 20
1766.496070518224
 10
815.1627156834919
 20
1766.489720496723
 10
814.4735967039066
 20
1766.455785922013
 10
813.7863859670515
 20
1766.394321082174
 10
813.1021828635082
 20
1766.305424307838
 10
812.4220819722872
 20
1766.189237814881
 10
811.7471713097337
 20
1766.045947476906
 10
811.0785305889345
 20
1765.875782527887
 10
810.4172294924074
 20
1765.679015195442
 10
809.7643259608368
 20
1765.455960265329
 10
809.1208645005941
 20
1765.206974577853
 10
808.4878745127518
 20
1764.932456457
 10
807.8663686462592
 20
1764.632845073203
 10
807.2573411779222
 20
1764.308619740762
 10
806.6617664217712
 20
1763.960299151044
 10
806.080597170367
 20
1763.588440542689
 10
805.5147631705354
 20
1763.193638810145
 10
804.9651696359715
 20
1762.776525551964
 10
804.4326957990898
 20
1762.337768060378
 10
803.9181935044419
 20
1761.878068253779
 10
803.4224858459436
 20
1761.398161553793
 10
802.9463658501036
 20
1760.898815708765
 10
802.4905952073487
 20
1760.380829565525
 10
802.0559030534808
 20
1759.845031791406
 10
801.6429848032172
 20
1759.292279548548
 10
801.2525010376736
 20
1758.723457122625
 10
800.8850764475761
 20
1758.139474508178
 10
800.5412988338891
 20
1757.541265952812
 10
800.2217181674593
 20
1756.929788462605
 10
799.9268457091792
 20
1756.3060202711
 10
799.6571531920797
 20
1755.67095927434
 10
799.4130720666562
 20
1755.025621434447
 10
799.194992810642
 20
1754.371039154301
 10
799.0032643043257
 20
1753.708259625912
 10
798.838193272417
 20
1753.038343155141
 10
798.700043793354
 20
1752.362361465434
 10
798.589036876833
 20
1751.681395983291
 10
798.5053501102401
 20
1750.99653610822
 10
798.4491173745494
 20
1750.308877469924
 10
798.4204286301428
 20
1749.619520175534
 10
798.4164074431909
 20
1749.247075844259
1001
REVIT
1002
{
1070
     3
1000
938184
1002
}
  0
LWPOLYLINE
  5
170
330
16E
100
AcDbEntity
  8
M-PIPE
100
AcDbPolyline
 90
       80
 70
   128
 43
0.0
 10
798.4164074431909
 20
1749.247075844259
 10
798.4302056032889
 20
1748.557259829539
 10
798.4715780094707
 20
1747.868547373291
 10
798.5404584747117
 20
1747.182040268525
 10
798.6367368049611
 20
1746.498836780164
 10
798.7602589754293
 20
1745.820029888044
 10
798.9108273769931
 20
1745.146705538391
 10
799.0882011323299
 20
1744.479940906528
 10
799.2920964812687
 20
1743.820802673631
 10
799.5221872347461
 20
1743.170345320264
 10
799.7781052966408
 20
1742.529609439435
 10
800.0594412526462
 20
1741.899620071871
 10
800.3657450252479
 20
1741.281385066169
 10
800.6965265937509
 20
1740.675893466455
 10
801.0512567782091
 20
1740.084113930124
 10
801.4293680859985
 20
1739.506993178195
 10
801.8302556196863
 20
1738.945454480759
 10
802.2532780447368
 20
1738.400396179941
 10
802.6977586155098
 20
1737.872690252752
 10
803.1629862579094
 20
1737.363180916103
 10
803.6482167069516
 20
1736.872683276243
 10
804.1526736974274
 20
1736.401982024763
 10
804.6755502057646
 20
1735.951830183253
 10
805.2160097410903
 20
1735.522947898633
 10
805.7731876834399
 20
1735.116021291068
 10
806.3461926669642
 20
1734.731701356324
 10
806.9341080059242
 20
1734.370602924313
 10
807.5359931611927
 20
1734.033303675495
 10
808.1508852449163
 20
1733.720343216716
 10
808.7778005609312
 20
1733.432222217947
 10
809.4157361784667
 20
1733.169401611326
 10
810.0636715366203
 20
1732.932301853756
 10
810.7205700770379
 20
1732.721302254272
 10
811.3853809021858
 20
1732.53674036722
 10
812.0570404565622
 20
1732.378911452251
 10
812.7344742281598
 20
1732.24806800196
 10
813.4165984674561
 20
1732.144419337954
 10
814.1023219211795
 20
1732.068131275986
 10
814.7905475780845
 20
1732.019325860681
 10
815.4801744239337
 20
1731.998081170293
 10
816.170099202886
 20
1732.004431191795
 10
816.8592181824712
 20
1732.038365766505
 10
817.5464289193262
 20
1732.099830606344
 10
818.2306320228693
 20
1732.188727380679
 10
818.9107329140906
 20
1732.304913873636
 10
819.585643576644
 20
1732.448204211612
 10
820.254284297443
 20
1732.61836916063
 10
820.9155853939702
 20
1732.815136493075
 10
821.568488925541
 20
1733.038191423188
 10
822.2119503857836
 20
1733.287177110664
 10
822.8449403736261
 20
1733.561695231517
 10
823.4664462401186
 20
1733.861306615315
 10
824.0754737084555
 20
1734.185531947756
 10
824.6710484646065
 20
1734.533852537473
 10
825.2522177160107
 20
1734.905711145828
 10
825.8180517158423
 20
1735.300512878372
 10
826.3676452504064
 20
1735.717626136554
 10
826.9001190872879
 20
1736.156383628139
 10
827.414621381936
 20
1736.616083434738
 10
827.9103290404343
 20
1737.095990134724
 10
828.386449036274
 20
1737.595335979752
 10
828.8422196790289
 20
1738.113322122992
 10
829.2769118328969
 20
1738.649119897111
 10
829.6898300831605
 20
1739.201872139969
 10
830.0803138487042
 20
1739.770694565892
 10
830.4477384388016
 20
1740.35467718034
 10
830.7915160524887
 20
1740.952885735705
 10
831.1110967189186
 20
1741.564363225912
 10
831.4059691771984
 20
1742.188131417417
 10
831.6756616942981
 20
1742.823192414177
 10
831.9197428197215
 20
1743.46853025407
 10
832.1378220757356
 20
1744.123112534216
 10
832.3295505820521
 20
1744.785892062605
 10
832.4946216139609
 20
1745.455808533376
 10
832.6327710930238
 20
1746.131790223084
 10
832.7437780095449
 20
1746.812755705226
 10
832.8274647761379
 20
1747.497615580298
 10
832.8836975118283
 20
1748.185274218593
 10
832.9123862562351
 20
1748.874631512984
 10
832.916407443187
 20
1749.247075844259
1001
REVIT
1002
{
1070
     3
1000
938184
1002
}
  0
ARC
  5
171
330
16E
100
AcDbEntity
  8
M-PIPE
100
AcDbCircle
 10
815.6664074431873
 20
1749.247075844258
 30
0.0
 40
16.97847472817762
100
AcDbArc
 50
359.9999999999994
 51
179.9999999999998
1001
REVIT
1002
{
1070
     3
1000
938184
1002
}
  0
ARC
  5
172
330
16E
100
AcDbEntity
  8
M-PIPE
100
AcDbCircle
 10
815.6664074431873
 20
1749.247075844258
 30
0.0
 40
16.9784747281775
100
AcDbArc
 50
180.0
 51
0.0
1001
REVIT
1002
{
1070
     3
1000
938184
1002
}
  0
ARC
  5
173
330
16E
100
AcDbEntity
  8
M-PIPE
100
AcDbCircle
 10
815.6664074431875
 20
1749.247075844258
 30
0.0
 40
16.35518224332236
100
AcDbArc
 50
0.0
 51
180.0
1001
REVIT
1002
{
1070
     3
1000
938184
1002
}
  0
ARC
  5
174
330
16E
100
AcDbEntity
  8
M-PIPE
100
AcDbCircle
 10
815.6664074431875
 20
1749.247075844258
 30
0.0
 40
16.35518224332242
100
AcDbArc
 50
179.9999999999998
 51
359.9999999999994
1001
REVIT
1002
{
1070
     3
1000
938184
1002
}
  0
ARC
  5
175
330
16E
100
AcDbEntity
  8
M-PIPE
100
AcDbCircle
 10
815.6664074431875
 20
1749.247075844258
 30
0.0
 40
16.03207750600241
100
AcDbArc
 50
359.9999999999992
 51
180.0000000000004
1001
REVIT
1002
{
1070
     3
1000
938184
1002
}
  0
ARC
  5
176
330
16E
100
AcDbEntity
  8
M-PIPE
100
AcDbCircle
 10
815.6664074431875
 20
1749.247075844258
 30
0.0
 40
16.03207750600236
100
AcDbArc
 50
180.0000000000006
 51
359.9999999999994
1001
REVIT
1002
{
1070
     3
1000
938184
1002
}
  0
ARC
  5
177
330
16E
100
AcDbEntity
  8
M-PIPE
100
AcDbCircle
 10
815.6664074431878
 20
1749.247075844258
 30
0.0
 40
13.31458159526075
100
AcDbArc
 50
359.9999999999994
 51
180.0000000000007
1001
REVIT
1002
{
1070
     3
1000
938184
1002
}
  0
ARC
  5
178
330
16E
100
AcDbEntity
  8
M-PIPE
100
AcDbCircle
 10
815.6664074431878
 20
1749.247075844258
 30
0.0
 40
13.31458159526062
100
AcDbArc
 50
180.0000000000006
 51
0.0
1001
REVIT
1002
{
1070
     3
1000
938184
1002
}
  0
LINE
  5
179
330
16E
100
AcDbEntity
  8
M-PIPE
100
AcDbLine
 10
807.2031371867501
 20
1749.247075844258
 30
0.0
 11
811.4347723149704
 21
1756.576482885428
 31
0.0
1001
REVIT
1002
{
1070
     3
1000
938184
1002
}
  0
LINE
  5
17A
330
16E
100
AcDbEntity
  8
M-PIPE
100
AcDbLine
 10
811.4347723149704
 20
1756.576482885428
 30
0.0
 11
819.8980425714296
 21
1756.576482885428
 31
0.0
1001
REVIT
1002
{
1070
     3
1000
938184
1002
}
  0
LINE
  5
17B
330
16E
100
AcDbEntity
  8
M-PIPE
100
AcDbLine
 10
819.8980425714296
 20
1756.576482885428
 30
0.0
 11
824.1296776996543
 21
1749.247075844249
 31
0.0
1001
REVIT
1002
{
1070
     3
1000
938184
1002
}
  0
LINE
  5
17C
330
16E
100
AcDbEntity
  8
M-PIPE
100
AcDbLine
 10
824.1296776996687
 20
1749.247075844257
 30
0.0
 11
819.8980425714294
 21
1741.917668803054
 31
0.0
1001
REVIT
1002
{
1070
     3
1000
938184
1002
}
  0
LINE
  5
17D
330
16E
100
AcDbEntity
  8
M-PIPE
100
AcDbLine
 10
819.8980425714294
 20
1741.917668803054
 30
0.0
 11
811.4347723149702
 21
1741.917668803054
 31
0.0
1001
REVIT
1002
{
1070
     3
1000
938184
1002
}
  0
LINE
  5
17E
330
16E
100
AcDbEntity
  8
M-PIPE
100
AcDbLine
 10
811.4347723149702
 20
1741.917668803054
 30
0.0
 11
807.2031371867359
 21
1749.247075844249
 31
0.0
1001
REVIT
1002
{
1070
     3
1000
938184
1002
}
  0
SPLINE
  5
17F
330
16E
100
AcDbEntity
  8
P-SANR-FIXT
100
AcDbSpline
210
0.0
220
0.0
230
1.0
 70
    24
 71
     3
 72
     8
 73
     4
 74
     0
 42
0.000000001
 43
0.0000000001
 40
0.0
 40
0.0
 40
0.0
 40
0.0
 40
0.1190122765916293
 40
0.1190122765916293
 40
0.1190122765916293
 40
0.1190122765916293
 10
803.1090390883123
 20
1733.997075844257
 30
0.0
 10
802.9730319135058
 20
1734.232647181215
 30
0.0
 10
802.8368561738707
 20
1734.468510481022
 30
0.0
 10
802.7005118694066
 20
1734.704665743676
 30
0.0
  0
SPLINE
  5
180
330
16E
100
AcDbEntity
  8
P-SANR-FIXT
100
AcDbSpline
210
0.0
220
0.0
230
1.0
 70
     8
 71
     3
 72
    10
 73
     6
 74
     0
 42
0.000000001
 43
0.0000000001
 40
0.0
 40
0.0
 40
0.0
 40
0.0
 40
0.4
 40
0.7
 40
1.0
 40
1.0
 40
1.0
 40
1.0
 10
808.7382042129114
 20
1730.747075844256
 30
0.0
 10
807.8432571034285
 20
1730.747075844256
 30
0.0
 10
806.2522783894172
 20
1731.07804668878
 30
0.0
 10
804.30642924058
 20
1732.344213816477
 30
0.0
 10
803.4453382043821
 20
1733.414588688683
 30
0.0
 10
803.1090390883123
 20
1733.997075844257
 30
0.0
  0
SPLINE
  5
181
330
16E
100
AcDbEntity
  8
P-SANR-FIXT
100
AcDbSpline
210
0.0
220
0.0
230
1.0
 70
    24
 71
     3
 72
     8
 73
     4
 74
     0
 42
0.000000001
 43
0.0000000001
 40
0.0
 40
0.0
 40
0.0
 40
0.0
 40
0.1201882122727642
 40
0.1201882122727642
 40
0.1201882122727642
 40
0.1201882122727642
 10
822.5946106734626
 20
1730.747075844256
 30
0.0
 10
822.3199086063416
 20
1730.747075844256
 30
0.0
 10
822.0448627144323
 20
1730.747075844256
 30
0.0
 10
821.7694729977342
 20
1730.747075844256
 30
0.0
  0
SPLINE
  5
182
330
16E
100
AcDbEntity
  8
P-SANR-FIXT
100
AcDbSpline
210
0.0
220
0.0
230
1.0
 70
    24
 71
     3
 72
     8
 73
     4
 74
     0
 42
0.000000001
 43
0.0000000001
 40
0.8798117877271925
 40
0.8798117877271925
 40
0.8798117877271925
 40
0.8798117877271925
 40
1.0
 40
1.0
 40
1.0
 40
1.0
 10
809.5633418886402
 20
1730.747075844256
 30
0.0
 10
809.2879521719421
 20
1730.747075844256
 30
0.0
 10
809.0129062800324
 20
1730.747075844256
 30
0.0
 10
808.7382042129114
 20
1730.747075844256
 30
0.0
  0
SPLINE
  5
183
330
16E
100
AcDbEntity
  8
P-SANR-FIXT
100
AcDbSpline
210
0.0
220
0.0
230
1.0
 70
     8
 71
     3
 72
    10
 73
     6
 74
     0
 42
0.000000001
 43
0.0000000001
 40
0.0
 40
0.0
 40
0.0
 40
0.0
 40
0.4
 40
0.7
 40
1.0
 40
1.0
 40
1.0
 40
1.0
 10
828.2237757980617
 20
1733.997075844256
 30
0.0
 10
827.7763022433202
 20
1733.2220289124
 30
0.0
 10
826.6941837270453
 20
1732.009686351448
 30
0.0
 10
824.6247262546036
 20
1730.957615120472
 30
0.0
 10
823.2672089056022
 20
1730.747075844256
 30
0.0
 10
822.5946106734626
 20
1730.747075844256
 30
0.0
  0
SPLINE
  5
184
330
16E
100
AcDbEntity
  8
P-SANR-FIXT
100
AcDbSpline
210
0.0
220
0.0
230
1.0
 70
    24
 71
     3
 72
     8
 73
     4
 74
     0
 42
0.000000001
 43
0.0000000001
 40
0.8809877234084149
 40
0.8809877234084149
 40
0.8809877234084149
 40
0.8809877234084149
 40
1.0
 40
1.0
 40
1.0
 40
1.0
 10
828.6323030169672
 20
1734.704665743675
 30
0.0
 10
828.4959587125031
 20
1734.468510481021
 30
0.0
 10
828.359782972868
 20
1734.232647181215
 30
0.0
 10
828.2237757980617
 20
1733.997075844256
 30
0.0
  0
SPLINE
  5
185
330
16E
100
AcDbEntity
  8
P-SANR-FIXT
100
AcDbSpline
210
0.0
220
0.0
230
1.0
 70
    24
 71
     3
 72
     8
 73
     4
 74
     0
 42
0.000000001
 43
0.0000000001
 40
0.0
 40
0.0
 40
0.0
 40
0.0
 40
0.1190122765911157
 40
0.1190122765911157
 40
0.1190122765911157
 40
0.1190122765911157
 10
828.223775798062
 20
1764.497075844257
 30
0.0
 10
828.3597829728678
 20
1764.2615045073
 30
0.0
 10
828.4959587125026
 20
1764.025641207494
 30
0.0
 10
828.6323030169659
 20
1763.78948594484
 30
0.0
  0
SPLINE
  5
186
330
16E
100
AcDbEntity
  8
P-SANR-FIXT
100
AcDbSpline
210
0.0
220
0.0
230
1.0
 70
     8
 71
     3
 72
    10
 73
     6
 74
     0
 42
0.000000001
 43
0.0000000001
 40
0.0
 40
0.0
 40
0.0
 40
0.0
 40
0.4
 40
0.7
 40
1.0
 40
1.0
 40
1.0
 40
1.0
 10
822.5946106734634
 20
1767.747075844257
 30
0.0
 10
823.489557782946
 20
1767.747075844257
 30
0.0
 10
825.0805364969574
 20
1767.416104999734
 30
0.0
 10
827.0263856457944
 20
1766.149937872036
 30
0.0
 10
827.8874766819924
 20
1765.07956299983
 30
0.0
 10
828.223775798062
 20
1764.497075844257
 30
0.0
  0
SPLINE
  5
187
330
16E
100
AcDbEntity
  8
P-SANR-FIXT
100
AcDbSpline
210
0.0
220
0.0
230
1.0
 70
    24
 71
     3
 72
     8
 73
     4
 74
     0
 42
0.000000001
 43
0.0000000001
 40
0.0
 40
0.0
 40
0.0
 40
0.0
 40
0.1201882122721251
 40
0.1201882122721251
 40
0.1201882122721251
 40
0.1201882122721251
 10
808.7382042129117
 20
1767.747075844257
 30
0.0
 10
809.0129062800313
 20
1767.747075844257
 30
0.0
 10
809.2879521719394
 20
1767.747075844257
 30
0.0
 10
809.5633418886359
 20
1767.747075844257
 30
0.0
  0
SPLINE
  5
188
330
16E
100
AcDbEntity
  8
P-SANR-FIXT
100
AcDbSpline
210
0.0
220
0.0
230
1.0
 70
    24
 71
     3
 72
     8
 73
     4
 74
     0
 42
0.000000001
 43
0.0000000001
 40
0.8798117877278993
 40
0.8798117877278993
 40
0.8798117877278993
 40
0.8798117877278993
 40
1.0
 40
1.0
 40
1.0
 40
1.0
 10
821.7694729977393
 20
1767.747075844257
 30
0.0
 10
822.0448627144358
 20
1767.747075844257
 30
0.0
 10
822.3199086063436
 20
1767.747075844257
 30
0.0
 10
822.5946106734634
 20
1767.747075844257
 30
0.0
  0
SPLINE
  5
189
330
16E
100
AcDbEntity
  8
P-SANR-FIXT
100
AcDbSpline
210
0.0
220
0.0
230
1.0
 70
     8
 71
     3
 72
    10
 73
     6
 74
     0
 42
0.000000001
 43
0.0000000001
 40
0.0
 40
0.0
 40
0.0
 40
0.0
 40
0.4
 40
0.7
 40
1.0
 40
1.0
 40
1.0
 40
1.0
 10
803.1090390883129
 20
1764.497075844257
 30
0.0
 10
803.5565126430542
 20
1765.272122776113
 30
0.0
 10
804.6386311593291
 20
1766.484465337066
 30
0.0
 10
806.7080886317709
 20
1767.536536568042
 30
0.0
 10
808.0656059807724
 20
1767.747075844257
 30
0.0
 10
808.7382042129117
 20
1767.747075844257
 30
0.0
  0
SPLINE
  5
18A
330
16E
100
AcDbEntity
  8
P-SANR-FIXT
100
AcDbSpline
210
0.0
220
0.0
230
1.0
 70
    24
 71
     3
 72
     8
 73
     4
 74
     0
 42
0.000000001
 43
0.0000000001
 40
0.8809877234088611
 40
0.8809877234088611
 40
0.8809877234088611
 40
0.8809877234088611
 40
1.0
 40
1.0
 40
1.0
 40
1.0
 10
802.7005118694088
 20
1763.78948594484
 30
0.0
 10
802.8368561738725
 20
1764.025641207494
 30
0.0
 10
802.9730319135071
 20
1764.2615045073
 30
0.0
 10
803.1090390883129
 20
1764.497075844257
 30
0.0
  0
LINE
  5
18B
330
16E
100
AcDbEntity
  8
P-SANR-FIXT
100
AcDbLine
 10
762.166407443193
 20
1736.247075844213
 30
0.0
 11
773.5127405322721
 21
1736.247075844213
 31
0.0
  0
LINE
  5
18C
330
16E
100
AcDbEntity
  8
P-SANR-FIXT
100
AcDbLine
 10
773.5127405322721
 20
1762.247075844188
 30
0.0
 11
762.166407443193
 21
1762.247075844188
 31
0.0
  0
LINE
  5
18D
330
16E
100
AcDbEntity
  8
P-SANR-FIXT
100
AcDbLine
 10
762.166407443193
 20
1762.697075844271
 30
0.0
 11
750.4664074431929
 21
1762.697075844271
 31
0.0
  0
LINE
  5
18E
330
16E
100
AcDbEntity
  8
P-SANR-FIXT
100
AcDbLine
 10
750.4664074431929
 20
1735.797075844246
 30
0.0
 11
762.166407443193
 21
1735.797075844246
 31
0.0
  0
LINE
  5
18F
330
16E
100
AcDbEntity
  8
P-SANR-FIXT
100
AcDbLine
 10
750.4664074431929
 20
1762.697075844271
 30
0.0
 11
750.4177153873487
 21
1762.648383788427
 31
0.0
  0
LINE
  5
190
330
16E
100
AcDbEntity
  8
P-SANR-FIXT
100
AcDbLine
 10
750.4016420169342
 20
1762.632310418012
 30
0.0
 11
749.166407443193
 21
1761.397075844271
 31
0.0
  0
LINE
  5
191
330
16E
100
AcDbEntity
  8
P-SANR-FIXT
100
AcDbLine
 10
749.166407443193
 20
1737.097075844246
 30
0.0
 11
750.4664074431929
 21
1735.797075844246
 31
0.0
  0
LINE
  5
192
330
16E
100
AcDbEntity
  8
P-SANR-FIXT
100
AcDbLine
 10
882.1664074431847
 20
1761.397075844269
 30
0.0
 11
880.9311728694403
 21
1762.632310418013
 31
0.0
  0
LINE
  5
193
330
16E
100
AcDbEntity
  8
P-SANR-FIXT
100
AcDbLine
 10
880.9150994990256
 20
1762.648383788428
 30
0.0
 11
880.8664074431845
 21
1762.697075844269
 31
0.0
  0
LINE
  5
194
330
16E
100
AcDbEntity
  8
P-SANR-FIXT
100
AcDbLine
 10
880.8664074431845
 20
1735.797075844247
 30
0.0
 11
880.9150994990254
 21
1735.845767900088
 31
0.0
  0
LINE
  5
195
330
16E
100
AcDbEntity
  8
P-SANR-FIXT
100
AcDbLine
 10
880.9311728694403
 20
1735.861841270503
 30
0.0
 11
882.1664074431843
 21
1737.097075844247
 31
0.0
  0
LINE
  5
196
330
16E
100
AcDbEntity
  8
P-SANR-FIXT
100
AcDbLine
 10
880.8664074431845
 20
1762.697075844272
 30
0.0
 11
869.1664074431844
 21
1762.697075844272
 31
0.0
  0
LINE
  5
197
330
16E
100
AcDbEntity
  8
P-SANR-FIXT
100
AcDbLine
 10
869.1664074431844
 20
1735.797075844244
 30
0.0
 11
880.8664074431845
 21
1735.797075844244
 31
0.0
  0
LINE
  5
198
330
16E
100
AcDbEntity
  8
P-SANR-FIXT
100
AcDbLine
 10
857.8200743541055
 20
1736.247075844212
 30
0.0
 11
869.1664074431844
 21
1736.247075844212
 31
0.0
  0
LINE
  5
199
330
16E
100
AcDbEntity
  8
P-SANR-FIXT
100
AcDbLine
 10
869.1664074431844
 20
1762.247075844187
 30
0.0
 11
857.8200743541055
 21
1762.247075844187
 31
0.0
  0
LINE
  5
19A
330
16E
100
AcDbEntity
  8
P-SANR-FIXT
100
AcDbLine
 10
762.1664074431913
 20
1736.354770998804
 30
0.0
 11
773.5127405322708
 21
1736.354770998804
 31
0.0
  0
LINE
  5
19B
330
16E
100
AcDbEntity
  8
P-SANR-FIXT
100
AcDbLine
 10
762.1664074431913
 20
1762.139380689595
 30
0.0
 11
773.5127405322708
 21
1762.139380689595
 31
0.0
  0
LINE
  5
19C
330
16E
100
AcDbEntity
  8
P-SANR-FIXT
100
AcDbLine
 10
762.1664074431913
 20
1757.139380689636
 30
0.0
 11
773.5127405322708
 21
1757.139380689636
 31
0.0
  0
LINE
  5
19D
330
16E
100
AcDbEntity
  8
P-SANR-FIXT
100
AcDbLine
 10
762.1664074431913
 20
1754.247075844158
 30
0.0
 11
773.5127405322708
 21
1754.247075844158
 31
0.0
  0
LINE
  5
19E
330
16E
100
AcDbEntity
  8
P-SANR-FIXT
100
AcDbLine
 10
762.1664074431913
 20
1744.247075844241
 30
0.0
 11
773.5127405322708
 21
1744.247075844241
 31
0.0
  0
LINE
  5
19F
330
16E
100
AcDbEntity
  8
P-SANR-FIXT
100
AcDbLine
 10
773.5127405322708
 20
1741.354770998762
 30
0.0
 11
762.1664074431913
 21
1741.354770998762
 31
0.0
  0
LINE
  5
1A0
330
16E
100
AcDbEntity
  8
P-SANR-FIXT
100
AcDbLine
 10
749.1664074431915
 20
1749.247075844258
 30
0.0
 11
749.1664074431915
 21
1761.39707584427
 31
0.0
  0
LINE
  5
1A1
330
16E
100
AcDbEntity
  8
P-SANR-FIXT
100
AcDbLine
 10
749.1664074431915
 20
1737.097075844245
 30
0.0
 11
749.1664074431915
 21
1749.247075844258
 31
0.0
  0
LINE
  5
1A2
330
16E
100
AcDbEntity
  8
P-SANR-FIXT
100
AcDbLine
 10
762.1664074431915
 20
1762.69707584427
 30
0.0
 11
762.1664074431915
 21
1749.247075844258
 31
0.0
  0
LINE
  5
1A3
330
16E
100
AcDbEntity
  8
P-SANR-FIXT
100
AcDbLine
 10
762.1664074431915
 20
1749.247075844258
 30
0.0
 11
762.1664074431915
 21
1735.797075844245
 31
0.0
  0
LINE
  5
1A4
330
16E
100
AcDbEntity
  8
P-SANR-FIXT
100
AcDbLine
 10
750.4664074431915
 20
1762.69707584427
 30
0.0
 11
750.4664074431915
 21
1749.247075844258
 31
0.0
  0
LINE
  5
1A5
330
16E
100
AcDbEntity
  8
P-SANR-FIXT
100
AcDbLine
 10
750.4664074431915
 20
1749.247075844258
 30
0.0
 11
750.4664074431915
 21
1735.797075844245
 31
0.0
  0
LINE
  5
1A6
330
16E
100
AcDbEntity
  8
P-SANR-FIXT
100
AcDbLine
 10
882.1664074431829
 20
1749.247075844257
 30
0.0
 11
882.1664074431829
 21
1761.397075844268
 31
0.0
  0
LINE
  5
1A7
330
16E
100
AcDbEntity
  8
P-SANR-FIXT
100
AcDbLine
 10
882.1664074431829
 20
1737.097075844246
 30
0.0
 11
882.1664074431829
 21
1749.247075844257
 31
0.0
  0
LINE
  5
1A8
330
16E
100
AcDbEntity
  8
P-SANR-FIXT
100
AcDbLine
 10
880.8664074431829
 20
1762.697075844271
 30
0.0
 11
880.8664074431829
 21
1749.247075844257
 31
0.0
  0
LINE
  5
1A9
330
16E
100
AcDbEntity
  8
P-SANR-FIXT
100
AcDbLine
 10
880.8664074431829
 20
1749.247075844257
 30
0.0
 11
880.8664074431829
 21
1735.797075844243
 31
0.0
  0
LINE
  5
1AA
330
16E
100
AcDbEntity
  8
P-SANR-FIXT
100
AcDbLine
 10
869.166407443183
 20
1762.697075844271
 30
0.0
 11
869.166407443183
 21
1749.247075844257
 31
0.0
  0
LINE
  5
1AB
330
16E
100
AcDbEntity
  8
P-SANR-FIXT
100
AcDbLine
 10
869.166407443183
 20
1749.247075844257
 30
0.0
 11
869.166407443183
 21
1735.797075844243
 31
0.0
  0
LINE
  5
1AC
330
16E
100
AcDbEntity
  8
P-SANR-FIXT
100
AcDbLine
 10
869.1664074431836
 20
1741.354770998762
 30
0.0
 11
857.8200743541041
 21
1741.354770998762
 31
0.0
  0
LINE
  5
1AD
330
16E
100
AcDbEntity
  8
P-SANR-FIXT
100
AcDbLine
 10
857.8200743541041
 20
1736.354770998803
 30
0.0
 11
869.1664074431836
 21
1736.354770998803
 31
0.0
  0
LINE
  5
1AE
330
16E
100
AcDbEntity
  8
P-SANR-FIXT
100
AcDbLine
 10
857.8200743541041
 20
1762.139380689594
 30
0.0
 11
869.1664074431836
 21
1762.139380689594
 31
0.0
  0
LINE
  5
1AF
330
16E
100
AcDbEntity
  8
P-SANR-FIXT
100
AcDbLine
 10
857.8200743541041
 20
1757.139380689636
 30
0.0
 11
869.1664074431836
 21
1757.139380689636
 31
0.0
  0
LINE
  5
1B0
330
16E
100
AcDbEntity
  8
P-SANR-FIXT
100
AcDbLine
 10
857.8200743541041
 20
1754.247075844157
 30
0.0
 11
869.1664074431836
 21
1754.247075844157
 31
0.0
  0
LINE
  5
1B1
330
16E
100
AcDbEntity
  8
P-SANR-FIXT
100
AcDbLine
 10
857.8200743541041
 20
1744.24707584424
 30
0.0
 11
869.1664074431836
 21
1744.24707584424
 31
0.0
  0
LINE
  5
1B2
330
16E
100
AcDbEntity
  8
P-SANR-FIXT
100
AcDbLine
 10
775.5848152729018
 20
1730.747075844208
 30
0.0
 11
788.7796352492146
 21
1730.747075844208
 31
0.0
  0
LINE
  5
1B3
330
16E
100
AcDbEntity
  8
P-SANR-FIXT
100
AcDbLine
 10
788.779635249278
 20
1767.747075844192
 30
0.0
 11
775.584815272839
 21
1767.747075844192
 31
0.0
  0
LINE
  5
1B4
330
16E
100
AcDbEntity
  8
P-SANR-FIXT
100
AcDbLine
 10
774.860485220304
 20
1767.747245656897
 30
0.0
 11
773.5127405322723
 21
1765.412883381594
 31
0.0
  0
LINE
  5
1B5
330
16E
100
AcDbEntity
  8
P-SANR-FIXT
100
AcDbLine
 10
773.512740532272
 20
1733.081268306922
 30
0.0
 11
774.8604852203712
 21
1730.746906031504
 31
0.0
  0
LINE
  5
1B6
330
16E
100
AcDbEntity
  8
P-SANR-FIXT
100
AcDbLine
 10
789.5127405322723
 20
1767.732046511893
 30
0.0
 11
789.503965301813
 21
1767.747245656897
 31
0.0
  0
LINE
  5
1B7
330
16E
100
AcDbEntity
  8
P-SANR-FIXT
100
AcDbLine
 10
789.5039653017452
 20
1730.746906031503
 30
0.0
 11
789.5127405322719
 21
1730.762105176624
 31
0.0
  0
LINE
  5
1B8
330
16E
100
AcDbEntity
  8
P-SANR-FIXT
100
AcDbLine
 10
773.5127405322708
 20
1749.247075844258
 30
0.0
 11
773.5127405322709
 21
1765.412883381594
 31
0.0
  0
LINE
  5
1B9
330
16E
100
AcDbEntity
  8
P-SANR-FIXT
100
AcDbLine
 10
773.5127405322706
 20
1733.081268306922
 30
0.0
 11
773.5127405322708
 21
1749.247075844257
 31
0.0
  0
LINE
  5
1BA
330
16E
100
AcDbEntity
  8
P-SANR-FIXT
100
AcDbLine
 10
789.512740532271
 20
1767.661705617736
 30
0.0
 11
789.512740532271
 21
1767.69246877076
 31
0.0
  0
LINE
  5
1BB
330
16E
100
AcDbEntity
  8
P-SANR-FIXT
100
AcDbLine
 10
789.512740532271
 20
1767.69246877076
 30
0.0
 11
789.5127405322709
 21
1749.247075844258
 31
0.0
  0
LINE
  5
1BC
330
16E
100
AcDbEntity
  8
P-SANR-FIXT
100
AcDbLine
 10
789.5127405322709
 20
1749.247075844257
 30
0.0
 11
789.5127405322706
 21
1730.762105176623
 31
0.0
  0
SPLINE
  5
1BD
330
16E
100
AcDbEntity
  8
P-SANR-FIXT
100
AcDbSpline
210
0.0
220
0.0
230
1.0
 70
     8
 71
     3
 72
    10
 73
     6
 74
     0
 42
0.000000001
 43
0.0000000001
 40
0.0
 40
0.0
 40
0.0
 40
0.0
 40
0.4
 40
0.7
 40
1.0
 40
1.0
 40
1.0
 40
1.0
 10
788.7796352492132
 20
1730.747075844207
 30
0.0
 10
788.5966345292751
 20
1730.747075844207
 30
0.0
 10
788.3989986643594
 20
1731.078642647692
 30
0.0
 10
788.4477419923615
 20
1732.345619321952
 30
0.0
 10
788.6425897803292
 20
1733.415790645316
 30
0.0
 10
788.7796352492173
 20
1733.997075844207
 30
0.0
  0
SPLINE
  5
1BE
330
16E
100
AcDbEntity
  8
P-SANR-FIXT
100
AcDbSpline
210
0.0
220
0.0
230
1.0
 70
     8
 71
     3
 72
    10
 73
     6
 74
     0
 42
0.000000001
 43
0.0000000001
 40
0.0
 40
0.0
 40
0.0
 40
0.0
 40
0.4
 40
0.7
 40
1.0
 40
1.0
 40
1.0
 40
1.0
 10
775.5848152728963
 20
1733.997075844207
 30
0.0
 10
775.7675425647469
 20
1733.222028912352
 30
0.0
 10
775.965333698631
 20
1732.0096863514
 30
0.0
 10
775.9169323116976
 20
1730.957615120423
 30
0.0
 10
775.7220658128541
 20
1730.747075844207
 30
0.0
 10
775.5848152729003
 20
1730.747075844207
 30
0.0
  0
SPLINE
  5
1BF
330
16E
100
AcDbEntity
  8
P-SANR-FIXT
100
AcDbSpline
210
0.0
220
0.0
230
1.0
 70
    24
 71
     3
 72
     8
 73
     4
 74
     0
 42
0.000000001
 43
0.0000000001
 40
0.0
 40
0.0
 40
0.0
 40
0.0
 40
0.5
 40
0.5
 40
0.5
 40
0.5
 10
775.5848152729003
 20
1730.747075844207
 30
0.0
 10
775.1018949971075
 20
1730.747075844207
 30
0.0
 10
774.8604348592107
 20
1730.747075844207
 30
0.0
 10
774.86043485921
 20
1730.747075844207
 30
0.0
  0
SPLINE
  5
1C0
330
16E
100
AcDbEntity
  8
P-SANR-FIXT
100
AcDbSpline
210
0.0
220
0.0
230
1.0
 70
    24
 71
     3
 72
     9
 73
     5
 74
     0
 42
0.000000001
 43
0.0000000001
 40
0.4236739221064859
 40
0.4236739221064859
 40
0.4236739221064859
 40
0.4236739221064859
 40
0.5
 40
1.0
 40
1.0
 40
1.0
 40
1.0
 10
789.4871356574427
 20
1730.747075844207
 30
0.0
 10
789.4983889944166
 20
1730.747075844207
 30
0.0
 10
789.5408750734895
 20
1730.747075844207
 30
0.0
 10
789.2625555250063
 20
1730.747075844207
 30
0.0
 10
788.7796352492132
 20
1730.747075844207
 30
0.0
  0
SPLINE
  5
1C1
330
16E
100
AcDbEntity
  8
P-SANR-FIXT
100
AcDbSpline
210
0.0
220
0.0
230
1.0
 70
     8
 71
     3
 72
     8
 73
     4
 74
     0
 42
0.000000001
 43
0.0000000001
 40
0.5
 40
0.5
 40
0.5
 40
0.5
 40
0.5082712873432593
 40
0.5082712873432593
 40
0.5082712873432593
 40
0.5082712873432593
 10
789.5040156629589
 20
1758.544947842727
 30
0.0
 10
789.5040156629587
 20
1758.511862693353
 30
0.0
 10
789.5038196175232
 20
1758.478764587961
 30
0.0
 10
789.5034339766801
 20
1758.445653952811
 30
0.0
  0
SPLINE
  5
1C2
330
16E
100
AcDbEntity
  8
P-SANR-FIXT
100
AcDbSpline
210
0.0
220
0.0
230
1.0
 70
    24
 71
     3
 72
     9
 73
     5
 74
     0
 42
0.000000001
 43
0.0000000001
 40
0.4958309748403508
 40
0.4958309748403508
 40
0.4958309748403508
 40
0.4958309748403508
 40
0.5
 40
1.0
 40
1.0
 40
1.0
 40
1.0
 10
774.8604852203026
 20
1767.747075844191
 30
0.0
 10
774.8604516461962
 20
1767.747075844191
 30
0.0
 10
774.858421552363
 20
1767.747075844191
 30
0.0
 10
775.1018949971071
 20
1767.747075844191
 30
0.0
 10
775.5848152728376
 20
1767.747075844191
 30
0.0
  0
SPLINE
  5
1C3
330
16E
100
AcDbEntity
  8
P-SANR-FIXT
100
AcDbSpline
210
0.0
220
0.0
230
1.0
 70
    24
 71
     3
 72
     9
 73
     5
 74
     0
 42
0.000000001
 43
0.0000000001
 40
0.0
 40
0.0
 40
0.0
 40
0.0
 40
0.5
 40
0.5706340966713427
 40
0.5706340966713427
 40
0.5706340966713427
 40
0.5706340966713427
 10
788.7796352492765
 20
1767.747075844191
 30
0.0
 10
789.2625555250723
 20
1767.747075844191
 30
0.0
 10
789.5381263004158
 20
1767.747075844191
 30
0.0
 10
789.4991969148458
 20
1767.747075844191
 30
0.0
 10
789.4895594185945
 20
1767.747075844191
 30
0.0
  0
SPLINE
  5
1C4
330
16E
100
AcDbEntity
  8
P-SANR-FIXT
100
AcDbSpline
210
0.0
220
0.0
230
1.0
 70
     8
 71
     3
 72
    10
 73
     6
 74
     0
 42
0.000000001
 43
0.0000000001
 40
0.0
 40
0.0
 40
0.0
 40
0.0
 40
0.4
 40
0.7
 40
1.0
 40
1.0
 40
1.0
 40
1.0
 10
775.5848152728376
 20
1767.747075844191
 30
0.0
 10
775.7678159927767
 20
1767.747075844191
 30
0.0
 10
775.9654518576945
 20
1767.415509040707
 30
0.0
 10
775.9167085296962
 20
1766.148532366447
 30
0.0
 10
775.7218607417312
 20
1765.078361043083
 30
0.0
 10
775.5848152728445
 20
1764.497075844191
 30
0.0
  0
SPLINE
  5
1C5
330
16E
100
AcDbEntity
  8
P-SANR-FIXT
100
AcDbSpline
210
0.0
220
0.0
230
1.0
 70
     8
 71
     3
 72
    10
 73
     6
 74
     0
 42
0.000000001
 43
0.0000000001
 40
0.0
 40
0.0
 40
0.0
 40
0.0
 40
0.4
 40
0.7
 40
1.0
 40
1.0
 40
1.0
 40
1.0
 10
788.7796352492695
 20
1764.497075844191
 30
0.0
 10
788.5969079574206
 20
1765.272122776047
 30
0.0
 10
788.3991168235399
 20
1766.484465337
 30
0.0
 10
788.4475182104769
 20
1767.536536567975
 30
0.0
 10
788.6423847093221
 20
1767.747075844191
 30
0.0
 10
788.7796352492765
 20
1767.747075844191
 30
0.0
  0
SPLINE
  5
1C6
330
16E
100
AcDbEntity
  8
P-SANR-FIXT
100
AcDbSpline
210
0.0
220
0.0
230
1.0
 70
     8
 71
     3
 72
     9
 73
     5
 74
     0
 42
0.000000001
 43
0.0000000001
 40
0.0
 40
0.0
 40
0.0
 40
0.0
 40
0.5
 40
1.0
 40
1.0
 40
1.0
 40
1.0
 10
775.5848152728446
 20
1764.497075844191
 30
0.0
 10
775.1018949970537
 20
1762.465161178504
 30
0.0
 10
774.6189747212671
 20
1758.433246512819
 30
0.0
 10
775.1018949970687
 20
1754.46516117851
 30
0.0
 10
775.5848152728666
 20
1752.497075844199
 30
0.0
  0
SPLINE
  5
1C7
330
16E
100
AcDbEntity
  8
P-SANR-FIXT
100
AcDbSpline
210
0.0
220
0.0
230
1.0
 70
     8
 71
     3
 72
     9
 73
     5
 74
     0
 42
0.000000001
 43
0.0000000001
 40
0.0
 40
0.0
 40
0.0
 40
0.0
 40
0.5
 40
1.0
 40
1.0
 40
1.0
 40
1.0
 10
788.7796352492472
 20
1752.497075844199
 30
0.0
 10
789.2625555250451
 20
1754.46516117851
 30
0.0
 10
789.7454758008467
 20
1758.433246512819
 30
0.0
 10
789.2625555250599
 20
1762.465161178504
 30
0.0
 10
788.7796352492695
 20
1764.497075844191
 30
0.0
  0
SPLINE
  5
1C8
330
16E
100
AcDbEntity
  8
P-SANR-FIXT
100
AcDbSpline
210
0.0
220
0.0
230
1.0
 70
     8
 71
     3
 72
     9
 73
     5
 74
     0
 42
0.000000001
 43
0.0000000001
 40
0.0
 40
0.0
 40
0.0
 40
0.0
 40
0.5
 40
1.0
 40
1.0
 40
1.0
 40
1.0
 10
775.5848152728666
 20
1752.497075844199
 30
0.0
 10
775.6995992239841
 20
1752.011367537319
 30
0.0
 10
775.8722779543995
 20
1750.961266204986
 30
0.0
 10
775.9311783411759
 20
1749.820692214584
 30
0.0
 10
775.9321839486544
 20
1749.247075844258
 30
0.0
  0
SPLINE
  5
1C9
330
16E
100
AcDbEntity
  8
P-SANR-FIXT
100
AcDbSpline
210
0.0
220
0.0
230
1.0
 70
     8
 71
     3
 72
     9
 73
     5
 74
     0
 42
0.000000001
 43
0.0000000001
 40
0.0
 40
0.0
 40
0.0
 40
0.0
 40
0.5
 40
1.0
 40
1.0
 40
1.0
 40
1.0
 10
775.9321839486544
 20
1749.247075844258
 30
0.0
 10
775.9311783411817
 20
1748.673459473911
 30
0.0
 10
775.8722779544131
 20
1747.532885483468
 30
0.0
 10
775.6995992239973
 20
1746.482784151096
 30
0.0
 10
775.5848152728778
 20
1745.997075844199
 30
0.0
  0
SPLINE
  5
1CA
330
16E
100
AcDbEntity
  8
P-SANR-FIXT
100
AcDbSpline
210
0.0
220
0.0
230
1.0
 70
     8
 71
     3
 72
     9
 73
     5
 74
     0
 42
0.000000001
 43
0.0000000001
 40
0.0
 40
0.0
 40
0.0
 40
0.0
 40
0.5
 40
1.0
 40
1.0
 40
1.0
 40
1.0
 10
788.7796352492361
 20
1745.997075844199
 30
0.0
 10
788.6648512981166
 20
1746.482784151096
 30
0.0
 10
788.4921725677007
 20
1747.532885483468
 30
0.0
 10
788.4332721809321
 20
1748.673459473911
 30
0.0
 10
788.4322665734595
 20
1749.247075844258
 30
0.0
  0
SPLINE
  5
1CB
330
16E
100
AcDbEntity
  8
P-SANR-FIXT
100
AcDbSpline
210
0.0
220
0.0
230
1.0
 70
     8
 71
     3
 72
     9
 73
     5
 74
     0
 42
0.000000001
 43
0.0000000001
 40
0.0
 40
0.0
 40
0.0
 40
0.0
 40
0.5
 40
1.0
 40
1.0
 40
1.0
 40
1.0
 10
788.4322665734595
 20
1749.247075844258
 30
0.0
 10
788.4332721809379
 20
1749.820692214584
 30
0.0
 10
788.4921725677145
 20
1750.961266204986
 30
0.0
 10
788.6648512981297
 20
1752.011367537318
 30
0.0
 10
788.7796352492472
 20
1752.497075844199
 30
0.0
  0
SPLINE
  5
1CC
330
16E
100
AcDbEntity
  8
P-SANR-FIXT
100
AcDbSpline
210
0.0
220
0.0
230
1.0
 70
     8
 71
     3
 72
     9
 73
     5
 74
     0
 42
0.000000001
 43
0.0000000001
 40
0.0
 40
0.0
 40
0.0
 40
0.0
 40
0.5
 40
1.0
 40
1.0
 40
1.0
 40
1.0
 10
775.5848152728778
 20
1745.997075844199
 30
0.0
 10
775.101894997088
 20
1743.965161178512
 30
0.0
 10
774.6189747213015
 20
1739.933246512827
 30
0.0
 10
775.1018949971006
 20
1735.965161178518
 30
0.0
 10
775.5848152728963
 20
1733.997075844207
 30
0.0
  0
SPLINE
  5
1CD
330
16E
100
AcDbEntity
  8
P-SANR-FIXT
100
AcDbSpline
210
0.0
220
0.0
230
1.0
 70
     8
 71
     3
 72
     9
 73
     5
 74
     0
 42
0.000000001
 43
0.0000000001
 40
0.0
 40
0.0
 40
0.0
 40
0.0
 40
0.5
 40
1.0
 40
1.0
 40
1.0
 40
1.0
 10
788.7796352492173
 20
1733.997075844207
 30
0.0
 10
789.2625555250133
 20
1735.965161178518
 30
0.0
 10
789.7454758008124
 20
1739.933246512826
 30
0.0
 10
789.2625555250258
 20
1743.965161178512
 30
0.0
 10
788.7796352492361
 20
1745.997075844199
 30
0.0
  0
LINE
  5
1CE
330
16E
100
AcDbEntity
  8
P-SANR-FIXT
100
AcDbLine
 10
842.5531796371627
 20
1730.747075844208
 30
0.0
 11
855.7479996134755
 21
1730.747075844208
 31
0.0
  0
LINE
  5
1CF
330
16E
100
AcDbEntity
  8
P-SANR-FIXT
100
AcDbLine
 10
855.747999613539
 20
1767.747075844192
 30
0.0
 11
842.5531796371
 21
1767.747075844192
 31
0.0
  0
LINE
  5
1D0
330
16E
100
AcDbEntity
  8
P-SANR-FIXT
100
AcDbLine
 10
857.8200743541056
 20
1765.412883381594
 30
0.0
 11
856.4723296660739
 21
1767.747245656896
 31
0.0
  0
LINE
  5
1D1
330
16E
100
AcDbEntity
  8
P-SANR-FIXT
100
AcDbLine
 10
856.4723296660062
 20
1730.746906031503
 30
0.0
 11
857.8200743541053
 21
1733.081268306922
 31
0.0
  0
LINE
  5
1D2
330
16E
100
AcDbEntity
  8
P-SANR-FIXT
100
AcDbLine
 10
841.8288495845649
 20
1767.747245656897
 30
0.0
 11
841.8200743541056
 21
1767.732046511893
 31
0.0
  0
LINE
  5
1D3
330
16E
100
AcDbEntity
  8
P-SANR-FIXT
100
AcDbLine
 10
841.8200743541053
 20
1730.762105176624
 30
0.0
 11
841.8288495846322
 21
1730.746906031503
 31
0.0
  0
LINE
  5
1D4
330
16E
100
AcDbEntity
  8
P-SANR-FIXT
100
AcDbLine
 10
857.8200743541041
 20
1765.412883381593
 30
0.0
 11
857.8200743541041
 21
1749.247075844257
 31
0.0
  0
LINE
  5
1D5
330
16E
100
AcDbEntity
  8
P-SANR-FIXT
100
AcDbLine
 10
857.8200743541041
 20
1749.247075844257
 30
0.0
 11
857.8200743541039
 21
1733.081268306921
 31
0.0
  0
LINE
  5
1D6
330
16E
100
AcDbEntity
  8
P-SANR-FIXT
100
AcDbLine
 10
841.820074354104
 20
1749.247075844257
 30
0.0
 11
841.820074354104
 21
1767.69246877076
 31
0.0
  0
LINE
  5
1D7
330
16E
100
AcDbEntity
  8
P-SANR-FIXT
100
AcDbLine
 10
841.820074354104
 20
1767.69246877076
 30
0.0
 11
841.820074354104
 21
1767.661705617736
 31
0.0
  0
LINE
  5
1D8
330
16E
100
AcDbEntity
  8
P-SANR-FIXT
100
AcDbLine
 10
841.8200743541039
 20
1730.762105176623
 30
0.0
 11
841.820074354104
 21
1749.247075844257
 31
0.0
  0
SPLINE
  5
1D9
330
16E
100
AcDbEntity
  8
P-SANR-FIXT
100
AcDbSpline
210
0.0
220
0.0
230
1.0
 70
     8
 71
     3
 72
    10
 73
     6
 74
     0
 42
0.000000001
 43
0.0000000001
 40
0.0
 40
0.0
 40
0.0
 40
0.0
 40
0.4
 40
0.7
 40
1.0
 40
1.0
 40
1.0
 40
1.0
 10
842.5531796371572
 20
1733.997075844207
 30
0.0
 10
842.7361803570965
 20
1733.220426303442
 30
0.0
 10
842.933816222014
 20
1732.008813644832
 30
0.0
 10
842.8850728940147
 20
1730.95688946469
 30
0.0
 10
842.6902251060486
 20
1730.747075844207
 30
0.0
 10
842.5531796371613
 20
1730.747075844207
 30
0.0
  0
SPLINE
  5
1DA
330
16E
100
AcDbEntity
  8
P-SANR-FIXT
100
AcDbSpline
210
0.0
220
0.0
230
1.0
 70
     8
 71
     3
 72
    10
 73
     6
 74
     0
 42
0.000000001
 43
0.0000000001
 40
0.0
 40
0.0
 40
0.0
 40
0.0
 40
0.4
 40
0.7
 40
1.0
 40
1.0
 40
1.0
 40
1.0
 10
855.7479996134741
 20
1730.747075844207
 30
0.0
 10
855.5652723216244
 20
1730.747075844207
 30
0.0
 10
855.3674811877426
 20
1731.07804668873
 30
0.0
 10
855.4158825746785
 20
1732.344213816428
 30
0.0
 10
855.6107490735238
 20
1733.414588688634
 30
0.0
 10
855.7479996134782
 20
1733.997075844207
 30
0.0
  0
SPLINE
  5
1DB
330
16E
100
AcDbEntity
  8
P-SANR-FIXT
100
AcDbSpline
210
0.0
220
0.0
230
1.0
 70
    24
 71
     3
 72
     9
 73
     5
 74
     0
 42
0.000000001
 43
0.0000000001
 40
0.0
 40
0.0
 40
0.0
 40
0.0
 40
0.5
 40
0.576326077893514
 40
0.576326077893514
 40
0.576326077893514
 40
0.576326077893514
 10
842.5531796371613
 20
1730.747075844207
 30
0.0
 10
842.0702593613683
 20
1730.747075844207
 30
0.0
 10
841.791939812885
 20
1730.747075844207
 30
0.0
 10
841.834425891958
 20
1730.747075844207
 30
0.0
 10
841.8456792289319
 20
1730.747075844207
 30
0.0
  0
SPLINE
  5
1DC
330
16E
100
AcDbEntity
  8
P-SANR-FIXT
100
AcDbSpline
210
0.0
220
0.0
230
1.0
 70
    24
 71
     3
 72
     8
 73
     4
 74
     0
 42
0.000000001
 43
0.0000000001
 40
0.5
 40
0.5
 40
0.5
 40
0.5
 40
1.0
 40
1.0
 40
1.0
 40
1.0
 10
856.4723800271643
 20
1730.747075844207
 30
0.0
 10
856.4723800271639
 20
1730.747075844207
 30
0.0
 10
856.2309198892672
 20
1730.747075844207
 30
0.0
 10
855.7479996134741
 20
1730.747075844207
 30
0.0
  0
SPLINE
  5
1DD
330
16E
100
AcDbEntity
  8
P-SANR-FIXT
100
AcDbSpline
210
0.0
220
0.0
230
1.0
 70
     8
 71
     3
 72
     8
 73
     4
 74
     0
 42
0.000000001
 43
0.0000000001
 40
0.491728712656748
 40
0.491728712656748
 40
0.491728712656748
 40
0.491728712656748
 40
0.5
 40
0.5
 40
0.5
 40
0.5
 10
841.8289974550257
 20
1758.445679294111
 30
0.0
 10
841.8288653006193
 20
1758.478773177148
 30
0.0
 10
841.8287342215117
 20
1758.511866989123
 30
0.0
 10
841.828799223416
 20
1758.544947842727
 30
0.0
  0
SPLINE
  5
1DE
330
16E
100
AcDbEntity
  8
P-SANR-FIXT
100
AcDbSpline
210
0.0
220
0.0
230
1.0
 70
    24
 71
     3
 72
     9
 73
     5
 74
     0
 42
0.000000001
 43
0.0000000001
 40
0.4293659033286572
 40
0.4293659033286572
 40
0.4293659033286572
 40
0.4293659033286572
 40
0.5
 40
1.0
 40
1.0
 40
1.0
 40
1.0
 10
841.8432554677803
 20
1767.747075844191
 30
0.0
 10
841.8336179715293
 20
1767.747075844191
 30
0.0
 10
841.7946885859592
 20
1767.747075844191
 30
0.0
 10
842.0702593613029
 20
1767.747075844191
 30
0.0
 10
842.5531796370986
 20
1767.747075844191
 30
0.0
  0
SPLINE
  5
1DF
330
16E
100
AcDbEntity
  8
P-SANR-FIXT
100
AcDbSpline
210
0.0
220
0.0
230
1.0
 70
    24
 71
     3
 72
     9
 73
     5
 74
     0
 42
0.000000001
 43
0.0000000001
 40
0.0
 40
0.0
 40
0.0
 40
0.0
 40
0.5
 40
0.50416902515965
 40
0.50416902515965
 40
0.50416902515965
 40
0.50416902515965
 10
855.7479996135374
 20
1767.74707584419
 30
0.0
 10
856.2309198893332
 20
1767.74707584419
 30
0.0
 10
856.4743933340109
 20
1767.74707584419
 30
0.0
 10
856.4723632401788
 20
1767.74707584419
 30
0.0
 10
856.4723296660725
 20
1767.74707584419
 30
0.0
  0
SPLINE
  5
1E0
330
16E
100
AcDbEntity
  8
P-SANR-FIXT
100
AcDbSpline
210
0.0
220
0.0
230
1.0
 70
     8
 71
     3
 72
    10
 73
     6
 74
     0
 42
0.000000001
 43
0.0000000001
 40
0.0
 40
0.0
 40
0.0
 40
0.0
 40
0.4
 40
0.7
 40
1.0
 40
1.0
 40
1.0
 40
1.0
 10
842.5531796370986
 20
1767.747075844191
 30
0.0
 10
842.7361803570375
 20
1767.74707584419
 30
0.0
 10
842.9338162219552
 20
1767.415509040706
 30
0.0
 10
842.8850728939572
 20
1766.148532366447
 30
0.0
 10
842.6902251059923
 20
1765.078361043083
 30
0.0
 10
842.5531796371055
 20
1764.497075844191
 30
0.0
  0
SPLINE
  5
1E1
330
16E
100
AcDbEntity
  8
P-SANR-FIXT
100
AcDbSpline
210
0.0
220
0.0
230
1.0
 70
     8
 71
     3
 72
    10
 73
     6
 74
     0
 42
0.000000001
 43
0.0000000001
 40
0.0
 40
0.0
 40
0.0
 40
0.0
 40
0.4
 40
0.7
 40
1.0
 40
1.0
 40
1.0
 40
1.0
 10
855.7479996135304
 20
1764.497075844191
 30
0.0
 10
855.5652723216816
 20
1765.272122776046
 30
0.0
 10
855.3674811878009
 20
1766.484465336999
 30
0.0
 10
855.4158825747379
 20
1767.536536567975
 30
0.0
 10
855.6107490735833
 20
1767.74707584419
 30
0.0
 10
855.7479996135374
 20
1767.74707584419
 30
0.0
  0
SPLINE
  5
1E2
330
16E
100
AcDbEntity
  8
P-SANR-FIXT
100
AcDbSpline
210
0.0
220
0.0
230
1.0
 70
     8
 71
     3
 72
     9
 73
     5
 74
     0
 42
0.000000001
 43
0.0000000001
 40
0.0
 40
0.0
 40
0.0
 40
0.0
 40
0.5
 40
1.0
 40
1.0
 40
1.0
 40
1.0
 10
842.5531796371055
 20
1764.497075844191
 30
0.0
 10
842.070259361315
 20
1762.465161178504
 30
0.0
 10
841.587339085528
 20
1758.433246512819
 30
0.0
 10
842.0702593613297
 20
1754.46516117851
 30
0.0
 10
842.5531796371275
 20
1752.497075844199
 30
0.0
  0
SPLINE
  5
1E3
330
16E
100
AcDbEntity
  8
P-SANR-FIXT
100
AcDbSpline
210
0.0
220
0.0
230
1.0
 70
     8
 71
     3
 72
     9
 73
     5
 74
     0
 42
0.000000001
 43
0.0000000001
 40
0.0
 40
0.0
 40
0.0
 40
0.0
 40
0.5
 40
1.0
 40
1.0
 40
1.0
 40
1.0
 10
855.747999613508
 20
1752.497075844199
 30
0.0
 10
856.2309198893061
 20
1754.465161178509
 30
0.0
 10
856.7138401651076
 20
1758.433246512819
 30
0.0
 10
856.230919889321
 20
1762.465161178504
 30
0.0
 10
855.7479996135304
 20
1764.497075844191
 30
0.0
  0
SPLINE
  5
1E4
330
16E
100
AcDbEntity
  8
P-SANR-FIXT
100
AcDbSpline
210
0.0
220
0.0
230
1.0
 70
     8
 71
     3
 72
     9
 73
     5
 74
     0
 42
0.000000001
 43
0.0000000001
 40
0.0
 40
0.0
 40
0.0
 40
0.0
 40
0.5
 40
1.0
 40
1.0
 40
1.0
 40
1.0
 10
842.5531796371275
 20
1752.497075844199
 30
0.0
 10
842.667963588245
 20
1752.011367537318
 30
0.0
 10
842.8406423186602
 20
1750.961266204985
 30
0.0
 10
842.8995427054369
 20
1749.820692214584
 30
0.0
 10
842.9005483129154
 20
1749.247075844257
 30
0.0
  0
SPLINE
  5
1E5
330
16E
100
AcDbEntity
  8
P-SANR-FIXT
100
AcDbSpline
210
0.0
220
0.0
230
1.0
 70
     8
 71
     3
 72
     9
 73
     5
 74
     0
 42
0.000000001
 43
0.0000000001
 40
0.0
 40
0.0
 40
0.0
 40
0.0
 40
0.5
 40
1.0
 40
1.0
 40
1.0
 40
1.0
 10
842.9005483129154
 20
1749.247075844257
 30
0.0
 10
842.8995427054426
 20
1748.673459473911
 30
0.0
 10
842.8406423186739
 20
1747.532885483467
 30
0.0
 10
842.6679635882583
 20
1746.482784151096
 30
0.0
 10
842.5531796371386
 20
1745.997075844199
 30
0.0
  0
SPLINE
  5
1E6
330
16E
100
AcDbEntity
  8
P-SANR-FIXT
100
AcDbSpline
210
0.0
220
0.0
230
1.0
 70
     8
 71
     3
 72
     9
 73
     5
 74
     0
 42
0.000000001
 43
0.0000000001
 40
0.0
 40
0.0
 40
0.0
 40
0.0
 40
0.5
 40
1.0
 40
1.0
 40
1.0
 40
1.0
 10
855.747999613497
 20
1745.997075844199
 30
0.0
 10
855.6332156623774
 20
1746.482784151096
 30
0.0
 10
855.4605369319617
 20
1747.532885483467
 30
0.0
 10
855.401636545193
 20
1748.673459473911
 30
0.0
 10
855.4006309377204
 20
1749.247075844257
 30
0.0
  0
SPLINE
  5
1E7
330
16E
100
AcDbEntity
  8
P-SANR-FIXT
100
AcDbSpline
210
0.0
220
0.0
230
1.0
 70
     8
 71
     3
 72
     9
 73
     5
 74
     0
 42
0.000000001
 43
0.0000000001
 40
0.0
 40
0.0
 40
0.0
 40
0.0
 40
0.5
 40
1.0
 40
1.0
 40
1.0
 40
1.0
 10
855.4006309377204
 20
1749.247075844257
 30
0.0
 10
855.4016365451989
 20
1749.820692214584
 30
0.0
 10
855.4605369319753
 20
1750.961266204985
 30
0.0
 10
855.6332156623907
 20
1752.011367537318
 30
0.0
 10
855.747999613508
 20
1752.497075844199
 30
0.0
  0
SPLINE
  5
1E8
330
16E
100
AcDbEntity
  8
P-SANR-FIXT
100
AcDbSpline
210
0.0
220
0.0
230
1.0
 70
     8
 71
     3
 72
     9
 73
     5
 74
     0
 42
0.000000001
 43
0.0000000001
 40
0.0
 40
0.0
 40
0.0
 40
0.0
 40
0.5
 40
1.0
 40
1.0
 40
1.0
 40
1.0
 10
855.7479996134782
 20
1733.997075844207
 30
0.0
 10
856.2309198892744
 20
1736.028990509893
 30
0.0
 10
856.7138401650735
 20
1740.060905175578
 30
0.0
 10
856.2309198892869
 20
1744.028990509888
 30
0.0
 10
855.747999613497
 20
1745.997075844199
 30
0.0
  0
SPLINE
  5
1E9
330
16E
100
AcDbEntity
  8
P-SANR-FIXT
100
AcDbSpline
210
0.0
220
0.0
230
1.0
 70
     8
 71
     3
 72
     9
 73
     5
 74
     0
 42
0.000000001
 43
0.0000000001
 40
0.0
 40
0.0
 40
0.0
 40
0.0
 40
0.5
 40
1.0
 40
1.0
 40
1.0
 40
1.0
 10
842.5531796371386
 20
1745.997075844199
 30
0.0
 10
842.0702593613489
 20
1744.028990509888
 30
0.0
 10
841.5873390855622
 20
1740.060905175578
 30
0.0
 10
842.0702593613613
 20
1736.028990509893
 30
0.0
 10
842.5531796371572
 20
1733.997075844207
 30
0.0
  0
LWPOLYLINE
  5
1EA
330
16E
100
AcDbEntity
  8
P-SANR-FIXT
100
AcDbPolyline
 90
       58
 70
   128
 43
0.0
 10
833.328230678631
 20
1757.512062232631
 10
832.9835918011374
 20
1758.21173567678
 10
832.6112491228068
 20
1758.897067577555
 10
832.2117983124954
 20
1759.566961550111
 10
831.7858784062881
 20
1760.220345906997
 10
831.3341707851773
 20
1760.856175372622
 10
830.8573980849969
 20
1761.473432755477
 10
830.3563230403616
 20
1762.071130575424
 10
829.8317472644523
 20
1762.648312643454
 10
829.2845099666072
 20
1763.204055591384
 10
828.7154866097647
 20
1763.737470349048
 10
828.1255875099109
 20
1764.247703566624
 10
827.5157563797669
 20
1764.733938979807
 10
826.8869688190505
 20
1765.195398715662
 10
826.2402307537252
 20
1765.631344537049
 10
825.5765768267314
 20
1766.041079023652
 10
824.8970687427808
 20
1766.423946687698
 10
824.2027935698535
 20
1766.779335022599
 10
823.4948620001219
 20
1767.106675482829
 10
822.774406573081
 20
1767.405444393483
 10
822.042579863724
 20
1767.675163788036
 10
821.3005526386719
 20
1767.915402172995
 10
820.549511983194
 20
1768.125775218193
 10
819.7906594021256
 20
1768.305946371632
 10
819.025208897716
 20
1768.455627397904
 10
818.2543850274857
 20
1768.574578839296
 10
817.4794209451928
 20
1768.662610398876
 10
816.701556428052
 20
1768.719581244929
 10
815.9220358933557
 20
1768.745400236253
 10
815.1421064076703
 20
1768.740026067971
 10
814.3630156917968
 20
1768.703467337606
 10
813.5860101246834
 20
1768.635782531326
 10
812.8123327494853
 20
1768.537079930384
 10
812.0432212849602
 20
1768.407517437886
 10
811.2799061453831
 20
1768.247302326181
 10
810.5236084721454
 20
1768.05669090527
 10
809.7755381801897
 20
1767.835988112765
 10
809.0368920224028
 20
1767.585547026054
 10
808.3088516750679
 20
1767.305768297451
 10
807.592581847434
 20
1766.997099513238
 10
806.889228418429
 20
1766.660034477624
 10
806.1999166034986
 20
1766.295112422764
 10
805.5257491545013
 20
1765.902917146098
 10
804.8678045955409
 20
1765.484076076406
 10
804.2271354975577
 20
1765.039259270052
 10
803.6047667944396
 20
1764.569178339035
 10
803.0016941433469
 20
1764.074585312568
 10
802.4188823318722
 20
1763.556271433984
 10
801.8572637345878
 20
1763.015065894923
 10
801.3177368214435
 20
1762.451834508795
 10
800.8011647204076
 20
1761.867478325669
 10
800.3083738366457
 20
1761.262932190782
 10
799.8401525304482
 20
1760.639163248986
 10
799.3972498560236
 20
1759.997169397525
 10
798.9803743631699
 20
1759.33797768961
 10
798.5901929637471
 20
1758.662642691353
 10
798.2273298647599
 20
1757.972244794688
 10
798.0045842077467
 20
1757.512062232632
  0
LWPOLYLINE
  5
1EB
330
16E
100
AcDbEntity
  8
P-SANR-FIXT
100
AcDbPolyline
 90
       58
 70
   128
 43
0.0
 10
798.0045842077467
 20
1740.982089455885
 10
798.3492230852403
 20
1740.282416011737
 10
798.7215657635712
 20
1739.597084110962
 10
799.1210165738825
 20
1738.927190138405
 10
799.5469364800897
 20
1738.273805781519
 10
799.9986441012007
 20
1737.637976315895
 10
800.4754168013809
 20
1737.020718933039
 10
800.9764918460161
 20
1736.423021113092
 10
801.5010676219255
 20
1735.845839045062
 10
802.0483049197705
 20
1735.290096097133
 10
802.617328276613
 20
1734.756681339468
 10
803.207227376467
 20
1734.246448121892
 10
803.817058506611
 20
1733.760212708709
 10
804.4458460673274
 20
1733.298752972855
 10
805.0925841326527
 20
1732.862807151467
 10
805.7562380596465
 20
1732.453072664864
 10
806.4357461435973
 20
1732.070205000818
 10
807.1300213165246
 20
1731.714816665918
 10
807.8379528862559
 20
1731.387476205688
 10
808.5584083132971
 20
1731.088707295034
 10
809.2902350226539
 20
1730.81898790048
 10
810.032262247706
 20
1730.578749515521
 10
810.7833029031839
 20
1730.368376470324
 10
811.5421554842525
 20
1730.188205316884
 10
812.3076059886619
 20
1730.038524290612
 10
813.0784298588922
 20
1729.919572849221
 10
813.8533939411852
 20
1729.831541289641
 10
814.6312584583258
 20
1729.774570443588
 10
815.410778993022
 20
1729.748751452263
 10
816.1907084787074
 20
1729.754125620545
 10
816.9697991945811
 20
1729.79068435091
 10
817.7468047616946
 20
1729.85836915719
 10
818.5204821368925
 20
1729.957071758132
 10
819.2895936014176
 20
1730.08663425063
 10
820.0529087409949
 20
1730.246849362336
 10
820.8092064142325
 20
1730.437460783247
 10
821.5572767061882
 20
1730.658163575751
 10
822.2959228639751
 20
1730.908604662462
 10
823.0239632113098
 20
1731.188383391066
 10
823.7402330389439
 20
1731.497052175279
 10
824.4435864679488
 20
1731.834117210892
 10
825.1328982828793
 20
1732.199039265753
 10
825.8070657318764
 20
1732.591234542418
 10
826.4650102908369
 20
1733.010075612111
 10
827.1056793888202
 20
1733.454892418465
 10
827.7280480919381
 20
1733.924973349482
 10
828.331120743031
 20
1734.419566375949
 10
828.9139325545058
 20
1734.937880254532
 10
829.4755511517902
 20
1735.479085793593
 10
830.0150780649342
 20
1736.042317179721
 10
830.5316501659703
 20
1736.626673362848
 10
831.0244410497322
 20
1737.231219497735
 10
831.4926623559296
 20
1737.854988439531
 10
831.9355650303542
 20
1738.496982290992
 10
832.3524405232079
 20
1739.156173998907
 10
832.7426219226307
 20
1739.831508997164
 10
833.105485021618
 20
1740.521906893829
 10
833.328230678631
 20
1740.982089455885
  0
LINE
  5
1EC
330
16E
100
AcDbEntity
  8
P-SANR-FIXT
100
AcDbLine
 10
841.8200743541056
 20
1766.097075844259
 30
0.0
 11
840.3200743541074
 21
1766.097075844259
 31
0.0
  0
LINE
  5
1ED
330
16E
100
AcDbEntity
  8
P-SANR-FIXT
100
AcDbLine
 10
840.3200743541072
 20
1732.397075844258
 30
0.0
 11
841.8200743541053
 21
1732.397075844258
 31
0.0
  0
LINE
  5
1EE
330
16E
100
AcDbEntity
  8
P-SANR-FIXT
100
AcDbLine
 10
840.3200743541074
 20
1766.097075844259
 30
0.0
 11
840.2826598179517
 21
1766.032271966695
 31
0.0
  0
LINE
  5
1EF
330
16E
100
AcDbEntity
  8
P-SANR-FIXT
100
AcDbLine
 10
840.2732296800257
 20
1766.015938488685
 30
0.0
 11
839.2519763561066
 21
1764.247075844258
 31
0.0
  0
LINE
  5
1F0
330
16E
100
AcDbEntity
  8
P-SANR-FIXT
100
AcDbLine
 10
839.2519763561065
 20
1734.247075844258
 30
0.0
 11
840.2732296800255
 21
1732.478213199832
 31
0.0
  0
LINE
  5
1F1
330
16E
100
AcDbEntity
  8
P-SANR-FIXT
100
AcDbLine
 10
840.2826598179515
 20
1732.461879721821
 30
0.0
 11
840.3200743541072
 21
1732.397075844258
 31
0.0
  0
LWPOLYLINE
  5
1F2
330
16E
100
AcDbEntity
  8
P-SANR-FIXT
100
AcDbPolyline
 90
       28
 70
   128
 43
0.0
 10
837.5199255485378
 20
1763.247075844258
 10
837.5999042169109
 20
1763.248675630936
 10
837.6797549364761
 20
1763.253472431653
 10
837.7593499631156
 20
1763.261458572551
 10
837.8385619617661
 20
1763.272621277507
 10
837.9172642101279
 20
1763.286942688576
 10
837.9953308013918
 20
1763.304399894554
 10
838.0726368456659
 20
1763.324964967637
 10
838.1490586697699
 20
1763.348605008093
 10
838.2244740150879
 20
1763.375282196902
 10
838.2987622331551
 20
1763.404953856253
 10
838.3718044786698
 20
1763.437572517818
 10
838.4434838996206
 20
1763.4730859987
 10
838.5136858242251
 20
1763.511437484903
 10
838.5822979443796
 20
1763.552565622231
 10
838.6492104953278
 20
1763.596404614439
 10
838.7143164312627
 20
1763.64288432849
 10
838.7775115965746
 20
1763.691930406757
 10
838.8386948924807
 20
1763.743464385976
 10
838.8977684387588
 20
1763.797403822777
 10
838.954637730337
 20
1763.853662425564
 10
839.0092117884796
 20
1763.912150192576
 10
839.0614033063357
 20
1763.972773555861
 10
839.1111287886104
 20
1764.035435530972
 10
839.1583086851397
 20
1764.100035872113
 10
839.2028675181535
 20
1764.166471232522
 10
839.2447340030244
 20
1764.234635329793
 10
839.2519763561066
 20
1764.247075844258
  0
LWPOLYLINE
  5
1F3
330
16E
100
AcDbEntity
  8
P-SANR-FIXT
100
AcDbPolyline
 90
       28
 70
   128
 43
0.0
 10
839.2519763561065
 20
1734.247075844258
 10
839.2106015660161
 20
1734.315539509491
 10
839.1665220549558
 20
1734.382293860787
 10
839.1198083407406
 20
1734.447232105422
 10
839.070535155348
 20
1734.51025035606
 10
839.0187813253636
 20
1734.571247796942
 10
838.9646296458751
 20
1734.630126845175
 10
838.908166748018
 20
1734.68679330684
 10
838.8494829603839
 20
1734.74115652769
 10
838.7886721645147
 20
1734.793129538166
 10
838.7258316447116
 20
1734.842629192539
 10
838.6610619324008
 20
1734.889576301921
 10
838.5944666453053
 20
1734.933895760953
 10
838.5261523216779
 20
1734.975516667953
 10
838.4562282498642
 20
1735.01437243835
 10
838.3848062934621
 20
1735.050400911199
 10
838.3120007123661
 20
1735.08354444863
 10
838.2379279799751
 20
1735.113750028054
 10
838.1627065968594
 20
1735.140969326986
 10
838.0864569011858
 20
1735.165158800354
 10
838.0093008762013
 20
1735.186279750163
 10
837.931361955087
 20
1735.204298387396
 10
837.8527648234911
 20
1735.219185886078
 10
837.7736352200569
 20
1735.230918429389
 10
837.6940997352702
 20
1735.23947724776
 10
837.61428560894
 20
1735.244848648909
 10
837.5343205266419
 20
1735.247024039739
 10
837.5199255485375
 20
1735.247075844258
  0
LINE
  5
1F4
330
16E
100
AcDbEntity
  8
P-SANR-FIXT
100
AcDbLine
 10
837.5199255485378
 20
1763.247075844258
 30
0.0
 11
829.2402794036874
 21
1763.247075844258
 31
0.0
  0
LINE
  5
1F5
330
16E
100
AcDbEntity
  8
P-SANR-FIXT
100
AcDbLine
 10
829.240279403687
 20
1735.247075844258
 30
0.0
 11
837.5199255485375
 21
1735.247075844258
 31
0.0
  0
LINE
  5
1F6
330
16E
100
AcDbEntity
  8
P-SANR-FIXT
100
AcDbLine
 10
802.0925354826907
 20
1763.247075844258
 30
0.0
 11
793.8128893378403
 21
1763.247075844258
 31
0.0
  0
LINE
  5
1F7
330
16E
100
AcDbEntity
  8
P-SANR-FIXT
100
AcDbLine
 10
793.8128893378399
 20
1735.247075844258
 30
0.0
 11
802.0925354826903
 21
1735.247075844258
 31
0.0
  0
LWPOLYLINE
  5
1F8
330
16E
100
AcDbEntity
  8
P-SANR-FIXT
100
AcDbPolyline
 90
       28
 70
   128
 43
0.0
 10
792.0808385302714
 20
1764.247075844258
 10
792.1222133203618
 20
1764.178612179026
 10
792.1662928314219
 20
1764.11185782773
 10
792.2130065456371
 20
1764.046919583094
 10
792.2622797310297
 20
1763.983901332456
 10
792.314033561014
 20
1763.922903891574
 10
792.3681852405025
 20
1763.864024843342
 10
792.4246481383597
 20
1763.807358381676
 10
792.4833319259938
 20
1763.752995160827
 10
792.5441427218628
 20
1763.701022150351
 10
792.6069832416658
 20
1763.651522495978
 10
792.6717529539768
 20
1763.604575386596
 10
792.7383482410723
 20
1763.560255927564
 10
792.8066625646996
 20
1763.518635020564
 10
792.8765866365134
 20
1763.479779250167
 10
792.9480085929156
 20
1763.443750777317
 10
793.0208141740116
 20
1763.410607239886
 10
793.0948869064027
 20
1763.380401660463
 10
793.1701082895184
 20
1763.353182361531
 10
793.2463579851919
 20
1763.328992888162
 10
793.3235140101763
 20
1763.307871938354
 10
793.4014529312904
 20
1763.289853301121
 10
793.4800500628867
 20
1763.274965802438
 10
793.5591796663207
 20
1763.263233259127
 10
793.6387151511074
 20
1763.254674440756
 10
793.7185292774378
 20
1763.249303039608
 10
793.7984943597358
 20
1763.247127648778
 10
793.8128893378403
 20
1763.247075844258
  0
LWPOLYLINE
  5
1F9
330
16E
100
AcDbEntity
  8
P-SANR-FIXT
100
AcDbPolyline
 90
       28
 70
   128
 43
0.0
 10
793.8128893378399
 20
1735.247075844258
 10
793.7329106694668
 20
1735.24547605758
 10
793.6530599499016
 20
1735.240679256864
 10
793.5734649232622
 20
1735.232693115966
 10
793.4942529246114
 20
1735.221530411009
 10
793.4155506762498
 20
1735.207208999941
 10
793.3374840849857
 20
1735.189751793962
 10
793.2601780407118
 20
1735.16918672088
 10
793.1837562166077
 20
1735.145546680423
 10
793.1083408712896
 20
1735.118869491614
 10
793.0340526532225
 20
1735.089197832264
 10
792.9610104077078
 20
1735.056579170698
 10
792.889330986757
 20
1735.021065689817
 10
792.8191290621525
 20
1734.982714203614
 10
792.7505169419982
 20
1734.941586066285
 10
792.6836043910499
 20
1734.897747074078
 10
792.6184984551151
 20
1734.851267360027
 10
792.5553032898029
 20
1734.80222128176
 10
792.494119993897
 20
1734.75068730254
 10
792.4350464476187
 20
1734.69674786574
 10
792.3781771560408
 20
1734.640489262953
 10
792.3236030978982
 20
1734.58200149594
 10
792.2714115800419
 20
1734.521378132655
 10
792.2216860977673
 20
1734.458716157545
 10
792.1745062012379
 20
1734.394115816403
 10
792.1299473682242
 20
1734.327680455994
 10
792.0880808833532
 20
1734.259516358724
 10
792.0808385302712
 20
1734.247075844258
  0
LINE
  5
1FA
330
16E
100
AcDbEntity
  8
P-SANR-FIXT
100
AcDbLine
 10
792.0808385302714
 20
1764.247075844258
 30
0.0
 11
791.0595852063523
 21
1766.015938488685
 31
0.0
  0
LINE
  5
1FB
330
16E
100
AcDbEntity
  8
P-SANR-FIXT
100
AcDbLine
 10
791.0501550684261
 20
1766.032271966695
 30
0.0
 11
791.0127405322706
 21
1766.097075844259
 31
0.0
  0
LINE
  5
1FC
330
16E
100
AcDbEntity
  8
P-SANR-FIXT
100
AcDbLine
 10
791.0127405322701
 20
1732.397075844258
 30
0.0
 11
791.0501550684259
 21
1732.461879721822
 31
0.0
  0
LINE
  5
1FD
330
16E
100
AcDbEntity
  8
P-SANR-FIXT
100
AcDbLine
 10
791.059585206352
 20
1732.478213199832
 30
0.0
 11
792.0808385302712
 21
1734.247075844258
 31
0.0
  0
LINE
  5
1FE
330
16E
100
AcDbEntity
  8
P-SANR-FIXT
100
AcDbLine
 10
791.0127405322706
 20
1766.097075844259
 30
0.0
 11
789.5127405322723
 21
1766.097075844259
 31
0.0
  0
LINE
  5
1FF
330
16E
100
AcDbEntity
  8
P-SANR-FIXT
100
AcDbLine
 10
789.5127405322719
 20
1732.397075844258
 30
0.0
 11
791.0127405322701
 21
1732.397075844258
 31
0.0
  0
SPLINE
  5
200
330
16E
100
AcDbEntity
  8
P-SANR-FIXT
100
AcDbSpline
210
0.0
220
0.0
230
1.0
 70
     8
 71
     3
 72
     8
 73
     4
 74
     0
 42
0.000000001
 43
0.0000000001
 40
0.0
 40
0.0
 40
0.0
 40
0.0
 40
0.0833333333333333
 40
0.0833333333333333
 40
0.0833333333333333
 40
0.0833333333333333
 10
802.0925354826895
 20
1763.247075844257
 30
0.0
 10
802.0841639865402
 20
1763.23895915734
 30
0.0
 10
802.0628045505869
 20
1763.218328927243
 30
0.0
 10
802.0285853203686
 20
1763.18482814187
 30
0.0
  0
SPLINE
  5
201
330
16E
100
AcDbEntity
  8
P-SANR-FIXT
100
AcDbSpline
210
0.0
220
0.0
230
1.0
 70
     8
 71
     3
 72
    10
 73
     6
 74
     0
 42
0.000000001
 43
0.0000000001
 40
0.3333333333333333
 40
0.3333333333333333
 40
0.3333333333333333
 40
0.3333333333333333
 40
0.375
 40
0.4375
 40
0.5
 40
0.5
 40
0.5
 40
0.5
 10
801.3782996711144
 20
1762.51733937138
 30
0.0
 10
801.3230105989315
 20
1762.457808998811
 30
0.0
 10
801.1777889955736
 20
1762.299572458303
 30
0.0
 10
800.924534969719
 20
1762.01407992771
 30
0.0
 10
800.7258854943254
 20
1761.779059385942
 30
0.0
 10
800.6241870212772
 20
1761.656008303525
 30
0.0
  0
SPLINE
  5
202
330
16E
100
AcDbEntity
  8
P-SANR-FIXT
100
AcDbSpline
210
0.0
220
0.0
230
1.0
 70
     8
 71
     3
 72
     9
 73
     5
 74
     0
 42
0.000000001
 43
0.0000000001
 40
0.5833333333333333
 40
0.5833333333333333
 40
0.5833333333333333
 40
0.5833333333333333
 40
0.625
 40
0.6666666666666666
 40
0.6666666666666666
 40
0.6666666666666666
 40
0.6666666666666666
 10
800.2028918700712
 20
1761.126864012598
 30
0.0
 10
800.1301332968589
 20
1761.032153615235
 30
0.0
 10
799.9827237218092
 20
1760.834554061361
 30
0.0
 10
799.832643130991
 20
1760.633755662593
 30
0.0
 10
799.7574436436092
 20
1760.53054644131
 30
0.0
  0
SPLINE
  5
203
330
16E
100
AcDbEntity
  8
P-SANR-FIXT
100
AcDbSpline
210
0.0
220
0.0
230
1.0
 70
     8
 71
     3
 72
     9
 73
     5
 74
     0
 42
0.000000001
 43
0.0000000001
 40
0.3333333333333333
 40
0.3333333333333333
 40
0.3333333333333333
 40
0.3333333333333333
 40
0.375
 40
0.4166666666666666
 40
0.4166666666666666
 40
0.4166666666666666
 40
0.4166666666666666
 10
831.5739470212866
 20
1760.525243623189
 30
0.0
 10
831.4991387845305
 20
1760.630800448609
 30
0.0
 10
831.3501630549586
 20
1760.836595877398
 30
0.0
 10
831.2035707795832
 20
1761.031025197143
 30
0.0
 10
831.1311226773664
 20
1761.125341644763
 30
0.0
  0
SPLINE
  5
204
330
16E
100
AcDbEntity
  8
P-SANR-FIXT
100
AcDbSpline
210
0.0
220
0.0
230
1.0
 70
     8
 71
     3
 72
    10
 73
     6
 74
     0
 42
0.000000001
 43
0.0000000001
 40
0.5
 40
0.5
 40
0.5
 40
0.5
 40
0.5625
 40
0.625
 40
0.6666666666666666
 40
0.6666666666666666
 40
0.6666666666666666
 40
0.6666666666666666
 10
830.7086278650977
 20
1761.656008303525
 30
0.0
 10
830.606547956844
 20
1761.779765490566
 30
0.0
 10
830.4084929407116
 20
1762.013711014265
 30
0.0
 10
830.1548953989087
 20
1762.299737725804
 30
0.0
 10
830.0099408519336
 20
1762.457663573516
 30
0.0
 10
829.9546418263066
 20
1762.517203641822
 30
0.0
  0
SPLINE
  5
205
330
16E
100
AcDbEntity
  8
P-SANR-FIXT
100
AcDbSpline
210
0.0
220
0.0
230
1.0
 70
     8
 71
     3
 72
     8
 73
     4
 74
     0
 42
0.000000001
 43
0.0000000001
 40
0.9166666666666667
 40
0.9166666666666667
 40
0.9166666666666667
 40
0.9166666666666667
 40
1.0
 40
1.0
 40
1.0
 40
1.0
 10
829.3042294083088
 20
1763.184828342022
 30
0.0
 10
829.2700101780903
 20
1763.218329127396
 30
0.0
 10
829.2486508998349
 20
1763.238959157339
 30
0.0
 10
829.2402794036858
 20
1763.247075844257
 30
0.0
  0
SPLINE
  5
206
330
16E
100
AcDbEntity
  8
P-SANR-FIXT
100
AcDbSpline
210
0.0
220
0.0
230
1.0
 70
     8
 71
     3
 72
     8
 73
     4
 74
     0
 42
0.000000001
 43
0.0000000001
 40
0.0
 40
0.0
 40
0.0
 40
0.0
 40
0.0833333333333333
 40
0.0833333333333333
 40
0.0833333333333333
 40
0.0833333333333333
 10
829.2402794036856
 20
1735.247075844258
 30
0.0
 10
829.2486508998347
 20
1735.255192531175
 30
0.0
 10
829.2700103357878
 20
1735.275822761272
 30
0.0
 10
829.3042295660063
 20
1735.309323546645
 30
0.0
  0
SPLINE
  5
207
330
16E
100
AcDbEntity
  8
P-SANR-FIXT
100
AcDbSpline
210
0.0
220
0.0
230
1.0
 70
     8
 71
     3
 72
    10
 73
     6
 74
     0
 42
0.000000001
 43
0.0000000001
 40
0.3333333333333333
 40
0.3333333333333333
 40
0.3333333333333333
 40
0.3333333333333333
 40
0.375
 40
0.4375
 40
0.5
 40
0.5
 40
0.5
 40
0.5
 10
829.9545152152603
 20
1735.976812317135
 30
0.0
 10
830.0098042874434
 20
1736.036342689704
 30
0.0
 10
830.1550258908013
 20
1736.194579230212
 30
0.0
 10
830.4082799166561
 20
1736.480071760805
 30
0.0
 10
830.6069293920495
 20
1736.715092302573
 30
0.0
 10
830.7086278650977
 20
1736.83814338499
 30
0.0
  0
SPLINE
  5
208
330
16E
100
AcDbEntity
  8
P-SANR-FIXT
100
AcDbSpline
210
0.0
220
0.0
230
1.0
 70
     8
 71
     3
 72
     9
 73
     5
 74
     0
 42
0.000000001
 43
0.0000000001
 40
0.5833333333333333
 40
0.5833333333333333
 40
0.5833333333333333
 40
0.5833333333333333
 40
0.625
 40
0.6666666666666666
 40
0.6666666666666666
 40
0.6666666666666666
 40
0.6666666666666666
 10
831.1299230163035
 20
1737.367287675917
 30
0.0
 10
831.2026815895158
 20
1737.46199807328
 30
0.0
 10
831.3500911645657
 20
1737.659597627154
 30
0.0
 10
831.5001717553839
 20
1737.860396025922
 30
0.0
 10
831.5753712427657
 20
1737.963605247205
 30
0.0
  0
SPLINE
  5
209
330
16E
100
AcDbEntity
  8
P-SANR-FIXT
100
AcDbSpline
210
0.0
220
0.0
230
1.0
 70
     8
 71
     3
 72
     9
 73
     5
 74
     0
 42
0.000000001
 43
0.0000000001
 40
0.3333333333333333
 40
0.3333333333333333
 40
0.3333333333333333
 40
0.3333333333333333
 40
0.375
 40
0.4166666666666666
 40
0.4166666666666666
 40
0.4166666666666666
 40
0.4166666666666666
 10
799.7588678650883
 20
1737.968908065326
 30
0.0
 10
799.8336761018444
 20
1737.863351239905
 30
0.0
 10
799.9826518314161
 20
1737.657555811116
 30
0.0
 10
800.1292441067917
 20
1737.463126491372
 30
0.0
 10
800.2016922090083
 20
1737.368810043752
 30
0.0
  0
SPLINE
  5
20A
330
16E
100
AcDbEntity
  8
P-SANR-FIXT
100
AcDbSpline
210
0.0
220
0.0
230
1.0
 70
     8
 71
     3
 72
    10
 73
     6
 74
     0
 42
0.000000001
 43
0.0000000001
 40
0.5
 40
0.5
 40
0.5
 40
0.5
 40
0.5625
 40
0.625
 40
0.6666666666666666
 40
0.6666666666666666
 40
0.6666666666666666
 40
0.6666666666666666
 10
800.624187021277
 20
1736.838143384989
 30
0.0
 10
800.7262669295309
 20
1736.714386197948
 30
0.0
 10
800.9243219456633
 20
1736.480440674249
 30
0.0
 10
801.1779194874661
 20
1736.194413962711
 30
0.0
 10
801.3228740344413
 20
1736.036488114998
 30
0.0
 10
801.3781730600683
 20
1735.976948046692
 30
0.0
  0
SPLINE
  5
20B
330
16E
100
AcDbEntity
  8
P-SANR-FIXT
100
AcDbSpline
210
0.0
220
0.0
230
1.0
 70
     8
 71
     3
 72
     8
 73
     4
 74
     0
 42
0.000000001
 43
0.0000000001
 40
0.9166666666666667
 40
0.9166666666666667
 40
0.9166666666666667
 40
0.9166666666666667
 40
1.0
 40
1.0
 40
1.0
 40
1.0
 10
802.0285854780663
 20
1735.309323346492
 30
0.0
 10
802.0628047082844
 20
1735.275822561119
 30
0.0
 10
802.0841639865398
 20
1735.255192531175
 30
0.0
 10
802.0925354826889
 20
1735.247075844257
 30
0.0
  0
SPLINE
  5
20C
330
16E
100
AcDbEntity
  8
P-SANR-FIXT
100
AcDbSpline
210
0.0
220
0.0
230
1.0
 70
     8
 71
     3
 72
    21
 73
    17
 74
     0
 42
0.000000001
 43
0.0000000001
 40
-1.0
 40
-1.0
 40
-1.0
 40
-1.0
 40
-0.7857142857142857
 40
-0.7321428571428572
 40
-0.6785714285714287
 40
-0.625
 40
-0.5357142857142857
 40
-0.4642857142857144
 40
-0.4107142857142857
 40
-0.3571428571428571
 40
-0.3035714285714286
 40
-0.25
 40
-0.1785714285714286
 40
-0.125
 40
-0.0714285714285714
 40
0.0
 40
0.0
 40
0.0
 40
0.0
 10
798.0045842077453
 20
1757.512062232631
 30
0.0
 10
797.9241973270457
 20
1757.340546996296
 30
0.0
 10
797.8467768656321
 20
1757.117724939858
 30
0.0
 10
797.7887426744502
 20
1756.837565338023
 30
0.0
 10
797.7677039893123
 20
1756.695997896731
 30
0.0
 10
797.7502258259928
 20
1756.519936603252
 30
0.0
 10
797.7478836435082
 20
1756.326454981798
 30
0.0
 10
797.7605006730648
 20
1756.129039436604
 30
0.0
 10
797.7888052526695
 20
1755.967056646392
 30
0.0
 10
797.8219450732567
 20
1755.818299653626
 30
0.0
 10
797.8702110918633
 20
1755.673623405169
 30
0.0
 10
797.9484280843244
 20
1755.521331481279
 30
0.0
 10
798.0462554554868
 20
1755.363674463294
 30
0.0
 10
798.1782382571544
 20
1755.253871924522
 30
0.0
 10
798.3370602962414
 20
1755.17699120547
 30
0.0
 10
798.4694436551575
 20
1755.147326453001
 30
0.0
 10
798.5520859550302
 20
1755.13859517292
 30
0.0
  0
SPLINE
  5
20D
330
16E
100
AcDbEntity
  8
P-SANR-FIXT
100
AcDbSpline
210
0.0
220
0.0
230
1.0
 70
     8
 71
     3
 72
    20
 73
    16
 74
     0
 42
0.000000001
 43
0.0000000001
 40
-1.0
 40
-1.0
 40
-1.0
 40
-1.0
 40
-0.9464285714285713
 40
-0.8928571428571427
 40
-0.8392857142857142
 40
-0.7857142857142857
 40
-0.7321428571428572
 40
-0.6785714285714287
 40
-0.625
 40
-0.5535714285714287
 40
-0.5
 40
-0.4285714285714286
 40
-0.3571428571428571
 40
-0.2857142857142857
 40
0.0
 40
0.0
 40
0.0
 40
0.0
 10
832.7807289313447
 20
1755.138595172919
 30
0.0
 10
832.8427106562491
 20
1755.14514363298
 30
0.0
 10
832.9588570915058
 20
1755.167281090102
 30
0.0
 10
833.1093928286081
 20
1755.228381233695
 30
0.0
 10
833.2369432663067
 20
1755.314570765057
 30
0.0
 10
833.3374389733879
 20
1755.440981734528
 30
0.0
 10
833.4171966259756
 20
1755.583647487997
 30
0.0
 10
833.4812984100183
 20
1755.720225209929
 30
0.0
 10
833.5273672996386
 20
1755.884741497552
 30
0.0
 10
833.5606339844137
 20
1756.047768335996
 30
0.0
 10
833.5801751640181
 20
1756.227771464435
 30
0.0
 10
833.5853710610738
 20
1756.407281962946
 30
0.0
 10
833.576650584707
 20
1756.600321765548
 30
0.0
 10
833.5288769799982
 20
1756.981567757715
 30
0.0
 10
833.4354131862292
 20
1757.283375250851
 30
0.0
 10
833.3282306786296
 20
1757.51206223263
 30
0.0
  0
SPLINE
  5
20E
330
16E
100
AcDbEntity
  8
P-SANR-FIXT
100
AcDbSpline
210
0.0
220
0.0
230
1.0
 70
     8
 71
     3
 72
    21
 73
    17
 74
     0
 42
0.000000001
 43
0.0000000001
 40
-1.0
 40
-1.0
 40
-1.0
 40
-1.0
 40
-0.7857142857142857
 40
-0.7321428571428572
 40
-0.6785714285714287
 40
-0.625
 40
-0.5357142857142857
 40
-0.4642857142857144
 40
-0.4107142857142857
 40
-0.3571428571428571
 40
-0.3035714285714286
 40
-0.25
 40
-0.1785714285714286
 40
-0.125
 40
-0.0714285714285714
 40
0.0
 40
0.0
 40
0.0
 40
0.0
 10
833.3282306786296
 20
1740.982089455884
 30
0.0
 10
833.4086175593293
 20
1741.153604692219
 30
0.0
 10
833.4860380207427
 20
1741.376426748657
 30
0.0
 10
833.5440722119246
 20
1741.656586350492
 30
0.0
 10
833.5651108970626
 20
1741.798153791784
 30
0.0
 10
833.5825890603819
 20
1741.974215085263
 30
0.0
 10
833.5849312428665
 20
1742.167696706717
 30
0.0
 10
833.5723142133101
 20
1742.365112251911
 30
0.0
 10
833.5440096337055
 20
1742.527095042123
 30
0.0
 10
833.5108698131181
 20
1742.675852034889
 30
0.0
 10
833.4626037945117
 20
1742.820528283346
 30
0.0
 10
833.3843868020505
 20
1742.972820207236
 30
0.0
 10
833.2865594308879
 20
1743.130477225221
 30
0.0
 10
833.1545766292205
 20
1743.240279763994
 30
0.0
 10
832.9957545901333
 20
1743.317160483045
 30
0.0
 10
832.8633712312171
 20
1743.346825235515
 30
0.0
 10
832.7807289313447
 20
1743.355556515595
 30
0.0
  0
SPLINE
  5
20F
330
16E
100
AcDbEntity
  8
P-SANR-FIXT
100
AcDbSpline
210
0.0
220
0.0
230
1.0
 70
     8
 71
     3
 72
    20
 73
    16
 74
     0
 42
0.000000001
 43
0.0000000001
 40
-1.0
 40
-1.0
 40
-1.0
 40
-1.0
 40
-0.9464285714285713
 40
-0.8928571428571427
 40
-0.8392857142857142
 40
-0.7857142857142857
 40
-0.7321428571428572
 40
-0.6785714285714287
 40
-0.625
 40
-0.5535714285714287
 40
-0.5
 40
-0.4285714285714286
 40
-0.3571428571428571
 40
-0.2857142857142857
 40
0.0
 40
0.0
 40
0.0
 40
0.0
 10
798.5520859550302
 20
1743.355556515595
 30
0.0
 10
798.4901042301258
 20
1743.349008055534
 30
0.0
 10
798.373957794869
 20
1743.326870598412
 30
0.0
 10
798.2234220577667
 20
1743.265770454819
 30
0.0
 10
798.0958716200681
 20
1743.179580923457
 30
0.0
 10
797.9953759129868
 20
1743.053169953986
 30
0.0
 10
797.9156182603992
 20
1742.910504200517
 30
0.0
 10
797.8515164763564
 20
1742.773926478586
 30
0.0
 10
797.8054475867363
 20
1742.609410190963
 30
0.0
 10
797.7721809019612
 20
1742.446383352518
 30
0.0
 10
797.7526397223568
 20
1742.26638022408
 30
0.0
 10
797.747443825301
 20
1742.086869725568
 30
0.0
 10
797.7561643016676
 20
1741.893829922966
 30
0.0
 10
797.8039379063765
 20
1741.5125839308
 30
0.0
 10
797.8974017001458
 20
1741.210776437664
 30
0.0
 10
798.0045842077453
 20
1740.982089455884
 30
0.0
  0
LINE
  5
210
330
16E
100
AcDbEntity
  8
P-SANR-FIXT
100
AcDbLine
 10
798.5520859550302
 20
1755.13859517292
 30
0.0
 11
799.453680960575
 21
1755.13859517292
 31
0.0
  0
LINE
  5
211
330
16E
100
AcDbEntity
  8
P-SANR-FIXT
100
AcDbLine
 10
831.8791339257998
 20
1755.138595172919
 30
0.0
 11
832.7807289313447
 21
1755.138595172919
 31
0.0
  0
LINE
  5
212
330
16E
100
AcDbEntity
  8
P-SANR-FIXT
100
AcDbLine
 10
832.7807289313447
 20
1743.355556515596
 30
0.0
 11
831.8791339257998
 21
1743.355556515596
 31
0.0
  0
LINE
  5
213
330
16E
100
AcDbEntity
  8
P-SANR-FIXT
100
AcDbLine
 10
799.453680960575
 20
1743.355556515595
 30
0.0
 11
798.5520859550302
 21
1743.355556515595
 31
0.0
  0
ARC
  5
214
330
16E
100
AcDbEntity
  8
P-SANR-FIXT
100
AcDbCircle
 10
815.6664074431873
 20
1749.247075844257
 30
0.0
 40
17.24999999999999
100
AcDbArc
 50
135.191323061444
 51
136.6862896071433
  0
ARC
  5
215
330
16E
100
AcDbEntity
  8
P-SANR-FIXT
100
AcDbCircle
 10
815.6664074431873
 20
1749.247075844257
 30
0.0
 40
17.24999999999998
100
AcDbArc
 50
130.1728119786748
 51
130.8505034062503
  0
ARC
  5
216
330
16E
100
AcDbEntity
  8
P-SANR-FIXT
100
AcDbCircle
 10
815.6664074431873
 20
1749.247075844257
 30
0.0
 40
17.2499999999999
100
AcDbArc
 50
107.0050445567057
 51
107.5073586026778
  0
ARC
  5
217
330
16E
100
AcDbEntity
  8
P-SANR-FIXT
100
AcDbCircle
 10
815.6664074431873
 20
1749.247075844257
 30
0.0
 40
17.24999999999998
100
AcDbArc
 50
101.3553729716798
 51
101.671572401785
  0
ARC
  5
218
330
16E
100
AcDbEntity
  8
P-SANR-FIXT
100
AcDbCircle
 10
815.6664074431873
 20
1749.247075844257
 30
0.0
 40
17.25
100
AcDbArc
 50
95.70745847076755
 51
95.83578620089223
  0
LINE
  5
219
330
16E
100
AcDbEntity
  8
P-SANR-FIXT
100
AcDbLine
 10
815.6469662038292
 20
1766.49706488884
 30
0.0
 11
815.6664074431876
 21
1766.497075844258
 31
0.0
  0
ARC
  5
21A
330
16E
100
AcDbEntity
  8
P-SANR-FIXT
100
AcDbCircle
 10
815.6664074431873
 20
1749.247075844257
 30
0.0
 40
17.24999999999998
100
AcDbArc
 50
84.16421379910591
 51
84.42238590757781
  0
ARC
  5
21B
330
16E
100
AcDbEntity
  8
P-SANR-FIXT
100
AcDbCircle
 10
815.6664074431873
 20
1749.247075844257
 30
0.0
 40
17.25000000000002
100
AcDbArc
 50
78.32842759821312
 51
78.77683256873678
  0
ARC
  5
21C
330
16E
100
AcDbEntity
  8
P-SANR-FIXT
100
AcDbCircle
 10
815.6664074431873
 20
1749.247075844257
 30
0.0
 40
17.25000000000006
100
AcDbArc
 50
72.49264139731997
 51
73.12950349969601
  0
ARC
  5
21D
330
16E
100
AcDbEntity
  8
P-SANR-FIXT
100
AcDbCircle
 10
815.6664074431873
 20
1749.247075844257
 30
0.0
 40
17.25000000000001
100
AcDbArc
 50
37.47792419196241
 51
39.39939232202439
  0
SPLINE
  5
21E
330
16E
100
AcDbEntity
  8
P-SANR-FIXT
100
AcDbSpline
210
0.0
220
0.0
230
1.0
 70
     8
 71
     3
 72
     8
 73
     4
 74
     0
 42
0.000000001
 43
0.0000000001
 40
0.6666666666666666
 40
0.6666666666666666
 40
0.6666666666666666
 40
0.6666666666666666
 40
0.6941036535917496
 40
0.6941036535917496
 40
0.6941036535917496
 40
0.6941036535917496
 10
798.5392914561782
 20
1751.302081661745
 30
0.0
 10
798.5326507301473
 20
1751.246722224506
 30
0.0
 10
798.5267741855651
 20
1751.191125325912
 30
0.0
 10
798.5215395674839
 20
1751.135328795367
 30
0.0
  0
SPLINE
  5
21F
330
16E
100
AcDbEntity
  8
P-SANR-FIXT
100
AcDbSpline
210
0.0
220
0.0
230
1.0
 70
     8
 71
     3
 72
     8
 73
     4
 74
     0
 42
0.000000001
 43
0.0000000001
 40
0.7263293697617542
 40
0.7263293697617542
 40
0.7263293697617542
 40
0.7263293697617542
 40
0.8333333333333332
 40
0.8333333333333332
 40
0.8333333333333332
 40
0.8333333333333332
 10
798.4996890251148
 20
1750.939625302041
 30
0.0
 10
798.4782497602782
 20
1750.722169331097
 30
0.0
 10
798.4660241995211
 20
1750.502033649818
 30
0.0
 10
798.4570594287795
 20
1750.280922765204
 30
0.0
  0
ARC
  5
220
330
16E
100
AcDbEntity
  8
P-SANR-FIXT
100
AcDbCircle
 10
815.6664074431873
 20
1749.247075844257
 30
0.0
 40
17.25000000000008
100
AcDbArc
 50
174.3721186371929
 51
175.0000000000005
  0
ARC
  5
221
330
16E
100
AcDbEntity
  8
P-SANR-FIXT
100
AcDbCircle
 10
815.6664074431873
 20
1749.247075844257
 30
0.0
 40
17.24999999999999
100
AcDbArc
 50
168.7412277815874
 51
170.0000000000002
  0
ARC
  5
222
330
16E
100
AcDbEntity
  8
P-SANR-FIXT
100
AcDbCircle
 10
815.6664074431873
 20
1749.247075844257
 30
0.0
 40
17.2500000000001
100
AcDbArc
 50
159.8660402158094
 51
159.9999999999998
  0
ARC
  5
223
330
16E
100
AcDbEntity
  8
P-SANR-FIXT
100
AcDbCircle
 10
815.6664074431873
 20
1749.247075844257
 30
0.0
 40
17.24999999999993
100
AcDbArc
 50
155.0000000000003
 51
157.4774045697931
  0
ARC
  5
224
330
16E
100
AcDbEntity
  8
P-SANR-FIXT
100
AcDbCircle
 10
815.6664074431873
 20
1749.247075844257
 30
0.0
 40
17.25000000000015
100
AcDbArc
 50
144.9999999999999
 51
146.2236392671676
  0
ARC
  5
225
330
16E
100
AcDbEntity
  8
P-SANR-FIXT
100
AcDbCircle
 10
815.6664074431873
 20
1749.247075844257
 30
0.0
 40
17.24999999999999
100
AcDbArc
 50
140.0000000000006
 51
140.6064284940123
  0
ARC
  5
226
330
16E
100
AcDbEntity
  8
P-SANR-FIXT
100
AcDbCircle
 10
815.6664074431873
 20
1749.247075844257
 30
0.0
 40
17.24999999999989
100
AcDbArc
 50
129.3935715059862
 51
130.0000000000004
  0
ARC
  5
227
330
16E
100
AcDbEntity
  8
P-SANR-FIXT
100
AcDbCircle
 10
815.6664074431873
 20
1749.247075844257
 30
0.0
 40
17.24999999999997
100
AcDbArc
 50
123.7763607328312
 51
125.0000000000001
  0
ARC
  5
228
330
16E
100
AcDbEntity
  8
P-SANR-FIXT
100
AcDbCircle
 10
815.6664074431873
 20
1749.247075844257
 30
0.0
 40
17.24999999999988
100
AcDbArc
 50
109.9999999999998
 51
115.0
  0
ARC
  5
229
330
16E
100
AcDbEntity
  8
P-SANR-FIXT
100
AcDbCircle
 10
815.6664074431873
 20
1749.247075844257
 30
0.0
 40
17.24999999999997
100
AcDbArc
 50
104.9999999999999
 51
106.8909385106615
  0
ARC
  5
22A
330
16E
100
AcDbEntity
  8
P-SANR-FIXT
100
AcDbCircle
 10
815.6664074431873
 20
1749.247075844257
 30
0.0
 40
17.24999999999998
100
AcDbArc
 50
94.99999999999989
 51
95.62788136280468
  0
ARC
  5
22B
330
16E
100
AcDbEntity
  8
P-SANR-FIXT
100
AcDbCircle
 10
815.6664074431873
 20
1749.247075844257
 30
0.0
 40
17.24999999999997
100
AcDbArc
 50
84.37211863719427
 51
84.99999999999984
  0
ARC
  5
22C
330
16E
100
AcDbEntity
  8
P-SANR-FIXT
100
AcDbCircle
 10
815.6664074431873
 20
1749.247075844257
 30
0.0
 40
17.24999999999999
100
AcDbArc
 50
73.10906148933746
 51
75.0000000000001
  0
ARC
  5
22D
330
16E
100
AcDbEntity
  8
P-SANR-FIXT
100
AcDbCircle
 10
815.6664074431873
 20
1749.247075844257
 30
0.0
 40
17.25000000000005
100
AcDbArc
 50
65.00000000000023
 51
67.47740456979411
  0
ARC
  5
22E
330
16E
100
AcDbEntity
  8
P-SANR-FIXT
100
AcDbCircle
 10
815.6664074431873
 20
1749.247075844257
 30
0.0
 40
17.24999999999999
100
AcDbArc
 50
55.00000000000023
 51
56.22363926716884
  0
ARC
  5
22F
330
16E
100
AcDbEntity
  8
P-SANR-FIXT
100
AcDbCircle
 10
815.6664074431873
 20
1749.247075844257
 30
0.0
 40
17.25000000000005
100
AcDbArc
 50
39.39357150598839
 51
40.00000000000046
  0
ARC
  5
230
330
16E
100
AcDbEntity
  8
P-SANR-FIXT
100
AcDbCircle
 10
815.6664074431873
 20
1749.247075844257
 30
0.0
 40
17.24999999999997
100
AcDbArc
 50
33.77636073283273
 51
35.0000000000002
  0
ARC
  5
231
330
16E
100
AcDbEntity
  8
P-SANR-FIXT
100
AcDbCircle
 10
815.6664074431873
 20
1749.247075844257
 30
0.0
 40
17.24999999999993
100
AcDbArc
 50
20.00000000000084
 51
22.52259543020709
  0
ARC
  5
232
330
16E
100
AcDbEntity
  8
P-SANR-FIXT
100
AcDbCircle
 10
815.6664074431873
 20
1749.247075844257
 30
0.0
 40
17.24999999999995
100
AcDbArc
 50
10.00000000000055
 51
11.25877221841267
  0
ARC
  5
233
330
16E
100
AcDbEntity
  8
P-SANR-FIXT
100
AcDbCircle
 10
815.6664074431873
 20
1749.247075844257
 30
0.0
 40
17.25000000000004
100
AcDbArc
 50
5.000000000000212
 51
5.627881362806968
  0
SPLINE
  5
234
330
16E
100
AcDbEntity
  8
P-SANR-FIXT
100
AcDbSpline
210
0.0
220
0.0
230
1.0
 70
     8
 71
     3
 72
     8
 73
     4
 74
     0
 42
0.000000001
 43
0.0000000001
 40
0.1666666666666666
 40
0.1666666666666666
 40
0.1666666666666666
 40
0.1666666666666666
 40
0.2725849925872698
 40
0.2725849925872698
 40
0.2725849925872698
 40
0.2725849925872698
 10
832.8849332975805
 20
1750.288112315228
 30
0.0
 10
832.8717097800991
 20
1750.506697292853
 30
0.0
 10
832.8574268738154
 20
1750.725609177703
 30
0.0
 10
832.8393248527076
 20
1750.943142860737
 30
0.0
  0
ARC
  5
235
330
16E
100
AcDbEntity
  8
P-SANR-FIXT
100
AcDbCircle
 10
815.6664074431873
 20
1749.247075844257
 30
0.0
 40
17.25
100
AcDbArc
 50
320.60060767798
 51
322.5220758080376
  0
ARC
  5
236
330
16E
100
AcDbEntity
  8
P-SANR-FIXT
100
AcDbCircle
 10
815.6664074431873
 20
1749.247075844257
 30
0.0
 40
17.25000000000003
100
AcDbArc
 50
310.0599200606226
 51
310.8505034062517
  0
ARC
  5
237
330
16E
100
AcDbEntity
  8
P-SANR-FIXT
100
AcDbCircle
 10
815.6664074431873
 20
1749.247075844257
 30
0.0
 40
17.25000000000007
100
AcDbArc
 50
286.8704965003038
 51
287.5073586026792
  0
ARC
  5
238
330
16E
100
AcDbEntity
  8
P-SANR-FIXT
100
AcDbCircle
 10
815.6664074431873
 20
1749.247075844257
 30
0.0
 40
17.24999999999996
100
AcDbArc
 50
281.2231674312618
 51
281.6715724017862
  0
ARC
  5
239
330
16E
100
AcDbEntity
  8
P-SANR-FIXT
100
AcDbCircle
 10
815.6664074431873
 20
1749.247075844257
 30
0.0
 40
17.25000000000005
100
AcDbArc
 50
275.5776140924214
 51
275.8357862008934
  0
LINE
  5
23A
330
16E
100
AcDbEntity
  8
P-SANR-FIXT
100
AcDbLine
 10
815.6664074431875
 20
1731.997075844257
 30
0.0
 11
815.6469662038288
 21
1731.997086799675
 31
0.0
  0
ARC
  5
23B
330
16E
100
AcDbEntity
  8
P-SANR-FIXT
100
AcDbCircle
 10
815.6664074431873
 20
1749.247075844257
 30
0.0
 40
17.24999999999999
100
AcDbArc
 50
264.164213799107
 51
264.2925415292309
  0
ARC
  5
23C
330
16E
100
AcDbEntity
  8
P-SANR-FIXT
100
AcDbCircle
 10
815.6664074431873
 20
1749.247075844257
 30
0.0
 40
17.24999999999998
100
AcDbArc
 50
258.3284275982141
 51
258.6446270283186
  0
ARC
  5
23D
330
16E
100
AcDbEntity
  8
P-SANR-FIXT
100
AcDbCircle
 10
815.6664074431873
 20
1749.247075844257
 30
0.0
 40
17.25000000000004
100
AcDbArc
 50
252.4926413973211
 51
252.9949554432927
  0
ARC
  5
23E
330
16E
100
AcDbEntity
  8
P-SANR-FIXT
100
AcDbCircle
 10
815.6664074431873
 20
1749.247075844257
 30
0.0
 40
17.25000000000001
100
AcDbArc
 50
223.3137103928569
 51
224.8086769385579
  0
ARC
  5
23F
330
16E
100
AcDbEntity
  8
P-SANR-FIXT
100
AcDbCircle
 10
815.6664074431873
 20
1749.247075844257
 30
0.0
 40
17.25000000000004
100
AcDbArc
 50
217.4779241919643
 51
219.3130432495149
  0
SPLINE
  5
240
330
16E
100
AcDbEntity
  8
P-SANR-FIXT
100
AcDbSpline
210
0.0
220
0.0
230
1.0
 70
     8
 71
     3
 72
     8
 73
     4
 74
     0
 42
0.000000001
 43
0.0000000001
 40
0.6666666666666666
 40
0.6666666666666666
 40
0.6666666666666666
 40
0.6666666666666666
 40
0.8333333333333332
 40
0.8333333333333332
 40
0.8333333333333332
 40
0.8333333333333332
 10
832.7926113049922
 20
1747.184482065238
 30
0.0
 10
832.8331765363131
 20
1747.521381719787
 30
0.0
 10
832.8537217075027
 20
1747.865054119379
 30
0.0
 10
832.8693275025415
 20
1748.210489627914
 30
0.0
  0
ARC
  5
241
330
16E
100
AcDbEntity
  8
P-SANR-FIXT
100
AcDbCircle
 10
815.6664074431873
 20
1749.247075844257
 30
0.0
 40
17.24999999999998
100
AcDbArc
 50
354.3721186371965
 51
354.9999999999994
  0
ARC
  5
242
330
16E
100
AcDbEntity
  8
P-SANR-FIXT
100
AcDbCircle
 10
815.6664074431873
 20
1749.247075844257
 30
0.0
 40
17.25000000000003
100
AcDbArc
 50
348.7412277815902
 51
349.9999999999992
  0
ARC
  5
243
330
16E
100
AcDbEntity
  8
P-SANR-FIXT
100
AcDbCircle
 10
815.6664074431873
 20
1749.247075844257
 30
0.0
 40
17.25000000000005
100
AcDbArc
 50
343.1090614893391
 51
344.9999999999989
  0
ARC
  5
244
330
16E
100
AcDbEntity
  8
P-SANR-FIXT
100
AcDbCircle
 10
815.6664074431873
 20
1749.247075844257
 30
0.0
 40
17.25000000000004
100
AcDbArc
 50
334.9999999999991
 51
337.4774045697967
  0
ARC
  5
245
330
16E
100
AcDbEntity
  8
P-SANR-FIXT
100
AcDbCircle
 10
815.6664074431873
 20
1749.247075844257
 30
0.0
 40
17.25000000000012
100
AcDbArc
 50
324.9999999999993
 51
326.2236392671708
  0
ARC
  5
246
330
16E
100
AcDbEntity
  8
P-SANR-FIXT
100
AcDbCircle
 10
815.6664074431873
 20
1749.247075844257
 30
0.0
 40
17.25000000000003
100
AcDbArc
 50
319.9999999999988
 51
320.6064284940165
  0
ARC
  5
247
330
16E
100
AcDbEntity
  8
P-SANR-FIXT
100
AcDbCircle
 10
815.6664074431873
 20
1749.247075844257
 30
0.0
 40
17.24999999999998
100
AcDbArc
 50
309.4404803883238
 51
309.9999999999992
  0
ARC
  5
248
330
16E
100
AcDbEntity
  8
P-SANR-FIXT
100
AcDbCircle
 10
815.6664074431873
 20
1749.247075844257
 30
0.0
 40
17.24999999999993
100
AcDbArc
 50
303.7763607328307
 51
304.999999999999
  0
ARC
  5
249
330
16E
100
AcDbEntity
  8
P-SANR-FIXT
100
AcDbCircle
 10
815.6664074431873
 20
1749.247075844257
 30
0.0
 40
17.24999999999993
100
AcDbArc
 50
294.7435717982978
 51
294.9999999999993
  0
ARC
  5
24A
330
16E
100
AcDbEntity
  8
P-SANR-FIXT
100
AcDbCircle
 10
815.6664074431873
 20
1749.247075844257
 30
0.0
 40
17.24999999999997
100
AcDbArc
 50
289.9999999999991
 51
292.522595430205
  0
ARC
  5
24B
330
16E
100
AcDbEntity
  8
P-SANR-FIXT
100
AcDbCircle
 10
815.6664074431873
 20
1749.247075844257
 30
0.0
 40
17.24999999999995
100
AcDbArc
 50
279.9999999999994
 51
281.2587722184107
  0
ARC
  5
24C
330
16E
100
AcDbEntity
  8
P-SANR-FIXT
100
AcDbCircle
 10
815.6664074431873
 20
1749.247075844257
 30
0.0
 40
17.24999999999998
100
AcDbArc
 50
274.9999999999992
 51
275.6278813628043
  0
ARC
  5
24D
330
16E
100
AcDbEntity
  8
P-SANR-FIXT
100
AcDbCircle
 10
815.6664074431873
 20
1749.247075844257
 30
0.0
 40
17.25000000000009
100
AcDbArc
 50
264.3721186371946
 51
264.9999999999991
  0
ARC
  5
24E
330
16E
100
AcDbEntity
  8
P-SANR-FIXT
100
AcDbCircle
 10
815.6664074431873
 20
1749.247075844257
 30
0.0
 40
17.25000000000016
100
AcDbArc
 50
253.1090614893378
 51
254.9999999999991
  0
ARC
  5
24F
330
16E
100
AcDbEntity
  8
P-SANR-FIXT
100
AcDbCircle
 10
815.6664074431873
 20
1749.247075844257
 30
0.0
 40
17.25000000000007
100
AcDbArc
 50
244.9999999999995
 51
247.4774045697945
  0
ARC
  5
250
330
16E
100
AcDbEntity
  8
P-SANR-FIXT
100
AcDbCircle
 10
815.6664074431873
 20
1749.247075844257
 30
0.0
 40
17.25000000000009
100
AcDbArc
 50
234.9999999999996
 51
236.223639267169
  0
ARC
  5
251
330
16E
100
AcDbEntity
  8
P-SANR-FIXT
100
AcDbCircle
 10
815.6664074431873
 20
1749.247075844257
 30
0.0
 40
17.24999999999998
100
AcDbArc
 50
219.3935715059833
 51
219.9999999999997
  0
ARC
  5
252
330
16E
100
AcDbEntity
  8
P-SANR-FIXT
100
AcDbCircle
 10
815.6664074431873
 20
1749.247075844257
 30
0.0
 40
17.25000000000006
100
AcDbArc
 50
213.7763607328288
 51
214.9999999999998
  0
LINE
  5
253
330
16E
100
AcDbEntity
  8
P-SANR-FIXT
100
AcDbLine
 10
800.6505471771681
 20
1740.75670244426
 30
0.0
 11
800.6499118921251
 21
1740.757826091486
 31
0.0
  0
ARC
  5
254
330
16E
100
AcDbEntity
  8
P-SANR-FIXT
100
AcDbCircle
 10
815.6664074431873
 20
1749.247075844257
 30
0.0
 40
17.24999999999996
100
AcDbArc
 50
199.9999999999997
 51
202.5225954302039
  0
ARC
  5
255
330
16E
100
AcDbEntity
  8
P-SANR-FIXT
100
AcDbCircle
 10
815.6664074431873
 20
1749.247075844257
 30
0.0
 40
17.24999999999995
100
AcDbArc
 50
190.0000000000001
 51
191.2587722184091
  0
ARC
  5
256
330
16E
100
AcDbEntity
  8
P-SANR-FIXT
100
AcDbCircle
 10
815.6664074431873
 20
1749.247075844257
 30
0.0
 40
17.24999999999994
100
AcDbArc
 50
184.9999999999997
 51
185.6278813628027
  0
SPLINE
  5
257
330
16E
100
AcDbEntity
  8
P-SANR-FIXT
100
AcDbSpline
210
0.0
220
0.0
230
1.0
 70
     8
 71
     3
 72
     8
 73
     4
 74
     0
 42
0.000000001
 43
0.0000000001
 40
0.1666666666666666
 40
0.1666666666666666
 40
0.1666666666666666
 40
0.1666666666666666
 40
0.2725849925870813
 40
0.2725849925870813
 40
0.2725849925870813
 40
0.2725849925870813
 10
798.4478815887943
 20
1748.206039373287
 30
0.0
 10
798.4611051062757
 20
1747.987454395662
 30
0.0
 10
798.4753880125593
 20
1747.768542510813
 30
0.0
 10
798.4934900336669
 20
1747.551008827779
 30
0.0
  0
SPLINE
  5
258
330
16E
100
AcDbEntity
  8
P-SANR-FIXT
100
AcDbSpline
210
0.0
220
0.0
230
1.0
 70
     8
 71
     3
 72
     8
 73
     4
 74
     0
 42
0.000000001
 43
0.0000000001
 40
0.6014128817228536
 40
0.6014128817228536
 40
0.6014128817228536
 40
0.6014128817228536
 40
0.6023759778190781
 40
0.6023759778190781
 40
0.6023759778190781
 40
0.6023759778190781
 10
798.8083895224345
 20
1745.590625008206
 30
0.0
 10
798.8087947395627
 20
1745.588756954726
 30
0.0
 10
798.8092007853923
 20
1745.586889392505
 30
0.0
 10
798.8096076559218
 20
1745.585022319172
 30
0.0
  0
ARC
  5
259
330
16E
100
AcDbEntity
  8
P-SANR-FIXT
100
AcDbCircle
 10
815.6664074431873
 20
1749.247075844257
 30
0.0
 40
16.94999999998277
100
AcDbArc
 50
112.3762944323321
 51
112.5624772205771
  0
LINE
  5
25A
330
16E
100
AcDbEntity
  8
P-SANR-FIXT
100
AcDbLine
 10
806.1966840626963
 20
1763.305057175031
 30
0.0
 11
806.172278163117
 21
1763.288586062632
 31
0.0
  0
LINE
  5
25B
330
16E
100
AcDbEntity
  8
P-SANR-FIXT
100
AcDbLine
 10
841.820074354104
 20
1759.425423229451
 30
0.0
 11
841.820074354104
 21
1757.496944153854
 31
0.0
  0
LINE
  5
25C
330
16E
100
AcDbEntity
  8
P-SANR-FIXT
100
AcDbLine
 10
841.820074354104
 20
1740.997207534541
 30
0.0
 11
841.820074354104
 21
1739.068728458947
 31
0.0
  0
LINE
  5
25D
330
16E
100
AcDbEntity
  8
P-SANR-FIXT
100
AcDbLine
 10
840.3200743541059
 20
1766.097075844257
 30
0.0
 11
840.3200743541058
 21
1749.247075844257
 31
0.0
  0
LINE
  5
25E
330
16E
100
AcDbEntity
  8
P-SANR-FIXT
100
AcDbLine
 10
840.3200743541058
 20
1749.247075844257
 30
0.0
 11
840.3200743541058
 21
1732.397075844257
 31
0.0
  0
LINE
  5
25F
330
16E
100
AcDbEntity
  8
P-SANR-FIXT
100
AcDbLine
 10
789.5127405322709
 20
1757.496944153854
 30
0.0
 11
789.5127405322709
 21
1759.425423229451
 31
0.0
  0
LINE
  5
260
330
16E
100
AcDbEntity
  8
P-SANR-FIXT
100
AcDbLine
 10
789.5127405322709
 20
1738.979391267696
 30
0.0
 11
789.5127405322709
 21
1740.905604612712
 31
0.0
  0
LINE
  5
261
330
16E
100
AcDbEntity
  8
P-SANR-FIXT
100
AcDbLine
 10
791.0127405322691
 20
1766.097075844257
 30
0.0
 11
791.0127405322691
 21
1749.247075844257
 31
0.0
  0
LINE
  5
262
330
16E
100
AcDbEntity
  8
P-SANR-FIXT
100
AcDbLine
 10
791.0127405322691
 20
1749.247075844257
 30
0.0
 11
791.0127405322688
 21
1732.397075844257
 31
0.0
  0
ENDBLK
  5
264
330
16E
100
AcDbEntity
  8
0
100
AcDbBlockEnd
  0
BLOCK
  5
2F9
330
266
100
AcDbEntity
  8
0
100
AcDbBlockBegin
  2
Automatic flow rate regulator valve_Caleffi_121 DN15 - 1_2__-V2-Est - Idraulica
 70
     0
 10
0.0
 20
0.0
 30
0.0
  3
Automatic flow rate regulator valve_Caleffi_121 DN15 - 1_2__-V2-Est - Idraulica
  1

  0
LINE
  5
267
330
266
100
AcDbEntity
  8
M-PIPE
100
AcDbLine
 10
1054.363156828915
 20
1993.317665860171
 30
0.0
 11
1054.363156828915
 21
1989.49818385003
 31
0.0
1001
REVIT
1002
{
1070
     3
1000
938184
1002
}
  0
LINE
  5
268
330
266
100
AcDbEntity
  8
M-PIPE
100
AcDbLine
 10
1088.863156828884
 20
1989.498183850029
 30
0.0
 11
1088.863156828884
 21
1993.317665860171
 31
0.0
1001
REVIT
1002
{
1070
     3
1000
938184
1002
}
  0
LWPOLYLINE
  5
269
330
266
100
AcDbEntity
  8
M-PIPE
100
AcDbPolyline
 90
       15
 70
   128
 43
0.0
 10
1054.363156828902
 20
1993.317665860171
 10
1054.36475661558
 20
1993.397644528545
 10
1054.369553416297
 20
1993.47749524811
 10
1054.377539557194
 20
1993.55709027475
 10
1054.388702262151
 20
1993.6363022734
 10
1054.403023673219
 20
1993.715004521762
 10
1054.420480879198
 20
1993.793071113026
 10
1054.441045952281
 20
1993.8703771573
 10
1054.464685992737
 20
1993.946798981404
 10
1054.491363181546
 20
1994.022214326722
 10
1054.521034840896
 20
1994.096502544789
 10
1054.553653502462
 20
1994.169544790304
 10
1054.589166983344
 20
1994.241224211254
 10
1054.627518469547
 20
1994.311426135859
 10
1054.634682100723
 20
1994.323834391802
1001
REVIT
1002
{
1070
     3
1000
938184
1002
}
  0
LWPOLYLINE
  5
26A
330
266
100
AcDbEntity
  8
M-PIPE
100
AcDbPolyline
 90
       15
 70
   128
 43
0.0
 10
1088.591631557077
 20
1994.323834391802
 10
1088.630484971315
 20
1994.253909010757
 10
1088.666511037535
 20
1994.182485840392
 10
1088.699652121716
 20
1994.109679142545
 10
1088.729855205193
 20
1994.035605392399
 10
1088.757071969476
 20
1993.960383092154
 10
1088.781258873548
 20
1993.884132581444
 10
1088.802377223522
 20
1993.806975844819
 10
1088.820393234542
 20
1993.729036316599
 10
1088.835278084835
 20
1993.650438683404
 10
1088.847007961815
 20
1993.571308684679
 10
1088.855564100182
 20
1993.491772911542
 10
1088.860932811938
 20
1993.411958604265
 10
1088.863105508291
 20
1993.331993448711
 10
1088.863156828898
 20
1993.317665860171
1001
REVIT
1002
{
1070
     3
1000
938184
1002
}
  0
LINE
  5
26B
330
266
100
AcDbEntity
  8
M-PIPE
100
AcDbLine
 10
1055.257974585578
 20
1995.088992345093
 30
0.0
 11
1054.634682100723
 21
1994.323834391802
 31
0.0
1001
REVIT
1002
{
1070
     3
1000
938184
1002
}
  0
LINE
  5
26C
330
266
100
AcDbEntity
  8
M-PIPE
100
AcDbLine
 10
1088.591631557077
 20
1994.323834391802
 30
0.0
 11
1087.968339072222
 21
1995.088992345093
 31
0.0
1001
REVIT
1002
{
1070
     3
1000
938184
1002
}
  0
LWPOLYLINE
  5
26D
330
266
100
AcDbEntity
  8
M-PIPE
100
AcDbPolyline
 90
       12
 70
   128
 43
0.0
 10
1055.257974585578
 20
1995.088992345093
 10
1055.30215852008
 20
1995.155677625658
 10
1055.343640412178
 20
1995.224076451233
 10
1055.382353899693
 20
1995.29407939829
 10
1055.418237049303
 20
1995.365574477046
 10
1055.451232455624
 20
1995.438447310625
 10
1055.481287333044
 20
1995.512581318041
 10
1055.508353600171
 20
1995.587857900694
 10
1055.53238795675
 20
1995.664156632112
 10
1055.55335195294
 20
1995.7413554506
 10
1055.571212050816
 20
1995.819330854517
 10
1055.581079322898
 20
1995.870021355193
1001
REVIT
1002
{
1070
     3
1000
938184
1002
}
  0
LWPOLYLINE
  5
26E
330
266
100
AcDbEntity
  8
M-PIPE
100
AcDbPolyline
 90
       12
 70
   128
 43
0.0
 10
1087.645234334902
 20
1995.870021355192
 10
1087.661075246173
 20
1995.79161081864
 10
1087.680039071554
 20
1995.71389646965
 10
1087.70209547297
 20
1995.637002634599
 10
1087.727209164885
 20
1995.561052327223
 10
1087.755339970748
 20
1995.48616705181
 10
1087.78644288727
 20
1995.412466608826
 10
1087.820468156422
 20
1995.340068903259
 10
1087.857361345029
 20
1995.269089755993
 10
1087.89706343186
 20
1995.199642718523
 10
1087.939510902047
 20
1995.131838891294
 10
1087.968339072222
 20
1995.088992345093
1001
REVIT
1002
{
1070
     3
1000
938184
1002
}
  0
LWPOLYLINE
  5
26F
330
266
100
AcDbEntity
  8
M-PIPE
100
AcDbPolyline
 90
        3
 70
   128
 43
0.0
 10
1058.29857523364
 20
2017.879801840781
 10
1056.131807249082
 20
2004.892632780538
 10
1055.581079322898
 20
1995.870021355193
1001
REVIT
1002
{
1070
     3
1000
938184
1002
}
  0
LWPOLYLINE
  5
270
330
266
100
AcDbEntity
  8
M-PIPE
100
AcDbPolyline
 90
        3
 70
   128
 43
0.0
 10
1084.927738424161
 20
2017.879801840781
 10
1087.094506408718
 20
2004.892632780537
 10
1087.645234334902
 20
1995.870021355192
1001
REVIT
1002
{
1070
     3
1000
938184
1002
}
  0
LWPOLYLINE
  5
271
330
266
100
AcDbEntity
  8
M-PIPE
100
AcDbPolyline
 90
       36
 70
   128
 43
0.0
 10
1058.29857523364
 20
2017.879801840781
 10
1058.315406277094
 20
2017.958005822064
 10
1058.335351182652
 20
2018.035474186281
 10
1058.358378042718
 20
2018.112083000576
 10
1058.384450019228
 20
2018.187709707188
 10
1058.413525402582
 20
2018.26223331952
 10
1058.44555767837
 20
2018.335534615689
 10
1058.480495601781
 20
2018.407496329259
 10
1058.518283279593
 20
2018.478003336838
 10
1058.558860259583
 20
2018.546942842255
 10
1058.602161627236
 20
2018.614204557008
 10
1058.648118109603
 20
2018.679680876701
 10
1058.696656186116
 20
2018.743267053191
 10
1058.747698206206
 20
2018.804861362159
 10
1058.80116251353
 20
2018.864365265852
 10
1058.8569635766
 20
2018.921683570715
 10
1058.91501212562
 20
2018.976724579689
 10
1058.975215295294
 20
2019.0294002389
 10
1059.037476773393
 20
2019.079626278532
 10
1059.101696954835
 20
2019.127322347634
 10
1059.167773101028
 20
2019.172412142671
 10
1059.235599504233
 20
2019.21482352959
 10
1059.305067656675
 20
2019.254488659218
 10
1059.37606642413
 20
2019.29134407581
 10
1059.448482223713
 20
2019.325330818561
 10
1059.522199205595
 20
2019.356394515933
 10
1059.597099438329
 20
2019.384485472637
 10
1059.673063097522
 20
2019.409558749134
 10
1059.749968657522
 20
2019.43157423353
 10
1059.82769308584
 20
2019.450496705748
 10
1059.906112039971
 20
2019.466295893868
 10
1059.985100066316
 20
2019.478946522559
 10
1060.064530800883
 20
2019.488428353514
 10
1060.144277171442
 20
2019.494726217827
 10
1060.22421160081
 20
2019.497830040258
 10
1060.261829600536
 20
2019.498183850028
1001
REVIT
1002
{
1070
     3
1000
938184
1002
}
  0
LWPOLYLINE
  5
272
330
266
100
AcDbEntity
  8
M-PIPE
100
AcDbPolyline
 90
       41
 70
   128
 43
0.0
 10
1071.6131568289
 20
2019.498183850028
 10
1071.159224810903
 20
2019.498183850028
 10
1070.706018987302
 20
2019.498183850028
 10
1070.254264390734
 20
2019.498183850028
 10
1069.804683732185
 20
2019.498183850028
 10
1069.357996244805
 20
2019.498183850028
 10
1068.914916533284
 20
2019.498183850028
 10
1068.476153430642
 20
2019.498183850028
 10
1068.042408864245
 20
2019.498183850028
 10
1067.614376732873
 20
2019.498183850028
 10
1067.192741796627
 20
2019.498183850028
 10
1066.778178581461
 20
2019.498183850028
 10
1066.371350300084
 20
2019.498183850028
 10
1065.97290779096
 20
2019.498183850028
 10
1065.583488477109
 20
2019.498183850028
 10
1065.20371534636
 20
2019.498183850028
 10
1064.834195954707
 20
2019.498183850028
 10
1064.475521454353
 20
2019.498183850028
 10
1064.128265647983
 20
2019.498183850028
 10
1063.792984070812
 20
2019.498183850028
 10
1063.470213101839
 20
2019.498183850028
 10
1063.16046910576
 20
2019.498183850028
 10
1062.864247606895
 20
2019.498183850028
 10
1062.58202249645
 20
2019.498183850028
 10
1062.314245274398
 20
2019.498183850028
 10
1062.061344327171
 20
2019.498183850028
 10
1061.823724242336
 20
2019.498183850028
 10
1061.601765161338
 20
2019.498183850028
 10
1061.395822171359
 20
2019.498183850028
 10
1061.206224737249
 20
2019.498183850028
 10
1061.03327617446
 20
2019.498183850028
 10
1060.877253163797
 20
2019.498183850028
 10
1060.738405308794
 20
2019.498183850028
 10
1060.616954736399
 20
2019.498183850028
 10
1060.513095741622
 20
2019.498183850028
 10
1060.426994476697
 20
2019.498183850028
 10
1060.358788685282
 20
2019.498183850028
 10
1060.308587482093
 20
2019.498183850028
 10
1060.276471178346
 20
2019.498183850028
 10
1060.262491153276
 20
2019.498183850028
 10
1060.261829600535
 20
2019.498183850028
1001
REVIT
1002
{
1070
     3
1000
938184
1002
}
  0
LWPOLYLINE
  5
273
330
266
100
AcDbEntity
  8
M-PIPE
100
AcDbPolyline
 90
       23
 70
   128
 43
0.0
 10
1060.261829600535
 20
2019.498183850028
 10
1060.270909451574
 20
2019.498183850028
 10
1060.298134478866
 20
2019.498183850028
 10
1060.343461128176
 20
2019.498183850028
 10
1060.406816886533
 20
2019.498183850028
 10
1060.48810039824
 20
2019.498183850028
 10
1060.587181627017
 20
2019.498183850028
 10
1060.703902064035
 20
2019.498183850028
 10
1060.838074981493
 20
2019.498183850028
 10
1060.989485731345
 20
2019.498183850028
 10
1061.15789208869
 20
2019.498183850028
 10
1061.343024639283
 20
2019.498183850028
 10
1061.544587210534
 20
2019.498183850028
 10
1061.762257345328
 20
2019.498183850028
 10
1061.995686817882
 20
2019.498183850028
 10
1062.244502190836
 20
2019.498183850028
 10
1062.508305412672
 20
2019.498183850028
 10
1062.786674454509
 20
2019.498183850028
 10
1063.079163985262
 20
2019.498183850028
 10
1063.385306084077
 20
2019.498183850028
 10
1063.704610988903
 20
2019.498183850028
 10
1064.036567880006
 20
2019.498183850028
 10
1064.28374978773
 20
2019.498183850028
1001
REVIT
1002
{
1070
     3
1000
938184
1002
}
  0
LWPOLYLINE
  5
274
330
266
100
AcDbEntity
  8
M-PIPE
100
AcDbPolyline
 90
       36
 70
   128
 43
0.0
 10
1082.964484057264
 20
2019.498183850028
 10
1083.044462725638
 20
2019.49658406335
 10
1083.124313445203
 20
2019.491787262634
 10
1083.203908471843
 20
2019.483801121737
 10
1083.283120470493
 20
2019.47263841678
 10
1083.361822718855
 20
2019.458317005711
 10
1083.439889310119
 20
2019.440859799733
 10
1083.517195354393
 20
2019.42029472665
 10
1083.593617178497
 20
2019.396654686194
 10
1083.669032523815
 20
2019.369977497385
 10
1083.743320741882
 20
2019.340305838035
 10
1083.816362987397
 20
2019.307687176469
 10
1083.888042408348
 20
2019.272173695588
 10
1083.958244332952
 20
2019.233822209384
 10
1084.026856453107
 20
2019.192694072056
 10
1084.093769004055
 20
2019.148855079848
 10
1084.15887493999
 20
2019.102375365798
 10
1084.222070105302
 20
2019.053329287531
 10
1084.283253401208
 20
2019.001795308311
 10
1084.342326947486
 20
2018.947855871511
 10
1084.399196239064
 20
2018.891597268723
 10
1084.453770297207
 20
2018.833109501712
 10
1084.505961815063
 20
2018.772486138426
 10
1084.555687297338
 20
2018.709824163316
 10
1084.602867193867
 20
2018.645223822174
 10
1084.647426026881
 20
2018.578788461765
 10
1084.689292511752
 20
2018.510624364495
 10
1084.728399671035
 20
2018.440840578377
 10
1084.764684941618
 20
2018.369548742583
 10
1084.798090274809
 20
2018.296862908842
 10
1084.828562229199
 20
2018.222899358983
 10
1084.856052056164
 20
2018.147776418907
 10
1084.880515777844
 20
2018.071614269294
 10
1084.901914257502
 20
2017.994534753334
 10
1084.920213262136
 20
2017.916661181812
 10
1084.927738424161
 20
2017.879801840781
1001
REVIT
1002
{
1070
     3
1000
938184
1002
}
  0
LWPOLYLINE
  5
275
330
266
100
AcDbEntity
  8
M-PIPE
100
AcDbPolyline
 90
       24
 70
   128
 43
0.0
 10
1078.942563870104
 20
2019.498183850028
 10
1079.098048009817
 20
2019.498183850028
 10
1079.433329586989
 20
2019.498183850028
 10
1079.756100555962
 20
2019.498183850028
 10
1080.06584455204
 20
2019.498183850028
 10
1080.362066050906
 20
2019.498183850028
 10
1080.644291161351
 20
2019.498183850028
 10
1080.912068383403
 20
2019.498183850028
 10
1081.16496933063
 20
2019.498183850028
 10
1081.402589415465
 20
2019.498183850028
 10
1081.624548496463
 20
2019.498183850028
 10
1081.830491486442
 20
2019.498183850028
 10
1082.020088920551
 20
2019.498183850028
 10
1082.193037483341
 20
2019.498183850028
 10
1082.349060494004
 20
2019.498183850028
 10
1082.487908349007
 20
2019.498183850028
 10
1082.609358921402
 20
2019.498183850028
 10
1082.713217916179
 20
2019.498183850028
 10
1082.799319181104
 20
2019.498183850028
 10
1082.867524972519
 20
2019.498183850028
 10
1082.917726175708
 20
2019.498183850028
 10
1082.949842479455
 20
2019.498183850028
 10
1082.963822504525
 20
2019.498183850028
 10
1082.964484057266
 20
2019.498183850028
1001
REVIT
1002
{
1070
     3
1000
938184
1002
}
  0
LWPOLYLINE
  5
276
330
266
100
AcDbEntity
  8
M-PIPE
100
AcDbPolyline
 90
       41
 70
   128
 43
0.0
 10
1082.964484057266
 20
2019.498183850028
 10
1082.955404206227
 20
2019.498183850028
 10
1082.928179178934
 20
2019.498183850028
 10
1082.882852529625
 20
2019.498183850028
 10
1082.819496771267
 20
2019.498183850028
 10
1082.73821325956
 20
2019.498183850028
 10
1082.639132030783
 20
2019.498183850028
 10
1082.522411593766
 20
2019.498183850028
 10
1082.388238676308
 20
2019.498183850028
 10
1082.236827926456
 20
2019.498183850028
 10
1082.06842156911
 20
2019.498183850028
 10
1081.883289018518
 20
2019.498183850028
 10
1081.681726447267
 20
2019.498183850028
 10
1081.464056312473
 20
2019.498183850028
 10
1081.230626839919
 20
2019.498183850028
 10
1080.981811466964
 20
2019.498183850028
 10
1080.718008245129
 20
2019.498183850028
 10
1080.439639203292
 20
2019.498183850028
 10
1080.147149672538
 20
2019.498183850028
 10
1079.841007573723
 20
2019.498183850028
 10
1079.521702668897
 20
2019.498183850028
 10
1079.189745777794
 20
2019.498183850028
 10
1078.845667960626
 20
2019.498183850028
 10
1078.4900196685
 20
2019.498183850028
 10
1078.123369862816
 20
2019.498183850028
 10
1077.74630510505
 20
2019.498183850028
 10
1077.359428618377
 20
2019.498183850028
 10
1076.963359322647
 20
2019.498183850028
 10
1076.558730844242
 20
2019.498183850028
 10
1076.146190502412
 20
2019.498183850028
 10
1075.726398273701
 20
2019.498183850028
 10
1075.300025736122
 20
2019.498183850028
 10
1074.867754994782
 20
2019.498183850028
 10
1074.430277590654
 20
2019.498183850028
 10
1073.98829339426
 20
2019.498183850028
 10
1073.542509486031
 20
2019.498183850028
 10
1073.093639025124
 20
2019.498183850028
 10
1072.642400108522
 20
2019.498183850028
 10
1072.189514622233
 20
2019.498183850028
 10
1071.735707086424
 20
2019.498183850028
 10
1071.6131568289
 20
2019.498183850028
1001
REVIT
1002
{
1070
     3
1000
938184
1002
}
  0
LINE
  5
277
330
266
100
AcDbEntity
  8
M-PIPE
100
AcDbLine
 10
1054.363156828914
 20
1989.498183850028
 30
0.0
 11
1066.65545983543
 21
1989.498183850029
 31
0.0
1001
REVIT
1002
{
1070
     3
1000
938184
1002
}
  0
LINE
  5
278
330
266
100
AcDbEntity
  8
M-PIPE
100
AcDbLine
 10
1076.570853822482
 20
1989.498183850028
 30
0.0
 11
1088.863156828883
 21
1989.498183850028
 31
0.0
1001
REVIT
1002
{
1070
     3
1000
938184
1002
}
  0
LINE
  5
279
330
266
100
AcDbEntity
  8
M-PIPE
100
AcDbLine
 10
1071.613156828898
 20
1994.323834391801
 30
0.0
 11
1054.634682100721
 21
1994.323834391801
 31
0.0
1001
REVIT
1002
{
1070
     3
1000
938184
1002
}
  0
LINE
  5
27A
330
266
100
AcDbEntity
  8
M-PIPE
100
AcDbLine
 10
1088.591631557076
 20
1994.323834391801
 30
0.0
 11
1071.613156828898
 21
1994.323834391801
 31
0.0
1001
REVIT
1002
{
1070
     3
1000
938184
1002
}
  0
LINE
  5
27B
330
266
100
AcDbEntity
  8
M-PIPE
100
AcDbLine
 10
1071.613156828898
 20
1995.088992345092
 30
0.0
 11
1055.257974585576
 21
1995.088992345092
 31
0.0
1001
REVIT
1002
{
1070
     3
1000
938184
1002
}
  0
LINE
  5
27C
330
266
100
AcDbEntity
  8
M-PIPE
100
AcDbLine
 10
1087.968339072221
 20
1995.088992345091
 30
0.0
 11
1071.613156828898
 21
1995.088992345092
 31
0.0
1001
REVIT
1002
{
1070
     3
1000
938184
1002
}
  0
LINE
  5
27D
330
266
100
AcDbEntity
  8
M-PIPE
100
AcDbLine
 10
1071.613156828898
 20
1995.870021355191
 30
0.0
 11
1055.581079322896
 21
1995.870021355191
 31
0.0
1001
REVIT
1002
{
1070
     3
1000
938184
1002
}
  0
LINE
  5
27E
330
266
100
AcDbEntity
  8
M-PIPE
100
AcDbLine
 10
1087.645234334901
 20
1995.870021355191
 30
0.0
 11
1071.613156828898
 21
1995.870021355191
 31
0.0
1001
REVIT
1002
{
1070
     3
1000
938184
1002
}
  0
LINE
  5
27F
330
266
100
AcDbEntity
  8
M-PIPE
100
AcDbLine
 10
1071.613156828898
 20
2017.879801840781
 30
0.0
 11
1058.298575233638
 21
2017.879801840781
 31
0.0
1001
REVIT
1002
{
1070
     3
1000
938184
1002
}
  0
LINE
  5
280
330
266
100
AcDbEntity
  8
M-PIPE
100
AcDbLine
 10
1084.927738424159
 20
2017.87980184078
 30
0.0
 11
1071.613156828898
 21
2017.879801840781
 31
0.0
1001
REVIT
1002
{
1070
     3
1000
938184
1002
}
  0
LINE
  5
281
330
266
100
AcDbEntity
  8
P-SANR-FIXT
100
AcDbLine
 10
1090.113156828902
 20
1917.070258590622
 30
0.0
 11
1090.113156828902
 21
1930.273755756071
 31
0.0
  0
LINE
  5
282
330
266
100
AcDbEntity
  8
P-SANR-FIXT
100
AcDbLine
 10
1053.113156828901
 20
1930.273755756072
 30
0.0
 11
1053.113156828901
 21
1917.070258590621
 31
0.0
  0
LINE
  5
283
330
266
100
AcDbEntity
  8
P-SANR-FIXT
100
AcDbLine
 10
1053.112987016196
 20
1916.345928538089
 30
0.0
 11
1055.447349291574
 21
1914.998183850014
 31
0.0
  0
LINE
  5
284
330
266
100
AcDbEntity
  8
P-SANR-FIXT
100
AcDbLine
 10
1087.778964366227
 20
1914.998183850014
 30
0.0
 11
1090.113326641606
 21
1916.34592853809
 31
0.0
  0
LINE
  5
285
330
266
100
AcDbEntity
  8
P-SANR-FIXT
100
AcDbLine
 10
1053.113156828898
 20
1930.998183850013
 30
0.0
 11
1062.363156828898
 21
1930.998183850013
 31
0.0
  0
LINE
  5
286
330
266
100
AcDbEntity
  8
P-SANR-FIXT
100
AcDbLine
 10
1062.363156828898
 20
1930.998183850013
 30
0.0
 11
1071.613156828898
 21
1930.998183850013
 31
0.0
  0
LINE
  5
287
330
266
100
AcDbEntity
  8
P-SANR-FIXT
100
AcDbLine
 10
1071.613156828899
 20
1930.998183850013
 30
0.0
 11
1080.863156828899
 21
1930.998183850013
 31
0.0
  0
LINE
  5
288
330
266
100
AcDbEntity
  8
P-SANR-FIXT
100
AcDbLine
 10
1080.863156828899
 20
1930.998183850013
 30
0.0
 11
1090.113156828899
 21
1930.998183850013
 31
0.0
  0
LINE
  5
289
330
266
100
AcDbEntity
  8
P-SANR-FIXT
100
AcDbLine
 10
1071.613156828898
 20
1914.998183850013
 30
0.0
 11
1055.447349291573
 21
1914.998183850013
 31
0.0
  0
LINE
  5
28A
330
266
100
AcDbEntity
  8
P-SANR-FIXT
100
AcDbLine
 10
1087.778964366225
 20
1914.998183850013
 30
0.0
 11
1071.613156828899
 21
1914.998183850013
 31
0.0
  0
SPLINE
  5
28B
330
266
100
AcDbEntity
  8
P-SANR-FIXT
100
AcDbSpline
210
0.0
220
0.0
230
1.0
 70
     8
 71
     3
 72
     9
 73
     5
 74
     0
 42
0.000000001
 43
0.0000000001
 40
0.0
 40
0.0
 40
0.0
 40
0.0
 40
0.5
 40
1.0
 40
1.0
 40
1.0
 40
1.0
 10
1068.363156828899
 20
1917.070258590621
 30
0.0
 10
1068.848865135788
 20
1917.185042541739
 30
0.0
 10
1069.89896646814
 20
1917.357721272155
 30
0.0
 10
1071.039540458562
 20
1917.416621658927
 30
0.0
 10
1071.613156828899
 20
1917.417627266403
 30
0.0
  0
SPLINE
  5
28C
330
266
100
AcDbEntity
  8
P-SANR-FIXT
100
AcDbSpline
210
0.0
220
0.0
230
1.0
 70
     8
 71
     3
 72
     9
 73
     5
 74
     0
 42
0.000000001
 43
0.0000000001
 40
0.0
 40
0.0
 40
0.0
 40
0.0
 40
0.5
 40
1.0
 40
1.0
 40
1.0
 40
1.0
 10
1071.613156828899
 20
1917.417627266403
 30
0.0
 10
1072.186773199235
 20
1917.416621658928
 30
0.0
 10
1073.327347189658
 20
1917.357721272155
 30
0.0
 10
1074.37744852201
 20
1917.185042541739
 30
0.0
 10
1074.863156828899
 20
1917.070258590621
 30
0.0
  0
SPLINE
  5
28D
330
266
100
AcDbEntity
  8
P-SANR-FIXT
100
AcDbSpline
210
0.0
220
0.0
230
1.0
 70
     8
 71
     3
 72
     9
 73
     5
 74
     0
 42
0.000000001
 43
0.0000000001
 40
0.0
 40
0.0
 40
0.0
 40
0.0
 40
0.5
 40
1.0
 40
1.0
 40
1.0
 40
1.0
 10
1074.863156828899
 20
1930.27375575607
 30
0.0
 10
1074.37744852201
 20
1930.158971804952
 30
0.0
 10
1073.327347189658
 20
1929.986293074537
 30
0.0
 10
1072.186773199235
 20
1929.927392687764
 30
0.0
 10
1071.613156828899
 20
1929.926387080289
 30
0.0
  0
SPLINE
  5
28E
330
266
100
AcDbEntity
  8
P-SANR-FIXT
100
AcDbSpline
210
0.0
220
0.0
230
1.0
 70
     8
 71
     3
 72
     9
 73
     5
 74
     0
 42
0.000000001
 43
0.0000000001
 40
0.0
 40
0.0
 40
0.0
 40
0.0
 40
0.5
 40
1.0
 40
1.0
 40
1.0
 40
1.0
 10
1071.613156828899
 20
1929.926387080289
 30
0.0
 10
1071.039540458562
 20
1929.927392687764
 30
0.0
 10
1069.89896646814
 20
1929.986293074537
 30
0.0
 10
1068.848865135788
 20
1930.158971804953
 30
0.0
 10
1068.363156828899
 20
1930.273755756071
 30
0.0
  0
SPLINE
  5
28F
330
266
100
AcDbEntity
  8
P-SANR-FIXT
100
AcDbSpline
210
0.0
220
0.0
230
1.0
 70
     8
 71
     3
 72
     9
 73
     5
 74
     0
 42
0.000000001
 43
0.0000000001
 40
0.0
 40
0.0
 40
0.0
 40
0.0
 40
0.5
 40
1.0
 40
1.0
 40
1.0
 40
1.0
 10
1074.863156828899
 20
1917.070258590621
 30
0.0
 10
1076.895071494587
 20
1916.587338314826
 30
0.0
 10
1080.926986160275
 20
1916.104418039033
 30
0.0
 10
1084.895071494587
 20
1916.587338314827
 30
0.0
 10
1086.8631568289
 20
1917.070258590621
 30
0.0
  0
SPLINE
  5
290
330
266
100
AcDbEntity
  8
P-SANR-FIXT
100
AcDbSpline
210
0.0
220
0.0
230
1.0
 70
     8
 71
     3
 72
     9
 73
     5
 74
     0
 42
0.000000001
 43
0.0000000001
 40
0.0
 40
0.0
 40
0.0
 40
0.0
 40
0.5
 40
1.0
 40
1.0
 40
1.0
 40
1.0
 10
1086.8631568289
 20
1930.27375575607
 30
0.0
 10
1085.873463396822
 20
1930.510944998802
 30
0.0
 10
1083.883769964744
 20
1930.868872257191
 30
0.0
 10
1081.873463396822
 20
1930.99389706143
 30
0.0
 10
1080.863156828899
 20
1930.998183850013
 30
0.0
  0
SPLINE
  5
291
330
266
100
AcDbEntity
  8
P-SANR-FIXT
100
AcDbSpline
210
0.0
220
0.0
230
1.0
 70
     8
 71
     3
 72
     9
 73
     5
 74
     0
 42
0.000000001
 43
0.0000000001
 40
0.0
 40
0.0
 40
0.0
 40
0.0
 40
0.5
 40
1.0
 40
1.0
 40
1.0
 40
1.0
 10
1080.863156828899
 20
1930.998183850013
 30
0.0
 10
1079.852850260976
 20
1930.99389706143
 30
0.0
 10
1077.842543693054
 20
1930.868872257191
 30
0.0
 10
1075.852850260976
 20
1930.510944998802
 30
0.0
 10
1074.863156828899
 20
1930.27375575607
 30
0.0
  0
SPLINE
  5
292
330
266
100
AcDbEntity
  8
P-SANR-FIXT
100
AcDbSpline
210
0.0
220
0.0
230
1.0
 70
     8
 71
     3
 72
    10
 73
     6
 74
     0
 42
0.000000001
 43
0.0000000001
 40
0.0
 40
0.0
 40
0.0
 40
0.0
 40
0.4
 40
0.7
 40
1.0
 40
1.0
 40
1.0
 40
1.0
 10
1086.8631568289
 20
1917.070258590621
 30
0.0
 10
1087.639806369664
 20
1917.25325931056
 30
0.0
 10
1088.851419028274
 20
1917.450895175476
 30
0.0
 10
1089.903343208416
 20
1917.402151847475
 30
0.0
 10
1090.1131568289
 20
1917.207304059509
 30
0.0
 10
1090.1131568289
 20
1917.070258590621
 30
0.0
  0
SPLINE
  5
293
330
266
100
AcDbEntity
  8
P-SANR-FIXT
100
AcDbSpline
210
0.0
220
0.0
230
1.0
 70
     8
 71
     3
 72
    10
 73
     6
 74
     0
 42
0.000000001
 43
0.0000000001
 40
0.0
 40
0.0
 40
0.0
 40
0.0
 40
0.4
 40
0.7
 40
1.0
 40
1.0
 40
1.0
 40
1.0
 10
1090.1131568289
 20
1930.27375575607
 30
0.0
 10
1090.1131568289
 20
1930.091028464221
 30
0.0
 10
1089.782185984376
 20
1929.893237330338
 30
0.0
 10
1088.516018856678
 20
1929.941638717273
 30
0.0
 10
1087.445643984473
 20
1930.136505216117
 30
0.0
 10
1086.8631568289
 20
1930.27375575607
 30
0.0
  0
SPLINE
  5
294
330
266
100
AcDbEntity
  8
P-SANR-FIXT
100
AcDbSpline
210
0.0
220
0.0
230
1.0
 70
    24
 71
     3
 72
     8
 73
     4
 74
     0
 42
0.000000001
 43
0.0000000001
 40
0.0
 40
0.0
 40
0.0
 40
0.0
 40
0.5
 40
0.5
 40
0.5
 40
0.5
 10
1090.1131568289
 20
1917.070258590621
 30
0.0
 10
1090.1131568289
 20
1916.587338314827
 30
0.0
 10
1090.1131568289
 20
1916.34587817693
 30
0.0
 10
1090.1131568289
 20
1916.34587817693
 30
0.0
  0
SPLINE
  5
295
330
266
100
AcDbEntity
  8
P-SANR-FIXT
100
AcDbSpline
210
0.0
220
0.0
230
1.0
 70
    24
 71
     3
 72
     9
 73
     5
 74
     0
 42
0.000000001
 43
0.0000000001
 40
0.0
 40
0.0
 40
0.0
 40
0.0
 40
0.5
 40
1.0
 40
1.0
 40
1.0
 40
1.0
 10
1090.1131568289
 20
1930.998183850013
 30
0.0
 10
1090.1131568289
 20
1930.99389706143
 30
0.0
 10
1090.1131568289
 20
1930.86887225719
 30
0.0
 10
1090.1131568289
 20
1930.510944998802
 30
0.0
 10
1090.1131568289
 20
1930.27375575607
 30
0.0
  0
SPLINE
  5
296
330
266
100
AcDbEntity
  8
P-SANR-FIXT
100
AcDbSpline
210
0.0
220
0.0
230
1.0
 70
    24
 71
     3
 72
     9
 73
     5
 74
     0
 42
0.000000001
 43
0.0000000001
 40
0.4958309748410355
 40
0.4958309748410355
 40
0.4958309748410355
 40
0.4958309748410355
 40
0.5
 40
1.0
 40
1.0
 40
1.0
 40
1.0
 10
1053.113156828899
 20
1916.345928538089
 30
0.0
 10
1053.113156828899
 20
1916.345894963982
 30
0.0
 10
1053.113156828899
 20
1916.343864870148
 30
0.0
 10
1053.113156828899
 20
1916.587338314855
 30
0.0
 10
1053.113156828899
 20
1917.07025859062
 30
0.0
  0
SPLINE
  5
297
330
266
100
AcDbEntity
  8
P-SANR-FIXT
100
AcDbSpline
210
0.0
220
0.0
230
1.0
 70
    24
 71
     3
 72
     9
 73
     5
 74
     0
 42
0.000000001
 43
0.0000000001
 40
0.0
 40
0.0
 40
0.0
 40
0.0
 40
0.5
 40
1.0
 40
1.0
 40
1.0
 40
1.0
 10
1053.113156828899
 20
1930.273755756071
 30
0.0
 10
1053.113156828899
 20
1930.510944998802
 30
0.0
 10
1053.113156828899
 20
1930.868872257191
 30
0.0
 10
1053.113156828899
 20
1930.993897061431
 30
0.0
 10
1053.113156828899
 20
1930.998183850013
 30
0.0
  0
SPLINE
  5
298
330
266
100
AcDbEntity
  8
P-SANR-FIXT
100
AcDbSpline
210
0.0
220
0.0
230
1.0
 70
     8
 71
     3
 72
    10
 73
     6
 74
     0
 42
0.000000001
 43
0.0000000001
 40
0.0
 40
0.0
 40
0.0
 40
0.0
 40
0.4
 40
0.7
 40
1.0
 40
1.0
 40
1.0
 40
1.0
 10
1053.113156828899
 20
1917.07025859062
 30
0.0
 10
1053.113156828899
 20
1917.253259310559
 30
0.0
 10
1053.444723632383
 20
1917.450895175475
 30
0.0
 10
1054.711700306643
 20
1917.402151847474
 30
0.0
 10
1055.781871630007
 20
1917.207304059508
 30
0.0
 10
1056.363156828899
 20
1917.07025859062
 30
0.0
  0
SPLINE
  5
299
330
266
100
AcDbEntity
  8
P-SANR-FIXT
100
AcDbSpline
210
0.0
220
0.0
230
1.0
 70
     8
 71
     3
 72
    10
 73
     6
 74
     0
 42
0.000000001
 43
0.0000000001
 40
0.0
 40
0.0
 40
0.0
 40
0.0
 40
0.4
 40
0.7
 40
1.0
 40
1.0
 40
1.0
 40
1.0
 10
1056.363156828899
 20
1930.273755756071
 30
0.0
 10
1055.588109897043
 20
1930.091028464221
 30
0.0
 10
1054.37576733609
 20
1929.893237330338
 30
0.0
 10
1053.323696105114
 20
1929.941638717273
 30
0.0
 10
1053.113156828899
 20
1930.136505216117
 30
0.0
 10
1053.113156828899
 20
1930.273755756071
 30
0.0
  0
SPLINE
  5
29A
330
266
100
AcDbEntity
  8
P-SANR-FIXT
100
AcDbSpline
210
0.0
220
0.0
230
1.0
 70
     8
 71
     3
 72
     9
 73
     5
 74
     0
 42
0.000000001
 43
0.0000000001
 40
0.0
 40
0.0
 40
0.0
 40
0.0
 40
0.5
 40
1.0
 40
1.0
 40
1.0
 40
1.0
 10
1068.363156828899
 20
1930.273755756071
 30
0.0
 10
1067.373463396822
 20
1930.510944998802
 30
0.0
 10
1065.383769964744
 20
1930.868872257191
 30
0.0
 10
1063.373463396821
 20
1930.993897061431
 30
0.0
 10
1062.363156828898
 20
1930.998183850013
 30
0.0
  0
SPLINE
  5
29B
330
266
100
AcDbEntity
  8
P-SANR-FIXT
100
AcDbSpline
210
0.0
220
0.0
230
1.0
 70
     8
 71
     3
 72
     9
 73
     5
 74
     0
 42
0.000000001
 43
0.0000000001
 40
0.0
 40
0.0
 40
0.0
 40
0.0
 40
0.5
 40
1.0
 40
1.0
 40
1.0
 40
1.0
 10
1062.363156828898
 20
1930.998183850013
 30
0.0
 10
1061.352850260976
 20
1930.993897061431
 30
0.0
 10
1059.342543693053
 20
1930.868872257191
 30
0.0
 10
1057.352850260976
 20
1930.510944998802
 30
0.0
 10
1056.363156828899
 20
1930.273755756071
 30
0.0
  0
SPLINE
  5
29C
330
266
100
AcDbEntity
  8
P-SANR-FIXT
100
AcDbSpline
210
0.0
220
0.0
230
1.0
 70
     8
 71
     3
 72
     9
 73
     5
 74
     0
 42
0.000000001
 43
0.0000000001
 40
0.0
 40
0.0
 40
0.0
 40
0.0
 40
0.5
 40
1.0
 40
1.0
 40
1.0
 40
1.0
 10
1056.363156828899
 20
1917.07025859062
 30
0.0
 10
1058.331242163211
 20
1916.587338314826
 30
0.0
 10
1062.299327497523
 20
1916.104418039032
 30
0.0
 10
1066.331242163211
 20
1916.587338314826
 30
0.0
 10
1068.363156828899
 20
1917.070258590621
 30
0.0
  0
ARC
  5
29D
330
266
100
AcDbEntity
  8
P-SANR-FIXT
100
AcDbCircle
 10
1071.613156828898
 20
1970.998183850011
 30
0.0
 40
12.15000000001259
100
AcDbArc
 50
90.0
 51
269.9999999999997
  0
ARC
  5
29E
330
266
100
AcDbEntity
  8
P-SANR-FIXT
100
AcDbCircle
 10
1071.613156828898
 20
1970.998183850011
 30
0.0
 40
12.15000000001237
100
AcDbArc
 50
269.9999999999997
 51
90.0
  0
ARC
  5
29F
330
266
100
AcDbEntity
  8
P-SANR-FIXT
100
AcDbCircle
 10
1071.613156828898
 20
1970.998183850011
 30
0.0
 40
13.45000000001255
100
AcDbArc
 50
90.00000000000095
 51
269.9999999999997
  0
ARC
  5
2A0
330
266
100
AcDbEntity
  8
P-SANR-FIXT
100
AcDbCircle
 10
1071.613156828898
 20
1970.998183850011
 30
0.0
 40
13.45000000001255
100
AcDbArc
 50
269.9999999999997
 51
90.0
  0
LINE
  5
2A1
330
266
100
AcDbEntity
  8
P-SANR-FIXT
100
AcDbLine
 10
1058.613156828972
 20
1914.498183850093
 30
0.0
 11
1058.613156828972
 21
1902.498183850073
 31
0.0
  0
LINE
  5
2A2
330
266
100
AcDbEntity
  8
P-SANR-FIXT
100
AcDbLine
 10
1084.613156828946
 20
1902.498183850073
 30
0.0
 11
1084.613156828946
 21
1914.498183850093
 31
0.0
  0
LINE
  5
2A3
330
266
100
AcDbEntity
  8
P-SANR-FIXT
100
AcDbLine
 10
1058.163156828888
 20
1902.498183850073
 30
0.0
 11
1058.163156828888
 21
1890.798183850074
 31
0.0
  0
LINE
  5
2A4
330
266
100
AcDbEntity
  8
P-SANR-FIXT
100
AcDbLine
 10
1085.063156828913
 20
1890.798183850074
 30
0.0
 11
1085.063156828913
 21
1902.498183850073
 31
0.0
  0
LINE
  5
2A5
330
266
100
AcDbEntity
  8
P-SANR-FIXT
100
AcDbLine
 10
1058.163156828888
 20
1890.798183850074
 30
0.0
 11
1058.211848884732
 21
1890.749491794229
 31
0.0
  0
LINE
  5
2A6
330
266
100
AcDbEntity
  8
P-SANR-FIXT
100
AcDbLine
 10
1058.227922255147
 20
1890.733418423815
 30
0.0
 11
1059.463156828888
 21
1889.498183850074
 31
0.0
  0
LINE
  5
2A7
330
266
100
AcDbEntity
  8
P-SANR-FIXT
100
AcDbLine
 10
1083.763156828913
 20
1889.498183850074
 30
0.0
 11
1084.998391402654
 21
1890.733418423815
 31
0.0
  0
LINE
  5
2A8
330
266
100
AcDbEntity
  8
P-SANR-FIXT
100
AcDbLine
 10
1085.014464773069
 20
1890.749491794229
 30
0.0
 11
1085.063156828913
 21
1890.798183850074
 31
0.0
  0
LINE
  5
2A9
330
266
100
AcDbEntity
  8
P-SANR-FIXT
100
AcDbLine
 10
1058.613156828908
 20
1914.998183850014
 30
0.0
 11
1058.613156828908
 21
1914.498183850093
 31
0.0
  0
LINE
  5
2AA
330
266
100
AcDbEntity
  8
P-SANR-FIXT
100
AcDbLine
 10
1084.613156828893
 20
1914.498183850093
 30
0.0
 11
1084.613156828893
 21
1914.998183850014
 31
0.0
  0
LINE
  5
2AB
330
266
100
AcDbEntity
  8
P-SANR-FIXT
100
AcDbLine
 10
1066.613156828999
 20
1914.498183850093
 30
0.0
 11
1066.613156828999
 21
1902.498183850073
 31
0.0
  0
LINE
  5
2AC
330
266
100
AcDbEntity
  8
P-SANR-FIXT
100
AcDbLine
 10
1084.505461674353
 20
1914.498183850093
 30
0.0
 11
1084.505461674353
 21
1902.498183850073
 31
0.0
  0
LINE
  5
2AD
330
266
100
AcDbEntity
  8
P-SANR-FIXT
100
AcDbLine
 10
1079.505461674394
 20
1914.498183850093
 30
0.0
 11
1079.505461674394
 21
1902.498183850073
 31
0.0
  0
LINE
  5
2AE
330
266
100
AcDbEntity
  8
P-SANR-FIXT
100
AcDbLine
 10
1076.613156828915
 20
1902.498183850073
 30
0.0
 11
1076.613156828915
 21
1914.498183850093
 31
0.0
  0
LINE
  5
2AF
330
266
100
AcDbEntity
  8
P-SANR-FIXT
100
AcDbLine
 10
1063.72085198352
 20
1914.498183850093
 30
0.0
 11
1063.72085198352
 21
1902.498183850073
 31
0.0
  0
LINE
  5
2B0
330
266
100
AcDbEntity
  8
P-SANR-FIXT
100
AcDbLine
 10
1058.720851983562
 20
1902.498183850073
 30
0.0
 11
1058.720851983562
 21
1914.498183850093
 31
0.0
  0
LINE
  5
2B1
330
266
100
AcDbEntity
  8
P-SANR-FIXT
100
AcDbLine
 10
1058.163156828886
 20
1902.498183850073
 30
0.0
 11
1071.613156828899
 21
1902.498183850073
 31
0.0
  0
LINE
  5
2B2
330
266
100
AcDbEntity
  8
P-SANR-FIXT
100
AcDbLine
 10
1071.613156828899
 20
1902.498183850073
 30
0.0
 11
1085.063156828911
 21
1902.498183850073
 31
0.0
  0
LINE
  5
2B3
330
266
100
AcDbEntity
  8
P-SANR-FIXT
100
AcDbLine
 10
1058.163156828886
 20
1890.798183850073
 30
0.0
 11
1071.613156828899
 21
1890.798183850073
 31
0.0
  0
LINE
  5
2B4
330
266
100
AcDbEntity
  8
P-SANR-FIXT
100
AcDbLine
 10
1071.613156828899
 20
1890.798183850073
 30
0.0
 11
1085.063156828911
 21
1890.798183850073
 31
0.0
  0
LINE
  5
2B5
330
266
100
AcDbEntity
  8
P-SANR-FIXT
100
AcDbLine
 10
1071.613156828899
 20
1889.498183850073
 30
0.0
 11
1059.463156828886
 21
1889.498183850073
 31
0.0
  0
LINE
  5
2B6
330
266
100
AcDbEntity
  8
P-SANR-FIXT
100
AcDbLine
 10
1083.763156828911
 20
1889.498183850073
 30
0.0
 11
1071.613156828899
 21
1889.498183850073
 31
0.0
  0
LINE
  5
2B7
330
266
100
AcDbEntity
  8
P-SANR-FIXT
100
AcDbLine
 10
1063.720851983495
 20
1914.498183850093
 30
0.0
 11
1058.720851983499
 21
1914.498183850093
 31
0.0
  0
LINE
  5
2B8
330
266
100
AcDbEntity
  8
P-SANR-FIXT
100
AcDbLine
 10
1071.613156828899
 20
1914.498183850093
 30
0.0
 11
1066.613156828988
 21
1914.498183850093
 31
0.0
  0
LINE
  5
2B9
330
266
100
AcDbEntity
  8
P-SANR-FIXT
100
AcDbLine
 10
1076.613156828909
 20
1914.498183850092
 30
0.0
 11
1071.613156828899
 21
1914.498183850092
 31
0.0
  0
LINE
  5
2BA
330
266
100
AcDbEntity
  8
P-SANR-FIXT
100
AcDbLine
 10
1084.505461674301
 20
1914.498183850093
 30
0.0
 11
1079.505461674376
 21
1914.498183850093
 31
0.0
  0
ARC
  5
2BB
330
266
100
AcDbEntity
  8
P-SANR-FIXT
100
AcDbCircle
 10
1071.613156828898
 20
1970.998183850011
 30
0.0
 40
16.16580753733587
100
AcDbArc
 50
90.0000000000004
 51
269.9999999999993
  0
ARC
  5
2BC
330
266
100
AcDbEntity
  8
P-SANR-FIXT
100
AcDbCircle
 10
1071.613156828898
 20
1970.998183850011
 30
0.0
 40
16.16580753733592
100
AcDbArc
 50
269.9999999999997
 51
89.9999999999992
  0
ARC
  5
2BD
330
266
100
AcDbEntity
  8
P-SANR-FIXT
100
AcDbCircle
 10
1071.613156828898
 20
1970.998183850011
 30
0.0
 40
18.48497066763418
100
AcDbArc
 50
239.7963812802559
 51
239.9999999999997
  0
ARC
  5
2BE
330
266
100
AcDbEntity
  8
P-SANR-FIXT
100
AcDbCircle
 10
1071.613156828898
 20
1970.998183850011
 30
0.0
 40
18.48497066763407
100
AcDbArc
 50
179.8284439030322
 51
180.0000000000004
  0
ARC
  5
2BF
330
266
100
AcDbEntity
  8
P-SANR-FIXT
100
AcDbCircle
 10
1071.613156828898
 20
1970.998183850011
 30
0.0
 40
18.48497066763429
100
AcDbArc
 50
119.858929823627
 51
120.0000000000005
  0
ARC
  5
2C0
330
266
100
AcDbEntity
  8
P-SANR-FIXT
100
AcDbCircle
 10
1071.613156828898
 20
1970.998183850011
 30
0.0
 40
18.48497066763429
100
AcDbArc
 50
59.79638127982671
 51
59.99999999999967
  0
ARC
  5
2C1
330
266
100
AcDbEntity
  8
P-SANR-FIXT
100
AcDbCircle
 10
1071.613156828898
 20
1970.998183850011
 30
0.0
 40
18.48497066763411
100
AcDbArc
 50
359.8284439030887
 51
0.0
  0
ARC
  5
2C2
330
266
100
AcDbEntity
  8
P-SANR-FIXT
100
AcDbCircle
 10
1071.613156828898
 20
1970.998183850011
 30
0.0
 40
18.48497066763418
100
AcDbArc
 50
299.8589298240369
 51
299.9999999999996
  0
SPLINE
  5
2C3
330
266
100
AcDbEntity
  8
P-SANR-FIXT
100
AcDbSpline
210
0.0
220
0.0
230
1.0
 70
     8
 71
     3
 72
    10
 73
     6
 74
     0
 42
0.000000001
 43
0.0000000001
 40
0.0
 40
0.0
 40
0.0
 40
0.0
 40
0.4
 40
0.7
 40
1.0
 40
1.0
 40
1.0
 40
1.0
 10
1086.863156828949
 20
1983.55555220489
 30
0.0
 10
1087.638203760804
 20
1983.108078650149
 30
0.0
 10
1088.850546321757
 20
1982.025960133874
 30
0.0
 10
1089.902617552733
 20
1979.956502661432
 30
0.0
 10
1090.113156828949
 20
1978.59898531243
 30
0.0
 10
1090.113156828949
 20
1977.926387080291
 30
0.0
  0
SPLINE
  5
2C4
330
266
100
AcDbEntity
  8
P-SANR-FIXT
100
AcDbSpline
210
0.0
220
0.0
230
1.0
 70
    24
 71
     3
 72
     9
 73
     5
 74
     0
 42
0.000000001
 43
0.0000000001
 40
0.0
 40
0.0
 40
0.0
 40
0.0
 40
0.5
 40
1.0
 40
1.0
 40
1.0
 40
1.0
 10
1090.113156828949
 20
1977.926387080291
 30
0.0
 10
1090.113156828949
 20
1975.580134121882
 30
0.0
 10
1090.113156828949
 20
1970.924480086716
 30
0.0
 10
1090.113156828949
 20
1966.342529814854
 30
0.0
 10
1090.113156828949
 20
1964.069980619749
 30
0.0
  0
SPLINE
  5
2C5
330
266
100
AcDbEntity
  8
P-SANR-FIXT
100
AcDbSpline
210
0.0
220
0.0
230
1.0
 70
     8
 71
     3
 72
    10
 73
     6
 74
     0
 42
0.000000001
 43
0.0000000001
 40
0.0
 40
0.0
 40
0.0
 40
0.0
 40
0.4
 40
0.7
 40
1.0
 40
1.0
 40
1.0
 40
1.0
 10
1090.113156828949
 20
1964.069980619749
 30
0.0
 10
1090.113156828949
 20
1963.173182976897
 30
0.0
 10
1089.781590025464
 20
1961.582703004445
 30
0.0
 10
1088.514613351204
 20
1959.636556263361
 30
0.0
 10
1087.44444202784
 20
1958.776420661207
 30
0.0
 10
1086.863156828949
 20
1958.44081549515
 30
0.0
  0
SPLINE
  5
2C6
330
266
100
AcDbEntity
  8
P-SANR-FIXT
100
AcDbSpline
210
0.0
220
0.0
230
1.0
 70
    24
 71
     3
 72
     9
 73
     5
 74
     0
 42
0.000000001
 43
0.0000000001
 40
0.0
 40
0.0
 40
0.0
 40
0.0
 40
0.5
 40
1.0
 40
1.0
 40
1.0
 40
1.0
 10
1086.863156828949
 20
1958.44081549515
 30
0.0
 10
1084.831242163262
 20
1957.267689015946
 30
0.0
 10
1080.799327497577
 20
1954.939861998363
 30
0.0
 10
1076.831242163268
 20
1952.648886862432
 30
0.0
 10
1074.863156828957
 20
1951.512612264879
 30
0.0
  0
SPLINE
  5
2C7
330
266
100
AcDbEntity
  8
P-SANR-FIXT
100
AcDbSpline
210
0.0
220
0.0
230
1.0
 70
     8
 71
     3
 72
     9
 73
     5
 74
     0
 42
0.000000001
 43
0.0000000001
 40
0.0
 40
0.0
 40
0.0
 40
0.0
 40
0.5
 40
1.0
 40
1.0
 40
1.0
 40
1.0
 10
1074.863156828957
 20
1951.512612264879
 30
0.0
 10
1074.37744852206
 20
1951.232188443145
 30
0.0
 10
1073.327347189688
 20
1950.794506932128
 30
0.0
 10
1072.186773199245
 20
1950.641777389473
 30
0.0
 10
1071.613156828898
 20
1950.641777389478
 30
0.0
  0
SPLINE
  5
2C8
330
266
100
AcDbEntity
  8
P-SANR-FIXT
100
AcDbSpline
210
0.0
220
0.0
230
1.0
 70
     8
 71
     3
 72
     9
 73
     5
 74
     0
 42
0.000000001
 43
0.0000000001
 40
0.0
 40
0.0
 40
0.0
 40
0.0
 40
0.5
 40
1.0
 40
1.0
 40
1.0
 40
1.0
 10
1071.613156828898
 20
1950.641777389478
 30
0.0
 10
1071.039540458572
 20
1950.641777389484
 30
0.0
 10
1069.898966468171
 20
1950.794506932148
 30
0.0
 10
1068.848865135837
 20
1951.232188443155
 30
0.0
 10
1068.363156828957
 20
1951.512612264879
 30
0.0
  0
SPLINE
  5
2C9
330
266
100
AcDbEntity
  8
P-SANR-FIXT
100
AcDbSpline
210
0.0
220
0.0
230
1.0
 70
    24
 71
     3
 72
     9
 73
     5
 74
     0
 42
0.000000001
 43
0.0000000001
 40
0.0
 40
0.0
 40
0.0
 40
0.0
 40
0.5
 40
1.0
 40
1.0
 40
1.0
 40
1.0
 10
1068.363156828957
 20
1951.512612264879
 30
0.0
 10
1066.33124216327
 20
1952.685738744084
 30
0.0
 10
1062.299327497585
 20
1955.013565761667
 30
0.0
 10
1058.331242163276
 20
1957.304540897598
 30
0.0
 10
1056.363156828965
 20
1958.44081549515
 30
0.0
  0
SPLINE
  5
2CA
330
266
100
AcDbEntity
  8
P-SANR-FIXT
100
AcDbSpline
210
0.0
220
0.0
230
1.0
 70
     8
 71
     3
 72
    10
 73
     6
 74
     0
 42
0.000000001
 43
0.0000000001
 40
0.0
 40
0.0
 40
0.0
 40
0.0
 40
0.4
 40
0.7
 40
1.0
 40
1.0
 40
1.0
 40
1.0
 10
1056.363156828965
 20
1958.44081549515
 30
0.0
 10
1055.586507288201
 20
1958.889214316577
 30
0.0
 10
1054.37489462959
 20
1959.971599577671
 30
0.0
 10
1053.322970449448
 20
1962.041906934125
 30
0.0
 10
1053.113156828965
 20
1963.398770287637
 30
0.0
 10
1053.113156828965
 20
1964.069980619749
 30
0.0
  0
SPLINE
  5
2CB
330
266
100
AcDbEntity
  8
P-SANR-FIXT
100
AcDbSpline
210
0.0
220
0.0
230
1.0
 70
    24
 71
     3
 72
     9
 73
     5
 74
     0
 42
0.000000001
 43
0.0000000001
 40
0.0
 40
0.0
 40
0.0
 40
0.0
 40
0.5
 40
1.0
 40
1.0
 40
1.0
 40
1.0
 10
1053.113156828965
 20
1964.069980619749
 30
0.0
 10
1053.113156828965
 20
1966.416233578158
 30
0.0
 10
1053.113156828965
 20
1971.071887613324
 30
0.0
 10
1053.113156828965
 20
1975.653837885186
 30
0.0
 10
1053.113156828965
 20
1977.926387080291
 30
0.0
  0
SPLINE
  5
2CC
330
266
100
AcDbEntity
  8
P-SANR-FIXT
100
AcDbSpline
210
0.0
220
0.0
230
1.0
 70
     8
 71
     3
 72
    10
 73
     6
 74
     0
 42
0.000000001
 43
0.0000000001
 40
0.0
 40
0.0
 40
0.0
 40
0.0
 40
0.4
 40
0.7
 40
1.0
 40
1.0
 40
1.0
 40
1.0
 10
1053.113156828965
 20
1977.926387080291
 30
0.0
 10
1053.113156828965
 20
1978.823184723143
 30
0.0
 10
1053.444723632449
 20
1980.413664695594
 30
0.0
 10
1054.711700306709
 20
1982.359811436679
 30
0.0
 10
1055.781871630073
 20
1983.219947038834
 30
0.0
 10
1056.363156828965
 20
1983.55555220489
 30
0.0
  0
SPLINE
  5
2CD
330
266
100
AcDbEntity
  8
P-SANR-FIXT
100
AcDbSpline
210
0.0
220
0.0
230
1.0
 70
    24
 71
     3
 72
     9
 73
     5
 74
     0
 42
0.000000001
 43
0.0000000001
 40
0.0
 40
0.0
 40
0.0
 40
0.0
 40
0.5
 40
1.0
 40
1.0
 40
1.0
 40
1.0
 10
1056.363156828965
 20
1983.55555220489
 30
0.0
 10
1058.395071494652
 20
1984.728678684094
 30
0.0
 10
1062.426986160337
 20
1987.056505701677
 30
0.0
 10
1066.395071494646
 20
1989.347480837608
 30
0.0
 10
1068.363156828957
 20
1990.48375543516
 30
0.0
  0
SPLINE
  5
2CE
330
266
100
AcDbEntity
  8
P-SANR-FIXT
100
AcDbSpline
210
0.0
220
0.0
230
1.0
 70
     8
 71
     3
 72
     9
 73
     5
 74
     0
 42
0.000000001
 43
0.0000000001
 40
0.0
 40
0.0
 40
0.0
 40
0.0
 40
0.5
 40
1.0
 40
1.0
 40
1.0
 40
1.0
 10
1068.363156828957
 20
1990.483755435161
 30
0.0
 10
1068.848865135837
 20
1990.764179256886
 30
0.0
 10
1069.898966468171
 20
1991.201860767892
 30
0.0
 10
1071.039540458572
 20
1991.354590310557
 30
0.0
 10
1071.613156828898
 20
1991.354590310562
 30
0.0
  0
SPLINE
  5
2CF
330
266
100
AcDbEntity
  8
P-SANR-FIXT
100
AcDbSpline
210
0.0
220
0.0
230
1.0
 70
     8
 71
     3
 72
     9
 73
     5
 74
     0
 42
0.000000001
 43
0.0000000001
 40
0.0
 40
0.0
 40
0.0
 40
0.0
 40
0.5
 40
1.0
 40
1.0
 40
1.0
 40
1.0
 10
1071.613156828898
 20
1991.354590310562
 30
0.0
 10
1072.186773199245
 20
1991.354590310567
 30
0.0
 10
1073.327347189688
 20
1991.201860767912
 30
0.0
 10
1074.37744852206
 20
1990.764179256895
 30
0.0
 10
1074.863156828957
 20
1990.48375543516
 30
0.0
  0
SPLINE
  5
2D0
330
266
100
AcDbEntity
  8
P-SANR-FIXT
100
AcDbSpline
210
0.0
220
0.0
230
1.0
 70
    24
 71
     3
 72
     9
 73
     5
 74
     0
 42
0.000000001
 43
0.0000000001
 40
0.0
 40
0.0
 40
0.0
 40
0.0
 40
0.5
 40
1.0
 40
1.0
 40
1.0
 40
1.0
 10
1074.863156828957
 20
1990.48375543516
 30
0.0
 10
1076.895071494643
 20
1989.310628955956
 30
0.0
 10
1080.926986160329
 20
1986.982801938373
 30
0.0
 10
1084.895071494638
 20
1984.691826802442
 30
0.0
 10
1086.863156828949
 20
1983.55555220489
 30
0.0
  0
LINE
  5
2D1
330
266
100
AcDbEntity
  8
P-SANR-FIXT
100
AcDbLine
 10
1052.1131568289
 20
1982.298183850012
 30
0.0
 11
1052.1131568289
 21
1970.998183850012
 31
0.0
  0
LINE
  5
2D2
330
266
100
AcDbEntity
  8
P-SANR-FIXT
100
AcDbLine
 10
1091.1131568289
 20
1970.998183850012
 30
0.0
 11
1091.1131568289
 21
1982.298183850012
 31
0.0
  0
LWPOLYLINE
  5
2D3
330
266
100
AcDbEntity
  8
P-SANR-FIXT
100
AcDbPolyline
 90
       41
 70
   128
 43
0.0
 10
1052.1131568289
 20
1982.298183850012
 10
1052.114276679575
 20
1982.354168917873
 10
1052.117634440077
 20
1982.410064421569
 10
1052.123224738705
 20
1982.465780940217
 10
1052.131038632174
 20
1982.521229339272
 10
1052.141063619923
 20
1982.576320913125
 10
1052.153283664107
 20
1982.63096752701
 10
1052.167679215265
 20
1982.685081758002
 10
1052.184227243585
 20
1982.738577034875
 10
1052.202901275751
 20
1982.791367776597
 10
1052.223671437296
 20
1982.843369529244
 10
1052.246504500392
 20
1982.894499101104
 10
1052.271363937009
 20
1982.94467469577
 10
1052.298209977352
 20
1982.993816042993
 10
1052.326999673481
 20
1983.041844527102
 10
1052.357686968027
 20
1983.088683312765
 10
1052.390222767862
 20
1983.134257467919
 10
1052.424555022649
 20
1983.178494083638
 10
1052.460628808103
 20
1983.221322390772
 10
1052.498386413863
 20
1983.262673873167
 10
1052.537767435814
 20
1983.302482377271
 10
1052.578708872722
 20
1983.340684217971
 10
1052.621145227022
 20
1983.377218280471
 10
1052.665008609599
 20
1983.412026118063
 10
1052.710228848399
 20
1983.445052045633
 10
1052.756733600685
 20
1983.476243228743
 10
1052.804448468774
 20
1983.505549768153
 10
1052.853297119057
 20
1983.532924779651
 10
1052.903201404113
 20
1983.558324469059
 10
1052.954081487732
 20
1983.581708202293
 10
1053.005855972633
 20
1983.603038570366
 10
1053.058442030686
 20
1983.622281449241
 10
1053.111755535415
 20
1983.639406054417
 10
1053.165711196587
 20
1983.654384990177
 10
1053.220222696652
 20
1983.667194293422
 10
1053.27520282884
 20
1983.677813471996
 10
1053.330563636667
 20
1983.68622553748
 10
1053.38621655465
 20
1983.692417032365
 10
1053.442072549994
 20
1983.696378051578
 10
1053.498042265019
 20
1983.698102258334
 10
1053.5131568289
 20
1983.698183850012
  0
LWPOLYLINE
  5
2D4
330
266
100
AcDbEntity
  8
P-SANR-FIXT
100
AcDbPolyline
 90
       16
 70
   128
 43
0.0
 10
1056.610202085084
 20
1983.698183850012
 10
1056.270706164376
 20
1983.698183850012
 10
1055.898957583785
 20
1983.698183850012
 10
1055.552348369802
 20
1983.698183850012
 10
1055.231433023231
 20
1983.698183850012
 10
1054.936724940167
 20
1983.698183850012
 10
1054.668695590676
 20
1983.698183850012
 10
1054.427773764541
 20
1983.698183850012
 10
1054.214344885289
 20
1983.698183850012
 10
1054.028750393599
 20
1983.698183850012
 10
1053.871287201065
 20
1983.698183850012
 10
1053.742207215205
 20
1983.698183850012
 10
1053.641716936461
 20
1983.698183850012
 10
1053.569977127843
 20
1983.698183850012
 10
1053.527102557739
 20
1983.698183850012
 10
1053.5131568289
 20
1983.698183850012
  0
LWPOLYLINE
  5
2D5
330
266
100
AcDbEntity
  8
P-SANR-FIXT
100
AcDbPolyline
 90
        9
 70
   128
 43
0.0
 10
1053.5131568289
 20
1983.698183850012
 10
1053.527634898337
 20
1983.698183850012
 10
1053.571045944823
 20
1983.698183850012
 10
1053.643320519946
 20
1983.698183850012
 10
1053.744342999802
 20
1983.698183850012
 10
1053.873951769974
 20
1983.698183850012
 10
1054.031939484079
 20
1983.698183850012
 10
1054.218053395475
 20
1983.698183850012
 10
1054.363167680059
 20
1983.698183850012
  0
LWPOLYLINE
  5
2D6
330
266
100
AcDbEntity
  8
P-SANR-FIXT
100
AcDbPolyline
 90
       41
 70
   128
 43
0.0
 10
1089.713156828901
 20
1983.698183850012
 10
1089.769141896762
 20
1983.697063999338
 10
1089.825037400457
 20
1983.693706238836
 10
1089.880753919105
 20
1983.688115940208
 10
1089.936202318161
 20
1983.680302046738
 10
1089.991293892014
 20
1983.67027705899
 10
1090.045940505899
 20
1983.658057014805
 10
1090.100054736891
 20
1983.643661463647
 10
1090.153550013763
 20
1983.627113435327
 10
1090.206340755486
 20
1983.608439403161
 10
1090.258342508133
 20
1983.587669241616
 10
1090.309472079993
 20
1983.56483617852
 10
1090.359647674659
 20
1983.539976741903
 10
1090.408789021882
 20
1983.513130701561
 10
1090.45681750599
 20
1983.484341005431
 10
1090.503656291654
 20
1983.453653710886
 10
1090.549230446808
 20
1983.42111791105
 10
1090.593467062527
 20
1983.386785656264
 10
1090.636295369661
 20
1983.350711870809
 10
1090.677646852055
 20
1983.31295426505
 10
1090.71745535616
 20
1983.273573243098
 10
1090.75565719686
 20
1983.23263180619
 10
1090.792191259359
 20
1983.19019545189
 10
1090.826999096952
 20
1983.146332069313
 10
1090.860025024522
 20
1983.101111830514
 10
1090.891216207632
 20
1983.054607078227
 10
1090.920522747041
 20
1983.006892210138
 10
1090.947897758539
 20
1982.958043559855
 10
1090.973297447948
 20
1982.908139274799
 10
1090.996681181181
 20
1982.857259191181
 10
1091.018011549255
 20
1982.80548470628
 10
1091.03725442813
 20
1982.752898648227
 10
1091.054379033306
 20
1982.699585143497
 10
1091.069357969066
 20
1982.645629482325
 10
1091.08216727231
 20
1982.59111798226
 10
1091.092786450885
 20
1982.536137850073
 10
1091.101198516369
 20
1982.480777042246
 10
1091.107390011253
 20
1982.425124124262
 10
1091.111351030466
 20
1982.369268128919
 10
1091.113075237223
 20
1982.313298413894
 10
1091.1131568289
 20
1982.298183850012
  0
LWPOLYLINE
  5
2D7
330
266
100
AcDbEntity
  8
P-SANR-FIXT
100
AcDbPolyline
 90
        9
 70
   128
 43
0.0
 10
1088.863145977742
 20
1983.698183850012
 10
1089.011968772511
 20
1983.698183850012
 10
1089.197563264202
 20
1983.698183850012
 10
1089.355026456736
 20
1983.698183850012
 10
1089.484106442596
 20
1983.698183850012
 10
1089.58459672134
 20
1983.698183850012
 10
1089.656336529958
 20
1983.698183850012
 10
1089.699211100062
 20
1983.698183850012
 10
1089.713156828901
 20
1983.698183850012
  0
LWPOLYLINE
  5
2D8
330
266
100
AcDbEntity
  8
P-SANR-FIXT
100
AcDbPolyline
 90
       16
 70
   128
 43
0.0
 10
1089.713156828901
 20
1983.698183850012
 10
1089.698678759464
 20
1983.698183850012
 10
1089.655267712978
 20
1983.698183850012
 10
1089.582993137856
 20
1983.698183850012
 10
1089.481970657999
 20
1983.698183850012
 10
1089.352361887827
 20
1983.698183850012
 10
1089.194374173722
 20
1983.698183850012
 10
1089.008260262325
 20
1983.698183850012
 10
1088.794317896192
 20
1983.698183850012
 10
1088.552889337471
 20
1983.698183850012
 10
1088.284360820352
 20
1983.698183850012
 10
1087.989161933182
 20
1983.698183850012
 10
1087.667764931205
 20
1983.698183850012
 10
1087.320683981066
 20
1983.698183850012
 10
1086.948474338243
 20
1983.698183850012
 10
1086.616111572833
 20
1983.698183850012
  0
LINE
  5
2D9
330
266
100
AcDbEntity
  8
P-SANR-FIXT
100
AcDbLine
 10
1054.3631568289
 20
1989.198183850012
 30
0.0
 11
1054.3631568289
 21
1983.698183850012
 31
0.0
  0
LINE
  5
2DA
330
266
100
AcDbEntity
  8
P-SANR-FIXT
100
AcDbLine
 10
1088.863156828901
 20
1983.698183850012
 30
0.0
 11
1088.863156828901
 21
1989.198183850012
 31
0.0
  0
LINE
  5
2DB
330
266
100
AcDbEntity
  8
P-SANR-FIXT
100
AcDbLine
 10
1054.663156828917
 20
1989.498183850029
 30
0.0
 11
1054.428798286818
 21
1989.263825307929
 31
0.0
  0
LINE
  5
2DC
330
266
100
AcDbEntity
  8
P-SANR-FIXT
100
AcDbLine
 10
1054.409811474822
 20
1989.244838495933
 30
0.0
 11
1054.3631568289
 21
1989.198183850012
 31
0.0
  0
LINE
  5
2DD
330
266
100
AcDbEntity
  8
P-SANR-FIXT
100
AcDbLine
 10
1088.863156828901
 20
1989.198183850012
 30
0.0
 11
1088.81650218298
 21
1989.244838495933
 31
0.0
  0
LINE
  5
2DE
330
266
100
AcDbEntity
  8
P-SANR-FIXT
100
AcDbLine
 10
1088.797515370983
 20
1989.263825307929
 30
0.0
 11
1088.563156828883
 21
1989.498183850029
 31
0.0
  0
LINE
  5
2DF
330
266
100
AcDbEntity
  8
P-SANR-FIXT
100
AcDbLine
 10
1054.7631568289
 20
1932.498183850012
 30
0.0
 11
1054.7631568289
 21
1930.998183850014
 31
0.0
  0
LINE
  5
2E0
330
266
100
AcDbEntity
  8
P-SANR-FIXT
100
AcDbLine
 10
1088.463156828901
 20
1930.998183850014
 30
0.0
 11
1088.463156828901
 21
1932.498183850012
 31
0.0
  0
LINE
  5
2E1
330
266
100
AcDbEntity
  8
P-SANR-FIXT
100
AcDbLine
 10
1056.613156828901
 20
1933.566281848013
 30
0.0
 11
1054.844294184474
 21
1932.545028524094
 31
0.0
  0
LINE
  5
2E2
330
266
100
AcDbEntity
  8
P-SANR-FIXT
100
AcDbLine
 10
1054.827960706463
 20
1932.535598386168
 30
0.0
 11
1054.7631568289
 21
1932.498183850012
 31
0.0
  0
LINE
  5
2E3
330
266
100
AcDbEntity
  8
P-SANR-FIXT
100
AcDbLine
 10
1088.463156828901
 20
1932.498183850012
 30
0.0
 11
1088.398352951338
 21
1932.535598386168
 31
0.0
  0
LINE
  5
2E4
330
266
100
AcDbEntity
  8
P-SANR-FIXT
100
AcDbLine
 10
1088.382019473327
 20
1932.545028524094
 30
0.0
 11
1086.613156828901
 21
1933.566281848013
 31
0.0
  0
LWPOLYLINE
  5
2E5
330
266
100
AcDbEntity
  8
P-SANR-FIXT
100
AcDbPolyline
 90
       28
 70
   128
 43
0.0
 10
1056.613156828901
 20
1933.566281848013
 10
1056.681620494133
 20
1933.607656638103
 10
1056.748374845429
 20
1933.651736149164
 10
1056.813313090065
 20
1933.698449863379
 10
1056.876331340703
 20
1933.747723048771
 10
1056.937328781585
 20
1933.799476878755
 10
1056.996207829817
 20
1933.853628558244
 10
1057.052874291483
 20
1933.910091456101
 10
1057.107237512332
 20
1933.968775243735
 10
1057.159210522808
 20
1934.029586039605
 10
1057.208710177181
 20
1934.092426559407
 10
1057.255657286564
 20
1934.157196271718
 10
1057.299976745595
 20
1934.223791558814
 10
1057.341597652595
 20
1934.292105882441
 10
1057.380453422992
 20
1934.362029954255
 10
1057.416481895842
 20
1934.433451910657
 10
1057.449625433273
 20
1934.506257491753
 10
1057.479831012696
 20
1934.580330224144
 10
1057.507050311628
 20
1934.65555160726
 10
1057.531239784997
 20
1934.731801302933
 10
1057.552360734804
 20
1934.808957327918
 10
1057.570379372038
 20
1934.886896249032
 10
1057.585266870721
 20
1934.965493380628
 10
1057.596999414031
 20
1935.044622984062
 10
1057.605558232402
 20
1935.124158468849
 10
1057.610929633551
 20
1935.203972595179
 10
1057.613105024381
 20
1935.283937677477
 10
1057.6131568289
 20
1935.298332655582
  0
LWPOLYLINE
  5
2E6
330
266
100
AcDbEntity
  8
P-SANR-FIXT
100
AcDbPolyline
 90
       28
 70
   128
 43
0.0
 10
1085.613156828901
 20
1935.298332655582
 10
1085.614756615579
 20
1935.218353987209
 10
1085.619553416295
 20
1935.138503267643
 10
1085.627539557193
 20
1935.058908241004
 10
1085.63870226215
 20
1934.979696242353
 10
1085.653023673218
 20
1934.900993993992
 10
1085.670480879197
 20
1934.822927402727
 10
1085.691045952279
 20
1934.745621358453
 10
1085.714685992736
 20
1934.669199534349
 10
1085.741363181544
 20
1934.593784189031
 10
1085.771034840895
 20
1934.519495970964
 10
1085.803653502461
 20
1934.446453725449
 10
1085.839166983342
 20
1934.374774304499
 10
1085.877518469545
 20
1934.304572379894
 10
1085.918646606874
 20
1934.23596025974
 10
1085.962485599081
 20
1934.169047708792
 10
1086.008965313132
 20
1934.103941772857
 10
1086.058011391399
 20
1934.040746607545
 10
1086.109545370619
 20
1933.979563311639
 10
1086.163484807419
 20
1933.920489765361
 10
1086.219743410206
 20
1933.863620473783
 10
1086.278231177218
 20
1933.80904641564
 10
1086.338854540503
 20
1933.756854897784
 10
1086.401516515614
 20
1933.707129415509
 10
1086.466116856756
 20
1933.65994951898
 10
1086.532552217164
 20
1933.615390685966
 10
1086.600716314435
 20
1933.573524201095
 10
1086.613156828901
 20
1933.566281848013
  0
LINE
  5
2E7
330
266
100
AcDbEntity
  8
P-SANR-FIXT
100
AcDbLine
 10
1057.6131568289
 20
1938.341549798513
 30
0.0
 11
1057.6131568289
 21
1935.298332655582
 31
0.0
  0
LINE
  5
2E8
330
266
100
AcDbEntity
  8
P-SANR-FIXT
100
AcDbLine
 10
1085.613156828901
 20
1935.298332655582
 30
0.0
 11
1085.613156828901
 21
1938.341549798513
 31
0.0
  0
LINE
  5
2E9
330
266
100
AcDbEntity
  8
P-SANR-FIXT
100
AcDbLine
 10
1057.6131568289
 20
1957.719127658702
 30
0.0
 11
1057.6131568289
 21
1938.341549798513
 31
0.0
  0
LINE
  5
2EA
330
266
100
AcDbEntity
  8
P-SANR-FIXT
100
AcDbLine
 10
1085.613156828901
 20
1938.341549798513
 30
0.0
 11
1085.613156828901
 21
1957.719127658635
 31
0.0
  0
LWPOLYLINE
  5
2EB
330
266
100
AcDbEntity
  8
P-SANR-FIXT
100
AcDbPolyline
 90
       41
 70
   128
 43
0.0
 10
1053.5131568289
 20
1958.298183850012
 10
1053.457171761039
 20
1958.299303700687
 10
1053.401276257343
 20
1958.302661461188
 10
1053.345559738696
 20
1958.308251759817
 10
1053.29011133964
 20
1958.316065653286
 10
1053.235019765787
 20
1958.326090641034
 10
1053.180373151902
 20
1958.338310685219
 10
1053.12625892091
 20
1958.352706236377
 10
1053.072763644038
 20
1958.369254264697
 10
1053.019972902315
 20
1958.387928296863
 10
1052.967971149668
 20
1958.408698458408
 10
1052.916841577808
 20
1958.431531521504
 10
1052.866665983142
 20
1958.456390958121
 10
1052.817524635919
 20
1958.483236998463
 10
1052.769496151811
 20
1958.512026694593
 10
1052.722657366147
 20
1958.542713989139
 10
1052.677083210993
 20
1958.575249788974
 10
1052.632846595275
 20
1958.609582043761
 10
1052.59001828814
 20
1958.645655829215
 10
1052.548666805745
 20
1958.683413434975
 10
1052.508858301641
 20
1958.722794456926
 10
1052.470656460941
 20
1958.763735893834
 10
1052.434122398442
 20
1958.806172248134
 10
1052.399314560849
 20
1958.850035630711
 10
1052.366288633279
 20
1958.895255869511
 10
1052.335097450169
 20
1958.941760621797
 10
1052.30579091076
 20
1958.989475489886
 10
1052.278415899261
 20
1959.038324140169
 10
1052.253016209853
 20
1959.088228425225
 10
1052.22963247662
 20
1959.139108508843
 10
1052.208302108546
 20
1959.190882993745
 10
1052.189059229671
 20
1959.243469051798
 10
1052.171934624495
 20
1959.296782556527
 10
1052.156955688735
 20
1959.350738217699
 10
1052.144146385491
 20
1959.405249717764
 10
1052.133527206916
 20
1959.460229849952
 10
1052.125115141432
 20
1959.515590657779
 10
1052.118923646548
 20
1959.571243575762
 10
1052.114962627334
 20
1959.627099571105
 10
1052.113238420578
 20
1959.68306928613
 10
1052.1131568289
 20
1959.698183850012
  0
LWPOLYLINE
  5
2EC
330
266
100
AcDbEntity
  8
P-SANR-FIXT
100
AcDbPolyline
 90
       16
 70
   128
 43
0.0
 10
1056.610202085115
 20
1958.298183850012
 10
1056.270706164377
 20
1958.298183850012
 10
1055.898957583785
 20
1958.298183850012
 10
1055.552348369802
 20
1958.298183850012
 10
1055.231433023231
 20
1958.298183850012
 10
1054.936724940167
 20
1958.298183850012
 10
1054.668695590676
 20
1958.298183850012
 10
1054.427773764541
 20
1958.298183850012
 10
1054.21434488529
 20
1958.298183850012
 10
1054.028750393599
 20
1958.298183850012
 10
1053.871287201065
 20
1958.298183850012
 10
1053.742207215205
 20
1958.298183850012
 10
1053.641716936461
 20
1958.298183850012
 10
1053.569977127843
 20
1958.298183850012
 10
1053.527102557739
 20
1958.298183850012
 10
1053.5131568289
 20
1958.298183850012
  0
LWPOLYLINE
  5
2ED
330
266
100
AcDbEntity
  8
P-SANR-FIXT
100
AcDbPolyline
 90
       16
 70
   128
 43
0.0
 10
1053.5131568289
 20
1958.298183850012
 10
1053.527634898337
 20
1958.298183850012
 10
1053.571045944823
 20
1958.298183850012
 10
1053.643320519945
 20
1958.298183850012
 10
1053.744342999802
 20
1958.298183850012
 10
1053.873951769974
 20
1958.298183850012
 10
1054.031939484079
 20
1958.298183850012
 10
1054.218053395475
 20
1958.298183850012
 10
1054.431995761608
 20
1958.298183850012
 10
1054.67342432033
 20
1958.298183850012
 10
1054.941952837448
 20
1958.298183850012
 10
1055.237151724619
 20
1958.298183850012
 10
1055.558548726595
 20
1958.298183850012
 10
1055.905629676735
 20
1958.298183850012
 10
1056.277839319557
 20
1958.298183850012
 10
1056.610202085115
 20
1958.298183850012
  0
LWPOLYLINE
  5
2EE
330
266
100
AcDbEntity
  8
P-SANR-FIXT
100
AcDbPolyline
 90
       41
 70
   128
 43
0.0
 10
1091.1131568289
 20
1959.698183850012
 10
1091.112036978226
 20
1959.642198782151
 10
1091.108679217724
 20
1959.586303278455
 10
1091.103088919096
 20
1959.530586759808
 10
1091.095275025627
 20
1959.475138360752
 10
1091.085250037878
 20
1959.420046786899
 10
1091.073029993693
 20
1959.365400173014
 10
1091.058634442536
 20
1959.311285942023
 10
1091.042086414216
 20
1959.257790665149
 10
1091.02341238205
 20
1959.204999923427
 10
1091.002642220505
 20
1959.15299817078
 10
1090.979809157408
 20
1959.10186859892
 10
1090.954949720791
 20
1959.051693004254
 10
1090.928103680449
 20
1959.002551657031
 10
1090.899313984319
 20
1958.954523172923
 10
1090.868626689774
 20
1958.907684387259
 10
1090.836090889939
 20
1958.862110232105
 10
1090.801758635152
 20
1958.817873616386
 10
1090.765684849698
 20
1958.775045309252
 10
1090.727927243938
 20
1958.733693826857
 10
1090.688546221987
 20
1958.693885322753
 10
1090.647604785078
 20
1958.655683482053
 10
1090.605168430779
 20
1958.619149419553
 10
1090.561305048201
 20
1958.584341581961
 10
1090.516084809402
 20
1958.551315654391
 10
1090.469580057116
 20
1958.520124471281
 10
1090.421865189027
 20
1958.490817931872
 10
1090.373016538744
 20
1958.463442920373
 10
1090.323112253688
 20
1958.438043230965
 10
1090.272232170069
 20
1958.414659497731
 10
1090.220457685168
 20
1958.393329129658
 10
1090.167871627115
 20
1958.374086250783
 10
1090.114558122385
 20
1958.356961645607
 10
1090.060602461214
 20
1958.341982709846
 10
1090.006090961149
 20
1958.329173406603
 10
1089.951110828961
 20
1958.318554228029
 10
1089.895750021134
 20
1958.310142162544
 10
1089.840097103151
 20
1958.303950667659
 10
1089.784241107808
 20
1958.299989648446
 10
1089.728271392782
 20
1958.29826544169
 10
1089.713156828901
 20
1958.298183850012
  0
LWPOLYLINE
  5
2EF
330
266
100
AcDbEntity
  8
P-SANR-FIXT
100
AcDbPolyline
 90
       16
 70
   128
 43
0.0
 10
1086.616111572802
 20
1958.298183850012
 10
1086.955607493425
 20
1958.298183850012
 10
1087.327356074016
 20
1958.298183850012
 10
1087.673965287998
 20
1958.298183850012
 10
1087.99488063457
 20
1958.298183850012
 10
1088.289588717634
 20
1958.298183850012
 10
1088.557618067125
 20
1958.298183850012
 10
1088.79853989326
 20
1958.298183850012
 10
1089.011968772512
 20
1958.298183850012
 10
1089.197563264202
 20
1958.298183850012
 10
1089.355026456736
 20
1958.298183850012
 10
1089.484106442596
 20
1958.298183850012
 10
1089.58459672134
 20
1958.298183850012
 10
1089.656336529958
 20
1958.298183850012
 10
1089.699211100062
 20
1958.298183850012
 10
1089.713156828901
 20
1958.298183850012
  0
LWPOLYLINE
  5
2F0
330
266
100
AcDbEntity
  8
P-SANR-FIXT
100
AcDbPolyline
 90
       16
 70
   128
 43
0.0
 10
1089.713156828901
 20
1958.298183850012
 10
1089.698678759464
 20
1958.298183850012
 10
1089.655267712978
 20
1958.298183850012
 10
1089.582993137856
 20
1958.298183850012
 10
1089.481970658
 20
1958.298183850012
 10
1089.352361887827
 20
1958.298183850012
 10
1089.194374173722
 20
1958.298183850012
 10
1089.008260262326
 20
1958.298183850012
 10
1088.794317896193
 20
1958.298183850012
 10
1088.552889337471
 20
1958.298183850012
 10
1088.284360820352
 20
1958.298183850012
 10
1087.989161933182
 20
1958.298183850012
 10
1087.667764931206
 20
1958.298183850012
 10
1087.320683981066
 20
1958.298183850012
 10
1086.948474338244
 20
1958.298183850012
 10
1086.616111572802
 20
1958.298183850012
  0
LINE
  5
2F1
330
266
100
AcDbEntity
  8
P-SANR-FIXT
100
AcDbLine
 10
1052.1131568289
 20
1970.998183850012
 30
0.0
 11
1052.1131568289
 21
1959.698183850012
 31
0.0
  0
LINE
  5
2F2
330
266
100
AcDbEntity
  8
P-SANR-FIXT
100
AcDbLine
 10
1091.1131568289
 20
1959.698183850012
 30
0.0
 11
1091.1131568289
 21
1970.998183850012
 31
0.0
  0
LINE
  5
2F3
330
266
100
AcDbEntity
  8
P-SANR-FIXT
100
AcDbLine
 10
1066.132298023358
 20
1989.198183850011
 30
0.0
 11
1054.363156828899
 21
1989.198183850011
 31
0.0
  0
LINE
  5
2F4
330
266
100
AcDbEntity
  8
P-SANR-FIXT
100
AcDbLine
 10
1088.863156828899
 20
1989.198183850011
 30
0.0
 11
1077.094015634555
 21
1989.198183850011
 31
0.0
  0
LINE
  5
2F5
330
266
100
AcDbEntity
  8
P-SANR-FIXT
100
AcDbLine
 10
1062.846049270437
 20
1930.998183850013
 30
0.0
 11
1061.860205418344
 21
1930.998183850013
 31
0.0
  0
LINE
  5
2F6
330
266
100
AcDbEntity
  8
P-SANR-FIXT
100
AcDbLine
 10
1081.366108238772
 20
1930.998183850013
 30
0.0
 11
1080.380264387966
 21
1930.998183850013
 31
0.0
  0
LINE
  5
2F7
330
266
100
AcDbEntity
  8
P-SANR-FIXT
100
AcDbLine
 10
1071.613156828899
 20
1932.498183850011
 30
0.0
 11
1054.763156828898
 21
1932.498183850011
 31
0.0
  0
LINE
  5
2F8
330
266
100
AcDbEntity
  8
P-SANR-FIXT
100
AcDbLine
 10
1088.463156828899
 20
1932.498183850011
 30
0.0
 11
1071.613156828899
 21
1932.498183850011
 31
0.0
  0
ENDBLK
  5
2FA
330
266
100
AcDbEntity
  8
0
100
AcDbBlockEnd
  0
ENDSEC
  0
SECTION
  2
ENTITIES
  0
INSERT
  5
16D
330
71
100
AcDbEntity
  8
P-SANR-FIXT
100
AcDbBlockReference
  2
Automatic flow rate regulator valve_Caleffi_121 DN15 - 1_2__-859151-Est - Idraulica
 10
0.0
 20
0.0
 30
0.0
1001
REVIT
1002
{
1070
     1
1000
863131
1002
}
1002
{
1070
     5
1000
859151
1002
}
1002
{
1070
     2
1000
-2001160
1002
}
  0
INSERT
  5
265
330
71
100
AcDbEntity
  8
P-SANR-FIXT
100
AcDbBlockReference
  2
Automatic flow rate regulator valve_Caleffi_121 DN15 - 1_2__-V1-Est - Idraulica
 10
0.0
 20
0.0
 30
0.0
1001
REVIT
1002
{
1070
     1
1000
863152
1002
}
1002
{
1070
     5
1000
859151
1002
}
1002
{
1070
     2
1000
-2001160
1002
}
  0
INSERT
  5
2FB
330
71
100
AcDbEntity
  8
P-SANR-FIXT
100
AcDbBlockReference
  2
Automatic flow rate regulator valve_Caleffi_121 DN15 - 1_2__-V2-Est - Idraulica
 10
0.0
 20
0.0
 30
0.0
1001
REVIT
1002
{
1070
     1
1000
863172
1002
}
1002
{
1070
     5
1000
859151
1002
}
1002
{
1070
     2
1000
-2001160
1002
}
  0
ENDSEC
  0
SECTION
  2
OBJECTS
  0
DICTIONARY
  5
C
330
0
100
AcDbDictionary
281
     1
  3
ACAD_CIP_PREVIOUS_PRODUCT_INFO
350
7A
  3
ACAD_COLOR
350
63
  3
ACAD_DETAILVIEWSTYLE
350
6B
  3
ACAD_GROUP
350
D
  3
ACAD_IMAGE_VARS
350
7B
  3
ACAD_LAYOUT
350
62
  3
ACAD_MATERIAL
350
10
  3
ACAD_MLEADERSTYLE
350
66
  3
ACAD_MLINESTYLE
350
5F
  3
ACAD_PLOTSETTINGS
350
61
  3
ACAD_PLOTSTYLENAME
350
E
  3
ACAD_SCALELIST
350
42
  3
ACAD_SECTIONVIEWSTYLE
350
68
  3
ACAD_TABLESTYLE
350
64
  3
ACAD_VISUALSTYLE
350
29
  3
ACDB_RECOMPOSE_DATA
350
306
  3
AcDbVariableDictionary
350
7C
  3
REVIT_DICTIONARY
350
2FD
  0
DICTIONARY
  5
302
330
71
100
AcDbDictionary
280
     1
281
     1
  3
ACAD_SORTENTS
360
303
  0
XRECORD
  5
7A
102
{ACAD_REACTORS
330
C
102
}
330
C
100
AcDbXrecord
280
     1
300
RVT
300
2013
300
RVT2013
  0
DICTIONARY
  5
63
102
{ACAD_REACTORS
330
C
102
}
330
C
100
AcDbDictionary
281
     1
  0
DICTIONARY
  5
6B
102
{ACAD_REACTORS
330
C
102
}
330
C
100
AcDbDictionary
281
     1
  3
Imperial24
350
6C
  0
DICTIONARY
  5
D
102
{ACAD_REACTORS
330
C
102
}
330
C
100
AcDbDictionary
281
     1
  0
RASTERVARIABLES
  5
7B
102
{ACAD_REACTORS
330
C
102
}
330
C
100
AcDbRasterVariables
 90
        0
 70
     0
 71
     1
 72
     1
  0
DICTIONARY
  5
62
102
{ACAD_REACTORS
330
C
102
}
330
C
100
AcDbDictionary
281
     1
  3
Layout1
350
70
  3
Layout2
350
78
  3
Model
350
74
  0
DICTIONARY
  5
10
102
{ACAD_REACTORS
330
C
102
}
330
C
100
AcDbDictionary
281
     1
  3
ByBlock
350
19
  3
ByLayer
350
11
  3
Global
350
21
  0
DICTIONARY
  5
66
102
{ACAD_REACTORS
330
C
102
}
330
C
100
AcDbDictionary
281
     1
  3
Standard
350
67
  0
DICTIONARY
  5
5F
102
{ACAD_REACTORS
330
C
102
}
330
C
100
AcDbDictionary
281
     1
  3
Standard
350
60
  0
DICTIONARY
  5
61
102
{ACAD_REACTORS
330
C
102
}
330
C
100
AcDbDictionary
281
     1
  0
ACDBDICTIONARYWDFLT
  5
E
102
{ACAD_REACTORS
330
C
102
}
330
C
100
AcDbDictionary
281
     1
  3
Normal
350
F
100
AcDbDictionaryWithDefault
340
F
  0
DICTIONARY
  5
42
102
{ACAD_REACTORS
330
C
102
}
330
C
100
AcDbDictionary
281
     1
  3
A0
350
43
  3
A1
350
44
  3
A2
350
45
  3
A3
350
46
  3
A4
350
47
  3
A5
350
48
  3
A6
350
49
  3
A7
350
4A
  3
A8
350
4B
  3
A9
350
4C
  3
B0
350
4D
  3
B1
350
4E
  3
B2
350
4F
  3
B3
350
50
  3
B4
350
51
  3
B5
350
52
  3
B6
350
53
  0
DICTIONARY
  5
68
102
{ACAD_REACTORS
330
C
102
}
330
C
100
AcDbDictionary
281
     1
  3
Imperial24
350
6A
  0
DICTIONARY
  5
64
102
{ACAD_REACTORS
330
C
102
}
330
C
100
AcDbDictionary
281
     1
  3
Standard
350
65
  0
DICTIONARY
  5
29
102
{ACAD_REACTORS
330
C
102
}
330
C
100
AcDbDictionary
281
     1
  3
2dWireframe
350
2F
  3
Basic
350
2E
  3
Brighten
350
35
  3
ColorChange
350
39
  3
Conceptual
350
32
  3
Dim
350
34
  3
EdgeColorOff
350
41
  3
Facepattern
350
38
  3
Flat
350
2A
  3
FlatWithEdges
350
2B
  3
Gouraud
350
2C
  3
GouraudWithEdges
350
2D
  3
Hidden
350
31
  3
JitterOff
350
3F
  3
Linepattern
350
37
  3
OverhangOff
350
40
  3
Realistic
350
33
  3
Shaded
350
3E
  3
Shaded with edges
350
3D
  3
Shades of Gray
350
3A
  3
Sketchy
350
3B
  3
Thicken
350
36
  3
Wireframe
350
30
  3
X-Ray
350
3C
  0
XRECORD
  5
306
102
{ACAD_REACTORS
330
C
102
}
330
C
100
AcDbXrecord
280
     1
 90
        1
330
65
  0
DICTIONARY
  5
7C
102
{ACAD_REACTORS
330
C
102
}
330
C
100
AcDbDictionary
281
     1
  3
CANNOSCALE
350
81
  3
CMLEADERSTYLE
350
7E
  3
CTABLESTYLE
350
7D
  3
CVIEWDETAILSTYLE
350
7F
  3
CVIEWSECTIONSTYLE
350
80
  0
DICTIONARY
  5
2FD
102
{ACAD_REACTORS
330
C
102
}
330
C
100
AcDbDictionary
281
     1
  3
DRAWING_TOOL
350
301
  3
REVIT_CATEGORY_MAPPING
350
2FF
  3
REVIT_SUB_CATEGORY_MAPPING
350
300
  3
REVIT_TYPE_MAPPING
350
2FE
  0
SORTENTSTABLE
  5
303
102
{ACAD_REACTORS
330
302
102
}
330
302
100
AcDbSortentsTable
330
71
  0
ACDBDETAILVIEWSTYLE
  5
6C
102
{ACAD_REACTORS
330
6B
102
}
330
6B
100
AcDbModelDocViewStyle
 70
     0
  3
Imperial24
290
     1
100
AcDbDetailViewStyle
 70
     0
 71
     0
 90
        3
 71
     1
340
55
 62
   256
 40
0.24
340
0
 62
   256
 40
0.24
300

 40
0.36
280
     3
 71
     2
340
5D
 90
       25
 62
   256
 71
     3
340
55
 62
   256
 40
0.24
 90
        1
 40
0.75
 90
        1
300
%<\AcVar ViewType \f "%tc1">% %<\AcVar ViewDetailId>%\PSCALA %<\AcVar ViewScale \f "%sn">%
 71
     4
340
5D
 90
       25
 62
   256
340
5D
 90
       25
 62
   256
280
     0
  0
LAYOUT
  5
70
102
{ACAD_REACTORS
330
62
102
}
330
62
100
AcDbPlotSettings
  1

  2

  4

  6

 40
0.0
 41
0.0
 42
0.0
 43
0.0
 44
0.0
 45
0.0
 46
0.0
 47
0.0
 48
0.0
 49
0.0
140
0.0
141
0.0
142
1.0
143
1.0
 70
   688
 72
     0
 73
     0
 74
     5
  7

 75
    16
147
1.0
 76
     0
 77
     2
 78
   300
148
0.0
149
0.0
100
AcDbLayout
  1
Layout1
 70
     1
 71
     1
 10
0.0
 20
0.0
 11
12.0
 21
9.0
 12
0.0
 22
0.0
 32
0.0
 14
0.0
 24
0.0
 34
0.0
 15
0.0
 25
0.0
 35
0.0
146
0.0
 13
0.0
 23
0.0
 33
0.0
 16
1.0
 26
0.0
 36
0.0
 17
0.0
 27
1.0
 37
0.0
 76
     0
330
6D
  0
LAYOUT
  5
78
102
{ACAD_REACTORS
330
62
102
}
330
62
100
AcDbPlotSettings
  1

  2

  4

  6

 40
0.0
 41
0.0
 42
0.0
 43
0.0
 44
0.0
 45
0.0
 46
0.0
 47
0.0
 48
0.0
 49
0.0
140
0.0
141
0.0
142
1.0
143
1.0
 70
   688
 72
     0
 73
     0
 74
     5
  7

 75
    16
147
1.0
 76
     0
 77
     2
 78
   300
148
0.0
149
0.0
100
AcDbLayout
  1
Layout2
 70
     1
 71
     2
 10
0.0
 20
0.0
 11
12.0
 21
9.0
 12
0.0
 22
0.0
 32
0.0
 14
0.0
 24
0.0
 34
0.0
 15
0.0
 25
0.0
 35
0.0
146
0.0
 13
0.0
 23
0.0
 33
0.0
 16
1.0
 26
0.0
 36
0.0
 17
0.0
 27
1.0
 37
0.0
 76
     0
330
75
  0
LAYOUT
  5
74
102
{ACAD_REACTORS
330
62
102
}
330
62
100
AcDbPlotSettings
  1

  2

  4

  6

 40
0.0
 41
0.0
 42
0.0
 43
0.0
 44
0.0
 45
0.0
 46
0.0
 47
0.0
 48
0.0
 49
0.0
140
0.0
141
0.0
142
1.0
143
1.0
 70
  1712
 72
     0
 73
     0
 74
     0
  7

 75
     0
147
1.0
 76
     0
 77
     2
 78
   300
148
0.0
149
0.0
100
AcDbLayout
  1
Model
 70
     1
 71
     0
 10
0.0
 20
0.0
 11
12.0
 21
9.0
 12
0.0
 22
0.0
 32
0.0
 14
0.0
 24
0.0
 34
0.0
 15
0.0
 25
0.0
 35
0.0
146
0.0
 13
0.0
 23
0.0
 33
0.0
 16
1.0
 26
0.0
 36
0.0
 17
0.0
 27
1.0
 37
0.0
 76
     0
330
71
  0
MATERIAL
  5
19
102
{ACAD_XDICTIONARY
360
1A
102
}
102
{ACAD_REACTORS
330
10
102
}
330
10
100
AcDbMaterial
  1
ByBlock
 72
     0
 43
0.0208333333333333
 43
0.0
 43
0.0
 43
0.0
 43
0.0
 43
0.0208333333333333
 43
0.0
 43
0.0
 43
0.0
 43
0.0
 43
1.0
 43
0.0
 43
0.0
 43
0.0
 43
0.0
 43
1.0
 77
     0
 47
0.0208333333333333
 47
0.0
 47
0.0
 47
0.0
 47
0.0
 47
0.0208333333333333
 47
0.0
 47
0.0
 47
0.0
 47
0.0
 47
1.0
 47
0.0
 47
0.0
 47
0.0
 47
0.0
 47
1.0
171
     0
 49
0.0208333333333333
 49
0.0
 49
0.0
 49
0.0
 49
0.0
 49
0.0208333333333333
 49
0.0
 49
0.0
 49
0.0
 49
0.0
 49
1.0
 49
0.0
 49
0.0
 49
0.0
 49
0.0
 49
1.0
175
     0
142
0.0208333333333333
142
0.0
142
0.0
142
0.0
142
0.0
142
0.0208333333333333
142
0.0
142
0.0
142
0.0
142
0.0
142
1.0
142
0.0
142
0.0
142
0.0
142
0.0
142
1.0
179
     0
144
0.0208333333333333
144
0.0
144
0.0
144
0.0
144
0.0
144
0.0208333333333333
144
0.0
144
0.0
144
0.0
144
0.0
144
1.0
144
0.0
144
0.0
144
0.0
144
0.0
144
1.0
147
0.0208333333333333
147
0.0
147
0.0
147
0.0
147
0.0
147
0.0208333333333333
147
0.0
147
0.0
147
0.0
147
0.0
147
1.0
147
0.0
147
0.0
147
0.0
147
0.0
147
1.0
  0
MATERIAL
  5
11
102
{ACAD_XDICTIONARY
360
12
102
}
102
{ACAD_REACTORS
330
10
102
}
330
10
100
AcDbMaterial
  1
ByLayer
 72
     0
 43
0.0208333333333333
 43
0.0
 43
0.0
 43
0.0
 43
0.0
 43
0.0208333333333333
 43
0.0
 43
0.0
 43
0.0
 43
0.0
 43
1.0
 43
0.0
 43
0.0
 43
0.0
 43
0.0
 43
1.0
 77
     0
 47
0.0208333333333333
 47
0.0
 47
0.0
 47
0.0
 47
0.0
 47
0.0208333333333333
 47
0.0
 47
0.0
 47
0.0
 47
0.0
 47
1.0
 47
0.0
 47
0.0
 47
0.0
 47
0.0
 47
1.0
171
     0
 49
0.0208333333333333
 49
0.0
 49
0.0
 49
0.0
 49
0.0
 49
0.0208333333333333
 49
0.0
 49
0.0
 49
0.0
 49
0.0
 49
1.0
 49
0.0
 49
0.0
 49
0.0
 49
0.0
 49
1.0
175
     0
142
0.0208333333333333
142
0.0
142
0.0
142
0.0
142
0.0
142
0.0208333333333333
142
0.0
142
0.0
142
0.0
142
0.0
142
1.0
142
0.0
142
0.0
142
0.0
142
0.0
142
1.0
179
     0
144
0.0208333333333333
144
0.0
144
0.0
144
0.0
144
0.0
144
0.0208333333333333
144
0.0
144
0.0
144
0.0
144
0.0
144
1.0
144
0.0
144
0.0
144
0.0
144
0.0
144
1.0
147
0.0208333333333333
147
0.0
147
0.0
147
0.0
147
0.0
147
0.0208333333333333
147
0.0
147
0.0
147
0.0
147
0.0
147
1.0
147
0.0
147
0.0
147
0.0
147
0.0
147
1.0
  0
MATERIAL
  5
21
102
{ACAD_XDICTIONARY
360
22
102
}
102
{ACAD_REACTORS
330
10
102
}
330
10
100
AcDbMaterial
  1
Global
 72
     0
 43
0.0208333333333333
 43
0.0
 43
0.0
 43
0.0
 43
0.0
 43
0.0208333333333333
 43
0.0
 43
0.0
 43
0.0
 43
0.0
 43
1.0
 43
0.0
 43
0.0
 43
0.0
 43
0.0
 43
1.0
 77
     0
 47
0.0208333333333333
 47
0.0
 47
0.0
 47
0.0
 47
0.0
 47
0.0208333333333333
 47
0.0
 47
0.0
 47
0.0
 47
0.0
 47
1.0
 47
0.0
 47
0.0
 47
0.0
 47
0.0
 47
1.0
171
     0
 49
0.0208333333333333
 49
0.0
 49
0.0
 49
0.0
 49
0.0
 49
0.0208333333333333
 49
0.0
 49
0.0
 49
0.0
 49
0.0
 49
1.0
 49
0.0
 49
0.0
 49
0.0
 49
0.0
 49
1.0
175
     0
142
0.0208333333333333
142
0.0
142
0.0
142
0.0
142
0.0
142
0.0208333333333333
142
0.0
142
0.0
142
0.0
142
0.0
142
1.0
142
0.0
142
0.0
142
0.0
142
0.0
142
1.0
179
     0
144
0.0208333333333333
144
0.0
144
0.0
144
0.0
144
0.0
144
0.0208333333333333
144
0.0
144
0.0
144
0.0
144
0.0
144
1.0
144
0.0
144
0.0
144
0.0
144
0.0
144
1.0
147
0.0208333333333333
147
0.0
147
0.0
147
0.0
147
0.0
147
0.0208333333333333
147
0.0
147
0.0
147
0.0
147
0.0
147
1.0
147
0.0
147
0.0
147
0.0
147
0.0
147
1.0
  0
MLEADERSTYLE
  5
67
102
{ACAD_REACTORS
330
66
102
}
330
66
100
AcDbMLeaderStyle
179
     2
170
     2
171
     1
172
     0
 90
        2
 40
0.0
 41
0.0
173
     1
 91
-1056964608
340
5B
 92
       -2
290
     1
 42
0.09
291
     1
 43
0.36
  3
Standard
 44
0.18
300

342
55
174
     1
178
     6
175
     1
176
     0
 93
-1056964608
 45
0.18
292
     0
297
     0
 46
0.18
 94
-1056964608
 47
1.0
 49
1.0
140
1.0
293
     1
141
0.0
294
     1
177
     0
142
1.0
295
     1
296
     0
143
0.125
271
     0
272
     9
273
     9
298
     1
  0
MLINESTYLE
  5
60
102
{ACAD_REACTORS
330
5F
102
}
330
5F
100
AcDbMlineStyle
  2
STANDARD
 70
     0
  3

 62
   256
 51
90.0
 52
90.0
 71
     2
 49
0.5
 62
   256
  6
BYLAYER
 49
-0.5
 62
   256
  6
BYLAYER
  0
ACDBPLACEHOLDER
  5
F
102
{ACAD_REACTORS
330
E
102
}
330
E
  0
SCALE
  5
43
102
{ACAD_REACTORS
330
42
102
}
330
42
100
AcDbScale
 70
     0
300
1:1
140
1.0
141
1.0
290
     1
  0
SCALE
  5
44
102
{ACAD_REACTORS
330
42
102
}
330
42
100
AcDbScale
 70
     0
300
1/128" = 1'-0"
140
0.0078125
141
12.0
290
     0
  0
SCALE
  5
45
102
{ACAD_REACTORS
330
42
102
}
330
42
100
AcDbScale
 70
     0
300
1/64" = 1'-0"
140
0.015625
141
12.0
290
     0
  0
SCALE
  5
46
102
{ACAD_REACTORS
330
42
102
}
330
42
100
AcDbScale
 70
     0
300
1/32" = 1'-0"
140
0.03125
141
12.0
290
     0
  0
SCALE
  5
47
102
{ACAD_REACTORS
330
42
102
}
330
42
100
AcDbScale
 70
     0
300
1/16" = 1'-0"
140
0.0625
141
12.0
290
     0
  0
SCALE
  5
48
102
{ACAD_REACTORS
330
42
102
}
330
42
100
AcDbScale
 70
     0
300
3/32" = 1'-0"
140
0.09375
141
12.0
290
     0
  0
SCALE
  5
49
102
{ACAD_REACTORS
330
42
102
}
330
42
100
AcDbScale
 70
     0
300
1/8" = 1'-0"
140
0.125
141
12.0
290
     0
  0
SCALE
  5
4A
102
{ACAD_REACTORS
330
42
102
}
330
42
100
AcDbScale
 70
     0
300
3/16" = 1'-0"
140
0.1875
141
12.0
290
     0
  0
SCALE
  5
4B
102
{ACAD_REACTORS
330
42
102
}
330
42
100
AcDbScale
 70
     0
300
1/4" = 1'-0"
140
0.25
141
12.0
290
     0
  0
SCALE
  5
4C
102
{ACAD_REACTORS
330
42
102
}
330
42
100
AcDbScale
 70
     0
300
3/8" = 1'-0"
140
0.375
141
12.0
290
     0
  0
SCALE
  5
4D
102
{ACAD_REACTORS
330
42
102
}
330
42
100
AcDbScale
 70
     0
300
1/2" = 1'-0"
140
0.5
141
12.0
290
     0
  0
SCALE
  5
4E
102
{ACAD_REACTORS
330
42
102
}
330
42
100
AcDbScale
 70
     0
300
3/4" = 1'-0"
140
0.75
141
12.0
290
     0
  0
SCALE
  5
4F
102
{ACAD_REACTORS
330
42
102
}
330
42
100
AcDbScale
 70
     0
300
1" = 1'-0"
140
1.0
141
12.0
290
     0
  0
SCALE
  5
50
102
{ACAD_REACTORS
330
42
102
}
330
42
100
AcDbScale
 70
     0
300
1-1/2" = 1'-0"
140
1.5
141
12.0
290
     0
  0
SCALE
  5
51
102
{ACAD_REACTORS
330
42
102
}
330
42
100
AcDbScale
 70
     0
300
3" = 1'-0"
140
3.0
141
12.0
290
     0
  0
SCALE
  5
52
102
{ACAD_REACTORS
330
42
102
}
330
42
100
AcDbScale
 70
     0
300
6" = 1'-0"
140
6.0
141
12.0
290
     0
  0
SCALE
  5
53
102
{ACAD_REACTORS
330
42
102
}
330
42
100
AcDbScale
 70
     0
300
1'-0" = 1'-0"
140
12.0
141
12.0
290
     0
  0
ACDBSECTIONVIEWSTYLE
  5
6A
102
{ACAD_REACTORS
330
68
102
}
330
68
100
AcDbModelDocViewStyle
 70
     0
  3
Imperial24
290
     1
100
AcDbSectionViewStyle
 70
     0
 71
     0
 90
       78
 71
     1
340
55
 62
   256
 40
0.24
340
0
340
0
 62
   256
 40
0.24
300
I, O, Q, S, X, Z
 40
0.48
 90
        3
 40
0.18
 90
        1
 71
     2
340
69
 90
       25
 62
   256
340
5D
 90
       50
 62
   256
 40
0.24
 40
0.0
 40
0.24
 71
     3
340
55
 62
   256
 40
0.24
 90
        1
 40
0.75
 90
        1
300
%<\AcVar ViewType \f "%tc1">% %<\AcVar ViewSectionStartId>%-%<\AcVar ViewSectionEndId>%\PSCALA %<\AcVar ViewScale \f "%sn">%
 71
     4
 62
   256
 62
   257
300
ANSI31
 40
1.0
 90
        0
290
     0
290
     0
 90
        6
 40
0.0
 40
1.570796326794896
 40
0.2617993877991494
 40
1.308996938995747
 40
-0.2617993877991494
 40
1.832595714594046
  0
TABLESTYLE
  5
65
102
{ACAD_XDICTIONARY
360
304
102
}
102
{ACAD_REACTORS
330
64
102
}
330
64
100
AcDbTableStyle
280
     0
  3
Standard
 70
     0
 71
     0
 40
0.06
 41
0.06
280
     0
281
     0
  7
Standard
140
0.18
170
     2
 62
     0
 63
     7
283
     0
 90
      512
 91
        0
  1

274
    -2
284
     1
 64
     0
275
    -2
285
     1
 65
     0
276
    -2
286
     1
 66
     0
277
    -2
287
     1
 67
     0
278
    -2
288
     1
 68
     0
279
    -2
289
     1
 69
     0
  7
Standard
140
0.25
170
     5
 62
     0
 63
     7
283
     0
 90
      512
 91
        0
  1

274
    -2
284
     1
 64
     0
275
    -2
285
     1
 65
     0
276
    -2
286
     1
 66
     0
277
    -2
287
     1
 67
     0
278
    -2
288
     1
 68
     0
279
    -2
289
     1
 69
     0
  7
Standard
140
0.18
170
     5
 62
     0
 63
     7
283
     0
 90
      512
 91
        0
  1

274
    -2
284
     1
 64
     0
275
    -2
285
     1
 65
     0
276
    -2
286
     1
 66
     0
277
    -2
287
     1
 67
     0
278
    -2
288
     1
 68
     0
279
    -2
289
     1
 69
     0
  0
VISUALSTYLE
  5
2F
102
{ACAD_REACTORS
330
29
102
}
330
29
100
AcDbVisualStyle
  2
2dWireframe
 70
     4
177
     3
291
     0
 70
    58
 90
        0
176
     1
 90
        2
176
     1
 90
        0
176
     1
 90
        0
176
     1
 40
0.6
176
     1
 40
30.0
176
     1
 62
     7
420
 16777215
176
     1
 90
        1
176
     1
 90
        4
176
     1
 62
     7
176
     1
 62
   257
176
     1
 90
        1
176
     1
 90
        1
176
     1
 40
1.0
176
     1
 90
        0
176
     1
 62
   257
176
     1
 40
1.0
176
     1
 90
        1
176
     1
 90
        6
176
     1
 90
        2
176
     1
 62
     7
176
     1
 90
        5
176
     1
 90
        0
176
     1
 90
        0
176
     1
290
     0
176
     1
 90
        1
176
     1
 40
0.0
176
     1
 90
        0
176
     1
290
     1
176
     1
290
     1
176
     1
290
     0
176
     1
290
     0
176
     1
290
     0
176
     1
290
     0
176
     1
290
     0
176
     1
290
     0
176
     1
290
     0
176
     1
 90
       50
176
     1
 40
0.0
176
     1
 40
1.0
176
     1
 90
        0
176
     1
 62
    18
420
        0
176
     1
 90
       50
176
     1
 90
        3
176
     1
 62
     5
420
      255
176
     1
290
     0
176
     1
 90
       50
176
     1
 90
       50
176
     1
 90
       50
176
     1
290
     0
176
     1
 90
       50
176
     1
 62
   256
176
     0
 40
1.0
176
     0
 90
        2
176
     1
  1
strokes_ogs.tif
176
     1
290
     0
176
     1
 40
1.0
176
     1
 40
1.0
176
     1
  0
VISUALSTYLE
  5
2E
102
{ACAD_REACTORS
330
29
102
}
330
29
100
AcDbVisualStyle
  2
Basic
 70
     7
177
     3
291
     1
 70
    58
 90
        1
176
     1
 90
        0
176
     1
 90
        1
176
     1
 90
        0
176
     1
 40
0.6
176
     1
 40
30.0
176
     1
 62
     7
420
 16777215
176
     1
 90
        0
176
     1
 90
        4
176
     1
 62
     7
176
     1
 62
   257
176
     1
 90
        1
176
     1
 90
        1
176
     1
 40
1.0
176
     1
 90
        8
176
     1
 62
     7
176
     1
 40
1.0
176
     1
 90
        1
176
     1
 90
        6
176
     1
 90
        2
176
     1
 62
     7
176
     1
 90
        5
176
     1
 90
        0
176
     1
 90
        0
176
     1
290
     0
176
     1
 90
        1
176
     1
 40
0.0
176
     1
 90
        0
176
     1
290
     0
176
     1
290
     1
176
     1
290
     1
176
     1
290
     0
176
     1
290
     0
176
     1
290
     0
176
     1
290
     0
176
     1
290
     0
176
     1
290
     0
176
     1
 90
       50
176
     1
 40
0.0
176
     1
 40
1.0
176
     1
 90
        0
176
     1
 62
    18
420
        0
176
     1
 90
       50
176
     1
 90
        3
176
     1
 62
     5
420
      255
176
     1
290
     0
176
     1
 90
       50
176
     1
 90
       50
176
     1
 90
       50
176
     1
290
     0
176
     1
 90
       50
176
     1
 62
   256
176
     0
 40
1.0
176
     0
 90
        2
176
     1
  1
strokes_ogs.tif
176
     1
290
     0
176
     1
 40
1.0
176
     1
 40
1.0
176
     1
  0
VISUALSTYLE
  5
35
102
{ACAD_REACTORS
330
29
102
}
330
29
100
AcDbVisualStyle
  2
Brighten
 70
    12
177
     3
291
     1
 70
    58
 90
        2
176
     1
 90
        2
176
     1
 90
        0
176
     1
 90
        0
176
     1
 40
0.6
176
     1
 40
30.0
176
     1
 62
     7
420
 16777215
176
     1
 90
        1
176
     1
 90
        4
176
     1
 62
     7
176
     1
 62
   257
176
     1
 90
        1
176
     1
 90
        1
176
     1
 40
1.0
176
     1
 90
        8
176
     1
 62
     7
176
     1
 40
1.0
176
     1
 90
        1
176
     1
 90
        6
176
     1
 90
        2
176
     1
 62
     7
176
     1
 90
        5
176
     1
 90
        0
176
     1
 90
        0
176
     1
290
     0
176
     1
 90
        1
176
     1
 40
50.0
176
     1
 90
        0
176
     1
290
     0
176
     1
290
     1
176
     1
290
     1
176
     1
290
     0
176
     1
290
     0
176
     1
290
     0
176
     1
290
     0
176
     1
290
     0
176
     1
290
     0
176
     1
 90
       50
176
     1
 40
0.0
176
     1
 40
1.0
176
     1
 90
        0
176
     1
 62
    18
420
        0
176
     1
 90
       50
176
     1
 90
        3
176
     1
 62
     5
420
      255
176
     1
290
     0
176
     1
 90
       50
176
     1
 90
       50
176
     1
 90
       50
176
     1
290
     0
176
     1
 90
       50
176
     1
 62
   256
176
     0
 40
1.0
176
     0
 90
        2
176
     1
  1
strokes_ogs.tif
176
     1
290
     0
176
     1
 40
1.0
176
     1
 40
1.0
176
     1
  0
VISUALSTYLE
  5
39
102
{ACAD_REACTORS
330
29
102
}
330
29
100
AcDbVisualStyle
  2
ColorChange
 70
    16
177
     3
291
     1
 70
    58
 90
        2
176
     1
 90
        2
176
     1
 90
        3
176
     1
 90
        0
176
     1
 40
0.6
176
     1
 40
30.0
176
     1
 62
     8
420
  8421504
176
     1
 90
        1
176
     1
 90
        4
176
     1
 62
     7
176
     1
 62
   257
176
     1
 90
        1
176
     1
 90
        1
176
     1
 40
1.0
176
     1
 90
        8
176
     1
 62
     8
420
  8421504
176
     1
 40
1.0
176
     1
 90
        1
176
     1
 90
        6
176
     1
 90
        2
176
     1
 62
     7
176
     1
 90
        5
176
     1
 90
        0
176
     1
 90
        0
176
     1
290
     0
176
     1
 90
        1
176
     1
 40
0.0
176
     1
 90
        0
176
     1
290
     0
176
     1
290
     1
176
     1
290
     1
176
     1
290
     0
176
     1
290
     0
176
     1
290
     0
176
     1
290
     0
176
     1
290
     0
176
     1
290
     0
176
     1
 90
       50
176
     1
 40
0.0
176
     1
 40
1.0
176
     1
 90
        0
176
     1
 62
    18
420
        0
176
     1
 90
       50
176
     1
 90
        3
176
     1
 62
     5
420
      255
176
     1
290
     0
176
     1
 90
       50
176
     1
 90
       50
176
     1
 90
       50
176
     1
290
     0
176
     1
 90
       50
176
     1
 62
   256
176
     0
 40
1.0
176
     0
 90
        2
176
     1
  1
strokes_ogs.tif
176
     1
290
     0
176
     1
 40
1.0
176
     1
 40
1.0
176
     1
  0
VISUALSTYLE
  5
32
102
{ACAD_REACTORS
330
29
102
}
330
29
100
AcDbVisualStyle
  2
Conceptual
 70
     9
177
     3
291
     0
 70
    58
 90
        3
176
     1
 90
        2
176
     1
 90
        0
176
     1
 90
        0
176
     1
 40
0.6
176
     1
 40
30.0
176
     1
 62
     7
420
 16777215
176
     1
 90
        2
176
     1
 90
        2
176
     1
 62
     7
176
     1
 62
   257
176
     1
 90
        1
176
     1
 90
        1
176
     1
 40
179.0
176
     1
 90
        8
176
     1
 62
     7
176
     1
 40
1.0
176
     1
 90
        1
176
     1
 90
        6
176
     1
 90
        2
176
     1
 62
     7
176
     1
 90
        3
176
     1
 90
        0
176
     1
 90
        0
176
     1
290
     0
176
     1
 90
        1
176
     1
 40
0.0
176
     1
 90
        0
176
     1
290
     0
176
     1
290
     1
176
     1
290
     1
176
     1
290
     0
176
     1
290
     0
176
     1
290
     0
176
     1
290
     0
176
     1
290
     0
176
     1
290
     0
176
     1
 90
       50
176
     1
 40
0.0
176
     1
 40
1.0
176
     1
 90
        0
176
     1
 62
    18
420
        0
176
     1
 90
       50
176
     1
 90
        3
176
     1
 62
     5
420
      255
176
     1
290
     0
176
     1
 90
       50
176
     1
 90
       50
176
     1
 90
       50
176
     1
290
     0
176
     1
 90
       50
176
     1
 62
   256
176
     0
 40
1.0
176
     0
 90
        2
176
     1
  1
strokes_ogs.tif
176
     1
290
     0
176
     1
 40
1.0
176
     1
 40
1.0
176
     1
  0
VISUALSTYLE
  5
34
102
{ACAD_REACTORS
330
29
102
}
330
29
100
AcDbVisualStyle
  2
Dim
 70
    11
177
     3
291
     1
 70
    58
 90
        2
176
     1
 90
        2
176
     1
 90
        0
176
     1
 90
        0
176
     1
 40
0.6
176
     1
 40
30.0
176
     1
 62
     7
420
 16777215
176
     1
 90
        1
176
     1
 90
        4
176
     1
 62
     7
176
     1
 62
   257
176
     1
 90
        1
176
     1
 90
        1
176
     1
 40
1.0
176
     1
 90
        8
176
     1
 62
     7
176
     1
 40
1.0
176
     1
 90
        1
176
     1
 90
        6
176
     1
 90
        2
176
     1
 62
     7
176
     1
 90
        5
176
     1
 90
        0
176
     1
 90
        0
176
     1
290
     0
176
     1
 90
        1
176
     1
 40
-50.0
176
     1
 90
        0
176
     1
290
     0
176
     1
290
     1
176
     1
290
     1
176
     1
290
     0
176
     1
290
     0
176
     1
290
     0
176
     1
290
     0
176
     1
290
     0
176
     1
290
     0
176
     1
 90
       50
176
     1
 40
0.0
176
     1
 40
1.0
176
     1
 90
        0
176
     1
 62
    18
420
        0
176
     1
 90
       50
176
     1
 90
        3
176
     1
 62
     5
420
      255
176
     1
290
     0
176
     1
 90
       50
176
     1
 90
       50
176
     1
 90
       50
176
     1
290
     0
176
     1
 90
       50
176
     1
 62
   256
176
     0
 40
1.0
176
     0
 90
        2
176
     1
  1
strokes_ogs.tif
176
     1
290
     0
176
     1
 40
1.0
176
     1
 40
1.0
176
     1
  0
VISUALSTYLE
  5
41
102
{ACAD_REACTORS
330
29
102
}
330
29
100
AcDbVisualStyle
  2
EdgeColorOff
 70
    22
177
     3
291
     1
 70
    58
 90
        2
176
     0
 90
        2
176
     0
 90
        0
176
     0
 90
        0
176
     0
 40
0.6
176
     0
 40
30.0
176
     0
 62
     7
420
 16777215
176
     0
 90
        1
176
     0
 90
        4
176
     0
 62
     7
176
     0
 62
   257
176
     0
 90
        1
176
     0
 90
        1
176
     0
 40
1.0
176
     0
 90
        8
176
     2
 62
     7
176
     0
 40
1.0
176
     0
 90
        1
176
     0
 90
        6
176
     0
 90
        2
176
     0
 62
     7
176
     0
 90
        5
176
     0
 90
        0
176
     0
 90
        0
176
     0
290
     0
176
     0
 90
        1
176
     0
 40
0.0
176
     0
 90
        0
176
     0
290
     0
176
     0
290
     1
176
     0
290
     1
176
     0
290
     0
176
     0
290
     0
176
     0
290
     0
176
     0
290
     0
176
     0
290
     0
176
     0
290
     0
176
     0
 90
       50
176
     0
 40
0.0
176
     0
 40
1.0
176
     0
 90
        0
176
     0
 62
    18
420
        0
176
     0
 90
       50
176
     0
 90
        3
176
     0
 62
     5
420
      255
176
     0
290
     0
176
     0
 90
       50
176
     0
 90
       50
176
     0
 90
       50
176
     0
290
     0
176
     0
 90
       50
176
     0
 62
   256
176
     0
 40
1.0
176
     0
 90
        2
176
     0
  1
strokes_ogs.tif
176
     0
290
     0
176
     0
 40
1.0
176
     0
 40
1.0
176
     0
  0
VISUALSTYLE
  5
38
102
{ACAD_REACTORS
330
29
102
}
330
29
100
AcDbVisualStyle
  2
Facepattern
 70
    15
177
     3
291
     1
 70
    58
 90
        2
176
     1
 90
        2
176
     1
 90
        0
176
     1
 90
        0
176
     1
 40
0.6
176
     1
 40
30.0
176
     1
 62
     7
420
 16777215
176
     1
 90
        1
176
     1
 90
        4
176
     1
 62
     7
176
     1
 62
   257
176
     1
 90
        1
176
     1
 90
        1
176
     1
 40
1.0
176
     1
 90
        8
176
     1
 62
     7
176
     1
 40
1.0
176
     1
 90
        1
176
     1
 90
        6
176
     1
 90
        2
176
     1
 62
     7
176
     1
 90
        5
176
     1
 90
        0
176
     1
 90
        0
176
     1
290
     0
176
     1
 90
        1
176
     1
 40
0.0
176
     1
 90
        0
176
     1
290
     0
176
     1
290
     1
176
     1
290
     1
176
     1
290
     0
176
     1
290
     0
176
     1
290
     0
176
     1
290
     0
176
     1
290
     0
176
     1
290
     0
176
     1
 90
       50
176
     1
 40
0.0
176
     1
 40
1.0
176
     1
 90
        0
176
     1
 62
    18
420
        0
176
     1
 90
       50
176
     1
 90
        3
176
     1
 62
     5
420
      255
176
     1
290
     0
176
     1
 90
       50
176
     1
 90
       50
176
     1
 90
       50
176
     1
290
     0
176
     1
 90
       50
176
     1
 62
   256
176
     0
 40
1.0
176
     0
 90
        2
176
     1
  1
strokes_ogs.tif
176
     1
290
     0
176
     1
 40
1.0
176
     1
 40
1.0
176
     1
  0
VISUALSTYLE
  5
2A
102
{ACAD_REACTORS
330
29
102
}
330
29
100
AcDbVisualStyle
  2
Flat
 70
     0
177
     3
291
     1
 70
    58
 90
        2
176
     1
 90
        1
176
     1
 90
        1
176
     1
 90
        2
176
     1
 40
0.6
176
     1
 40
30.0
176
     1
 62
     7
420
 16777215
176
     1
 90
        0
176
     1
 90
        0
176
     1
 62
     7
176
     1
 62
   257
176
     1
 90
        1
176
     1
 90
        1
176
     1
 40
1.0
176
     1
 90
        8
176
     1
 62
     7
176
     1
 40
1.0
176
     1
 90
        1
176
     1
 90
        6
176
     1
 90
        2
176
     1
 62
     7
176
     1
 90
        5
176
     1
 90
        0
176
     1
 90
        0
176
     1
290
     0
176
     1
 90
       13
176
     1
 40
0.0
176
     1
 90
        0
176
     1
290
     0
176
     1
290
     1
176
     1
290
     1
176
     1
290
     0
176
     1
290
     0
176
     1
290
     0
176
     1
290
     0
176
     1
290
     0
176
     1
290
     0
176
     1
 90
       50
176
     1
 40
0.0
176
     1
 40
1.0
176
     1
 90
        0
176
     1
 62
    18
420
        0
176
     1
 90
       50
176
     1
 90
        3
176
     1
 62
     5
420
      255
176
     1
290
     0
176
     1
 90
       50
176
     1
 90
       50
176
     1
 90
       50
176
     1
290
     0
176
     1
 90
       50
176
     1
 62
   256
176
     0
 40
1.0
176
     0
 90
        2
176
     1
  1
strokes_ogs.tif
176
     1
290
     0
176
     1
 40
1.0
176
     1
 40
1.0
176
     1
  0
VISUALSTYLE
  5
2B
102
{ACAD_REACTORS
330
29
102
}
330
29
100
AcDbVisualStyle
  2
FlatWithEdges
 70
     1
177
     3
291
     1
 70
    58
 90
        2
176
     1
 90
        1
176
     1
 90
        1
176
     1
 90
        2
176
     1
 40
0.6
176
     1
 40
30.0
176
     1
 62
     7
420
 16777215
176
     1
 90
        1
176
     1
 90
        0
176
     1
 62
     7
176
     1
 62
   257
176
     1
 90
        1
176
     1
 90
        1
176
     1
 40
1.0
176
     1
 90
        0
176
     1
 62
   257
176
     1
 40
1.0
176
     1
 90
        1
176
     1
 90
        6
176
     1
 90
        2
176
     1
 62
     7
176
     1
 90
        5
176
     1
 90
        0
176
     1
 90
        0
176
     1
290
     0
176
     1
 90
       13
176
     1
 40
0.0
176
     1
 90
        0
176
     1
290
     0
176
     1
290
     1
176
     1
290
     1
176
     1
290
     0
176
     1
290
     0
176
     1
290
     0
176
     1
290
     0
176
     1
290
     0
176
     1
290
     0
176
     1
 90
       50
176
     1
 40
0.0
176
     1
 40
1.0
176
     1
 90
        0
176
     1
 62
    18
420
        0
176
     1
 90
       50
176
     1
 90
        3
176
     1
 62
     5
420
      255
176
     1
290
     0
176
     1
 90
       50
176
     1
 90
       50
176
     1
 90
       50
176
     1
290
     0
176
     1
 90
       50
176
     1
 62
   256
176
     0
 40
1.0
176
     0
 90
        2
176
     1
  1
strokes_ogs.tif
176
     1
290
     0
176
     1
 40
1.0
176
     1
 40
1.0
176
     1
  0
VISUALSTYLE
  5
2C
102
{ACAD_REACTORS
330
29
102
}
330
29
100
AcDbVisualStyle
  2
Gouraud
 70
     2
177
     3
291
     1
 70
    58
 90
        2
176
     1
 90
        2
176
     1
 90
        1
176
     1
 90
        2
176
     1
 40
0.6
176
     1
 40
30.0
176
     1
 62
     7
420
 16777215
176
     1
 90
        0
176
     1
 90
        0
176
     1
 62
     7
176
     1
 62
   257
176
     1
 90
        1
176
     1
 90
        1
176
     1
 40
1.0
176
     1
 90
        0
176
     1
 62
     7
176
     1
 40
1.0
176
     1
 90
        1
176
     1
 90
        6
176
     1
 90
        2
176
     1
 62
     7
176
     1
 90
        5
176
     1
 90
        0
176
     1
 90
        0
176
     1
290
     0
176
     1
 90
       13
176
     1
 40
0.0
176
     1
 90
        0
176
     1
290
     0
176
     1
290
     1
176
     1
290
     1
176
     1
290
     0
176
     1
290
     0
176
     1
290
     0
176
     1
290
     0
176
     1
290
     0
176
     1
290
     0
176
     1
 90
       50
176
     1
 40
0.0
176
     1
 40
1.0
176
     1
 90
        0
176
     1
 62
    18
420
        0
176
     1
 90
       50
176
     1
 90
        3
176
     1
 62
     5
420
      255
176
     1
290
     0
176
     1
 90
       50
176
     1
 90
       50
176
     1
 90
       50
176
     1
290
     0
176
     1
 90
       50
176
     1
 62
   256
176
     0
 40
1.0
176
     0
 90
        2
176
     1
  1
strokes_ogs.tif
176
     1
290
     0
176
     1
 40
1.0
176
     1
 40
1.0
176
     1
  0
VISUALSTYLE
  5
2D
102
{ACAD_REACTORS
330
29
102
}
330
29
100
AcDbVisualStyle
  2
GouraudWithEdges
 70
     3
177
     3
291
     1
 70
    58
 90
        2
176
     1
 90
        2
176
     1
 90
        1
176
     1
 90
        2
176
     1
 40
0.6
176
     1
 40
30.0
176
     1
 62
     7
420
 16777215
176
     1
 90
        1
176
     1
 90
        0
176
     1
 62
     7
176
     1
 62
   257
176
     1
 90
        1
176
     1
 90
        1
176
     1
 40
1.0
176
     1
 90
        0
176
     1
 62
   257
176
     1
 40
1.0
176
     1
 90
        1
176
     1
 90
        6
176
     1
 90
        2
176
     1
 62
     7
176
     1
 90
        5
176
     1
 90
        0
176
     1
 90
        0
176
     1
290
     0
176
     1
 90
       13
176
     1
 40
0.0
176
     1
 90
        0
176
     1
290
     0
176
     1
290
     1
176
     1
290
     1
176
     1
290
     0
176
     1
290
     0
176
     1
290
     0
176
     1
290
     0
176
     1
290
     0
176
     1
290
     0
176
     1
 90
       50
176
     1
 40
0.0
176
     1
 40
1.0
176
     1
 90
        0
176
     1
 62
    18
420
        0
176
     1
 90
       50
176
     1
 90
        3
176
     1
 62
     5
420
      255
176
     1
290
     0
176
     1
 90
       50
176
     1
 90
       50
176
     1
 90
       50
176
     1
290
     0
176
     1
 90
       50
176
     1
 62
   256
176
     0
 40
1.0
176
     0
 90
        2
176
     1
  1
strokes_ogs.tif
176
     1
290
     0
176
     1
 40
1.0
176
     1
 40
1.0
176
     1
  0
VISUALSTYLE
  5
31
102
{ACAD_REACTORS
330
29
102
}
330
29
100
AcDbVisualStyle
  2
Hidden
 70
     6
177
     3
291
     0
 70
    58
 90
        1
176
     1
 90
        2
176
     1
 90
        2
176
     1
 90
        0
176
     1
 40
0.6
176
     1
 40
30.0
176
     1
 62
     7
420
 16777215
176
     1
 90
        2
176
     1
 90
        2
176
     1
 62
     7
176
     1
 62
   257
176
     1
 90
        2
176
     1
 90
        1
176
     1
 40
40.0
176
     1
 90
        0
176
     1
 62
   257
176
     1
 40
1.0
176
     1
 90
        1
176
     1
 90
        6
176
     1
 90
        2
176
     1
 62
     7
176
     1
 90
        3
176
     1
 90
        0
176
     1
 90
        0
176
     1
290
     0
176
     1
 90
        1
176
     1
 40
0.0
176
     1
 90
        0
176
     1
290
     0
176
     1
290
     1
176
     1
290
     1
176
     1
290
     0
176
     1
290
     0
176
     1
290
     0
176
     1
290
     0
176
     1
290
     0
176
     1
290
     0
176
     1
 90
       50
176
     1
 40
0.0
176
     1
 40
1.0
176
     1
 90
        0
176
     1
 62
    18
420
        0
176
     1
 90
       50
176
     1
 90
        3
176
     1
 62
     5
420
      255
176
     1
290
     0
176
     1
 90
       50
176
     1
 90
       50
176
     1
 90
       50
176
     1
290
     0
176
     1
 90
       50
176
     1
 62
   256
176
     0
 40
1.0
176
     0
 90
        2
176
     1
  1
strokes_ogs.tif
176
     1
290
     0
176
     1
 40
1.0
176
     1
 40
1.0
176
     1
  0
VISUALSTYLE
  5
3F
102
{ACAD_REACTORS
330
29
102
}
330
29
100
AcDbVisualStyle
  2
JitterOff
 70
    20
177
     3
291
     1
 70
    58
 90
        2
176
     0
 90
        2
176
     0
 90
        0
176
     0
 90
        0
176
     0
 40
0.6
176
     0
 40
30.0
176
     0
 62
     7
420
 16777215
176
     0
 90
        1
176
     0
 90
        4
176
     0
 62
     7
176
     0
 62
   257
176
     0
 90
        1
176
     0
 90
        1
176
     0
 40
1.0
176
     0
 90
       10
176
     2
 62
     7
176
     0
 40
1.0
176
     0
 90
        1
176
     0
 90
        6
176
     0
 90
        2
176
     0
 62
     7
176
     0
 90
        5
176
     0
 90
        0
176
     0
 90
        0
176
     0
290
     0
176
     0
 90
        1
176
     0
 40
0.0
176
     0
 90
        0
176
     0
290
     0
176
     0
290
     1
176
     0
290
     1
176
     0
290
     0
176
     0
290
     0
176
     0
290
     0
176
     0
290
     0
176
     0
290
     0
176
     0
290
     0
176
     0
 90
       50
176
     0
 40
0.0
176
     0
 40
1.0
176
     0
 90
        0
176
     0
 62
    18
420
        0
176
     0
 90
       50
176
     0
 90
        3
176
     0
 62
     5
420
      255
176
     0
290
     0
176
     0
 90
       50
176
     0
 90
       50
176
     0
 90
       50
176
     0
290
     0
176
     0
 90
       50
176
     0
 62
   256
176
     0
 40
1.0
176
     0
 90
        2
176
     0
  1
strokes_ogs.tif
176
     0
290
     0
176
     0
 40
1.0
176
     0
 40
1.0
176
     0
  0
VISUALSTYLE
  5
37
102
{ACAD_REACTORS
330
29
102
}
330
29
100
AcDbVisualStyle
  2
Linepattern
 70
    14
177
     3
291
     1
 70
    58
 90
        2
176
     1
 90
        2
176
     1
 90
        0
176
     1
 90
        0
176
     1
 40
0.6
176
     1
 40
30.0
176
     1
 62
     7
420
 16777215
176
     1
 90
        1
176
     1
 90
        4
176
     1
 62
     7
176
     1
 62
   257
176
     1
 90
        7
176
     1
 90
        7
176
     1
 40
1.0
176
     1
 90
        8
176
     1
 62
     7
176
     1
 40
1.0
176
     1
 90
        1
176
     1
 90
        6
176
     1
 90
        2
176
     1
 62
     7
176
     1
 90
        5
176
     1
 90
        0
176
     1
 90
        0
176
     1
290
     0
176
     1
 90
        1
176
     1
 40
0.0
176
     1
 90
        0
176
     1
290
     0
176
     1
290
     1
176
     1
290
     1
176
     1
290
     0
176
     1
290
     0
176
     1
290
     0
176
     1
290
     0
176
     1
290
     0
176
     1
290
     0
176
     1
 90
       50
176
     1
 40
0.0
176
     1
 40
1.0
176
     1
 90
        0
176
     1
 62
    18
420
        0
176
     1
 90
       50
176
     1
 90
        3
176
     1
 62
     5
420
      255
176
     1
290
     0
176
     1
 90
       50
176
     1
 90
       50
176
     1
 90
       50
176
     1
290
     0
176
     1
 90
       50
176
     1
 62
   256
176
     0
 40
1.0
176
     0
 90
        2
176
     1
  1
strokes_ogs.tif
176
     1
290
     0
176
     1
 40
1.0
176
     1
 40
1.0
176
     1
  0
VISUALSTYLE
  5
40
102
{ACAD_REACTORS
330
29
102
}
330
29
100
AcDbVisualStyle
  2
OverhangOff
 70
    21
177
     3
291
     1
 70
    58
 90
        2
176
     0
 90
        2
176
     0
 90
        0
176
     0
 90
        0
176
     0
 40
0.6
176
     0
 40
30.0
176
     0
 62
     7
420
 16777215
176
     0
 90
        1
176
     0
 90
        4
176
     0
 62
     7
176
     0
 62
   257
176
     0
 90
        1
176
     0
 90
        1
176
     0
 40
1.0
176
     0
 90
        9
176
     2
 62
     7
176
     0
 40
1.0
176
     0
 90
        1
176
     0
 90
        6
176
     0
 90
        2
176
     0
 62
     7
176
     0
 90
        5
176
     0
 90
        0
176
     0
 90
        0
176
     0
290
     0
176
     0
 90
        1
176
     0
 40
0.0
176
     0
 90
        0
176
     0
290
     0
176
     0
290
     1
176
     0
290
     1
176
     0
290
     0
176
     0
290
     0
176
     0
290
     0
176
     0
290
     0
176
     0
290
     0
176
     0
290
     0
176
     0
 90
       50
176
     0
 40
0.0
176
     0
 40
1.0
176
     0
 90
        0
176
     0
 62
    18
420
        0
176
     0
 90
       50
176
     0
 90
        3
176
     0
 62
     5
420
      255
176
     0
290
     0
176
     0
 90
       50
176
     0
 90
       50
176
     0
 90
       50
176
     0
290
     0
176
     0
 90
       50
176
     0
 62
   256
176
     0
 40
1.0
176
     0
 90
        2
176
     0
  1
strokes_ogs.tif
176
     0
290
     0
176
     0
 40
1.0
176
     0
 40
1.0
176
     0
  0
VISUALSTYLE
  5
33
102
{ACAD_REACTORS
330
29
102
}
330
29
100
AcDbVisualStyle
  2
Realistic
 70
     8
177
     3
291
     0
 70
    58
 90
        2
176
     1
 90
        3
176
     1
 90
        0
176
     1
 90
        2
176
     1
 40
0.6
176
     1
 40
30.0
176
     1
 62
     7
420
 16777215
176
     1
 90
        0
176
     1
 90
        0
176
     1
 62
     7
176
     1
 62
   257
176
     1
 90
        1
176
     1
 90
        1
176
     1
 40
1.0
176
     1
 90
        8
176
     1
 62
   257
176
     1
 40
1.0
176
     1
 90
        1
176
     1
 90
        6
176
     1
 90
        2
176
     1
 62
     7
176
     1
 90
        3
176
     1
 90
        0
176
     1
 90
        0
176
     1
290
     0
176
     1
 90
       13
176
     1
 40
0.0
176
     1
 90
        0
176
     1
290
     0
176
     1
290
     1
176
     1
290
     1
176
     1
290
     0
176
     1
290
     0
176
     1
290
     0
176
     1
290
     0
176
     1
290
     0
176
     1
290
     0
176
     1
 90
       50
176
     1
 40
0.0
176
     1
 40
1.0
176
     1
 90
        0
176
     1
 62
    18
420
        0
176
     1
 90
       50
176
     1
 90
        3
176
     1
 62
     5
420
      255
176
     1
290
     0
176
     1
 90
       50
176
     1
 90
       50
176
     1
 90
       50
176
     1
290
     0
176
     1
 90
       50
176
     1
 62
   256
176
     0
 40
1.0
176
     0
 90
        2
176
     1
  1
strokes_ogs.tif
176
     1
290
     0
176
     1
 40
1.0
176
     1
 40
1.0
176
     1
  0
VISUALSTYLE
  5
3E
102
{ACAD_REACTORS
330
29
102
}
330
29
100
AcDbVisualStyle
  2
Shaded
 70
    27
177
     3
291
     0
 70
    58
 90
        2
176
     1
 90
        2
176
     1
 90
        1
176
     1
 90
        2
176
     1
 40
0.6
176
     1
 40
30.0
176
     1
 62
     7
420
 16777215
176
     1
 90
        0
176
     1
 90
        4
176
     1
 62
     7
176
     1
 62
   257
176
     1
 90
        1
176
     1
 90
        1
176
     1
 40
1.0
176
     1
 90
        8
176
     1
 62
   257
176
     1
 40
1.0
176
     1
 90
        1
176
     1
 90
        6
176
     1
 90
        2
176
     1
 62
     8
420
  7895160
176
     1
 90
        3
176
     1
 90
        0
176
     1
 90
        0
176
     1
290
     0
176
     1
 90
        5
176
     1
 40
0.0
176
     1
 90
        0
176
     1
290
     0
176
     1
290
     1
176
     1
290
     1
176
     1
290
     0
176
     1
290
     0
176
     1
290
     0
176
     1
290
     0
176
     1
290
     0
176
     1
290
     0
176
     1
 90
       50
176
     1
 40
0.0
176
     1
 40
1.0
176
     1
 90
        0
176
     1
 62
    18
420
        0
176
     1
 90
       50
176
     1
 90
        3
176
     1
 62
     5
420
      255
176
     1
290
     0
176
     1
 90
       50
176
     1
 90
       50
176
     1
 90
       50
176
     1
290
     0
176
     1
 90
       50
176
     1
 62
   256
176
     0
 40
1.0
176
     0
 90
        2
176
     1
  1
strokes_ogs.tif
176
     1
290
     0
176
     1
 40
1.0
176
     1
 40
1.0
176
     1
  0
VISUALSTYLE
  5
3D
102
{ACAD_REACTORS
330
29
102
}
330
29
100
AcDbVisualStyle
  2
Shaded with edges
 70
    26
177
     3
291
     0
 70
    58
 90
        2
176
     1
 90
        2
176
     1
 90
        1
176
     1
 90
        2
176
     1
 40
0.6
176
     1
 40
30.0
176
     1
 62
     7
420
 16777215
176
     1
 90
        1
176
     1
 90
       10
176
     1
 62
     7
176
     1
 62
   257
176
     1
 90
        2
176
     1
 90
        1
176
     1
 40
1.0
176
     1
 90
        8
176
     1
 62
   257
176
     1
 40
1.0
176
     1
 90
        1
176
     1
 90
        6
176
     1
 90
        2
176
     1
 62
     7
176
     1
 90
        3
176
     1
 90
        0
176
     1
 90
        0
176
     1
290
     0
176
     1
 90
        5
176
     1
 40
0.0
176
     1
 90
        0
176
     1
290
     0
176
     1
290
     1
176
     1
290
     1
176
     1
290
     0
176
     1
290
     0
176
     1
290
     0
176
     1
290
     0
176
     1
290
     0
176
     1
290
     0
176
     1
 90
       50
176
     1
 40
0.0
176
     1
 40
1.0
176
     1
 90
        0
176
     1
 62
    18
420
        0
176
     1
 90
       50
176
     1
 90
        3
176
     1
 62
     5
420
      255
176
     1
290
     0
176
     1
 90
       50
176
     1
 90
       50
176
     1
 90
       50
176
     1
290
     0
176
     1
 90
       50
176
     1
 62
   256
176
     0
 40
1.0
176
     0
 90
        2
176
     1
  1
strokes_ogs.tif
176
     1
290
     0
176
     1
 40
1.0
176
     1
 40
1.0
176
     1
  0
VISUALSTYLE
  5
3A
102
{ACAD_REACTORS
330
29
102
}
330
29
100
AcDbVisualStyle
  2
Shades of Gray
 70
    23
177
     3
291
     0
 70
    58
 90
        2
176
     1
 90
        2
176
     1
 90
        3
176
     1
 90
        0
176
     1
 40
0.6
176
     1
 40
30.0
176
     1
 62
     7
420
 16777215
176
     1
 90
        2
176
     1
 90
        2
176
     1
 62
     7
176
     1
 62
     7
176
     1
 90
        1
176
     1
 90
        1
176
     1
 40
40.0
176
     1
 90
        8
176
     1
 62
     7
176
     1
 40
1.0
176
     1
 90
        1
176
     1
 90
        6
176
     1
 90
        2
176
     1
 62
     7
176
     1
 90
        3
176
     1
 90
        0
176
     1
 90
        0
176
     1
290
     0
176
     1
 90
        1
176
     1
 40
0.0
176
     1
 90
        0
176
     1
290
     0
176
     1
290
     1
176
     1
290
     1
176
     1
290
     0
176
     1
290
     0
176
     1
290
     0
176
     1
290
     0
176
     1
290
     0
176
     1
290
     0
176
     1
 90
       50
176
     1
 40
0.0
176
     1
 40
1.0
176
     1
 90
        0
176
     1
 62
    18
420
        0
176
     1
 90
       50
176
     1
 90
        3
176
     1
 62
     5
420
      255
176
     1
290
     0
176
     1
 90
       50
176
     1
 90
       50
176
     1
 90
       50
176
     1
290
     0
176
     1
 90
       50
176
     1
 62
   256
176
     0
 40
1.0
176
     0
 90
        2
176
     1
  1
strokes_ogs.tif
176
     1
290
     0
176
     1
 40
1.0
176
     1
 40
1.0
176
     1
  0
VISUALSTYLE
  5
3B
102
{ACAD_REACTORS
330
29
102
}
330
29
100
AcDbVisualStyle
  2
Sketchy
 70
    24
177
     3
291
     0
 70
    58
 90
        1
176
     1
 90
        2
176
     1
 90
        2
176
     1
 90
        0
176
     1
 40
0.6
176
     1
 40
30.0
176
     1
 62
     7
420
 16777215
176
     1
 90
        2
176
     1
 90
        2
176
     1
 62
     7
176
     1
 62
     7
176
     1
 90
        1
176
     1
 90
        1
176
     1
 40
40.0
176
     1
 90
       11
176
     1
 62
     7
176
     1
 40
1.0
176
     1
 90
        1
176
     1
 90
        6
176
     1
 90
        2
176
     1
 62
     7
176
     1
 90
        6
176
     1
 90
        0
176
     1
 90
        0
176
     1
290
     0
176
     1
 90
        1
176
     1
 40
0.0
176
     1
 90
        0
176
     1
290
     0
176
     1
290
     1
176
     1
290
     1
176
     1
290
     0
176
     1
290
     0
176
     1
290
     0
176
     1
290
     0
176
     1
290
     0
176
     1
290
     0
176
     1
 90
       50
176
     1
 40
0.0
176
     1
 40
1.0
176
     1
 90
        0
176
     1
 62
    18
420
        0
176
     1
 90
       50
176
     1
 90
        3
176
     1
 62
     5
420
      255
176
     1
290
     0
176
     1
 90
       50
176
     1
 90
       50
176
     1
 90
       50
176
     1
290
     0
176
     1
 90
       50
176
     1
 62
   256
176
     0
 40
1.0
176
     0
 90
        2
176
     1
  1
strokes_ogs.tif
176
     1
290
     0
176
     1
 40
1.0
176
     1
 40
1.0
176
     1
  0
VISUALSTYLE
  5
36
102
{ACAD_REACTORS
330
29
102
}
330
29
100
AcDbVisualStyle
  2
Thicken
 70
    13
177
     3
291
     1
 70
    58
 90
        2
176
     1
 90
        2
176
     1
 90
        0
176
     1
 90
        0
176
     1
 40
0.6
176
     1
 40
30.0
176
     1
 62
     7
420
 16777215
176
     1
 90
        1
176
     1
 90
        4
176
     1
 62
     7
176
     1
 62
   257
176
     1
 90
        1
176
     1
 90
        1
176
     1
 40
1.0
176
     1
 90
       12
176
     1
 62
     7
176
     1
 40
1.0
176
     1
 90
        1
176
     1
 90
        6
176
     1
 90
        2
176
     1
 62
     7
176
     1
 90
        5
176
     1
 90
        0
176
     1
 90
        0
176
     1
290
     0
176
     1
 90
        1
176
     1
 40
0.0
176
     1
 90
        0
176
     1
290
     0
176
     1
290
     1
176
     1
290
     1
176
     1
290
     0
176
     1
290
     0
176
     1
290
     0
176
     1
290
     0
176
     1
290
     0
176
     1
290
     0
176
     1
 90
       50
176
     1
 40
0.0
176
     1
 40
1.0
176
     1
 90
        0
176
     1
 62
    18
420
        0
176
     1
 90
       50
176
     1
 90
        3
176
     1
 62
     5
420
      255
176
     1
290
     0
176
     1
 90
       50
176
     1
 90
       50
176
     1
 90
       50
176
     1
290
     0
176
     1
 90
       50
176
     1
 62
   256
176
     0
 40
1.0
176
     0
 90
        2
176
     1
  1
strokes_ogs.tif
176
     1
290
     0
176
     1
 40
1.0
176
     1
 40
1.0
176
     1
  0
VISUALSTYLE
  5
30
102
{ACAD_REACTORS
330
29
102
}
330
29
100
AcDbVisualStyle
  2
Wireframe
 70
     5
177
     3
291
     0
 70
    58
 90
        0
176
     1
 90
        2
176
     1
 90
        0
176
     1
 90
        0
176
     1
 40
0.6
176
     1
 40
30.0
176
     1
 62
     7
420
 16777215
176
     1
 90
        1
176
     1
 90
        4
176
     1
 62
     7
176
     1
 62
   257
176
     1
 90
        1
176
     1
 90
        1
176
     1
 40
1.0
176
     1
 90
        0
176
     1
 62
   257
176
     1
 40
1.0
176
     1
 90
        1
176
     1
 90
        6
176
     1
 90
        2
176
     1
 62
     7
176
     1
 90
        3
176
     1
 90
        0
176
     1
 90
        0
176
     1
290
     0
176
     1
 90
        1
176
     1
 40
0.0
176
     1
 90
        0
176
     1
290
     0
176
     1
290
     1
176
     1
290
     1
176
     1
290
     0
176
     1
290
     0
176
     1
290
     0
176
     1
290
     0
176
     1
290
     0
176
     1
290
     0
176
     1
 90
       50
176
     1
 40
0.0
176
     1
 40
1.0
176
     1
 90
        0
176
     1
 62
    18
420
        0
176
     1
 90
       50
176
     1
 90
        3
176
     1
 62
     5
420
      255
176
     1
290
     0
176
     1
 90
       50
176
     1
 90
       50
176
     1
 90
       50
176
     1
290
     0
176
     1
 90
       50
176
     1
 62
   256
176
     0
 40
1.0
176
     0
 90
        2
176
     1
  1
strokes_ogs.tif
176
     1
290
     0
176
     1
 40
1.0
176
     1
 40
1.0
176
     1
  0
VISUALSTYLE
  5
3C
102
{ACAD_REACTORS
330
29
102
}
330
29
100
AcDbVisualStyle
  2
X-Ray
 70
    25
177
     3
291
     0
 70
    58
 90
        2
176
     1
 90
        2
176
     1
 90
        1
176
     1
 90
        1
176
     1
 40
0.5
176
     1
 40
30.0
176
     1
 62
     7
420
 16777215
176
     1
 90
        1
176
     1
 90
        0
176
     1
 62
     7
176
     1
 62
   257
176
     1
 90
        1
176
     1
 90
        1
176
     1
 40
1.0
176
     1
 90
        8
176
     1
 62
     7
176
     1
 40
1.0
176
     1
 90
        1
176
     1
 90
        6
176
     1
 90
        2
176
     1
 62
     7
176
     1
 90
        3
176
     1
 90
        0
176
     1
 90
        0
176
     1
290
     0
176
     1
 90
       13
176
     1
 40
0.0
176
     1
 90
        0
176
     1
290
     0
176
     1
290
     1
176
     1
290
     1
176
     1
290
     0
176
     1
290
     0
176
     1
290
     0
176
     1
290
     0
176
     1
290
     0
176
     1
290
     0
176
     1
 90
       50
176
     1
 40
0.0
176
     1
 40
1.0
176
     1
 90
        0
176
     1
 62
    18
420
        0
176
     1
 90
       50
176
     1
 90
        3
176
     1
 62
     5
420
      255
176
     1
290
     0
176
     1
 90
       50
176
     1
 90
       50
176
     1
 90
       50
176
     1
290
     0
176
     1
 90
       50
176
     1
 62
   256
176
     0
 40
1.0
176
     0
 90
        2
176
     1
  1
strokes_ogs.tif
176
     1
290
     0
176
     1
 40
1.0
176
     1
 40
1.0
176
     1
  0
DICTIONARYVAR
  5
81
102
{ACAD_REACTORS
330
7C
102
}
330
7C
100
DictionaryVariables
280
     0
  1
1:1
  0
DICTIONARYVAR
  5
7E
102
{ACAD_REACTORS
330
7C
102
}
330
7C
100
DictionaryVariables
280
     0
  1
STANDARD
  0
DICTIONARYVAR
  5
7D
102
{ACAD_REACTORS
330
7C
102
}
330
7C
100
DictionaryVariables
280
     0
  1
STANDARD
  0
DICTIONARYVAR
  5
7F
102
{ACAD_REACTORS
330
7C
102
}
330
7C
100
DictionaryVariables
280
     0
  1
Imperial24
  0
DICTIONARYVAR
  5
80
102
{ACAD_REACTORS
330
7C
102
}
330
7C
100
DictionaryVariables
280
     0
  1
Imperial24
  0
XRECORD
  5
301
102
{ACAD_REACTORS
330
2FD
102
}
330
2FD
100
AcDbXrecord
280
     1
  1
BUILDING_ID
  1
Progetto per messa in tavola DXF, DWG
  1
FLOOR_ID
  1
694395
  0
XRECORD
  5
2FF
102
{ACAD_REACTORS
330
2FD
102
}
330
2FD
100
AcDbXrecord
280
     1
  1
-2001160
  1
Apparecchi idraulici
  0
XRECORD
  5
300
102
{ACAD_REACTORS
330
2FD
102
}
330
2FD
100
AcDbXrecord
280
     1
  1
938184
  1
Handle
  0
XRECORD
  5
2FE
102
{ACAD_REACTORS
330
2FD
102
}
330
2FD
100
AcDbXrecord
280
     1
  1
859151
  1
Automatic flow rate regulator valve_Caleffi_121 DN15 : 1/2''
  0
DICTIONARY
  5
1A
330
19
100
AcDbDictionary
280
     1
281
     1
  3
BUMPTILE
360
1C
  3
DIFFUSETILE
360
1B
  3
OPACITYTILE
360
1F
  3
REFLECTIONTILE
360
1E
  3
REFRACTIONTILE
360
20
  3
SPECULARTILE
360
1D
  0
DICTIONARY
  5
12
330
11
100
AcDbDictionary
280
     1
281
     1
  3
BUMPTILE
360
14
  3
DIFFUSETILE
360
13
  3
OPACITYTILE
360
17
  3
REFLECTIONTILE
360
16
  3
REFRACTIONTILE
360
18
  3
SPECULARTILE
360
15
  0
DICTIONARY
  5
22
330
21
100
AcDbDictionary
280
     1
281
     1
  3
BUMPTILE
360
24
  3
DIFFUSETILE
360
23
  3
OPACITYTILE
360
27
  3
REFLECTIONTILE
360
26
  3
REFRACTIONTILE
360
28
  3
SPECULARTILE
360
25
  0
DICTIONARY
  5
304
330
65
100
AcDbDictionary
280
     1
281
     1
  3
ACAD_ROUNDTRIP_2008_TABLESTYLE_CELLSTYLEMAP
360
305
  0
XRECORD
  5
1C
102
{ACAD_REACTORS
330
1A
102
}
330
1A
100
AcDbXrecord
280
     1
270
     1
271
     1
  0
XRECORD
  5
1B
102
{ACAD_REACTORS
330
1A
102
}
330
1A
100
AcDbXrecord
280
     1
270
     1
271
     1
  0
XRECORD
  5
1F
102
{ACAD_REACTORS
330
1A
102
}
330
1A
100
AcDbXrecord
280
     1
270
     1
271
     1
  0
XRECORD
  5
1E
102
{ACAD_REACTORS
330
1A
102
}
330
1A
100
AcDbXrecord
280
     1
270
     1
271
     1
  0
XRECORD
  5
20
102
{ACAD_REACTORS
330
1A
102
}
330
1A
100
AcDbXrecord
280
     1
270
     1
271
     1
  0
XRECORD
  5
1D
102
{ACAD_REACTORS
330
1A
102
}
330
1A
100
AcDbXrecord
280
     1
270
     1
271
     1
  0
XRECORD
  5
14
102
{ACAD_REACTORS
330
12
102
}
330
12
100
AcDbXrecord
280
     1
270
     1
271
     1
  0
XRECORD
  5
13
102
{ACAD_REACTORS
330
12
102
}
330
12
100
AcDbXrecord
280
     1
270
     1
271
     1
  0
XRECORD
  5
17
102
{ACAD_REACTORS
330
12
102
}
330
12
100
AcDbXrecord
280
     1
270
     1
271
     1
  0
XRECORD
  5
16
102
{ACAD_REACTORS
330
12
102
}
330
12
100
AcDbXrecord
280
     1
270
     1
271
     1
  0
XRECORD
  5
18
102
{ACAD_REACTORS
330
12
102
}
330
12
100
AcDbXrecord
280
     1
270
     1
271
     1
  0
XRECORD
  5
15
102
{ACAD_REACTORS
330
12
102
}
330
12
100
AcDbXrecord
280
     1
270
     1
271
     1
  0
XRECORD
  5
24
102
{ACAD_REACTORS
330
22
102
}
330
22
100
AcDbXrecord
280
     1
270
     1
271
     1
  0
XRECORD
  5
23
102
{ACAD_REACTORS
330
22
102
}
330
22
100
AcDbXrecord
280
     1
270
     1
271
     1
  0
XRECORD
  5
27
102
{ACAD_REACTORS
330
22
102
}
330
22
100
AcDbXrecord
280
     1
270
     1
271
     1
  0
XRECORD
  5
26
102
{ACAD_REACTORS
330
22
102
}
330
22
100
AcDbXrecord
280
     1
270
     1
271
     1
  0
XRECORD
  5
28
102
{ACAD_REACTORS
330
22
102
}
330
22
100
AcDbXrecord
280
     1
270
     1
271
     1
  0
XRECORD
  5
25
102
{ACAD_REACTORS
330
22
102
}
330
22
100
AcDbXrecord
280
     1
270
     1
271
     1
  0
CELLSTYLEMAP
  5
305
102
{ACAD_REACTORS
330
304
102
}
330
304
100
AcDbCellStyleMap
 90
        3
300
CELLSTYLE
  1
TABLEFORMAT_BEGIN
 90
        5
170
     1
 91
        0
 92
    32768
 62
   257
 93
        1
300
CONTENTFORMAT
  1
CONTENTFORMAT_BEGIN
 90
        0
 91
        0
 92
      512
 93
        0
300

 40
0.0
140
1.0
 94
        5
 62
     0
340
55
144
0.25
309
CONTENTFORMAT_END
171
     0
 94
        0
309
TABLEFORMAT_END
  1
CELLSTYLE_BEGIN
 90
        1
 91
        1
300
_TITLE
309
CELLSTYLE_END
300
CELLSTYLE
  1
TABLEFORMAT_BEGIN
 90
        5
170
     1
 91
        0
 92
        0
 62
   257
 93
        1
300
CONTENTFORMAT
  1
CONTENTFORMAT_BEGIN
 90
        0
 91
        0
 92
      512
 93
        0
300

 40
0.0
140
1.0
 94
        5
 62
     0
340
55
144
0.18
309
CONTENTFORMAT_END
171
     0
 94
        0
309
TABLEFORMAT_END
  1
CELLSTYLE_BEGIN
 90
        2
 91
        1
300
_HEADER
309
CELLSTYLE_END
300
CELLSTYLE
  1
TABLEFORMAT_BEGIN
 90
        5
170
     1
 91
        0
 92
        0
 62
   257
 93
        1
300
CONTENTFORMAT
  1
CONTENTFORMAT_BEGIN
 90
        0
 91
        0
 92
      512
 93
        0
300

 40
0.0
140
1.0
 94
        2
 62
     0
340
55
144
0.18
309
CONTENTFORMAT_END
171
     0
 94
        0
309
TABLEFORMAT_END
  1
CELLSTYLE_BEGIN
 90
        3
 91
        2
300
_DATA
309
CELLSTYLE_END
  0
ENDSEC
  0
EOF
