  0
SECTION
  2
HEADER
  9
$ACADVER
  1
AC1027
  9
$ACADMAINTVER
 70
    20
  9
$DWGCODEPAGE
  3
ANSI_1252
  9
$REQUIREDVERSIONS
160
                 0
  9
$INSBASE
 10
0.0
 20
0.0
 30
0.0
  9
$EXTMIN
 10
727.6664074431513
 20
1761.74573600416
 30
-0.00000001
  9
$EXTMAX
 10
1094.114353952922
 20
2099.500000000027
 30
0.00000001
  9
$LIMMIN
 10
0.0
 20
0.0
  9
$LIMMAX
 10
12.0
 20
9.0
  9
$ORTHOMODE
 70
     0
  9
$REGENMODE
 70
     1
  9
$FILLMODE
 70
     1
  9
$QTEXTMODE
 70
     0
  9
$MIRRTEXT
 70
     0
  9
$LTSCALE
 40
1.0
  9
$ATTMODE
 70
     1
  9
$TEXTSIZE
 40
0.2
  9
$TRACEWID
 40
0.05
  9
$TEXTSTYLE
  7
Standard
  9
$CLAYER
  8
0
  9
$CELTYPE
  6
ByLayer
  9
$CECOLOR
 62
   256
  9
$CELTSCALE
 40
1.0
  9
$DISPSILH
 70
     0
  9
$DIMSCALE
 40
1.0
  9
$DIMASZ
 40
0.18
  9
$DIMEXO
 40
0.0625
  9
$DIMDLI
 40
0.38
  9
$DIMRND
 40
0.0
  9
$DIMDLE
 40
0.0
  9
$DIMEXE
 40
0.18
  9
$DIMTP
 40
0.0
  9
$DIMTM
 40
0.0
  9
$DIMTXT
 40
0.18
  9
$DIMCEN
 40
0.09
  9
$DIMTSZ
 40
0.0
  9
$DIMTOL
 70
     0
  9
$DIMLIM
 70
     0
  9
$DIMTIH
 70
     1
  9
$DIMTOH
 70
     1
  9
$DIMSE1
 70
     0
  9
$DIMSE2
 70
     0
  9
$DIMTAD
 70
     0
  9
$DIMZIN
 70
     0
  9
$DIMBLK
  1

  9
$DIMASO
 70
     1
  9
$DIMSHO
 70
     1
  9
$DIMPOST
  1

  9
$DIMAPOST
  1

  9
$DIMALT
 70
     0
  9
$DIMALTD
 70
     2
  9
$DIMALTF
 40
25.4
  9
$DIMLFAC
 40
1.0
  9
$DIMTOFL
 70
     0
  9
$DIMTVP
 40
0.0
  9
$DIMTIX
 70
     0
  9
$DIMSOXD
 70
     0
  9
$DIMSAH
 70
     0
  9
$DIMBLK1
  1

  9
$DIMBLK2
  1

  9
$DIMSTYLE
  2
Standard
  9
$DIMCLRD
 70
     0
  9
$DIMCLRE
 70
     0
  9
$DIMCLRT
 70
     0
  9
$DIMTFAC
 40
1.0
  9
$DIMGAP
 40
0.09
  9
$DIMJUST
 70
     0
  9
$DIMSD1
 70
     0
  9
$DIMSD2
 70
     0
  9
$DIMTOLJ
 70
     1
  9
$DIMTZIN
 70
     0
  9
$DIMALTZ
 70
     0
  9
$DIMALTTZ
 70
     0
  9
$DIMUPT
 70
     0
  9
$DIMDEC
 70
     4
  9
$DIMTDEC
 70
     4
  9
$DIMALTU
 70
     2
  9
$DIMALTTD
 70
     2
  9
$DIMTXSTY
  7
Standard
  9
$DIMAUNIT
 70
     0
  9
$DIMADEC
 70
     0
  9
$DIMALTRND
 40
0.0
  9
$DIMAZIN
 70
     0
  9
$DIMDSEP
 70
    46
  9
$DIMATFIT
 70
     3
  9
$DIMFRAC
 70
     0
  9
$DIMLDRBLK
  1

  9
$DIMLUNIT
 70
     2
  9
$DIMLWD
 70
    -2
  9
$DIMLWE
 70
    -2
  9
$DIMTMOVE
 70
     0
  9
$DIMFXL
 40
1.0
  9
$DIMFXLON
 70
     0
  9
$DIMJOGANG
 40
0.7853981633974483
  9
$DIMTFILL
 70
     0
  9
$DIMTFILLCLR
 70
     0
  9
$DIMARCSYM
 70
     0
  9
$DIMLTYPE
  6

  9
$DIMLTEX1
  6

  9
$DIMLTEX2
  6

  9
$DIMTXTDIRECTION
 70
     0
  9
$LUNITS
 70
     2
  9
$LUPREC
 70
     4
  9
$SKETCHINC
 40
0.1
  9
$FILLETRAD
 40
0.0
  9
$AUNITS
 70
     0
  9
$AUPREC
 70
     0
  9
$MENU
  1
.
  9
$ELEVATION
 40
0.0
  9
$PELEVATION
 40
0.0
  9
$THICKNESS
 40
0.0
  9
$LIMCHECK
 70
     0
  9
$CHAMFERA
 40
0.0
  9
$CHAMFERB
 40
0.0
  9
$CHAMFERC
 40
0.0
  9
$CHAMFERD
 40
0.0
  9
$SKPOLY
 70
     0
  9
$TDCREATE
 40
2457541.685595556
  9
$TDUCREATE
 40
2457541.602262222
  9
$TDUPDATE
 40
2457541.685595556
  9
$TDUUPDATE
 40
2457541.602262222
  9
$TDINDWG
 40
0.0000103472
  9
$TDUSRTIMER
 40
0.0000103472
  9
$USRTIMER
 70
     1
  9
$ANGBASE
 50
0.0
  9
$ANGDIR
 70
     0
  9
$PDMODE
 70
     0
  9
$PDSIZE
 40
0.0
  9
$PLINEWID
 40
0.0
  9
$SPLFRAME
 70
     0
  9
$SPLINETYPE
 70
     6
  9
$SPLINESEGS
 70
     8
  9
$HANDSEED
  5
289
  9
$SURFTAB1
 70
     6
  9
$SURFTAB2
 70
     6
  9
$SURFTYPE
 70
     6
  9
$SURFU
 70
     6
  9
$SURFV
 70
     6
  9
$UCSBASE
  2

  9
$UCSNAME
  2

  9
$UCSORG
 10
0.0
 20
0.0
 30
0.0
  9
$UCSXDIR
 10
1.0
 20
0.0
 30
0.0
  9
$UCSYDIR
 10
0.0
 20
1.0
 30
0.0
  9
$UCSORTHOREF
  2

  9
$UCSORTHOVIEW
 70
     0
  9
$UCSORGTOP
 10
0.0
 20
0.0
 30
0.0
  9
$UCSORGBOTTOM
 10
0.0
 20
0.0
 30
0.0
  9
$UCSORGLEFT
 10
0.0
 20
0.0
 30
0.0
  9
$UCSORGRIGHT
 10
0.0
 20
0.0
 30
0.0
  9
$UCSORGFRONT
 10
0.0
 20
0.0
 30
0.0
  9
$UCSORGBACK
 10
0.0
 20
0.0
 30
0.0
  9
$PUCSBASE
  2

  9
$PUCSNAME
  2

  9
$PUCSORG
 10
0.0
 20
0.0
 30
0.0
  9
$PUCSXDIR
 10
1.0
 20
0.0
 30
0.0
  9
$PUCSYDIR
 10
0.0
 20
1.0
 30
0.0
  9
$PUCSORTHOREF
  2

  9
$PUCSORTHOVIEW
 70
     0
  9
$PUCSORGTOP
 10
0.0
 20
0.0
 30
0.0
  9
$PUCSORGBOTTOM
 10
0.0
 20
0.0
 30
0.0
  9
$PUCSORGLEFT
 10
0.0
 20
0.0
 30
0.0
  9
$PUCSORGRIGHT
 10
0.0
 20
0.0
 30
0.0
  9
$PUCSORGFRONT
 10
0.0
 20
0.0
 30
0.0
  9
$PUCSORGBACK
 10
0.0
 20
0.0
 30
0.0
  9
$USERI1
 70
     0
  9
$USERI2
 70
     0
  9
$USERI3
 70
     0
  9
$USERI4
 70
     0
  9
$USERI5
 70
     0
  9
$USERR1
 40
0.0
  9
$USERR2
 40
0.0
  9
$USERR3
 40
0.0
  9
$USERR4
 40
0.0
  9
$USERR5
 40
0.0
  9
$WORLDVIEW
 70
     1
  9
$SHADEDGE
 70
     3
  9
$SHADEDIF
 70
    70
  9
$TILEMODE
 70
     1
  9
$MAXACTVP
 70
    64
  9
$PINSBASE
 10
0.0
 20
0.0
 30
0.0
  9
$PLIMCHECK
 70
     0
  9
$PEXTMIN
 10
1.000000000000000E+20
 20
1.000000000000000E+20
 30
1.000000000000000E+20
  9
$PEXTMAX
 10
-1.000000000000000E+20
 20
-1.000000000000000E+20
 30
-1.000000000000000E+20
  9
$PLIMMIN
 10
0.0
 20
0.0
  9
$PLIMMAX
 10
12.0
 20
9.0
  9
$UNITMODE
 70
     0
  9
$VISRETAIN
 70
     1
  9
$PLINEGEN
 70
     0
  9
$PSLTSCALE
 70
     1
  9
$TREEDEPTH
 70
  3020
  9
$CMLSTYLE
  2
Standard
  9
$CMLJUST
 70
     0
  9
$CMLSCALE
 40
1.0
  9
$PROXYGRAPHICS
 70
     1
  9
$MEASUREMENT
 70
     1
  9
$CELWEIGHT
370
    -1
  9
$ENDCAPS
280
     0
  9
$JOINSTYLE
280
     0
  9
$LWDISPLAY
290
     0
  9
$INSUNITS
 70
     4
  9
$HYPERLINKBASE
  1

  9
$STYLESHEET
  1

  9
$XEDIT
290
     1
  9
$CEPSNTYPE
380
     0
  9
$PSTYLEMODE
290
     1
  9
$FINGERPRINTGUID
  2
{7C0C92E6-C4F4-4F87-B710-357789ED4483}
  9
$VERSIONGUID
  2
{01B8D7B5-DA55-46E6-8150-96A2A8052128}
  9
$EXTNAMES
290
     1
  9
$PSVPSCALE
 40
0.0
  9
$OLESTARTUP
290
     0
  9
$SORTENTS
280
   127
  9
$INDEXCTL
280
     0
  9
$HIDETEXT
280
     1
  9
$XCLIPFRAME
280
     2
  9
$HALOGAP
280
     0
  9
$OBSCOLOR
 70
   257
  9
$OBSLTYPE
280
     0
  9
$INTERSECTIONDISPLAY
280
     0
  9
$INTERSECTIONCOLOR
 70
   257
  9
$DIMASSOC
280
     2
  9
$PROJECTNAME
  1

  9
$CAMERADISPLAY
290
     0
  9
$LENSLENGTH
 40
50.0
  9
$CAMERAHEIGHT
 40
0.0
  9
$STEPSPERSEC
 40
2.0
  9
$STEPSIZE
 40
6.0
  9
$3DDWFPREC
 40
2.0
  9
$PSOLWIDTH
 40
0.25
  9
$PSOLHEIGHT
 40
4.0
  9
$LOFTANG1
 40
1.570796326794896
  9
$LOFTANG2
 40
1.570796326794896
  9
$LOFTMAG1
 40
0.0
  9
$LOFTMAG2
 40
0.0
  9
$LOFTPARAM
 70
     7
  9
$LOFTNORMALS
280
     1
  9
$LATITUDE
 40
37.795
  9
$LONGITUDE
 40
-122.394
  9
$NORTHDIRECTION
 40
0.0
  9
$TIMEZONE
 70
 -8000
  9
$LIGHTGLYPHDISPLAY
280
     1
  9
$TILEMODELIGHTSYNCH
280
     1
  9
$CMATERIAL
347
11
  9
$SOLIDHIST
280
     0
  9
$SHOWHIST
280
     1
  9
$DWFFRAME
280
     2
  9
$DGNFRAME
280
     0
  9
$REALWORLDSCALE
290
     1
  9
$INTERFERECOLOR
 62
     1
  9
$INTERFEREOBJVS
345
33
  9
$INTERFEREVPVS
346
30
  9
$CSHADOW
280
     0
  9
$SHADOWPLANELOCATION
 40
0.0
  0
ENDSEC
  0
SECTION
  2
CLASSES
  0
CLASS
  1
ACDBDICTIONARYWDFLT
  2
AcDbDictionaryWithDefault
  3
ObjectDBX Classes
 90
        0
 91
        1
280
     0
281
     0
  0
CLASS
  1
MATERIAL
  2
AcDbMaterial
  3
ObjectDBX Classes
 90
     1153
 91
        3
280
     0
281
     0
  0
CLASS
  1
VISUALSTYLE
  2
AcDbVisualStyle
  3
ObjectDBX Classes
 90
     4095
 91
       24
280
     0
281
     0
  0
CLASS
  1
SCALE
  2
AcDbScale
  3
ObjectDBX Classes
 90
     1153
 91
       17
280
     0
281
     0
  0
CLASS
  1
TABLESTYLE
  2
AcDbTableStyle
  3
ObjectDBX Classes
 90
     4095
 91
        1
280
     0
281
     0
  0
CLASS
  1
MLEADERSTYLE
  2
AcDbMLeaderStyle
  3
ACDB_MLEADERSTYLE_CLASS
 90
     4095
 91
        1
280
     0
281
     0
  0
CLASS
  1
ACDBSECTIONVIEWSTYLE
  2
AcDbSectionViewStyle
  3
ObjectDBX Classes
 90
     1025
 91
        1
280
     0
281
     0
  0
CLASS
  1
ACDBDETAILVIEWSTYLE
  2
AcDbDetailViewStyle
  3
ObjectDBX Classes
 90
     1025
 91
        1
280
     0
281
     0
  0
CLASS
  1
RASTERVARIABLES
  2
AcDbRasterVariables
  3
ISM
 90
        0
 91
        1
280
     0
281
     0
  0
CLASS
  1
DICTIONARYVAR
  2
AcDbDictionaryVar
  3
ObjectDBX Classes
 90
        0
 91
        5
280
     0
281
     0
  0
CLASS
  1
CELLSTYLEMAP
  2
AcDbCellStyleMap
  3
ObjectDBX Classes
 90
     1152
 91
        2
280
     0
281
     0
  0
CLASS
  1
SORTENTSTABLE
  2
AcDbSortentsTable
  3
ObjectDBX Classes
 90
        0
 91
        1
280
     0
281
     0
  0
ENDSEC
  0
SECTION
  2
TABLES
  0
TABLE
  2
VPORT
  5
8
330
0
100
AcDbSymbolTable
 70
     1
  0
VPORT
  5
57
330
8
100
AcDbSymbolTableRecord
100
AcDbViewportTableRecord
  2
*Active
 70
     0
 10
0.0
 20
0.0
 11
1.0
 21
1.0
 12
910.8903806980368
 22
1930.622868002093
 13
0.0
 23
0.0
 14
1.0
 24
1.0
 15
0.0
 25
0.0
 16
0.0
 26
0.0
 36
1.0
 17
0.0
 27
0.0
 37
0.0
 40
337.754263995867
 41
1.084954316118581
 42
50.0
 43
0.0
 44
0.0
 50
0.0
 51
0.0
 71
     0
 72
  1000
 73
     1
 74
     1
 75
     0
 76
     0
 77
     0
 78
     0
281
     0
 65
     1
110
0.0
120
0.0
130
0.0
111
1.0
121
0.0
131
0.0
112
0.0
122
1.0
132
0.0
 79
     0
146
0.0
 60
     3
 61
     5
292
     1
282
     1
141
0.0
142
0.0
 63
   250
421
  3355443
  0
ENDTAB
  0
TABLE
  2
LTYPE
  5
5
330
0
100
AcDbSymbolTable
 70
     3
  0
LTYPE
  5
5B
330
5
100
AcDbSymbolTableRecord
100
AcDbLinetypeTableRecord
  2
ByBlock
 70
     0
  3

 72
    65
 73
     0
 40
0.0
  0
LTYPE
  5
5C
330
5
100
AcDbSymbolTableRecord
100
AcDbLinetypeTableRecord
  2
ByLayer
 70
     0
  3

 72
    65
 73
     0
 40
0.0
  0
LTYPE
  5
5D
330
5
100
AcDbSymbolTableRecord
100
AcDbLinetypeTableRecord
  2
Continuous
 70
     0
  3
Solid line
 72
    65
 73
     0
 40
0.0
  0
LTYPE
  5
69
330
5
100
AcDbSymbolTableRecord
100
AcDbLinetypeTableRecord
  2
PHANTOM2
 70
     0
  3
___ _ _ ___ _ _ ___ _ _ ___ _ _
 72
    65
 73
     6
 40
1.25
 49
0.625
 74
     0
 49
-0.125
 74
     0
 49
0.125
 74
     0
 49
-0.125
 74
     0
 49
0.125
 74
     0
 49
-0.125
 74
     0
  0
LTYPE
  5
86
330
5
100
AcDbSymbolTableRecord
100
AcDbLinetypeTableRecord
  2
Nascosto 1_5 mm
 70
     0
  3

 72
    65
 73
     2
 40
2.2
 49
1.5
 74
     0
 49
-0.7000000000000001
 74
     0
  0
ENDTAB
  0
TABLE
  2
LAYER
  5
2
330
0
100
AcDbSymbolTable
 70
     4
  0
LAYER
  5
54
330
2
100
AcDbSymbolTableRecord
100
AcDbLayerTableRecord
  2
0
 70
     0
 62
     7
  6
Continuous
370
    -3
390
F
347
21
348
0
  0
LAYER
  5
85
330
2
100
AcDbSymbolTableRecord
100
AcDbLayerTableRecord
  2
P-SANR-FIXT
 70
     0
 62
     6
  6
Continuous
370
    18
390
F
347
21
348
0
  0
LAYER
  5
88
330
2
100
AcDbSymbolTableRecord
100
AcDbLayerTableRecord
  2
M-PIPE
 70
     0
 62
     3
  6
Continuous
370
    18
390
F
347
21
348
0
  0
ENDTAB
  0
TABLE
  2
STYLE
  5
3
330
0
100
AcDbSymbolTable
 70
     2
  0
STYLE
  5
55
330
3
100
AcDbSymbolTableRecord
100
AcDbTextStyleTableRecord
  2
Standard
 70
     0
 40
0.0
 41
1.0
 50
0.0
 71
     0
 42
0.2
  3
txt
  4

  0
STYLE
  5
5A
330
3
100
AcDbSymbolTableRecord
100
AcDbTextStyleTableRecord
  2
Annotative
 70
     0
 40
0.0
 41
1.0
 50
0.0
 71
     0
 42
0.2
  3
txt
  4

1001
AcadAnnotative
1000
AnnotativeData
1002
{
1070
     1
1070
     1
1002
}
  0
ENDTAB
  0
TABLE
  2
VIEW
  5
6
330
0
100
AcDbSymbolTable
 70
     0
  0
ENDTAB
  0
TABLE
  2
UCS
  5
7
330
0
100
AcDbSymbolTable
 70
     0
  0
ENDTAB
  0
TABLE
  2
APPID
  5
9
330
0
100
AcDbSymbolTable
 70
     3
  0
APPID
  5
56
330
9
100
AcDbSymbolTableRecord
100
AcDbRegAppTableRecord
  2
ACAD
 70
     0
  0
APPID
  5
5E
330
9
100
AcDbSymbolTableRecord
100
AcDbRegAppTableRecord
  2
AcadAnnotative
 70
     0
  0
APPID
  5
79
330
9
100
AcDbSymbolTableRecord
100
AcDbRegAppTableRecord
  2
REVIT
 70
     0
  0
ENDTAB
  0
TABLE
  2
DIMSTYLE
  5
A
330
0
100
AcDbSymbolTable
 70
     2
100
AcDbDimStyleTable
 71
     0
  0
DIMSTYLE
105
58
330
A
100
AcDbSymbolTableRecord
100
AcDbDimStyleTableRecord
  2
Standard
 70
     0
340
55
  0
DIMSTYLE
105
59
330
A
100
AcDbSymbolTableRecord
100
AcDbDimStyleTableRecord
  2
Annotative
 70
     0
340
55
1001
AcadAnnotative
1000
AnnotativeData
1002
{
1070
     1
1070
     1
1002
}
  0
ENDTAB
  0
TABLE
  2
BLOCK_RECORD
  5
1
330
0
100
AcDbSymbolTable
 70
     4
  0
BLOCK_RECORD
  5
71
102
{ACAD_XDICTIONARY
360
284
102
}
330
1
100
AcDbSymbolTableRecord
100
AcDbBlockTableRecord
  2
*Model_Space
340
74
 70
     0
280
     1
281
     0
  0
BLOCK_RECORD
  5
6D
330
1
100
AcDbSymbolTableRecord
100
AcDbBlockTableRecord
  2
*Paper_Space
340
70
 70
     0
280
     1
281
     0
  0
BLOCK_RECORD
  5
75
330
1
100
AcDbSymbolTableRecord
100
AcDbBlockTableRecord
  2
*Paper_Space0
340
78
 70
     0
280
     1
281
     0
  0
BLOCK_RECORD
  5
87
330
1
100
AcDbSymbolTableRecord
100
AcDbBlockTableRecord
  2
Automatic flow rate regulator valve_Caleffi_121 DN15 - 1_2__-859151-Est - Idraulica
340
0
102
{BLKREFS
331
107
102
}
 70
     0
280
     1
281
     0
  0
BLOCK_RECORD
  5
108
330
1
100
AcDbSymbolTableRecord
100
AcDbBlockTableRecord
  2
Automatic flow rate regulator valve_Caleffi_121 DN15 - 1_2__-V1-Est - Idraulica
340
0
102
{BLKREFS
331
1F6
102
}
 70
     0
280
     1
281
     0
  0
BLOCK_RECORD
  5
1F7
330
1
100
AcDbSymbolTableRecord
100
AcDbBlockTableRecord
  2
Automatic flow rate regulator valve_Caleffi_121 DN15 - 1_2__-V2-Est - Idraulica
340
0
102
{BLKREFS
331
27D
102
}
 70
     0
280
     1
281
     0
  0
ENDTAB
  0
ENDSEC
  0
SECTION
  2
BLOCKS
  0
BLOCK
  5
72
330
71
100
AcDbEntity
  8
0
100
AcDbBlockBegin
  2
*Model_Space
 70
     0
 10
0.0
 20
0.0
 30
0.0
  3
*Model_Space
  1

  0
ENDBLK
  5
73
330
71
100
AcDbEntity
  8
0
100
AcDbBlockEnd
  0
BLOCK
  5
6E
330
6D
100
AcDbEntity
 67
     1
  8
0
100
AcDbBlockBegin
  2
*Paper_Space
 70
     0
 10
0.0
 20
0.0
 30
0.0
  3
*Paper_Space
  1

  0
ENDBLK
  5
6F
330
6D
100
AcDbEntity
 67
     1
  8
0
100
AcDbBlockEnd
  0
BLOCK
  5
76
330
75
100
AcDbEntity
 67
     1
  8
0
100
AcDbBlockBegin
  2
*Paper_Space0
 70
     0
 10
0.0
 20
0.0
 30
0.0
  3
*Paper_Space0
  1

  0
ENDBLK
  5
77
330
75
100
AcDbEntity
 67
     1
  8
0
100
AcDbBlockEnd
  0
BLOCK
  5
105
330
87
100
AcDbEntity
  8
0
100
AcDbBlockBegin
  2
Automatic flow rate regulator valve_Caleffi_121 DN15 - 1_2__-859151-Est - Idraulica
 70
     0
 10
0.0
 20
0.0
 30
0.0
  3
Automatic flow rate regulator valve_Caleffi_121 DN15 - 1_2__-859151-Est - Idraulica
  1

  0
LINE
  5
89
330
87
100
AcDbEntity
  8
M-PIPE
100
AcDbLine
 10
796.166407443184
 20
2099.500000000027
 30
0.0
 11
796.1664074431844
 21
2070.404293994043
 31
0.0
1001
REVIT
1002
{
1070
     3
1000
923885
1002
}
  0
LINE
  5
8A
330
87
100
AcDbEntity
  8
M-PIPE
100
AcDbLine
 10
835.1664074431843
 20
2070.404293994044
 30
0.0
 11
835.1664074431841
 21
2099.500000000027
 31
0.0
1001
REVIT
1002
{
1070
     3
1000
923885
1002
}
  0
LINE
  5
8B
330
87
100
AcDbEntity
  8
M-PIPE
100
AcDbLine
 10
796.1664074431844
 20
2070.404293994043
 30
0.0
 11
798.0164074431843
 21
2063.500000000042
 31
0.0
1001
REVIT
1002
{
1070
     3
1000
923885
1002
}
  0
LINE
  5
8C
330
87
100
AcDbEntity
  8
M-PIPE
100
AcDbLine
 10
833.3164074431845
 20
2063.500000000042
 30
0.0
 11
835.1664074431843
 21
2070.404293994044
 31
0.0
1001
REVIT
1002
{
1070
     3
1000
923885
1002
}
  0
LINE
  5
8D
330
87
100
AcDbEntity
  8
M-PIPE
100
AcDbLine
 10
796.1664074431825
 20
2099.500000000025
 30
0.0
 11
835.1664074431823
 21
2099.500000000026
 31
0.0
1001
REVIT
1002
{
1070
     3
1000
923885
1002
}
  0
LINE
  5
8E
330
87
100
AcDbEntity
  8
M-PIPE
100
AcDbLine
 10
796.1664074431827
 20
2070.404293994042
 30
0.0
 11
835.1664074431829
 21
2070.404293994043
 31
0.0
1001
REVIT
1002
{
1070
     3
1000
923885
1002
}
  0
LINE
  5
8F
330
87
100
AcDbEntity
  8
M-PIPE
100
AcDbLine
 10
798.0164074431827
 20
2063.500000000041
 30
0.0
 11
833.3164074431831
 21
2063.500000000041
 31
0.0
1001
REVIT
1002
{
1070
     3
1000
923885
1002
}
  0
LINE
  5
90
330
87
100
AcDbEntity
  8
P-SANR-FIXT
100
AcDbLine
 10
782.5032973333813
 20
1958.367840878625
 30
0.0
 11
783.73429997606
 21
1960.499999999996
 31
0.0
  0
LINE
  5
91
330
87
100
AcDbEntity
  8
P-SANR-FIXT
100
AcDbLine
 10
783.73429997606
 20
2004.499999999996
 30
0.0
 11
782.5032973335022
 21
2006.632159121158
 31
0.0
  0
LWPOLYLINE
  5
92
330
87
100
AcDbEntity
  8
P-SANR-FIXT
100
AcDbPolyline
 90
       28
 70
   128
 43
0.0
 10
783.73429997606
 20
2004.499999999996
 10
783.7756747661507
 20
2004.431536334763
 10
783.8197542772107
 20
2004.364781983468
 10
783.8664679914257
 20
2004.299843738832
 10
783.9157411768184
 20
2004.236825488194
 10
783.967495006803
 20
2004.175828047312
 10
784.0216466862913
 20
2004.116948999079
 10
784.0781095841486
 20
2004.060282537414
 10
784.1367933717823
 20
2004.005919316564
 10
784.1976041676514
 20
2003.953946306088
 10
784.2604446874548
 20
2003.904446651715
 10
784.3252143997655
 20
2003.857499542333
 10
784.3918096868612
 20
2003.813180083302
 10
784.4601240104883
 20
2003.771559176302
 10
784.5300480823022
 20
2003.732703405904
 10
784.6014700387045
 20
2003.696674933055
 10
784.6742756198003
 20
2003.663531395623
 10
784.7483483521914
 20
2003.6333258162
 10
784.823569735307
 20
2003.606106517269
 10
784.8998194309808
 20
2003.5819170439
 10
784.9769754559651
 20
2003.560796094092
 10
785.0549143770792
 20
2003.542777456859
 10
785.1335115086753
 20
2003.527889958176
 10
785.2126411121096
 20
2003.516157414866
 10
785.2921765968962
 20
2003.507598596494
 10
785.3719907232267
 20
2003.502227195346
 10
785.4519558055245
 20
2003.500051804516
 10
785.4663507836289
 20
2003.499999999996
  0
LWPOLYLINE
  5
93
330
87
100
AcDbEntity
  8
P-SANR-FIXT
100
AcDbPolyline
 90
       28
 70
   128
 43
0.0
 10
785.4663507836289
 20
1961.499999999996
 10
785.3863721152557
 20
1961.498400213318
 10
785.3065213956906
 20
1961.493603412601
 10
785.226926369051
 20
1961.485617271704
 10
785.1477143704005
 20
1961.474454566747
 10
785.0690121220389
 20
1961.460133155679
 10
784.9909455307746
 20
1961.4426759497
 10
784.9136394865007
 20
1961.422110876618
 10
784.8372176623968
 20
1961.398470836161
 10
784.7618023170788
 20
1961.371793647352
 10
784.6875140990116
 20
1961.342121988002
 10
784.614471853497
 20
1961.309503326436
 10
784.5427924325461
 20
1961.273989845555
 10
784.4725905079415
 20
1961.235638359351
 10
784.4039783877873
 20
1961.194510222023
 10
784.337065836839
 20
1961.150671229815
 10
784.2719599009043
 20
1961.104191515765
 10
784.208764735592
 20
1961.055145437498
 10
784.1475814396861
 20
1961.003611458278
 10
784.0885078934079
 20
1960.949672021478
 10
784.0316386018299
 20
1960.893413418691
 10
783.9770645436872
 20
1960.834925651679
 10
783.9248730258311
 20
1960.774302288393
 10
783.8751475435564
 20
1960.711640313283
 10
783.827967647027
 20
1960.647039972141
 10
783.7834088140131
 20
1960.580604611732
 10
783.7415423291424
 20
1960.512440514462
 10
783.73429997606
 20
1960.499999999996
  0
LINE
  5
94
330
87
100
AcDbEntity
  8
P-SANR-FIXT
100
AcDbLine
 10
785.4663507836289
 20
1961.499999999996
 30
0.0
 11
789.1936571225131
 21
1961.499999999996
 31
0.0
  0
LINE
  5
95
330
87
100
AcDbEntity
  8
P-SANR-FIXT
100
AcDbLine
 10
789.1936571225131
 20
2003.499999999996
 30
0.0
 11
785.4663507836289
 21
2003.499999999996
 31
0.0
  0
LWPOLYLINE
  5
96
330
87
100
AcDbEntity
  8
P-SANR-FIXT
100
AcDbPolyline
 90
       37
 70
   128
 43
0.0
 10
789.1936571225131
 20
2003.499999999996
 10
789.2736357908865
 20
2003.501599786674
 10
789.3534865104515
 20
2003.506396587391
 10
789.4330815370909
 20
2003.514382728289
 10
789.5122935357418
 20
2003.525545433245
 10
789.5909957841033
 20
2003.539866844314
 10
789.6690623753676
 20
2003.557324050292
 10
789.7463684196414
 20
2003.577889123374
 10
789.8227902437455
 20
2003.601529163831
 10
789.8982055890634
 20
2003.62820635264
 10
789.9724938071305
 20
2003.65787801199
 10
790.0455360526453
 20
2003.690496673556
 10
790.1172154735962
 20
2003.726010154437
 10
790.1874173982008
 20
2003.764361640641
 10
790.256029518355
 20
2003.80548977797
 10
790.3229420693032
 20
2003.849328770177
 10
790.388048005238
 20
2003.895808484227
 10
790.4512431705501
 20
2003.944854562494
 10
790.5124264664562
 20
2003.996388541714
 10
790.5715000127343
 20
2004.050327978514
 10
790.6283693043122
 20
2004.106586581302
 10
790.682943362455
 20
2004.165074348314
 10
790.7351348803111
 20
2004.225697711599
 10
790.7848603625859
 20
2004.288359686709
 10
790.8320402591153
 20
2004.352960027851
 10
790.876599092129
 20
2004.41939538826
 10
790.9184655769998
 20
2004.48755948553
 10
790.9575727362833
 20
2004.557343271649
 10
790.9938580068662
 20
2004.628635107443
 10
791.0272633400568
 20
2004.701320941183
 10
791.0577352944476
 20
2004.775284491043
 10
791.0852251214123
 20
2004.850407431119
 10
791.1096888430916
 20
2004.926569580732
 10
791.1310873227498
 20
2005.003649096691
 10
791.1493863273839
 20
2005.081522668213
 10
791.1645565824901
 20
2005.160065714196
 10
791.1765738188965
 20
2005.23915258252
  0
LWPOLYLINE
  5
97
330
87
100
AcDbEntity
  8
P-SANR-FIXT
100
AcDbPolyline
 90
        4
 70
   128
 43
0.0
 10
791.1879184222495
 20
2005.353904810704
 10
791.1910774104645
 20
2005.398451030129
 10
791.1935405629731
 20
2005.478407765879
 10
791.1936571225132
 20
2005.499999999996
  0
LWPOLYLINE
  5
98
330
87
100
AcDbEntity
  8
P-SANR-FIXT
100
AcDbPolyline
 90
        3
 70
   128
 43
0.0
 10
791.1923560516253
 20
1959.565044870358
 10
791.1920573358352
 20
1959.579978668369
 10
791.1881629739475
 20
1959.644806793895
  0
LWPOLYLINE
  5
99
330
87
100
AcDbEntity
  8
P-SANR-FIXT
100
AcDbPolyline
 90
        3
 70
   128
 43
0.0
 10
789.2783286727128
 20
1961.497940214858
 10
789.2152493566299
 20
1961.499883440456
 10
789.1936571225131
 20
1961.499999999996
  0
LINE
  5
9A
330
87
100
AcDbEntity
  8
P-SANR-FIXT
100
AcDbLine
 10
791.2133561986333
 20
2007.103399023346
 30
0.0
 11
791.1936571225132
 21
2007.114818453962
 31
0.0
  0
LINE
  5
9B
330
87
100
AcDbEntity
  8
P-SANR-FIXT
100
AcDbLine
 10
782.4929968973009
 20
1958.354277591102
 30
0.0
 11
782.4929968973009
 21
1959.883198154108
 31
0.0
  0
LINE
  5
9C
330
87
100
AcDbEntity
  8
P-SANR-FIXT
100
AcDbLine
 10
782.4929968973009
 20
1980.933331505289
 30
0.0
 11
782.4929968973009
 21
1984.066668495993
 31
0.0
  0
LINE
  5
9D
330
87
100
AcDbEntity
  8
P-SANR-FIXT
100
AcDbLine
 10
782.4929968973009
 20
2005.116801847123
 30
0.0
 11
782.4929968973009
 21
2006.645722408788
 31
0.0
  0
LINE
  5
9E
330
87
100
AcDbEntity
  8
P-SANR-FIXT
100
AcDbLine
 10
791.1936571225116
 20
1958.791272414072
 30
0.0
 11
791.1936571225116
 21
2007.102972890434
 31
0.0
  0
LINE
  5
9F
330
87
100
AcDbEntity
  8
P-SANR-FIXT
100
AcDbLine
 10
790.1664074431894
 20
2039.199999999997
 30
0.0
 11
790.1664074431894
 21
2026.764521295467
 31
0.0
  0
LINE
  5
A0
330
87
100
AcDbEntity
  8
P-SANR-FIXT
100
AcDbLine
 10
841.1664074431893
 20
2026.764521295467
 30
0.0
 11
841.1664074431893
 21
2039.199999999997
 31
0.0
  0
LINE
  5
A1
330
87
100
AcDbEntity
  8
P-SANR-FIXT
100
AcDbLine
 10
790.1664074431894
 20
2026.764521295467
 30
0.0
 11
790.6663162022667
 21
2025.73244901656
 31
0.0
  0
LINE
  5
A2
330
87
100
AcDbEntity
  8
P-SANR-FIXT
100
AcDbLine
 10
840.6664986841121
 20
2025.73244901656
 30
0.0
 11
841.1664074431893
 21
2026.764521295467
 31
0.0
  0
LWPOLYLINE
  5
A3
330
87
100
AcDbEntity
  8
P-SANR-FIXT
100
AcDbPolyline
 90
       13
 70
   128
 43
0.0
 10
840.6664986841121
 20
2025.73244901656
 10
840.5829358647393
 20
2025.550757183586
 10
840.5067056221369
 20
2025.365869063188
 10
840.4379299084315
 20
2025.178080436921
 10
840.3767187500935
 20
2024.987691726526
 10
840.3231700719187
 20
2024.795007513324
 10
840.2773695403691
 20
2024.600336050955
 10
840.2393904265251
 20
2024.403988772231
 10
840.2092934888667
 20
2024.20627979091
 10
840.1871268760739
 20
2024.00752539919
 10
840.1729260499987
 20
2023.808043561695
 10
840.1667137289333
 20
2023.608153406815
 10
840.1664074431895
 20
2023.552811165911
  0
LWPOLYLINE
  5
A4
330
87
100
AcDbEntity
  8
P-SANR-FIXT
100
AcDbPolyline
 90
       13
 70
   128
 43
0.0
 10
791.1664074431894
 20
2023.552811165911
 10
791.1624079764942
 20
2023.752757836844
 10
791.1504159747025
 20
2023.952384635757
 10
791.1304506224587
 20
2024.151372202355
 10
791.1025438600675
 20
2024.349402198982
 10
791.0667403323957
 20
2024.546157819886
 10
791.0230973174495
 20
2024.741324298046
 10
790.9716846347434
 20
2024.934589408731
 10
790.9125845336015
 20
2025.125643968991
 10
790.8458915615791
 20
2025.314182332286
 10
790.7717124132038
 20
2025.499902877454
 10
790.6901657592892
 20
2025.682508491241
 10
790.6663162022667
 20
2025.73244901656
  0
LINE
  5
A5
330
87
100
AcDbEntity
  8
P-SANR-FIXT
100
AcDbLine
 10
791.1664074431894
 20
2023.552811165911
 30
0.0
 11
791.1664074431894
 21
2007.086336345158
 31
0.0
  0
LINE
  5
A6
330
87
100
AcDbEntity
  8
P-SANR-FIXT
100
AcDbLine
 10
840.1664074431895
 20
1964.499999999996
 30
0.0
 11
840.1664074431895
 21
2023.552811165911
 31
0.0
  0
LINE
  5
A7
330
87
100
AcDbEntity
  8
P-SANR-FIXT
100
AcDbLine
 10
790.6664074431893
 20
2039.699999999996
 30
0.0
 11
790.1664074431894
 21
2039.199999999997
 31
0.0
  0
LINE
  5
A8
330
87
100
AcDbEntity
  8
P-SANR-FIXT
100
AcDbLine
 10
841.1664074431893
 20
2039.199999999997
 30
0.0
 11
840.6664074431894
 21
2039.699999999996
 31
0.0
  0
LINE
  5
A9
330
87
100
AcDbEntity
  8
P-SANR-FIXT
100
AcDbLine
 10
766.2244433774686
 20
1952.483339501606
 30
0.0
 11
780.7513558367351
 21
1952.483339501606
 31
0.0
  0
LINE
  5
AA
330
87
100
AcDbEntity
  8
P-SANR-FIXT
100
AcDbLine
 10
780.7513558367351
 20
2012.516660498325
 30
0.0
 11
766.2244433774686
 21
2012.516660498325
 31
0.0
  0
LINE
  5
AB
330
87
100
AcDbEntity
  8
P-SANR-FIXT
100
AcDbLine
 10
762.4929968972414
 20
1958.946444086232
 30
0.0
 11
766.0749236919298
 21
1952.742317185008
 31
0.0
  0
LINE
  5
AC
330
87
100
AcDbEntity
  8
P-SANR-FIXT
100
AcDbLine
 10
766.0976836435708
 20
1952.702895489273
 30
0.0
 11
766.2244433774831
 21
1952.483339501606
 31
0.0
  0
LINE
  5
AD
330
87
100
AcDbEntity
  8
P-SANR-FIXT
100
AcDbLine
 10
766.2244433774686
 20
2012.516660498361
 30
0.0
 11
766.097683643544
 21
2012.297104510673
 31
0.0
  0
LINE
  5
AE
330
87
100
AcDbEntity
  8
P-SANR-FIXT
100
AcDbLine
 10
766.0749236918945
 20
2012.257682814923
 30
0.0
 11
762.4929968972414
 21
2006.05355591376
 31
0.0
  0
LINE
  5
AF
330
87
100
AcDbEntity
  8
P-SANR-FIXT
100
AcDbLine
 10
780.7513558366996
 20
1952.483339501606
 30
0.0
 11
780.8781404117192
 21
1952.702940444614
 31
0.0
  0
LINE
  5
B0
330
87
100
AcDbEntity
  8
P-SANR-FIXT
100
AcDbLine
 10
780.9008741772199
 20
1952.742317130155
 30
0.0
 11
782.4929968973025
 21
1955.500000000171
 31
0.0
  0
LINE
  5
B1
330
87
100
AcDbEntity
  8
P-SANR-FIXT
100
AcDbLine
 10
782.4929968973025
 20
2009.499999999821
 30
0.0
 11
780.9008741772553
 21
2012.257682869776
 31
0.0
  0
LINE
  5
B2
330
87
100
AcDbEntity
  8
P-SANR-FIXT
100
AcDbLine
 10
780.8781404117548
 20
2012.297059555317
 30
0.0
 11
780.7513558367351
 21
2012.516660498325
 31
0.0
  0
LINE
  5
B3
330
87
100
AcDbEntity
  8
P-SANR-FIXT
100
AcDbLine
 10
727.6664074431526
 20
1963.050000000044
 30
0.0
 11
729.1664074431528
 21
1961.550000000044
 31
0.0
  0
LINE
  5
B4
330
87
100
AcDbEntity
  8
P-SANR-FIXT
100
AcDbLine
 10
729.1664074431528
 20
2003.449999999949
 30
0.0
 11
727.6664074431526
 21
2001.949999999949
 31
0.0
  0
LINE
  5
B5
330
87
100
AcDbEntity
  8
P-SANR-FIXT
100
AcDbLine
 10
729.1664074431528
 20
1961.550000000044
 30
0.0
 11
752.1664074431916
 21
1961.550000000044
 31
0.0
  0
LINE
  5
B6
330
87
100
AcDbEntity
  8
P-SANR-FIXT
100
AcDbLine
 10
752.1664074431916
 20
2003.449999999949
 30
0.0
 11
729.1664074431528
 21
2003.449999999949
 31
0.0
  0
LINE
  5
B7
330
87
100
AcDbEntity
  8
P-SANR-FIXT
100
AcDbLine
 10
842.1664074431895
 20
1942.799038105599
 30
0.0
 11
842.1664074431895
 21
1964.499999999996
 31
0.0
  0
LINE
  5
B8
330
87
100
AcDbEntity
  8
P-SANR-FIXT
100
AcDbLine
 10
789.1664074431894
 20
1961.546050413764
 30
0.0
 11
789.1664074431894
 21
1942.799038105599
 31
0.0
  0
LINE
  5
B9
330
87
100
AcDbEntity
  8
P-SANR-FIXT
100
AcDbLine
 10
789.1664074431894
 20
1942.799038105599
 30
0.0
 11
789.2213163610318
 21
1942.767336427102
 31
0.0
  0
LINE
  5
BA
330
87
100
AcDbEntity
  8
P-SANR-FIXT
100
AcDbLine
 10
789.2246276823591
 20
1942.765424634842
 30
0.0
 11
791.416407443088
 21
1941.499999999981
 31
0.0
  0
LINE
  5
BB
330
87
100
AcDbEntity
  8
P-SANR-FIXT
100
AcDbLine
 10
839.9164074432906
 20
1941.499999999981
 30
0.0
 11
842.1081872040195
 21
1942.765424634842
 31
0.0
  0
LINE
  5
BC
330
87
100
AcDbEntity
  8
P-SANR-FIXT
100
AcDbLine
 10
842.1114985253471
 20
1942.767336427102
 30
0.0
 11
842.1664074431895
 21
1942.799038105599
 31
0.0
  0
LINE
  5
BD
330
87
100
AcDbEntity
  8
P-SANR-FIXT
100
AcDbLine
 10
800.416407443186
 20
2063.500000000042
 30
0.0
 11
800.416407443186
 21
2043.772827725003
 31
0.0
  0
LINE
  5
BE
330
87
100
AcDbEntity
  8
P-SANR-FIXT
100
AcDbLine
 10
830.9164074431928
 20
2043.772827725003
 30
0.0
 11
830.9164074431928
 21
2063.500000000042
 31
0.0
  0
LINE
  5
BF
330
87
100
AcDbEntity
  8
P-SANR-FIXT
100
AcDbLine
 10
800.416407443186
 20
2043.772827725003
 30
0.0
 11
791.5093522071041
 21
2041.386189467556
 31
0.0
  0
LINE
  5
C0
330
87
100
AcDbEntity
  8
P-SANR-FIXT
100
AcDbLine
 10
839.8234626792747
 20
2041.386189467556
 30
0.0
 11
830.9164074431928
 21
2043.772827725003
 31
0.0
  0
LWPOLYLINE
  5
C1
330
87
100
AcDbEntity
  8
P-SANR-FIXT
100
AcDbPolyline
 90
       34
 70
   128
 43
0.0
 10
839.8234626792747
 20
2041.386189467556
 10
839.8541984417041
 20
2041.377291356418
 10
839.884553789262
 20
2041.367171260144
 10
839.9144801598676
 20
2041.35584536873
 10
839.9439296777121
 20
2041.343331801186
 10
839.9728552298489
 20
2041.32965057655
 10
840.0012105415653
 20
2041.314823581865
 10
840.0289502504111
 20
2041.298874537156
 10
840.0560299787699
 20
2041.281828957496
 10
840.082406404853
 20
2041.263714112174
 10
840.1080373320052
 20
2041.244558981079
 10
840.1328817562108
 20
2041.224394208335
 10
840.1568999316907
 20
2041.203252053275
 10
840.1800534344882
 20
2041.181166338839
 10
840.2023052239373
 20
2041.158172397457
 10
840.2236197019222
 20
2041.134307014532
 10
840.243962769825
 20
2041.109608369584
 10
840.2633018830764
 20
2041.084115975177
 10
840.2816061032208
 20
2041.057870613704
 10
840.2988461474107
 20
2041.030914272145
 10
840.3149944352529
 20
2041.003290074895
 10
840.3300251329318
 20
2040.975042214776
 10
840.3439141945375
 20
2040.946215882342
 10
840.3566394005341
 20
2040.916857193571
 10
840.3681803933068
 20
2040.887013116106
 10
840.3785187097289
 20
2040.856731394102
 10
840.3876378106996
 20
2040.826060471856
 10
840.3955231076027
 20
2040.7950494163
 10
840.4021619856454
 20
2040.763747838508
 10
840.4075438240386
 20
2040.732205814327
 10
840.4116600129894
 20
2040.700473804266
 10
840.4145039674732
 20
2040.668602572774
 10
840.4160711377697
 20
2040.636643107021
 10
840.4164074431927
 20
2040.613448806525
  0
LWPOLYLINE
  5
C2
330
87
100
AcDbEntity
  8
P-SANR-FIXT
100
AcDbPolyline
 90
       34
 70
   128
 43
0.0
 10
790.916407443186
 20
2040.613448806525
 10
790.9170473578574
 20
2040.645440273874
 10
790.9189660781438
 20
2040.6773805617
 10
790.9221605345029
 20
2040.709218572356
 10
790.9266256164856
 20
2040.740903371816
 10
790.9323541809129
 20
2040.772384271161
 10
790.9393370633044
 20
2040.803610907667
 10
790.9475630925373
 20
2040.834533325376
 10
790.9570191087201
 20
2040.865102055017
 10
790.9676899842438
 20
2040.895268193145
 10
790.9795586479838
 20
2040.924983480371
 10
790.99260611261
 20
2040.954200378577
 10
791.0068115049625
 20
2040.982872146958
 10
791.0221520994439
 20
2041.0109529168
 10
791.0386033543753
 20
2041.038397764861
 10
791.0561389512582
 20
2041.065162785241
 10
791.0747308368786
 20
2041.091205159615
 10
791.0943492681854
 20
2041.11648322574
 10
791.1149628598733
 20
2041.140956544102
 10
791.1365386345933
 20
2041.164585962613
 10
791.1590420757082
 20
2041.187333679244
 10
791.1824371825129
 20
2041.209163302502
 10
791.2066865278273
 20
2041.230039909644
 10
791.2317513178712
 20
2041.249930102554
 10
791.257591454328
 20
2041.268802061166
 10
791.2841655984915
 20
2041.286625594371
 10
791.3114312373997
 20
2041.303372188319
 10
791.3393447518469
 20
2041.319015052033
 10
791.3678614861646
 20
2041.333529160266
 10
791.3969358196609
 20
2041.346891293542
 10
791.4265212396046
 20
2041.359080075299
 10
791.456570415635
 20
2041.370076006084
 10
791.4870352754803
 20
2041.379861494756
 10
791.5093522071041
 20
2041.386189467556
  0
LINE
  5
C3
330
87
100
AcDbEntity
  8
P-SANR-FIXT
100
AcDbLine
 10
790.916407443186
 20
2040.613448806525
 30
0.0
 11
790.916407443186
 21
2039.699999999996
 31
0.0
  0
LINE
  5
C4
330
87
100
AcDbEntity
  8
P-SANR-FIXT
100
AcDbLine
 10
840.4164074431927
 20
2039.699999999996
 30
0.0
 11
840.4164074431927
 21
2040.613448806525
 31
0.0
  0
LINE
  5
C5
330
87
100
AcDbEntity
  8
P-SANR-FIXT
100
AcDbLine
 10
841.1664074431879
 20
2039.199999999995
 30
0.0
 11
790.1664074431878
 21
2039.199999999995
 31
0.0
  0
LINE
  5
C6
330
87
100
AcDbEntity
  8
P-SANR-FIXT
100
AcDbLine
 10
762.4929968972398
 20
1958.946444086231
 30
0.0
 11
762.4929968972398
 21
2006.05355591376
 31
0.0
  0
LINE
  5
C7
330
87
100
AcDbEntity
  8
P-SANR-FIXT
100
AcDbLine
 10
790.6664074431878
 20
2039.699999999995
 30
0.0
 11
840.6664074431878
 21
2039.699999999995
 31
0.0
  0
LINE
  5
C8
330
87
100
AcDbEntity
  8
P-SANR-FIXT
100
AcDbLine
 10
790.1664074431879
 20
2026.764521295465
 30
0.0
 11
841.1664074431879
 21
2026.764521295465
 31
0.0
  0
LINE
  5
C9
330
87
100
AcDbEntity
  8
P-SANR-FIXT
100
AcDbLine
 10
782.4929968973009
 20
2009.499999999821
 30
0.0
 11
782.4929968973009
 21
2005.882685902023
 31
0.0
  0
LINE
  5
CA
330
87
100
AcDbEntity
  8
P-SANR-FIXT
100
AcDbLine
 10
782.4929968973009
 20
2005.882685902024
 30
0.0
 11
782.4929968973009
 21
1982.499999999994
 31
0.0
  0
LINE
  5
CB
330
87
100
AcDbEntity
  8
P-SANR-FIXT
100
AcDbLine
 10
782.4929968973009
 20
1982.499999999994
 30
0.0
 11
782.4929968973009
 21
1959.117314097966
 31
0.0
  0
LINE
  5
CC
330
87
100
AcDbEntity
  8
P-SANR-FIXT
100
AcDbLine
 10
782.4929968973009
 20
1959.117314097966
 30
0.0
 11
782.4929968973009
 21
1955.50000000017
 31
0.0
  0
SPLINE
  5
CD
330
87
100
AcDbEntity
  8
P-SANR-FIXT
100
AcDbSpline
210
0.0
220
0.0
230
1.0
 70
     8
 71
     3
 72
     9
 73
     5
 74
     0
 42
0.000000001
 43
0.0000000001
 40
0.0
 40
0.0
 40
0.0
 40
0.0
 40
0.5
 40
1.0
 40
1.0
 40
1.0
 40
1.0
 10
780.7513558367336
 20
1952.483339501605
 30
0.0
 10
780.7529100503708
 20
1952.483339501603
 30
0.0
 10
780.8279265979924
 20
1952.660318673341
 30
0.0
 10
781.0467593863072
 20
1953.16529167233
 30
0.0
 10
781.1921298406381
 20
1953.488148973222
 30
0.0
  0
SPLINE
  5
CE
330
87
100
AcDbEntity
  8
P-SANR-FIXT
100
AcDbSpline
210
0.0
220
0.0
230
1.0
 70
     8
 71
     3
 72
     9
 73
     5
 74
     0
 42
0.000000001
 43
0.0000000001
 40
0.0
 40
0.0
 40
0.0
 40
0.0
 40
0.5
 40
1.0
 40
1.0
 40
1.0
 40
1.0
 10
765.7836655017981
 20
1953.488148973222
 30
0.0
 10
765.9290372171134
 20
1953.165291742515
 30
0.0
 10
766.147871911707
 20
1952.660318747955
 30
0.0
 10
766.2228891342262
 20
1952.483339501603
 30
0.0
 10
766.224443377467
 20
1952.483339501605
 30
0.0
  0
SPLINE
  5
CF
330
87
100
AcDbEntity
  8
P-SANR-FIXT
100
AcDbSpline
210
0.0
220
0.0
230
1.0
 70
     8
 71
     3
 72
     9
 73
     5
 74
     0
 42
0.000000001
 43
0.0000000001
 40
0.0
 40
0.0
 40
0.0
 40
0.0
 40
0.5
 40
1.0
 40
1.0
 40
1.0
 40
1.0
 10
781.1921298406381
 20
1953.488148973222
 30
0.0
 10
781.6163523234381
 20
1954.414685151786
 30
0.0
 10
782.2573859823486
 20
1956.279415517787
 30
0.0
 10
782.48359702788
 20
1958.167461901534
 30
0.0
 10
782.4929968973009
 20
1959.117314097845
 30
0.0
  0
SPLINE
  5
D0
330
87
100
AcDbEntity
  8
P-SANR-FIXT
100
AcDbSpline
210
0.0
220
0.0
230
1.0
 70
     8
 71
     3
 72
     9
 73
     5
 74
     0
 42
0.000000001
 43
0.0000000001
 40
0.0
 40
0.0
 40
0.0
 40
0.0
 40
0.5
 40
1.0
 40
1.0
 40
1.0
 40
1.0
 10
782.4929968973009
 20
1959.117314097845
 30
0.0
 10
782.4835970278804
 20
1960.067166294144
 30
0.0
 10
782.2573859823544
 20
1961.955212677868
 30
0.0
 10
781.6163523234583
 20
1963.819943043847
 30
0.0
 10
781.1921298406676
 20
1964.746479222401
 30
0.0
  0
SPLINE
  5
D1
330
87
100
AcDbEntity
  8
P-SANR-FIXT
100
AcDbSpline
210
0.0
220
0.0
230
1.0
 70
     8
 71
     3
 72
     9
 73
     5
 74
     0
 42
0.000000001
 43
0.0000000001
 40
0.0
 40
0.0
 40
0.0
 40
0.0
 40
0.5
 40
1.0
 40
1.0
 40
1.0
 40
1.0
 10
765.7836655017685
 20
1964.746479222401
 30
0.0
 10
764.9164397267192
 20
1962.89043373701
 30
0.0
 10
764.0492139516749
 20
1959.157999876757
 30
0.0
 10
764.916439726739
 20
1955.384880237558
 30
0.0
 10
765.7836655017981
 20
1953.488148973222
 30
0.0
  0
SPLINE
  5
D2
330
87
100
AcDbEntity
  8
P-SANR-FIXT
100
AcDbSpline
210
0.0
220
0.0
230
1.0
 70
     8
 71
     3
 72
     9
 73
     5
 74
     0
 42
0.000000001
 43
0.0000000001
 40
0.0
 40
0.0
 40
0.0
 40
0.0
 40
0.5
 40
1.0
 40
1.0
 40
1.0
 40
1.0
 10
781.1921298406676
 20
1964.746479222401
 30
0.0
 10
781.0467593863458
 20
1965.06933652329
 30
0.0
 10
780.827926598035
 20
1965.86482730331
 30
0.0
 10
780.7529100503898
 20
1966.917250396863
 30
0.0
 10
780.7513558367336
 20
1967.491669750768
 30
0.0
  0
SPLINE
  5
D3
330
87
100
AcDbEntity
  8
P-SANR-FIXT
100
AcDbSpline
210
0.0
220
0.0
230
1.0
 70
     8
 71
     3
 72
     9
 73
     5
 74
     0
 42
0.000000001
 43
0.0000000001
 40
0.0
 40
0.0
 40
0.0
 40
0.0
 40
0.5
 40
1.0
 40
1.0
 40
1.0
 40
1.0
 10
780.7513558367336
 20
1967.491669750768
 30
0.0
 10
780.7529100503899
 20
1968.066089104679
 30
0.0
 10
780.8279265980366
 20
1969.295491369983
 30
0.0
 10
781.0467593863514
 20
1970.595955148999
 30
0.0
 10
781.1921298406758
 20
1971.241669750784
 30
0.0
  0
SPLINE
  5
D4
330
87
100
AcDbEntity
  8
P-SANR-FIXT
100
AcDbSpline
210
0.0
220
0.0
230
1.0
 70
     8
 71
     3
 72
     9
 73
     5
 74
     0
 42
0.000000001
 43
0.0000000001
 40
0.0
 40
0.0
 40
0.0
 40
0.0
 40
0.5
 40
1.0
 40
1.0
 40
1.0
 40
1.0
 10
765.7836655017603
 20
1971.241669750784
 30
0.0
 10
765.9290372170693
 20
1970.595955289369
 30
0.0
 10
766.1478719116628
 20
1969.295491645969
 30
0.0
 10
766.2228891342071
 20
1968.066089226243
 30
0.0
 10
766.224443377467
 20
1967.491669750768
 30
0.0
  0
SPLINE
  5
D5
330
87
100
AcDbEntity
  8
P-SANR-FIXT
100
AcDbSpline
210
0.0
220
0.0
230
1.0
 70
     8
 71
     3
 72
     9
 73
     5
 74
     0
 42
0.000000001
 43
0.0000000001
 40
0.0
 40
0.0
 40
0.0
 40
0.0
 40
0.5
 40
1.0
 40
1.0
 40
1.0
 40
1.0
 10
766.224443377467
 20
1967.491669750768
 30
0.0
 10
766.2228891342071
 20
1966.917250275298
 30
0.0
 10
766.1478719116643
 20
1965.864827101937
 30
0.0
 10
765.9290372170748
 20
1965.069336453105
 30
0.0
 10
765.7836655017685
 20
1964.746479222401
 30
0.0
  0
SPLINE
  5
D6
330
87
100
AcDbEntity
  8
P-SANR-FIXT
100
AcDbSpline
210
0.0
220
0.0
230
1.0
 70
     8
 71
     3
 72
     9
 73
     5
 74
     0
 42
0.000000001
 43
0.0000000001
 40
0.0
 40
0.0
 40
0.0
 40
0.0
 40
0.5
 40
1.0
 40
1.0
 40
1.0
 40
1.0
 10
781.1921298406758
 20
1971.241669750784
 30
0.0
 10
781.6163523234795
 20
1973.094742107906
 30
0.0
 10
782.2573859823874
 20
1976.824202839895
 30
0.0
 10
782.4835970278963
 20
1980.600295607379
 30
0.0
 10
782.4929968973009
 20
1982.499999999994
 30
0.0
  0
SPLINE
  5
D7
330
87
100
AcDbEntity
  8
P-SANR-FIXT
100
AcDbSpline
210
0.0
220
0.0
230
1.0
 70
     8
 71
     3
 72
     9
 73
     5
 74
     0
 42
0.000000001
 43
0.0000000001
 40
0.0
 40
0.0
 40
0.0
 40
0.0
 40
0.5
 40
1.0
 40
1.0
 40
1.0
 40
1.0
 10
782.4929968973009
 20
1982.499999999994
 30
0.0
 10
782.4835970278964
 20
1984.399704392599
 30
0.0
 10
782.2573859823901
 20
1988.175797160062
 30
0.0
 10
781.6163523234889
 20
1991.905257892031
 30
0.0
 10
781.1921298406897
 20
1993.758330249143
 30
0.0
  0
SPLINE
  5
D8
330
87
100
AcDbEntity
  8
P-SANR-FIXT
100
AcDbSpline
210
0.0
220
0.0
230
1.0
 70
     8
 71
     3
 72
     9
 73
     5
 74
     0
 42
0.000000001
 43
0.0000000001
 40
0.0
 40
0.0
 40
0.0
 40
0.0
 40
0.5
 40
1.0
 40
1.0
 40
1.0
 40
1.0
 10
765.7836655017465
 20
1993.758330249143
 30
0.0
 10
764.9164397266929
 20
1990.046239278363
 30
0.0
 10
764.0492139516417
 20
1982.581371557856
 30
0.0
 10
764.9164397267021
 20
1975.035132279456
 30
0.0
 10
765.7836655017603
 20
1971.241669750784
 30
0.0
  0
SPLINE
  5
D9
330
87
100
AcDbEntity
  8
P-SANR-FIXT
100
AcDbSpline
210
0.0
220
0.0
230
1.0
 70
     8
 71
     3
 72
     9
 73
     5
 74
     0
 42
0.000000001
 43
0.0000000001
 40
0.0
 40
0.0
 40
0.0
 40
0.0
 40
0.5
 40
1.0
 40
1.0
 40
1.0
 40
1.0
 10
781.1921298406897
 20
1993.758330249143
 30
0.0
 10
781.0467593863694
 20
1994.404044850925
 30
0.0
 10
780.8279265980565
 20
1995.704508629937
 30
0.0
 10
780.7529100503987
 20
1996.933910895236
 30
0.0
 10
780.7513558367336
 20
1997.508330249144
 30
0.0
  0
SPLINE
  5
DA
330
87
100
AcDbEntity
  8
P-SANR-FIXT
100
AcDbSpline
210
0.0
220
0.0
230
1.0
 70
     8
 71
     3
 72
     9
 73
     5
 74
     0
 42
0.000000001
 43
0.0000000001
 40
0.0
 40
0.0
 40
0.0
 40
0.0
 40
0.5
 40
1.0
 40
1.0
 40
1.0
 40
1.0
 10
780.7513558367336
 20
1997.508330249144
 30
0.0
 10
780.7529100503987
 20
1998.082749603052
 30
0.0
 10
780.8279265980563
 20
1999.135172696611
 30
0.0
 10
781.0467593863691
 20
1999.930663476635
 30
0.0
 10
781.1921298406892
 20
2000.253520777527
 30
0.0
  0
SPLINE
  5
DB
330
87
100
AcDbEntity
  8
P-SANR-FIXT
100
AcDbSpline
210
0.0
220
0.0
230
1.0
 70
     8
 71
     3
 72
     9
 73
     5
 74
     0
 42
0.000000001
 43
0.0000000001
 40
0.0
 40
0.0
 40
0.0
 40
0.0
 40
0.5
 40
1.0
 40
1.0
 40
1.0
 40
1.0
 10
765.7836655017471
 20
2000.253520777527
 30
0.0
 10
765.9290372170516
 20
1999.93066354682
 30
0.0
 10
766.1478719116431
 20
1999.135172897984
 30
0.0
 10
766.2228891341984
 20
1998.082749724616
 30
0.0
 10
766.224443377467
 20
1997.508330249144
 30
0.0
  0
SPLINE
  5
DC
330
87
100
AcDbEntity
  8
P-SANR-FIXT
100
AcDbSpline
210
0.0
220
0.0
230
1.0
 70
     8
 71
     3
 72
     9
 73
     5
 74
     0
 42
0.000000001
 43
0.0000000001
 40
0.0
 40
0.0
 40
0.0
 40
0.0
 40
0.5
 40
1.0
 40
1.0
 40
1.0
 40
1.0
 10
766.224443377467
 20
1997.508330249144
 30
0.0
 10
766.2228891341983
 20
1996.933910773671
 30
0.0
 10
766.1478719116429
 20
1995.704508353951
 30
0.0
 10
765.9290372170513
 20
1994.404044710555
 30
0.0
 10
765.7836655017465
 20
1993.758330249143
 30
0.0
  0
SPLINE
  5
DD
330
87
100
AcDbEntity
  8
P-SANR-FIXT
100
AcDbSpline
210
0.0
220
0.0
230
1.0
 70
     8
 71
     3
 72
     9
 73
     5
 74
     0
 42
0.000000001
 43
0.0000000001
 40
0.0
 40
0.0
 40
0.0
 40
0.0
 40
0.5
 40
1.0
 40
1.0
 40
1.0
 40
1.0
 10
781.1921298406892
 20
2000.253520777527
 30
0.0
 10
781.6163523234879
 20
2001.180056956082
 30
0.0
 10
782.2573859823884
 20
2003.044787322066
 30
0.0
 10
782.4835970278956
 20
2004.932833705797
 30
0.0
 10
782.4929968973009
 20
2005.882685902099
 30
0.0
  0
SPLINE
  5
DE
330
87
100
AcDbEntity
  8
P-SANR-FIXT
100
AcDbSpline
210
0.0
220
0.0
230
1.0
 70
     8
 71
     3
 72
     9
 73
     5
 74
     0
 42
0.000000001
 43
0.0000000001
 40
0.0
 40
0.0
 40
0.0
 40
0.0
 40
0.5
 40
1.0
 40
1.0
 40
1.0
 40
1.0
 10
782.4929968973009
 20
2005.882685902099
 30
0.0
 10
782.4835970278954
 20
2006.832538098407
 30
0.0
 10
782.2573859823854
 20
2008.72058448215
 30
0.0
 10
781.6163523234771
 20
2010.585314848146
 30
0.0
 10
781.1921298406734
 20
2011.511851026707
 30
0.0
  0
SPLINE
  5
DF
330
87
100
AcDbEntity
  8
P-SANR-FIXT
100
AcDbSpline
210
0.0
220
0.0
230
1.0
 70
     8
 71
     3
 72
     9
 73
     5
 74
     0
 42
0.000000001
 43
0.0000000001
 40
0.0
 40
0.0
 40
0.0
 40
0.0
 40
0.5
 40
1.0
 40
1.0
 40
1.0
 40
1.0
 10
765.7836655017629
 20
2011.511851026707
 30
0.0
 10
764.9164397267045
 20
2009.655805541317
 30
0.0
 10
764.0492139516434
 20
2005.923371681063
 30
0.0
 10
764.916439726694
 20
2002.150252041863
 30
0.0
 10
765.7836655017471
 20
2000.253520777527
 30
0.0
  0
SPLINE
  5
E0
330
87
100
AcDbEntity
  8
P-SANR-FIXT
100
AcDbSpline
210
0.0
220
0.0
230
1.0
 70
     8
 71
     3
 72
     9
 73
     5
 74
     0
 42
0.000000001
 43
0.0000000001
 40
0.0
 40
0.0
 40
0.0
 40
0.0
 40
0.5
 40
1.0
 40
1.0
 40
1.0
 40
1.0
 10
781.1921298406734
 20
2011.511851026707
 30
0.0
 10
781.0467593863485
 20
2011.834708327599
 30
0.0
 10
780.8279265980335
 20
2012.339681326587
 30
0.0
 10
780.7529100503885
 20
2012.516660498326
 30
0.0
 10
780.7513558367336
 20
2012.516660498324
 30
0.0
  0
SPLINE
  5
E1
330
87
100
AcDbEntity
  8
P-SANR-FIXT
100
AcDbSpline
210
0.0
220
0.0
230
1.0
 70
     8
 71
     3
 72
     9
 73
     5
 74
     0
 42
0.000000001
 43
0.0000000001
 40
0.0
 40
0.0
 40
0.0
 40
0.0
 40
0.5
 40
1.0
 40
1.0
 40
1.0
 40
1.0
 10
766.224443377467
 20
2012.516660498324
 30
0.0
 10
766.2228891342086
 20
2012.516660498326
 30
0.0
 10
766.147871911666
 20
2012.339681251975
 30
0.0
 10
765.9290372170724
 20
2011.834708257414
 30
0.0
 10
765.7836655017629
 20
2011.511851026707
 30
0.0
  0
LINE
  5
E2
330
87
100
AcDbEntity
  8
P-SANR-FIXT
100
AcDbLine
 10
727.6664074431513
 20
1963.050000000043
 30
0.0
 11
727.6664074431513
 21
2001.949999999948
 31
0.0
  0
LINE
  5
E3
330
87
100
AcDbEntity
  8
P-SANR-FIXT
100
AcDbLine
 10
729.1664074431513
 20
1961.550000000043
 30
0.0
 11
729.1664074431513
 21
2003.449999999948
 31
0.0
  0
LINE
  5
E4
330
87
100
AcDbEntity
  8
P-SANR-FIXT
100
AcDbLine
 10
752.1664074431899
 20
1963.050000000044
 30
0.0
 11
752.1664074431899
 21
1961.550000000043
 31
0.0
  0
LINE
  5
E5
330
87
100
AcDbEntity
  8
P-SANR-FIXT
100
AcDbLine
 10
762.4929968972398
 20
1963.050000000044
 30
0.0
 11
752.1664074431899
 21
1963.050000000044
 31
0.0
  0
LINE
  5
E6
330
87
100
AcDbEntity
  8
P-SANR-FIXT
100
AcDbLine
 10
752.1664074431899
 20
1966.033338483689
 30
0.0
 11
762.4929968972398
 21
1966.033338483689
 31
0.0
  0
LINE
  5
E7
330
87
100
AcDbEntity
  8
P-SANR-FIXT
100
AcDbLine
 10
752.1664074431899
 20
1979.516661516387
 30
0.0
 11
752.1664074431899
 21
1966.033338483689
 31
0.0
  0
LINE
  5
E8
330
87
100
AcDbEntity
  8
P-SANR-FIXT
100
AcDbLine
 10
762.4929968972398
 20
1979.516661516387
 30
0.0
 11
752.1664074431899
 21
1979.516661516387
 31
0.0
  0
LINE
  5
E9
330
87
100
AcDbEntity
  8
P-SANR-FIXT
100
AcDbLine
 10
752.1664074431899
 20
1985.483338483605
 30
0.0
 11
762.4929968972398
 21
1985.483338483605
 31
0.0
  0
LINE
  5
EA
330
87
100
AcDbEntity
  8
P-SANR-FIXT
100
AcDbLine
 10
752.1664074431899
 20
1998.9666615163
 30
0.0
 11
752.1664074431899
 21
1985.483338483605
 31
0.0
  0
LINE
  5
EB
330
87
100
AcDbEntity
  8
P-SANR-FIXT
100
AcDbLine
 10
762.4929968972398
 20
1998.9666615163
 30
0.0
 11
752.1664074431899
 21
1998.9666615163
 31
0.0
  0
LINE
  5
EC
330
87
100
AcDbEntity
  8
P-SANR-FIXT
100
AcDbLine
 10
752.1664074431899
 20
2001.949999999948
 30
0.0
 11
762.4929968972398
 21
2001.949999999948
 31
0.0
  0
LINE
  5
ED
330
87
100
AcDbEntity
  8
P-SANR-FIXT
100
AcDbLine
 10
752.1664074431899
 20
2003.449999999948
 30
0.0
 11
752.1664074431899
 21
2001.949999999948
 31
0.0
  0
LINE
  5
EE
330
87
100
AcDbEntity
  8
P-SANR-FIXT
100
AcDbLine
 10
841.9337823050932
 20
1964.499999999995
 30
0.0
 11
842.1664074431879
 21
1964.499999999995
 31
0.0
  0
LINE
  5
EF
330
87
100
AcDbEntity
  8
P-SANR-FIXT
100
AcDbLine
 10
836.8840298358925
 20
1964.499999999995
 30
0.0
 11
841.9337823050934
 21
1964.499999999995
 31
0.0
  0
LINE
  5
F0
330
87
100
AcDbEntity
  8
P-SANR-FIXT
100
AcDbLine
 10
799.4985375196836
 20
1964.499999999995
 30
0.0
 11
805.5669025047862
 21
1964.499999999995
 31
0.0
  0
LINE
  5
F1
330
87
100
AcDbEntity
  8
P-SANR-FIXT
100
AcDbLine
 10
805.5669025047862
 20
1964.499999999995
 30
0.0
 11
815.6664074431878
 21
1964.499999999995
 31
0.0
  0
LINE
  5
F2
330
87
100
AcDbEntity
  8
P-SANR-FIXT
100
AcDbLine
 10
795.0588972191663
 20
1964.499999999995
 30
0.0
 11
799.4985375196837
 21
1964.499999999995
 31
0.0
  0
LINE
  5
F3
330
87
100
AcDbEntity
  8
P-SANR-FIXT
100
AcDbLine
 10
825.7659123815891
 20
1964.499999999995
 30
0.0
 11
831.8342773666916
 21
1964.499999999995
 31
0.0
  0
LINE
  5
F4
330
87
100
AcDbEntity
  8
P-SANR-FIXT
100
AcDbLine
 10
831.8342773666916
 20
1964.499999999995
 30
0.0
 11
836.8840298358925
 21
1964.499999999995
 31
0.0
  0
LINE
  5
F5
330
87
100
AcDbEntity
  8
P-SANR-FIXT
100
AcDbLine
 10
815.6664074431878
 20
1964.499999999995
 30
0.0
 11
825.7659123815891
 21
1964.499999999995
 31
0.0
  0
LINE
  5
F6
330
87
100
AcDbEntity
  8
P-SANR-FIXT
100
AcDbLine
 10
839.916407443289
 20
1941.49999999998
 30
0.0
 11
791.4164074430865
 21
1941.49999999998
 31
0.0
  0
LINE
  5
F7
330
87
100
AcDbEntity
  8
P-SANR-FIXT
100
AcDbLine
 10
841.9337823050932
 20
1964.499999999995
 30
0.0
 11
841.9337823050932
 21
1942.799038105599
 31
0.0
  0
LINE
  5
F8
330
87
100
AcDbEntity
  8
P-SANR-FIXT
100
AcDbLine
 10
841.9337823050932
 20
1942.799038105599
 30
0.0
 11
842.1664074431879
 21
1942.799038105599
 31
0.0
  0
LINE
  5
F9
330
87
100
AcDbEntity
  8
P-SANR-FIXT
100
AcDbLine
 10
789.1664074431877
 20
1942.799038105599
 30
0.0
 11
789.3990325812823
 21
1942.799038105599
 31
0.0
  0
LINE
  5
FA
330
87
100
AcDbEntity
  8
P-SANR-FIXT
100
AcDbLine
 10
789.3990325812823
 20
1942.799038105599
 30
0.0
 11
789.3990325812823
 21
1961.743972866587
 31
0.0
  0
SPLINE
  5
FB
330
87
100
AcDbEntity
  8
P-SANR-FIXT
100
AcDbSpline
210
0.0
220
0.0
230
1.0
 70
     8
 71
     3
 72
     9
 73
     5
 74
     0
 42
0.000000001
 43
0.0000000001
 40
0.0
 40
0.0
 40
0.0
 40
0.0
 40
0.5
 40
1.0
 40
1.0
 40
1.0
 40
1.0
 10
789.3990325812823
 20
1942.799038105599
 30
0.0
 10
791.105198338718
 20
1942.029274868635
 30
0.0
 10
794.4946149192205
 20
1941.259511631671
 30
0.0
 10
797.8382016309856
 20
1942.029274868635
 30
0.0
 10
799.4985375196837
 20
1942.799038105599
 30
0.0
  0
LINE
  5
FC
330
87
100
AcDbEntity
  8
P-SANR-FIXT
100
AcDbLine
 10
799.4985375196837
 20
1942.799038105599
 30
0.0
 11
799.4985375196837
 21
1964.499999999995
 31
0.0
  0
LINE
  5
FD
330
87
100
AcDbEntity
  8
P-SANR-FIXT
100
AcDbLine
 10
799.4985375196837
 20
1942.799038105599
 30
0.0
 11
805.5669025047862
 21
1942.799038105599
 31
0.0
  0
LINE
  5
FE
330
87
100
AcDbEntity
  8
P-SANR-FIXT
100
AcDbLine
 10
805.5669025047862
 20
1942.799038105599
 30
0.0
 11
805.5669025047862
 21
1964.499999999995
 31
0.0
  0
SPLINE
  5
FF
330
87
100
AcDbEntity
  8
P-SANR-FIXT
100
AcDbSpline
210
0.0
220
0.0
230
1.0
 70
     8
 71
     3
 72
     9
 73
     5
 74
     0
 42
0.000000001
 43
0.0000000001
 40
0.0
 40
0.0
 40
0.0
 40
0.0
 40
0.5
 40
1.0
 40
1.0
 40
1.0
 40
1.0
 10
805.5669025047862
 20
1942.799038105599
 30
0.0
 10
808.9792340196575
 20
1942.029274868635
 30
0.0
 10
815.7580671806627
 20
1941.259511631671
 30
0.0
 10
822.445240604193
 20
1942.029274868635
 30
0.0
 10
825.7659123815891
 20
1942.799038105599
 30
0.0
  0
LINE
  5
100
330
87
100
AcDbEntity
  8
P-SANR-FIXT
100
AcDbLine
 10
825.7659123815891
 20
1942.799038105599
 30
0.0
 11
825.7659123815891
 21
1964.499999999995
 31
0.0
  0
LINE
  5
101
330
87
100
AcDbEntity
  8
P-SANR-FIXT
100
AcDbLine
 10
825.7659123815891
 20
1942.799038105599
 30
0.0
 11
831.8342773666916
 21
1942.799038105599
 31
0.0
  0
LINE
  5
102
330
87
100
AcDbEntity
  8
P-SANR-FIXT
100
AcDbLine
 10
831.8342773666916
 20
1942.799038105599
 30
0.0
 11
831.8342773666916
 21
1964.499999999995
 31
0.0
  0
SPLINE
  5
103
330
87
100
AcDbEntity
  8
P-SANR-FIXT
100
AcDbSpline
210
0.0
220
0.0
230
1.0
 70
     8
 71
     3
 72
     9
 73
     5
 74
     0
 42
0.000000001
 43
0.0000000001
 40
0.0
 40
0.0
 40
0.0
 40
0.0
 40
0.5
 40
1.0
 40
1.0
 40
1.0
 40
1.0
 10
831.8342773666916
 20
1942.799038105599
 30
0.0
 10
833.4946132553898
 20
1942.029274868635
 30
0.0
 10
836.838199967155
 20
1941.259511631671
 30
0.0
 10
840.2276165476575
 20
1942.029274868635
 30
0.0
 10
841.9337823050934
 20
1942.799038105599
 30
0.0
  0
LINE
  5
104
330
87
100
AcDbEntity
  8
P-SANR-FIXT
100
AcDbLine
 10
800.4164074431844
 20
2043.772827725002
 30
0.0
 11
830.9164074431912
 21
2043.772827725002
 31
0.0
  0
ENDBLK
  5
106
330
87
100
AcDbEntity
  8
0
100
AcDbBlockEnd
  0
BLOCK
  5
1F4
330
108
100
AcDbEntity
  8
0
100
AcDbBlockBegin
  2
Automatic flow rate regulator valve_Caleffi_121 DN15 - 1_2__-V1-Est - Idraulica
 70
     0
 10
0.0
 20
0.0
 30
0.0
  3
Automatic flow rate regulator valve_Caleffi_121 DN15 - 1_2__-V1-Est - Idraulica
  1

  0
LINE
  5
109
330
108
100
AcDbEntity
  8
M-PIPE
100
AcDbLine
 10
811.1664074431844
 20
1810.220149130129
 30
0.0
 11
811.1664074431844
 21
1807.71954469105
 31
0.0
1001
REVIT
1002
{
1070
     3
1000
923885
1002
}
  0
LINE
  5
10A
330
108
100
AcDbEntity
  8
M-PIPE
100
AcDbLine
 10
820.1664074431844
 20
1807.71954469105
 30
0.0
 11
820.1664074431844
 21
1810.220149130129
 31
0.0
1001
REVIT
1002
{
1070
     3
1000
923885
1002
}
  0
LINE
  5
10B
330
108
100
AcDbEntity
  8
M-PIPE
100
AcDbLine
 10
820.1663319754782
 20
1810.220297736575
 30
0.0
 11
819.6407509820129
 21
1810.74587873004
 31
0.0
1001
REVIT
1002
{
1070
     3
1000
923885
1002
}
  0
LINE
  5
10C
330
108
100
AcDbEntity
  8
M-PIPE
100
AcDbLine
 10
811.6920639043556
 20
1810.74587873004
 30
0.0
 11
811.1664829108908
 21
1810.220297736575
 31
0.0
1001
REVIT
1002
{
1070
     3
1000
923885
1002
}
  0
ARC
  5
10D
330
108
100
AcDbEntity
  8
M-PIPE
100
AcDbCircle
 10
815.6664074431823
 20
1788.745878730039
 30
0.0
 40
19.50000000000023
100
AcDbArc
 50
179.9999999999998
 51
359.9999999999981
1001
REVIT
1002
{
1070
     3
1000
923885
1002
}
  0
ARC
  5
10E
330
108
100
AcDbEntity
  8
M-PIPE
100
AcDbCircle
 10
815.6664074431823
 20
1788.745878730039
 30
0.0
 40
19.50000000000001
100
AcDbArc
 50
359.9999999999995
 51
179.9999999999998
1001
REVIT
1002
{
1070
     3
1000
923885
1002
}
  0
SPLINE
  5
10F
330
108
100
AcDbEntity
  8
M-PIPE
100
AcDbSpline
210
0.0
220
0.0
230
1.0
 70
     8
 71
     3
 72
     9
 73
     5
 74
     0
 42
0.000000001
 43
0.0000000001
 40
0.1111111111111111
 40
0.1111111111111111
 40
0.1111111111111111
 40
0.1111111111111111
 40
0.1666666666666666
 40
0.2222222222222222
 40
0.2222222222222222
 40
0.2222222222222222
 40
0.2222222222222222
 10
819.8937616570253
 20
1807.782146125479
 30
0.0
 10
819.8046641068618
 20
1807.801913123918
 30
0.0
 10
819.5788814439771
 20
1807.85075347516
 30
0.0
 10
819.2799775586637
 20
1807.908911972899
 30
0.0
 10
819.1123630776779
 20
1807.938986601488
 30
0.0
1001
REVIT
1002
{
1070
     3
1000
923885
1002
}
  0
SPLINE
  5
110
330
108
100
AcDbEntity
  8
M-PIPE
100
AcDbSpline
210
0.0
220
0.0
230
1.0
 70
     8
 71
     3
 72
     8
 73
     4
 74
     0
 42
0.000000001
 43
0.0000000001
 40
0.3333333333333333
 40
0.3333333333333333
 40
0.3333333333333333
 40
0.3333333333333333
 40
0.3888888888888888
 40
0.3888888888888888
 40
0.3888888888888888
 40
0.3888888888888888
 10
817.9195865068997
 20
1808.115266539332
 30
0.0
 10
817.6933295996768
 20
1808.141565759806
 30
0.0
 10
817.4544905280482
 20
1808.165281230158
 30
0.0
 10
817.2081523432451
 20
1808.184835046239
 30
0.0
1001
REVIT
1002
{
1070
     3
1000
923885
1002
}
  0
SPLINE
  5
111
330
108
100
AcDbEntity
  8
M-PIPE
100
AcDbSpline
210
0.0
220
0.0
230
1.0
 70
     8
 71
     3
 72
    10
 73
     6
 74
     0
 42
0.000000001
 43
0.0000000001
 40
0.4444444444444445
 40
0.4444444444444445
 40
0.4444444444444445
 40
0.4444444444444445
 40
0.5138888888888889
 40
0.5486111111111111
 40
0.5555555555555558
 40
0.5555555555555558
 40
0.5555555555555558
 40
0.5555555555555558
 10
816.4494648967757
 20
1808.230149848671
 30
0.0
 10
816.1263292846788
 20
1808.243110514872
 30
0.0
 10
815.6306567663078
 20
1808.250775857725
 30
0.0
 10
815.1059443393862
 20
1808.238622290636
 30
0.0
 10
814.913423335785
 20
1808.231371278067
 30
0.0
 10
814.8814369478989
 20
1808.230087508603
 30
0.0
1001
REVIT
1002
{
1070
     3
1000
923885
1002
}
  0
SPLINE
  5
112
330
108
100
AcDbEntity
  8
M-PIPE
100
AcDbSpline
210
0.0
220
0.0
230
1.0
 70
     8
 71
     3
 72
     9
 73
     5
 74
     0
 42
0.000000001
 43
0.0000000001
 40
0.6111111111111113
 40
0.6111111111111113
 40
0.6111111111111113
 40
0.6111111111111113
 40
0.6527777777777777
 40
0.6666666666666669
 40
0.6666666666666669
 40
0.6666666666666669
 40
0.6666666666666669
 10
814.1258404671466
 20
1808.184807428714
 30
0.0
 10
813.9398760631747
 20
1808.170039616849
 30
0.0
 10
813.6971926961082
 20
1808.147312744182
 30
0.0
 10
813.4665918247073
 20
1808.121519200545
 30
0.0
 10
813.4097729331477
 20
1808.114911007774
 30
0.0
1001
REVIT
1002
{
1070
     3
1000
923885
1002
}
  0
SPLINE
  5
113
330
108
100
AcDbEntity
  8
M-PIPE
100
AcDbSpline
210
0.0
220
0.0
230
1.0
 70
     8
 71
     3
 72
    10
 73
     6
 74
     0
 42
0.000000001
 43
0.0000000001
 40
0.7777777777777781
 40
0.7777777777777781
 40
0.7777777777777781
 40
0.7777777777777781
 40
0.7916666666666668
 40
0.861111111111111
 40
0.8888888888888891
 40
0.8888888888888891
 40
0.8888888888888891
 40
0.8888888888888891
 10
812.221387644274
 20
1807.939159506876
 30
0.0
 10
812.1793761448724
 20
1807.93161971446
 30
0.0
 10
811.9353454650676
 20
1807.887030963492
 30
0.0
 10
811.6325493005479
 20
1807.82443919396
 30
0.0
 10
811.503780370055
 20
1807.796616117141
 30
0.0
 10
811.4738082130291
 20
1807.790003017447
 30
0.0
1001
REVIT
1002
{
1070
     3
1000
923885
1002
}
  0
ARC
  5
114
330
108
100
AcDbEntity
  8
M-PIPE
100
AcDbCircle
 10
815.6664074431828
 20
1788.745878730038
 30
0.0
 40
19.50000000000003
100
AcDbArc
 50
104.6640760984791
 51
114.7088659520154
1001
REVIT
1002
{
1070
     3
1000
923885
1002
}
  0
ARC
  5
115
330
108
100
AcDbEntity
  8
M-PIPE
100
AcDbCircle
 10
815.6664074431828
 20
1788.745878730038
 30
0.0
 40
19.50000000000013
100
AcDbArc
 50
118.1498862682955
 51
119.7312608787832
1001
REVIT
1002
{
1070
     3
1000
923885
1002
}
  0
ARC
  5
116
330
108
100
AcDbEntity
  8
M-PIPE
100
AcDbCircle
 10
815.6664074431828
 20
1788.745878730038
 30
0.0
 40
19.50000000000003
100
AcDbArc
 50
123.7725130515326
 51
124.7536558055514
1001
REVIT
1002
{
1070
     3
1000
923885
1002
}
  0
ARC
  5
117
330
108
100
AcDbEntity
  8
M-PIPE
100
AcDbCircle
 10
815.6664074431828
 20
1788.745878730038
 30
0.0
 40
19.50000000000002
100
AcDbArc
 50
129.3875047114714
 51
129.7760507323194
1001
REVIT
1002
{
1070
     3
1000
923885
1002
}
  0
ARC
  5
118
330
108
100
AcDbEntity
  8
M-PIPE
100
AcDbCircle
 10
815.6664074431828
 20
1788.745878730038
 30
0.0
 40
19.49999999999997
100
AcDbArc
 50
134.7984456590868
 51
134.9920639818162
1001
REVIT
1002
{
1070
     3
1000
923885
1002
}
  0
ARC
  5
119
330
108
100
AcDbEntity
  8
M-PIPE
100
AcDbCircle
 10
815.6664074431828
 20
1788.745878730038
 30
0.0
 40
19.49999999999995
100
AcDbArc
 50
139.8208405858551
 51
140.6018514383196
1001
REVIT
1002
{
1070
     3
1000
923885
1002
}
  0
ARC
  5
11A
330
108
100
AcDbEntity
  8
M-PIPE
100
AcDbCircle
 10
815.6664074431828
 20
1788.745878730038
 30
0.0
 40
19.5000000000001
100
AcDbArc
 50
144.8432355126229
 51
146.221274831157
1001
REVIT
1002
{
1070
     3
1000
923885
1002
}
  0
ARC
  5
11B
330
108
100
AcDbEntity
  8
M-PIPE
100
AcDbCircle
 10
815.6664074431828
 20
1788.745878730038
 30
0.0
 40
19.5
100
AcDbArc
 50
149.8656304393915
 51
164.9328152196956
1001
REVIT
1002
{
1070
     3
1000
923885
1002
}
  0
ARC
  5
11C
330
108
100
AcDbEntity
  8
M-PIPE
100
AcDbCircle
 10
815.6664074431828
 20
1788.745878730038
 30
0.0
 40
19.50000000000009
100
AcDbArc
 50
168.7413625024599
 51
169.955210146463
1001
REVIT
1002
{
1070
     3
1000
923885
1002
}
  0
ARC
  5
11D
330
108
100
AcDbEntity
  8
M-PIPE
100
AcDbCircle
 10
815.6664074431828
 20
1788.745878730038
 30
0.0
 40
19.50000000000004
100
AcDbArc
 50
174.3721841237958
 51
174.9776050732311
1001
REVIT
1002
{
1070
     3
1000
923885
1002
}
  0
SPLINE
  5
11E
330
108
100
AcDbEntity
  8
M-PIPE
100
AcDbSpline
210
0.0
220
0.0
230
1.0
 70
     8
 71
     3
 72
     8
 73
     4
 74
     0
 42
0.000000001
 43
0.0000000001
 40
-1.0
 40
-1.0
 40
-1.0
 40
-1.0
 40
-0.9846216813068581
 40
-0.9846216813068581
 40
-0.9846216813068581
 40
-0.9846216813068581
 10
812.400430663683
 20
1807.970430627957
 30
0.0
 10
812.4261763293445
 20
1807.967622188637
 30
0.0
 10
812.4522636031045
 20
1807.964873271016
 30
0.0
 10
812.4786837645329
 20
1807.962185406386
 30
0.0
1001
REVIT
1002
{
1070
     3
1000
923885
1002
}
  0
SPLINE
  5
11F
330
108
100
AcDbEntity
  8
M-PIPE
100
AcDbSpline
210
0.0
220
0.0
230
1.0
 70
     8
 71
     3
 72
     8
 73
     4
 74
     0
 42
0.000000001
 43
0.0000000001
 40
-0.0154003099506865
 40
-0.0154003099506865
 40
-0.0154003099506865
 40
-0.0154003099506865
 40
0.0
 40
0.0
 40
0.0
 40
0.0
 10
818.8541752908312
 20
1807.962185302977
 30
0.0
 10
818.8805816295344
 20
1807.964873178827
 30
0.0
 10
818.9066541058904
 20
1807.967622129
 30
0.0
 10
818.9323842226826
 20
1807.970430627957
 30
0.0
1001
REVIT
1002
{
1070
     3
1000
923885
1002
}
  0
ARC
  5
120
330
108
100
AcDbEntity
  8
M-PIPE
100
AcDbCircle
 10
815.6664074431828
 20
1788.745878730038
 30
0.0
 40
19.49999999999992
100
AcDbArc
 50
4.464351046016695
 51
5.628720552174128
1001
REVIT
1002
{
1070
     3
1000
923885
1002
}
  0
ARC
  5
121
330
108
100
AcDbEntity
  8
M-PIPE
100
AcDbCircle
 10
815.6664074431828
 20
1788.745878730038
 30
0.0
 40
19.50000000000008
100
AcDbArc
 50
8.928702092032201
 51
13.39305313804842
1001
REVIT
1002
{
1070
     3
1000
923885
1002
}
  0
ARC
  5
122
330
108
100
AcDbEntity
  8
M-PIPE
100
AcDbCircle
 10
815.6664074431828
 20
1788.745878730038
 30
0.0
 40
19.50000000000006
100
AcDbArc
 50
16.88356653701931
 51
17.85740418406449
1001
REVIT
1002
{
1070
     3
1000
923885
1002
}
  0
ARC
  5
123
330
108
100
AcDbEntity
  8
M-PIPE
100
AcDbCircle
 10
815.6664074431828
 20
1788.745878730038
 30
0.0
 40
19.50000000000009
100
AcDbArc
 50
22.32175523008043
 51
22.502966270278
1001
REVIT
1002
{
1070
     3
1000
923885
1002
}
  0
ARC
  5
124
330
108
100
AcDbEntity
  8
M-PIPE
100
AcDbCircle
 10
815.6664074431828
 20
1788.745878730038
 30
0.0
 40
19.49999999999994
100
AcDbArc
 50
26.78610627609609
 51
35.7148083681283
1001
REVIT
1002
{
1070
     3
1000
923885
1002
}
  0
ARC
  5
125
330
108
100
AcDbEntity
  8
M-PIPE
100
AcDbCircle
 10
815.6664074431828
 20
1788.745878730038
 30
0.0
 40
19.49999999999987
100
AcDbArc
 50
39.39524463269754
 51
40.1791594141441
1001
REVIT
1002
{
1070
     3
1000
923885
1002
}
  0
ARC
  5
126
330
108
100
AcDbEntity
  8
M-PIPE
100
AcDbCircle
 10
815.6664074431828
 20
1788.745878730038
 30
0.0
 40
19.49999999999991
100
AcDbArc
 50
44.6435104601603
 51
44.98789117227892
1001
REVIT
1002
{
1070
     3
1000
923885
1002
}
  0
ARC
  5
127
330
108
100
AcDbEntity
  8
M-PIPE
100
AcDbCircle
 10
815.6664074431828
 20
1788.745878730038
 30
0.0
 40
19.5
100
AcDbArc
 50
49.10786150617639
 51
58.03656359820796
1001
REVIT
1002
{
1070
     3
1000
923885
1002
}
  0
ARC
  5
128
330
108
100
AcDbEntity
  8
M-PIPE
100
AcDbCircle
 10
815.6664074431828
 20
1788.745878730038
 30
0.0
 40
19.49999999999992
100
AcDbArc
 50
61.86322122592086
 51
62.50091464422391
1001
REVIT
1002
{
1070
     3
1000
923885
1002
}
  0
ARC
  5
129
330
108
100
AcDbEntity
  8
M-PIPE
100
AcDbCircle
 10
815.6664074431828
 20
1788.745878730038
 30
0.0
 40
19.50000000000012
100
AcDbArc
 50
66.9652656902404
 51
67.49285188997607
1001
REVIT
1002
{
1070
     3
1000
923885
1002
}
  0
ARC
  5
12A
330
108
100
AcDbEntity
  8
M-PIPE
100
AcDbCircle
 10
815.6664074431828
 20
1788.745878730038
 30
0.0
 40
19.50000000000001
100
AcDbArc
 50
71.42961673625656
 51
76.65223968398144
1001
REVIT
1002
{
1070
     3
1000
923885
1002
}
  0
LINE
  5
12B
330
108
100
AcDbEntity
  8
M-PIPE
100
AcDbLine
 10
815.6664074431828
 20
1810.745878730038
 30
0.0
 11
819.6407509820115
 21
1810.745878730038
 31
0.0
1001
REVIT
1002
{
1070
     3
1000
923885
1002
}
  0
LINE
  5
12C
330
108
100
AcDbEntity
  8
M-PIPE
100
AcDbLine
 10
811.6920639043541
 20
1810.745878730038
 30
0.0
 11
815.6664074431828
 21
1810.745878730038
 31
0.0
1001
REVIT
1002
{
1070
     3
1000
923885
1002
}
  0
SPLINE
  5
12D
330
108
100
AcDbEntity
  8
M-PIPE
100
AcDbSpline
210
0.0
220
0.0
230
1.0
 70
     8
 71
     3
 72
    13
 73
     9
 74
     0
 42
0.000000001
 43
0.0000000001
 40
0.0
 40
0.0
 40
0.0
 40
0.0
 40
0.1428571428571428
 40
0.2857142857142857
 40
0.4285714285714286
 40
0.5714285714285714
 40
0.8571428571428571
 40
1.0
 40
1.0
 40
1.0
 40
1.0
 10
820.1664074431828
 20
1810.220149130129
 30
0.0
 10
820.1664074431828
 20
1810.222100244504
 30
0.0
 10
820.0905317089898
 20
1810.225894755927
 30
0.0
 10
819.7548428390643
 20
1810.231393149766
 30
0.0
 10
819.2140140982179
 20
1810.236308834243
 30
0.0
 10
818.2561034848184
 20
1810.241797489507
 30
0.0
 10
817.012045246466
 20
1810.245235706431
 30
0.0
 10
816.0026568843292
 20
1810.245873562701
 30
0.0
 10
815.6664074431828
 20
1810.245878730039
 30
0.0
1001
REVIT
1002
{
1070
     3
1000
923885
1002
}
  0
SPLINE
  5
12E
330
108
100
AcDbEntity
  8
M-PIPE
100
AcDbSpline
210
0.0
220
0.0
230
1.0
 70
     8
 71
     3
 72
    11
 73
     7
 74
     0
 42
0.000000001
 43
0.0000000001
 40
0.0
 40
0.0
 40
0.0
 40
0.0
 40
0.2857142857142857
 40
0.5714285714285714
 40
0.7857142857142857
 40
1.0
 40
1.0
 40
1.0
 40
1.0
 10
815.6664074431828
 20
1810.245878730039
 30
0.0
 10
814.9939085608899
 20
1810.245868395364
 30
0.0
 10
813.6477510982659
 20
1810.244120903724
 30
0.0
 10
812.1636268164083
 20
1810.237343569389
 30
0.0
 10
811.3380888296841
 20
1810.228768175877
 30
0.0
 10
811.1664074431828
 20
1810.223075801692
 30
0.0
 10
811.1664074431828
 20
1810.220149130129
 30
0.0
1001
REVIT
1002
{
1070
     3
1000
923885
1002
}
  0
LINE
  5
12F
330
108
100
AcDbEntity
  8
P-SANR-FIXT
100
AcDbLine
 10
782.4929968973026
 20
1764.595878730053
 30
0.0
 11
783.73429997606
 21
1766.745878730053
 31
0.0
  0
LINE
  5
130
330
108
100
AcDbEntity
  8
P-SANR-FIXT
100
AcDbLine
 10
783.73429997606
 20
1810.745878730053
 30
0.0
 11
782.4929968973025
 21
1812.895878730053
 31
0.0
  0
LWPOLYLINE
  5
131
330
108
100
AcDbEntity
  8
P-SANR-FIXT
100
AcDbPolyline
 90
       28
 70
   128
 43
0.0
 10
785.4663507836289
 20
1767.745878730053
 10
785.3863721152557
 20
1767.744278943375
 10
785.3065213956906
 20
1767.739482142658
 10
785.226926369051
 20
1767.731496001761
 10
785.1477143704005
 20
1767.720333296805
 10
785.0690121220389
 20
1767.706011885736
 10
784.9909455307746
 20
1767.688554679757
 10
784.9136394865007
 20
1767.667989606675
 10
784.8372176623968
 20
1767.644349566218
 10
784.7618023170788
 20
1767.617672377409
 10
784.6875140990116
 20
1767.588000718059
 10
784.614471853497
 20
1767.555382056493
 10
784.5427924325461
 20
1767.519868575612
 10
784.4725905079415
 20
1767.481517089408
 10
784.4039783877873
 20
1767.44038895208
 10
784.337065836839
 20
1767.396549959872
 10
784.2719599009043
 20
1767.350070245822
 10
784.208764735592
 20
1767.301024167555
 10
784.1475814396861
 20
1767.249490188335
 10
784.0885078934079
 20
1767.195550751535
 10
784.0316386018299
 20
1767.139292148748
 10
783.9770645436872
 20
1767.080804381736
 10
783.9248730258311
 20
1767.02018101845
 10
783.8751475435564
 20
1766.95751904334
 10
783.827967647027
 20
1766.892918702198
 10
783.7834088140131
 20
1766.826483341789
 10
783.7415423291424
 20
1766.758319244519
 10
783.73429997606
 20
1766.745878730053
  0
LWPOLYLINE
  5
132
330
108
100
AcDbEntity
  8
P-SANR-FIXT
100
AcDbPolyline
 90
       28
 70
   128
 43
0.0
 10
783.73429997606
 20
1810.745878730053
 10
783.7756747661507
 20
1810.67741506482
 10
783.8197542772107
 20
1810.610660713525
 10
783.8664679914257
 20
1810.545722468889
 10
783.9157411768184
 20
1810.482704218251
 10
783.967495006803
 20
1810.421706777369
 10
784.0216466862913
 20
1810.362827729137
 10
784.0781095841486
 20
1810.306161267471
 10
784.1367933717823
 20
1810.251798046621
 10
784.1976041676514
 20
1810.199825036145
 10
784.2604446874548
 20
1810.150325381773
 10
784.3252143997655
 20
1810.10337827239
 10
784.3918096868612
 20
1810.059058813359
 10
784.4601240104883
 20
1810.017437906358
 10
784.5300480823022
 20
1809.978582135961
 10
784.6014700387045
 20
1809.942553663112
 10
784.6742756198003
 20
1809.909410125681
 10
784.7483483521914
 20
1809.879204546257
 10
784.823569735307
 20
1809.851985247325
 10
784.8998194309808
 20
1809.827795773957
 10
784.9769754559651
 20
1809.806674824149
 10
785.0549143770792
 20
1809.788656186916
 10
785.1335115086753
 20
1809.773768688233
 10
785.2126411121096
 20
1809.762036144922
 10
785.2921765968962
 20
1809.753477326551
 10
785.3719907232267
 20
1809.748105925403
 10
785.4519558055245
 20
1809.745930534573
 10
785.4663507836289
 20
1809.745878730053
  0
LINE
  5
133
330
108
100
AcDbEntity
  8
P-SANR-FIXT
100
AcDbLine
 10
785.4663507836289
 20
1767.745878730053
 30
0.0
 11
789.1936571225131
 21
1767.745878730053
 31
0.0
  0
LINE
  5
134
330
108
100
AcDbEntity
  8
P-SANR-FIXT
100
AcDbLine
 10
789.1936571225131
 20
1809.745878730053
 30
0.0
 11
785.4663507836289
 21
1809.745878730053
 31
0.0
  0
LWPOLYLINE
  5
135
330
108
100
AcDbEntity
  8
P-SANR-FIXT
100
AcDbPolyline
 90
        3
 70
   128
 43
0.0
 10
791.1924171854606
 20
1765.807867316226
 10
791.1920573358352
 20
1765.825857398426
 10
791.1881629739475
 20
1765.890685523952
  0
LWPOLYLINE
  5
136
330
108
100
AcDbEntity
  8
P-SANR-FIXT
100
AcDbPolyline
 90
       38
 70
   128
 43
0.0
 10
791.1765336579309
 20
1766.004751763953
 10
791.1681116892645
 20
1766.064515143282
 10
791.1537902781956
 20
1766.143217391643
 10
791.1363330722173
 20
1766.221283982908
 10
791.1157679991348
 20
1766.298590027181
 10
791.092127958678
 20
1766.375011851285
 10
791.0654507698691
 20
1766.450427196603
 10
791.0357791105188
 20
1766.52471541467
 10
791.003160448953
 20
1766.597757660185
 10
790.9676469680718
 20
1766.669437081136
 10
790.9292954818685
 20
1766.739639005741
 10
790.88816734454
 20
1766.808251125895
 10
790.8443283523326
 20
1766.875163676843
 10
790.7978486382818
 20
1766.940269612778
 10
790.7488025600152
 20
1767.00346477809
 10
790.6972685807951
 20
1767.064648073996
 10
790.6433291439951
 20
1767.123721620274
 10
790.5870705412076
 20
1767.180590911852
 10
790.5285827741957
 20
1767.235164969995
 10
790.4679594109104
 20
1767.287356487851
 10
790.4052974358001
 20
1767.337081970126
 10
790.3406970946581
 20
1767.384261866655
 10
790.2742617342495
 20
1767.428820699669
 10
790.2060976369788
 20
1767.47068718454
 10
790.1363138508608
 20
1767.509794343823
 10
790.0650220150667
 20
1767.546079614406
 10
789.9923361813257
 20
1767.579484947597
 10
789.9183726314666
 20
1767.609956901988
 10
789.8432496913908
 20
1767.637446728952
 10
789.767087541777
 20
1767.661910450632
 10
789.6900080258181
 20
1767.68330893029
 10
789.6121344542961
 20
1767.701607934924
 10
789.5335914083136
 20
1767.71677819003
 10
789.4545045399894
 20
1767.728795426436
 10
789.3750003714418
 20
1767.737640419128
 10
789.2952060923803
 20
1767.743299018004
 10
789.2152493566299
 20
1767.745762170513
 10
789.1936571225131
 20
1767.745878730053
  0
LWPOLYLINE
  5
137
330
108
100
AcDbEntity
  8
P-SANR-FIXT
100
AcDbPolyline
 90
       37
 70
   128
 43
0.0
 10
789.1936571225131
 20
1809.745878730053
 10
789.2736357908865
 20
1809.747478516731
 10
789.3534865104515
 20
1809.752275317448
 10
789.4330815370909
 20
1809.760261458346
 10
789.5122935357418
 20
1809.771424163302
 10
789.5909957841033
 20
1809.785745574371
 10
789.6690623753676
 20
1809.803202780349
 10
789.7463684196414
 20
1809.823767853432
 10
789.8227902437455
 20
1809.847407893888
 10
789.8982055890634
 20
1809.874085082697
 10
789.9724938071305
 20
1809.903756742048
 10
790.0455360526453
 20
1809.936375403614
 10
790.1172154735962
 20
1809.971888884495
 10
790.1874173982008
 20
1810.010240370698
 10
790.256029518355
 20
1810.051368508026
 10
790.3229420693032
 20
1810.095207500234
 10
790.388048005238
 20
1810.141687214285
 10
790.4512431705501
 20
1810.190733292551
 10
790.5124264664562
 20
1810.242267271772
 10
790.5715000127343
 20
1810.296206708571
 10
790.6283693043122
 20
1810.352465311359
 10
790.682943362455
 20
1810.410953078371
 10
790.7351348803111
 20
1810.471576441656
 10
790.7848603625859
 20
1810.534238416766
 10
790.8320402591153
 20
1810.598838757908
 10
790.876599092129
 20
1810.665274118317
 10
790.9184655769998
 20
1810.733438215588
 10
790.9575727362833
 20
1810.803222001706
 10
790.9938580068662
 20
1810.8745138375
 10
791.0272633400568
 20
1810.947199671241
 10
791.0577352944476
 20
1811.0211632211
 10
791.0852251214123
 20
1811.096286161176
 10
791.1096888430916
 20
1811.172448310789
 10
791.1310873227498
 20
1811.249527826748
 10
791.1493863273839
 20
1811.32740139827
 10
791.1645565824901
 20
1811.405944444253
 10
791.1765738188965
 20
1811.485031312577
  0
LWPOLYLINE
  5
138
330
108
100
AcDbEntity
  8
P-SANR-FIXT
100
AcDbPolyline
 90
        4
 70
   128
 43
0.0
 10
791.1879184222495
 20
1811.599783540761
 10
791.1910774104645
 20
1811.644329760186
 10
791.1935405629731
 20
1811.724286495937
 10
791.1936571225132
 20
1811.745878730053
  0
LINE
  5
139
330
108
100
AcDbEntity
  8
P-SANR-FIXT
100
AcDbLine
 10
791.1936571225132
 20
1764.131060276088
 30
0.0
 11
799.5691525918172
 21
1768.986282358853
 31
0.0
  0
LINE
  5
13A
330
108
100
AcDbEntity
  8
P-SANR-FIXT
100
AcDbLine
 10
799.5691525918167
 20
1808.505475101254
 30
0.0
 11
791.1936571225132
 21
1813.360697184019
 31
0.0
  0
LINE
  5
13B
330
108
100
AcDbEntity
  8
P-SANR-FIXT
100
AcDbLine
 10
782.4929968973009
 20
1773.878184499911
 30
0.0
 11
782.4929968973009
 21
1776.594692430267
 31
0.0
  0
LINE
  5
13C
330
108
100
AcDbEntity
  8
P-SANR-FIXT
100
AcDbLine
 10
782.4929968973009
 20
1800.897065030568
 30
0.0
 11
782.4929968973009
 21
1803.613572960328
 31
0.0
  0
LINE
  5
13D
330
108
100
AcDbEntity
  8
P-SANR-FIXT
100
AcDbLine
 10
791.1936571225116
 20
1764.131060276087
 30
0.0
 11
791.1936571225116
 21
1781.639587053899
 31
0.0
  0
LINE
  5
13E
330
108
100
AcDbEntity
  8
P-SANR-FIXT
100
AcDbLine
 10
791.1936571225116
 20
1795.852170406205
 30
0.0
 11
791.1936571225116
 21
1813.360697184018
 31
0.0
  0
LINE
  5
13F
330
108
100
AcDbEntity
  8
P-SANR-FIXT
100
AcDbLine
 10
781.1921298406284
 20
1815.745878730081
 30
0.0
 11
765.7836655018108
 21
1815.745878730081
 31
0.0
  0
LINE
  5
140
330
108
100
AcDbEntity
  8
P-SANR-FIXT
100
AcDbLine
 10
765.7836655017481
 20
1761.745878730143
 30
0.0
 11
781.1921298406912
 21
1761.745878730143
 31
0.0
  0
LINE
  5
141
330
108
100
AcDbEntity
  8
P-SANR-FIXT
100
AcDbLine
 10
762.4929968972414
 20
1765.192322816289
 30
0.0
 11
764.4828694206662
 21
1761.74573600416
 31
0.0
  0
LINE
  5
142
330
108
100
AcDbEntity
  8
P-SANR-FIXT
100
AcDbLine
 10
764.4828694207342
 20
1815.746021456065
 30
0.0
 11
762.4929968972414
 21
1812.299434643817
 31
0.0
  0
LINE
  5
143
330
108
100
AcDbEntity
  8
P-SANR-FIXT
100
AcDbLine
 10
727.6664074431526
 20
1769.295878730101
 30
0.0
 11
729.1664074431528
 21
1767.7958787301
 31
0.0
  0
LINE
  5
144
330
108
100
AcDbEntity
  8
P-SANR-FIXT
100
AcDbLine
 10
729.1664074431528
 20
1809.695878730006
 30
0.0
 11
727.6664074431526
 21
1808.195878730006
 31
0.0
  0
LINE
  5
145
330
108
100
AcDbEntity
  8
P-SANR-FIXT
100
AcDbLine
 10
729.1664074431528
 20
1767.7958787301
 30
0.0
 11
762.4929968972414
 21
1767.7958787301
 31
0.0
  0
LINE
  5
146
330
108
100
AcDbEntity
  8
P-SANR-FIXT
100
AcDbLine
 10
762.4929968972414
 20
1809.695878730006
 30
0.0
 11
729.1664074431528
 21
1809.695878730006
 31
0.0
  0
LWPOLYLINE
  5
147
330
108
100
AcDbEntity
  8
P-SANR-FIXT
100
AcDbPolyline
 90
       80
 70
   128
 43
0.0
 10
790.916407443186
 20
1788.745878730053
 10
790.9362048033268
 20
1787.756142708934
 10
790.9955652121961
 20
1786.767990054316
 10
791.0943937058029
 20
1785.783001599652
 10
791.2325321796393
 20
1784.80275311635
 10
791.4097596416154
 20
1783.828812792875
 10
791.6257925655984
 20
1782.86273872598
 10
791.8802853449947
 20
1781.90607642809
 10
792.1728308456459
 20
1780.960356354803
 10
792.5029610571573
 20
1780.027091456493
 10
792.8701478416148
 20
1779.107774757913
 10
793.2738037784923
 20
1778.203876969668
 10
793.7132831043992
 20
1777.3168441354
 10
794.1878827461646
 20
1776.448095318419
 10
794.6968434456045
 20
1775.599020331509
 10
795.2393509741721
 20
1774.770977513524
 10
795.8145374355503
 20
1773.965291556332
 10
796.4214826541014
 20
1773.183251385594
 10
797.0592156469498
 20
1772.426108098757
 10
797.7267161773497
 20
1771.695072963564
 10
798.4229163868446
 20
1770.991315480287
 10
799.146702503615
 20
1770.315961510772
 10
799.8969166242725
 20
1769.670091477301
 10
800.6723585662617
 20
1769.05473863415
 10
801.4717877878943
 20
1768.470887414601
 10
802.2939253729512
 20
1767.919471856055
 10
803.1374560766764
 20
1767.401374105778
 10
804.0010304298878
 20
1766.917423009648
 10
804.8832668978393
 20
1766.468392786182
 10
805.7827540903829
 20
1766.055001787949
 10
806.6980530198906
 20
1765.677911352361
 10
807.6276994033287
 20
1765.337724743674
 10
808.5702060047978
 20
1765.034986187892
 10
809.5240650147925
 20
1764.770180002123
 10
810.4877504623761
 20
1764.543729819776
 10
811.4597206564079
 20
1764.355997912835
 10
812.4384206519199
 20
1764.207284612306
 10
813.4222847376975
 20
1764.097827827743
 10
814.4097389410832
 20
1764.027802666654
 10
815.3992035459975
 20
1763.997321154358
 10
816.3890956201466
 20
1764.006432054773
 10
817.3778315473779
 20
1764.0551207924
 10
818.3638295611267
 20
1764.143309475647
 10
819.345512274906
 20
1764.270857021433
 10
820.321309205789
 20
1764.437559380894
 10
821.2896592868441
 20
1764.643149865815
 10
822.2490133645125
 20
1764.887299575277
 10
823.1978366769215
 20
1765.169617921828
 10
824.1346113091754
 20
1765.489653256338
 10
825.0578386216977
 20
1765.846893590543
 10
825.9660416477325
 20
1766.240767416114
 10
826.8577674561784
 20
1766.670644618954
 10
827.7315894759667
 20
1767.135837487239
 10
828.5861097782701
 20
1767.635601811617
 10
829.419961312894
 20
1768.169138075778
 10
830.2318100952613
 20
1768.735592735516
 10
831.0203573405054
 20
1769.334059584211
 10
831.7843415412484
 20
1769.963581202573
 10
832.5225404857437
 20
1770.623150490302
 10
833.2337732131543
 20
1771.311712277239
 10
833.9169019028377
 20
1772.02816501141
 10
834.570833694617
 20
1772.771362521275
 10
835.1945224371231
 20
1773.54011584936
 10
835.7869703614143
 20
1774.33319515433
 10
836.3472296771945
 20
1775.14933167848
 10
836.8744040890739
 20
1775.98721977747
 10
837.367650230451
 20
1776.845519009083
 10
837.8261790127199
 20
1777.722856277641
 10
838.2492568876436
 20
1778.617828030669
 10
838.6362070208733
 20
1779.529002504282
 10
838.9864103747418
 20
1780.454922013694
 10
839.2993066985884
 20
1781.394105285208
 10
839.5743954250425
 20
1782.34504982594
 10
839.8112364708243
 20
1783.306234327481
 10
840.0094509407843
 20
1784.276121099671
 10
840.1687217340537
 20
1785.253158530571
 10
840.2887940513394
 20
1786.235783568717
 10
840.3694758025475
 20
1787.222424223663
 10
840.4106379140877
 20
1788.211502080832
 10
840.4164074431927
 20
1788.745878730053
  0
LWPOLYLINE
  5
148
330
108
100
AcDbEntity
  8
P-SANR-FIXT
100
AcDbPolyline
 90
       80
 70
   128
 43
0.0
 10
840.4164074431927
 20
1788.745878730054
 10
840.3966100830519
 20
1789.735614751173
 10
840.3372496741825
 20
1790.723767405791
 10
840.2384211805758
 20
1791.708755860454
 10
840.1002827067394
 20
1792.689004343756
 10
839.9230552447631
 20
1793.662944667232
 10
839.7070223207803
 20
1794.629018734126
 10
839.452529541384
 20
1795.585681032016
 10
839.1599840407328
 20
1796.531401105303
 10
838.8298538292215
 20
1797.464666003613
 10
838.4626670447635
 20
1798.383982702194
 10
838.0590111078863
 20
1799.287880490438
 10
837.6195317819794
 20
1800.174913324706
 10
837.144932140214
 20
1801.043662141688
 10
836.6359714407741
 20
1801.892737128597
 10
836.0934639122065
 20
1802.720779946582
 10
835.518277450828
 20
1803.526465903775
 10
834.9113322322772
 20
1804.308506074512
 10
834.2735992394288
 20
1805.06564936135
 10
833.606098709029
 20
1805.796684496542
 10
832.909898499534
 20
1806.500441979819
 10
832.1861123827638
 20
1807.175795949335
 10
831.4358982621062
 20
1807.821665982805
 10
830.6604563201169
 20
1808.437018825956
 10
829.8610270984845
 20
1809.020870045506
 10
829.0388895134276
 20
1809.572285604051
 10
828.1953588097023
 20
1810.090383354329
 10
827.3317844564909
 20
1810.574334450459
 10
826.4495479885393
 20
1811.023364673925
 10
825.5500607959957
 20
1811.436755672158
 10
824.6347618664881
 20
1811.813846107745
 10
823.7051154830499
 20
1812.154032716433
 10
822.7626088815812
 20
1812.456771272215
 10
821.8087498715863
 20
1812.721577457983
 10
820.8450644240025
 20
1812.948027640331
 10
819.8730942299706
 20
1813.135759547271
 10
818.8943942344586
 20
1813.284472847801
 10
817.910530148681
 20
1813.393929632363
 10
816.9230759452952
 20
1813.463954793452
 10
815.9336113403814
 20
1813.494436305748
 10
814.9437192662324
 20
1813.485325405334
 10
813.954983339001
 20
1813.436636667706
 10
812.9689853252521
 20
1813.348447984459
 10
811.9873026114724
 20
1813.220900438673
 10
811.0115056805897
 20
1813.054198079212
 10
810.0431555995346
 20
1812.848607594292
 10
809.0838015218661
 20
1812.60445788483
 10
808.1349782094573
 20
1812.322139538278
 10
807.1982035772032
 20
1812.002104203768
 10
806.2749762646811
 20
1811.644863869563
 10
805.3667732386459
 20
1811.250990043992
 10
804.4750474302002
 20
1810.821112841152
 10
803.6012254104122
 20
1810.355919972867
 10
802.7467051081083
 20
1809.85615564849
 10
801.9128535734846
 20
1809.322619384328
 10
801.1010047911174
 20
1808.75616472459
 10
800.3124575458734
 20
1808.157697875895
 10
799.5484733451302
 20
1807.528176257534
 10
798.8102744006348
 20
1806.868606969804
 10
798.0990416732244
 20
1806.180045182867
 10
797.415912983541
 20
1805.463592448696
 10
796.7619811917617
 20
1804.720394938831
 10
796.1382924492558
 20
1803.951641610746
 10
795.5458445249643
 20
1803.158562305776
 10
794.985585209184
 20
1802.342425781626
 10
794.4584107973049
 20
1801.504537682636
 10
793.9651646559278
 20
1800.646238451023
 10
793.5066358736588
 20
1799.768901182465
 10
793.0835579987353
 20
1798.873929429437
 10
792.6966078655051
 20
1797.962754955824
 10
792.3464045116368
 20
1797.036835446413
 10
792.0335081877905
 20
1796.097652174898
 10
791.7584194613362
 20
1795.146707634167
 10
791.5215784155543
 20
1794.185523132625
 10
791.3233639455945
 20
1793.215636360436
 10
791.1640931523251
 20
1792.238598929535
 10
791.0440208350394
 20
1791.255973891389
 10
790.9633390838312
 20
1790.269333236444
 10
790.922176972291
 20
1789.280255379274
 10
790.916407443186
 20
1788.745878730053
  0
ARC
  5
149
330
108
100
AcDbEntity
  8
P-SANR-FIXT
100
AcDbCircle
 10
815.6664074431878
 20
1788.745878730052
 30
0.0
 40
25.49999999999976
100
AcDbArc
 50
180.0000000000001
 51
0.0000000000001527
  0
ARC
  5
14A
330
108
100
AcDbEntity
  8
P-SANR-FIXT
100
AcDbCircle
 10
815.6664074431878
 20
1788.745878730052
 30
0.0
 40
25.49999999999994
100
AcDbArc
 50
0.0000000000006361
 51
180.0000000000001
  0
LINE
  5
14B
330
108
100
AcDbEntity
  8
P-SANR-FIXT
100
AcDbLine
 10
762.4929968972398
 20
1765.192322816288
 30
0.0
 11
762.4929968972398
 21
1788.745878730052
 31
0.0
  0
LINE
  5
14C
330
108
100
AcDbEntity
  8
P-SANR-FIXT
100
AcDbLine
 10
762.4929968972398
 20
1788.745878730052
 30
0.0
 11
762.4929968972398
 21
1812.299434643817
 31
0.0
  0
ARC
  5
14D
330
108
100
AcDbEntity
  8
P-SANR-FIXT
100
AcDbCircle
 10
815.6664074431878
 20
1788.745878730052
 30
0.0
 40
25.00000000000005
100
AcDbArc
 50
179.9999999999998
 51
359.999999999999
  0
ARC
  5
14E
330
108
100
AcDbEntity
  8
P-SANR-FIXT
100
AcDbCircle
 10
815.6664074431878
 20
1788.745878730052
 30
0.0
 40
24.75000000000328
100
AcDbArc
 50
354.9999999999998
 51
355.4989141705204
  0
ARC
  5
14F
330
108
100
AcDbEntity
  8
P-SANR-FIXT
100
AcDbCircle
 10
815.6664074431878
 20
1788.745878730052
 30
0.0
 40
24.75000000000329
100
AcDbArc
 50
349.9999999999996
 51
350.9950993195393
  0
ARC
  5
150
330
108
100
AcDbEntity
  8
P-SANR-FIXT
100
AcDbCircle
 10
815.6664074431878
 20
1788.745878730052
 30
0.0
 40
24.7500000000034
100
AcDbArc
 50
345.0000000000002
 51
346.4895751335277
  0
LINE
  5
151
330
108
100
AcDbEntity
  8
P-SANR-FIXT
100
AcDbLine
 10
838.9237998076422
 20
1780.280880182741
 30
0.0
 11
838.9149564787192
 21
1780.256622711846
 31
0.0
  0
ARC
  5
152
330
108
100
AcDbEntity
  8
P-SANR-FIXT
100
AcDbCircle
 10
815.6664074431878
 20
1788.745878730052
 30
0.0
 40
24.75000000000324
100
AcDbArc
 50
334.9999999999996
 51
335.3903375937637
  0
ARC
  5
153
330
108
100
AcDbEntity
  8
P-SANR-FIXT
100
AcDbCircle
 10
815.6664074431878
 20
1788.745878730052
 30
0.0
 40
24.75000000000328
100
AcDbArc
 50
328.4710753991526
 51
329.9999999999995
  0
ARC
  5
154
330
108
100
AcDbEntity
  8
P-SANR-FIXT
100
AcDbCircle
 10
815.6664074431878
 20
1788.745878730052
 30
0.0
 40
24.75000000000337
100
AcDbArc
 50
323.9735171897347
 51
324.9999999999996
  0
ARC
  5
155
330
108
100
AcDbEntity
  8
P-SANR-FIXT
100
AcDbCircle
 10
815.6664074431878
 20
1788.745878730052
 30
0.0
 40
24.75000000000321
100
AcDbArc
 50
319.4822353515823
 51
319.9999999999997
  0
ARC
  5
156
330
108
100
AcDbEntity
  8
P-SANR-FIXT
100
AcDbCircle
 10
815.6664074431878
 20
1788.745878730052
 30
0.0
 40
24.75000000000335
100
AcDbArc
 50
309.9999999999993
 51
310.5177646484174
  0
ARC
  5
157
330
108
100
AcDbEntity
  8
P-SANR-FIXT
100
AcDbCircle
 10
815.6664074431878
 20
1788.745878730052
 30
0.0
 40
24.75000000000332
100
AcDbArc
 50
304.9999999999995
 51
306.0264828102645
  0
ARC
  5
158
330
108
100
AcDbEntity
  8
P-SANR-FIXT
100
AcDbCircle
 10
815.6664074431878
 20
1788.745878730052
 30
0.0
 40
24.75000000000333
100
AcDbArc
 50
299.9999999999997
 51
301.5289246008465
  0
ARC
  5
159
330
108
100
AcDbEntity
  8
P-SANR-FIXT
100
AcDbCircle
 10
815.6664074431878
 20
1788.745878730052
 30
0.0
 40
24.75000000000326
100
AcDbArc
 50
294.7592780070443
 51
294.9999999999995
  0
ARC
  5
15A
330
108
100
AcDbEntity
  8
P-SANR-FIXT
100
AcDbCircle
 10
815.6664074431878
 20
1788.745878730052
 30
0.0
 40
24.75000000000327
100
AcDbArc
 50
288.0166638628845
 51
292.5225954302076
  0
ARC
  5
15B
330
108
100
AcDbEntity
  8
P-SANR-FIXT
100
AcDbCircle
 10
815.6664074431878
 20
1788.745878730052
 30
0.0
 40
24.75000000000338
100
AcDbArc
 50
283.5104248664713
 51
284.9999999999996
  0
ARC
  5
15C
330
108
100
AcDbEntity
  8
P-SANR-FIXT
100
AcDbCircle
 10
815.6664074431878
 20
1788.745878730052
 30
0.0
 40
24.75000000000335
100
AcDbArc
 50
279.0049006804602
 51
279.9999999999994
  0
ARC
  5
15D
330
108
100
AcDbEntity
  8
P-SANR-FIXT
100
AcDbCircle
 10
815.6664074431878
 20
1788.745878730052
 30
0.0
 40
24.75000000000334
100
AcDbArc
 50
274.5010858294791
 51
274.9999999999998
  0
ARC
  5
15E
330
108
100
AcDbEntity
  8
P-SANR-FIXT
100
AcDbCircle
 10
815.6664074431878
 20
1788.745878730052
 30
0.0
 40
24.75000000000339
100
AcDbArc
 50
264.9999999999998
 51
265.4989141705205
  0
ARC
  5
15F
330
108
100
AcDbEntity
  8
P-SANR-FIXT
100
AcDbCircle
 10
815.6664074431878
 20
1788.745878730052
 30
0.0
 40
24.75000000000329
100
AcDbArc
 50
259.9999999999996
 51
260.9950993195393
  0
ARC
  5
160
330
108
100
AcDbEntity
  8
P-SANR-FIXT
100
AcDbCircle
 10
815.6664074431878
 20
1788.745878730052
 30
0.0
 40
24.75000000000335
100
AcDbArc
 50
254.9999999999995
 51
256.4895751335281
  0
ARC
  5
161
330
108
100
AcDbEntity
  8
P-SANR-FIXT
100
AcDbCircle
 10
815.6664074431878
 20
1788.745878730052
 30
0.0
 40
24.75000000000343
100
AcDbArc
 50
247.4774045697919
 51
251.9833361371146
  0
ARC
  5
162
330
108
100
AcDbEntity
  8
P-SANR-FIXT
100
AcDbCircle
 10
815.6664074431878
 20
1788.745878730052
 30
0.0
 40
24.75000000000344
100
AcDbArc
 50
244.9999999999996
 51
245.2407219930508
  0
ARC
  5
163
330
108
100
AcDbEntity
  8
P-SANR-FIXT
100
AcDbCircle
 10
815.6664074431878
 20
1788.745878730052
 30
0.0
 40
24.75000000000348
100
AcDbArc
 50
238.4710753991536
 51
239.9999999999997
  0
ARC
  5
164
330
108
100
AcDbEntity
  8
P-SANR-FIXT
100
AcDbCircle
 10
815.6664074431878
 20
1788.745878730052
 30
0.0
 40
24.75000000000337
100
AcDbArc
 50
233.9735171897353
 51
234.9999999999996
  0
ARC
  5
165
330
108
100
AcDbEntity
  8
P-SANR-FIXT
100
AcDbCircle
 10
815.6664074431878
 20
1788.745878730052
 30
0.0
 40
24.75000000000346
100
AcDbArc
 50
229.4822353515819
 51
229.9999999999998
  0
ARC
  5
166
330
108
100
AcDbEntity
  8
P-SANR-FIXT
100
AcDbCircle
 10
815.6664074431878
 20
1788.745878730052
 30
0.0
 40
24.75000000000335
100
AcDbArc
 50
219.9999999999997
 51
220.5177646484172
  0
ARC
  5
167
330
108
100
AcDbEntity
  8
P-SANR-FIXT
100
AcDbCircle
 10
815.6664074431878
 20
1788.745878730052
 30
0.0
 40
24.75000000000339
100
AcDbArc
 50
214.9999999999998
 51
216.0264828102643
  0
ARC
  5
168
330
108
100
AcDbEntity
  8
P-SANR-FIXT
100
AcDbCircle
 10
815.6664074431878
 20
1788.745878730052
 30
0.0
 40
24.75000000000343
100
AcDbArc
 50
210.0000000000001
 51
211.5289246008465
  0
ARC
  5
169
330
108
100
AcDbEntity
  8
P-SANR-FIXT
100
AcDbCircle
 10
815.6664074431878
 20
1788.745878730052
 30
0.0
 40
24.75000000000336
100
AcDbArc
 50
204.6096624052188
 51
204.9999999999997
  0
LINE
  5
16A
330
108
100
AcDbEntity
  8
P-SANR-FIXT
100
AcDbLine
 10
792.4178584075179
 20
1780.256622712225
 30
0.0
 11
792.4090150787334
 21
1780.280880182741
 31
0.0
  0
ARC
  5
16B
330
108
100
AcDbEntity
  8
P-SANR-FIXT
100
AcDbCircle
 10
815.6664074431878
 20
1788.745878730052
 30
0.0
 40
24.75000000000341
100
AcDbArc
 50
193.5104248664718
 51
194.9999999999997
  0
ARC
  5
16C
330
108
100
AcDbEntity
  8
P-SANR-FIXT
100
AcDbCircle
 10
815.6664074431878
 20
1788.745878730052
 30
0.0
 40
24.75000000000339
100
AcDbArc
 50
189.00490068046
 51
189.9999999999997
  0
ARC
  5
16D
330
108
100
AcDbEntity
  8
P-SANR-FIXT
100
AcDbCircle
 10
815.6664074431878
 20
1788.745878730052
 30
0.0
 40
24.75000000000334
100
AcDbArc
 50
184.5010858294788
 51
184.9999999999995
  0
ARC
  5
16E
330
108
100
AcDbEntity
  8
P-SANR-FIXT
100
AcDbCircle
 10
815.6664074431878
 20
1788.745878730052
 30
0.0
 40
25.00000000000005
100
AcDbArc
 50
0.0000000000003944
 51
179.9999999999998
  0
ARC
  5
16F
330
108
100
AcDbEntity
  8
P-SANR-FIXT
100
AcDbCircle
 10
815.6664074431878
 20
1788.745878730052
 30
0.0
 40
24.75000000000339
100
AcDbArc
 50
175.0
 51
175.4989141705213
  0
ARC
  5
170
330
108
100
AcDbEntity
  8
P-SANR-FIXT
100
AcDbCircle
 10
815.6664074431878
 20
1788.745878730052
 30
0.0
 40
24.75000000000326
100
AcDbArc
 50
170.0
 51
170.9950993195402
  0
ARC
  5
171
330
108
100
AcDbEntity
  8
P-SANR-FIXT
100
AcDbCircle
 10
815.6664074431878
 20
1788.745878730052
 30
0.0
 40
24.75000000000335
100
AcDbArc
 50
165.0
 51
166.489575133528
  0
LINE
  5
172
330
108
100
AcDbEntity
  8
P-SANR-FIXT
100
AcDbLine
 10
792.4090150787334
 20
1797.210877277364
 30
0.0
 11
792.4178584077769
 21
1797.235134748589
 31
0.0
  0
ARC
  5
173
330
108
100
AcDbEntity
  8
P-SANR-FIXT
100
AcDbCircle
 10
815.6664074431878
 20
1788.745878730052
 30
0.0
 40
24.75000000000334
100
AcDbArc
 50
155.0
 51
155.3903375928773
  0
ARC
  5
174
330
108
100
AcDbEntity
  8
P-SANR-FIXT
100
AcDbCircle
 10
815.6664074431878
 20
1788.745878730052
 30
0.0
 40
24.75000000000336
100
AcDbArc
 50
148.4710753991536
 51
150.0000000000002
  0
ARC
  5
175
330
108
100
AcDbEntity
  8
P-SANR-FIXT
100
AcDbCircle
 10
815.6664074431878
 20
1788.745878730052
 30
0.0
 40
24.75000000000324
100
AcDbArc
 50
143.9735171897356
 51
145.0000000000004
  0
ARC
  5
176
330
108
100
AcDbEntity
  8
P-SANR-FIXT
100
AcDbCircle
 10
815.6664074431878
 20
1788.745878730052
 30
0.0
 40
24.75000000000339
100
AcDbArc
 50
139.4822353515821
 51
140.0000000000002
  0
ARC
  5
177
330
108
100
AcDbEntity
  8
P-SANR-FIXT
100
AcDbCircle
 10
815.6664074431878
 20
1788.745878730052
 30
0.0
 40
24.75000000000334
100
AcDbArc
 50
130.0000000000004
 51
130.517764648418
  0
ARC
  5
178
330
108
100
AcDbEntity
  8
P-SANR-FIXT
100
AcDbCircle
 10
815.6664074431878
 20
1788.745878730052
 30
0.0
 40
24.75000000000332
100
AcDbArc
 50
125.0000000000002
 51
126.0264828102647
  0
ARC
  5
179
330
108
100
AcDbEntity
  8
P-SANR-FIXT
100
AcDbCircle
 10
815.6664074431878
 20
1788.745878730052
 30
0.0
 40
24.75000000000323
100
AcDbArc
 50
120.0000000000003
 51
121.528924600847
  0
ARC
  5
17A
330
108
100
AcDbEntity
  8
P-SANR-FIXT
100
AcDbCircle
 10
815.6664074431878
 20
1788.745878730052
 30
0.0
 40
24.75000000000336
100
AcDbArc
 50
114.7592780062302
 51
115.0000000000004
  0
ARC
  5
17B
330
108
100
AcDbEntity
  8
P-SANR-FIXT
100
AcDbCircle
 10
815.6664074431878
 20
1788.745878730052
 30
0.0
 40
24.75000000000332
100
AcDbArc
 50
108.0166638628855
 51
112.5225954302081
  0
ARC
  5
17C
330
108
100
AcDbEntity
  8
P-SANR-FIXT
100
AcDbCircle
 10
815.6664074431878
 20
1788.745878730052
 30
0.0
 40
24.7500000000033
100
AcDbArc
 50
103.5104248664722
 51
105.0000000000003
  0
ARC
  5
17D
330
108
100
AcDbEntity
  8
P-SANR-FIXT
100
AcDbCircle
 10
815.6664074431878
 20
1788.745878730052
 30
0.0
 40
24.7500000000033
100
AcDbArc
 50
99.00490068046083
 51
100.0000000000006
  0
ARC
  5
17E
330
108
100
AcDbEntity
  8
P-SANR-FIXT
100
AcDbCircle
 10
815.6664074431878
 20
1788.745878730052
 30
0.0
 40
24.75000000000334
100
AcDbArc
 50
94.50108582947944
 51
95.00000000000044
  0
ARC
  5
17F
330
108
100
AcDbEntity
  8
P-SANR-FIXT
100
AcDbCircle
 10
815.6664074431878
 20
1788.745878730052
 30
0.0
 40
24.75000000000328
100
AcDbArc
 50
85.00000000000063
 51
85.49891417052082
  0
ARC
  5
180
330
108
100
AcDbEntity
  8
P-SANR-FIXT
100
AcDbCircle
 10
815.6664074431878
 20
1788.745878730052
 30
0.0
 40
24.75000000000337
100
AcDbArc
 50
80.00000000000047
 51
80.99509931954024
  0
ARC
  5
181
330
108
100
AcDbEntity
  8
P-SANR-FIXT
100
AcDbCircle
 10
815.6664074431878
 20
1788.745878730052
 30
0.0
 40
24.75000000000335
100
AcDbArc
 50
75.00000000000035
 51
76.48957513352854
  0
ARC
  5
182
330
108
100
AcDbEntity
  8
P-SANR-FIXT
100
AcDbCircle
 10
815.6664074431878
 20
1788.745878730052
 30
0.0
 40
24.75000000000329
100
AcDbArc
 50
69.67776509411263
 51
70.00000000000056
  0
ARC
  5
183
330
108
100
AcDbEntity
  8
P-SANR-FIXT
100
AcDbCircle
 10
815.6664074431878
 20
1788.745878730052
 30
0.0
 40
24.75000000000329
100
AcDbArc
 50
62.97289136270647
 51
67.47740456979276
  0
ARC
  5
184
330
108
100
AcDbEntity
  8
P-SANR-FIXT
100
AcDbCircle
 10
815.6664074431878
 20
1788.745878730052
 30
0.0
 40
24.75000000000326
100
AcDbArc
 50
58.47107539915338
 51
60.00000000000041
  0
ARC
  5
185
330
108
100
AcDbEntity
  8
P-SANR-FIXT
100
AcDbCircle
 10
815.6664074431878
 20
1788.745878730052
 30
0.0
 40
24.75000000000333
100
AcDbArc
 50
53.97351718973573
 51
55.00000000000046
  0
ARC
  5
186
330
108
100
AcDbEntity
  8
P-SANR-FIXT
100
AcDbCircle
 10
815.6664074431878
 20
1788.745878730052
 30
0.0
 40
24.75000000000333
100
AcDbArc
 50
49.48223535158303
 51
50.00000000000075
  0
ARC
  5
187
330
108
100
AcDbEntity
  8
P-SANR-FIXT
100
AcDbCircle
 10
815.6664074431878
 20
1788.745878730052
 30
0.0
 40
24.75000000000334
100
AcDbArc
 50
40.00000000000098
 51
40.51776464841833
  0
ARC
  5
188
330
108
100
AcDbEntity
  8
P-SANR-FIXT
100
AcDbCircle
 10
815.6664074431878
 20
1788.745878730052
 30
0.0
 40
24.75000000000332
100
AcDbArc
 50
35.00000000000046
 51
36.02648281026482
  0
ARC
  5
189
330
108
100
AcDbEntity
  8
P-SANR-FIXT
100
AcDbCircle
 10
815.6664074431878
 20
1788.745878730052
 30
0.0
 40
24.75000000000329
100
AcDbArc
 50
30.0000000000005
 51
31.52892460084696
  0
ARC
  5
18A
330
108
100
AcDbEntity
  8
P-SANR-FIXT
100
AcDbCircle
 10
815.6664074431878
 20
1788.745878730052
 30
0.0
 40
24.75000000000341
100
AcDbArc
 50
24.60966240406543
 51
25.0000000000007
  0
LINE
  5
18B
330
108
100
AcDbEntity
  8
P-SANR-FIXT
100
AcDbLine
 10
838.9149564790153
 20
1797.235134747448
 30
0.0
 11
838.9237998076421
 21
1797.210877277364
 31
0.0
  0
ARC
  5
18C
330
108
100
AcDbEntity
  8
P-SANR-FIXT
100
AcDbCircle
 10
815.6664074431878
 20
1788.745878730052
 30
0.0
 40
24.75000000000333
100
AcDbArc
 50
13.51042486647256
 51
15.00000000000057
  0
ARC
  5
18D
330
108
100
AcDbEntity
  8
P-SANR-FIXT
100
AcDbCircle
 10
815.6664074431878
 20
1788.745878730052
 30
0.0
 40
24.75000000000332
100
AcDbArc
 50
9.004900680460837
 51
10.0000000000006
  0
ARC
  5
18E
330
108
100
AcDbEntity
  8
P-SANR-FIXT
100
AcDbCircle
 10
815.6664074431878
 20
1788.745878730052
 30
0.0
 40
24.75000000000335
100
AcDbArc
 50
4.501085829479739
 51
5.000000000000461
  0
ARC
  5
18F
330
108
100
AcDbEntity
  8
P-SANR-FIXT
100
AcDbCircle
 10
815.6664074431878
 20
1788.745878730052
 30
0.0
 40
25.49999999999995
100
AcDbArc
 50
184.4999999999993
 51
185.0018881210081
  0
ARC
  5
190
330
108
100
AcDbEntity
  8
P-SANR-FIXT
100
AcDbCircle
 10
815.6664074431878
 20
1788.745878730052
 30
0.0
 40
25.4999999999999
100
AcDbArc
 50
188.9999999999993
 51
190.0058538208408
  0
ARC
  5
191
330
108
100
AcDbEntity
  8
P-SANR-FIXT
100
AcDbCircle
 10
815.6664074431878
 20
1788.745878730052
 30
0.0
 40
25.49999999999994
100
AcDbArc
 50
193.4999999999993
 51
211.4999999999997
  0
ARC
  5
192
330
108
100
AcDbEntity
  8
P-SANR-FIXT
100
AcDbCircle
 10
815.6664074431878
 20
1788.745878730052
 30
0.0
 40
25.49999999999984
100
AcDbArc
 50
215.0206323201572
 51
215.9999999999991
  0
ARC
  5
193
330
108
100
AcDbEntity
  8
P-SANR-FIXT
100
AcDbCircle
 10
815.6664074431878
 20
1788.745878730052
 30
0.0
 40
25.49999999999985
100
AcDbArc
 50
220.0139374822043
 51
220.4999999999994
  0
ARC
  5
194
330
108
100
AcDbEntity
  8
P-SANR-FIXT
100
AcDbCircle
 10
815.6664074431878
 20
1788.745878730052
 30
0.0
 40
25.49999999999998
100
AcDbArc
 50
229.4999999999996
 51
229.9860625177943
  0
ARC
  5
195
330
108
100
AcDbEntity
  8
P-SANR-FIXT
100
AcDbCircle
 10
815.6664074431878
 20
1788.745878730052
 30
0.0
 40
25.49999999999994
100
AcDbArc
 50
233.9999999999995
 51
234.9793676798418
  0
ARC
  5
196
330
108
100
AcDbEntity
  8
P-SANR-FIXT
100
AcDbCircle
 10
815.6664074431878
 20
1788.745878730052
 30
0.0
 40
25.49999999999991
100
AcDbArc
 50
238.4999999999993
 51
256.4999999999995
  0
ARC
  5
197
330
108
100
AcDbEntity
  8
P-SANR-FIXT
100
AcDbCircle
 10
815.6664074431878
 20
1788.745878730052
 30
0.0
 40
25.50000000000002
100
AcDbArc
 50
259.9941461791581
 51
260.9999999999997
  0
ARC
  5
198
330
108
100
AcDbEntity
  8
P-SANR-FIXT
100
AcDbCircle
 10
815.6664074431878
 20
1788.745878730052
 30
0.0
 40
25.49999999999995
100
AcDbArc
 50
264.9981118789907
 51
265.4999999999995
  0
ARC
  5
199
330
108
100
AcDbEntity
  8
P-SANR-FIXT
100
AcDbCircle
 10
815.6664074431878
 20
1788.745878730052
 30
0.0
 40
25.50000000000006
100
AcDbArc
 50
274.4999999999993
 51
275.0018881210081
  0
ARC
  5
19A
330
108
100
AcDbEntity
  8
P-SANR-FIXT
100
AcDbCircle
 10
815.6664074431878
 20
1788.745878730052
 30
0.0
 40
25.50000000000001
100
AcDbArc
 50
278.9999999999993
 51
280.0058538208404
  0
ARC
  5
19B
330
108
100
AcDbEntity
  8
P-SANR-FIXT
100
AcDbCircle
 10
815.6664074431878
 20
1788.745878730052
 30
0.0
 40
25.49999999999994
100
AcDbArc
 50
283.4999999999993
 51
301.4999999999997
  0
ARC
  5
19C
330
108
100
AcDbEntity
  8
P-SANR-FIXT
100
AcDbCircle
 10
815.6664074431878
 20
1788.745878730052
 30
0.0
 40
25.50000000000003
100
AcDbArc
 50
305.0206323201567
 51
305.9999999999998
  0
ARC
  5
19D
330
108
100
AcDbEntity
  8
P-SANR-FIXT
100
AcDbCircle
 10
815.6664074431878
 20
1788.745878730052
 30
0.0
 40
25.50000000000004
100
AcDbArc
 50
310.0139374822037
 51
310.4999999999993
  0
ARC
  5
19E
330
108
100
AcDbEntity
  8
P-SANR-FIXT
100
AcDbCircle
 10
815.6664074431878
 20
1788.745878730052
 30
0.0
 40
25.50000000000006
100
AcDbArc
 50
319.4999999999997
 51
319.986062517795
  0
ARC
  5
19F
330
108
100
AcDbEntity
  8
P-SANR-FIXT
100
AcDbCircle
 10
815.6664074431878
 20
1788.745878730052
 30
0.0
 40
25.5
100
AcDbArc
 50
323.9999999999996
 51
324.9793676798419
  0
ARC
  5
1A0
330
108
100
AcDbEntity
  8
P-SANR-FIXT
100
AcDbCircle
 10
815.6664074431878
 20
1788.745878730052
 30
0.0
 40
25.49999999999997
100
AcDbArc
 50
328.4999999999992
 51
346.4999999999994
  0
ARC
  5
1A1
330
108
100
AcDbEntity
  8
P-SANR-FIXT
100
AcDbCircle
 10
815.6664074431878
 20
1788.745878730052
 30
0.0
 40
25.5
100
AcDbArc
 50
349.9941461791583
 51
350.9999999999998
  0
ARC
  5
1A2
330
108
100
AcDbEntity
  8
P-SANR-FIXT
100
AcDbCircle
 10
815.6664074431878
 20
1788.745878730052
 30
0.0
 40
25.49999999999997
100
AcDbArc
 50
354.9981118789902
 51
355.4999999999995
  0
ARC
  5
1A3
330
108
100
AcDbEntity
  8
P-SANR-FIXT
100
AcDbCircle
 10
815.6664074431878
 20
1788.745878730052
 30
0.0
 40
25.50000000000007
100
AcDbArc
 50
4.499999999999655
 51
5.001888121009447
  0
ARC
  5
1A4
330
108
100
AcDbEntity
  8
P-SANR-FIXT
100
AcDbCircle
 10
815.6664074431878
 20
1788.745878730052
 30
0.0
 40
25.50000000000001
100
AcDbArc
 50
9.00000000000023
 51
10.00585382084125
  0
ARC
  5
1A5
330
108
100
AcDbEntity
  8
P-SANR-FIXT
100
AcDbCircle
 10
815.6664074431878
 20
1788.745878730052
 30
0.0
 40
25.49999999999994
100
AcDbArc
 50
13.49999999999964
 51
31.50000000000001
  0
ARC
  5
1A6
330
108
100
AcDbEntity
  8
P-SANR-FIXT
100
AcDbCircle
 10
815.6664074431878
 20
1788.745878730052
 30
0.0
 40
25.49999999999997
100
AcDbArc
 50
35.02063232015768
 51
36.0000000000004
  0
ARC
  5
1A7
330
108
100
AcDbEntity
  8
P-SANR-FIXT
100
AcDbCircle
 10
815.6664074431878
 20
1788.745878730052
 30
0.0
 40
25.49999999999994
100
AcDbArc
 50
40.01393748220443
 51
40.50000000000008
  0
ARC
  5
1A8
330
108
100
AcDbEntity
  8
P-SANR-FIXT
100
AcDbCircle
 10
815.6664074431878
 20
1788.745878730052
 30
0.0
 40
25.49999999999997
100
AcDbArc
 50
49.49999999999972
 51
49.98606251779555
  0
ARC
  5
1A9
330
108
100
AcDbEntity
  8
P-SANR-FIXT
100
AcDbCircle
 10
815.6664074431878
 20
1788.745878730052
 30
0.0
 40
25.5
100
AcDbArc
 50
53.9999999999997
 51
54.97936767984292
  0
ARC
  5
1AA
330
108
100
AcDbEntity
  8
P-SANR-FIXT
100
AcDbCircle
 10
815.6664074431878
 20
1788.745878730052
 30
0.0
 40
25.49999999999994
100
AcDbArc
 50
58.49999999999987
 51
76.50000000000014
  0
ARC
  5
1AB
330
108
100
AcDbEntity
  8
P-SANR-FIXT
100
AcDbCircle
 10
815.6664074431878
 20
1788.745878730052
 30
0.0
 40
25.49999999999987
100
AcDbArc
 50
79.99414617915895
 51
81.00000000000001
  0
ARC
  5
1AC
330
108
100
AcDbEntity
  8
P-SANR-FIXT
100
AcDbCircle
 10
815.6664074431878
 20
1788.745878730052
 30
0.0
 40
25.49999999999983
100
AcDbArc
 50
84.99811187899132
 51
85.50000000000009
  0
ARC
  5
1AD
330
108
100
AcDbEntity
  8
P-SANR-FIXT
100
AcDbCircle
 10
815.6664074431878
 20
1788.745878730052
 30
0.0
 40
25.49999999999995
100
AcDbArc
 50
94.4999999999999
 51
95.00188812100869
  0
ARC
  5
1AE
330
108
100
AcDbEntity
  8
P-SANR-FIXT
100
AcDbCircle
 10
815.6664074431878
 20
1788.745878730052
 30
0.0
 40
25.4999999999999
100
AcDbArc
 50
98.99999999999979
 51
100.0058538208413
  0
ARC
  5
1AF
330
108
100
AcDbEntity
  8
P-SANR-FIXT
100
AcDbCircle
 10
815.6664074431878
 20
1788.745878730052
 30
0.0
 40
25.49999999999994
100
AcDbArc
 50
103.4999999999997
 51
121.5000000000003
  0
ARC
  5
1B0
330
108
100
AcDbEntity
  8
P-SANR-FIXT
100
AcDbCircle
 10
815.6664074431878
 20
1788.745878730052
 30
0.0
 40
25.49999999999997
100
AcDbArc
 50
125.0206323201577
 51
126.0
  0
ARC
  5
1B1
330
108
100
AcDbEntity
  8
P-SANR-FIXT
100
AcDbCircle
 10
815.6664074431878
 20
1788.745878730052
 30
0.0
 40
25.49999999999985
100
AcDbArc
 50
130.0139374822045
 51
130.5000000000001
  0
ARC
  5
1B2
330
108
100
AcDbEntity
  8
P-SANR-FIXT
100
AcDbCircle
 10
815.6664074431878
 20
1788.745878730052
 30
0.0
 40
25.4999999999999
100
AcDbArc
 50
139.4999999999998
 51
139.9860625177955
  0
ARC
  5
1B3
330
108
100
AcDbEntity
  8
P-SANR-FIXT
100
AcDbCircle
 10
815.6664074431878
 20
1788.745878730052
 30
0.0
 40
25.49999999999994
100
AcDbArc
 50
143.9999999999995
 51
144.9793676798423
  0
ARC
  5
1B4
330
108
100
AcDbEntity
  8
P-SANR-FIXT
100
AcDbCircle
 10
815.6664074431878
 20
1788.745878730052
 30
0.0
 40
25.50000000000001
100
AcDbArc
 50
148.4999999999996
 51
166.4999999999998
  0
ARC
  5
1B5
330
108
100
AcDbEntity
  8
P-SANR-FIXT
100
AcDbCircle
 10
815.6664074431878
 20
1788.745878730052
 30
0.0
 40
25.49999999999989
100
AcDbArc
 50
169.9941461791587
 51
170.9999999999997
  0
ARC
  5
1B6
330
108
100
AcDbEntity
  8
P-SANR-FIXT
100
AcDbCircle
 10
815.6664074431878
 20
1788.745878730052
 30
0.0
 40
25.49999999999984
100
AcDbArc
 50
174.9981118789906
 51
175.4999999999993
  0
LINE
  5
1B7
330
108
100
AcDbEntity
  8
P-SANR-FIXT
100
AcDbLine
 10
782.4929968973009
 20
1788.745878730052
 30
0.0
 11
782.4929968973009
 21
1775.245878730139
 31
0.0
  0
LINE
  5
1B8
330
108
100
AcDbEntity
  8
P-SANR-FIXT
100
AcDbLine
 10
782.4929968973009
 20
1775.245878730139
 30
0.0
 11
782.4929968973009
 21
1761.745878730227
 31
0.0
  0
LINE
  5
1B9
330
108
100
AcDbEntity
  8
P-SANR-FIXT
100
AcDbLine
 10
782.4929968973009
 20
1761.745878730227
 30
0.0
 11
782.4929968973009
 21
1761.794682349453
 31
0.0
  0
LINE
  5
1BA
330
108
100
AcDbEntity
  8
P-SANR-FIXT
100
AcDbLine
 10
782.4929968973009
 20
1815.697075110725
 30
0.0
 11
782.4929968973009
 21
1815.745878729877
 31
0.0
  0
LINE
  5
1BB
330
108
100
AcDbEntity
  8
P-SANR-FIXT
100
AcDbLine
 10
782.4929968973009
 20
1815.745878729877
 30
0.0
 11
782.4929968973009
 21
1802.245878729965
 31
0.0
  0
LINE
  5
1BC
330
108
100
AcDbEntity
  8
P-SANR-FIXT
100
AcDbLine
 10
782.4929968973009
 20
1802.245878729965
 30
0.0
 11
782.4929968973009
 21
1788.745878730052
 31
0.0
  0
SPLINE
  5
1BD
330
108
100
AcDbEntity
  8
P-SANR-FIXT
100
AcDbSpline
210
0.0
220
0.0
230
1.0
 70
     8
 71
     3
 72
     9
 73
     5
 74
     0
 42
0.000000001
 43
0.0000000001
 40
0.0
 40
0.0
 40
0.0
 40
0.0
 40
0.5
 40
1.0
 40
1.0
 40
1.0
 40
1.0
 10
781.1921298406351
 20
1811.99587873008
 30
0.0
 10
781.0467593863038
 20
1812.555083978819
 30
0.0
 10
780.8279265979888
 20
1813.597453388604
 30
0.0
 10
780.7529100503694
 20
1814.409428089865
 30
0.0
 10
780.7513558367336
 20
1814.741069258472
 30
0.0
  0
SPLINE
  5
1BE
330
108
100
AcDbEntity
  8
P-SANR-FIXT
100
AcDbSpline
210
0.0
220
0.0
230
1.0
 70
     8
 71
     3
 72
     9
 73
     5
 74
     0
 42
0.000000001
 43
0.0000000001
 40
0.0
 40
0.0
 40
0.0
 40
0.0
 40
0.5
 40
1.0
 40
1.0
 40
1.0
 40
1.0
 10
780.7513558367336
 20
1814.741069258472
 30
0.0
 10
780.7529100503693
 20
1815.072710427077
 30
0.0
 10
780.8279265979873
 20
1815.578148210996
 30
0.0
 10
781.0467593862982
 20
1815.74587873008
 30
0.0
 10
781.1921298406269
 20
1815.74587873008
 30
0.0
  0
SPLINE
  5
1BF
330
108
100
AcDbEntity
  8
P-SANR-FIXT
100
AcDbSpline
210
0.0
220
0.0
230
1.0
 70
     8
 71
     3
 72
     9
 73
     5
 74
     0
 42
0.000000001
 43
0.0000000001
 40
0.0
 40
0.0
 40
0.0
 40
0.0
 40
0.5
 40
1.0
 40
1.0
 40
1.0
 40
1.0
 10
765.7836655018095
 20
1815.74587873008
 30
0.0
 10
765.9290372171225
 20
1815.74587873008
 30
0.0
 10
766.147871911712
 20
1815.57814828418
 30
0.0
 10
766.2228891342277
 20
1815.072710497262
 30
0.0
 10
766.224443377467
 20
1814.741069258472
 30
0.0
  0
SPLINE
  5
1C0
330
108
100
AcDbEntity
  8
P-SANR-FIXT
100
AcDbSpline
210
0.0
220
0.0
230
1.0
 70
     8
 71
     3
 72
     9
 73
     5
 74
     0
 42
0.000000001
 43
0.0000000001
 40
0.0
 40
0.0
 40
0.0
 40
0.0
 40
0.5
 40
1.0
 40
1.0
 40
1.0
 40
1.0
 10
766.224443377467
 20
1814.741069258472
 30
0.0
 10
766.2228891342277
 20
1814.409428019679
 30
0.0
 10
766.1478719117105
 20
1813.597453186186
 30
0.0
 10
765.9290372171169
 20
1812.555083857255
 30
0.0
 10
765.7836655018011
 20
1811.99587873008
 30
0.0
  0
SPLINE
  5
1C1
330
108
100
AcDbEntity
  8
P-SANR-FIXT
100
AcDbSpline
210
0.0
220
0.0
230
1.0
 70
    24
 71
     3
 72
     9
 73
     5
 74
     0
 42
0.000000001
 43
0.0000000001
 40
0.0
 40
0.0
 40
0.0
 40
0.0
 40
0.5
 40
1.0
 40
1.0
 40
1.0
 40
1.0
 10
781.1921298406269
 20
1815.74587873008
 30
0.0
 10
781.6163523234133
 20
1815.74587873008
 30
0.0
 10
782.2573859823121
 20
1815.74587873008
 30
0.0
 10
782.4835970278626
 20
1815.74587873008
 30
0.0
 10
782.4929968973009
 20
1815.74587873008
 30
0.0
  0
SPLINE
  5
1C2
330
108
100
AcDbEntity
  8
P-SANR-FIXT
100
AcDbSpline
210
0.0
220
0.0
230
1.0
 70
    24
 71
     3
 72
     8
 73
     4
 74
     0
 42
0.000000001
 43
0.0000000001
 40
0.1204277188379882
 40
0.1204277188379882
 40
0.1204277188379882
 40
0.1204277188379882
 40
0.185213859417543
 40
0.185213859417543
 40
0.185213859417543
 40
0.185213859417543
 10
782.4681565559727
 20
1815.74587873008
 30
0.0
 10
782.4604656622932
 20
1815.74587873008
 30
0.0
 10
782.4526465245667
 20
1815.74587873008
 30
0.0
 10
782.4438732805451
 20
1815.74587873008
 30
0.0
  0
SPLINE
  5
1C3
330
108
100
AcDbEntity
  8
P-SANR-FIXT
100
AcDbSpline
210
0.0
220
0.0
230
1.0
 70
    24
 71
     3
 72
     8
 73
     4
 74
     0
 42
0.000000001
 43
0.0000000001
 40
0.5
 40
0.5
 40
0.5
 40
0.5
 40
1.0
 40
1.0
 40
1.0
 40
1.0
 10
764.4828268392378
 20
1815.74587873008
 30
0.0
 10
764.4828268392354
 20
1815.74587873008
 30
0.0
 10
764.9164397267594
 20
1815.74587873008
 30
0.0
 10
765.7836655018095
 20
1815.74587873008
 30
0.0
  0
SPLINE
  5
1C4
330
108
100
AcDbEntity
  8
P-SANR-FIXT
100
AcDbSpline
210
0.0
220
0.0
230
1.0
 70
    24
 71
     3
 72
     8
 73
     4
 74
     0
 42
0.000000001
 43
0.0000000001
 40
0.8147861405447946
 40
0.8147861405447946
 40
0.8147861405447946
 40
0.8147861405447946
 40
0.8795722810871707
 40
0.8795722810871707
 40
0.8795722810871707
 40
0.8795722810871707
 10
782.4398605397591
 20
1761.745878730143
 30
0.0
 10
782.4510336568899
 20
1761.745878730143
 30
0.0
 10
782.4582014892516
 20
1761.745878730143
 30
0.0
 10
782.4637399988797
 20
1761.745878730143
 30
0.0
  0
SPLINE
  5
1C5
330
108
100
AcDbEntity
  8
P-SANR-FIXT
100
AcDbSpline
210
0.0
220
0.0
230
1.0
 70
    24
 71
     3
 72
     9
 73
     5
 74
     0
 42
0.000000001
 43
0.0000000001
 40
0.0
 40
0.0
 40
0.0
 40
0.0
 40
0.5
 40
1.0
 40
1.0
 40
1.0
 40
1.0
 10
782.4929968973009
 20
1761.745878730143
 30
0.0
 10
782.4835970278964
 20
1761.745878730143
 30
0.0
 10
782.2573859823901
 20
1761.745878730143
 30
0.0
 10
781.6163523234889
 20
1761.745878730143
 30
0.0
 10
781.1921298406897
 20
1761.745878730143
 30
0.0
  0
SPLINE
  5
1C6
330
108
100
AcDbEntity
  8
P-SANR-FIXT
100
AcDbSpline
210
0.0
220
0.0
230
1.0
 70
    24
 71
     3
 72
     9
 73
     5
 74
     0
 42
0.000000001
 43
0.0000000001
 40
0.0
 40
0.0
 40
0.0
 40
0.0
 40
0.5
 40
0.5028606764346027
 40
0.5028606764346027
 40
0.5028606764346027
 40
0.5028606764346027
 10
765.7836655017465
 20
1761.745878730143
 30
0.0
 10
764.9164397266929
 20
1761.745878730143
 30
0.0
 10
764.4803459868279
 20
1761.745878730143
 30
0.0
 10
764.4828410330013
 20
1761.745878730143
 30
0.0
 10
764.4828694206645
 20
1761.745878730143
 30
0.0
  0
SPLINE
  5
1C7
330
108
100
AcDbEntity
  8
P-SANR-FIXT
100
AcDbSpline
210
0.0
220
0.0
230
1.0
 70
     8
 71
     3
 72
     9
 73
     5
 74
     0
 42
0.000000001
 43
0.0000000001
 40
0.0
 40
0.0
 40
0.0
 40
0.0
 40
0.5
 40
1.0
 40
1.0
 40
1.0
 40
1.0
 10
781.1921298406897
 20
1761.745878730143
 30
0.0
 10
781.0467593863694
 20
1761.745878730143
 30
0.0
 10
780.8279265980565
 20
1761.913609249229
 30
0.0
 10
780.7529100503987
 20
1762.419047033153
 30
0.0
 10
780.7513558367336
 20
1762.750688201759
 30
0.0
  0
SPLINE
  5
1C8
330
108
100
AcDbEntity
  8
P-SANR-FIXT
100
AcDbSpline
210
0.0
220
0.0
230
1.0
 70
     8
 71
     3
 72
     9
 73
     5
 74
     0
 42
0.000000001
 43
0.0000000001
 40
0.0
 40
0.0
 40
0.0
 40
0.0
 40
0.5
 40
1.0
 40
1.0
 40
1.0
 40
1.0
 10
780.7513558367336
 20
1762.750688201759
 30
0.0
 10
780.7529100503987
 20
1763.082329370366
 30
0.0
 10
780.8279265980563
 20
1763.894304071623
 30
0.0
 10
781.0467593863691
 20
1764.936673481404
 30
0.0
 10
781.1921298406892
 20
1765.495878730142
 30
0.0
  0
SPLINE
  5
1C9
330
108
100
AcDbEntity
  8
P-SANR-FIXT
100
AcDbSpline
210
0.0
220
0.0
230
1.0
 70
     8
 71
     3
 72
     9
 73
     5
 74
     0
 42
0.000000001
 43
0.0000000001
 40
0.0
 40
0.0
 40
0.0
 40
0.0
 40
0.5
 40
1.0
 40
1.0
 40
1.0
 40
1.0
 10
765.7836655017471
 20
1765.495878730142
 30
0.0
 10
765.9290372170516
 20
1764.936673602969
 30
0.0
 10
766.1478719116431
 20
1763.894304274041
 30
0.0
 10
766.2228891341984
 20
1763.082329440551
 30
0.0
 10
766.224443377467
 20
1762.750688201759
 30
0.0
  0
SPLINE
  5
1CA
330
108
100
AcDbEntity
  8
P-SANR-FIXT
100
AcDbSpline
210
0.0
220
0.0
230
1.0
 70
     8
 71
     3
 72
     9
 73
     5
 74
     0
 42
0.000000001
 43
0.0000000001
 40
0.0
 40
0.0
 40
0.0
 40
0.0
 40
0.5
 40
1.0
 40
1.0
 40
1.0
 40
1.0
 10
766.224443377467
 20
1762.750688201759
 30
0.0
 10
766.2228891341983
 20
1762.419046962967
 30
0.0
 10
766.1478719116429
 20
1761.913609176044
 30
0.0
 10
765.9290372170513
 20
1761.745878730143
 30
0.0
 10
765.7836655017465
 20
1761.745878730143
 30
0.0
  0
SPLINE
  5
1CB
330
108
100
AcDbEntity
  8
P-SANR-FIXT
100
AcDbSpline
210
0.0
220
0.0
230
1.0
 70
     8
 71
     3
 72
     9
 73
     5
 74
     0
 42
0.000000001
 43
0.0000000001
 40
0.0
 40
0.0
 40
0.0
 40
0.0
 40
0.5
 40
1.0
 40
1.0
 40
1.0
 40
1.0
 10
781.1921298406892
 20
1765.495878730142
 30
0.0
 10
781.6163523234879
 20
1767.100686466451
 30
0.0
 10
782.2573859823884
 20
1770.330494202752
 30
0.0
 10
782.4835970278956
 20
1773.60068646642
 30
0.0
 10
782.4929968973009
 20
1775.245878730095
 30
0.0
  0
SPLINE
  5
1CC
330
108
100
AcDbEntity
  8
P-SANR-FIXT
100
AcDbSpline
210
0.0
220
0.0
230
1.0
 70
     8
 71
     3
 72
     9
 73
     5
 74
     0
 42
0.000000001
 43
0.0000000001
 40
0.0
 40
0.0
 40
0.0
 40
0.0
 40
0.5
 40
1.0
 40
1.0
 40
1.0
 40
1.0
 10
782.4929968973009
 20
1775.245878730095
 30
0.0
 10
782.4835970278954
 20
1776.891070993782
 30
0.0
 10
782.2573859823854
 20
1780.161263257471
 30
0.0
 10
781.6163523234771
 20
1783.391070993792
 30
0.0
 10
781.1921298406734
 20
1784.995878730111
 30
0.0
  0
SPLINE
  5
1CD
330
108
100
AcDbEntity
  8
P-SANR-FIXT
100
AcDbSpline
210
0.0
220
0.0
230
1.0
 70
     8
 71
     3
 72
     9
 73
     5
 74
     0
 42
0.000000001
 43
0.0000000001
 40
0.0
 40
0.0
 40
0.0
 40
0.0
 40
0.5
 40
1.0
 40
1.0
 40
1.0
 40
1.0
 10
765.7836655017629
 20
1784.995878730111
 30
0.0
 10
764.9164397267045
 20
1781.781113648257
 30
0.0
 10
764.0492139516434
 20
1775.316348566408
 30
0.0
 10
764.916439726694
 20
1768.781113648277
 30
0.0
 10
765.7836655017471
 20
1765.495878730142
 30
0.0
  0
SPLINE
  5
1CE
330
108
100
AcDbEntity
  8
P-SANR-FIXT
100
AcDbSpline
210
0.0
220
0.0
230
1.0
 70
     8
 71
     3
 72
     9
 73
     5
 74
     0
 42
0.000000001
 43
0.0000000001
 40
0.0
 40
0.0
 40
0.0
 40
0.0
 40
0.5
 40
1.0
 40
1.0
 40
1.0
 40
1.0
 10
781.1921298406734
 20
1784.995878730111
 30
0.0
 10
781.0467593863485
 20
1785.55508397885
 30
0.0
 10
780.8279265980335
 20
1786.765183907723
 30
0.0
 10
780.7529100503885
 20
1788.082596392913
 30
0.0
 10
780.7513558367336
 20
1788.745878730131
 30
0.0
  0
SPLINE
  5
1CF
330
108
100
AcDbEntity
  8
P-SANR-FIXT
100
AcDbSpline
210
0.0
220
0.0
230
1.0
 70
     8
 71
     3
 72
     9
 73
     5
 74
     0
 42
0.000000001
 43
0.0000000001
 40
0.0
 40
0.0
 40
0.0
 40
0.0
 40
0.5
 40
1.0
 40
1.0
 40
1.0
 40
1.0
 10
780.7513558367336
 20
1788.745878730131
 30
0.0
 10
780.7529100503883
 20
1789.40916106734
 30
0.0
 10
780.8279265980315
 20
1790.726573552513
 30
0.0
 10
781.0467593863424
 20
1791.936673481375
 30
0.0
 10
781.1921298406645
 20
1792.495878730111
 30
0.0
  0
SPLINE
  5
1D0
330
108
100
AcDbEntity
  8
P-SANR-FIXT
100
AcDbSpline
210
0.0
220
0.0
230
1.0
 70
     8
 71
     3
 72
     9
 73
     5
 74
     0
 42
0.000000001
 43
0.0000000001
 40
0.0
 40
0.0
 40
0.0
 40
0.0
 40
0.5
 40
1.0
 40
1.0
 40
1.0
 40
1.0
 10
765.7836655017716
 20
1792.495878730111
 30
0.0
 10
765.9290372170784
 20
1791.93667360294
 30
0.0
 10
766.1478719116677
 20
1790.726573828116
 30
0.0
 10
766.2228891342087
 20
1789.409161207711
 30
0.0
 10
766.224443377467
 20
1788.745878730131
 30
0.0
  0
SPLINE
  5
1D1
330
108
100
AcDbEntity
  8
P-SANR-FIXT
100
AcDbSpline
210
0.0
220
0.0
230
1.0
 70
     8
 71
     3
 72
     9
 73
     5
 74
     0
 42
0.000000001
 43
0.0000000001
 40
0.0
 40
0.0
 40
0.0
 40
0.0
 40
0.5
 40
1.0
 40
1.0
 40
1.0
 40
1.0
 10
766.224443377467
 20
1788.745878730131
 30
0.0
 10
766.2228891342086
 20
1788.082596252542
 30
0.0
 10
766.147871911666
 20
1786.765183632122
 30
0.0
 10
765.9290372170724
 20
1785.555083857287
 30
0.0
 10
765.7836655017629
 20
1784.995878730111
 30
0.0
  0
SPLINE
  5
1D2
330
108
100
AcDbEntity
  8
P-SANR-FIXT
100
AcDbSpline
210
0.0
220
0.0
230
1.0
 70
     8
 71
     3
 72
     9
 73
     5
 74
     0
 42
0.000000001
 43
0.0000000001
 40
0.0
 40
0.0
 40
0.0
 40
0.0
 40
0.5
 40
1.0
 40
1.0
 40
1.0
 40
1.0
 10
765.7836655018011
 20
1811.99587873008
 30
0.0
 10
764.9164397267421
 20
1808.710643811945
 30
0.0
 10
764.0492139516781
 20
1802.175408893815
 30
0.0
 10
764.9164397267225
 20
1795.710643811966
 30
0.0
 10
765.7836655017716
 20
1792.495878730111
 30
0.0
  0
SPLINE
  5
1D3
330
108
100
AcDbEntity
  8
P-SANR-FIXT
100
AcDbSpline
210
0.0
220
0.0
230
1.0
 70
     8
 71
     3
 72
     9
 73
     5
 74
     0
 42
0.000000001
 43
0.0000000001
 40
0.0
 40
0.0
 40
0.0
 40
0.0
 40
0.5
 40
1.0
 40
1.0
 40
1.0
 40
1.0
 10
781.1921298406645
 20
1792.495878730111
 30
0.0
 10
781.6163523234547
 20
1794.100686466416
 30
0.0
 10
782.2573859823507
 20
1797.330494202709
 30
0.0
 10
782.4835970278789
 20
1800.600686466367
 30
0.0
 10
782.4929968973009
 20
1802.245878730037
 30
0.0
  0
SPLINE
  5
1D4
330
108
100
AcDbEntity
  8
P-SANR-FIXT
100
AcDbSpline
210
0.0
220
0.0
230
1.0
 70
     8
 71
     3
 72
     9
 73
     5
 74
     0
 42
0.000000001
 43
0.0000000001
 40
0.0
 40
0.0
 40
0.0
 40
0.0
 40
0.5
 40
1.0
 40
1.0
 40
1.0
 40
1.0
 10
782.4929968973009
 20
1802.245878730037
 30
0.0
 10
782.4835970278785
 20
1803.891070993728
 30
0.0
 10
782.2573859823449
 20
1807.161263257425
 30
0.0
 10
781.6163523234346
 20
1810.391070993756
 30
0.0
 10
781.1921298406351
 20
1811.99587873008
 30
0.0
  0
LINE
  5
1D5
330
108
100
AcDbEntity
  8
P-SANR-FIXT
100
AcDbLine
 10
727.6664074431513
 20
1769.2958787301
 30
0.0
 11
727.6664074431513
 21
1788.745878730052
 31
0.0
  0
LINE
  5
1D6
330
108
100
AcDbEntity
  8
P-SANR-FIXT
100
AcDbLine
 10
727.6664074431513
 20
1788.745878730052
 30
0.0
 11
727.6664074431513
 21
1808.195878730005
 31
0.0
  0
LINE
  5
1D7
330
108
100
AcDbEntity
  8
P-SANR-FIXT
100
AcDbLine
 10
729.1664074431513
 20
1767.7958787301
 30
0.0
 11
729.1664074431513
 21
1788.745878730052
 31
0.0
  0
LINE
  5
1D8
330
108
100
AcDbEntity
  8
P-SANR-FIXT
100
AcDbLine
 10
752.1664074431899
 20
1768.00938453527
 30
0.0
 11
762.4929968972398
 21
1768.00938453527
 31
0.0
  0
LINE
  5
1D9
330
108
100
AcDbEntity
  8
P-SANR-FIXT
100
AcDbLine
 10
752.1664074431899
 20
1775.793984717767
 30
0.0
 11
752.1664074431899
 21
1768.00938453527
 31
0.0
  0
LINE
  5
1DA
330
108
100
AcDbEntity
  8
P-SANR-FIXT
100
AcDbLine
 10
762.4929968972398
 20
1775.793984717767
 30
0.0
 11
752.1664074431899
 21
1775.793984717767
 31
0.0
  0
LINE
  5
1DB
330
108
100
AcDbEntity
  8
P-SANR-FIXT
100
AcDbLine
 10
752.1664074431899
 20
1780.96127854765
 30
0.0
 11
762.4929968972398
 21
1780.96127854765
 31
0.0
  0
LINE
  5
1DC
330
108
100
AcDbEntity
  8
P-SANR-FIXT
100
AcDbLine
 10
752.1664074431899
 20
1788.745878730052
 30
0.0
 11
752.1664074431899
 21
1780.96127854765
 31
0.0
  0
LINE
  5
1DD
330
108
100
AcDbEntity
  8
P-SANR-FIXT
100
AcDbLine
 10
729.1664074431513
 20
1788.745878730052
 30
0.0
 11
729.1664074431513
 21
1809.695878730005
 31
0.0
  0
LINE
  5
1DE
330
108
100
AcDbEntity
  8
P-SANR-FIXT
100
AcDbLine
 10
752.1664074431899
 20
1796.530478912455
 30
0.0
 11
752.1664074431899
 21
1788.745878730052
 31
0.0
  0
LINE
  5
1DF
330
108
100
AcDbEntity
  8
P-SANR-FIXT
100
AcDbLine
 10
762.4929968972398
 20
1796.530478912454
 30
0.0
 11
752.1664074431899
 21
1796.530478912454
 31
0.0
  0
LINE
  5
1E0
330
108
100
AcDbEntity
  8
P-SANR-FIXT
100
AcDbLine
 10
752.1664074431899
 20
1801.697772742496
 30
0.0
 11
762.4929968972398
 21
1801.697772742496
 31
0.0
  0
LINE
  5
1E1
330
108
100
AcDbEntity
  8
P-SANR-FIXT
100
AcDbLine
 10
752.1664074431899
 20
1809.482372924805
 30
0.0
 11
752.1664074431899
 21
1801.697772742496
 31
0.0
  0
LINE
  5
1E2
330
108
100
AcDbEntity
  8
P-SANR-FIXT
100
AcDbLine
 10
762.4929968972398
 20
1809.482372924805
 30
0.0
 11
752.1664074431899
 21
1809.482372924805
 31
0.0
  0
ARC
  5
1E3
330
108
100
AcDbEntity
  8
P-SANR-FIXT
100
AcDbCircle
 10
815.6664074431878
 20
1788.745878730052
 30
0.0
 40
26.50000000000002
100
AcDbArc
 50
352.4026659005616
 51
7.597334099437057
  0
LINE
  5
1E4
330
108
100
AcDbEntity
  8
P-SANR-FIXT
100
AcDbLine
 10
841.9337823050934
 20
1792.249450887742
 30
0.0
 11
840.391884291143
 21
1794.920096587993
 31
0.0
  0
LINE
  5
1E5
330
108
100
AcDbEntity
  8
P-SANR-FIXT
100
AcDbLine
 10
838.5543627135154
 20
1798.102777320449
 30
0.0
 11
838.4882466618725
 21
1798.21729368109
 31
0.0
  0
LINE
  5
1E6
330
108
100
AcDbEntity
  8
P-SANR-FIXT
100
AcDbLine
 10
838.488246661873
 20
1779.274463779015
 30
0.0
 11
838.5543627135144
 21
1779.388980139654
 31
0.0
  0
LINE
  5
1E7
330
108
100
AcDbEntity
  8
P-SANR-FIXT
100
AcDbLine
 10
840.3918842911426
 20
1782.57166087211
 30
0.0
 11
841.9337823050934
 21
1785.242306572363
 31
0.0
  0
ARC
  5
1E8
330
108
100
AcDbEntity
  8
P-SANR-FIXT
100
AcDbCircle
 10
815.6664074431878
 20
1788.745878730052
 30
0.0
 40
26.5
100
AcDbArc
 50
52.40266590056099
 51
67.59733409943692
  0
LINE
  5
1E9
330
108
100
AcDbEntity
  8
P-SANR-FIXT
100
AcDbLine
 10
825.7659123815896
 20
1813.245878730036
 30
0.0
 11
822.6821163536886
 21
1813.245878730036
 31
0.0
  0
LINE
  5
1EA
330
108
100
AcDbEntity
  8
P-SANR-FIXT
100
AcDbLine
 10
833.3761753806422
 20
1807.071660872095
 30
0.0
 11
831.834277366692
 21
1809.742306572346
 31
0.0
  0
ARC
  5
1EB
330
108
100
AcDbEntity
  8
P-SANR-FIXT
100
AcDbCircle
 10
815.6664074431878
 20
1788.745878730052
 30
0.0
 40
26.50000000000015
100
AcDbArc
 50
112.402665900561
 51
127.5973340994368
  0
LINE
  5
1EC
330
108
100
AcDbEntity
  8
P-SANR-FIXT
100
AcDbLine
 10
799.4985375196841
 20
1809.742306572347
 30
0.0
 11
798.9812241461794
 21
1808.846293526002
 31
0.0
  0
LINE
  5
1ED
330
108
100
AcDbEntity
  8
P-SANR-FIXT
100
AcDbLine
 10
808.650698532687
 20
1813.245878730036
 30
0.0
 11
805.5669025047865
 21
1813.245878730036
 31
0.0
  0
ARC
  5
1EE
330
108
100
AcDbEntity
  8
P-SANR-FIXT
100
AcDbCircle
 10
815.6664074431878
 20
1788.745878730052
 30
0.0
 40
26.50000000000011
100
AcDbArc
 50
232.4026659005612
 51
247.5973340994373
  0
LINE
  5
1EF
330
108
100
AcDbEntity
  8
P-SANR-FIXT
100
AcDbLine
 10
805.5669025047862
 20
1764.245878730069
 30
0.0
 11
808.6506985326874
 21
1764.245878730069
 31
0.0
  0
LINE
  5
1F0
330
108
100
AcDbEntity
  8
P-SANR-FIXT
100
AcDbLine
 10
798.9812241461792
 20
1768.645463934103
 30
0.0
 11
799.4985375196837
 21
1767.749450887758
 31
0.0
  0
ARC
  5
1F1
330
108
100
AcDbEntity
  8
P-SANR-FIXT
100
AcDbCircle
 10
815.6664074431878
 20
1788.745878730052
 30
0.0
 40
26.50000000000003
100
AcDbArc
 50
292.4026659005613
 51
307.5973340994378
  0
LINE
  5
1F2
330
108
100
AcDbEntity
  8
P-SANR-FIXT
100
AcDbLine
 10
831.8342773666916
 20
1767.749450887758
 30
0.0
 11
833.3761753806422
 21
1770.42009658801
 31
0.0
  0
LINE
  5
1F3
330
108
100
AcDbEntity
  8
P-SANR-FIXT
100
AcDbLine
 10
822.6821163536877
 20
1764.245878730068
 30
0.0
 11
825.7659123815891
 21
1764.245878730068
 31
0.0
  0
ENDBLK
  5
1F5
330
108
100
AcDbEntity
  8
0
100
AcDbBlockEnd
  0
BLOCK
  5
27B
330
1F7
100
AcDbEntity
  8
0
100
AcDbBlockBegin
  2
Automatic flow rate regulator valve_Caleffi_121 DN15 - 1_2__-V2-Est - Idraulica
 70
     0
 10
0.0
 20
0.0
 30
0.0
  3
Automatic flow rate regulator valve_Caleffi_121 DN15 - 1_2__-V2-Est - Idraulica
  1

  0
LINE
  5
1F8
330
1F7
100
AcDbEntity
  8
M-PIPE
100
AcDbLine
 10
1086.614353943113
 20
2070.386852844059
 30
0.0
 11
1086.614353943112
 21
2099.482558850043
 31
0.0
1001
REVIT
1002
{
1070
     3
1000
923885
1002
}
  0
LINE
  5
1F9
330
1F7
100
AcDbEntity
  8
M-PIPE
100
AcDbLine
 10
1047.614353943112
 20
2099.482558850042
 30
0.0
 11
1047.614353943113
 21
2077.980811528915
 31
0.0
1001
REVIT
1002
{
1070
     3
1000
923885
1002
}
  0
LINE
  5
1FA
330
1F7
100
AcDbEntity
  8
M-PIPE
100
AcDbLine
 10
1084.764353943113
 20
2063.482558850058
 30
0.0
 11
1086.614353943113
 21
2070.386852844059
 31
0.0
1001
REVIT
1002
{
1070
     3
1000
923885
1002
}
  0
LINE
  5
1FB
330
1F7
100
AcDbEntity
  8
M-PIPE
100
AcDbLine
 10
1047.990551624681
 20
2068.982863982755
 30
0.0
 11
1049.464353943113
 21
2063.482558850057
 31
0.0
1001
REVIT
1002
{
1070
     3
1000
923885
1002
}
  0
LINE
  5
1FC
330
1F7
100
AcDbEntity
  8
M-PIPE
100
AcDbLine
 10
1045.665666865455
 20
2068.982558850088
 30
0.0
 11
1047.990849834829
 21
2068.982558850088
 31
0.0
1001
REVIT
1002
{
1070
     3
1000
923885
1002
}
  0
LINE
  5
1FD
330
1F7
100
AcDbEntity
  8
M-PIPE
100
AcDbLine
 10
1047.615745751314
 20
2077.982558850088
 30
0.0
 11
1045.614353943112
 21
2077.982558850088
 31
0.0
1001
REVIT
1002
{
1070
     3
1000
923885
1002
}
  0
LINE
  5
1FE
330
1F7
100
AcDbEntity
  8
M-PIPE
100
AcDbLine
 10
1045.114353943112
 20
2069.533871772431
 30
0.0
 11
1045.665666865455
 21
2068.982558850088
 31
0.0
1001
REVIT
1002
{
1070
     3
1000
923885
1002
}
  0
LINE
  5
1FF
330
1F7
100
AcDbEntity
  8
M-PIPE
100
AcDbLine
 10
1045.614353943112
 20
2077.982558850088
 30
0.0
 11
1045.114353943112
 21
2077.482558850089
 31
0.0
1001
REVIT
1002
{
1070
     3
1000
923885
1002
}
  0
LINE
  5
200
330
1F7
100
AcDbEntity
  8
M-PIPE
100
AcDbLine
 10
1067.11435394311
 20
2099.482558850041
 30
0.0
 11
1086.614353943111
 21
2099.482558850041
 31
0.0
1001
REVIT
1002
{
1070
     3
1000
923885
1002
}
  0
LINE
  5
201
330
1F7
100
AcDbEntity
  8
M-PIPE
100
AcDbLine
 10
1047.61435394311
 20
2099.482558850041
 30
0.0
 11
1067.11435394311
 21
2099.482558850041
 31
0.0
1001
REVIT
1002
{
1070
     3
1000
923885
1002
}
  0
SPLINE
  5
202
330
1F7
100
AcDbEntity
  8
M-PIPE
100
AcDbSpline
210
0.0
220
0.0
230
1.0
 70
     8
 71
     3
 72
    15
 73
    11
 74
     0
 42
0.000000001
 43
0.0000000001
 40
0.499956436554261
 40
0.499956436554261
 40
0.499956436554261
 40
0.499956436554261
 40
0.5138888888888889
 40
0.5486111111111111
 40
0.5833333333333333
 40
0.6527777777777777
 40
0.7222222222222223
 40
0.7916666666666668
 40
0.861111111111111
 40
1.0
 40
1.0
 40
1.0
 40
1.0
 10
1047.614367449546
 20
2077.980977121701
 30
0.0
 10
1047.614364803801
 20
2077.980893164375
 30
0.0
 10
1047.615528900645
 20
2077.975752572745
 30
0.0
 10
1047.624650463931
 20
2077.93858535212
 30
0.0
 10
1047.654795080787
 20
2077.803300068896
 30
0.0
 10
1047.721472440797
 20
2077.501785896195
 30
0.0
 10
1047.828700834354
 20
2076.95298283769
 30
0.0
 10
1047.945234201411
 20
2076.249673502509
 30
0.0
 10
1048.087068768554
 20
2075.108463277089
 30
0.0
 10
1048.138616325789
 20
2074.165196471533
 30
0.0
 10
1048.140687982101
 20
2073.482558850087
 30
0.0
1001
REVIT
1002
{
1070
     3
1000
923885
1002
}
  0
SPLINE
  5
203
330
1F7
100
AcDbEntity
  8
M-PIPE
100
AcDbSpline
210
0.0
220
0.0
230
1.0
 70
     8
 71
     3
 72
    10
 73
     6
 74
     0
 42
0.000000001
 43
0.0000000001
 40
0.0
 40
0.0
 40
0.0
 40
0.0
 40
0.3333333333333333
 40
0.6666666666666666
 40
1.0
 40
1.0
 40
1.0
 40
1.0
 10
1048.140687982101
 20
2073.482558850087
 30
0.0
 10
1048.140192387964
 20
2073.093434438713
 30
0.0
 10
1048.117533413049
 20
2072.34480601338
 30
0.0
 10
1048.020940557775
 20
2071.271494580175
 30
0.0
 10
1047.934778727503
 20
2070.667501069465
 30
0.0
 10
1047.889802045192
 20
2070.386852844058
 30
0.0
1001
REVIT
1002
{
1070
     3
1000
923885
1002
}
  0
LINE
  5
204
330
1F7
100
AcDbEntity
  8
M-PIPE
100
AcDbLine
 10
1067.114353943111
 20
2070.386852844058
 30
0.0
 11
1086.614353943111
 21
2070.386852844058
 31
0.0
1001
REVIT
1002
{
1070
     3
1000
923885
1002
}
  0
LINE
  5
205
330
1F7
100
AcDbEntity
  8
M-PIPE
100
AcDbLine
 10
1047.889802045192
 20
2070.386852844058
 30
0.0
 11
1067.114353943111
 21
2070.386852844058
 31
0.0
1001
REVIT
1002
{
1070
     3
1000
923885
1002
}
  0
SPLINE
  5
206
330
1F7
100
AcDbEntity
  8
M-PIPE
100
AcDbSpline
210
0.0
220
0.0
230
1.0
 70
     8
 71
     3
 72
    11
 73
     7
 74
     0
 42
0.000000001
 43
0.0000000001
 40
-1.0
 40
-1.0
 40
-1.0
 40
-1.0
 40
-0.8571428571428571
 40
-0.7142857142857144
 40
-0.5714285714285714
 40
-0.5001595710779087
 40
-0.5001595710779087
 40
-0.5001595710779087
 40
-0.5001595710779087
 10
1047.889802045192
 20
2070.386852844058
 30
0.0
 10
1047.91589108816
 20
2070.134533462669
 30
0.0
 10
1047.957796310432
 20
2069.685296466087
 30
0.0
 10
1047.982470289072
 20
2069.214172816451
 30
0.0
 10
1047.989622021608
 20
2069.01275668531
 30
0.0
 10
1047.990693196388
 20
2068.982598494073
 30
0.0
 10
1047.990693245778
 20
2068.982599268466
 30
0.0
1001
REVIT
1002
{
1070
     3
1000
923885
1002
}
  0
SPLINE
  5
207
330
1F7
100
AcDbEntity
  8
M-PIPE
100
AcDbSpline
210
0.0
220
0.0
230
1.0
 70
     8
 71
     3
 72
     8
 73
     4
 74
     0
 42
0.000000001
 43
0.0000000001
 40
-0.5001585948888588
 40
-0.5001585948888588
 40
-0.5001585948888588
 40
-0.5001585948888588
 40
-0.4292043867988663
 40
-0.4292043867988663
 40
-0.4292043867988663
 40
-0.4292043867988663
 10
1047.99069324578
 20
2068.982599268504
 30
0.0
 10
1047.990693285229
 20
2068.982600313263
 30
0.0
 10
1047.99048119614
 20
2068.991337420354
 30
0.0
 10
1047.989637183678
 20
2069.012416067668
 30
0.0
1001
REVIT
1002
{
1070
     3
1000
923885
1002
}
  0
LINE
  5
208
330
1F7
100
AcDbEntity
  8
M-PIPE
100
AcDbLine
 10
1067.114353943111
 20
2063.482558850056
 30
0.0
 11
1084.764353943111
 21
2063.482558850056
 31
0.0
1001
REVIT
1002
{
1070
     3
1000
923885
1002
}
  0
LINE
  5
209
330
1F7
100
AcDbEntity
  8
M-PIPE
100
AcDbLine
 10
1049.464353943111
 20
2063.482558850056
 30
0.0
 11
1067.114353943111
 21
2063.482558850056
 31
0.0
1001
REVIT
1002
{
1070
     3
1000
923885
1002
}
  0
LINE
  5
20A
330
1F7
100
AcDbEntity
  8
M-PIPE
100
AcDbLine
 10
1045.114353943111
 20
2069.53387177243
 30
0.0
 11
1045.114353943111
 21
2077.482558850087
 31
0.0
1001
REVIT
1002
{
1070
     3
1000
923885
1002
}
  0
SPLINE
  5
20B
330
1F7
100
AcDbEntity
  8
M-PIPE
100
AcDbSpline
210
0.0
220
0.0
230
1.0
 70
     8
 71
     3
 72
    13
 73
     9
 74
     0
 42
0.000000001
 43
0.0000000001
 40
0.0
 40
0.0
 40
0.0
 40
0.0
 40
0.1428571428571428
 40
0.2857142857142857
 40
0.4285714285714286
 40
0.5714285714285714
 40
0.8571428571428571
 40
1.0
 40
1.0
 40
1.0
 40
1.0
 10
1045.640083543021
 20
2073.482558850087
 30
0.0
 10
1045.642034252633
 20
2073.145940374443
 30
0.0
 10
1045.645823855074
 20
2072.472721446403
 30
0.0
 10
1045.651300891136
 20
2071.513472240949
 30
0.0
 10
1045.656186311349
 20
2070.653101762877
 30
0.0
 10
1045.661630266801
 20
2069.694452169508
 30
0.0
 10
1045.665030947554
 20
2069.095557833207
 30
0.0
 10
1045.665661933881
 20
2068.982558850087
 30
0.0
 10
1045.665666865453
 20
2068.982558850087
 30
0.0
1001
REVIT
1002
{
1070
     3
1000
923885
1002
}
  0
SPLINE
  5
20C
330
1F7
100
AcDbEntity
  8
M-PIPE
100
AcDbSpline
210
0.0
220
0.0
230
1.0
 70
     8
 71
     3
 72
    11
 73
     7
 74
     0
 42
0.000000001
 43
0.0000000001
 40
0.0
 40
0.0
 40
0.0
 40
0.0
 40
0.2857142857142857
 40
0.5714285714285714
 40
0.7857142857142857
 40
1.0
 40
1.0
 40
1.0
 40
1.0
 10
1045.61435394311
 20
2077.982558850088
 30
0.0
 10
1045.614364277786
 20
2077.982558850088
 30
0.0
 10
1045.616111769425
 20
2077.675721216284
 30
0.0
 10
1045.62288910376
 20
2076.491780546705
 30
0.0
 10
1045.631464497273
 20
2074.997259954585
 30
0.0
 10
1045.637156871457
 20
2073.987528989658
 30
0.0
 10
1045.640083543021
 20
2073.482558850087
 30
0.0
1001
REVIT
1002
{
1070
     3
1000
923885
1002
}
  0
LINE
  5
20D
330
1F7
100
AcDbEntity
  8
P-SANR-FIXT
100
AcDbLine
 10
1092.614353943099
 20
2026.747080145482
 30
0.0
 11
1092.614353943099
 21
2039.182558850012
 31
0.0
  0
LINE
  5
20E
330
1F7
100
AcDbEntity
  8
P-SANR-FIXT
100
AcDbLine
 10
1041.614353943098
 20
2039.182558850012
 30
0.0
 11
1041.614353943098
 21
2026.747080145482
 31
0.0
  0
LINE
  5
20F
330
1F7
100
AcDbEntity
  8
P-SANR-FIXT
100
AcDbLine
 10
1092.114445184021
 20
2025.715007866575
 30
0.0
 11
1092.614353943099
 21
2026.747080145482
 31
0.0
  0
LINE
  5
210
330
1F7
100
AcDbEntity
  8
P-SANR-FIXT
100
AcDbLine
 10
1041.614353943098
 20
2026.747080145482
 30
0.0
 11
1042.114262702176
 21
2025.715007866575
 31
0.0
  0
LWPOLYLINE
  5
211
330
1F7
100
AcDbEntity
  8
P-SANR-FIXT
100
AcDbPolyline
 90
       13
 70
   128
 43
0.0
 10
1092.114445184021
 20
2025.715007866575
 10
1092.030882364648
 20
2025.533316033601
 10
1091.954652122046
 20
2025.348427913204
 10
1091.88587640834
 20
2025.160639286937
 10
1091.824665250002
 20
2024.970250576541
 10
1091.771116571828
 20
2024.77756636334
 10
1091.725316040278
 20
2024.582894900971
 10
1091.687336926434
 20
2024.386547622246
 10
1091.657239988776
 20
2024.188838640926
 10
1091.635073375983
 20
2023.990084249205
 10
1091.620872549907
 20
2023.790602411711
 10
1091.614660228842
 20
2023.590712256831
 10
1091.614353943098
 20
2023.535370015927
  0
LWPOLYLINE
  5
212
330
1F7
100
AcDbEntity
  8
P-SANR-FIXT
100
AcDbPolyline
 90
       13
 70
   128
 43
0.0
 10
1042.614353943098
 20
2023.535370015927
 10
1042.610354476403
 20
2023.73531668686
 10
1042.598362474612
 20
2023.934943485773
 10
1042.578397122368
 20
2024.133931052371
 10
1042.550490359976
 20
2024.331961048998
 10
1042.514686832304
 20
2024.528716669902
 10
1042.471043817359
 20
2024.723883148062
 10
1042.419631134652
 20
2024.917148258747
 10
1042.360531033511
 20
2025.108202819007
 10
1042.293838061488
 20
2025.296741182302
 10
1042.219658913113
 20
2025.48246172747
 10
1042.138112259198
 20
2025.665067341257
 10
1042.114262702176
 20
2025.715007866575
  0
LINE
  5
213
330
1F7
100
AcDbEntity
  8
P-SANR-FIXT
100
AcDbLine
 10
1091.614353943098
 20
1964.482558850012
 30
0.0
 11
1091.614353943098
 21
1965.654601800127
 31
0.0
  0
LINE
  5
214
330
1F7
100
AcDbEntity
  8
P-SANR-FIXT
100
AcDbLine
 10
1091.614353943098
 20
1999.310515899834
 30
0.0
 11
1091.614353943098
 21
2023.535370015927
 31
0.0
  0
LINE
  5
215
330
1F7
100
AcDbEntity
  8
P-SANR-FIXT
100
AcDbLine
 10
1042.614353943098
 20
2023.535370015927
 30
0.0
 11
1042.614353943098
 21
1999.310515899938
 31
0.0
  0
LINE
  5
216
330
1F7
100
AcDbEntity
  8
P-SANR-FIXT
100
AcDbLine
 10
1042.614353943098
 20
1965.654601800024
 30
0.0
 11
1042.614353943098
 21
1964.482558850012
 31
0.0
  0
LINE
  5
217
330
1F7
100
AcDbEntity
  8
P-SANR-FIXT
100
AcDbLine
 10
1092.614353943099
 20
2039.182558850012
 30
0.0
 11
1092.114353943098
 21
2039.682558850012
 31
0.0
  0
LINE
  5
218
330
1F7
100
AcDbEntity
  8
P-SANR-FIXT
100
AcDbLine
 10
1042.114353943098
 20
2039.682558850012
 30
0.0
 11
1041.614353943098
 21
2039.182558850012
 31
0.0
  0
LINE
  5
219
330
1F7
100
AcDbEntity
  8
P-SANR-FIXT
100
AcDbLine
 10
1091.3643539432
 20
1941.482558849997
 30
0.0
 11
1091.614553369384
 21
1941.627011556055
 31
0.0
  0
LINE
  5
21A
330
1F7
100
AcDbEntity
  8
P-SANR-FIXT
100
AcDbLine
 10
1042.614154516813
 20
1941.627011556056
 30
0.0
 11
1042.864353942997
 21
1941.482558849997
 31
0.0
  0
LINE
  5
21B
330
1F7
100
AcDbEntity
  8
P-SANR-FIXT
100
AcDbLine
 10
1082.364353943102
 20
2043.755386575019
 30
0.0
 11
1082.364353943102
 21
2063.482558850058
 31
0.0
  0
LINE
  5
21C
330
1F7
100
AcDbEntity
  8
P-SANR-FIXT
100
AcDbLine
 10
1051.864353943095
 20
2063.482558850057
 30
0.0
 11
1051.864353943095
 21
2043.755386575019
 31
0.0
  0
LINE
  5
21D
330
1F7
100
AcDbEntity
  8
P-SANR-FIXT
100
AcDbLine
 10
1091.271409179184
 20
2041.368748317572
 30
0.0
 11
1082.364353943102
 21
2043.755386575019
 31
0.0
  0
LINE
  5
21E
330
1F7
100
AcDbEntity
  8
P-SANR-FIXT
100
AcDbLine
 10
1051.864353943095
 20
2043.755386575019
 30
0.0
 11
1042.957298707013
 21
2041.368748317572
 31
0.0
  0
LWPOLYLINE
  5
21F
330
1F7
100
AcDbEntity
  8
P-SANR-FIXT
100
AcDbPolyline
 90
       34
 70
   128
 43
0.0
 10
1091.271409179184
 20
2041.368748317572
 10
1091.302144941613
 20
2041.359850206433
 10
1091.332500289171
 20
2041.349730110159
 10
1091.362426659777
 20
2041.338404218746
 10
1091.391876177621
 20
2041.325890651202
 10
1091.420801729758
 20
2041.312209426566
 10
1091.449157041474
 20
2041.29738243188
 10
1091.47689675032
 20
2041.281433387172
 10
1091.503976478679
 20
2041.264387807512
 10
1091.530352904762
 20
2041.24627296219
 10
1091.555983831914
 20
2041.227117831095
 10
1091.58082825612
 20
2041.20695305835
 10
1091.604846431599
 20
2041.185810903291
 10
1091.627999934397
 20
2041.163725188854
 10
1091.650251723846
 20
2041.140731247473
 10
1091.671566201831
 20
2041.116865864548
 10
1091.691909269734
 20
2041.0921672196
 10
1091.711248382985
 20
2041.066674825193
 10
1091.72955260313
 20
2041.04042946372
 10
1091.74679264732
 20
2041.01347312216
 10
1091.762940935162
 20
2040.98584892491
 10
1091.777971632841
 20
2040.957601064793
 10
1091.791860694447
 20
2040.928774732357
 10
1091.804585900443
 20
2040.899416043587
 10
1091.816126893216
 20
2040.869571966122
 10
1091.826465209638
 20
2040.839290244118
 10
1091.835584310609
 20
2040.808619321872
 10
1091.843469607512
 20
2040.777608266316
 10
1091.850108485554
 20
2040.746306688524
 10
1091.855490323948
 20
2040.714764664342
 10
1091.859606512898
 20
2040.683032654282
 10
1091.862450467382
 20
2040.65116142279
 10
1091.864017637679
 20
2040.619201957037
 10
1091.864353943102
 20
2040.596007656541
  0
LWPOLYLINE
  5
220
330
1F7
100
AcDbEntity
  8
P-SANR-FIXT
100
AcDbPolyline
 90
       34
 70
   128
 43
0.0
 10
1042.364353943095
 20
2040.596007656541
 10
1042.364993857766
 20
2040.62799912389
 10
1042.366912578053
 20
2040.659939411716
 10
1042.370107034412
 20
2040.691777422372
 10
1042.374572116395
 20
2040.723462221832
 10
1042.380300680822
 20
2040.754943121177
 10
1042.387283563213
 20
2040.786169757682
 10
1042.395509592446
 20
2040.817092175392
 10
1042.404965608629
 20
2040.847660905033
 10
1042.415636484153
 20
2040.877827043161
 10
1042.427505147893
 20
2040.907542330387
 10
1042.440552612519
 20
2040.936759228593
 10
1042.454758004872
 20
2040.965430996974
 10
1042.470098599353
 20
2040.993511766815
 10
1042.486549854285
 20
2041.020956614877
 10
1042.504085451168
 20
2041.047721635257
 10
1042.522677336788
 20
2041.07376400963
 10
1042.542295768094
 20
2041.099042075755
 10
1042.562909359783
 20
2041.123515394117
 10
1042.584485134502
 20
2041.147144812629
 10
1042.606988575617
 20
2041.16989252926
 10
1042.630383682422
 20
2041.191722152517
 10
1042.654633027736
 20
2041.21259875966
 10
1042.679697817781
 20
2041.232488952569
 10
1042.705537954237
 20
2041.251360911181
 10
1042.732112098401
 20
2041.269184444387
 10
1042.759377737309
 20
2041.285931038335
 10
1042.787291251756
 20
2041.301573902048
 10
1042.815807986074
 20
2041.316088010282
 10
1042.84488231957
 20
2041.329450143558
 10
1042.874467739514
 20
2041.341638925314
 10
1042.904516915544
 20
2041.352634856099
 10
1042.934981775389
 20
2041.362420344772
 10
1042.957298707013
 20
2041.368748317572
  0
LINE
  5
221
330
1F7
100
AcDbEntity
  8
P-SANR-FIXT
100
AcDbLine
 10
1091.864353943102
 20
2039.682558850012
 30
0.0
 11
1091.864353943102
 21
2040.596007656541
 31
0.0
  0
LINE
  5
222
330
1F7
100
AcDbEntity
  8
P-SANR-FIXT
100
AcDbLine
 10
1042.364353943095
 20
2040.596007656541
 30
0.0
 11
1042.364353943095
 21
2039.682558850012
 31
0.0
  0
LINE
  5
223
330
1F7
100
AcDbEntity
  8
P-SANR-FIXT
100
AcDbLine
 10
1092.614353943097
 20
2039.182558850011
 30
0.0
 11
1067.114353943097
 21
2039.182558850011
 31
0.0
  0
LINE
  5
224
330
1F7
100
AcDbEntity
  8
P-SANR-FIXT
100
AcDbLine
 10
1067.114353943097
 20
2039.182558850011
 30
0.0
 11
1041.614353943097
 21
2039.182558850011
 31
0.0
  0
ARC
  5
225
330
1F7
100
AcDbEntity
  8
P-SANR-FIXT
100
AcDbCircle
 10
1067.114353943096
 20
1982.48255885001
 30
0.0
 40
23.55355591376429
100
AcDbArc
 50
269.9999999999997
 51
89.99999999999889
  0
ARC
  5
226
330
1F7
100
AcDbEntity
  8
P-SANR-FIXT
100
AcDbCircle
 10
1067.114353943096
 20
1982.48255885001
 30
0.0
 40
23.55355591376406
100
AcDbArc
 50
90.0
 51
269.9999999999997
  0
ARC
  5
227
330
1F7
100
AcDbEntity
  8
P-SANR-FIXT
100
AcDbCircle
 10
1067.114353943096
 20
1982.48255885001
 30
0.0
 40
20.94999999995262
100
AcDbArc
 50
67.49535021789874
 51
68.18690938874937
  0
ARC
  5
228
330
1F7
100
AcDbEntity
  8
P-SANR-FIXT
100
AcDbCircle
 10
1067.114353943096
 20
1982.48255885001
 30
0.0
 40
20.94999999995271
100
AcDbArc
 50
63.00416596540711
 51
64.09345469444426
  0
ARC
  5
229
330
1F7
100
AcDbEntity
  8
P-SANR-FIXT
100
AcDbCircle
 10
1067.114353943096
 20
1982.48255885001
 30
0.0
 40
20.94999999995277
100
AcDbArc
 50
58.50026099512582
 51
60.00000000013896
  0
ARC
  5
22A
330
1F7
100
AcDbEntity
  8
P-SANR-FIXT
100
AcDbCircle
 10
1067.114353943096
 20
1982.48255885001
 30
0.0
 40
20.94999999995256
100
AcDbArc
 50
53.98298433496939
 51
55.90654530583375
  0
LINE
  5
22B
330
1F7
100
AcDbEntity
  8
P-SANR-FIXT
100
AcDbLine
 10
1080.066247955382
 20
1998.949220366315
 30
0.0
 11
1080.088024592571
 21
1998.911502124286
 31
0.0
  0
LINE
  5
22C
330
1F7
100
AcDbEntity
  8
P-SANR-FIXT
100
AcDbLine
 10
1087.838734175348
 20
1985.486879332204
 30
0.0
 11
1087.850848137878
 21
1985.465897333621
 31
0.0
  0
ARC
  5
22D
330
1F7
100
AcDbEntity
  8
P-SANR-FIXT
100
AcDbCircle
 10
1067.114353943096
 20
1982.48255885001
 30
0.0
 40
20.94999999995258
100
AcDbArc
 50
4.093454694236915
 51
4.509017589821843
  0
ARC
  5
22E
330
1F7
100
AcDbEntity
  8
P-SANR-FIXT
100
AcDbCircle
 10
1067.114353943096
 20
1982.48255885001
 30
0.0
 40
20.94999999995261
100
AcDbArc
 50
355.5064853354508
 51
355.9065453057677
  0
LINE
  5
22F
330
1F7
100
AcDbEntity
  8
P-SANR-FIXT
100
AcDbLine
 10
1087.850848137879
 20
1979.499220366402
 30
0.0
 11
1087.838734175348
 21
1979.478238367818
 31
0.0
  0
LINE
  5
230
330
1F7
100
AcDbEntity
  8
P-SANR-FIXT
100
AcDbLine
 10
1080.088024592569
 20
1966.053615575735
 30
0.0
 11
1080.06624795538
 21
1966.015897333705
 31
0.0
  0
ARC
  5
231
330
1F7
100
AcDbEntity
  8
P-SANR-FIXT
100
AcDbCircle
 10
1067.114353943096
 20
1982.48255885001
 30
0.0
 40
20.94999999995248
100
AcDbArc
 50
304.093454694165
 51
306.0275439076921
  0
ARC
  5
232
330
1F7
100
AcDbEntity
  8
P-SANR-FIXT
100
AcDbCircle
 10
1067.114353943096
 20
1982.48255885001
 30
0.0
 40
20.94999999995248
100
AcDbArc
 50
299.9999999998633
 51
301.523397105833
  0
ARC
  5
233
330
1F7
100
AcDbEntity
  8
P-SANR-FIXT
100
AcDbCircle
 10
1067.114353943096
 20
1982.48255885001
 30
0.0
 40
20.94999999995249
100
AcDbArc
 50
295.9065453055611
 51
297.0170591064916
  0
ARC
  5
234
330
1F7
100
AcDbEntity
  8
P-SANR-FIXT
100
AcDbCircle
 10
1067.114353943096
 20
1982.48255885001
 30
0.0
 40
20.94999999995254
100
AcDbArc
 50
291.8130906112596
 51
292.5078711710881
  0
LINE
  5
235
330
1F7
100
AcDbEntity
  8
P-SANR-FIXT
100
AcDbLine
 10
1074.898954125502
 20
1963.032558850059
 30
0.0
 11
1074.874811772679
 21
1963.032558850059
 31
0.0
  0
LINE
  5
236
330
1F7
100
AcDbEntity
  8
P-SANR-FIXT
100
AcDbLine
 10
1059.353896113513
 20
1963.032558850059
 30
0.0
 11
1059.329753760691
 21
1963.032558850059
 31
0.0
  0
ARC
  5
237
330
1F7
100
AcDbEntity
  8
P-SANR-FIXT
100
AcDbCircle
 10
1067.114353943096
 20
1982.48255885001
 30
0.0
 40
20.94999999995245
100
AcDbArc
 50
247.493668153967
 51
248.1869093887399
  0
ARC
  5
238
330
1F7
100
AcDbEntity
  8
P-SANR-FIXT
100
AcDbCircle
 10
1067.114353943096
 20
1982.48255885001
 30
0.0
 40
20.94999999995241
100
AcDbArc
 50
243.0016627506701
 51
244.0934546943001
  0
ARC
  5
239
330
1F7
100
AcDbEntity
  8
P-SANR-FIXT
100
AcDbCircle
 10
1067.114353943096
 20
1982.48255885001
 30
0.0
 40
20.94999999995246
100
AcDbArc
 50
238.4974630416641
 51
239.9999999998602
  0
ARC
  5
23A
330
1F7
100
AcDbEntity
  8
P-SANR-FIXT
100
AcDbCircle
 10
1067.114353943096
 20
1982.48255885001
 30
0.0
 40
20.94999999995249
100
AcDbArc
 50
233.9817358476594
 51
235.9065453054205
  0
LINE
  5
23B
330
1F7
100
AcDbEntity
  8
P-SANR-FIXT
100
AcDbLine
 10
1054.162459930654
 20
1966.01589733383
 30
0.0
 11
1054.140683293465
 21
1966.053615575859
 31
0.0
  0
LINE
  5
23C
330
1F7
100
AcDbEntity
  8
P-SANR-FIXT
100
AcDbLine
 10
1046.389973710867
 20
1979.47823836763
 30
0.0
 11
1046.377859748343
 21
1979.499220366203
 31
0.0
  0
ARC
  5
23D
330
1F7
100
AcDbEntity
  8
P-SANR-FIXT
100
AcDbCircle
 10
1067.114353943096
 20
1982.48255885001
 30
0.0
 40
20.9499999999525
100
AcDbArc
 50
184.0934546945071
 51
184.492385383781
  0
ARC
  5
23E
330
1F7
100
AcDbEntity
  8
P-SANR-FIXT
100
AcDbCircle
 10
1067.114353943096
 20
1982.48255885001
 30
0.0
 40
20.94999999995246
100
AcDbArc
 50
175.4898632469798
 51
175.9065453054869
  0
LINE
  5
23F
330
1F7
100
AcDbEntity
  8
P-SANR-FIXT
100
AcDbLine
 10
1046.377859748343
 20
1985.465897333821
 30
0.0
 11
1046.389973710867
 21
1985.486879332393
 31
0.0
  0
LINE
  5
240
330
1F7
100
AcDbEntity
  8
P-SANR-FIXT
100
AcDbLine
 10
1054.140683293464
 20
1998.911502124161
 30
0.0
 11
1054.162459930653
 21
1998.94922036619
 31
0.0
  0
ARC
  5
241
330
1F7
100
AcDbEntity
  8
P-SANR-FIXT
100
AcDbCircle
 10
1067.114353943096
 20
1982.48255885001
 30
0.0
 40
20.94999999995258
100
AcDbArc
 50
124.0934546945799
 51
126.0309751422559
  0
ARC
  5
242
330
1F7
100
AcDbEntity
  8
P-SANR-FIXT
100
AcDbCircle
 10
1067.114353943096
 20
1982.48255885001
 30
0.0
 40
20.94999999995247
100
AcDbArc
 50
120.0000000001367
 51
121.5311387172216
  0
ARC
  5
243
330
1F7
100
AcDbEntity
  8
P-SANR-FIXT
100
AcDbCircle
 10
1067.114353943096
 20
1982.48255885001
 30
0.0
 40
20.94999999995265
100
AcDbArc
 50
115.9065453056928
 51
117.0240338040839
  0
ARC
  5
244
330
1F7
100
AcDbEntity
  8
P-SANR-FIXT
100
AcDbCircle
 10
1067.114353943096
 20
1982.48255885001
 30
0.0
 40
20.94999999995247
100
AcDbArc
 50
111.8130906112493
 51
112.5102449383535
  0
LINE
  5
245
330
1F7
100
AcDbEntity
  8
P-SANR-FIXT
100
AcDbLine
 10
1059.329753760694
 20
2001.932558849964
 30
0.0
 11
1059.353896113517
 21
2001.932558849964
 31
0.0
  0
LINE
  5
246
330
1F7
100
AcDbEntity
  8
P-SANR-FIXT
100
AcDbLine
 10
1074.874811772676
 20
2001.932558849964
 30
0.0
 11
1074.898954125499
 21
2001.932558849964
 31
0.0
  0
LINE
  5
247
330
1F7
100
AcDbEntity
  8
P-SANR-FIXT
100
AcDbLine
 10
1067.114353943096
 20
2039.682558850011
 30
0.0
 11
1092.114353943097
 21
2039.682558850011
 31
0.0
  0
LINE
  5
248
330
1F7
100
AcDbEntity
  8
P-SANR-FIXT
100
AcDbLine
 10
1042.114353943097
 20
2039.682558850011
 30
0.0
 11
1067.114353943096
 21
2039.682558850011
 31
0.0
  0
LINE
  5
249
330
1F7
100
AcDbEntity
  8
P-SANR-FIXT
100
AcDbLine
 10
1067.114353943096
 20
2026.747080145481
 30
0.0
 11
1092.614353943097
 21
2026.747080145481
 31
0.0
  0
LINE
  5
24A
330
1F7
100
AcDbEntity
  8
P-SANR-FIXT
100
AcDbLine
 10
1041.614353943097
 20
2026.747080145481
 30
0.0
 11
1067.114353943096
 21
2026.747080145481
 31
0.0
  0
ARC
  5
24B
330
1F7
100
AcDbEntity
  8
P-SANR-FIXT
100
AcDbCircle
 10
1067.114353943096
 20
1982.48255885001
 30
0.0
 40
26.9999999998252
100
AcDbArc
 50
59.99999999999793
 51
60.12648303694182
  0
ARC
  5
24C
330
1F7
100
AcDbEntity
  8
P-SANR-FIXT
100
AcDbCircle
 10
1067.114353943096
 20
1982.48255885001
 30
0.0
 40
26.99999999982539
100
AcDbArc
 50
359.9999999999987
 51
0.1296713779352108
  0
ARC
  5
24D
330
1F7
100
AcDbEntity
  8
P-SANR-FIXT
100
AcDbCircle
 10
1067.114353943096
 20
1982.48255885001
 30
0.0
 40
26.99999999982518
100
AcDbArc
 50
299.9999999999985
 51
300.1330246169672
  0
ARC
  5
24E
330
1F7
100
AcDbEntity
  8
P-SANR-FIXT
100
AcDbCircle
 10
1067.114353943096
 20
1982.48255885001
 30
0.0
 40
26.999999999825
100
AcDbArc
 50
239.9999999999992
 51
240.1264830366574
  0
ARC
  5
24F
330
1F7
100
AcDbEntity
  8
P-SANR-FIXT
100
AcDbCircle
 10
1067.114353943096
 20
1982.48255885001
 30
0.0
 40
26.99999999982507
100
AcDbArc
 50
179.999999999999
 51
180.129671378067
  0
ARC
  5
250
330
1F7
100
AcDbEntity
  8
P-SANR-FIXT
100
AcDbCircle
 10
1067.114353943096
 20
1982.48255885001
 30
0.0
 40
26.99999999982534
100
AcDbArc
 50
119.8735169633404
 51
119.9999999999996
  0
SPLINE
  5
251
330
1F7
100
AcDbEntity
  8
P-SANR-FIXT
100
AcDbSpline
210
0.0
220
0.0
230
1.0
 70
     8
 71
     3
 72
     9
 73
     5
 74
     0
 42
0.000000001
 43
0.0000000001
 40
0.0
 40
0.0
 40
0.0
 40
0.0
 40
0.5
 40
1.0
 40
1.0
 40
1.0
 40
1.0
 10
1040.114353943069
 20
1993.74088909916
 30
0.0
 10
1040.114353943069
 20
1994.386603560568
 30
0.0
 10
1040.282084388969
 20
1995.687067203956
 30
0.0
 10
1040.787522175887
 20
1996.916469623672
 30
0.0
 10
1041.119163414677
 20
1997.490889099143
 30
0.0
  0
SPLINE
  5
252
330
1F7
100
AcDbEntity
  8
P-SANR-FIXT
100
AcDbSpline
210
0.0
220
0.0
230
1.0
 70
     8
 71
     3
 72
     9
 73
     5
 74
     0
 42
0.000000001
 43
0.0000000001
 40
0.0
 40
0.0
 40
0.0
 40
0.0
 40
0.5
 40
1.0
 40
1.0
 40
1.0
 40
1.0
 10
1041.119163414677
 20
1997.490889099143
 30
0.0
 10
1041.45080465347
 20
1998.065308574621
 30
0.0
 10
1042.262779486963
 20
1999.117731747997
 30
0.0
 10
1043.305148815894
 20
1999.913222396837
 30
0.0
 10
1043.864353943069
 20
2000.236079627543
 30
0.0
  0
SPLINE
  5
253
330
1F7
100
AcDbEntity
  8
P-SANR-FIXT
100
AcDbSpline
210
0.0
220
0.0
230
1.0
 70
    24
 71
     3
 72
     9
 73
     5
 74
     0
 42
0.000000001
 43
0.0000000001
 40
0.0
 40
0.0
 40
0.0
 40
0.0
 40
0.5
 40
1.0
 40
1.0
 40
1.0
 40
1.0
 10
1040.114353943069
 20
1971.224228600801
 30
0.0
 10
1040.114353943069
 20
1974.936319571581
 30
0.0
 10
1040.114353943069
 20
1982.401187292087
 30
0.0
 10
1040.114353943069
 20
1989.947426570487
 30
0.0
 10
1040.114353943069
 20
1993.74088909916
 30
0.0
  0
SPLINE
  5
254
330
1F7
100
AcDbEntity
  8
P-SANR-FIXT
100
AcDbSpline
210
0.0
220
0.0
230
1.0
 70
     8
 71
     3
 72
     9
 73
     5
 74
     0
 42
0.000000001
 43
0.0000000001
 40
0.0
 40
0.0
 40
0.0
 40
0.0
 40
0.5
 40
1.0
 40
1.0
 40
1.0
 40
1.0
 10
1043.864353943068
 20
1964.729038072418
 30
0.0
 10
1043.305148815896
 20
1965.051895303123
 30
0.0
 10
1042.26277948697
 20
1965.847385951958
 30
0.0
 10
1041.450804653478
 20
1966.899809125327
 30
0.0
 10
1041.119163414685
 20
1967.474228600801
 30
0.0
  0
SPLINE
  5
255
330
1F7
100
AcDbEntity
  8
P-SANR-FIXT
100
AcDbSpline
210
0.0
220
0.0
230
1.0
 70
     8
 71
     3
 72
     9
 73
     5
 74
     0
 42
0.000000001
 43
0.0000000001
 40
0.0
 40
0.0
 40
0.0
 40
0.0
 40
0.5
 40
1.0
 40
1.0
 40
1.0
 40
1.0
 10
1041.119163414685
 20
1967.474228600801
 30
0.0
 10
1040.787522175892
 20
1968.048648076276
 30
0.0
 10
1040.282084388969
 20
1969.278050495998
 30
0.0
 10
1040.114353943069
 20
1970.578514139391
 30
0.0
 10
1040.114353943069
 20
1971.224228600801
 30
0.0
  0
SPLINE
  5
256
330
1F7
100
AcDbEntity
  8
P-SANR-FIXT
100
AcDbSpline
210
0.0
220
0.0
230
1.0
 70
    24
 71
     3
 72
     9
 73
     5
 74
     0
 42
0.000000001
 43
0.0000000001
 40
0.0
 40
0.0
 40
0.0
 40
0.0
 40
0.5
 40
1.0
 40
1.0
 40
1.0
 40
1.0
 10
1063.364353943037
 20
1953.470707823237
 30
0.0
 10
1060.149588861182
 20
1955.326753308628
 30
0.0
 10
1053.684823779333
 20
1959.059187168881
 30
0.0
 10
1047.149588861203
 20
1962.832306808081
 30
0.0
 10
1043.864353943068
 20
1964.729038072417
 30
0.0
  0
SPLINE
  5
257
330
1F7
100
AcDbEntity
  8
P-SANR-FIXT
100
AcDbSpline
210
0.0
220
0.0
230
1.0
 70
     8
 71
     3
 72
     9
 73
     5
 74
     0
 42
0.000000001
 43
0.0000000001
 40
0.0
 40
0.0
 40
0.0
 40
0.0
 40
0.5
 40
1.0
 40
1.0
 40
1.0
 40
1.0
 10
1070.864353943037
 20
1953.470707823237
 30
0.0
 10
1070.305148815863
 20
1953.147850592531
 30
0.0
 10
1069.095049041029
 20
1952.642877597971
 30
0.0
 10
1067.777636420607
 20
1952.465898351619
 30
0.0
 10
1067.114353943018
 20
1952.465898351621
 30
0.0
  0
SPLINE
  5
258
330
1F7
100
AcDbEntity
  8
P-SANR-FIXT
100
AcDbSpline
210
0.0
220
0.0
230
1.0
 70
     8
 71
     3
 72
     9
 73
     5
 74
     0
 42
0.000000001
 43
0.0000000001
 40
0.0
 40
0.0
 40
0.0
 40
0.0
 40
0.5
 40
1.0
 40
1.0
 40
1.0
 40
1.0
 10
1067.114353943018
 20
1952.465898351621
 30
0.0
 10
1066.451071465436
 20
1952.465898351622
 30
0.0
 10
1065.13365884503
 20
1952.642877597977
 30
0.0
 10
1063.923559070207
 20
1953.147850592533
 30
0.0
 10
1063.364353943037
 20
1953.470707823237
 30
0.0
  0
SPLINE
  5
259
330
1F7
100
AcDbEntity
  8
P-SANR-FIXT
100
AcDbSpline
210
0.0
220
0.0
230
1.0
 70
    24
 71
     3
 72
     9
 73
     5
 74
     0
 42
0.000000001
 43
0.0000000001
 40
0.0
 40
0.0
 40
0.0
 40
0.0
 40
0.5
 40
1.0
 40
1.0
 40
1.0
 40
1.0
 10
1090.364353943006
 20
1964.729038072416
 30
0.0
 10
1087.149588861151
 20
1962.872992587026
 30
0.0
 10
1080.684823779301
 20
1959.140558726772
 30
0.0
 10
1074.149588861171
 20
1955.367439087573
 30
0.0
 10
1070.864353943037
 20
1953.470707823237
 30
0.0
  0
SPLINE
  5
25A
330
1F7
100
AcDbEntity
  8
P-SANR-FIXT
100
AcDbSpline
210
0.0
220
0.0
230
1.0
 70
     8
 71
     3
 72
     9
 73
     5
 74
     0
 42
0.000000001
 43
0.0000000001
 40
0.0
 40
0.0
 40
0.0
 40
0.0
 40
0.5
 40
1.0
 40
1.0
 40
1.0
 40
1.0
 10
1094.114353943006
 20
1971.224228600799
 30
0.0
 10
1094.114353943006
 20
1970.578514139385
 30
0.0
 10
1093.946623497103
 20
1969.278050495984
 30
0.0
 10
1093.441185710175
 20
1968.048648076259
 30
0.0
 10
1093.10954447138
 20
1967.474228600783
 30
0.0
  0
SPLINE
  5
25B
330
1F7
100
AcDbEntity
  8
P-SANR-FIXT
100
AcDbSpline
210
0.0
220
0.0
230
1.0
 70
     8
 71
     3
 72
     9
 73
     5
 74
     0
 42
0.000000001
 43
0.0000000001
 40
0.0
 40
0.0
 40
0.0
 40
0.0
 40
0.5
 40
1.0
 40
1.0
 40
1.0
 40
1.0
 10
1093.10954447138
 20
1967.474228600783
 30
0.0
 10
1092.777903232588
 20
1966.899809125314
 30
0.0
 10
1091.965928399099
 20
1965.847385951953
 30
0.0
 10
1090.923559070176
 20
1965.051895303121
 30
0.0
 10
1090.364353943006
 20
1964.729038072416
 30
0.0
  0
SPLINE
  5
25C
330
1F7
100
AcDbEntity
  8
P-SANR-FIXT
100
AcDbSpline
210
0.0
220
0.0
230
1.0
 70
    24
 71
     3
 72
     9
 73
     5
 74
     0
 42
0.000000001
 43
0.0000000001
 40
0.0
 40
0.0
 40
0.0
 40
0.0
 40
0.5
 40
1.0
 40
1.0
 40
1.0
 40
1.0
 10
1094.114353943006
 20
1993.740889099159
 30
0.0
 10
1094.114353943006
 20
1990.028798128378
 30
0.0
 10
1094.114353943006
 20
1982.563930407871
 30
0.0
 10
1094.114353943006
 20
1975.017691129472
 30
0.0
 10
1094.114353943006
 20
1971.2242286008
 30
0.0
  0
SPLINE
  5
25D
330
1F7
100
AcDbEntity
  8
P-SANR-FIXT
100
AcDbSpline
210
0.0
220
0.0
230
1.0
 70
     8
 71
     3
 72
     9
 73
     5
 74
     0
 42
0.000000001
 43
0.0000000001
 40
0.0
 40
0.0
 40
0.0
 40
0.0
 40
0.5
 40
1.0
 40
1.0
 40
1.0
 40
1.0
 10
1090.364353943007
 20
2000.236079627542
 30
0.0
 10
1090.92355907018
 20
1999.913222396836
 30
0.0
 10
1091.965928399107
 20
1999.117731748
 30
0.0
 10
1092.777903232597
 20
1998.065308574632
 30
0.0
 10
1093.109544471389
 20
1997.490889099159
 30
0.0
  0
SPLINE
  5
25E
330
1F7
100
AcDbEntity
  8
P-SANR-FIXT
100
AcDbSpline
210
0.0
220
0.0
230
1.0
 70
     8
 71
     3
 72
     9
 73
     5
 74
     0
 42
0.000000001
 43
0.0000000001
 40
0.0
 40
0.0
 40
0.0
 40
0.0
 40
0.5
 40
1.0
 40
1.0
 40
1.0
 40
1.0
 10
1093.109544471389
 20
1997.490889099159
 30
0.0
 10
1093.441185710181
 20
1996.916469623687
 30
0.0
 10
1093.946623497105
 20
1995.687067203967
 30
0.0
 10
1094.114353943006
 20
1994.386603560571
 30
0.0
 10
1094.114353943006
 20
1993.740889099159
 30
0.0
  0
SPLINE
  5
25F
330
1F7
100
AcDbEntity
  8
P-SANR-FIXT
100
AcDbSpline
210
0.0
220
0.0
230
1.0
 70
    24
 71
     3
 72
     9
 73
     5
 74
     0
 42
0.000000001
 43
0.0000000001
 40
0.0
 40
0.0
 40
0.0
 40
0.0
 40
0.5
 40
1.0
 40
1.0
 40
1.0
 40
1.0
 10
1070.864353943038
 20
2011.494409876723
 30
0.0
 10
1074.079119024892
 20
2009.638364391332
 30
0.0
 10
1080.543884106742
 20
2005.905930531079
 30
0.0
 10
1087.079119024871
 20
2002.132810891879
 30
0.0
 10
1090.364353943007
 20
2000.236079627542
 30
0.0
  0
SPLINE
  5
260
330
1F7
100
AcDbEntity
  8
P-SANR-FIXT
100
AcDbSpline
210
0.0
220
0.0
230
1.0
 70
     8
 71
     3
 72
     9
 73
     5
 74
     0
 42
0.000000001
 43
0.0000000001
 40
0.0
 40
0.0
 40
0.0
 40
0.0
 40
0.5
 40
1.0
 40
1.0
 40
1.0
 40
1.0
 10
1063.364353943038
 20
2011.494409876723
 30
0.0
 10
1063.923559070209
 20
2011.817267107427
 30
0.0
 10
1065.133658845033
 20
2012.322240101984
 30
0.0
 10
1066.451071465438
 20
2012.499219348338
 30
0.0
 10
1067.114353943019
 20
2012.499219348339
 30
0.0
  0
SPLINE
  5
261
330
1F7
100
AcDbEntity
  8
P-SANR-FIXT
100
AcDbSpline
210
0.0
220
0.0
230
1.0
 70
     8
 71
     3
 72
     9
 73
     5
 74
     0
 42
0.000000001
 43
0.0000000001
 40
0.0
 40
0.0
 40
0.0
 40
0.0
 40
0.5
 40
1.0
 40
1.0
 40
1.0
 40
1.0
 10
1067.114353943019
 20
2012.499219348339
 30
0.0
 10
1067.777636420606
 20
2012.499219348341
 30
0.0
 10
1069.095049041027
 20
2012.32224010199
 30
0.0
 10
1070.305148815863
 20
2011.81726710743
 30
0.0
 10
1070.864353943038
 20
2011.494409876723
 30
0.0
  0
SPLINE
  5
262
330
1F7
100
AcDbEntity
  8
P-SANR-FIXT
100
AcDbSpline
210
0.0
220
0.0
230
1.0
 70
    24
 71
     3
 72
     9
 73
     5
 74
     0
 42
0.000000001
 43
0.0000000001
 40
0.0
 40
0.0
 40
0.0
 40
0.0
 40
0.5
 40
1.0
 40
1.0
 40
1.0
 40
1.0
 10
1043.864353943069
 20
2000.236079627543
 30
0.0
 10
1047.149588861204
 20
2002.13281089188
 30
0.0
 10
1053.684823779333
 20
2005.905930531079
 30
0.0
 10
1060.149588861183
 20
2009.638364391332
 30
0.0
 10
1063.364353943038
 20
2011.494409876723
 30
0.0
  0
ARC
  5
263
330
1F7
100
AcDbEntity
  8
P-SANR-FIXT
100
AcDbCircle
 10
1067.114353943096
 20
1982.48255885001
 30
0.0
 40
19.44999999995252
100
AcDbArc
 50
269.9999999999997
 51
90.0
  0
ARC
  5
264
330
1F7
100
AcDbEntity
  8
P-SANR-FIXT
100
AcDbCircle
 10
1067.114353943096
 20
1982.48255885001
 30
0.0
 40
19.44999999995252
100
AcDbArc
 50
90.0
 51
269.9999999999997
  0
ARC
  5
265
330
1F7
100
AcDbEntity
  8
P-SANR-FIXT
100
AcDbCircle
 10
1067.114353943096
 20
1982.48255885001
 30
0.0
 40
20.94999999995252
100
AcDbArc
 50
269.9999999999997
 51
90.0
  0
ARC
  5
266
330
1F7
100
AcDbEntity
  8
P-SANR-FIXT
100
AcDbCircle
 10
1067.114353943096
 20
1982.48255885001
 30
0.0
 40
20.94999999995252
100
AcDbArc
 50
90.0
 51
269.999999999999
  0
LINE
  5
267
330
1F7
100
AcDbEntity
  8
P-SANR-FIXT
100
AcDbLine
 10
1042.614353943112
 20
1964.482558850011
 30
0.0
 11
1044.285416645329
 21
1964.482558850011
 31
0.0
  0
LINE
  5
268
330
1F7
100
AcDbEntity
  8
P-SANR-FIXT
100
AcDbLine
 10
1089.943291240752
 20
1964.482558850011
 30
0.0
 11
1091.61435394308
 21
1964.482558850011
 31
0.0
  0
LINE
  5
269
330
1F7
100
AcDbEntity
  8
P-SANR-FIXT
100
AcDbLine
 10
1091.364353943198
 20
1941.482558849996
 30
0.0
 11
1067.114353943097
 21
1941.482558849996
 31
0.0
  0
LINE
  5
26A
330
1F7
100
AcDbEntity
  8
P-SANR-FIXT
100
AcDbLine
 10
1067.114353943097
 20
1941.482558849996
 30
0.0
 11
1042.864353942995
 21
1941.482558849996
 31
0.0
  0
SPLINE
  5
26B
330
1F7
100
AcDbEntity
  8
P-SANR-FIXT
100
AcDbSpline
210
0.0
220
0.0
230
1.0
 70
    24
 71
     3
 72
     9
 73
     5
 74
     0
 42
0.000000001
 43
0.0000000001
 40
0.4964120761309767
 40
0.4964120761309767
 40
0.4964120761309767
 40
0.4964120761309767
 40
0.5
 40
1.0
 40
1.0
 40
1.0
 40
1.0
 10
1042.614353943113
 20
1941.627011556055
 30
0.0
 10
1042.614353943113
 20
1941.626971918797
 30
0.0
 10
1042.614353943113
 20
1941.624190248278
 30
0.0
 10
1042.614353943113
 20
1942.01183371859
 30
0.0
 10
1042.614353943113
 20
1942.781596955614
 30
0.0
  0
LINE
  5
26C
330
1F7
100
AcDbEntity
  8
P-SANR-FIXT
100
AcDbLine
 10
1042.614353943112
 20
1942.781596955614
 30
0.0
 11
1042.614353943112
 21
1964.482558850011
 31
0.0
  0
LINE
  5
26D
330
1F7
100
AcDbEntity
  8
P-SANR-FIXT
100
AcDbLine
 10
1042.614353943112
 20
1942.781596955614
 30
0.0
 11
1046.117926100802
 21
1942.781596955614
 31
0.0
  0
LINE
  5
26E
330
1F7
100
AcDbEntity
  8
P-SANR-FIXT
100
AcDbLine
 10
1046.117926100802
 20
1942.781596955614
 30
0.0
 11
1046.117926100802
 21
1963.427937580512
 31
0.0
  0
SPLINE
  5
26F
330
1F7
100
AcDbEntity
  8
P-SANR-FIXT
100
AcDbSpline
210
0.0
220
0.0
230
1.0
 70
     8
 71
     3
 72
     9
 73
     5
 74
     0
 42
0.000000001
 43
0.0000000001
 40
0.0
 40
0.0
 40
0.0
 40
0.0
 40
0.5
 40
1.0
 40
1.0
 40
1.0
 40
1.0
 10
1046.117926100802
 20
1942.781596955614
 30
0.0
 10
1049.073091878815
 20
1942.01183371865
 30
0.0
 10
1054.943733604262
 20
1941.242070481687
 30
0.0
 10
1060.734995668551
 20
1942.01183371865
 30
0.0
 10
1063.610781785406
 20
1942.781596955614
 30
0.0
  0
LINE
  5
270
330
1F7
100
AcDbEntity
  8
P-SANR-FIXT
100
AcDbLine
 10
1063.610781785406
 20
1942.781596955614
 30
0.0
 11
1063.610781785406
 21
1953.348984577829
 31
0.0
  0
LINE
  5
271
330
1F7
100
AcDbEntity
  8
P-SANR-FIXT
100
AcDbLine
 10
1063.610781785406
 20
1942.781596955614
 30
0.0
 11
1067.114353943096
 21
1942.781596955614
 31
0.0
  0
LINE
  5
272
330
1F7
100
AcDbEntity
  8
P-SANR-FIXT
100
AcDbLine
 10
1067.114353943096
 20
1942.781596955614
 30
0.0
 11
1070.617926100786
 21
1942.781596955614
 31
0.0
  0
LINE
  5
273
330
1F7
100
AcDbEntity
  8
P-SANR-FIXT
100
AcDbLine
 10
1070.617926100786
 20
1942.781596955614
 30
0.0
 11
1070.617926100786
 21
1953.348984577887
 31
0.0
  0
SPLINE
  5
274
330
1F7
100
AcDbEntity
  8
P-SANR-FIXT
100
AcDbSpline
210
0.0
220
0.0
230
1.0
 70
     8
 71
     3
 72
     9
 73
     5
 74
     0
 42
0.000000001
 43
0.0000000001
 40
0.0
 40
0.0
 40
0.0
 40
0.0
 40
0.5
 40
1.0
 40
1.0
 40
1.0
 40
1.0
 10
1070.617926100786
 20
1942.781596955614
 30
0.0
 10
1073.573091878799
 20
1942.01183371865
 30
0.0
 10
1079.443733604246
 20
1941.242070481687
 30
0.0
 10
1085.234995668535
 20
1942.01183371865
 30
0.0
 10
1088.110781785391
 20
1942.781596955614
 30
0.0
  0
LINE
  5
275
330
1F7
100
AcDbEntity
  8
P-SANR-FIXT
100
AcDbLine
 10
1088.110781785391
 20
1942.781596955614
 30
0.0
 11
1088.110781785391
 21
1963.427937580579
 31
0.0
  0
LINE
  5
276
330
1F7
100
AcDbEntity
  8
P-SANR-FIXT
100
AcDbLine
 10
1088.110781785391
 20
1942.781596955614
 30
0.0
 11
1091.61435394308
 21
1942.781596955614
 31
0.0
  0
LINE
  5
277
330
1F7
100
AcDbEntity
  8
P-SANR-FIXT
100
AcDbLine
 10
1091.61435394308
 20
1942.781596955614
 30
0.0
 11
1091.61435394308
 21
1964.482558850011
 31
0.0
  0
SPLINE
  5
278
330
1F7
100
AcDbEntity
  8
P-SANR-FIXT
100
AcDbSpline
210
0.0
220
0.0
230
1.0
 70
    24
 71
     3
 72
     8
 73
     4
 74
     0
 42
0.000000001
 43
0.0000000001
 40
0.0
 40
0.0
 40
0.0
 40
0.0
 40
0.5
 40
0.5
 40
0.5
 40
0.5
 10
1091.61435394308
 20
1942.781596955614
 30
0.0
 10
1091.61435394308
 20
1942.01183371865
 30
0.0
 10
1091.61435394308
 20
1941.626952100168
 30
0.0
 10
1091.61435394308
 20
1941.626952100168
 30
0.0
  0
LINE
  5
279
330
1F7
100
AcDbEntity
  8
P-SANR-FIXT
100
AcDbLine
 10
1067.114353943097
 20
2043.755386575018
 30
0.0
 11
1082.3643539431
 21
2043.755386575018
 31
0.0
  0
LINE
  5
27A
330
1F7
100
AcDbEntity
  8
P-SANR-FIXT
100
AcDbLine
 10
1051.864353943093
 20
2043.755386575018
 30
0.0
 11
1067.114353943097
 21
2043.755386575018
 31
0.0
  0
ENDBLK
  5
27C
330
1F7
100
AcDbEntity
  8
0
100
AcDbBlockEnd
  0
ENDSEC
  0
SECTION
  2
ENTITIES
  0
INSERT
  5
107
330
71
100
AcDbEntity
  8
P-SANR-FIXT
100
AcDbBlockReference
  2
Automatic flow rate regulator valve_Caleffi_121 DN15 - 1_2__-859151-Est - Idraulica
 10
0.0
 20
0.0
 30
0.0
1001
REVIT
1002
{
1070
     1
1000
863131
1002
}
1002
{
1070
     5
1000
859151
1002
}
1002
{
1070
     2
1000
-2001160
1002
}
  0
INSERT
  5
1F6
330
71
100
AcDbEntity
  8
P-SANR-FIXT
100
AcDbBlockReference
  2
Automatic flow rate regulator valve_Caleffi_121 DN15 - 1_2__-V1-Est - Idraulica
 10
0.0
 20
0.0
 30
0.0
1001
REVIT
1002
{
1070
     1
1000
863152
1002
}
1002
{
1070
     5
1000
859151
1002
}
1002
{
1070
     2
1000
-2001160
1002
}
  0
INSERT
  5
27D
330
71
100
AcDbEntity
  8
P-SANR-FIXT
100
AcDbBlockReference
  2
Automatic flow rate regulator valve_Caleffi_121 DN15 - 1_2__-V2-Est - Idraulica
 10
0.0
 20
0.0
 30
0.0
1001
REVIT
1002
{
1070
     1
1000
863172
1002
}
1002
{
1070
     5
1000
859151
1002
}
1002
{
1070
     2
1000
-2001160
1002
}
  0
ENDSEC
  0
SECTION
  2
OBJECTS
  0
DICTIONARY
  5
C
330
0
100
AcDbDictionary
281
     1
  3
ACAD_CIP_PREVIOUS_PRODUCT_INFO
350
7A
  3
ACAD_COLOR
350
63
  3
ACAD_DETAILVIEWSTYLE
350
6B
  3
ACAD_GROUP
350
D
  3
ACAD_IMAGE_VARS
350
7B
  3
ACAD_LAYOUT
350
62
  3
ACAD_MATERIAL
350
10
  3
ACAD_MLEADERSTYLE
350
66
  3
ACAD_MLINESTYLE
350
5F
  3
ACAD_PLOTSETTINGS
350
61
  3
ACAD_PLOTSTYLENAME
350
E
  3
ACAD_SCALELIST
350
42
  3
ACAD_SECTIONVIEWSTYLE
350
68
  3
ACAD_TABLESTYLE
350
64
  3
ACAD_VISUALSTYLE
350
29
  3
ACDB_RECOMPOSE_DATA
350
288
  3
AcDbVariableDictionary
350
7C
  3
REVIT_DICTIONARY
350
27F
  0
DICTIONARY
  5
284
330
71
100
AcDbDictionary
280
     1
281
     1
  3
ACAD_SORTENTS
360
285
  0
XRECORD
  5
7A
102
{ACAD_REACTORS
330
C
102
}
330
C
100
AcDbXrecord
280
     1
300
RVT
300
2013
300
RVT2013
  0
DICTIONARY
  5
63
102
{ACAD_REACTORS
330
C
102
}
330
C
100
AcDbDictionary
281
     1
  0
DICTIONARY
  5
6B
102
{ACAD_REACTORS
330
C
102
}
330
C
100
AcDbDictionary
281
     1
  3
Imperial24
350
6C
  0
DICTIONARY
  5
D
102
{ACAD_REACTORS
330
C
102
}
330
C
100
AcDbDictionary
281
     1
  0
RASTERVARIABLES
  5
7B
102
{ACAD_REACTORS
330
C
102
}
330
C
100
AcDbRasterVariables
 90
        0
 70
     0
 71
     1
 72
     1
  0
DICTIONARY
  5
62
102
{ACAD_REACTORS
330
C
102
}
330
C
100
AcDbDictionary
281
     1
  3
Layout1
350
70
  3
Layout2
350
78
  3
Model
350
74
  0
DICTIONARY
  5
10
102
{ACAD_REACTORS
330
C
102
}
330
C
100
AcDbDictionary
281
     1
  3
ByBlock
350
19
  3
ByLayer
350
11
  3
Global
350
21
  0
DICTIONARY
  5
66
102
{ACAD_REACTORS
330
C
102
}
330
C
100
AcDbDictionary
281
     1
  3
Standard
350
67
  0
DICTIONARY
  5
5F
102
{ACAD_REACTORS
330
C
102
}
330
C
100
AcDbDictionary
281
     1
  3
Standard
350
60
  0
DICTIONARY
  5
61
102
{ACAD_REACTORS
330
C
102
}
330
C
100
AcDbDictionary
281
     1
  0
ACDBDICTIONARYWDFLT
  5
E
102
{ACAD_REACTORS
330
C
102
}
330
C
100
AcDbDictionary
281
     1
  3
Normal
350
F
100
AcDbDictionaryWithDefault
340
F
  0
DICTIONARY
  5
42
102
{ACAD_REACTORS
330
C
102
}
330
C
100
AcDbDictionary
281
     1
  3
A0
350
43
  3
A1
350
44
  3
A2
350
45
  3
A3
350
46
  3
A4
350
47
  3
A5
350
48
  3
A6
350
49
  3
A7
350
4A
  3
A8
350
4B
  3
A9
350
4C
  3
B0
350
4D
  3
B1
350
4E
  3
B2
350
4F
  3
B3
350
50
  3
B4
350
51
  3
B5
350
52
  3
B6
350
53
  0
DICTIONARY
  5
68
102
{ACAD_REACTORS
330
C
102
}
330
C
100
AcDbDictionary
281
     1
  3
Imperial24
350
6A
  0
DICTIONARY
  5
64
102
{ACAD_REACTORS
330
C
102
}
330
C
100
AcDbDictionary
281
     1
  3
Standard
350
65
  0
DICTIONARY
  5
29
102
{ACAD_REACTORS
330
C
102
}
330
C
100
AcDbDictionary
281
     1
  3
2dWireframe
350
2F
  3
Basic
350
2E
  3
Brighten
350
35
  3
ColorChange
350
39
  3
Conceptual
350
32
  3
Dim
350
34
  3
EdgeColorOff
350
41
  3
Facepattern
350
38
  3
Flat
350
2A
  3
FlatWithEdges
350
2B
  3
Gouraud
350
2C
  3
GouraudWithEdges
350
2D
  3
Hidden
350
31
  3
JitterOff
350
3F
  3
Linepattern
350
37
  3
OverhangOff
350
40
  3
Realistic
350
33
  3
Shaded
350
3E
  3
Shaded with edges
350
3D
  3
Shades of Gray
350
3A
  3
Sketchy
350
3B
  3
Thicken
350
36
  3
Wireframe
350
30
  3
X-Ray
350
3C
  0
XRECORD
  5
288
102
{ACAD_REACTORS
330
C
102
}
330
C
100
AcDbXrecord
280
     1
 90
        1
330
65
  0
DICTIONARY
  5
7C
102
{ACAD_REACTORS
330
C
102
}
330
C
100
AcDbDictionary
281
     1
  3
CANNOSCALE
350
81
  3
CMLEADERSTYLE
350
7E
  3
CTABLESTYLE
350
7D
  3
CVIEWDETAILSTYLE
350
7F
  3
CVIEWSECTIONSTYLE
350
80
  0
DICTIONARY
  5
27F
102
{ACAD_REACTORS
330
C
102
}
330
C
100
AcDbDictionary
281
     1
  3
DRAWING_TOOL
350
283
  3
REVIT_CATEGORY_MAPPING
350
281
  3
REVIT_SUB_CATEGORY_MAPPING
350
282
  3
REVIT_TYPE_MAPPING
350
280
  0
SORTENTSTABLE
  5
285
102
{ACAD_REACTORS
330
284
102
}
330
284
100
AcDbSortentsTable
330
71
  0
ACDBDETAILVIEWSTYLE
  5
6C
102
{ACAD_REACTORS
330
6B
102
}
330
6B
100
AcDbModelDocViewStyle
 70
     0
  3
Imperial24
290
     1
100
AcDbDetailViewStyle
 70
     0
 71
     0
 90
        3
 71
     1
340
55
 62
   256
 40
0.24
340
0
 62
   256
 40
0.24
300

 40
0.36
280
     3
 71
     2
340
5D
 90
       25
 62
   256
 71
     3
340
55
 62
   256
 40
0.24
 90
        1
 40
0.75
 90
        1
300
%<\AcVar ViewType \f "%tc1">% %<\AcVar ViewDetailId>%\PSCALA %<\AcVar ViewScale \f "%sn">%
 71
     4
340
5D
 90
       25
 62
   256
340
5D
 90
       25
 62
   256
280
     0
  0
LAYOUT
  5
70
102
{ACAD_REACTORS
330
62
102
}
330
62
100
AcDbPlotSettings
  1

  2

  4

  6

 40
0.0
 41
0.0
 42
0.0
 43
0.0
 44
0.0
 45
0.0
 46
0.0
 47
0.0
 48
0.0
 49
0.0
140
0.0
141
0.0
142
1.0
143
1.0
 70
   688
 72
     0
 73
     0
 74
     5
  7

 75
    16
147
1.0
 76
     0
 77
     2
 78
   300
148
0.0
149
0.0
100
AcDbLayout
  1
Layout1
 70
     1
 71
     1
 10
0.0
 20
0.0
 11
12.0
 21
9.0
 12
0.0
 22
0.0
 32
0.0
 14
0.0
 24
0.0
 34
0.0
 15
0.0
 25
0.0
 35
0.0
146
0.0
 13
0.0
 23
0.0
 33
0.0
 16
1.0
 26
0.0
 36
0.0
 17
0.0
 27
1.0
 37
0.0
 76
     0
330
6D
  0
LAYOUT
  5
78
102
{ACAD_REACTORS
330
62
102
}
330
62
100
AcDbPlotSettings
  1

  2

  4

  6

 40
0.0
 41
0.0
 42
0.0
 43
0.0
 44
0.0
 45
0.0
 46
0.0
 47
0.0
 48
0.0
 49
0.0
140
0.0
141
0.0
142
1.0
143
1.0
 70
   688
 72
     0
 73
     0
 74
     5
  7

 75
    16
147
1.0
 76
     0
 77
     2
 78
   300
148
0.0
149
0.0
100
AcDbLayout
  1
Layout2
 70
     1
 71
     2
 10
0.0
 20
0.0
 11
12.0
 21
9.0
 12
0.0
 22
0.0
 32
0.0
 14
0.0
 24
0.0
 34
0.0
 15
0.0
 25
0.0
 35
0.0
146
0.0
 13
0.0
 23
0.0
 33
0.0
 16
1.0
 26
0.0
 36
0.0
 17
0.0
 27
1.0
 37
0.0
 76
     0
330
75
  0
LAYOUT
  5
74
102
{ACAD_REACTORS
330
62
102
}
330
62
100
AcDbPlotSettings
  1

  2

  4

  6

 40
0.0
 41
0.0
 42
0.0
 43
0.0
 44
0.0
 45
0.0
 46
0.0
 47
0.0
 48
0.0
 49
0.0
140
0.0
141
0.0
142
1.0
143
1.0
 70
  1712
 72
     0
 73
     0
 74
     0
  7

 75
     0
147
1.0
 76
     0
 77
     2
 78
   300
148
0.0
149
0.0
100
AcDbLayout
  1
Model
 70
     1
 71
     0
 10
0.0
 20
0.0
 11
12.0
 21
9.0
 12
0.0
 22
0.0
 32
0.0
 14
0.0
 24
0.0
 34
0.0
 15
0.0
 25
0.0
 35
0.0
146
0.0
 13
0.0
 23
0.0
 33
0.0
 16
1.0
 26
0.0
 36
0.0
 17
0.0
 27
1.0
 37
0.0
 76
     0
330
71
  0
MATERIAL
  5
19
102
{ACAD_XDICTIONARY
360
1A
102
}
102
{ACAD_REACTORS
330
10
102
}
330
10
100
AcDbMaterial
  1
ByBlock
 72
     0
 43
0.0208333333333333
 43
0.0
 43
0.0
 43
0.0
 43
0.0
 43
0.0208333333333333
 43
0.0
 43
0.0
 43
0.0
 43
0.0
 43
1.0
 43
0.0
 43
0.0
 43
0.0
 43
0.0
 43
1.0
 77
     0
 47
0.0208333333333333
 47
0.0
 47
0.0
 47
0.0
 47
0.0
 47
0.0208333333333333
 47
0.0
 47
0.0
 47
0.0
 47
0.0
 47
1.0
 47
0.0
 47
0.0
 47
0.0
 47
0.0
 47
1.0
171
     0
 49
0.0208333333333333
 49
0.0
 49
0.0
 49
0.0
 49
0.0
 49
0.0208333333333333
 49
0.0
 49
0.0
 49
0.0
 49
0.0
 49
1.0
 49
0.0
 49
0.0
 49
0.0
 49
0.0
 49
1.0
175
     0
142
0.0208333333333333
142
0.0
142
0.0
142
0.0
142
0.0
142
0.0208333333333333
142
0.0
142
0.0
142
0.0
142
0.0
142
1.0
142
0.0
142
0.0
142
0.0
142
0.0
142
1.0
179
     0
144
0.0208333333333333
144
0.0
144
0.0
144
0.0
144
0.0
144
0.0208333333333333
144
0.0
144
0.0
144
0.0
144
0.0
144
1.0
144
0.0
144
0.0
144
0.0
144
0.0
144
1.0
147
0.0208333333333333
147
0.0
147
0.0
147
0.0
147
0.0
147
0.0208333333333333
147
0.0
147
0.0
147
0.0
147
0.0
147
1.0
147
0.0
147
0.0
147
0.0
147
0.0
147
1.0
  0
MATERIAL
  5
11
102
{ACAD_XDICTIONARY
360
12
102
}
102
{ACAD_REACTORS
330
10
102
}
330
10
100
AcDbMaterial
  1
ByLayer
 72
     0
 43
0.0208333333333333
 43
0.0
 43
0.0
 43
0.0
 43
0.0
 43
0.0208333333333333
 43
0.0
 43
0.0
 43
0.0
 43
0.0
 43
1.0
 43
0.0
 43
0.0
 43
0.0
 43
0.0
 43
1.0
 77
     0
 47
0.0208333333333333
 47
0.0
 47
0.0
 47
0.0
 47
0.0
 47
0.0208333333333333
 47
0.0
 47
0.0
 47
0.0
 47
0.0
 47
1.0
 47
0.0
 47
0.0
 47
0.0
 47
0.0
 47
1.0
171
     0
 49
0.0208333333333333
 49
0.0
 49
0.0
 49
0.0
 49
0.0
 49
0.0208333333333333
 49
0.0
 49
0.0
 49
0.0
 49
0.0
 49
1.0
 49
0.0
 49
0.0
 49
0.0
 49
0.0
 49
1.0
175
     0
142
0.0208333333333333
142
0.0
142
0.0
142
0.0
142
0.0
142
0.0208333333333333
142
0.0
142
0.0
142
0.0
142
0.0
142
1.0
142
0.0
142
0.0
142
0.0
142
0.0
142
1.0
179
     0
144
0.0208333333333333
144
0.0
144
0.0
144
0.0
144
0.0
144
0.0208333333333333
144
0.0
144
0.0
144
0.0
144
0.0
144
1.0
144
0.0
144
0.0
144
0.0
144
0.0
144
1.0
147
0.0208333333333333
147
0.0
147
0.0
147
0.0
147
0.0
147
0.0208333333333333
147
0.0
147
0.0
147
0.0
147
0.0
147
1.0
147
0.0
147
0.0
147
0.0
147
0.0
147
1.0
  0
MATERIAL
  5
21
102
{ACAD_XDICTIONARY
360
22
102
}
102
{ACAD_REACTORS
330
10
102
}
330
10
100
AcDbMaterial
  1
Global
 72
     0
 43
0.0208333333333333
 43
0.0
 43
0.0
 43
0.0
 43
0.0
 43
0.0208333333333333
 43
0.0
 43
0.0
 43
0.0
 43
0.0
 43
1.0
 43
0.0
 43
0.0
 43
0.0
 43
0.0
 43
1.0
 77
     0
 47
0.0208333333333333
 47
0.0
 47
0.0
 47
0.0
 47
0.0
 47
0.0208333333333333
 47
0.0
 47
0.0
 47
0.0
 47
0.0
 47
1.0
 47
0.0
 47
0.0
 47
0.0
 47
0.0
 47
1.0
171
     0
 49
0.0208333333333333
 49
0.0
 49
0.0
 49
0.0
 49
0.0
 49
0.0208333333333333
 49
0.0
 49
0.0
 49
0.0
 49
0.0
 49
1.0
 49
0.0
 49
0.0
 49
0.0
 49
0.0
 49
1.0
175
     0
142
0.0208333333333333
142
0.0
142
0.0
142
0.0
142
0.0
142
0.0208333333333333
142
0.0
142
0.0
142
0.0
142
0.0
142
1.0
142
0.0
142
0.0
142
0.0
142
0.0
142
1.0
179
     0
144
0.0208333333333333
144
0.0
144
0.0
144
0.0
144
0.0
144
0.0208333333333333
144
0.0
144
0.0
144
0.0
144
0.0
144
1.0
144
0.0
144
0.0
144
0.0
144
0.0
144
1.0
147
0.0208333333333333
147
0.0
147
0.0
147
0.0
147
0.0
147
0.0208333333333333
147
0.0
147
0.0
147
0.0
147
0.0
147
1.0
147
0.0
147
0.0
147
0.0
147
0.0
147
1.0
  0
MLEADERSTYLE
  5
67
102
{ACAD_REACTORS
330
66
102
}
330
66
100
AcDbMLeaderStyle
179
     2
170
     2
171
     1
172
     0
 90
        2
 40
0.0
 41
0.0
173
     1
 91
-1056964608
340
5B
 92
       -2
290
     1
 42
0.09
291
     1
 43
0.36
  3
Standard
 44
0.18
300

342
55
174
     1
178
     6
175
     1
176
     0
 93
-1056964608
 45
0.18
292
     0
297
     0
 46
0.18
 94
-1056964608
 47
1.0
 49
1.0
140
1.0
293
     1
141
0.0
294
     1
177
     0
142
1.0
295
     1
296
     0
143
0.125
271
     0
272
     9
273
     9
298
     1
  0
MLINESTYLE
  5
60
102
{ACAD_REACTORS
330
5F
102
}
330
5F
100
AcDbMlineStyle
  2
STANDARD
 70
     0
  3

 62
   256
 51
90.0
 52
90.0
 71
     2
 49
0.5
 62
   256
  6
BYLAYER
 49
-0.5
 62
   256
  6
BYLAYER
  0
ACDBPLACEHOLDER
  5
F
102
{ACAD_REACTORS
330
E
102
}
330
E
  0
SCALE
  5
43
102
{ACAD_REACTORS
330
42
102
}
330
42
100
AcDbScale
 70
     0
300
1:1
140
1.0
141
1.0
290
     1
  0
SCALE
  5
44
102
{ACAD_REACTORS
330
42
102
}
330
42
100
AcDbScale
 70
     0
300
1/128" = 1'-0"
140
0.0078125
141
12.0
290
     0
  0
SCALE
  5
45
102
{ACAD_REACTORS
330
42
102
}
330
42
100
AcDbScale
 70
     0
300
1/64" = 1'-0"
140
0.015625
141
12.0
290
     0
  0
SCALE
  5
46
102
{ACAD_REACTORS
330
42
102
}
330
42
100
AcDbScale
 70
     0
300
1/32" = 1'-0"
140
0.03125
141
12.0
290
     0
  0
SCALE
  5
47
102
{ACAD_REACTORS
330
42
102
}
330
42
100
AcDbScale
 70
     0
300
1/16" = 1'-0"
140
0.0625
141
12.0
290
     0
  0
SCALE
  5
48
102
{ACAD_REACTORS
330
42
102
}
330
42
100
AcDbScale
 70
     0
300
3/32" = 1'-0"
140
0.09375
141
12.0
290
     0
  0
SCALE
  5
49
102
{ACAD_REACTORS
330
42
102
}
330
42
100
AcDbScale
 70
     0
300
1/8" = 1'-0"
140
0.125
141
12.0
290
     0
  0
SCALE
  5
4A
102
{ACAD_REACTORS
330
42
102
}
330
42
100
AcDbScale
 70
     0
300
3/16" = 1'-0"
140
0.1875
141
12.0
290
     0
  0
SCALE
  5
4B
102
{ACAD_REACTORS
330
42
102
}
330
42
100
AcDbScale
 70
     0
300
1/4" = 1'-0"
140
0.25
141
12.0
290
     0
  0
SCALE
  5
4C
102
{ACAD_REACTORS
330
42
102
}
330
42
100
AcDbScale
 70
     0
300
3/8" = 1'-0"
140
0.375
141
12.0
290
     0
  0
SCALE
  5
4D
102
{ACAD_REACTORS
330
42
102
}
330
42
100
AcDbScale
 70
     0
300
1/2" = 1'-0"
140
0.5
141
12.0
290
     0
  0
SCALE
  5
4E
102
{ACAD_REACTORS
330
42
102
}
330
42
100
AcDbScale
 70
     0
300
3/4" = 1'-0"
140
0.75
141
12.0
290
     0
  0
SCALE
  5
4F
102
{ACAD_REACTORS
330
42
102
}
330
42
100
AcDbScale
 70
     0
300
1" = 1'-0"
140
1.0
141
12.0
290
     0
  0
SCALE
  5
50
102
{ACAD_REACTORS
330
42
102
}
330
42
100
AcDbScale
 70
     0
300
1-1/2" = 1'-0"
140
1.5
141
12.0
290
     0
  0
SCALE
  5
51
102
{ACAD_REACTORS
330
42
102
}
330
42
100
AcDbScale
 70
     0
300
3" = 1'-0"
140
3.0
141
12.0
290
     0
  0
SCALE
  5
52
102
{ACAD_REACTORS
330
42
102
}
330
42
100
AcDbScale
 70
     0
300
6" = 1'-0"
140
6.0
141
12.0
290
     0
  0
SCALE
  5
53
102
{ACAD_REACTORS
330
42
102
}
330
42
100
AcDbScale
 70
     0
300
1'-0" = 1'-0"
140
12.0
141
12.0
290
     0
  0
ACDBSECTIONVIEWSTYLE
  5
6A
102
{ACAD_REACTORS
330
68
102
}
330
68
100
AcDbModelDocViewStyle
 70
     0
  3
Imperial24
290
     1
100
AcDbSectionViewStyle
 70
     0
 71
     0
 90
       78
 71
     1
340
55
 62
   256
 40
0.24
340
0
340
0
 62
   256
 40
0.24
300
I, O, Q, S, X, Z
 40
0.48
 90
        3
 40
0.18
 90
        1
 71
     2
340
69
 90
       25
 62
   256
340
5D
 90
       50
 62
   256
 40
0.24
 40
0.0
 40
0.24
 71
     3
340
55
 62
   256
 40
0.24
 90
        1
 40
0.75
 90
        1
300
%<\AcVar ViewType \f "%tc1">% %<\AcVar ViewSectionStartId>%-%<\AcVar ViewSectionEndId>%\PSCALA %<\AcVar ViewScale \f "%sn">%
 71
     4
 62
   256
 62
   257
300
ANSI31
 40
1.0
 90
        0
290
     0
290
     0
 90
        6
 40
0.0
 40
1.570796326794896
 40
0.2617993877991494
 40
1.308996938995747
 40
-0.2617993877991494
 40
1.832595714594046
  0
TABLESTYLE
  5
65
102
{ACAD_XDICTIONARY
360
286
102
}
102
{ACAD_REACTORS
330
64
102
}
330
64
100
AcDbTableStyle
280
     0
  3
Standard
 70
     0
 71
     0
 40
0.06
 41
0.06
280
     0
281
     0
  7
Standard
140
0.18
170
     2
 62
     0
 63
     7
283
     0
 90
      512
 91
        0
  1

274
    -2
284
     1
 64
     0
275
    -2
285
     1
 65
     0
276
    -2
286
     1
 66
     0
277
    -2
287
     1
 67
     0
278
    -2
288
     1
 68
     0
279
    -2
289
     1
 69
     0
  7
Standard
140
0.25
170
     5
 62
     0
 63
     7
283
     0
 90
      512
 91
        0
  1

274
    -2
284
     1
 64
     0
275
    -2
285
     1
 65
     0
276
    -2
286
     1
 66
     0
277
    -2
287
     1
 67
     0
278
    -2
288
     1
 68
     0
279
    -2
289
     1
 69
     0
  7
Standard
140
0.18
170
     5
 62
     0
 63
     7
283
     0
 90
      512
 91
        0
  1

274
    -2
284
     1
 64
     0
275
    -2
285
     1
 65
     0
276
    -2
286
     1
 66
     0
277
    -2
287
     1
 67
     0
278
    -2
288
     1
 68
     0
279
    -2
289
     1
 69
     0
  0
VISUALSTYLE
  5
2F
102
{ACAD_REACTORS
330
29
102
}
330
29
100
AcDbVisualStyle
  2
2dWireframe
 70
     4
177
     3
291
     0
 70
    58
 90
        0
176
     1
 90
        2
176
     1
 90
        0
176
     1
 90
        0
176
     1
 40
0.6
176
     1
 40
30.0
176
     1
 62
     7
420
 16777215
176
     1
 90
        1
176
     1
 90
        4
176
     1
 62
     7
176
     1
 62
   257
176
     1
 90
        1
176
     1
 90
        1
176
     1
 40
1.0
176
     1
 90
        0
176
     1
 62
   257
176
     1
 40
1.0
176
     1
 90
        1
176
     1
 90
        6
176
     1
 90
        2
176
     1
 62
     7
176
     1
 90
        5
176
     1
 90
        0
176
     1
 90
        0
176
     1
290
     0
176
     1
 90
        1
176
     1
 40
0.0
176
     1
 90
        0
176
     1
290
     1
176
     1
290
     1
176
     1
290
     0
176
     1
290
     0
176
     1
290
     0
176
     1
290
     0
176
     1
290
     0
176
     1
290
     0
176
     1
290
     0
176
     1
 90
       50
176
     1
 40
0.0
176
     1
 40
1.0
176
     1
 90
        0
176
     1
 62
    18
420
        0
176
     1
 90
       50
176
     1
 90
        3
176
     1
 62
     5
420
      255
176
     1
290
     0
176
     1
 90
       50
176
     1
 90
       50
176
     1
 90
       50
176
     1
290
     0
176
     1
 90
       50
176
     1
 62
   256
176
     0
 40
1.0
176
     0
 90
        2
176
     1
  1
strokes_ogs.tif
176
     1
290
     0
176
     1
 40
1.0
176
     1
 40
1.0
176
     1
  0
VISUALSTYLE
  5
2E
102
{ACAD_REACTORS
330
29
102
}
330
29
100
AcDbVisualStyle
  2
Basic
 70
     7
177
     3
291
     1
 70
    58
 90
        1
176
     1
 90
        0
176
     1
 90
        1
176
     1
 90
        0
176
     1
 40
0.6
176
     1
 40
30.0
176
     1
 62
     7
420
 16777215
176
     1
 90
        0
176
     1
 90
        4
176
     1
 62
     7
176
     1
 62
   257
176
     1
 90
        1
176
     1
 90
        1
176
     1
 40
1.0
176
     1
 90
        8
176
     1
 62
     7
176
     1
 40
1.0
176
     1
 90
        1
176
     1
 90
        6
176
     1
 90
        2
176
     1
 62
     7
176
     1
 90
        5
176
     1
 90
        0
176
     1
 90
        0
176
     1
290
     0
176
     1
 90
        1
176
     1
 40
0.0
176
     1
 90
        0
176
     1
290
     0
176
     1
290
     1
176
     1
290
     1
176
     1
290
     0
176
     1
290
     0
176
     1
290
     0
176
     1
290
     0
176
     1
290
     0
176
     1
290
     0
176
     1
 90
       50
176
     1
 40
0.0
176
     1
 40
1.0
176
     1
 90
        0
176
     1
 62
    18
420
        0
176
     1
 90
       50
176
     1
 90
        3
176
     1
 62
     5
420
      255
176
     1
290
     0
176
     1
 90
       50
176
     1
 90
       50
176
     1
 90
       50
176
     1
290
     0
176
     1
 90
       50
176
     1
 62
   256
176
     0
 40
1.0
176
     0
 90
        2
176
     1
  1
strokes_ogs.tif
176
     1
290
     0
176
     1
 40
1.0
176
     1
 40
1.0
176
     1
  0
VISUALSTYLE
  5
35
102
{ACAD_REACTORS
330
29
102
}
330
29
100
AcDbVisualStyle
  2
Brighten
 70
    12
177
     3
291
     1
 70
    58
 90
        2
176
     1
 90
        2
176
     1
 90
        0
176
     1
 90
        0
176
     1
 40
0.6
176
     1
 40
30.0
176
     1
 62
     7
420
 16777215
176
     1
 90
        1
176
     1
 90
        4
176
     1
 62
     7
176
     1
 62
   257
176
     1
 90
        1
176
     1
 90
        1
176
     1
 40
1.0
176
     1
 90
        8
176
     1
 62
     7
176
     1
 40
1.0
176
     1
 90
        1
176
     1
 90
        6
176
     1
 90
        2
176
     1
 62
     7
176
     1
 90
        5
176
     1
 90
        0
176
     1
 90
        0
176
     1
290
     0
176
     1
 90
        1
176
     1
 40
50.0
176
     1
 90
        0
176
     1
290
     0
176
     1
290
     1
176
     1
290
     1
176
     1
290
     0
176
     1
290
     0
176
     1
290
     0
176
     1
290
     0
176
     1
290
     0
176
     1
290
     0
176
     1
 90
       50
176
     1
 40
0.0
176
     1
 40
1.0
176
     1
 90
        0
176
     1
 62
    18
420
        0
176
     1
 90
       50
176
     1
 90
        3
176
     1
 62
     5
420
      255
176
     1
290
     0
176
     1
 90
       50
176
     1
 90
       50
176
     1
 90
       50
176
     1
290
     0
176
     1
 90
       50
176
     1
 62
   256
176
     0
 40
1.0
176
     0
 90
        2
176
     1
  1
strokes_ogs.tif
176
     1
290
     0
176
     1
 40
1.0
176
     1
 40
1.0
176
     1
  0
VISUALSTYLE
  5
39
102
{ACAD_REACTORS
330
29
102
}
330
29
100
AcDbVisualStyle
  2
ColorChange
 70
    16
177
     3
291
     1
 70
    58
 90
        2
176
     1
 90
        2
176
     1
 90
        3
176
     1
 90
        0
176
     1
 40
0.6
176
     1
 40
30.0
176
     1
 62
     8
420
  8421504
176
     1
 90
        1
176
     1
 90
        4
176
     1
 62
     7
176
     1
 62
   257
176
     1
 90
        1
176
     1
 90
        1
176
     1
 40
1.0
176
     1
 90
        8
176
     1
 62
     8
420
  8421504
176
     1
 40
1.0
176
     1
 90
        1
176
     1
 90
        6
176
     1
 90
        2
176
     1
 62
     7
176
     1
 90
        5
176
     1
 90
        0
176
     1
 90
        0
176
     1
290
     0
176
     1
 90
        1
176
     1
 40
0.0
176
     1
 90
        0
176
     1
290
     0
176
     1
290
     1
176
     1
290
     1
176
     1
290
     0
176
     1
290
     0
176
     1
290
     0
176
     1
290
     0
176
     1
290
     0
176
     1
290
     0
176
     1
 90
       50
176
     1
 40
0.0
176
     1
 40
1.0
176
     1
 90
        0
176
     1
 62
    18
420
        0
176
     1
 90
       50
176
     1
 90
        3
176
     1
 62
     5
420
      255
176
     1
290
     0
176
     1
 90
       50
176
     1
 90
       50
176
     1
 90
       50
176
     1
290
     0
176
     1
 90
       50
176
     1
 62
   256
176
     0
 40
1.0
176
     0
 90
        2
176
     1
  1
strokes_ogs.tif
176
     1
290
     0
176
     1
 40
1.0
176
     1
 40
1.0
176
     1
  0
VISUALSTYLE
  5
32
102
{ACAD_REACTORS
330
29
102
}
330
29
100
AcDbVisualStyle
  2
Conceptual
 70
     9
177
     3
291
     0
 70
    58
 90
        3
176
     1
 90
        2
176
     1
 90
        0
176
     1
 90
        0
176
     1
 40
0.6
176
     1
 40
30.0
176
     1
 62
     7
420
 16777215
176
     1
 90
        2
176
     1
 90
        2
176
     1
 62
     7
176
     1
 62
   257
176
     1
 90
        1
176
     1
 90
        1
176
     1
 40
179.0
176
     1
 90
        8
176
     1
 62
     7
176
     1
 40
1.0
176
     1
 90
        1
176
     1
 90
        6
176
     1
 90
        2
176
     1
 62
     7
176
     1
 90
        3
176
     1
 90
        0
176
     1
 90
        0
176
     1
290
     0
176
     1
 90
        1
176
     1
 40
0.0
176
     1
 90
        0
176
     1
290
     0
176
     1
290
     1
176
     1
290
     1
176
     1
290
     0
176
     1
290
     0
176
     1
290
     0
176
     1
290
     0
176
     1
290
     0
176
     1
290
     0
176
     1
 90
       50
176
     1
 40
0.0
176
     1
 40
1.0
176
     1
 90
        0
176
     1
 62
    18
420
        0
176
     1
 90
       50
176
     1
 90
        3
176
     1
 62
     5
420
      255
176
     1
290
     0
176
     1
 90
       50
176
     1
 90
       50
176
     1
 90
       50
176
     1
290
     0
176
     1
 90
       50
176
     1
 62
   256
176
     0
 40
1.0
176
     0
 90
        2
176
     1
  1
strokes_ogs.tif
176
     1
290
     0
176
     1
 40
1.0
176
     1
 40
1.0
176
     1
  0
VISUALSTYLE
  5
34
102
{ACAD_REACTORS
330
29
102
}
330
29
100
AcDbVisualStyle
  2
Dim
 70
    11
177
     3
291
     1
 70
    58
 90
        2
176
     1
 90
        2
176
     1
 90
        0
176
     1
 90
        0
176
     1
 40
0.6
176
     1
 40
30.0
176
     1
 62
     7
420
 16777215
176
     1
 90
        1
176
     1
 90
        4
176
     1
 62
     7
176
     1
 62
   257
176
     1
 90
        1
176
     1
 90
        1
176
     1
 40
1.0
176
     1
 90
        8
176
     1
 62
     7
176
     1
 40
1.0
176
     1
 90
        1
176
     1
 90
        6
176
     1
 90
        2
176
     1
 62
     7
176
     1
 90
        5
176
     1
 90
        0
176
     1
 90
        0
176
     1
290
     0
176
     1
 90
        1
176
     1
 40
-50.0
176
     1
 90
        0
176
     1
290
     0
176
     1
290
     1
176
     1
290
     1
176
     1
290
     0
176
     1
290
     0
176
     1
290
     0
176
     1
290
     0
176
     1
290
     0
176
     1
290
     0
176
     1
 90
       50
176
     1
 40
0.0
176
     1
 40
1.0
176
     1
 90
        0
176
     1
 62
    18
420
        0
176
     1
 90
       50
176
     1
 90
        3
176
     1
 62
     5
420
      255
176
     1
290
     0
176
     1
 90
       50
176
     1
 90
       50
176
     1
 90
       50
176
     1
290
     0
176
     1
 90
       50
176
     1
 62
   256
176
     0
 40
1.0
176
     0
 90
        2
176
     1
  1
strokes_ogs.tif
176
     1
290
     0
176
     1
 40
1.0
176
     1
 40
1.0
176
     1
  0
VISUALSTYLE
  5
41
102
{ACAD_REACTORS
330
29
102
}
330
29
100
AcDbVisualStyle
  2
EdgeColorOff
 70
    22
177
     3
291
     1
 70
    58
 90
        2
176
     0
 90
        2
176
     0
 90
        0
176
     0
 90
        0
176
     0
 40
0.6
176
     0
 40
30.0
176
     0
 62
     7
420
 16777215
176
     0
 90
        1
176
     0
 90
        4
176
     0
 62
     7
176
     0
 62
   257
176
     0
 90
        1
176
     0
 90
        1
176
     0
 40
1.0
176
     0
 90
        8
176
     2
 62
     7
176
     0
 40
1.0
176
     0
 90
        1
176
     0
 90
        6
176
     0
 90
        2
176
     0
 62
     7
176
     0
 90
        5
176
     0
 90
        0
176
     0
 90
        0
176
     0
290
     0
176
     0
 90
        1
176
     0
 40
0.0
176
     0
 90
        0
176
     0
290
     0
176
     0
290
     1
176
     0
290
     1
176
     0
290
     0
176
     0
290
     0
176
     0
290
     0
176
     0
290
     0
176
     0
290
     0
176
     0
290
     0
176
     0
 90
       50
176
     0
 40
0.0
176
     0
 40
1.0
176
     0
 90
        0
176
     0
 62
    18
420
        0
176
     0
 90
       50
176
     0
 90
        3
176
     0
 62
     5
420
      255
176
     0
290
     0
176
     0
 90
       50
176
     0
 90
       50
176
     0
 90
       50
176
     0
290
     0
176
     0
 90
       50
176
     0
 62
   256
176
     0
 40
1.0
176
     0
 90
        2
176
     0
  1
strokes_ogs.tif
176
     0
290
     0
176
     0
 40
1.0
176
     0
 40
1.0
176
     0
  0
VISUALSTYLE
  5
38
102
{ACAD_REACTORS
330
29
102
}
330
29
100
AcDbVisualStyle
  2
Facepattern
 70
    15
177
     3
291
     1
 70
    58
 90
        2
176
     1
 90
        2
176
     1
 90
        0
176
     1
 90
        0
176
     1
 40
0.6
176
     1
 40
30.0
176
     1
 62
     7
420
 16777215
176
     1
 90
        1
176
     1
 90
        4
176
     1
 62
     7
176
     1
 62
   257
176
     1
 90
        1
176
     1
 90
        1
176
     1
 40
1.0
176
     1
 90
        8
176
     1
 62
     7
176
     1
 40
1.0
176
     1
 90
        1
176
     1
 90
        6
176
     1
 90
        2
176
     1
 62
     7
176
     1
 90
        5
176
     1
 90
        0
176
     1
 90
        0
176
     1
290
     0
176
     1
 90
        1
176
     1
 40
0.0
176
     1
 90
        0
176
     1
290
     0
176
     1
290
     1
176
     1
290
     1
176
     1
290
     0
176
     1
290
     0
176
     1
290
     0
176
     1
290
     0
176
     1
290
     0
176
     1
290
     0
176
     1
 90
       50
176
     1
 40
0.0
176
     1
 40
1.0
176
     1
 90
        0
176
     1
 62
    18
420
        0
176
     1
 90
       50
176
     1
 90
        3
176
     1
 62
     5
420
      255
176
     1
290
     0
176
     1
 90
       50
176
     1
 90
       50
176
     1
 90
       50
176
     1
290
     0
176
     1
 90
       50
176
     1
 62
   256
176
     0
 40
1.0
176
     0
 90
        2
176
     1
  1
strokes_ogs.tif
176
     1
290
     0
176
     1
 40
1.0
176
     1
 40
1.0
176
     1
  0
VISUALSTYLE
  5
2A
102
{ACAD_REACTORS
330
29
102
}
330
29
100
AcDbVisualStyle
  2
Flat
 70
     0
177
     3
291
     1
 70
    58
 90
        2
176
     1
 90
        1
176
     1
 90
        1
176
     1
 90
        2
176
     1
 40
0.6
176
     1
 40
30.0
176
     1
 62
     7
420
 16777215
176
     1
 90
        0
176
     1
 90
        0
176
     1
 62
     7
176
     1
 62
   257
176
     1
 90
        1
176
     1
 90
        1
176
     1
 40
1.0
176
     1
 90
        8
176
     1
 62
     7
176
     1
 40
1.0
176
     1
 90
        1
176
     1
 90
        6
176
     1
 90
        2
176
     1
 62
     7
176
     1
 90
        5
176
     1
 90
        0
176
     1
 90
        0
176
     1
290
     0
176
     1
 90
       13
176
     1
 40
0.0
176
     1
 90
        0
176
     1
290
     0
176
     1
290
     1
176
     1
290
     1
176
     1
290
     0
176
     1
290
     0
176
     1
290
     0
176
     1
290
     0
176
     1
290
     0
176
     1
290
     0
176
     1
 90
       50
176
     1
 40
0.0
176
     1
 40
1.0
176
     1
 90
        0
176
     1
 62
    18
420
        0
176
     1
 90
       50
176
     1
 90
        3
176
     1
 62
     5
420
      255
176
     1
290
     0
176
     1
 90
       50
176
     1
 90
       50
176
     1
 90
       50
176
     1
290
     0
176
     1
 90
       50
176
     1
 62
   256
176
     0
 40
1.0
176
     0
 90
        2
176
     1
  1
strokes_ogs.tif
176
     1
290
     0
176
     1
 40
1.0
176
     1
 40
1.0
176
     1
  0
VISUALSTYLE
  5
2B
102
{ACAD_REACTORS
330
29
102
}
330
29
100
AcDbVisualStyle
  2
FlatWithEdges
 70
     1
177
     3
291
     1
 70
    58
 90
        2
176
     1
 90
        1
176
     1
 90
        1
176
     1
 90
        2
176
     1
 40
0.6
176
     1
 40
30.0
176
     1
 62
     7
420
 16777215
176
     1
 90
        1
176
     1
 90
        0
176
     1
 62
     7
176
     1
 62
   257
176
     1
 90
        1
176
     1
 90
        1
176
     1
 40
1.0
176
     1
 90
        0
176
     1
 62
   257
176
     1
 40
1.0
176
     1
 90
        1
176
     1
 90
        6
176
     1
 90
        2
176
     1
 62
     7
176
     1
 90
        5
176
     1
 90
        0
176
     1
 90
        0
176
     1
290
     0
176
     1
 90
       13
176
     1
 40
0.0
176
     1
 90
        0
176
     1
290
     0
176
     1
290
     1
176
     1
290
     1
176
     1
290
     0
176
     1
290
     0
176
     1
290
     0
176
     1
290
     0
176
     1
290
     0
176
     1
290
     0
176
     1
 90
       50
176
     1
 40
0.0
176
     1
 40
1.0
176
     1
 90
        0
176
     1
 62
    18
420
        0
176
     1
 90
       50
176
     1
 90
        3
176
     1
 62
     5
420
      255
176
     1
290
     0
176
     1
 90
       50
176
     1
 90
       50
176
     1
 90
       50
176
     1
290
     0
176
     1
 90
       50
176
     1
 62
   256
176
     0
 40
1.0
176
     0
 90
        2
176
     1
  1
strokes_ogs.tif
176
     1
290
     0
176
     1
 40
1.0
176
     1
 40
1.0
176
     1
  0
VISUALSTYLE
  5
2C
102
{ACAD_REACTORS
330
29
102
}
330
29
100
AcDbVisualStyle
  2
Gouraud
 70
     2
177
     3
291
     1
 70
    58
 90
        2
176
     1
 90
        2
176
     1
 90
        1
176
     1
 90
        2
176
     1
 40
0.6
176
     1
 40
30.0
176
     1
 62
     7
420
 16777215
176
     1
 90
        0
176
     1
 90
        0
176
     1
 62
     7
176
     1
 62
   257
176
     1
 90
        1
176
     1
 90
        1
176
     1
 40
1.0
176
     1
 90
        0
176
     1
 62
     7
176
     1
 40
1.0
176
     1
 90
        1
176
     1
 90
        6
176
     1
 90
        2
176
     1
 62
     7
176
     1
 90
        5
176
     1
 90
        0
176
     1
 90
        0
176
     1
290
     0
176
     1
 90
       13
176
     1
 40
0.0
176
     1
 90
        0
176
     1
290
     0
176
     1
290
     1
176
     1
290
     1
176
     1
290
     0
176
     1
290
     0
176
     1
290
     0
176
     1
290
     0
176
     1
290
     0
176
     1
290
     0
176
     1
 90
       50
176
     1
 40
0.0
176
     1
 40
1.0
176
     1
 90
        0
176
     1
 62
    18
420
        0
176
     1
 90
       50
176
     1
 90
        3
176
     1
 62
     5
420
      255
176
     1
290
     0
176
     1
 90
       50
176
     1
 90
       50
176
     1
 90
       50
176
     1
290
     0
176
     1
 90
       50
176
     1
 62
   256
176
     0
 40
1.0
176
     0
 90
        2
176
     1
  1
strokes_ogs.tif
176
     1
290
     0
176
     1
 40
1.0
176
     1
 40
1.0
176
     1
  0
VISUALSTYLE
  5
2D
102
{ACAD_REACTORS
330
29
102
}
330
29
100
AcDbVisualStyle
  2
GouraudWithEdges
 70
     3
177
     3
291
     1
 70
    58
 90
        2
176
     1
 90
        2
176
     1
 90
        1
176
     1
 90
        2
176
     1
 40
0.6
176
     1
 40
30.0
176
     1
 62
     7
420
 16777215
176
     1
 90
        1
176
     1
 90
        0
176
     1
 62
     7
176
     1
 62
   257
176
     1
 90
        1
176
     1
 90
        1
176
     1
 40
1.0
176
     1
 90
        0
176
     1
 62
   257
176
     1
 40
1.0
176
     1
 90
        1
176
     1
 90
        6
176
     1
 90
        2
176
     1
 62
     7
176
     1
 90
        5
176
     1
 90
        0
176
     1
 90
        0
176
     1
290
     0
176
     1
 90
       13
176
     1
 40
0.0
176
     1
 90
        0
176
     1
290
     0
176
     1
290
     1
176
     1
290
     1
176
     1
290
     0
176
     1
290
     0
176
     1
290
     0
176
     1
290
     0
176
     1
290
     0
176
     1
290
     0
176
     1
 90
       50
176
     1
 40
0.0
176
     1
 40
1.0
176
     1
 90
        0
176
     1
 62
    18
420
        0
176
     1
 90
       50
176
     1
 90
        3
176
     1
 62
     5
420
      255
176
     1
290
     0
176
     1
 90
       50
176
     1
 90
       50
176
     1
 90
       50
176
     1
290
     0
176
     1
 90
       50
176
     1
 62
   256
176
     0
 40
1.0
176
     0
 90
        2
176
     1
  1
strokes_ogs.tif
176
     1
290
     0
176
     1
 40
1.0
176
     1
 40
1.0
176
     1
  0
VISUALSTYLE
  5
31
102
{ACAD_REACTORS
330
29
102
}
330
29
100
AcDbVisualStyle
  2
Hidden
 70
     6
177
     3
291
     0
 70
    58
 90
        1
176
     1
 90
        2
176
     1
 90
        2
176
     1
 90
        0
176
     1
 40
0.6
176
     1
 40
30.0
176
     1
 62
     7
420
 16777215
176
     1
 90
        2
176
     1
 90
        2
176
     1
 62
     7
176
     1
 62
   257
176
     1
 90
        2
176
     1
 90
        1
176
     1
 40
40.0
176
     1
 90
        0
176
     1
 62
   257
176
     1
 40
1.0
176
     1
 90
        1
176
     1
 90
        6
176
     1
 90
        2
176
     1
 62
     7
176
     1
 90
        3
176
     1
 90
        0
176
     1
 90
        0
176
     1
290
     0
176
     1
 90
        1
176
     1
 40
0.0
176
     1
 90
        0
176
     1
290
     0
176
     1
290
     1
176
     1
290
     1
176
     1
290
     0
176
     1
290
     0
176
     1
290
     0
176
     1
290
     0
176
     1
290
     0
176
     1
290
     0
176
     1
 90
       50
176
     1
 40
0.0
176
     1
 40
1.0
176
     1
 90
        0
176
     1
 62
    18
420
        0
176
     1
 90
       50
176
     1
 90
        3
176
     1
 62
     5
420
      255
176
     1
290
     0
176
     1
 90
       50
176
     1
 90
       50
176
     1
 90
       50
176
     1
290
     0
176
     1
 90
       50
176
     1
 62
   256
176
     0
 40
1.0
176
     0
 90
        2
176
     1
  1
strokes_ogs.tif
176
     1
290
     0
176
     1
 40
1.0
176
     1
 40
1.0
176
     1
  0
VISUALSTYLE
  5
3F
102
{ACAD_REACTORS
330
29
102
}
330
29
100
AcDbVisualStyle
  2
JitterOff
 70
    20
177
     3
291
     1
 70
    58
 90
        2
176
     0
 90
        2
176
     0
 90
        0
176
     0
 90
        0
176
     0
 40
0.6
176
     0
 40
30.0
176
     0
 62
     7
420
 16777215
176
     0
 90
        1
176
     0
 90
        4
176
     0
 62
     7
176
     0
 62
   257
176
     0
 90
        1
176
     0
 90
        1
176
     0
 40
1.0
176
     0
 90
       10
176
     2
 62
     7
176
     0
 40
1.0
176
     0
 90
        1
176
     0
 90
        6
176
     0
 90
        2
176
     0
 62
     7
176
     0
 90
        5
176
     0
 90
        0
176
     0
 90
        0
176
     0
290
     0
176
     0
 90
        1
176
     0
 40
0.0
176
     0
 90
        0
176
     0
290
     0
176
     0
290
     1
176
     0
290
     1
176
     0
290
     0
176
     0
290
     0
176
     0
290
     0
176
     0
290
     0
176
     0
290
     0
176
     0
290
     0
176
     0
 90
       50
176
     0
 40
0.0
176
     0
 40
1.0
176
     0
 90
        0
176
     0
 62
    18
420
        0
176
     0
 90
       50
176
     0
 90
        3
176
     0
 62
     5
420
      255
176
     0
290
     0
176
     0
 90
       50
176
     0
 90
       50
176
     0
 90
       50
176
     0
290
     0
176
     0
 90
       50
176
     0
 62
   256
176
     0
 40
1.0
176
     0
 90
        2
176
     0
  1
strokes_ogs.tif
176
     0
290
     0
176
     0
 40
1.0
176
     0
 40
1.0
176
     0
  0
VISUALSTYLE
  5
37
102
{ACAD_REACTORS
330
29
102
}
330
29
100
AcDbVisualStyle
  2
Linepattern
 70
    14
177
     3
291
     1
 70
    58
 90
        2
176
     1
 90
        2
176
     1
 90
        0
176
     1
 90
        0
176
     1
 40
0.6
176
     1
 40
30.0
176
     1
 62
     7
420
 16777215
176
     1
 90
        1
176
     1
 90
        4
176
     1
 62
     7
176
     1
 62
   257
176
     1
 90
        7
176
     1
 90
        7
176
     1
 40
1.0
176
     1
 90
        8
176
     1
 62
     7
176
     1
 40
1.0
176
     1
 90
        1
176
     1
 90
        6
176
     1
 90
        2
176
     1
 62
     7
176
     1
 90
        5
176
     1
 90
        0
176
     1
 90
        0
176
     1
290
     0
176
     1
 90
        1
176
     1
 40
0.0
176
     1
 90
        0
176
     1
290
     0
176
     1
290
     1
176
     1
290
     1
176
     1
290
     0
176
     1
290
     0
176
     1
290
     0
176
     1
290
     0
176
     1
290
     0
176
     1
290
     0
176
     1
 90
       50
176
     1
 40
0.0
176
     1
 40
1.0
176
     1
 90
        0
176
     1
 62
    18
420
        0
176
     1
 90
       50
176
     1
 90
        3
176
     1
 62
     5
420
      255
176
     1
290
     0
176
     1
 90
       50
176
     1
 90
       50
176
     1
 90
       50
176
     1
290
     0
176
     1
 90
       50
176
     1
 62
   256
176
     0
 40
1.0
176
     0
 90
        2
176
     1
  1
strokes_ogs.tif
176
     1
290
     0
176
     1
 40
1.0
176
     1
 40
1.0
176
     1
  0
VISUALSTYLE
  5
40
102
{ACAD_REACTORS
330
29
102
}
330
29
100
AcDbVisualStyle
  2
OverhangOff
 70
    21
177
     3
291
     1
 70
    58
 90
        2
176
     0
 90
        2
176
     0
 90
        0
176
     0
 90
        0
176
     0
 40
0.6
176
     0
 40
30.0
176
     0
 62
     7
420
 16777215
176
     0
 90
        1
176
     0
 90
        4
176
     0
 62
     7
176
     0
 62
   257
176
     0
 90
        1
176
     0
 90
        1
176
     0
 40
1.0
176
     0
 90
        9
176
     2
 62
     7
176
     0
 40
1.0
176
     0
 90
        1
176
     0
 90
        6
176
     0
 90
        2
176
     0
 62
     7
176
     0
 90
        5
176
     0
 90
        0
176
     0
 90
        0
176
     0
290
     0
176
     0
 90
        1
176
     0
 40
0.0
176
     0
 90
        0
176
     0
290
     0
176
     0
290
     1
176
     0
290
     1
176
     0
290
     0
176
     0
290
     0
176
     0
290
     0
176
     0
290
     0
176
     0
290
     0
176
     0
290
     0
176
     0
 90
       50
176
     0
 40
0.0
176
     0
 40
1.0
176
     0
 90
        0
176
     0
 62
    18
420
        0
176
     0
 90
       50
176
     0
 90
        3
176
     0
 62
     5
420
      255
176
     0
290
     0
176
     0
 90
       50
176
     0
 90
       50
176
     0
 90
       50
176
     0
290
     0
176
     0
 90
       50
176
     0
 62
   256
176
     0
 40
1.0
176
     0
 90
        2
176
     0
  1
strokes_ogs.tif
176
     0
290
     0
176
     0
 40
1.0
176
     0
 40
1.0
176
     0
  0
VISUALSTYLE
  5
33
102
{ACAD_REACTORS
330
29
102
}
330
29
100
AcDbVisualStyle
  2
Realistic
 70
     8
177
     3
291
     0
 70
    58
 90
        2
176
     1
 90
        3
176
     1
 90
        0
176
     1
 90
        2
176
     1
 40
0.6
176
     1
 40
30.0
176
     1
 62
     7
420
 16777215
176
     1
 90
        0
176
     1
 90
        0
176
     1
 62
     7
176
     1
 62
   257
176
     1
 90
        1
176
     1
 90
        1
176
     1
 40
1.0
176
     1
 90
        8
176
     1
 62
   257
176
     1
 40
1.0
176
     1
 90
        1
176
     1
 90
        6
176
     1
 90
        2
176
     1
 62
     7
176
     1
 90
        3
176
     1
 90
        0
176
     1
 90
        0
176
     1
290
     0
176
     1
 90
       13
176
     1
 40
0.0
176
     1
 90
        0
176
     1
290
     0
176
     1
290
     1
176
     1
290
     1
176
     1
290
     0
176
     1
290
     0
176
     1
290
     0
176
     1
290
     0
176
     1
290
     0
176
     1
290
     0
176
     1
 90
       50
176
     1
 40
0.0
176
     1
 40
1.0
176
     1
 90
        0
176
     1
 62
    18
420
        0
176
     1
 90
       50
176
     1
 90
        3
176
     1
 62
     5
420
      255
176
     1
290
     0
176
     1
 90
       50
176
     1
 90
       50
176
     1
 90
       50
176
     1
290
     0
176
     1
 90
       50
176
     1
 62
   256
176
     0
 40
1.0
176
     0
 90
        2
176
     1
  1
strokes_ogs.tif
176
     1
290
     0
176
     1
 40
1.0
176
     1
 40
1.0
176
     1
  0
VISUALSTYLE
  5
3E
102
{ACAD_REACTORS
330
29
102
}
330
29
100
AcDbVisualStyle
  2
Shaded
 70
    27
177
     3
291
     0
 70
    58
 90
        2
176
     1
 90
        2
176
     1
 90
        1
176
     1
 90
        2
176
     1
 40
0.6
176
     1
 40
30.0
176
     1
 62
     7
420
 16777215
176
     1
 90
        0
176
     1
 90
        4
176
     1
 62
     7
176
     1
 62
   257
176
     1
 90
        1
176
     1
 90
        1
176
     1
 40
1.0
176
     1
 90
        8
176
     1
 62
   257
176
     1
 40
1.0
176
     1
 90
        1
176
     1
 90
        6
176
     1
 90
        2
176
     1
 62
     8
420
  7895160
176
     1
 90
        3
176
     1
 90
        0
176
     1
 90
        0
176
     1
290
     0
176
     1
 90
        5
176
     1
 40
0.0
176
     1
 90
        0
176
     1
290
     0
176
     1
290
     1
176
     1
290
     1
176
     1
290
     0
176
     1
290
     0
176
     1
290
     0
176
     1
290
     0
176
     1
290
     0
176
     1
290
     0
176
     1
 90
       50
176
     1
 40
0.0
176
     1
 40
1.0
176
     1
 90
        0
176
     1
 62
    18
420
        0
176
     1
 90
       50
176
     1
 90
        3
176
     1
 62
     5
420
      255
176
     1
290
     0
176
     1
 90
       50
176
     1
 90
       50
176
     1
 90
       50
176
     1
290
     0
176
     1
 90
       50
176
     1
 62
   256
176
     0
 40
1.0
176
     0
 90
        2
176
     1
  1
strokes_ogs.tif
176
     1
290
     0
176
     1
 40
1.0
176
     1
 40
1.0
176
     1
  0
VISUALSTYLE
  5
3D
102
{ACAD_REACTORS
330
29
102
}
330
29
100
AcDbVisualStyle
  2
Shaded with edges
 70
    26
177
     3
291
     0
 70
    58
 90
        2
176
     1
 90
        2
176
     1
 90
        1
176
     1
 90
        2
176
     1
 40
0.6
176
     1
 40
30.0
176
     1
 62
     7
420
 16777215
176
     1
 90
        1
176
     1
 90
       10
176
     1
 62
     7
176
     1
 62
   257
176
     1
 90
        2
176
     1
 90
        1
176
     1
 40
1.0
176
     1
 90
        8
176
     1
 62
   257
176
     1
 40
1.0
176
     1
 90
        1
176
     1
 90
        6
176
     1
 90
        2
176
     1
 62
     7
176
     1
 90
        3
176
     1
 90
        0
176
     1
 90
        0
176
     1
290
     0
176
     1
 90
        5
176
     1
 40
0.0
176
     1
 90
        0
176
     1
290
     0
176
     1
290
     1
176
     1
290
     1
176
     1
290
     0
176
     1
290
     0
176
     1
290
     0
176
     1
290
     0
176
     1
290
     0
176
     1
290
     0
176
     1
 90
       50
176
     1
 40
0.0
176
     1
 40
1.0
176
     1
 90
        0
176
     1
 62
    18
420
        0
176
     1
 90
       50
176
     1
 90
        3
176
     1
 62
     5
420
      255
176
     1
290
     0
176
     1
 90
       50
176
     1
 90
       50
176
     1
 90
       50
176
     1
290
     0
176
     1
 90
       50
176
     1
 62
   256
176
     0
 40
1.0
176
     0
 90
        2
176
     1
  1
strokes_ogs.tif
176
     1
290
     0
176
     1
 40
1.0
176
     1
 40
1.0
176
     1
  0
VISUALSTYLE
  5
3A
102
{ACAD_REACTORS
330
29
102
}
330
29
100
AcDbVisualStyle
  2
Shades of Gray
 70
    23
177
     3
291
     0
 70
    58
 90
        2
176
     1
 90
        2
176
     1
 90
        3
176
     1
 90
        0
176
     1
 40
0.6
176
     1
 40
30.0
176
     1
 62
     7
420
 16777215
176
     1
 90
        2
176
     1
 90
        2
176
     1
 62
     7
176
     1
 62
     7
176
     1
 90
        1
176
     1
 90
        1
176
     1
 40
40.0
176
     1
 90
        8
176
     1
 62
     7
176
     1
 40
1.0
176
     1
 90
        1
176
     1
 90
        6
176
     1
 90
        2
176
     1
 62
     7
176
     1
 90
        3
176
     1
 90
        0
176
     1
 90
        0
176
     1
290
     0
176
     1
 90
        1
176
     1
 40
0.0
176
     1
 90
        0
176
     1
290
     0
176
     1
290
     1
176
     1
290
     1
176
     1
290
     0
176
     1
290
     0
176
     1
290
     0
176
     1
290
     0
176
     1
290
     0
176
     1
290
     0
176
     1
 90
       50
176
     1
 40
0.0
176
     1
 40
1.0
176
     1
 90
        0
176
     1
 62
    18
420
        0
176
     1
 90
       50
176
     1
 90
        3
176
     1
 62
     5
420
      255
176
     1
290
     0
176
     1
 90
       50
176
     1
 90
       50
176
     1
 90
       50
176
     1
290
     0
176
     1
 90
       50
176
     1
 62
   256
176
     0
 40
1.0
176
     0
 90
        2
176
     1
  1
strokes_ogs.tif
176
     1
290
     0
176
     1
 40
1.0
176
     1
 40
1.0
176
     1
  0
VISUALSTYLE
  5
3B
102
{ACAD_REACTORS
330
29
102
}
330
29
100
AcDbVisualStyle
  2
Sketchy
 70
    24
177
     3
291
     0
 70
    58
 90
        1
176
     1
 90
        2
176
     1
 90
        2
176
     1
 90
        0
176
     1
 40
0.6
176
     1
 40
30.0
176
     1
 62
     7
420
 16777215
176
     1
 90
        2
176
     1
 90
        2
176
     1
 62
     7
176
     1
 62
     7
176
     1
 90
        1
176
     1
 90
        1
176
     1
 40
40.0
176
     1
 90
       11
176
     1
 62
     7
176
     1
 40
1.0
176
     1
 90
        1
176
     1
 90
        6
176
     1
 90
        2
176
     1
 62
     7
176
     1
 90
        6
176
     1
 90
        0
176
     1
 90
        0
176
     1
290
     0
176
     1
 90
        1
176
     1
 40
0.0
176
     1
 90
        0
176
     1
290
     0
176
     1
290
     1
176
     1
290
     1
176
     1
290
     0
176
     1
290
     0
176
     1
290
     0
176
     1
290
     0
176
     1
290
     0
176
     1
290
     0
176
     1
 90
       50
176
     1
 40
0.0
176
     1
 40
1.0
176
     1
 90
        0
176
     1
 62
    18
420
        0
176
     1
 90
       50
176
     1
 90
        3
176
     1
 62
     5
420
      255
176
     1
290
     0
176
     1
 90
       50
176
     1
 90
       50
176
     1
 90
       50
176
     1
290
     0
176
     1
 90
       50
176
     1
 62
   256
176
     0
 40
1.0
176
     0
 90
        2
176
     1
  1
strokes_ogs.tif
176
     1
290
     0
176
     1
 40
1.0
176
     1
 40
1.0
176
     1
  0
VISUALSTYLE
  5
36
102
{ACAD_REACTORS
330
29
102
}
330
29
100
AcDbVisualStyle
  2
Thicken
 70
    13
177
     3
291
     1
 70
    58
 90
        2
176
     1
 90
        2
176
     1
 90
        0
176
     1
 90
        0
176
     1
 40
0.6
176
     1
 40
30.0
176
     1
 62
     7
420
 16777215
176
     1
 90
        1
176
     1
 90
        4
176
     1
 62
     7
176
     1
 62
   257
176
     1
 90
        1
176
     1
 90
        1
176
     1
 40
1.0
176
     1
 90
       12
176
     1
 62
     7
176
     1
 40
1.0
176
     1
 90
        1
176
     1
 90
        6
176
     1
 90
        2
176
     1
 62
     7
176
     1
 90
        5
176
     1
 90
        0
176
     1
 90
        0
176
     1
290
     0
176
     1
 90
        1
176
     1
 40
0.0
176
     1
 90
        0
176
     1
290
     0
176
     1
290
     1
176
     1
290
     1
176
     1
290
     0
176
     1
290
     0
176
     1
290
     0
176
     1
290
     0
176
     1
290
     0
176
     1
290
     0
176
     1
 90
       50
176
     1
 40
0.0
176
     1
 40
1.0
176
     1
 90
        0
176
     1
 62
    18
420
        0
176
     1
 90
       50
176
     1
 90
        3
176
     1
 62
     5
420
      255
176
     1
290
     0
176
     1
 90
       50
176
     1
 90
       50
176
     1
 90
       50
176
     1
290
     0
176
     1
 90
       50
176
     1
 62
   256
176
     0
 40
1.0
176
     0
 90
        2
176
     1
  1
strokes_ogs.tif
176
     1
290
     0
176
     1
 40
1.0
176
     1
 40
1.0
176
     1
  0
VISUALSTYLE
  5
30
102
{ACAD_REACTORS
330
29
102
}
330
29
100
AcDbVisualStyle
  2
Wireframe
 70
     5
177
     3
291
     0
 70
    58
 90
        0
176
     1
 90
        2
176
     1
 90
        0
176
     1
 90
        0
176
     1
 40
0.6
176
     1
 40
30.0
176
     1
 62
     7
420
 16777215
176
     1
 90
        1
176
     1
 90
        4
176
     1
 62
     7
176
     1
 62
   257
176
     1
 90
        1
176
     1
 90
        1
176
     1
 40
1.0
176
     1
 90
        0
176
     1
 62
   257
176
     1
 40
1.0
176
     1
 90
        1
176
     1
 90
        6
176
     1
 90
        2
176
     1
 62
     7
176
     1
 90
        3
176
     1
 90
        0
176
     1
 90
        0
176
     1
290
     0
176
     1
 90
        1
176
     1
 40
0.0
176
     1
 90
        0
176
     1
290
     0
176
     1
290
     1
176
     1
290
     1
176
     1
290
     0
176
     1
290
     0
176
     1
290
     0
176
     1
290
     0
176
     1
290
     0
176
     1
290
     0
176
     1
 90
       50
176
     1
 40
0.0
176
     1
 40
1.0
176
     1
 90
        0
176
     1
 62
    18
420
        0
176
     1
 90
       50
176
     1
 90
        3
176
     1
 62
     5
420
      255
176
     1
290
     0
176
     1
 90
       50
176
     1
 90
       50
176
     1
 90
       50
176
     1
290
     0
176
     1
 90
       50
176
     1
 62
   256
176
     0
 40
1.0
176
     0
 90
        2
176
     1
  1
strokes_ogs.tif
176
     1
290
     0
176
     1
 40
1.0
176
     1
 40
1.0
176
     1
  0
VISUALSTYLE
  5
3C
102
{ACAD_REACTORS
330
29
102
}
330
29
100
AcDbVisualStyle
  2
X-Ray
 70
    25
177
     3
291
     0
 70
    58
 90
        2
176
     1
 90
        2
176
     1
 90
        1
176
     1
 90
        1
176
     1
 40
0.5
176
     1
 40
30.0
176
     1
 62
     7
420
 16777215
176
     1
 90
        1
176
     1
 90
        0
176
     1
 62
     7
176
     1
 62
   257
176
     1
 90
        1
176
     1
 90
        1
176
     1
 40
1.0
176
     1
 90
        8
176
     1
 62
     7
176
     1
 40
1.0
176
     1
 90
        1
176
     1
 90
        6
176
     1
 90
        2
176
     1
 62
     7
176
     1
 90
        3
176
     1
 90
        0
176
     1
 90
        0
176
     1
290
     0
176
     1
 90
       13
176
     1
 40
0.0
176
     1
 90
        0
176
     1
290
     0
176
     1
290
     1
176
     1
290
     1
176
     1
290
     0
176
     1
290
     0
176
     1
290
     0
176
     1
290
     0
176
     1
290
     0
176
     1
290
     0
176
     1
 90
       50
176
     1
 40
0.0
176
     1
 40
1.0
176
     1
 90
        0
176
     1
 62
    18
420
        0
176
     1
 90
       50
176
     1
 90
        3
176
     1
 62
     5
420
      255
176
     1
290
     0
176
     1
 90
       50
176
     1
 90
       50
176
     1
 90
       50
176
     1
290
     0
176
     1
 90
       50
176
     1
 62
   256
176
     0
 40
1.0
176
     0
 90
        2
176
     1
  1
strokes_ogs.tif
176
     1
290
     0
176
     1
 40
1.0
176
     1
 40
1.0
176
     1
  0
DICTIONARYVAR
  5
81
102
{ACAD_REACTORS
330
7C
102
}
330
7C
100
DictionaryVariables
280
     0
  1
1:1
  0
DICTIONARYVAR
  5
7E
102
{ACAD_REACTORS
330
7C
102
}
330
7C
100
DictionaryVariables
280
     0
  1
STANDARD
  0
DICTIONARYVAR
  5
7D
102
{ACAD_REACTORS
330
7C
102
}
330
7C
100
DictionaryVariables
280
     0
  1
STANDARD
  0
DICTIONARYVAR
  5
7F
102
{ACAD_REACTORS
330
7C
102
}
330
7C
100
DictionaryVariables
280
     0
  1
Imperial24
  0
DICTIONARYVAR
  5
80
102
{ACAD_REACTORS
330
7C
102
}
330
7C
100
DictionaryVariables
280
     0
  1
Imperial24
  0
XRECORD
  5
283
102
{ACAD_REACTORS
330
27F
102
}
330
27F
100
AcDbXrecord
280
     1
  1
BUILDING_ID
  1
Progetto per messa in tavola DXF, DWG
  1
FLOOR_ID
  1
694395
  0
XRECORD
  5
281
102
{ACAD_REACTORS
330
27F
102
}
330
27F
100
AcDbXrecord
280
     1
  1
-2001160
  1
Apparecchi idraulici
  0
XRECORD
  5
282
102
{ACAD_REACTORS
330
27F
102
}
330
27F
100
AcDbXrecord
280
     1
  1
923885
  1
Handle
  0
XRECORD
  5
280
102
{ACAD_REACTORS
330
27F
102
}
330
27F
100
AcDbXrecord
280
     1
  1
859151
  1
Automatic flow rate regulator valve_Caleffi_121 DN15 : 1/2''
  0
DICTIONARY
  5
1A
330
19
100
AcDbDictionary
280
     1
281
     1
  3
BUMPTILE
360
1C
  3
DIFFUSETILE
360
1B
  3
OPACITYTILE
360
1F
  3
REFLECTIONTILE
360
1E
  3
REFRACTIONTILE
360
20
  3
SPECULARTILE
360
1D
  0
DICTIONARY
  5
12
330
11
100
AcDbDictionary
280
     1
281
     1
  3
BUMPTILE
360
14
  3
DIFFUSETILE
360
13
  3
OPACITYTILE
360
17
  3
REFLECTIONTILE
360
16
  3
REFRACTIONTILE
360
18
  3
SPECULARTILE
360
15
  0
DICTIONARY
  5
22
330
21
100
AcDbDictionary
280
     1
281
     1
  3
BUMPTILE
360
24
  3
DIFFUSETILE
360
23
  3
OPACITYTILE
360
27
  3
REFLECTIONTILE
360
26
  3
REFRACTIONTILE
360
28
  3
SPECULARTILE
360
25
  0
DICTIONARY
  5
286
330
65
100
AcDbDictionary
280
     1
281
     1
  3
ACAD_ROUNDTRIP_2008_TABLESTYLE_CELLSTYLEMAP
360
287
  0
XRECORD
  5
1C
102
{ACAD_REACTORS
330
1A
102
}
330
1A
100
AcDbXrecord
280
     1
270
     1
271
     1
  0
XRECORD
  5
1B
102
{ACAD_REACTORS
330
1A
102
}
330
1A
100
AcDbXrecord
280
     1
270
     1
271
     1
  0
XRECORD
  5
1F
102
{ACAD_REACTORS
330
1A
102
}
330
1A
100
AcDbXrecord
280
     1
270
     1
271
     1
  0
XRECORD
  5
1E
102
{ACAD_REACTORS
330
1A
102
}
330
1A
100
AcDbXrecord
280
     1
270
     1
271
     1
  0
XRECORD
  5
20
102
{ACAD_REACTORS
330
1A
102
}
330
1A
100
AcDbXrecord
280
     1
270
     1
271
     1
  0
XRECORD
  5
1D
102
{ACAD_REACTORS
330
1A
102
}
330
1A
100
AcDbXrecord
280
     1
270
     1
271
     1
  0
XRECORD
  5
14
102
{ACAD_REACTORS
330
12
102
}
330
12
100
AcDbXrecord
280
     1
270
     1
271
     1
  0
XRECORD
  5
13
102
{ACAD_REACTORS
330
12
102
}
330
12
100
AcDbXrecord
280
     1
270
     1
271
     1
  0
XRECORD
  5
17
102
{ACAD_REACTORS
330
12
102
}
330
12
100
AcDbXrecord
280
     1
270
     1
271
     1
  0
XRECORD
  5
16
102
{ACAD_REACTORS
330
12
102
}
330
12
100
AcDbXrecord
280
     1
270
     1
271
     1
  0
XRECORD
  5
18
102
{ACAD_REACTORS
330
12
102
}
330
12
100
AcDbXrecord
280
     1
270
     1
271
     1
  0
XRECORD
  5
15
102
{ACAD_REACTORS
330
12
102
}
330
12
100
AcDbXrecord
280
     1
270
     1
271
     1
  0
XRECORD
  5
24
102
{ACAD_REACTORS
330
22
102
}
330
22
100
AcDbXrecord
280
     1
270
     1
271
     1
  0
XRECORD
  5
23
102
{ACAD_REACTORS
330
22
102
}
330
22
100
AcDbXrecord
280
     1
270
     1
271
     1
  0
XRECORD
  5
27
102
{ACAD_REACTORS
330
22
102
}
330
22
100
AcDbXrecord
280
     1
270
     1
271
     1
  0
XRECORD
  5
26
102
{ACAD_REACTORS
330
22
102
}
330
22
100
AcDbXrecord
280
     1
270
     1
271
     1
  0
XRECORD
  5
28
102
{ACAD_REACTORS
330
22
102
}
330
22
100
AcDbXrecord
280
     1
270
     1
271
     1
  0
XRECORD
  5
25
102
{ACAD_REACTORS
330
22
102
}
330
22
100
AcDbXrecord
280
     1
270
     1
271
     1
  0
CELLSTYLEMAP
  5
287
102
{ACAD_REACTORS
330
286
102
}
330
286
100
AcDbCellStyleMap
 90
        3
300
CELLSTYLE
  1
TABLEFORMAT_BEGIN
 90
        5
170
     1
 91
        0
 92
    32768
 62
   257
 93
        1
300
CONTENTFORMAT
  1
CONTENTFORMAT_BEGIN
 90
        0
 91
        0
 92
      512
 93
        0
300

 40
0.0
140
1.0
 94
        5
 62
     0
340
55
144
0.25
309
CONTENTFORMAT_END
171
     0
 94
        0
309
TABLEFORMAT_END
  1
CELLSTYLE_BEGIN
 90
        1
 91
        1
300
_TITLE
309
CELLSTYLE_END
300
CELLSTYLE
  1
TABLEFORMAT_BEGIN
 90
        5
170
     1
 91
        0
 92
        0
 62
   257
 93
        1
300
CONTENTFORMAT
  1
CONTENTFORMAT_BEGIN
 90
        0
 91
        0
 92
      512
 93
        0
300

 40
0.0
140
1.0
 94
        5
 62
     0
340
55
144
0.18
309
CONTENTFORMAT_END
171
     0
 94
        0
309
TABLEFORMAT_END
  1
CELLSTYLE_BEGIN
 90
        2
 91
        1
300
_HEADER
309
CELLSTYLE_END
300
CELLSTYLE
  1
TABLEFORMAT_BEGIN
 90
        5
170
     1
 91
        0
 92
        0
 62
   257
 93
        1
300
CONTENTFORMAT
  1
CONTENTFORMAT_BEGIN
 90
        0
 91
        0
 92
      512
 93
        0
300

 40
0.0
140
1.0
 94
        2
 62
     0
340
55
144
0.18
309
CONTENTFORMAT_END
171
     0
 94
        0
309
TABLEFORMAT_END
  1
CELLSTYLE_BEGIN
 90
        3
 91
        2
300
_DATA
309
CELLSTYLE_END
  0
ENDSEC
  0
EOF
