  0
SECTION
  2
HEADER
  9
$ACADVER
  1
AC1027
  9
$ACADMAINTVER
 70
    20
  9
$DWGCODEPAGE
  3
ANSI_1252
  9
$REQUIREDVERSIONS
160
                 0
  9
$INSBASE
 10
0.0
 20
0.0
 30
0.0
  9
$EXTMIN
 10
791.6664074431877
 20
1802.247277444534
 30
-0.00000001
  9
$EXTMAX
 10
839.6664074431894
 20
2066.500000000042
 30
0.00000001
  9
$LIMMIN
 10
0.0
 20
0.0
  9
$LIMMAX
 10
12.0
 20
9.0
  9
$ORTHOMODE
 70
     0
  9
$REGENMODE
 70
     1
  9
$FILLMODE
 70
     1
  9
$QTEXTMODE
 70
     0
  9
$MIRRTEXT
 70
     0
  9
$LTSCALE
 40
1.0
  9
$ATTMODE
 70
     1
  9
$TEXTSIZE
 40
0.2
  9
$TRACEWID
 40
0.05
  9
$TEXTSTYLE
  7
Standard
  9
$CLAYER
  8
0
  9
$CELTYPE
  6
ByLayer
  9
$CECOLOR
 62
   256
  9
$CELTSCALE
 40
1.0
  9
$DISPSILH
 70
     0
  9
$DIMSCALE
 40
1.0
  9
$DIMASZ
 40
0.18
  9
$DIMEXO
 40
0.0625
  9
$DIMDLI
 40
0.38
  9
$DIMRND
 40
0.0
  9
$DIMDLE
 40
0.0
  9
$DIMEXE
 40
0.18
  9
$DIMTP
 40
0.0
  9
$DIMTM
 40
0.0
  9
$DIMTXT
 40
0.18
  9
$DIMCEN
 40
0.09
  9
$DIMTSZ
 40
0.0
  9
$DIMTOL
 70
     0
  9
$DIMLIM
 70
     0
  9
$DIMTIH
 70
     1
  9
$DIMTOH
 70
     1
  9
$DIMSE1
 70
     0
  9
$DIMSE2
 70
     0
  9
$DIMTAD
 70
     0
  9
$DIMZIN
 70
     0
  9
$DIMBLK
  1

  9
$DIMASO
 70
     1
  9
$DIMSHO
 70
     1
  9
$DIMPOST
  1

  9
$DIMAPOST
  1

  9
$DIMALT
 70
     0
  9
$DIMALTD
 70
     2
  9
$DIMALTF
 40
25.4
  9
$DIMLFAC
 40
1.0
  9
$DIMTOFL
 70
     0
  9
$DIMTVP
 40
0.0
  9
$DIMTIX
 70
     0
  9
$DIMSOXD
 70
     0
  9
$DIMSAH
 70
     0
  9
$DIMBLK1
  1

  9
$DIMBLK2
  1

  9
$DIMSTYLE
  2
Standard
  9
$DIMCLRD
 70
     0
  9
$DIMCLRE
 70
     0
  9
$DIMCLRT
 70
     0
  9
$DIMTFAC
 40
1.0
  9
$DIMGAP
 40
0.09
  9
$DIMJUST
 70
     0
  9
$DIMSD1
 70
     0
  9
$DIMSD2
 70
     0
  9
$DIMTOLJ
 70
     1
  9
$DIMTZIN
 70
     0
  9
$DIMALTZ
 70
     0
  9
$DIMALTTZ
 70
     0
  9
$DIMUPT
 70
     0
  9
$DIMDEC
 70
     4
  9
$DIMTDEC
 70
     4
  9
$DIMALTU
 70
     2
  9
$DIMALTTD
 70
     2
  9
$DIMTXSTY
  7
Standard
  9
$DIMAUNIT
 70
     0
  9
$DIMADEC
 70
     0
  9
$DIMALTRND
 40
0.0
  9
$DIMAZIN
 70
     0
  9
$DIMDSEP
 70
    46
  9
$DIMATFIT
 70
     3
  9
$DIMFRAC
 70
     0
  9
$DIMLDRBLK
  1

  9
$DIMLUNIT
 70
     2
  9
$DIMLWD
 70
    -2
  9
$DIMLWE
 70
    -2
  9
$DIMTMOVE
 70
     0
  9
$DIMFXL
 40
1.0
  9
$DIMFXLON
 70
     0
  9
$DIMJOGANG
 40
0.7853981633974483
  9
$DIMTFILL
 70
     0
  9
$DIMTFILLCLR
 70
     0
  9
$DIMARCSYM
 70
     0
  9
$DIMLTYPE
  6

  9
$DIMLTEX1
  6

  9
$DIMLTEX2
  6

  9
$DIMTXTDIRECTION
 70
     0
  9
$LUNITS
 70
     2
  9
$LUPREC
 70
     4
  9
$SKETCHINC
 40
0.1
  9
$FILLETRAD
 40
0.0
  9
$AUNITS
 70
     0
  9
$AUPREC
 70
     0
  9
$MENU
  1
.
  9
$ELEVATION
 40
0.0
  9
$PELEVATION
 40
0.0
  9
$THICKNESS
 40
0.0
  9
$LIMCHECK
 70
     0
  9
$CHAMFERA
 40
0.0
  9
$CHAMFERB
 40
0.0
  9
$CHAMFERC
 40
0.0
  9
$CHAMFERD
 40
0.0
  9
$SKPOLY
 70
     0
  9
$TDCREATE
 40
2457549.398826597
  9
$TDUCREATE
 40
2457549.315493264
  9
$TDUPDATE
 40
2457549.398826597
  9
$TDUUPDATE
 40
2457549.315493264
  9
$TDINDWG
 40
0.0000042477
  9
$TDUSRTIMER
 40
0.0000042477
  9
$USRTIMER
 70
     1
  9
$ANGBASE
 50
0.0
  9
$ANGDIR
 70
     0
  9
$PDMODE
 70
     0
  9
$PDSIZE
 40
0.0
  9
$PLINEWID
 40
0.0
  9
$SPLFRAME
 70
     0
  9
$SPLINETYPE
 70
     6
  9
$SPLINESEGS
 70
     8
  9
$HANDSEED
  5
137
  9
$SURFTAB1
 70
     6
  9
$SURFTAB2
 70
     6
  9
$SURFTYPE
 70
     6
  9
$SURFU
 70
     6
  9
$SURFV
 70
     6
  9
$UCSBASE
  2

  9
$UCSNAME
  2

  9
$UCSORG
 10
0.0
 20
0.0
 30
0.0
  9
$UCSXDIR
 10
1.0
 20
0.0
 30
0.0
  9
$UCSYDIR
 10
0.0
 20
1.0
 30
0.0
  9
$UCSORTHOREF
  2

  9
$UCSORTHOVIEW
 70
     0
  9
$UCSORGTOP
 10
0.0
 20
0.0
 30
0.0
  9
$UCSORGBOTTOM
 10
0.0
 20
0.0
 30
0.0
  9
$UCSORGLEFT
 10
0.0
 20
0.0
 30
0.0
  9
$UCSORGRIGHT
 10
0.0
 20
0.0
 30
0.0
  9
$UCSORGFRONT
 10
0.0
 20
0.0
 30
0.0
  9
$UCSORGBACK
 10
0.0
 20
0.0
 30
0.0
  9
$PUCSBASE
  2

  9
$PUCSNAME
  2

  9
$PUCSORG
 10
0.0
 20
0.0
 30
0.0
  9
$PUCSXDIR
 10
1.0
 20
0.0
 30
0.0
  9
$PUCSYDIR
 10
0.0
 20
1.0
 30
0.0
  9
$PUCSORTHOREF
  2

  9
$PUCSORTHOVIEW
 70
     0
  9
$PUCSORGTOP
 10
0.0
 20
0.0
 30
0.0
  9
$PUCSORGBOTTOM
 10
0.0
 20
0.0
 30
0.0
  9
$PUCSORGLEFT
 10
0.0
 20
0.0
 30
0.0
  9
$PUCSORGRIGHT
 10
0.0
 20
0.0
 30
0.0
  9
$PUCSORGFRONT
 10
0.0
 20
0.0
 30
0.0
  9
$PUCSORGBACK
 10
0.0
 20
0.0
 30
0.0
  9
$USERI1
 70
     0
  9
$USERI2
 70
     0
  9
$USERI3
 70
     0
  9
$USERI4
 70
     0
  9
$USERI5
 70
     0
  9
$USERR1
 40
0.0
  9
$USERR2
 40
0.0
  9
$USERR3
 40
0.0
  9
$USERR4
 40
0.0
  9
$USERR5
 40
0.0
  9
$WORLDVIEW
 70
     1
  9
$SHADEDGE
 70
     3
  9
$SHADEDIF
 70
    70
  9
$TILEMODE
 70
     1
  9
$MAXACTVP
 70
    64
  9
$PINSBASE
 10
0.0
 20
0.0
 30
0.0
  9
$PLIMCHECK
 70
     0
  9
$PEXTMIN
 10
1.000000000000000E+20
 20
1.000000000000000E+20
 30
1.000000000000000E+20
  9
$PEXTMAX
 10
-1.000000000000000E+20
 20
-1.000000000000000E+20
 30
-1.000000000000000E+20
  9
$PLIMMIN
 10
0.0
 20
0.0
  9
$PLIMMAX
 10
12.0
 20
9.0
  9
$UNITMODE
 70
     0
  9
$VISRETAIN
 70
     1
  9
$PLINEGEN
 70
     0
  9
$PSLTSCALE
 70
     1
  9
$TREEDEPTH
 70
  3020
  9
$CMLSTYLE
  2
Standard
  9
$CMLJUST
 70
     0
  9
$CMLSCALE
 40
1.0
  9
$PROXYGRAPHICS
 70
     1
  9
$MEASUREMENT
 70
     1
  9
$CELWEIGHT
370
    -1
  9
$ENDCAPS
280
     0
  9
$JOINSTYLE
280
     0
  9
$LWDISPLAY
290
     0
  9
$INSUNITS
 70
     4
  9
$HYPERLINKBASE
  1

  9
$STYLESHEET
  1

  9
$XEDIT
290
     1
  9
$CEPSNTYPE
380
     0
  9
$PSTYLEMODE
290
     1
  9
$FINGERPRINTGUID
  2
{9DB8D398-A7F4-4F59-A329-9F37ECDC7573}
  9
$VERSIONGUID
  2
{D3EC8DDC-1942-4C33-BE03-6806F7A0B3A8}
  9
$EXTNAMES
290
     1
  9
$PSVPSCALE
 40
0.0
  9
$OLESTARTUP
290
     0
  9
$SORTENTS
280
   127
  9
$INDEXCTL
280
     0
  9
$HIDETEXT
280
     1
  9
$XCLIPFRAME
280
     2
  9
$HALOGAP
280
     0
  9
$OBSCOLOR
 70
   257
  9
$OBSLTYPE
280
     0
  9
$INTERSECTIONDISPLAY
280
     0
  9
$INTERSECTIONCOLOR
 70
   257
  9
$DIMASSOC
280
     2
  9
$PROJECTNAME
  1

  9
$CAMERADISPLAY
290
     0
  9
$LENSLENGTH
 40
50.0
  9
$CAMERAHEIGHT
 40
0.0
  9
$STEPSPERSEC
 40
2.0
  9
$STEPSIZE
 40
6.0
  9
$3DDWFPREC
 40
2.0
  9
$PSOLWIDTH
 40
0.25
  9
$PSOLHEIGHT
 40
4.0
  9
$LOFTANG1
 40
1.570796326794896
  9
$LOFTANG2
 40
1.570796326794896
  9
$LOFTMAG1
 40
0.0
  9
$LOFTMAG2
 40
0.0
  9
$LOFTPARAM
 70
     7
  9
$LOFTNORMALS
280
     1
  9
$LATITUDE
 40
37.795
  9
$LONGITUDE
 40
-122.394
  9
$NORTHDIRECTION
 40
0.0
  9
$TIMEZONE
 70
 -8000
  9
$LIGHTGLYPHDISPLAY
280
     1
  9
$TILEMODELIGHTSYNCH
280
     1
  9
$CMATERIAL
347
11
  9
$SOLIDHIST
280
     0
  9
$SHOWHIST
280
     1
  9
$DWFFRAME
280
     2
  9
$DGNFRAME
280
     0
  9
$REALWORLDSCALE
290
     1
  9
$INTERFERECOLOR
 62
     1
  9
$INTERFEREOBJVS
345
33
  9
$INTERFEREVPVS
346
30
  9
$CSHADOW
280
     0
  9
$SHADOWPLANELOCATION
 40
0.0
  0
ENDSEC
  0
SECTION
  2
CLASSES
  0
CLASS
  1
ACDBDICTIONARYWDFLT
  2
AcDbDictionaryWithDefault
  3
ObjectDBX Classes
 90
        0
 91
        1
280
     0
281
     0
  0
CLASS
  1
MATERIAL
  2
AcDbMaterial
  3
ObjectDBX Classes
 90
     1153
 91
        3
280
     0
281
     0
  0
CLASS
  1
VISUALSTYLE
  2
AcDbVisualStyle
  3
ObjectDBX Classes
 90
     4095
 91
       24
280
     0
281
     0
  0
CLASS
  1
SCALE
  2
AcDbScale
  3
ObjectDBX Classes
 90
     1153
 91
       17
280
     0
281
     0
  0
CLASS
  1
TABLESTYLE
  2
AcDbTableStyle
  3
ObjectDBX Classes
 90
     4095
 91
        1
280
     0
281
     0
  0
CLASS
  1
MLEADERSTYLE
  2
AcDbMLeaderStyle
  3
ACDB_MLEADERSTYLE_CLASS
 90
     4095
 91
        1
280
     0
281
     0
  0
CLASS
  1
ACDBSECTIONVIEWSTYLE
  2
AcDbSectionViewStyle
  3
ObjectDBX Classes
 90
     1025
 91
        1
280
     0
281
     0
  0
CLASS
  1
ACDBDETAILVIEWSTYLE
  2
AcDbDetailViewStyle
  3
ObjectDBX Classes
 90
     1025
 91
        1
280
     0
281
     0
  0
CLASS
  1
RASTERVARIABLES
  2
AcDbRasterVariables
  3
ISM
 90
        0
 91
        1
280
     0
281
     0
  0
CLASS
  1
DICTIONARYVAR
  2
AcDbDictionaryVar
  3
ObjectDBX Classes
 90
        0
 91
        5
280
     0
281
     0
  0
CLASS
  1
CELLSTYLEMAP
  2
AcDbCellStyleMap
  3
ObjectDBX Classes
 90
     1152
 91
        2
280
     0
281
     0
  0
CLASS
  1
SORTENTSTABLE
  2
AcDbSortentsTable
  3
ObjectDBX Classes
 90
        0
 91
        1
280
     0
281
     0
  0
ENDSEC
  0
SECTION
  2
TABLES
  0
TABLE
  2
VPORT
  5
8
330
0
100
AcDbSymbolTable
 70
     1
  0
VPORT
  5
57
330
8
100
AcDbSymbolTableRecord
100
AcDbViewportTableRecord
  2
*Active
 70
     0
 10
0.0
 20
0.0
 11
1.0
 21
1.0
 12
815.6664074431885
 22
1934.373638722287
 13
0.0
 23
0.0
 14
1.0
 24
1.0
 15
0.0
 25
0.0
 16
0.0
 26
0.0
 36
1.0
 17
0.0
 27
0.0
 37
0.0
 40
264.2527225555077
 41
0.1816442969283662
 42
50.0
 43
0.0
 44
0.0
 50
0.0
 51
0.0
 71
     0
 72
  1000
 73
     1
 74
     1
 75
     0
 76
     0
 77
     0
 78
     0
281
     0
 65
     1
110
0.0
120
0.0
130
0.0
111
1.0
121
0.0
131
0.0
112
0.0
122
1.0
132
0.0
 79
     0
146
0.0
 60
     3
 61
     5
292
     1
282
     1
141
0.0
142
0.0
 63
   250
421
  3355443
  0
ENDTAB
  0
TABLE
  2
LTYPE
  5
5
330
0
100
AcDbSymbolTable
 70
     3
  0
LTYPE
  5
5B
330
5
100
AcDbSymbolTableRecord
100
AcDbLinetypeTableRecord
  2
ByBlock
 70
     0
  3

 72
    65
 73
     0
 40
0.0
  0
LTYPE
  5
5C
330
5
100
AcDbSymbolTableRecord
100
AcDbLinetypeTableRecord
  2
ByLayer
 70
     0
  3

 72
    65
 73
     0
 40
0.0
  0
LTYPE
  5
5D
330
5
100
AcDbSymbolTableRecord
100
AcDbLinetypeTableRecord
  2
Continuous
 70
     0
  3
Solid line
 72
    65
 73
     0
 40
0.0
  0
LTYPE
  5
69
330
5
100
AcDbSymbolTableRecord
100
AcDbLinetypeTableRecord
  2
PHANTOM2
 70
     0
  3
___ _ _ ___ _ _ ___ _ _ ___ _ _
 72
    65
 73
     6
 40
1.25
 49
0.625
 74
     0
 49
-0.125
 74
     0
 49
0.125
 74
     0
 49
-0.125
 74
     0
 49
0.125
 74
     0
 49
-0.125
 74
     0
  0
LTYPE
  5
86
330
5
100
AcDbSymbolTableRecord
100
AcDbLinetypeTableRecord
  2
Nascosto 1_5 mm
 70
     0
  3

 72
    65
 73
     2
 40
2.2
 49
1.5
 74
     0
 49
-0.7000000000000001
 74
     0
  0
ENDTAB
  0
TABLE
  2
LAYER
  5
2
330
0
100
AcDbSymbolTable
 70
     4
  0
LAYER
  5
54
330
2
100
AcDbSymbolTableRecord
100
AcDbLayerTableRecord
  2
0
 70
     0
 62
     7
  6
Continuous
370
    -3
390
F
347
21
348
0
  0
LAYER
  5
85
330
2
100
AcDbSymbolTableRecord
100
AcDbLayerTableRecord
  2
P-SANR-FIXT
 70
     0
 62
     6
  6
Continuous
370
    18
390
F
347
21
348
0
  0
LAYER
  5
88
330
2
100
AcDbSymbolTableRecord
100
AcDbLayerTableRecord
  2
M-PIPE
 70
     0
 62
     3
  6
Continuous
370
    18
390
F
347
21
348
0
  0
ENDTAB
  0
TABLE
  2
STYLE
  5
3
330
0
100
AcDbSymbolTable
 70
     2
  0
STYLE
  5
55
330
3
100
AcDbSymbolTableRecord
100
AcDbTextStyleTableRecord
  2
Standard
 70
     0
 40
0.0
 41
1.0
 50
0.0
 71
     0
 42
0.2
  3
txt
  4

  0
STYLE
  5
5A
330
3
100
AcDbSymbolTableRecord
100
AcDbTextStyleTableRecord
  2
Annotative
 70
     0
 40
0.0
 41
1.0
 50
0.0
 71
     0
 42
0.2
  3
txt
  4

1001
AcadAnnotative
1000
AnnotativeData
1002
{
1070
     1
1070
     1
1002
}
  0
ENDTAB
  0
TABLE
  2
VIEW
  5
6
330
0
100
AcDbSymbolTable
 70
     0
  0
ENDTAB
  0
TABLE
  2
UCS
  5
7
330
0
100
AcDbSymbolTable
 70
     0
  0
ENDTAB
  0
TABLE
  2
APPID
  5
9
330
0
100
AcDbSymbolTable
 70
     3
  0
APPID
  5
56
330
9
100
AcDbSymbolTableRecord
100
AcDbRegAppTableRecord
  2
ACAD
 70
     0
  0
APPID
  5
5E
330
9
100
AcDbSymbolTableRecord
100
AcDbRegAppTableRecord
  2
AcadAnnotative
 70
     0
  0
APPID
  5
79
330
9
100
AcDbSymbolTableRecord
100
AcDbRegAppTableRecord
  2
REVIT
 70
     0
  0
ENDTAB
  0
TABLE
  2
DIMSTYLE
  5
A
330
0
100
AcDbSymbolTable
 70
     2
100
AcDbDimStyleTable
 71
     0
  0
DIMSTYLE
105
58
330
A
100
AcDbSymbolTableRecord
100
AcDbDimStyleTableRecord
  2
Standard
 70
     0
340
55
  0
DIMSTYLE
105
59
330
A
100
AcDbSymbolTableRecord
100
AcDbDimStyleTableRecord
  2
Annotative
 70
     0
340
55
1001
AcadAnnotative
1000
AnnotativeData
1002
{
1070
     1
1070
     1
1002
}
  0
ENDTAB
  0
TABLE
  2
BLOCK_RECORD
  5
1
330
0
100
AcDbSymbolTable
 70
     3
  0
BLOCK_RECORD
  5
71
102
{ACAD_XDICTIONARY
360
132
102
}
330
1
100
AcDbSymbolTableRecord
100
AcDbBlockTableRecord
  2
*Model_Space
340
74
 70
     0
280
     1
281
     0
  0
BLOCK_RECORD
  5
6D
330
1
100
AcDbSymbolTableRecord
100
AcDbBlockTableRecord
  2
*Paper_Space
340
70
 70
     0
280
     1
281
     0
  0
BLOCK_RECORD
  5
75
330
1
100
AcDbSymbolTableRecord
100
AcDbBlockTableRecord
  2
*Paper_Space0
340
78
 70
     0
280
     1
281
     0
  0
BLOCK_RECORD
  5
87
330
1
100
AcDbSymbolTableRecord
100
AcDbBlockTableRecord
  2
Automatic flow rate regulator valve_Caleffi_121 DN15 - 1_2__-859151-Est - Idraulica
340
0
102
{BLKREFS
331
11D
102
}
 70
     0
280
     1
281
     0
  0
BLOCK_RECORD
  5
11E
330
1
100
AcDbSymbolTableRecord
100
AcDbBlockTableRecord
  2
Automatic flow rate regulator valve_Caleffi_121 DN15 - 1_2__-V1-Est - Idraulica
340
0
102
{BLKREFS
331
12B
102
}
 70
     0
280
     1
281
     0
  0
ENDTAB
  0
ENDSEC
  0
SECTION
  2
BLOCKS
  0
BLOCK
  5
72
330
71
100
AcDbEntity
  8
0
100
AcDbBlockBegin
  2
*Model_Space
 70
     0
 10
0.0
 20
0.0
 30
0.0
  3
*Model_Space
  1

  0
ENDBLK
  5
73
330
71
100
AcDbEntity
  8
0
100
AcDbBlockEnd
  0
BLOCK
  5
6E
330
6D
100
AcDbEntity
 67
     1
  8
0
100
AcDbBlockBegin
  2
*Paper_Space
 70
     0
 10
0.0
 20
0.0
 30
0.0
  3
*Paper_Space
  1

  0
ENDBLK
  5
6F
330
6D
100
AcDbEntity
 67
     1
  8
0
100
AcDbBlockEnd
  0
BLOCK
  5
76
330
75
100
AcDbEntity
 67
     1
  8
0
100
AcDbBlockBegin
  2
*Paper_Space0
 70
     0
 10
0.0
 20
0.0
 30
0.0
  3
*Paper_Space0
  1

  0
ENDBLK
  5
77
330
75
100
AcDbEntity
 67
     1
  8
0
100
AcDbBlockEnd
  0
BLOCK
  5
11B
330
87
100
AcDbEntity
  8
0
100
AcDbBlockBegin
  2
Automatic flow rate regulator valve_Caleffi_121 DN15 - 1_2__-859151-Est - Idraulica
 70
     0
 10
0.0
 20
0.0
 30
0.0
  3
Automatic flow rate regulator valve_Caleffi_121 DN15 - 1_2__-859151-Est - Idraulica
  1

  0
LWPOLYLINE
  5
89
330
87
100
AcDbEntity
  8
M-PIPE
100
AcDbPolyline
 90
       25
 70
   128
 43
0.0
 10
834.4090088376464
 20
2066.206975515188
 10
834.4565625811222
 20
2066.170394625273
 10
834.5026154412435
 20
2066.131941353627
 10
834.5470937432589
 20
2066.091677217284
 10
834.5899263313723
 20
2066.049666630272
 10
834.6310446825803
 20
2066.005976800568
 10
834.6703830162926
 20
2065.960677622581
 10
834.7078783995671
 20
2065.913841565332
 10
834.7434708477889
 20
2065.86554355652
 10
834.7771034206333
 20
2065.815860862657
 10
834.8087223131587
 20
2065.764872965455
 10
834.8382769418819
 20
2065.712661434673
 10
834.8657200257013
 20
2065.659309797621
 10
834.8910076615377
 20
2065.604903405539
 10
834.9140993945676
 20
2065.549529297047
 10
834.9349582829443
 20
2065.493276058907
 10
834.9535509568962
 20
2065.436233684299
 10
834.9698476721108
 20
2065.378493428854
 10
834.9838223573206
 20
2065.320147664664
 10
834.99545265601
 20
2065.261289732506
 10
835.0047199621826
 20
2065.202013792514
 10
835.0116094501251
 20
2065.142414673548
 10
835.0161100981265
 20
2065.082587721485
 10
835.0182147061103
 20
2065.022628646685
 10
835.0183854010388
 20
2065.000000000041
1001
REVIT
1002
{
1070
     3
1000
790271
1002
}
  0
LWPOLYLINE
  5
8A
330
87
100
AcDbEntity
  8
M-PIPE
100
AcDbPolyline
 90
       25
 70
   128
 43
0.0
 10
820.5183854010387
 20
2065.000000000041
 10
820.5195852410474
 20
2065.059984001321
 10
820.5231828415849
 20
2065.119872040995
 10
820.5291724472578
 20
2065.179568310975
 10
820.5375444759752
 20
2065.238977309962
 10
820.5482855342768
 20
2065.298003996234
 10
820.5613784387605
 20
2065.356553939682
 10
820.5768022435725
 20
2065.414533472887
 10
820.594532273915
 20
2065.471849840966
 10
820.6145401655216
 20
2065.528411349954
 10
820.6367939100344
 20
2065.584127513504
 10
820.6612579062088
 20
2065.638909197641
 10
820.6878930168697
 20
2065.692668763353
 10
820.7166566315223
 20
2065.745320206807
 10
820.7475027345186
 20
2065.796779296923
 10
820.7803819786741
 20
2065.846963710134
 10
820.8152417642121
 20
2065.895793162084
 10
820.8520263229123
 20
2065.943189536069
 10
820.8906768073273
 20
2065.989077007998
 10
820.9311313849271
 20
2066.033382167707
 10
820.9733253370179
 20
2066.07603413639
 10
821.0171911622767
 20
2066.116964679997
 10
821.0626586847409
 20
2066.15610831839
 10
821.1096551660734
 20
2066.193402430096
 10
821.1277619644311
 20
2066.206975515188
1001
REVIT
1002
{
1070
     3
1000
790271
1002
}
  0
LINE
  5
8B
330
87
100
AcDbEntity
  8
M-PIPE
100
AcDbLine
 10
835.0183854010388
 20
2059.328453625358
 30
0.0
 11
835.0183854010388
 21
2065.000000000041
 31
0.0
1001
REVIT
1002
{
1070
     3
1000
790271
1002
}
  0
LINE
  5
8C
330
87
100
AcDbEntity
  8
M-PIPE
100
AcDbLine
 10
820.5183854010387
 20
2065.000000000041
 30
0.0
 11
820.5183854010387
 21
2059.328453625357
 31
0.0
1001
REVIT
1002
{
1070
     3
1000
790271
1002
}
  0
LINE
  5
8D
330
87
100
AcDbEntity
  8
M-PIPE
100
AcDbLine
 10
835.6350962849752
 20
2058.711742741421
 30
0.0
 11
835.0183854010388
 21
2059.328453625358
 31
0.0
1001
REVIT
1002
{
1070
     3
1000
790271
1002
}
  0
LINE
  5
8E
330
87
100
AcDbEntity
  8
M-PIPE
100
AcDbLine
 10
820.5183854010389
 20
2059.328453625357
 30
0.0
 11
819.9016745171025
 21
2058.711742741421
 31
0.0
1001
REVIT
1002
{
1070
     3
1000
790271
1002
}
  0
LINE
  5
8F
330
87
100
AcDbEntity
  8
M-PIPE
100
AcDbLine
 10
835.6350962849754
 20
2056.000000000057
 30
0.0
 11
835.6350962849754
 21
2058.711742741421
 31
0.0
1001
REVIT
1002
{
1070
     3
1000
790271
1002
}
  0
LINE
  5
90
330
87
100
AcDbEntity
  8
M-PIPE
100
AcDbLine
 10
819.9016745171023
 20
2058.711742741421
 30
0.0
 11
819.9016745171025
 21
2056.000000000056
 31
0.0
1001
REVIT
1002
{
1070
     3
1000
790271
1002
}
  0
LINE
  5
91
330
87
100
AcDbEntity
  8
M-PIPE
100
AcDbLine
 10
834.4090088376464
 20
2066.206975515188
 30
0.0
 11
833.5183854010388
 21
2066.500000000042
 31
0.0
1001
REVIT
1002
{
1070
     3
1000
790271
1002
}
  0
LINE
  5
92
330
87
100
AcDbEntity
  8
M-PIPE
100
AcDbLine
 10
822.0183854010386
 20
2066.500000000041
 30
0.0
 11
821.1277619644311
 21
2066.206975515188
 31
0.0
1001
REVIT
1002
{
1070
     3
1000
790271
1002
}
  0
LINE
  5
93
330
87
100
AcDbEntity
  8
M-PIPE
100
AcDbLine
 10
834.4090088376448
 20
2066.206975515187
 30
0.0
 11
827.7683854010373
 21
2066.206975515187
 31
0.0
1001
REVIT
1002
{
1070
     3
1000
790271
1002
}
  0
LINE
  5
94
330
87
100
AcDbEntity
  8
M-PIPE
100
AcDbLine
 10
827.7683854010373
 20
2066.206975515187
 30
0.0
 11
821.1277619644292
 21
2066.206975515187
 31
0.0
1001
REVIT
1002
{
1070
     3
1000
790271
1002
}
  0
LINE
  5
95
330
87
100
AcDbEntity
  8
M-PIPE
100
AcDbLine
 10
827.7683854010373
 20
2059.328453625356
 30
0.0
 11
835.0183854010371
 21
2059.328453625356
 31
0.0
1001
REVIT
1002
{
1070
     3
1000
790271
1002
}
  0
LINE
  5
96
330
87
100
AcDbEntity
  8
M-PIPE
100
AcDbLine
 10
820.5183854010373
 20
2059.328453625356
 30
0.0
 11
827.7683854010373
 21
2059.328453625356
 31
0.0
1001
REVIT
1002
{
1070
     3
1000
790271
1002
}
  0
LINE
  5
97
330
87
100
AcDbEntity
  8
M-PIPE
100
AcDbLine
 10
827.7683854010373
 20
2058.71174274142
 30
0.0
 11
835.6350962849738
 21
2058.71174274142
 31
0.0
1001
REVIT
1002
{
1070
     3
1000
790271
1002
}
  0
LINE
  5
98
330
87
100
AcDbEntity
  8
M-PIPE
100
AcDbLine
 10
819.9016745171006
 20
2058.71174274142
 30
0.0
 11
827.7683854010373
 21
2058.71174274142
 31
0.0
1001
REVIT
1002
{
1070
     3
1000
790271
1002
}
  0
LINE
  5
99
330
87
100
AcDbEntity
  8
M-PIPE
100
AcDbLine
 10
827.7683854010373
 20
2056.000000000056
 30
0.0
 11
835.6350962849738
 21
2056.000000000056
 31
0.0
1001
REVIT
1002
{
1070
     3
1000
790271
1002
}
  0
LINE
  5
9A
330
87
100
AcDbEntity
  8
M-PIPE
100
AcDbLine
 10
819.9016745171009
 20
2056.000000000056
 30
0.0
 11
827.7683854010373
 21
2056.000000000056
 31
0.0
1001
REVIT
1002
{
1070
     3
1000
790271
1002
}
  0
LINE
  5
9B
330
87
100
AcDbEntity
  8
M-PIPE
100
AcDbLine
 10
827.7683854010369
 20
2066.50000000004
 30
0.0
 11
833.518385401037
 21
2066.50000000004
 31
0.0
1001
REVIT
1002
{
1070
     3
1000
790271
1002
}
  0
LINE
  5
9C
330
87
100
AcDbEntity
  8
M-PIPE
100
AcDbLine
 10
822.018385401037
 20
2066.50000000004
 30
0.0
 11
827.7683854010369
 21
2066.50000000004
 31
0.0
1001
REVIT
1002
{
1070
     3
1000
790271
1002
}
  0
LINE
  5
9D
330
87
100
AcDbEntity
  8
P-SANR-FIXT
100
AcDbLine
 10
837.6664074431895
 20
2009.839647340324
 30
0.0
 11
837.6664074431895
 21
2041.000000000014
 31
0.0
  0
LINE
  5
9E
330
87
100
AcDbEntity
  8
P-SANR-FIXT
100
AcDbLine
 10
793.6664074431894
 20
2041.000000000014
 30
0.0
 11
793.6664074431894
 21
2009.839647340324
 31
0.0
  0
LWPOLYLINE
  5
9F
330
87
100
AcDbEntity
  8
P-SANR-FIXT
100
AcDbPolyline
 90
       40
 70
   128
 43
0.0
 10
835.3450002213548
 20
1996.99957779617
 10
835.3239266121526
 20
1996.99831186013
 10
835.3029204835291
 20
1996.996204217103
 10
835.2820154408094
 20
1996.993258238868
 10
835.2612449276024
 20
1996.989478638362
 10
835.2406421722982
 20
1996.984871462139
 10
835.2202401349105
 20
1996.979444080699
 10
835.2000714543466
 20
1996.973205176693
 10
835.1801683961932
 20
1996.966164731039
 10
835.1605628010975
 20
1996.958334006946
 10
835.1412860338294
 20
1996.949725531903
 10
835.1223689331046
 20
1996.940353077634
 10
835.1038417622484
 20
1996.930231638065
 10
835.0857341607822
 20
1996.919377405342
 10
835.0680750970052
 20
1996.907807743921
 10
835.0508928216532
 20
1996.895541162792
 10
835.0342148227005
 20
1996.882597285868
 10
835.0180677813883
 20
1996.868996820592
 10
835.0024775295377
 20
1996.854761524806
 10
834.9874690082263
 20
1996.839914171947
 10
834.9730662278862
 20
1996.824478514613
 10
834.9592922298938
 20
1996.808479246561
 10
834.9461690497076
 20
1996.791941963209
 10
834.9337176816161
 20
1996.774893120682
 10
834.9219580451526
 20
1996.75735999349
 10
834.9109089532262
 20
1996.739370630898
 10
834.9005880820277
 20
1996.720953812047
 10
834.891011942749
 20
1996.70213899992
 10
834.8821958551699
 20
1996.682956294202
 10
834.8741539231502
 20
1996.66343638313
 10
834.8668990120653
 20
1996.643610494398
 10
834.8604427282259
 20
1996.623510345198
 10
834.8547954003082
 20
1996.603168091481
 10
834.8499660628327
 20
1996.582616276515
 10
834.8459624417086
 20
1996.561887778818
 10
834.8427909418763
 20
1996.541015759565
 10
834.8404566370584
 20
1996.520033609535
 10
834.838963261645
 20
1996.498974895691
 10
834.8383132047182
 20
1996.477873307484
 10
834.8382824431896
 20
1996.472174845328
  0
LWPOLYLINE
  5
A0
330
87
100
AcDbEntity
  8
P-SANR-FIXT
100
AcDbPolyline
 90
       36
 70
   128
 43
0.0
 10
796.4945324431893
 20
1996.472174845328
 10
796.4941102393639
 20
1996.49328222183
 10
796.4928443033239
 20
1996.514355831033
 10
796.4907366602967
 20
1996.535361959656
 10
796.4877906820616
 20
1996.556267002375
 10
796.4840110815552
 20
1996.577037515583
 10
796.4794039053325
 20
1996.597640270887
 10
796.4739765238922
 20
1996.618042308275
 10
796.4677376198872
 20
1996.638210988838
 10
796.4606971742325
 20
1996.658114046992
 10
796.4528664501397
 20
1996.677719642088
 10
796.4442579750966
 20
1996.696996409356
 10
796.434885520827
 20
1996.715913510081
 10
796.4247640812588
 20
1996.734440680937
 10
796.4139098485355
 20
1996.752548282403
 10
796.4023401871141
 20
1996.77020734618
 10
796.3900736059851
 20
1996.787389621532
 10
796.3771297290618
 20
1996.804067620485
 10
796.3635292637856
 20
1996.820214661797
 10
796.3492939679997
 20
1996.835804913647
 10
796.3344466151409
 20
1996.850813434959
 10
796.3190109578062
 20
1996.865216215299
 10
796.303011689755
 20
1996.878990213291
 10
796.2864744064028
 20
1996.892113393477
 10
796.2694255638755
 20
1996.904564761569
 10
796.251892436684
 20
1996.916324398032
 10
796.2339030740915
 20
1996.927373489959
 10
796.215486255241
 20
1996.937694361157
 10
796.1966714431139
 20
1996.947270500436
 10
796.1774887373954
 20
1996.956086588015
 10
796.1579688263236
 20
1996.964128520035
 10
796.1381429375911
 20
1996.97138343112
 10
796.1180427883913
 20
1996.97783971496
 10
796.0977005346748
 20
1996.983487042877
 10
796.0771487197084
 20
1996.988316380353
 10
796.0564202220116
 20
1996.992320001476
  0
LWPOLYLINE
  5
A1
330
87
100
AcDbEntity
  8
P-SANR-FIXT
100
AcDbPolyline
 90
        5
 70
   128
 43
0.0
 10
796.0355482027588
 20
1996.995491501309
 10
796.0145660527286
 20
1996.997825806127
 10
795.9935073388849
 20
1996.99931918154
 10
795.972405750678
 20
1996.999969238467
 10
795.9667072885219
 20
1996.999999999996
  0
LWPOLYLINE
  5
A2
330
87
100
AcDbEntity
  8
P-SANR-FIXT
100
AcDbPolyline
 90
       80
 70
   128
 43
0.0
 10
795.1664074431893
 20
1996.999999999996
 10
795.1828052566392
 20
1996.999999999996
 10
795.2319724639857
 20
1996.999999999996
 10
795.3138304081853
 20
1996.999999999996
 10
795.4282481339889
 20
1996.999999999996
 10
795.5750425974439
 20
1996.999999999996
 10
795.7539789587229
 20
1996.999999999996
 10
795.9647709578185
 20
1996.999999999996
 10
796.2070813724993
 20
1996.999999999996
 10
796.4805225577919
 20
1996.999999999996
 10
796.7846570661302
 20
1996.999999999996
 10
797.11899834718
 20
1996.999999999996
 10
797.4830115262141
 20
1996.999999999996
 10
797.8761142597975
 20
1996.999999999996
 10
798.2976776674144
 20
1996.999999999996
 10
798.747027337541
 20
1996.999999999996
 10
799.2234444065614
 20
1996.999999999996
 10
799.7261667087954
 20
1996.999999999996
 10
800.2543899958009
 20
1996.999999999996
 10
800.807269223001
 20
1996.999999999996
 10
801.3839199015727
 20
1996.999999999996
 10
801.9834195134425
 20
1996.999999999996
 10
802.6048089871187
 20
1996.999999999996
 10
803.2470942319985
 20
1996.999999999996
 10
803.909247728704
 20
1996.999999999996
 10
804.5902101728925
 20
1996.999999999996
 10
805.2888921699176
 20
1996.999999999996
 10
806.0041759776279
 20
1996.999999999996
 10
806.7349172945169
 20
1996.999999999996
 10
807.4799470903608
 20
1996.999999999996
 10
808.2380734764177
 20
1996.999999999996
 10
809.0080836121945
 20
1996.999999999996
 10
809.7887456457343
 20
1996.999999999996
 10
810.578810684316
 20
1996.999999999996
 10
811.3770147924153
 20
1996.999999999996
 10
812.1820810137345
 20
1996.999999999996
 10
812.9927214140574
 20
1996.999999999996
 10
813.8076391416712
 20
1996.999999999996
 10
814.6255305020511
 20
1996.999999999996
 10
815.4450870434951
 20
1996.999999999996
 10
816.264997650366
 20
1996.999999999996
 10
817.0839506405977
 20
1996.999999999996
 10
817.9006358641069
 20
1996.999999999996
 10
818.7137467987524
 20
1996.999999999996
 10
819.5219826404935
 20
1996.999999999996
 10
820.3240503843977
 20
1996.999999999996
 10
821.1186668931736
 20
1996.999999999996
 10
821.9045609499159
 20
1996.999999999996
 10
822.680475291783
 20
1996.999999999996
 10
823.4451686213466
 20
1996.999999999996
 10
824.197417592406
 20
1996.999999999996
 10
824.9360187670783
 20
1996.999999999996
 10
825.6597905410441
 20
1996.999999999996
 10
826.367575033861
 20
1996.999999999996
 10
827.0582399413271
 20
1996.999999999996
 10
827.730680346924
 20
1996.999999999996
 10
828.3838204894495
 20
1996.999999999996
 10
829.016615484004
 20
1996.999999999996
 10
829.6280529935861
 20
1996.999999999996
 10
830.2171548486128
 20
1996.999999999996
 10
830.7829786117851
 20
1996.999999999996
 10
831.3246190857839
 20
1996.999999999996
 10
831.8412097613949
 20
1996.999999999996
 10
832.3319242037372
 20
1996.999999999996
 10
832.7959773743833
 20
1996.999999999996
 10
833.2326268872527
 20
1996.999999999996
 10
833.6411741962722
 20
1996.999999999996
 10
834.020965712899
 20
1996.999999999996
 10
834.3713938517247
 20
1996.999999999996
 10
834.6918980024808
 20
1996.999999999996
 10
834.9819654268967
 20
1996.999999999996
 10
835.2411320789718
 20
1996.999999999996
 10
835.468983347348
 20
1996.999999999996
 10
835.6651547186016
 20
1996.999999999996
 10
835.8293323603865
 20
1996.999999999996
 10
835.9612536234985
 20
1996.999999999996
 10
836.0607074620583
 20
1996.999999999996
 10
836.12753477114
 20
1996.999999999996
 10
836.1616286413044
 20
1996.999999999996
 10
836.1664074431896
 20
1996.999999999996
  0
LWPOLYLINE
  5
A3
330
87
100
AcDbEntity
  8
P-SANR-FIXT
100
AcDbPolyline
 90
       10
 70
   128
 43
0.0
 10
836.6664074431893
 20
1997.085786437622
 10
836.6094540377629
 20
1997.066922990538
 10
836.5517918522964
 20
1997.050352160961
 10
836.4935131339867
 20
1997.036100458686
 10
836.4347111163503
 20
1997.024190683394
 10
836.3754798700719
 20
1997.014641888187
 10
836.3159141525105
 20
1997.007469349098
 10
836.2561092561069
 20
1997.002684540662
 10
836.1961608559383
 20
1997.00029511755
 10
836.1664074431896
 20
1996.999999999996
  0
LWPOLYLINE
  5
A4
330
87
100
AcDbEntity
  8
P-SANR-FIXT
100
AcDbPolyline
 90
       10
 70
   128
 43
0.0
 10
795.1528495287391
 20
1997.000271194445
 10
795.1064234419095
 20
1997.001199840004
 10
795.0465354022356
 20
1997.004797440542
 10
794.986839132256
 20
1997.010787046215
 10
794.9274301332679
 20
1997.019159074932
 10
794.8684034469968
 20
1997.029900133234
 10
794.8098535035487
 20
1997.042993037717
 10
794.7518739703432
 20
1997.05841684253
 10
794.6945576022653
 20
1997.076146872872
 10
794.6664074431893
 20
1997.085786437622
  0
LWPOLYLINE
  5
A5
330
87
100
AcDbEntity
  8
P-SANR-FIXT
100
AcDbPolyline
 90
        3
 70
   128
 43
0.0
 10
836.1664074431896
 20
1996.999999999996
 10
836.1500096297396
 20
1996.999999999996
 10
836.100842422393
 20
1996.999999999996
  0
LWPOLYLINE
  5
A6
330
87
100
AcDbEntity
  8
P-SANR-FIXT
100
AcDbPolyline
 90
        4
 70
   128
 43
0.0
 10
795.2421538173746
 20
1996.999999999996
 10
795.205280115239
 20
1996.999999999996
 10
795.1711862450744
 20
1996.999999999996
 10
795.1664074431893
 20
1996.999999999996
  0
LINE
  5
A7
330
87
100
AcDbEntity
  8
P-SANR-FIXT
100
AcDbLine
 10
796.4945324431894
 20
1996.472174845328
 30
0.0
 11
796.4945324431894
 21
1992.999999999996
 31
0.0
  0
LINE
  5
A8
330
87
100
AcDbEntity
  8
P-SANR-FIXT
100
AcDbLine
 10
834.8382824431894
 20
1992.999999999996
 30
0.0
 11
834.8382824431894
 21
1996.472174845328
 31
0.0
  0
LINE
  5
A9
330
87
100
AcDbEntity
  8
P-SANR-FIXT
100
AcDbLine
 10
799.1164074431895
 20
1992.999999999996
 30
0.0
 11
799.1164074431895
 21
1980.499999999995
 31
0.0
  0
LINE
  5
AA
330
87
100
AcDbEntity
  8
P-SANR-FIXT
100
AcDbLine
 10
832.2164074431894
 20
1980.499999999995
 30
0.0
 11
832.2164074431894
 21
1992.999999999996
 31
0.0
  0
LWPOLYLINE
  5
AB
330
87
100
AcDbEntity
  8
P-SANR-FIXT
100
AcDbPolyline
 90
       80
 70
   128
 43
0.0
 10
837.6664074431895
 20
2050.999999999963
 10
837.6488097897309
 20
2050.999999999963
 10
837.5960449818471
 20
2050.999999999963
 10
837.5081974319746
 20
2050.999999999963
 10
837.3854076774533
 20
2050.999999999963
 10
837.2278721556968
 20
2050.999999999963
 10
837.035842889934
 20
2050.999999999963
 10
836.8096270860265
 20
2050.999999999963
 10
836.5495866410032
 20
2050.999999999963
 10
836.2561375641041
 20
2050.999999999963
 10
835.929749311253
 20
2050.999999999963
 10
835.5709440340287
 20
2050.999999999963
 10
835.1802957443338
 20
2050.999999999963
 10
834.7584293960979
 20
2050.999999999963
 10
834.3060198854846
 20
2050.999999999963
 10
833.8237909712024
 20
2050.999999999963
 10
833.3125141166441
 20
2050.999999999963
 10
832.7730072557098
 20
2050.999999999963
 10
832.206133484289
 20
2050.999999999963
 10
831.6127996794895
 20
2050.999999999963
 10
830.9939550488271
 20
2050.999999999963
 10
830.3505896116982
 20
2050.999999999963
 10
829.6837326155582
 20
2050.999999999963
 10
828.9944508893457
 20
2050.999999999963
 10
828.2838471367835
 20
2050.999999999963
 10
827.5530581722886
 20
2050.999999999963
 10
826.8032531023106
 20
2050.999999999963
 10
826.0356314550119
 20
2050.999999999963
 10
825.2514212612771
 20
2050.999999999963
 10
824.4518770901274
 20
2050.999999999963
 10
823.6382780416763
 20
2050.999999999963
 10
822.8119257008426
 20
2050.999999999963
 10
821.9741420550926
 20
2050.999999999963
 10
821.1262673795417
 20
2050.999999999963
 10
820.2696580928007
 20
2050.999999999963
 10
819.4056845869948
 20
2050.999999999963
 10
818.5357290354286
 20
2050.999999999963
 10
817.6611831814041
 20
2050.999999999963
 10
816.7834461117282
 20
2050.999999999963
 10
815.9039220184713
 20
2050.999999999963
 10
815.024017952561
 20
2050.999999999963
 10
814.1451415728001
 20
2050.999999999963
 10
813.2686988939124
 20
2050.999999999963
 10
812.3960920372194
 20
2050.999999999963
 10
811.5287169875458
 20
2050.999999999963
 10
810.6679613599414
 20
2050.999999999963
 10
809.815202179792
 20
2050.999999999963
 10
808.971803679873
 20
2050.999999999963
 10
808.1391151178696
 20
2050.999999999963
 10
807.31846861785
 20
2050.999999999963
 10
806.5111770391522
 20
2050.999999999963
 10
805.7185318760893
 20
2050.999999999963
 10
804.9418011918334
 20
2050.999999999963
 10
804.1822275897859
 20
2050.999999999963
 10
803.4410262256759
 20
2050.999999999963
 10
802.7193828635716
 20
2050.999999999963
 10
802.0184519789102
 20
2050.999999999963
 10
801.3393549115832
 20
2050.999999999963
 10
800.683178072032
 20
2050.999999999963
 10
800.0509712032226
 20
2050.999999999963
 10
799.443745701282
 20
2050.999999999963
 10
798.8624729974784
 20
2050.999999999963
 10
798.3080830041395
 20
2050.999999999963
 10
797.7814626269917
 20
2050.999999999963
 10
797.2834543462984
 20
2050.999999999963
 10
796.8148548690725
 20
2050.999999999963
 10
796.3764138545152
 20
2050.999999999963
 10
795.9688327147205
 20
2050.999999999963
 10
795.5927634925663
 20
2050.999999999963
 10
795.2488078185839
 20
2050.999999999963
 10
794.9375159484787
 20
2050.999999999963
 10
794.6593858828374
 20
2050.999999999963
 10
794.4148625704339
 20
2050.999999999963
 10
794.2043371964055
 20
2050.999999999963
 10
794.0281465564412
 20
2050.999999999963
 10
793.8865725179796
 20
2050.999999999963
 10
793.7798415692811
 20
2050.999999999963
 10
793.7081244570961
 20
2050.999999999963
 10
793.671535913505
 20
2050.999999999963
 10
793.6664074431894
 20
2050.999999999963
  0
LWPOLYLINE
  5
AC
330
87
100
AcDbEntity
  8
P-SANR-FIXT
100
AcDbPolyline
 90
       41
 70
   128
 43
0.0
 10
837.6664074431895
 20
2050.999999999963
 10
837.7463861115627
 20
2050.998400213285
 10
837.8262368311279
 20
2050.993603412568
 10
837.9058318577673
 20
2050.985617271671
 10
837.9850438564179
 20
2050.974454566714
 10
838.0637461047795
 20
2050.960133155646
 10
838.1418126960438
 20
2050.942675949667
 10
838.2191187403178
 20
2050.922110876585
 10
838.2955405644217
 20
2050.898470836128
 10
838.3709559097397
 20
2050.871793647319
 10
838.4452441278067
 20
2050.842121987969
 10
838.5182863733215
 20
2050.809503326403
 10
838.5899657942726
 20
2050.773989845522
 10
838.6601677188771
 20
2050.735638359318
 10
838.7287798390312
 20
2050.69451022199
 10
838.7956923899794
 20
2050.650671229782
 10
838.8607983259143
 20
2050.604191515732
 10
838.9239934912264
 20
2050.555145437465
 10
838.9851767871324
 20
2050.503611458245
 10
839.0442503334107
 20
2050.449672021445
 10
839.1011196249886
 20
2050.393413418658
 10
839.1556936831312
 20
2050.334925651646
 10
839.2078852009873
 20
2050.27430228836
 10
839.2576106832622
 20
2050.21164031325
 10
839.3047905797915
 20
2050.147039972108
 10
839.3493494128053
 20
2050.0806046117
 10
839.391215897676
 20
2050.012440514429
 10
839.4303230569596
 20
2049.94265672831
 10
839.4666083275424
 20
2049.871364892517
 10
839.5000136607329
 20
2049.798679058776
 10
839.5304856151238
 20
2049.724715508916
 10
839.5579754420886
 20
2049.64959256884
 10
839.5824391637679
 20
2049.573430419227
 10
839.603837643426
 20
2049.496350903268
 10
839.6221366480601
 20
2049.418477331746
 10
839.6373069031664
 20
2049.339934285763
 10
839.6493241395727
 20
2049.26084741744
 10
839.6581691322648
 20
2049.181343248892
 10
839.6638277311406
 20
2049.10154896983
 10
839.6662908836495
 20
2049.02159223408
 10
839.6664074431894
 20
2048.999999999963
  0
LWPOLYLINE
  5
AD
330
87
100
AcDbEntity
  8
P-SANR-FIXT
100
AcDbPolyline
 90
       41
 70
   128
 43
0.0
 10
791.6664074431893
 20
2048.999999999963
 10
791.6680072298674
 20
2049.079978668336
 10
791.6728040305841
 20
2049.159829387901
 10
791.6807901714816
 20
2049.239424414541
 10
791.6919528764379
 20
2049.318636413191
 10
791.7062742875068
 20
2049.397338661553
 10
791.7237314934854
 20
2049.475405252818
 10
791.7442965665677
 20
2049.552711297091
 10
791.7679366070244
 20
2049.629133121195
 10
791.7946137958336
 20
2049.704548466513
 10
791.8242854551834
 20
2049.778836684581
 10
791.8569041167494
 20
2049.851878930095
 10
791.8924175976308
 20
2049.923558351046
 10
791.9307690838341
 20
2049.993760275651
 10
791.9718972211625
 20
2050.062372395805
 10
792.0157362133699
 20
2050.129284946753
 10
792.0622159274207
 20
2050.194390882688
 10
792.1112620056875
 20
2050.257586048
 10
792.1627959849076
 20
2050.318769343906
 10
792.2167354217074
 20
2050.377842890184
 10
792.2729940244949
 20
2050.434712181762
 10
792.3314817915068
 20
2050.489286239905
 10
792.3921051547921
 20
2050.541477757761
 10
792.4547671299024
 20
2050.591203240036
 10
792.5193674710445
 20
2050.638383136565
 10
792.5858028314531
 20
2050.682941969579
 10
792.6539669287238
 20
2050.72480845445
 10
792.7237507148419
 20
2050.763915613733
 10
792.7950425506359
 20
2050.800200884316
 10
792.8677283843767
 20
2050.833606217507
 10
792.941691934236
 20
2050.864078171898
 10
793.0168148743119
 20
2050.891567998862
 10
793.0929770239255
 20
2050.916031720541
 10
793.1700565398845
 20
2050.9374302002
 10
793.2479301114064
 20
2050.955729204833
 10
793.3264731573888
 20
2050.97089945994
 10
793.405560025713
 20
2050.982916696346
 10
793.4850641942606
 20
2050.991761689038
 10
793.5648584733221
 20
2050.997420287914
 10
793.6448152090729
 20
2050.999883440423
 10
793.6664074431894
 20
2050.999999999963
  0
LWPOLYLINE
  5
AE
330
87
100
AcDbEntity
  8
P-SANR-FIXT
100
AcDbPolyline
 90
        4
 70
   128
 43
0.0
 10
793.6664074431894
 20
2050.999999999963
 10
793.6840050966479
 20
2050.999999999963
 10
793.7367699045316
 20
2050.999999999963
 10
793.7523196526588
 20
2050.999999999963
  0
LWPOLYLINE
  5
AF
330
87
100
AcDbEntity
  8
P-SANR-FIXT
100
AcDbPolyline
 90
        4
 70
   128
 43
0.0
 10
837.5766381888404
 20
2050.999999999963
 10
837.6246904292829
 20
2050.999999999963
 10
837.6612789728739
 20
2050.999999999963
 10
837.6664074431895
 20
2050.999999999963
  0
LINE
  5
B0
330
87
100
AcDbEntity
  8
P-SANR-FIXT
100
AcDbLine
 10
791.6664074431893
 20
2048.999999999963
 30
0.0
 11
791.6664074431893
 21
2042.000000000014
 31
0.0
  0
LINE
  5
B1
330
87
100
AcDbEntity
  8
P-SANR-FIXT
100
AcDbLine
 10
839.6664074431894
 20
2042.000000000014
 30
0.0
 11
839.6664074431894
 21
2048.999999999963
 31
0.0
  0
LINE
  5
B2
330
87
100
AcDbEntity
  8
P-SANR-FIXT
100
AcDbLine
 10
791.6664074431893
 20
2042.000000000014
 30
0.0
 11
792.6664074431894
 21
2041.000000000014
 31
0.0
  0
LINE
  5
B3
330
87
100
AcDbEntity
  8
P-SANR-FIXT
100
AcDbLine
 10
838.6664074431893
 20
2041.000000000014
 30
0.0
 11
839.6664074431894
 21
2042.000000000014
 31
0.0
  0
LINE
  5
B4
330
87
100
AcDbEntity
  8
P-SANR-FIXT
100
AcDbLine
 10
824.1664074431893
 20
2056.000000000056
 30
0.0
 11
824.1664074431893
 21
2054.000000000026
 31
0.0
  0
LINE
  5
B5
330
87
100
AcDbEntity
  8
P-SANR-FIXT
100
AcDbLine
 10
831.1664074431893
 20
2054.000000000026
 30
0.0
 11
831.1664074431893
 21
2056.000000000056
 31
0.0
  0
LINE
  5
B6
330
87
100
AcDbEntity
  8
P-SANR-FIXT
100
AcDbLine
 10
820.4164074431892
 20
2054.000000000026
 30
0.0
 11
820.4164074431892
 21
2050.999999999963
 31
0.0
  0
LINE
  5
B7
330
87
100
AcDbEntity
  8
P-SANR-FIXT
100
AcDbLine
 10
834.9164074431893
 20
2050.999999999963
 30
0.0
 11
834.9164074431893
 21
2054.000000000026
 31
0.0
  0
LINE
  5
B8
330
87
100
AcDbEntity
  8
P-SANR-FIXT
100
AcDbLine
 10
798.92994254959
 20
1998.499999999995
 30
0.0
 11
798.92994254959
 21
2009.839647340323
 31
0.0
  0
LINE
  5
B9
330
87
100
AcDbEntity
  8
P-SANR-FIXT
100
AcDbLine
 10
798.92994254959
 20
2009.839647340323
 30
0.0
 11
801.3873758630921
 21
2009.839647340323
 31
0.0
  0
LINE
  5
BA
330
87
100
AcDbEntity
  8
P-SANR-FIXT
100
AcDbLine
 10
801.3873758630923
 20
2009.839647340323
 30
0.0
 11
801.3873758630923
 21
1998.499999999995
 31
0.0
  0
LINE
  5
BB
330
87
100
AcDbEntity
  8
P-SANR-FIXT
100
AcDbLine
 10
803.1959090802304
 20
1998.499999999995
 30
0.0
 11
803.1959090802304
 21
2009.839647340323
 31
0.0
  0
LINE
  5
BC
330
87
100
AcDbEntity
  8
P-SANR-FIXT
100
AcDbLine
 10
803.1959090802304
 20
2009.839647340323
 30
0.0
 11
806.205637927729
 21
2009.839647340323
 31
0.0
  0
LINE
  5
BD
330
87
100
AcDbEntity
  8
P-SANR-FIXT
100
AcDbLine
 10
806.2056379277292
 20
2009.839647340323
 30
0.0
 11
806.2056379277292
 21
1998.499999999995
 31
0.0
  0
LINE
  5
BE
330
87
100
AcDbEntity
  8
P-SANR-FIXT
100
AcDbLine
 10
808.3117194658335
 20
1998.499999999995
 30
0.0
 11
808.3117194658335
 21
2009.839647340323
 31
0.0
  0
LINE
  5
BF
330
87
100
AcDbEntity
  8
P-SANR-FIXT
100
AcDbLine
 10
808.3117194658333
 20
2009.839647340323
 30
0.0
 11
811.6686358001835
 21
2009.839647340323
 31
0.0
  0
LINE
  5
C0
330
87
100
AcDbEntity
  8
P-SANR-FIXT
100
AcDbLine
 10
811.6686358001837
 20
2009.839647340323
 30
0.0
 11
811.6686358001837
 21
1998.499999999995
 31
0.0
  0
LINE
  5
C1
330
87
100
AcDbEntity
  8
P-SANR-FIXT
100
AcDbLine
 10
813.9287396828967
 20
1998.499999999995
 30
0.0
 11
813.9287396828967
 21
2009.839647340323
 31
0.0
  0
LINE
  5
C2
330
87
100
AcDbEntity
  8
P-SANR-FIXT
100
AcDbLine
 10
813.9287396828965
 20
2009.839647340323
 30
0.0
 11
817.4040752034789
 21
2009.839647340323
 31
0.0
  0
LINE
  5
C3
330
87
100
AcDbEntity
  8
P-SANR-FIXT
100
AcDbLine
 10
817.4040752034789
 20
2009.839647340323
 30
0.0
 11
817.4040752034789
 21
1998.499999999995
 31
0.0
  0
LINE
  5
C4
330
87
100
AcDbEntity
  8
P-SANR-FIXT
100
AcDbLine
 10
819.6641790861919
 20
1998.499999999995
 30
0.0
 11
819.6641790861919
 21
2009.839647340323
 31
0.0
  0
LINE
  5
C5
330
87
100
AcDbEntity
  8
P-SANR-FIXT
100
AcDbLine
 10
819.6641790861917
 20
2009.839647340323
 30
0.0
 11
823.021095420542
 21
2009.839647340323
 31
0.0
  0
LINE
  5
C6
330
87
100
AcDbEntity
  8
P-SANR-FIXT
100
AcDbLine
 10
823.0210954205421
 20
2009.839647340323
 30
0.0
 11
823.0210954205421
 21
1998.499999999995
 31
0.0
  0
LINE
  5
C7
330
87
100
AcDbEntity
  8
P-SANR-FIXT
100
AcDbLine
 10
825.1271769586466
 20
1998.499999999995
 30
0.0
 11
825.1271769586466
 21
2009.839647340323
 31
0.0
  0
LINE
  5
C8
330
87
100
AcDbEntity
  8
P-SANR-FIXT
100
AcDbLine
 10
825.1271769586464
 20
2009.839647340323
 30
0.0
 11
828.1369058061452
 21
2009.839647340323
 31
0.0
  0
LINE
  5
C9
330
87
100
AcDbEntity
  8
P-SANR-FIXT
100
AcDbLine
 10
828.1369058061454
 20
2009.839647340323
 30
0.0
 11
828.1369058061454
 21
1998.499999999995
 31
0.0
  0
LINE
  5
CA
330
87
100
AcDbEntity
  8
P-SANR-FIXT
100
AcDbLine
 10
829.9454390232833
 20
1998.499999999995
 30
0.0
 11
829.9454390232833
 21
2009.839647340323
 31
0.0
  0
LINE
  5
CB
330
87
100
AcDbEntity
  8
P-SANR-FIXT
100
AcDbLine
 10
829.9454390232831
 20
2009.839647340323
 30
0.0
 11
832.4028723367854
 21
2009.839647340323
 31
0.0
  0
LINE
  5
CC
330
87
100
AcDbEntity
  8
P-SANR-FIXT
100
AcDbLine
 10
832.4028723367856
 20
2009.839647340323
 30
0.0
 11
832.4028723367856
 21
1998.499999999995
 31
0.0
  0
LINE
  5
CD
330
87
100
AcDbEntity
  8
P-SANR-FIXT
100
AcDbLine
 10
833.7906086829519
 20
1998.499999999995
 30
0.0
 11
833.7906086829519
 21
2009.839647340323
 31
0.0
  0
LINE
  5
CE
330
87
100
AcDbEntity
  8
P-SANR-FIXT
100
AcDbLine
 10
833.7906086829519
 20
2009.839647340323
 30
0.0
 11
835.5282764432431
 21
2009.839647340323
 31
0.0
  0
LINE
  5
CF
330
87
100
AcDbEntity
  8
P-SANR-FIXT
100
AcDbLine
 10
835.5282764432432
 20
2009.839647340323
 30
0.0
 11
835.5282764432432
 21
1998.499999999995
 31
0.0
  0
LINE
  5
D0
330
87
100
AcDbEntity
  8
P-SANR-FIXT
100
AcDbLine
 10
836.4006439797899
 20
1998.499999999995
 30
0.0
 11
836.4006439797899
 21
2009.839647340323
 31
0.0
  0
LINE
  5
D1
330
87
100
AcDbEntity
  8
P-SANR-FIXT
100
AcDbLine
 10
836.4006439797897
 20
2009.839647340323
 30
0.0
 11
837.3001270006378
 21
2009.839647340323
 31
0.0
  0
LINE
  5
D2
330
87
100
AcDbEntity
  8
P-SANR-FIXT
100
AcDbLine
 10
837.3001270006378
 20
2009.839647340323
 30
0.0
 11
837.3001270006378
 21
1998.499999999995
 31
0.0
  0
LINE
  5
D3
330
87
100
AcDbEntity
  8
P-SANR-FIXT
100
AcDbLine
 10
837.5976753216038
 20
1998.499999999995
 30
0.0
 11
837.5976753216038
 21
2009.839647340323
 31
0.0
  0
LINE
  5
D4
330
87
100
AcDbEntity
  8
P-SANR-FIXT
100
AcDbLine
 10
837.5976753216038
 20
2009.839647340323
 30
0.0
 11
837.6664074431879
 21
2009.839647340323
 31
0.0
  0
LINE
  5
D5
330
87
100
AcDbEntity
  8
P-SANR-FIXT
100
AcDbLine
 10
793.6664074431878
 20
2009.839647340323
 30
0.0
 11
793.7351395647716
 21
2009.839647340323
 31
0.0
  0
LINE
  5
D6
330
87
100
AcDbEntity
  8
P-SANR-FIXT
100
AcDbLine
 10
793.7351395647716
 20
2009.839647340323
 30
0.0
 11
793.7351395647716
 21
1998.499999999995
 31
0.0
  0
LINE
  5
D7
330
87
100
AcDbEntity
  8
P-SANR-FIXT
100
AcDbLine
 10
794.0326878857379
 20
1998.499999999995
 30
0.0
 11
794.0326878857379
 21
2009.839647340323
 31
0.0
  0
LINE
  5
D8
330
87
100
AcDbEntity
  8
P-SANR-FIXT
100
AcDbLine
 10
794.0326878857377
 20
2009.839647340323
 30
0.0
 11
794.9321709065858
 21
2009.839647340323
 31
0.0
  0
LINE
  5
D9
330
87
100
AcDbEntity
  8
P-SANR-FIXT
100
AcDbLine
 10
794.9321709065858
 20
2009.839647340323
 30
0.0
 11
794.9321709065858
 21
1998.499999999995
 31
0.0
  0
LINE
  5
DA
330
87
100
AcDbEntity
  8
P-SANR-FIXT
100
AcDbLine
 10
795.8045384431321
 20
1998.499999999995
 30
0.0
 11
795.8045384431321
 21
2009.839647340323
 31
0.0
  0
LINE
  5
DB
330
87
100
AcDbEntity
  8
P-SANR-FIXT
100
AcDbLine
 10
795.8045384431321
 20
2009.839647340323
 30
0.0
 11
797.5422062034233
 21
2009.839647340323
 31
0.0
  0
LINE
  5
DC
330
87
100
AcDbEntity
  8
P-SANR-FIXT
100
AcDbLine
 10
797.5422062034233
 20
2009.839647340323
 30
0.0
 11
797.5422062034233
 21
1998.499999999995
 31
0.0
  0
LINE
  5
DD
330
87
100
AcDbEntity
  8
P-SANR-FIXT
100
AcDbLine
 10
832.2164074431876
 20
1980.499999999994
 30
0.0
 11
799.1164074431878
 21
1980.499999999994
 31
0.0
  0
LINE
  5
DE
330
87
100
AcDbEntity
  8
P-SANR-FIXT
100
AcDbLine
 10
836.6664074431877
 20
1997.085786437622
 30
0.0
 11
836.6664074431877
 21
1997.098369294873
 31
0.0
  0
SPLINE
  5
DF
330
87
100
AcDbEntity
  8
P-SANR-FIXT
100
AcDbSpline
210
0.0
220
0.0
230
1.0
 70
     8
 71
     3
 72
    13
 73
     9
 74
     0
 42
0.000000001
 43
0.0000000001
 40
-1.0
 40
-1.0
 40
-1.0
 40
-1.0
 40
-0.7
 40
-0.55
 40
-0.4
 40
-0.3
 40
-0.2
 40
0.0
 40
0.0
 40
0.0
 40
0.0
 10
836.6664074431877
 20
1997.098369294873
 30
0.0
 10
836.8236348727105
 20
1997.159702118068
 30
0.0
 10
837.0404058131423
 20
1997.293024387749
 30
0.0
 10
837.2813684138639
 20
1997.549673562322
 30
0.0
 10
837.412844076107
 20
1997.7523453571
 30
0.0
 10
837.500411751278
 20
1997.948371841498
 30
0.0
 10
837.5749928681251
 20
1998.186018092261
 30
0.0
 10
837.5968421370505
 20
1998.37116918104
 30
0.0
 10
837.5976753216038
 20
1998.499999999995
 30
0.0
  0
SPLINE
  5
E0
330
87
100
AcDbEntity
  8
P-SANR-FIXT
100
AcDbSpline
210
0.0
220
0.0
230
1.0
 70
     8
 71
     3
 72
    13
 73
     9
 74
     0
 42
0.000000001
 43
0.0000000001
 40
-1.0
 40
-1.0
 40
-1.0
 40
-1.0
 40
-0.85
 40
-0.7
 40
-0.55
 40
-0.4
 40
-0.2
 40
0.0
 40
0.0
 40
0.0
 40
0.0
 10
837.3001270006378
 20
1998.499999999995
 30
0.0
 10
837.2994300281748
 20
1998.403376885778
 30
0.0
 10
837.280652314569
 20
1998.216022455476
 30
0.0
 10
837.1963695493926
 20
1997.946442750743
 30
0.0
 10
837.0624029840843
 20
1997.6986495777
 30
0.0
 10
836.8645905613167
 20
1997.457204788576
 30
0.0
 10
836.5971530854471
 20
1997.244740050894
 30
0.0
 10
836.3783422566617
 20
1997.139257843669
 30
0.0
 10
836.2614326493812
 20
1997.098369294873
 30
0.0
  0
ELLIPSE
  5
E1
330
87
100
AcDbEntity
  8
P-SANR-FIXT
100
AcDbEllipse
 10
835.9508497952582
 20
2054.312785817562
 30
0.0
 11
0.0
 21
57.22699937994051
 31
0.0
210
0.0
220
0.0
230
1.0
 40
0.2588190451025186
 41
3.120621993390342
 42
3.162563313789242
  0
SPLINE
  5
E2
330
87
100
AcDbEntity
  8
P-SANR-FIXT
100
AcDbSpline
210
0.0
220
0.0
230
1.0
 70
     8
 71
     3
 72
    13
 73
     9
 74
     0
 42
0.000000001
 43
0.0000000001
 40
-1.0
 40
-1.0
 40
-1.0
 40
-1.0
 40
-0.7
 40
-0.55
 40
-0.4
 40
-0.3
 40
-0.2
 40
0.0
 40
0.0
 40
0.0
 40
0.0
 10
835.640266941135
 20
1997.098369294873
 30
0.0
 10
835.7686425997686
 20
1997.159702118068
 30
0.0
 10
835.9456353314756
 20
1997.293024387749
 30
0.0
 10
836.1423804710963
 20
1997.549673562322
 30
0.0
 10
836.2497298997929
 20
1997.7523453571
 30
0.0
 10
836.32122860717
 20
1997.948371841498
 30
0.0
 10
836.3821238340772
 20
1998.186018092261
 30
0.0
 10
836.3999636874506
 20
1998.37116918104
 30
0.0
 10
836.4006439797899
 20
1998.499999999995
 30
0.0
  0
SPLINE
  5
E3
330
87
100
AcDbEntity
  8
P-SANR-FIXT
100
AcDbSpline
210
0.0
220
0.0
230
1.0
 70
     8
 71
     3
 72
    13
 73
     9
 74
     0
 42
0.000000001
 43
0.0000000001
 40
-1.0
 40
-1.0
 40
-1.0
 40
-1.0
 40
-0.85
 40
-0.7
 40
-0.55
 40
-0.4
 40
-0.2
 40
0.0
 40
0.0
 40
0.0
 40
0.0
 10
835.5282764432432
 20
1998.499999999995
 30
0.0
 10
835.5275548842538
 20
1998.403376885778
 30
0.0
 10
835.5081147646352
 20
1998.216022455476
 30
0.0
 10
835.4208588254291
 20
1997.946442750743
 30
0.0
 10
835.2821664313939
 20
1997.6986495777
 30
0.0
 10
835.0773759419135
 20
1997.457204788576
 30
0.0
 10
834.8005042933968
 20
1997.244740050894
 30
0.0
 10
834.5739746543396
 20
1997.139257843669
 30
0.0
 10
834.4529409226607
 20
1997.098369294873
 30
0.0
  0
ELLIPSE
  5
E4
330
87
100
AcDbEntity
  8
P-SANR-FIXT
100
AcDbEllipse
 10
833.8529409226609
 20
2054.312785817543
 30
0.0
 11
0.0
 21
57.22699937992187
 31
0.0
210
0.0
220
0.0
230
0.9999999999999998
 40
0.5000000000000039
 41
3.120621993390338
 42
3.162563313789241
  0
SPLINE
  5
E5
330
87
100
AcDbEntity
  8
P-SANR-FIXT
100
AcDbSpline
210
0.0
220
0.0
230
1.0
 70
     8
 71
     3
 72
    13
 73
     9
 74
     0
 42
0.000000001
 43
0.0000000001
 40
-1.0
 40
-1.0
 40
-1.0
 40
-1.0
 40
-0.7
 40
-0.55
 40
-0.4
 40
-0.3
 40
-0.2
 40
0.0
 40
0.0
 40
0.0
 40
0.0
 10
833.2529409226607
 20
1997.098369294873
 30
0.0
 10
833.3437162214197
 20
1997.159702118068
 30
0.0
 10
833.4688689822305
 20
1997.293024387749
 30
0.0
 10
833.6079888046217
 20
1997.549673562322
 30
0.0
 10
833.6838963136099
 20
1997.7523453571
 30
0.0
 10
833.7344535344419
 20
1997.948371841498
 30
0.0
 10
833.7775129623302
 20
1998.186018092261
 30
0.0
 10
833.7901276436257
 20
1998.37116918104
 30
0.0
 10
833.7906086829519
 20
1998.499999999995
 30
0.0
  0
SPLINE
  5
E6
330
87
100
AcDbEntity
  8
P-SANR-FIXT
100
AcDbSpline
210
0.0
220
0.0
230
1.0
 70
     8
 71
     3
 72
    13
 73
     9
 74
     0
 42
0.000000001
 43
0.0000000001
 40
-1.0
 40
-1.0
 40
-1.0
 40
-1.0
 40
-0.85
 40
-0.7
 40
-0.55
 40
-0.4
 40
-0.2
 40
0.0
 40
0.0
 40
0.0
 40
0.0
 10
832.4028723367856
 20
1998.499999999995
 30
0.0
 10
832.4021753643224
 20
1998.403376885778
 30
0.0
 10
832.3833976507168
 20
1998.216022455476
 30
0.0
 10
832.2991148855404
 20
1997.946442750743
 30
0.0
 10
832.1651483202321
 20
1997.6986495777
 30
0.0
 10
831.9673358974645
 20
1997.457204788576
 30
0.0
 10
831.6998984215949
 20
1997.244740050894
 30
0.0
 10
831.4810875928097
 20
1997.139257843669
 30
0.0
 10
831.364177985529
 20
1997.098369294873
 30
0.0
  0
ELLIPSE
  5
E7
330
87
100
AcDbEntity
  8
P-SANR-FIXT
100
AcDbEllipse
 10
830.5156498481052
 20
2054.312785817553
 30
0.0
 11
0.0
 21
57.22699937993098
 31
0.0
210
0.0
220
0.0
230
1.0
 40
0.7071067811865508
 41
3.120621993390344
 42
3.16256331378924
  0
SPLINE
  5
E8
330
87
100
AcDbEntity
  8
P-SANR-FIXT
100
AcDbSpline
210
0.0
220
0.0
230
1.0
 70
     8
 71
     3
 72
    13
 73
     9
 74
     0
 42
0.000000001
 43
0.0000000001
 40
-1.0
 40
-1.0
 40
-1.0
 40
-1.0
 40
-0.7
 40
-0.55
 40
-0.4
 40
-0.3
 40
-0.2
 40
0.0
 40
0.0
 40
0.0
 40
0.0
 10
829.6671217106814
 20
1997.098369294873
 30
0.0
 10
829.7141104629687
 20
1997.159702118068
 30
0.0
 10
829.7788942990587
 20
1997.293024387749
 30
0.0
 10
829.8509080182309
 20
1997.549673562322
 30
0.0
 10
829.8902006362157
 20
1997.7523453571
 30
0.0
 10
829.9163709794534
 20
1997.948371841498
 30
0.0
 10
829.9386601794706
 20
1998.186018092261
 30
0.0
 10
829.9451900190049
 20
1998.37116918104
 30
0.0
 10
829.9454390232833
 20
1998.499999999995
 30
0.0
  0
SPLINE
  5
E9
330
87
100
AcDbEntity
  8
P-SANR-FIXT
100
AcDbSpline
210
0.0
220
0.0
230
1.0
 70
     8
 71
     3
 72
    13
 73
     9
 74
     0
 42
0.000000001
 43
0.0000000001
 40
-1.0
 40
-1.0
 40
-1.0
 40
-1.0
 40
-0.85
 40
-0.7
 40
-0.55
 40
-0.4
 40
-0.2
 40
0.0
 40
0.0
 40
0.0
 40
0.0
 10
828.1369058061454
 20
1998.499999999995
 30
0.0
 10
828.1362809177302
 20
1998.403376885778
 30
0.0
 10
828.1194452802878
 20
1998.216022455476
 30
0.0
 10
828.0438794203044
 20
1997.946442750743
 30
0.0
 10
827.9237682837583
 20
1997.6986495777
 30
0.0
 10
827.7464145174148
 20
1997.457204788576
 30
0.0
 10
827.5066366362116
 20
1997.244740050894
 30
0.0
 10
827.310456214078
 20
1997.139257843669
 30
0.0
 10
827.2056379277293
 20
1997.098369294873
 30
0.0
  0
ELLIPSE
  5
EA
330
87
100
AcDbEntity
  8
P-SANR-FIXT
100
AcDbEllipse
 10
826.1664074431879
 20
2054.312785817534
 30
0.0
 11
0.0
 21
57.22699937991187
 31
0.0
210
0.0
220
0.0
230
1.0
 40
0.8660254037844332
 41
3.120621993390338
 42
3.162563313789251
  0
SPLINE
  5
EB
330
87
100
AcDbEntity
  8
P-SANR-FIXT
100
AcDbSpline
210
0.0
220
0.0
230
1.0
 70
    24
 71
     3
 72
    13
 73
     9
 74
     0
 42
0.000000001
 43
0.0000000001
 40
-1.0
 40
-1.0
 40
-1.0
 40
-1.0
 40
-0.7
 40
-0.55
 40
-0.4
 40
-0.3
 40
-0.2
 40
0.0
 40
0.0
 40
0.0
 40
0.0
 10
825.1271769586466
 20
1997.098369294873
 30
0.0
 10
825.1271769586466
 20
1997.159702118068
 30
0.0
 10
825.1271769586466
 20
1997.293024387749
 30
0.0
 10
825.1271769586466
 20
1997.549673562322
 30
0.0
 10
825.1271769586466
 20
1997.7523453571
 30
0.0
 10
825.1271769586466
 20
1997.948371841498
 30
0.0
 10
825.1271769586466
 20
1998.186018092261
 30
0.0
 10
825.1271769586466
 20
1998.37116918104
 30
0.0
 10
825.1271769586466
 20
1998.499999999995
 30
0.0
  0
SPLINE
  5
EC
330
87
100
AcDbEntity
  8
P-SANR-FIXT
100
AcDbSpline
210
0.0
220
0.0
230
1.0
 70
     8
 71
     3
 72
    13
 73
     9
 74
     0
 42
0.000000001
 43
0.0000000001
 40
-1.0
 40
-1.0
 40
-1.0
 40
-1.0
 40
-0.85
 40
-0.7
 40
-0.55
 40
-0.4
 40
-0.2
 40
0.0
 40
0.0
 40
0.0
 40
0.0
 10
823.0210954205421
 20
1998.499999999995
 30
0.0
 10
823.0205852012877
 20
1998.403376885778
 30
0.0
 10
823.0068389608783
 20
1998.216022455476
 30
0.0
 10
822.9451396945668
 20
1997.946442750743
 30
0.0
 10
822.8470693622456
 20
1997.6986495777
 30
0.0
 10
822.7022606184116
 20
1997.457204788576
 30
0.0
 10
822.506482798227
 20
1997.244740050894
 30
0.0
 10
822.3463021543098
 20
1997.139257843669
 30
0.0
 10
822.2607183818876
 20
1997.098369294873
 30
0.0
  0
ELLIPSE
  5
ED
330
87
100
AcDbEntity
  8
P-SANR-FIXT
100
AcDbEllipse
 10
821.101607390341
 20
2054.312785817543
 30
0.0
 11
0.0
 21
57.22699937992142
 31
0.0
210
0.0
220
0.0
230
1.0
 40
0.9659258262890652
 41
3.120621993390335
 42
3.162563313789241
  0
SPLINE
  5
EE
330
87
100
AcDbEntity
  8
P-SANR-FIXT
100
AcDbSpline
210
0.0
220
0.0
230
1.0
 70
     8
 71
     3
 72
    13
 73
     9
 74
     0
 42
0.000000001
 43
0.0000000001
 40
-1.0
 40
-1.0
 40
-1.0
 40
-1.0
 40
-0.7
 40
-0.55
 40
-0.4
 40
-0.3
 40
-0.2
 40
0.0
 40
0.0
 40
0.0
 40
0.0
 10
819.9424963987938
 20
1997.098369294873
 30
0.0
 10
819.8955076465065
 20
1997.159702118068
 30
0.0
 10
819.8307238104163
 20
1997.293024387749
 30
0.0
 10
819.7587100912443
 20
1997.549673562322
 30
0.0
 10
819.7194174732596
 20
1997.7523453571
 30
0.0
 10
819.6932471300218
 20
1997.948371841498
 30
0.0
 10
819.6709579300044
 20
1998.186018092261
 30
0.0
 10
819.6644280904701
 20
1998.37116918104
 30
0.0
 10
819.6641790861919
 20
1998.499999999995
 30
0.0
  0
SPLINE
  5
EF
330
87
100
AcDbEntity
  8
P-SANR-FIXT
100
AcDbSpline
210
0.0
220
0.0
230
1.0
 70
     8
 71
     3
 72
    13
 73
     9
 74
     0
 42
0.000000001
 43
0.0000000001
 40
-1.0
 40
-1.0
 40
-1.0
 40
-1.0
 40
-0.85
 40
-0.7
 40
-0.55
 40
-0.4
 40
-0.2
 40
0.0
 40
0.0
 40
0.0
 40
0.0
 10
817.4040752034789
 20
1998.499999999995
 30
0.0
 10
817.4037144239843
 20
1998.403376885778
 30
0.0
 10
817.393994364175
 20
1998.216022455476
 30
0.0
 10
817.3503663945719
 20
1997.946442750743
 30
0.0
 10
817.2810201975543
 20
1997.6986495777
 30
0.0
 10
817.1786249528141
 20
1997.457204788576
 30
0.0
 10
817.0401891285557
 20
1997.244740050894
 30
0.0
 10
816.9269243090271
 20
1997.139257843669
 30
0.0
 10
816.8664074431877
 20
1997.098369294873
 30
0.0
  0
ARC
  5
F0
330
87
100
AcDbEntity
  8
P-SANR-FIXT
100
AcDbCircle
 10
815.6664074431878
 20
2054.312785817514
 30
0.0
 40
57.22699937989244
100
AcDbArc
 50
268.7984696769678
 51
271.2015303230323
  0
SPLINE
  5
F1
330
87
100
AcDbEntity
  8
P-SANR-FIXT
100
AcDbSpline
210
0.0
220
0.0
230
1.0
 70
     8
 71
     3
 72
    13
 73
     9
 74
     0
 42
0.000000001
 43
0.0000000001
 40
-1.0
 40
-1.0
 40
-1.0
 40
-1.0
 40
-0.7
 40
-0.55
 40
-0.4
 40
-0.3
 40
-0.2
 40
0.0
 40
0.0
 40
0.0
 40
0.0
 10
814.4664074431878
 20
1997.098369294873
 30
0.0
 10
814.3756321444287
 20
1997.159702118068
 30
0.0
 10
814.2504793836181
 20
1997.293024387749
 30
0.0
 10
814.1113595612269
 20
1997.549673562322
 30
0.0
 10
814.0354520522389
 20
1997.7523453571
 30
0.0
 10
813.9848948314066
 20
1997.948371841498
 30
0.0
 10
813.9418354035186
 20
1998.186018092261
 30
0.0
 10
813.9292207222229
 20
1998.37116918104
 30
0.0
 10
813.9287396828967
 20
1998.499999999995
 30
0.0
  0
SPLINE
  5
F2
330
87
100
AcDbEntity
  8
P-SANR-FIXT
100
AcDbSpline
210
0.0
220
0.0
230
1.0
 70
     8
 71
     3
 72
    13
 73
     9
 74
     0
 42
0.000000001
 43
0.0000000001
 40
-1.0
 40
-1.0
 40
-1.0
 40
-1.0
 40
-0.85
 40
-0.7
 40
-0.55
 40
-0.4
 40
-0.2
 40
0.0
 40
0.0
 40
0.0
 40
0.0
 10
811.6686358001837
 20
1998.499999999995
 30
0.0
 10
811.6684490469751
 20
1998.403376885778
 30
0.0
 10
811.6634175737786
 20
1998.216022455476
 30
0.0
 10
811.6408340749138
 20
1997.946442750743
 30
0.0
 10
811.6049378419267
 20
1997.6986495777
 30
0.0
 10
811.5519341629934
 20
1997.457204788576
 30
0.0
 10
811.4802745073083
 20
1997.244740050894
 30
0.0
 10
811.42164432244
 20
1997.139257843669
 30
0.0
 10
811.3903184875818
 20
1997.098369294873
 30
0.0
  0
ELLIPSE
  5
F3
330
87
100
AcDbEntity
  8
P-SANR-FIXT
100
AcDbEllipse
 10
810.2312074960346
 20
2054.312785817543
 30
0.0
 11
0.0
 21
57.22699937992097
 31
0.0
210
0.0
220
0.0
230
1.0
 40
0.9659258262890691
 41
3.120621993390348
 42
3.162563313789251
  0
SPLINE
  5
F4
330
87
100
AcDbEntity
  8
P-SANR-FIXT
100
AcDbSpline
210
0.0
220
0.0
230
1.0
 70
     8
 71
     3
 72
    13
 73
     9
 74
     0
 42
0.000000001
 43
0.0000000001
 40
-1.0
 40
-1.0
 40
-1.0
 40
-1.0
 40
-0.7
 40
-0.55
 40
-0.4
 40
-0.3
 40
-0.2
 40
0.0
 40
0.0
 40
0.0
 40
0.0
 10
809.0720965044878
 20
1997.098369294873
 30
0.0
 10
808.9437208458546
 20
1997.159702118068
 30
0.0
 10
808.7667281141474
 20
1997.293024387749
 30
0.0
 10
808.5699829745268
 20
1997.549673562322
 30
0.0
 10
808.4626335458303
 20
1997.7523453571
 30
0.0
 10
808.3911348384532
 20
1997.948371841498
 30
0.0
 10
808.330239611546
 20
1998.186018092261
 30
0.0
 10
808.3123997581727
 20
1998.37116918104
 30
0.0
 10
808.3117194658335
 20
1998.499999999995
 30
0.0
  0
SPLINE
  5
F5
330
87
100
AcDbEntity
  8
P-SANR-FIXT
100
AcDbSpline
210
0.0
220
0.0
230
1.0
 70
    24
 71
     3
 72
    13
 73
     9
 74
     0
 42
0.000000001
 43
0.0000000001
 40
-1.0
 40
-1.0
 40
-1.0
 40
-1.0
 40
-0.85
 40
-0.7
 40
-0.55
 40
-0.4
 40
-0.2
 40
0.0
 40
0.0
 40
0.0
 40
0.0
 10
806.2056379277292
 20
1998.499999999995
 30
0.0
 10
806.2056379277292
 20
1998.403376885778
 30
0.0
 10
806.2056379277292
 20
1998.216022455476
 30
0.0
 10
806.2056379277292
 20
1997.946442750743
 30
0.0
 10
806.2056379277292
 20
1997.6986495777
 30
0.0
 10
806.2056379277292
 20
1997.457204788576
 30
0.0
 10
806.2056379277292
 20
1997.244740050894
 30
0.0
 10
806.2056379277292
 20
1997.139257843669
 30
0.0
 10
806.2056379277292
 20
1997.098369294873
 30
0.0
  0
ELLIPSE
  5
F6
330
87
100
AcDbEntity
  8
P-SANR-FIXT
100
AcDbEllipse
 10
805.1664074431879
 20
2054.312785817553
 30
0.0
 11
0.0
 21
57.22699937993098
 31
0.0
210
0.0
220
0.0
230
1.0
 40
0.8660254037844399
 41
3.120621993390345
 42
3.162563313789244
  0
SPLINE
  5
F7
330
87
100
AcDbEntity
  8
P-SANR-FIXT
100
AcDbSpline
210
0.0
220
0.0
230
1.0
 70
     8
 71
     3
 72
    13
 73
     9
 74
     0
 42
0.000000001
 43
0.0000000001
 40
-1.0
 40
-1.0
 40
-1.0
 40
-1.0
 40
-0.7
 40
-0.55
 40
-0.4
 40
-0.3
 40
-0.2
 40
0.0
 40
0.0
 40
0.0
 40
0.0
 10
804.1271769586467
 20
1997.098369294873
 30
0.0
 10
803.9699495291237
 20
1997.159702118068
 30
0.0
 10
803.7531785886919
 20
1997.293024387749
 30
0.0
 10
803.5122159879703
 20
1997.549673562322
 30
0.0
 10
803.3807403257272
 20
1997.7523453571
 30
0.0
 10
803.2931726505562
 20
1997.948371841498
 30
0.0
 10
803.2185915337093
 20
1998.186018092261
 30
0.0
 10
803.1967422647841
 20
1998.37116918104
 30
0.0
 10
803.1959090802304
 20
1998.499999999995
 30
0.0
  0
SPLINE
  5
F8
330
87
100
AcDbEntity
  8
P-SANR-FIXT
100
AcDbSpline
210
0.0
220
0.0
230
1.0
 70
     8
 71
     3
 72
    13
 73
     9
 74
     0
 42
0.000000001
 43
0.0000000001
 40
-1.0
 40
-1.0
 40
-1.0
 40
-1.0
 40
-0.85
 40
-0.7
 40
-0.55
 40
-0.4
 40
-0.2
 40
0.0
 40
0.0
 40
0.0
 40
0.0
 10
801.3873758630923
 20
1998.499999999995
 30
0.0
 10
801.3875626163009
 20
1998.403376885778
 30
0.0
 10
801.3925940894974
 20
1998.216022455476
 30
0.0
 10
801.4151775883622
 20
1997.946442750743
 30
0.0
 10
801.4510738213493
 20
1997.6986495777
 30
0.0
 10
801.5040775002827
 20
1997.457204788576
 30
0.0
 10
801.5757371559677
 20
1997.244740050894
 30
0.0
 10
801.6343673408361
 20
1997.139257843669
 30
0.0
 10
801.6656931756942
 20
1997.098369294873
 30
0.0
  0
ELLIPSE
  5
F9
330
87
100
AcDbEntity
  8
P-SANR-FIXT
100
AcDbEllipse
 10
800.8171650382703
 20
2054.312785817543
 30
0.0
 11
0.0
 21
57.22699937992097
 31
0.0
210
0.0
220
0.0
230
1.0
 40
0.7071067811865554
 41
3.120621993390344
 42
3.162563313789251
  0
SPLINE
  5
FA
330
87
100
AcDbEntity
  8
P-SANR-FIXT
100
AcDbSpline
210
0.0
220
0.0
230
1.0
 70
     8
 71
     3
 72
    13
 73
     9
 74
     0
 42
0.000000001
 43
0.0000000001
 40
-1.0
 40
-1.0
 40
-1.0
 40
-1.0
 40
-0.7
 40
-0.55
 40
-0.4
 40
-0.3
 40
-0.2
 40
0.0
 40
0.0
 40
0.0
 40
0.0
 10
799.9686369008466
 20
1997.098369294873
 30
0.0
 10
799.7932724899258
 20
1997.159702118068
 30
0.0
 10
799.5514959221288
 20
1997.293024387749
 30
0.0
 10
799.2827370633357
 20
1997.549673562322
 30
0.0
 10
799.1360950166543
 20
1997.7523453571
 30
0.0
 10
799.0384259660397
 20
1997.948371841498
 30
0.0
 10
798.955241539115
 20
1998.186018092261
 30
0.0
 10
798.9308718462074
 20
1998.37116918104
 30
0.0
 10
798.92994254959
 20
1998.499999999995
 30
0.0
  0
SPLINE
  5
FB
330
87
100
AcDbEntity
  8
P-SANR-FIXT
100
AcDbSpline
210
0.0
220
0.0
230
1.0
 70
     8
 71
     3
 72
    13
 73
     9
 74
     0
 42
0.000000001
 43
0.0000000001
 40
-1.0
 40
-1.0
 40
-1.0
 40
-1.0
 40
-0.85
 40
-0.7
 40
-0.55
 40
-0.4
 40
-0.2
 40
0.0
 40
0.0
 40
0.0
 40
0.0
 10
797.5422062034233
 20
1998.499999999995
 30
0.0
 10
797.542566982918
 20
1998.403376885778
 30
0.0
 10
797.5522870427274
 20
1998.216022455476
 30
0.0
 10
797.5959150123304
 20
1997.946442750743
 30
0.0
 10
797.665261209348
 20
1997.6986495777
 30
0.0
 10
797.7676564540883
 20
1997.457204788576
 30
0.0
 10
797.9060922783466
 20
1997.244740050894
 30
0.0
 10
798.0193570978753
 20
1997.139257843669
 30
0.0
 10
798.0798739637147
 20
1997.098369294873
 30
0.0
  0
ELLIPSE
  5
FC
330
87
100
AcDbEntity
  8
P-SANR-FIXT
100
AcDbEllipse
 10
797.4798739637146
 20
2054.312785817562
 30
0.0
 11
0.0
 21
57.22699937994051
 31
0.0
210
0.0
220
0.0
230
0.9999999999999998
 40
0.4999999999999981
 41
3.120621993390353
 42
3.162563313789243
  0
SPLINE
  5
FD
330
87
100
AcDbEntity
  8
P-SANR-FIXT
100
AcDbSpline
210
0.0
220
0.0
230
1.0
 70
     8
 71
     3
 72
    13
 73
     9
 74
     0
 42
0.000000001
 43
0.0000000001
 40
-1.0
 40
-1.0
 40
-1.0
 40
-1.0
 40
-0.7
 40
-0.55
 40
-0.4
 40
-0.3
 40
-0.2
 40
0.0
 40
0.0
 40
0.0
 40
0.0
 10
796.8798739637146
 20
1997.098369294873
 30
0.0
 10
796.6983233661967
 20
1997.159702118068
 30
0.0
 10
796.448017844575
 20
1997.293024387749
 30
0.0
 10
796.1697781997926
 20
1997.549673562322
 30
0.0
 10
796.0179631818167
 20
1997.7523453571
 30
0.0
 10
795.916848740152
 20
1997.948371841498
 30
0.0
 10
795.8307298843758
 20
1998.186018092261
 30
0.0
 10
795.8055005217848
 20
1998.37116918104
 30
0.0
 10
795.8045384431321
 20
1998.499999999995
 30
0.0
  0
SPLINE
  5
FE
330
87
100
AcDbEntity
  8
P-SANR-FIXT
100
AcDbSpline
210
0.0
220
0.0
230
1.0
 70
     8
 71
     3
 72
    13
 73
     9
 74
     0
 42
0.000000001
 43
0.0000000001
 40
-1.0
 40
-1.0
 40
-1.0
 40
-1.0
 40
-0.85
 40
-0.7
 40
-0.55
 40
-0.4
 40
-0.2
 40
0.0
 40
0.0
 40
0.0
 40
0.0
 10
794.9321709065858
 20
1998.499999999995
 30
0.0
 10
794.9326811258402
 20
1998.403376885778
 30
0.0
 10
794.9464273662497
 20
1998.216022455476
 30
0.0
 10
795.0081266325612
 20
1997.946442750743
 30
0.0
 10
795.1061969648823
 20
1997.6986495777
 30
0.0
 10
795.2510057087164
 20
1997.457204788576
 30
0.0
 10
795.446783528901
 20
1997.244740050894
 30
0.0
 10
795.6069641728181
 20
1997.139257843669
 30
0.0
 10
795.6925479452405
 20
1997.098369294873
 30
0.0
  0
ELLIPSE
  5
FF
330
87
100
AcDbEntity
  8
P-SANR-FIXT
100
AcDbEllipse
 10
795.3819650911174
 20
2054.312785817543
 30
0.0
 11
0.0
 21
57.22699937992142
 31
0.0
210
0.0
220
0.0
230
1.0
 40
0.2588190451025176
 41
3.120621993390342
 42
3.162563313789249
  0
SPLINE
  5
100
330
87
100
AcDbEntity
  8
P-SANR-FIXT
100
AcDbSpline
210
0.0
220
0.0
230
1.0
 70
     8
 71
     3
 72
    13
 73
     9
 74
     0
 42
0.000000001
 43
0.0000000001
 40
-1.0
 40
-1.0
 40
-1.0
 40
-1.0
 40
-0.7
 40
-0.55
 40
-0.4
 40
-0.3
 40
-0.2
 40
0.0
 40
0.0
 40
0.0
 40
0.0
 10
795.0713822369944
 20
1997.098369294873
 30
0.0
 10
794.8960178260736
 20
1997.159702118068
 30
0.0
 10
794.6542412582766
 20
1997.293024387749
 30
0.0
 10
794.3854823994836
 20
1997.549673562322
 30
0.0
 10
794.2388403528021
 20
1997.7523453571
 30
0.0
 10
794.1411713021875
 20
1997.948371841498
 30
0.0
 10
794.0579868752628
 20
1998.186018092261
 30
0.0
 10
794.0336171823552
 20
1998.37116918104
 30
0.0
 10
794.0326878857379
 20
1998.499999999995
 30
0.0
  0
SPLINE
  5
101
330
87
100
AcDbEntity
  8
P-SANR-FIXT
100
AcDbSpline
210
0.0
220
0.0
230
1.0
 70
     8
 71
     3
 72
    13
 73
     9
 74
     0
 42
0.000000001
 43
0.0000000001
 40
-1.0
 40
-1.0
 40
-1.0
 40
-1.0
 40
-0.85
 40
-0.7
 40
-0.55
 40
-0.4
 40
-0.2
 40
0.0
 40
0.0
 40
0.0
 40
0.0
 10
793.7351395647716
 20
1998.499999999995
 30
0.0
 10
793.7357644531869
 20
1998.403376885778
 30
0.0
 10
793.7526000906291
 20
1998.216022455476
 30
0.0
 10
793.8281659506128
 20
1997.946442750743
 30
0.0
 10
793.9482770871587
 20
1997.6986495777
 30
0.0
 10
794.1256308535023
 20
1997.457204788576
 30
0.0
 10
794.3654087347056
 20
1997.244740050894
 30
0.0
 10
794.5615891568393
 20
1997.139257843669
 30
0.0
 10
794.6664074431878
 20
1997.098369294873
 30
0.0
  0
LINE
  5
102
330
87
100
AcDbEntity
  8
P-SANR-FIXT
100
AcDbLine
 10
794.6664074431878
 20
1997.098369294873
 30
0.0
 11
794.6664074431878
 21
1997.085786437622
 31
0.0
  0
LINE
  5
103
330
87
100
AcDbEntity
  8
P-SANR-FIXT
100
AcDbLine
 10
796.4945324431878
 20
1992.999999999994
 30
0.0
 11
834.8382824431878
 21
1992.999999999994
 31
0.0
  0
LINE
  5
104
330
87
100
AcDbEntity
  8
P-SANR-FIXT
100
AcDbLine
 10
816.8664074431877
 20
1997.098369294873
 30
0.0
 11
816.8664074431877
 21
2009.839647340323
 31
0.0
  0
LINE
  5
105
330
87
100
AcDbEntity
  8
P-SANR-FIXT
100
AcDbLine
 10
814.4664074431878
 20
2009.839647340323
 30
0.0
 11
814.4664074431878
 21
1997.098369294873
 31
0.0
  0
LINE
  5
106
330
87
100
AcDbEntity
  8
P-SANR-FIXT
100
AcDbLine
 10
806.2056379277292
 20
1997.098369294873
 30
0.0
 11
806.2056379277292
 21
1997.113365045536
 31
0.0
  0
LINE
  5
107
330
87
100
AcDbEntity
  8
P-SANR-FIXT
100
AcDbLine
 10
804.1271769586467
 20
2009.839647340323
 30
0.0
 11
804.1271769586467
 21
1997.098369294873
 31
0.0
  0
LINE
  5
108
330
87
100
AcDbEntity
  8
P-SANR-FIXT
100
AcDbLine
 10
796.8798739637146
 20
1997.098369294873
 30
0.0
 11
796.8798739637146
 21
2009.839647340323
 31
0.0
  0
LINE
  5
109
330
87
100
AcDbEntity
  8
P-SANR-FIXT
100
AcDbLine
 10
798.0798739637147
 20
1997.113365045536
 30
0.0
 11
798.0798739637147
 21
1997.098369294873
 31
0.0
  0
LINE
  5
10A
330
87
100
AcDbEntity
  8
P-SANR-FIXT
100
AcDbLine
 10
833.2529409226607
 20
1997.098369294873
 30
0.0
 11
833.2529409226607
 21
1997.113365045536
 31
0.0
  0
LINE
  5
10B
330
87
100
AcDbEntity
  8
P-SANR-FIXT
100
AcDbLine
 10
834.4529409226607
 20
2009.839647340323
 30
0.0
 11
834.4529409226607
 21
1997.098369294873
 31
0.0
  0
LINE
  5
10C
330
87
100
AcDbEntity
  8
P-SANR-FIXT
100
AcDbLine
 10
827.2056379277293
 20
1997.098369294873
 30
0.0
 11
827.2056379277293
 21
2009.839647340323
 31
0.0
  0
LINE
  5
10D
330
87
100
AcDbEntity
  8
P-SANR-FIXT
100
AcDbLine
 10
825.1271769586466
 20
1997.113365045536
 30
0.0
 11
825.1271769586466
 21
1997.098369294873
 31
0.0
  0
LINE
  5
10E
330
87
100
AcDbEntity
  8
P-SANR-FIXT
100
AcDbLine
 10
801.6656931756942
 20
1997.098369294873
 30
0.0
 11
801.6656931756942
 21
1997.113365045536
 31
0.0
  0
LINE
  5
10F
330
87
100
AcDbEntity
  8
P-SANR-FIXT
100
AcDbLine
 10
799.9686369008466
 20
2009.839647340323
 30
0.0
 11
799.9686369008466
 21
1997.098369294873
 31
0.0
  0
LINE
  5
110
330
87
100
AcDbEntity
  8
P-SANR-FIXT
100
AcDbLine
 10
809.0720965044878
 20
1997.098369294873
 30
0.0
 11
809.0720965044878
 21
2009.839647340323
 31
0.0
  0
LINE
  5
111
330
87
100
AcDbEntity
  8
P-SANR-FIXT
100
AcDbLine
 10
811.3903184875818
 20
2009.839647340323
 30
0.0
 11
811.3903184875818
 21
1997.098369294873
 31
0.0
  0
LINE
  5
112
330
87
100
AcDbEntity
  8
P-SANR-FIXT
100
AcDbLine
 10
822.2607183818876
 20
1997.098369294873
 30
0.0
 11
822.2607183818876
 21
2009.839647340323
 31
0.0
  0
LINE
  5
113
330
87
100
AcDbEntity
  8
P-SANR-FIXT
100
AcDbLine
 10
819.9424963987938
 20
2009.839647340323
 30
0.0
 11
819.9424963987938
 21
1997.098369294873
 31
0.0
  0
LINE
  5
114
330
87
100
AcDbEntity
  8
P-SANR-FIXT
100
AcDbLine
 10
829.6671217106814
 20
1997.098369294873
 30
0.0
 11
829.6671217106814
 21
1997.113365045536
 31
0.0
  0
LINE
  5
115
330
87
100
AcDbEntity
  8
P-SANR-FIXT
100
AcDbLine
 10
831.364177985529
 20
2009.839647340323
 30
0.0
 11
831.364177985529
 21
1997.098369294873
 31
0.0
  0
LINE
  5
116
330
87
100
AcDbEntity
  8
P-SANR-FIXT
100
AcDbLine
 10
836.2614326493812
 20
1997.098369294873
 30
0.0
 11
836.2614326493812
 21
1997.782484987897
 31
0.0
  0
LINE
  5
117
330
87
100
AcDbEntity
  8
P-SANR-FIXT
100
AcDbLine
 10
795.0713822369944
 20
1997.098369294873
 30
0.0
 11
795.0713822369944
 21
1997.782484987897
 31
0.0
  0
LINE
  5
118
330
87
100
AcDbEntity
  8
P-SANR-FIXT
100
AcDbLine
 10
838.6664074431879
 20
2041.000000000013
 30
0.0
 11
792.6664074431879
 21
2041.000000000013
 31
0.0
  0
LINE
  5
119
330
87
100
AcDbEntity
  8
P-SANR-FIXT
100
AcDbLine
 10
791.6664074431877
 20
2042.000000000014
 30
0.0
 11
839.6664074431878
 21
2042.000000000014
 31
0.0
  0
LINE
  5
11A
330
87
100
AcDbEntity
  8
P-SANR-FIXT
100
AcDbLine
 10
820.4164074431878
 20
2054.000000000025
 30
0.0
 11
834.9164074431875
 21
2054.000000000025
 31
0.0
  0
ENDBLK
  5
11C
330
87
100
AcDbEntity
  8
0
100
AcDbBlockEnd
  0
BLOCK
  5
129
330
11E
100
AcDbEntity
  8
0
100
AcDbBlockBegin
  2
Automatic flow rate regulator valve_Caleffi_121 DN15 - 1_2__-V1-Est - Idraulica
 70
     0
 10
0.0
 20
0.0
 30
0.0
  3
Automatic flow rate regulator valve_Caleffi_121 DN15 - 1_2__-V1-Est - Idraulica
  1

  0
LWPOLYLINE
  5
11F
330
11E
100
AcDbEntity
  8
M-PIPE
100
AcDbPolyline
 90
       80
 70
   128
 43
0.0
 10
827.7683854010387
 20
1818.995878730053
 10
828.0583080738917
 20
1819.001677956761
 10
828.3477669323152
 20
1819.019066359359
 10
828.6362989038835
 20
1819.048016120112
 10
828.9234423989919
 20
1819.088480925579
 10
829.2087380493031
 20
1819.140396040704
 10
829.4917294426355
 20
1819.203678412376
 10
829.7719638531285
 20
1819.2782268023
 10
830.0489929655057
 20
1819.363921948955
 10
830.3223735922831
 20
1819.460626758387
 10
830.5916683827764
 20
1819.568186523532
 10
830.8564465227673
 20
1819.686429171708
 10
831.1162844237143
 20
1819.815165539903
 10
831.3707664004057
 20
1819.95418967739
 10
831.6194853359652
 20
1820.103279175205
 10
831.8620433331528
 20
1820.262195521958
 10
832.0980523509161
 20
1820.430684485392
 10
832.3271348251727
 20
1820.608476519108
 10
832.548924272832
 20
1820.795287193781
 10
832.7630658780901
 20
1820.990817652181
 10
832.9692170600603
 20
1821.194755087286
 10
833.1670480208275
 20
1821.406773242703
 10
833.3562422730562
 20
1821.626532934613
 10
833.5364971463022
 20
1821.853682594388
 10
833.7075242712209
 20
1822.087858831028
 10
833.869050040896
 20
1822.328687012509
 10
834.0208160485529
 20
1822.575781865115
 10
834.1625795009546
 20
1822.828748089793
 10
834.2941136068183
 20
1823.087180994547
 10
834.4152079396341
 20
1823.350667141857
 10
834.5256687743011
 20
1823.618785010097
 10
834.6253193970479
 20
1823.891105667872
 10
834.7140003881357
 20
1824.167193460221
 10
834.7915698768961
 20
1824.446606705573
 10
834.8579037686949
 20
1824.72889840234
 10
834.9128959434551
 20
1825.013616944026
 10
834.9564584254284
 20
1825.300306841701
 10
834.9885215239364
 20
1825.588509452687
 10
835.0090339448616
 20
1825.877763714284
 10
835.017962872706
 20
1826.16760688138
 10
835.0152940230897
 20
1826.457575266737
 10
835.0010316656028
 20
1826.747204982795
 10
834.9751986169748
 20
1827.036032683792
 10
834.937836204573
 20
1827.32359630702
 10
834.8890042002865
 20
1827.609435812026
 10
834.8287807249056
 20
1827.893093916578
 10
834.7572621231439
 20
1828.174116828218
 10
834.6745628095076
 20
1828.452054970236
 10
834.5808150852574
 20
1828.726463700897
 10
834.4761689267528
 20
1828.996904024767
 10
834.3607917455249
 20
1829.26294329502
 10
834.2348681204507
 20
1829.524155905575
 10
834.0985995024682
 20
1829.780123971977
 10
833.952203892297
 20
1830.030437999925
 10
833.7959154916841
 20
1830.274697540369
 10
833.6299843287306
 20
1830.512511830154
 10
833.4546758579008
 20
1830.743500417145
 10
833.2702705353504
 20
1830.967293768878
 10
833.0770633702581
 20
1831.18353386373
 10
832.8753634528725
 20
1831.391874763678
 10
832.6654934600345
 20
1831.591983167727
 10
832.4477891389628
 20
1831.783538945117
 10
832.2225987701303
 20
1831.966235647467
 10
831.9902826100882
 20
1832.139780999027
 10
831.7512123151352
 20
1832.303897364256
 10
831.5057703467443
 20
1832.458322191978
 10
831.2543493597063
 20
1832.602808435412
 10
830.9973515739672
 20
1832.737124947389
 10
830.7351881311609
 20
1832.861056850144
 10
830.4682784368702
 20
1832.97440587907
 10
830.1970494896689
 20
1833.076990699901
 10
829.9219351980132
 20
1833.168647198806
 10
829.6433756860817
 20
1833.249228744938
 10
829.3618165896708
 20
1833.318606425016
 10
829.077708343272
 20
1833.376669249549
 10
828.7915054594728
 20
1833.423324330406
 10
828.503665801834
 20
1833.458497029409
 10
828.2146498524056
 20
1833.482131077743
 10
827.9249199750529
 20
1833.494188665971
 10
827.7683854010387
 20
1833.495878730053
1001
REVIT
1002
{
1070
     3
1000
790271
1002
}
  0
LWPOLYLINE
  5
120
330
11E
100
AcDbEntity
  8
M-PIPE
100
AcDbPolyline
 90
       80
 70
   128
 43
0.0
 10
827.7683854010387
 20
1833.495878730053
 10
827.4784627281857
 20
1833.490079503345
 10
827.1890038697621
 20
1833.472691100747
 10
826.9004718981941
 20
1833.443741339993
 10
826.6133284030853
 20
1833.403276534526
 10
826.3280327527745
 20
1833.351361419402
 10
826.0450413594419
 20
1833.28807904773
 10
825.7648069489487
 20
1833.213530657806
 10
825.4877778365719
 20
1833.127835511151
 10
825.2143972097941
 20
1833.031130701718
 10
824.9451024193009
 20
1832.923570936574
 10
824.6803242793102
 20
1832.805328288397
 10
824.4204863783629
 20
1832.676591920203
 10
824.1660044016715
 20
1832.537567782716
 10
823.9172854661124
 20
1832.3884782849
 10
823.6747274689246
 20
1832.229561938148
 10
823.4387184511614
 20
1832.061072974714
 10
823.2096359769048
 20
1831.883280940997
 10
822.9878465292456
 20
1831.696470266324
 10
822.7737049239872
 20
1831.500939807924
 10
822.5675537420171
 20
1831.29700237282
 10
822.36972278125
 20
1831.084984217402
 10
822.1805285290212
 20
1830.865224525492
 10
822.000273655775
 20
1830.638074865718
 10
821.8292465308563
 20
1830.403898629078
 10
821.6677207611814
 20
1830.163070447597
 10
821.5159547535245
 20
1829.915975594991
 10
821.3741913011228
 20
1829.663009370312
 10
821.242657195259
 20
1829.404576465559
 10
821.1215628624433
 20
1829.141090318248
 10
821.0111020277762
 20
1828.872972450009
 10
820.9114514050295
 20
1828.600651792234
 10
820.8227704139419
 20
1828.324563999884
 10
820.7452009251813
 20
1828.045150754532
 10
820.6788670333827
 20
1827.762859057766
 10
820.6238748586223
 20
1827.478140516079
 10
820.5803123766489
 20
1827.191450618404
 10
820.5482492781408
 20
1826.903248007419
 10
820.5277368572158
 20
1826.613993745821
 10
820.5188079293714
 20
1826.324150578725
 10
820.5214767789877
 20
1826.034182193368
 10
820.5357391364746
 20
1825.744552477311
 10
820.5615721851026
 20
1825.455724776314
 10
820.5989345975046
 20
1825.168161153085
 10
820.647766601791
 20
1824.882321648079
 10
820.7079900771718
 20
1824.598663543528
 10
820.7795086789335
 20
1824.317640631887
 10
820.8622079925696
 20
1824.039702489869
 10
820.9559557168201
 20
1823.765293759208
 10
821.0606018753244
 20
1823.494853435338
 10
821.1759790565524
 20
1823.228814165086
 10
821.3019026816269
 20
1822.967601554531
 10
821.4381712996093
 20
1822.711633488129
 10
821.5845669097804
 20
1822.461319460181
 10
821.7408553103933
 20
1822.217059919736
 10
821.9067864733469
 20
1821.979245629951
 10
822.0820949441767
 20
1821.748257042961
 10
822.266500266727
 20
1821.524463691228
 10
822.4597074318195
 20
1821.308223596376
 10
822.6614073492051
 20
1821.099882696427
 10
822.8712773420429
 20
1820.899774292379
 10
823.0889816631146
 20
1820.708218514989
 10
823.3141720319473
 20
1820.525521812639
 10
823.546488191989
 20
1820.351976461078
 10
823.785558486942
 20
1820.18786009585
 10
824.0310004553332
 20
1820.033435268128
 10
824.2824214423711
 20
1819.888949024694
 10
824.5394192281104
 20
1819.754632512717
 10
824.8015826709167
 20
1819.630700609961
 10
825.0684923652071
 20
1819.517351581035
 10
825.3397213124085
 20
1819.414766760205
 10
825.6148356040641
 20
1819.3231102613
 10
825.8933951159956
 20
1819.242528715167
 10
826.1749542124066
 20
1819.17315103509
 10
826.4590624588056
 20
1819.115088210556
 10
826.7452653426047
 20
1819.068433129699
 10
827.0331050002434
 20
1819.033260430697
 10
827.3221209496719
 20
1819.009626382363
 10
827.6118508270245
 20
1818.997568794134
 10
827.7683854010387
 20
1818.995878730053
1001
REVIT
1002
{
1070
     3
1000
790271
1002
}
  0
ARC
  5
121
330
11E
100
AcDbEntity
  8
M-PIPE
100
AcDbCircle
 10
827.7683854010373
 20
1826.245878730052
 30
0.0
 40
6.640623436607711
100
AcDbArc
 50
269.9999999999997
 51
90.0
1001
REVIT
1002
{
1070
     3
1000
790271
1002
}
  0
ARC
  5
122
330
11E
100
AcDbEntity
  8
M-PIPE
100
AcDbCircle
 10
827.7683854010373
 20
1826.245878730052
 30
0.0
 40
6.640623436607985
100
AcDbArc
 50
90.00000000000296
 51
270.0000000000007
1001
REVIT
1002
{
1070
     3
1000
790271
1002
}
  0
ARC
  5
123
330
11E
100
AcDbEntity
  8
M-PIPE
100
AcDbCircle
 10
827.7683854010373
 20
1826.245878730052
 30
0.0
 40
7.866710883936548
100
AcDbArc
 50
269.9999999999997
 51
89.99999999999918
1001
REVIT
1002
{
1070
     3
1000
790271
1002
}
  0
ARC
  5
124
330
11E
100
AcDbEntity
  8
M-PIPE
100
AcDbCircle
 10
827.7683854010373
 20
1826.245878730052
 30
0.0
 40
7.866710883936548
100
AcDbArc
 50
90.0
 51
269.9999999999997
1001
REVIT
1002
{
1070
     3
1000
790271
1002
}
  0
ARC
  5
125
330
11E
100
AcDbEntity
  8
M-PIPE
100
AcDbCircle
 10
827.7683854010369
 20
1826.245878730052
 30
0.0
 40
5.749999999999929
100
AcDbArc
 50
269.9999999999985
 51
89.99999999999658
1001
REVIT
1002
{
1070
     3
1000
790271
1002
}
  0
ARC
  5
126
330
11E
100
AcDbEntity
  8
M-PIPE
100
AcDbCircle
 10
827.7683854010369
 20
1826.245878730052
 30
0.0
 40
5.749999999999886
100
AcDbArc
 50
90.0
 51
269.9999999999997
1001
REVIT
1002
{
1070
     3
1000
790271
1002
}
  0
LWPOLYLINE
  5
127
330
11E
100
AcDbEntity
  8
P-SANR-FIXT
100
AcDbPolyline
 90
       80
 70
   128
 43
0.0
 10
791.6664074431893
 20
1826.245878730053
 10
791.6856048833258
 20
1825.286134709574
 10
791.7431664919265
 20
1824.327926074793
 10
791.8390001826964
 20
1823.372785755119
 10
791.9729526421743
 20
1822.422241771311
 10
792.1448095749995
 20
1821.477814790971
 10
792.3542960467406
 20
1820.541015695802
 10
792.6010769237308
 20
1819.613343164514
 10
792.8847574092108
 20
1818.696281275266
 10
793.2048836749189
 20
1817.79129713145
 10
793.56094358712
 20
1816.899838514645
 10
793.9523675259104
 20
1816.023331568469
 10
794.3785292964865
 20
1815.163178517057
 10
794.8387471309257
 20
1814.320755421803
 10
795.3322847788675
 20
1813.497409979952
 10
795.8583526853572
 20
1812.694459368572
 10
796.4161092539663
 20
1811.913188137355
 10
797.0046621931672
 20
1811.15484615361
 10
797.6230699438079
 20
1810.420646602737
 10
798.2703431854075
 20
1809.711764047399
 10
798.9454464188574
 20
1809.029332548464
 10
799.647299622998
 20
1808.374443850752
 10
800.3747799824235
 20
1807.748145636477
 10
801.1267236837463
 20
1807.15143984918
 10
801.9019277774503
 20
1806.585281090828
 10
802.6991521023541
 20
1806.050575094663
 10
803.5171212696027
 20
1805.548177276213
 10
804.3545267030197
 20
1805.078891364814
 10
805.2100287325485
 20
1804.643468117816
 10
806.0822587374387
 20
1804.24260411953
 10
806.9698213357494
 20
1803.876940666839
 10
807.8712966166589
 20
1803.547062743264
 10
808.7852424120224
 20
1803.253498083111
 10
809.7101966035326
 20
1802.996716327214
 10
810.6446794617955
 20
1802.777128271605
 10
811.5871960135837
 20
1802.59508521033
 10
812.5362384334739
 20
1802.450878373452
 10
813.490288456046
 20
1802.344738461149
 10
814.4478198047837
 20
1802.276835274639
 10
815.407300633791
 20
1802.247277444534
 10
816.3671959784206
 20
1802.256112257057
 10
817.3259702108872
 20
1802.303325578392
 10
818.2820894969465
 20
1802.388841877299
 10
819.2340242497023
 20
1802.51252434594
 10
820.1802515766186
 20
1802.67417511875
 10
821.1192577158236
 20
1802.873535588976
 10
822.0495404578052
 20
1803.110286822394
 10
822.9696115486255
 20
1803.384050067534
 10
823.8779990708112
 20
1803.694387361605
 10
824.7732497981051
 20
1804.040802231137
 10
825.6539315203211
 20
1804.422740486236
 10
826.5186353345715
 20
1804.839591107172
 10
827.3659778992142
 20
1805.290687221872
 10
828.1946036469024
 20
1805.775307172783
 10
829.0031869532043
 20
1806.292675671364
 10
829.7904342573177
 20
1806.841965038383
 10
830.5550861314937
 20
1807.422296528027
 10
831.2959192958507
 20
1808.032741733711
 10
832.0117485753613
 20
1808.672324073327
 10
832.7014287958805
 20
1809.340020351569
 10
833.3638566161795
 20
1810.034762396825
 10
833.9979722930561
 20
1810.755438770028
 10
834.6027613766983
 20
1811.500896542716
 10
835.1772563335869
 20
1812.269943141475
 10
835.7205380943433
 20
1813.061348255802
 10
836.2317375240444
 20
1813.873845806338
 10
836.7100368126523
 20
1814.706135970325
 10
837.1546707833372
 20
1815.556887261048
 10
837.5649281165966
 20
1816.424738657924
 10
837.9401524882135
 20
1817.308301783852
 10
838.2797436192372
 20
1818.206163126311
 10
838.5831582363007
 20
1819.116886298689
 10
838.849910940741
 20
1820.039014338186
 10
839.0795749851355
 20
1820.97107203665
 10
839.2717829560057
 20
1821.911568300591
 10
839.4262273616002
 20
1822.858998536616
 10
839.5426611238166
 20
1823.811847058454
 10
839.620897973473
 20
1824.768589511735
 10
839.6608127482998
 20
1825.727695312627
 10
839.6664074431894
 20
1826.245878730053
  0
LWPOLYLINE
  5
128
330
11E
100
AcDbEntity
  8
P-SANR-FIXT
100
AcDbPolyline
 90
       80
 70
   128
 43
0.0
 10
839.6664074431894
 20
1826.245878730053
 10
839.647210003053
 20
1827.205622750532
 10
839.5896483944522
 20
1828.163831385313
 10
839.4938147036823
 20
1829.118971704987
 10
839.3598622442045
 20
1830.069515688795
 10
839.1880053113792
 20
1831.013942669135
 10
838.9785188396382
 20
1831.950741764304
 10
838.731737962648
 20
1832.878414295592
 10
838.448057477168
 20
1833.79547618484
 10
838.1279312114598
 20
1834.700460328656
 10
837.7718712992587
 20
1835.591918945461
 10
837.3804473604684
 20
1836.468425891637
 10
836.9542855898922
 20
1837.328578943049
 10
836.494067755453
 20
1838.171002038303
 10
836.0005301075114
 20
1838.994347480155
 10
835.4744622010217
 20
1839.797298091534
 10
834.9167056324125
 20
1840.578569322751
 10
834.3281526932116
 20
1841.336911306496
 10
833.7097449425709
 20
1842.071110857368
 10
833.062471700971
 20
1842.779993412706
 10
832.3873684675213
 20
1843.462424911642
 10
831.6855152633806
 20
1844.117313609354
 10
830.9580349039553
 20
1844.743611823628
 10
830.2060912026325
 20
1845.340317610926
 10
829.4308871089283
 20
1845.906476369277
 10
828.6336627840245
 20
1846.441182365443
 10
827.8156936167759
 20
1846.943580183893
 10
826.978288183359
 20
1847.412866095291
 10
826.1227861538303
 20
1847.848289342289
 10
825.2505561489398
 20
1848.249153340576
 10
824.3629935506294
 20
1848.614816793266
 10
823.4615182697199
 20
1848.944694716842
 10
822.547572474356
 20
1849.238259376994
 10
821.6226182828464
 20
1849.495041132891
 10
820.6881354245833
 20
1849.714629188501
 10
819.7456188727951
 20
1849.896672249776
 10
818.7965764529048
 20
1850.040879086653
 10
817.8425264303324
 20
1850.147018998956
 10
816.884995081595
 20
1850.214922185467
 10
815.9255142525875
 20
1850.244480015572
 10
814.9656189079584
 20
1850.235645203049
 10
814.0068446754916
 20
1850.188431881713
 10
813.0507253894323
 20
1850.102915582807
 10
812.0987906366764
 20
1849.979233114166
 10
811.1525633097601
 20
1849.817582341356
 10
810.213557170555
 20
1849.61822187113
 10
809.2832744285736
 20
1849.381470637712
 10
808.3632033377533
 20
1849.107707392571
 10
807.4548158155675
 20
1848.797370098501
 10
806.5595650882734
 20
1848.450955228969
 10
805.6788833660579
 20
1848.069016973869
 10
804.8141795518073
 20
1847.652166352934
 10
803.9668369871646
 20
1847.201070238233
 10
803.1382112394762
 20
1846.716450287322
 10
802.3296279331745
 20
1846.199081788741
 10
801.5423806290607
 20
1845.649792421723
 10
800.7777287548847
 20
1845.069460932079
 10
800.0368955905283
 20
1844.459015726395
 10
799.3210663110176
 20
1843.819433386778
 10
798.6313860904983
 20
1843.151737108537
 10
797.9689582701994
 20
1842.45699506328
 10
797.3348425933226
 20
1841.736318690078
 10
796.7300535096804
 20
1840.99086091739
 10
796.1555585527919
 20
1840.221814318631
 10
795.6122767920354
 20
1839.430409204304
 10
795.1010773623344
 20
1838.617911653768
 10
794.6227780737265
 20
1837.78562148978
 10
794.1781441030415
 20
1836.934870199058
 10
793.7678867697822
 20
1836.067018802181
 10
793.3926623981652
 20
1835.183455676254
 10
793.0530712671416
 20
1834.285594333794
 10
792.7496566500783
 20
1833.374871161417
 10
792.482903945638
 20
1832.452743121919
 10
792.2532399012433
 20
1831.520685423456
 10
792.0610319303731
 20
1830.580189159514
 10
791.9065875247787
 20
1829.632758923489
 10
791.7901537625623
 20
1828.679910401651
 10
791.7119169129057
 20
1827.723167948371
 10
791.6720021380791
 20
1826.764062147479
 10
791.6664074431893
 20
1826.245878730053
  0
ENDBLK
  5
12A
330
11E
100
AcDbEntity
  8
0
100
AcDbBlockEnd
  0
ENDSEC
  0
SECTION
  2
ENTITIES
  0
INSERT
  5
11D
330
71
100
AcDbEntity
  8
P-SANR-FIXT
100
AcDbBlockReference
  2
Automatic flow rate regulator valve_Caleffi_121 DN15 - 1_2__-859151-Est - Idraulica
 10
0.0
 20
0.0
 30
0.0
1001
REVIT
1002
{
1070
     1
1000
863131
1002
}
1002
{
1070
     5
1000
859151
1002
}
1002
{
1070
     2
1000
-2001160
1002
}
  0
INSERT
  5
12B
330
71
100
AcDbEntity
  8
P-SANR-FIXT
100
AcDbBlockReference
  2
Automatic flow rate regulator valve_Caleffi_121 DN15 - 1_2__-V1-Est - Idraulica
 10
0.0
 20
0.0
 30
0.0
1001
REVIT
1002
{
1070
     1
1000
863152
1002
}
1002
{
1070
     5
1000
859151
1002
}
1002
{
1070
     2
1000
-2001160
1002
}
  0
ENDSEC
  0
SECTION
  2
OBJECTS
  0
DICTIONARY
  5
C
330
0
100
AcDbDictionary
281
     1
  3
ACAD_CIP_PREVIOUS_PRODUCT_INFO
350
7A
  3
ACAD_COLOR
350
63
  3
ACAD_DETAILVIEWSTYLE
350
6B
  3
ACAD_GROUP
350
D
  3
ACAD_IMAGE_VARS
350
7B
  3
ACAD_LAYOUT
350
62
  3
ACAD_MATERIAL
350
10
  3
ACAD_MLEADERSTYLE
350
66
  3
ACAD_MLINESTYLE
350
5F
  3
ACAD_PLOTSETTINGS
350
61
  3
ACAD_PLOTSTYLENAME
350
E
  3
ACAD_SCALELIST
350
42
  3
ACAD_SECTIONVIEWSTYLE
350
68
  3
ACAD_TABLESTYLE
350
64
  3
ACAD_VISUALSTYLE
350
29
  3
ACDB_RECOMPOSE_DATA
350
136
  3
AcDbVariableDictionary
350
7C
  3
REVIT_DICTIONARY
350
12D
  0
DICTIONARY
  5
132
330
71
100
AcDbDictionary
280
     1
281
     1
  3
ACAD_SORTENTS
360
133
  0
XRECORD
  5
7A
102
{ACAD_REACTORS
330
C
102
}
330
C
100
AcDbXrecord
280
     1
300
RVT
300
2013
300
RVT2013
  0
DICTIONARY
  5
63
102
{ACAD_REACTORS
330
C
102
}
330
C
100
AcDbDictionary
281
     1
  0
DICTIONARY
  5
6B
102
{ACAD_REACTORS
330
C
102
}
330
C
100
AcDbDictionary
281
     1
  3
Imperial24
350
6C
  0
DICTIONARY
  5
D
102
{ACAD_REACTORS
330
C
102
}
330
C
100
AcDbDictionary
281
     1
  0
RASTERVARIABLES
  5
7B
102
{ACAD_REACTORS
330
C
102
}
330
C
100
AcDbRasterVariables
 90
        0
 70
     0
 71
     1
 72
     1
  0
DICTIONARY
  5
62
102
{ACAD_REACTORS
330
C
102
}
330
C
100
AcDbDictionary
281
     1
  3
Layout1
350
70
  3
Layout2
350
78
  3
Model
350
74
  0
DICTIONARY
  5
10
102
{ACAD_REACTORS
330
C
102
}
330
C
100
AcDbDictionary
281
     1
  3
ByBlock
350
19
  3
ByLayer
350
11
  3
Global
350
21
  0
DICTIONARY
  5
66
102
{ACAD_REACTORS
330
C
102
}
330
C
100
AcDbDictionary
281
     1
  3
Standard
350
67
  0
DICTIONARY
  5
5F
102
{ACAD_REACTORS
330
C
102
}
330
C
100
AcDbDictionary
281
     1
  3
Standard
350
60
  0
DICTIONARY
  5
61
102
{ACAD_REACTORS
330
C
102
}
330
C
100
AcDbDictionary
281
     1
  0
ACDBDICTIONARYWDFLT
  5
E
102
{ACAD_REACTORS
330
C
102
}
330
C
100
AcDbDictionary
281
     1
  3
Normal
350
F
100
AcDbDictionaryWithDefault
340
F
  0
DICTIONARY
  5
42
102
{ACAD_REACTORS
330
C
102
}
330
C
100
AcDbDictionary
281
     1
  3
A0
350
43
  3
A1
350
44
  3
A2
350
45
  3
A3
350
46
  3
A4
350
47
  3
A5
350
48
  3
A6
350
49
  3
A7
350
4A
  3
A8
350
4B
  3
A9
350
4C
  3
B0
350
4D
  3
B1
350
4E
  3
B2
350
4F
  3
B3
350
50
  3
B4
350
51
  3
B5
350
52
  3
B6
350
53
  0
DICTIONARY
  5
68
102
{ACAD_REACTORS
330
C
102
}
330
C
100
AcDbDictionary
281
     1
  3
Imperial24
350
6A
  0
DICTIONARY
  5
64
102
{ACAD_REACTORS
330
C
102
}
330
C
100
AcDbDictionary
281
     1
  3
Standard
350
65
  0
DICTIONARY
  5
29
102
{ACAD_REACTORS
330
C
102
}
330
C
100
AcDbDictionary
281
     1
  3
2dWireframe
350
2F
  3
Basic
350
2E
  3
Brighten
350
35
  3
ColorChange
350
39
  3
Conceptual
350
32
  3
Dim
350
34
  3
EdgeColorOff
350
41
  3
Facepattern
350
38
  3
Flat
350
2A
  3
FlatWithEdges
350
2B
  3
Gouraud
350
2C
  3
GouraudWithEdges
350
2D
  3
Hidden
350
31
  3
JitterOff
350
3F
  3
Linepattern
350
37
  3
OverhangOff
350
40
  3
Realistic
350
33
  3
Shaded
350
3E
  3
Shaded with edges
350
3D
  3
Shades of Gray
350
3A
  3
Sketchy
350
3B
  3
Thicken
350
36
  3
Wireframe
350
30
  3
X-Ray
350
3C
  0
XRECORD
  5
136
102
{ACAD_REACTORS
330
C
102
}
330
C
100
AcDbXrecord
280
     1
 90
        1
330
65
  0
DICTIONARY
  5
7C
102
{ACAD_REACTORS
330
C
102
}
330
C
100
AcDbDictionary
281
     1
  3
CANNOSCALE
350
81
  3
CMLEADERSTYLE
350
7E
  3
CTABLESTYLE
350
7D
  3
CVIEWDETAILSTYLE
350
7F
  3
CVIEWSECTIONSTYLE
350
80
  0
DICTIONARY
  5
12D
102
{ACAD_REACTORS
330
C
102
}
330
C
100
AcDbDictionary
281
     1
  3
DRAWING_TOOL
350
131
  3
REVIT_CATEGORY_MAPPING
350
12F
  3
REVIT_SUB_CATEGORY_MAPPING
350
130
  3
REVIT_TYPE_MAPPING
350
12E
  0
SORTENTSTABLE
  5
133
102
{ACAD_REACTORS
330
132
102
}
330
132
100
AcDbSortentsTable
330
71
  0
ACDBDETAILVIEWSTYLE
  5
6C
102
{ACAD_REACTORS
330
6B
102
}
330
6B
100
AcDbModelDocViewStyle
 70
     0
  3
Imperial24
290
     1
100
AcDbDetailViewStyle
 70
     0
 71
     0
 90
        3
 71
     1
340
55
 62
   256
 40
0.24
340
0
 62
   256
 40
0.24
300

 40
0.36
280
     3
 71
     2
340
5D
 90
       25
 62
   256
 71
     3
340
55
 62
   256
 40
0.24
 90
        1
 40
0.75
 90
        1
300
%<\AcVar ViewType \f "%tc1">% %<\AcVar ViewDetailId>%\PSCALA %<\AcVar ViewScale \f "%sn">%
 71
     4
340
5D
 90
       25
 62
   256
340
5D
 90
       25
 62
   256
280
     0
  0
LAYOUT
  5
70
102
{ACAD_REACTORS
330
62
102
}
330
62
100
AcDbPlotSettings
  1

  2

  4

  6

 40
0.0
 41
0.0
 42
0.0
 43
0.0
 44
0.0
 45
0.0
 46
0.0
 47
0.0
 48
0.0
 49
0.0
140
0.0
141
0.0
142
1.0
143
1.0
 70
   688
 72
     0
 73
     0
 74
     5
  7

 75
    16
147
1.0
 76
     0
 77
     2
 78
   300
148
0.0
149
0.0
100
AcDbLayout
  1
Layout1
 70
     1
 71
     1
 10
0.0
 20
0.0
 11
12.0
 21
9.0
 12
0.0
 22
0.0
 32
0.0
 14
0.0
 24
0.0
 34
0.0
 15
0.0
 25
0.0
 35
0.0
146
0.0
 13
0.0
 23
0.0
 33
0.0
 16
1.0
 26
0.0
 36
0.0
 17
0.0
 27
1.0
 37
0.0
 76
     0
330
6D
  0
LAYOUT
  5
78
102
{ACAD_REACTORS
330
62
102
}
330
62
100
AcDbPlotSettings
  1

  2

  4

  6

 40
0.0
 41
0.0
 42
0.0
 43
0.0
 44
0.0
 45
0.0
 46
0.0
 47
0.0
 48
0.0
 49
0.0
140
0.0
141
0.0
142
1.0
143
1.0
 70
   688
 72
     0
 73
     0
 74
     5
  7

 75
    16
147
1.0
 76
     0
 77
     2
 78
   300
148
0.0
149
0.0
100
AcDbLayout
  1
Layout2
 70
     1
 71
     2
 10
0.0
 20
0.0
 11
12.0
 21
9.0
 12
0.0
 22
0.0
 32
0.0
 14
0.0
 24
0.0
 34
0.0
 15
0.0
 25
0.0
 35
0.0
146
0.0
 13
0.0
 23
0.0
 33
0.0
 16
1.0
 26
0.0
 36
0.0
 17
0.0
 27
1.0
 37
0.0
 76
     0
330
75
  0
LAYOUT
  5
74
102
{ACAD_REACTORS
330
62
102
}
330
62
100
AcDbPlotSettings
  1

  2

  4

  6

 40
0.0
 41
0.0
 42
0.0
 43
0.0
 44
0.0
 45
0.0
 46
0.0
 47
0.0
 48
0.0
 49
0.0
140
0.0
141
0.0
142
1.0
143
1.0
 70
  1712
 72
     0
 73
     0
 74
     0
  7

 75
     0
147
1.0
 76
     0
 77
     2
 78
   300
148
0.0
149
0.0
100
AcDbLayout
  1
Model
 70
     1
 71
     0
 10
0.0
 20
0.0
 11
12.0
 21
9.0
 12
0.0
 22
0.0
 32
0.0
 14
0.0
 24
0.0
 34
0.0
 15
0.0
 25
0.0
 35
0.0
146
0.0
 13
0.0
 23
0.0
 33
0.0
 16
1.0
 26
0.0
 36
0.0
 17
0.0
 27
1.0
 37
0.0
 76
     0
330
71
  0
MATERIAL
  5
19
102
{ACAD_XDICTIONARY
360
1A
102
}
102
{ACAD_REACTORS
330
10
102
}
330
10
100
AcDbMaterial
  1
ByBlock
 72
     0
 43
0.0208333333333333
 43
0.0
 43
0.0
 43
0.0
 43
0.0
 43
0.0208333333333333
 43
0.0
 43
0.0
 43
0.0
 43
0.0
 43
1.0
 43
0.0
 43
0.0
 43
0.0
 43
0.0
 43
1.0
 77
     0
 47
0.0208333333333333
 47
0.0
 47
0.0
 47
0.0
 47
0.0
 47
0.0208333333333333
 47
0.0
 47
0.0
 47
0.0
 47
0.0
 47
1.0
 47
0.0
 47
0.0
 47
0.0
 47
0.0
 47
1.0
171
     0
 49
0.0208333333333333
 49
0.0
 49
0.0
 49
0.0
 49
0.0
 49
0.0208333333333333
 49
0.0
 49
0.0
 49
0.0
 49
0.0
 49
1.0
 49
0.0
 49
0.0
 49
0.0
 49
0.0
 49
1.0
175
     0
142
0.0208333333333333
142
0.0
142
0.0
142
0.0
142
0.0
142
0.0208333333333333
142
0.0
142
0.0
142
0.0
142
0.0
142
1.0
142
0.0
142
0.0
142
0.0
142
0.0
142
1.0
179
     0
144
0.0208333333333333
144
0.0
144
0.0
144
0.0
144
0.0
144
0.0208333333333333
144
0.0
144
0.0
144
0.0
144
0.0
144
1.0
144
0.0
144
0.0
144
0.0
144
0.0
144
1.0
147
0.0208333333333333
147
0.0
147
0.0
147
0.0
147
0.0
147
0.0208333333333333
147
0.0
147
0.0
147
0.0
147
0.0
147
1.0
147
0.0
147
0.0
147
0.0
147
0.0
147
1.0
  0
MATERIAL
  5
11
102
{ACAD_XDICTIONARY
360
12
102
}
102
{ACAD_REACTORS
330
10
102
}
330
10
100
AcDbMaterial
  1
ByLayer
 72
     0
 43
0.0208333333333333
 43
0.0
 43
0.0
 43
0.0
 43
0.0
 43
0.0208333333333333
 43
0.0
 43
0.0
 43
0.0
 43
0.0
 43
1.0
 43
0.0
 43
0.0
 43
0.0
 43
0.0
 43
1.0
 77
     0
 47
0.0208333333333333
 47
0.0
 47
0.0
 47
0.0
 47
0.0
 47
0.0208333333333333
 47
0.0
 47
0.0
 47
0.0
 47
0.0
 47
1.0
 47
0.0
 47
0.0
 47
0.0
 47
0.0
 47
1.0
171
     0
 49
0.0208333333333333
 49
0.0
 49
0.0
 49
0.0
 49
0.0
 49
0.0208333333333333
 49
0.0
 49
0.0
 49
0.0
 49
0.0
 49
1.0
 49
0.0
 49
0.0
 49
0.0
 49
0.0
 49
1.0
175
     0
142
0.0208333333333333
142
0.0
142
0.0
142
0.0
142
0.0
142
0.0208333333333333
142
0.0
142
0.0
142
0.0
142
0.0
142
1.0
142
0.0
142
0.0
142
0.0
142
0.0
142
1.0
179
     0
144
0.0208333333333333
144
0.0
144
0.0
144
0.0
144
0.0
144
0.0208333333333333
144
0.0
144
0.0
144
0.0
144
0.0
144
1.0
144
0.0
144
0.0
144
0.0
144
0.0
144
1.0
147
0.0208333333333333
147
0.0
147
0.0
147
0.0
147
0.0
147
0.0208333333333333
147
0.0
147
0.0
147
0.0
147
0.0
147
1.0
147
0.0
147
0.0
147
0.0
147
0.0
147
1.0
  0
MATERIAL
  5
21
102
{ACAD_XDICTIONARY
360
22
102
}
102
{ACAD_REACTORS
330
10
102
}
330
10
100
AcDbMaterial
  1
Global
 72
     0
 43
0.0208333333333333
 43
0.0
 43
0.0
 43
0.0
 43
0.0
 43
0.0208333333333333
 43
0.0
 43
0.0
 43
0.0
 43
0.0
 43
1.0
 43
0.0
 43
0.0
 43
0.0
 43
0.0
 43
1.0
 77
     0
 47
0.0208333333333333
 47
0.0
 47
0.0
 47
0.0
 47
0.0
 47
0.0208333333333333
 47
0.0
 47
0.0
 47
0.0
 47
0.0
 47
1.0
 47
0.0
 47
0.0
 47
0.0
 47
0.0
 47
1.0
171
     0
 49
0.0208333333333333
 49
0.0
 49
0.0
 49
0.0
 49
0.0
 49
0.0208333333333333
 49
0.0
 49
0.0
 49
0.0
 49
0.0
 49
1.0
 49
0.0
 49
0.0
 49
0.0
 49
0.0
 49
1.0
175
     0
142
0.0208333333333333
142
0.0
142
0.0
142
0.0
142
0.0
142
0.0208333333333333
142
0.0
142
0.0
142
0.0
142
0.0
142
1.0
142
0.0
142
0.0
142
0.0
142
0.0
142
1.0
179
     0
144
0.0208333333333333
144
0.0
144
0.0
144
0.0
144
0.0
144
0.0208333333333333
144
0.0
144
0.0
144
0.0
144
0.0
144
1.0
144
0.0
144
0.0
144
0.0
144
0.0
144
1.0
147
0.0208333333333333
147
0.0
147
0.0
147
0.0
147
0.0
147
0.0208333333333333
147
0.0
147
0.0
147
0.0
147
0.0
147
1.0
147
0.0
147
0.0
147
0.0
147
0.0
147
1.0
  0
MLEADERSTYLE
  5
67
102
{ACAD_REACTORS
330
66
102
}
330
66
100
AcDbMLeaderStyle
179
     2
170
     2
171
     1
172
     0
 90
        2
 40
0.0
 41
0.0
173
     1
 91
-1056964608
340
5B
 92
       -2
290
     1
 42
0.09
291
     1
 43
0.36
  3
Standard
 44
0.18
300

342
55
174
     1
178
     6
175
     1
176
     0
 93
-1056964608
 45
0.18
292
     0
297
     0
 46
0.18
 94
-1056964608
 47
1.0
 49
1.0
140
1.0
293
     1
141
0.0
294
     1
177
     0
142
1.0
295
     1
296
     0
143
0.125
271
     0
272
     9
273
     9
298
     1
  0
MLINESTYLE
  5
60
102
{ACAD_REACTORS
330
5F
102
}
330
5F
100
AcDbMlineStyle
  2
STANDARD
 70
     0
  3

 62
   256
 51
90.0
 52
90.0
 71
     2
 49
0.5
 62
   256
  6
BYLAYER
 49
-0.5
 62
   256
  6
BYLAYER
  0
ACDBPLACEHOLDER
  5
F
102
{ACAD_REACTORS
330
E
102
}
330
E
  0
SCALE
  5
43
102
{ACAD_REACTORS
330
42
102
}
330
42
100
AcDbScale
 70
     0
300
1:1
140
1.0
141
1.0
290
     1
  0
SCALE
  5
44
102
{ACAD_REACTORS
330
42
102
}
330
42
100
AcDbScale
 70
     0
300
1/128" = 1'-0"
140
0.0078125
141
12.0
290
     0
  0
SCALE
  5
45
102
{ACAD_REACTORS
330
42
102
}
330
42
100
AcDbScale
 70
     0
300
1/64" = 1'-0"
140
0.015625
141
12.0
290
     0
  0
SCALE
  5
46
102
{ACAD_REACTORS
330
42
102
}
330
42
100
AcDbScale
 70
     0
300
1/32" = 1'-0"
140
0.03125
141
12.0
290
     0
  0
SCALE
  5
47
102
{ACAD_REACTORS
330
42
102
}
330
42
100
AcDbScale
 70
     0
300
1/16" = 1'-0"
140
0.0625
141
12.0
290
     0
  0
SCALE
  5
48
102
{ACAD_REACTORS
330
42
102
}
330
42
100
AcDbScale
 70
     0
300
3/32" = 1'-0"
140
0.09375
141
12.0
290
     0
  0
SCALE
  5
49
102
{ACAD_REACTORS
330
42
102
}
330
42
100
AcDbScale
 70
     0
300
1/8" = 1'-0"
140
0.125
141
12.0
290
     0
  0
SCALE
  5
4A
102
{ACAD_REACTORS
330
42
102
}
330
42
100
AcDbScale
 70
     0
300
3/16" = 1'-0"
140
0.1875
141
12.0
290
     0
  0
SCALE
  5
4B
102
{ACAD_REACTORS
330
42
102
}
330
42
100
AcDbScale
 70
     0
300
1/4" = 1'-0"
140
0.25
141
12.0
290
     0
  0
SCALE
  5
4C
102
{ACAD_REACTORS
330
42
102
}
330
42
100
AcDbScale
 70
     0
300
3/8" = 1'-0"
140
0.375
141
12.0
290
     0
  0
SCALE
  5
4D
102
{ACAD_REACTORS
330
42
102
}
330
42
100
AcDbScale
 70
     0
300
1/2" = 1'-0"
140
0.5
141
12.0
290
     0
  0
SCALE
  5
4E
102
{ACAD_REACTORS
330
42
102
}
330
42
100
AcDbScale
 70
     0
300
3/4" = 1'-0"
140
0.75
141
12.0
290
     0
  0
SCALE
  5
4F
102
{ACAD_REACTORS
330
42
102
}
330
42
100
AcDbScale
 70
     0
300
1" = 1'-0"
140
1.0
141
12.0
290
     0
  0
SCALE
  5
50
102
{ACAD_REACTORS
330
42
102
}
330
42
100
AcDbScale
 70
     0
300
1-1/2" = 1'-0"
140
1.5
141
12.0
290
     0
  0
SCALE
  5
51
102
{ACAD_REACTORS
330
42
102
}
330
42
100
AcDbScale
 70
     0
300
3" = 1'-0"
140
3.0
141
12.0
290
     0
  0
SCALE
  5
52
102
{ACAD_REACTORS
330
42
102
}
330
42
100
AcDbScale
 70
     0
300
6" = 1'-0"
140
6.0
141
12.0
290
     0
  0
SCALE
  5
53
102
{ACAD_REACTORS
330
42
102
}
330
42
100
AcDbScale
 70
     0
300
1'-0" = 1'-0"
140
12.0
141
12.0
290
     0
  0
ACDBSECTIONVIEWSTYLE
  5
6A
102
{ACAD_REACTORS
330
68
102
}
330
68
100
AcDbModelDocViewStyle
 70
     0
  3
Imperial24
290
     1
100
AcDbSectionViewStyle
 70
     0
 71
     0
 90
       78
 71
     1
340
55
 62
   256
 40
0.24
340
0
340
0
 62
   256
 40
0.24
300
I, O, Q, S, X, Z
 40
0.48
 90
        3
 40
0.18
 90
        1
 71
     2
340
69
 90
       25
 62
   256
340
5D
 90
       50
 62
   256
 40
0.24
 40
0.0
 40
0.24
 71
     3
340
55
 62
   256
 40
0.24
 90
        1
 40
0.75
 90
        1
300
%<\AcVar ViewType \f "%tc1">% %<\AcVar ViewSectionStartId>%-%<\AcVar ViewSectionEndId>%\PSCALA %<\AcVar ViewScale \f "%sn">%
 71
     4
 62
   256
 62
   257
300
ANSI31
 40
1.0
 90
        0
290
     0
290
     0
 90
        6
 40
0.0
 40
1.570796326794896
 40
0.2617993877991494
 40
1.308996938995747
 40
-0.2617993877991494
 40
1.832595714594046
  0
TABLESTYLE
  5
65
102
{ACAD_XDICTIONARY
360
134
102
}
102
{ACAD_REACTORS
330
64
102
}
330
64
100
AcDbTableStyle
280
     0
  3
Standard
 70
     0
 71
     0
 40
0.06
 41
0.06
280
     0
281
     0
  7
Standard
140
0.18
170
     2
 62
     0
 63
     7
283
     0
 90
      512
 91
        0
  1

274
    -2
284
     1
 64
     0
275
    -2
285
     1
 65
     0
276
    -2
286
     1
 66
     0
277
    -2
287
     1
 67
     0
278
    -2
288
     1
 68
     0
279
    -2
289
     1
 69
     0
  7
Standard
140
0.25
170
     5
 62
     0
 63
     7
283
     0
 90
      512
 91
        0
  1

274
    -2
284
     1
 64
     0
275
    -2
285
     1
 65
     0
276
    -2
286
     1
 66
     0
277
    -2
287
     1
 67
     0
278
    -2
288
     1
 68
     0
279
    -2
289
     1
 69
     0
  7
Standard
140
0.18
170
     5
 62
     0
 63
     7
283
     0
 90
      512
 91
        0
  1

274
    -2
284
     1
 64
     0
275
    -2
285
     1
 65
     0
276
    -2
286
     1
 66
     0
277
    -2
287
     1
 67
     0
278
    -2
288
     1
 68
     0
279
    -2
289
     1
 69
     0
  0
VISUALSTYLE
  5
2F
102
{ACAD_REACTORS
330
29
102
}
330
29
100
AcDbVisualStyle
  2
2dWireframe
 70
     4
177
     3
291
     0
 70
    58
 90
        0
176
     1
 90
        2
176
     1
 90
        0
176
     1
 90
        0
176
     1
 40
0.6
176
     1
 40
30.0
176
     1
 62
     7
420
 16777215
176
     1
 90
        1
176
     1
 90
        4
176
     1
 62
     7
176
     1
 62
   257
176
     1
 90
        1
176
     1
 90
        1
176
     1
 40
1.0
176
     1
 90
        0
176
     1
 62
   257
176
     1
 40
1.0
176
     1
 90
        1
176
     1
 90
        6
176
     1
 90
        2
176
     1
 62
     7
176
     1
 90
        5
176
     1
 90
        0
176
     1
 90
        0
176
     1
290
     0
176
     1
 90
        1
176
     1
 40
0.0
176
     1
 90
        0
176
     1
290
     1
176
     1
290
     1
176
     1
290
     0
176
     1
290
     0
176
     1
290
     0
176
     1
290
     0
176
     1
290
     0
176
     1
290
     0
176
     1
290
     0
176
     1
 90
       50
176
     1
 40
0.0
176
     1
 40
1.0
176
     1
 90
        0
176
     1
 62
    18
420
        0
176
     1
 90
       50
176
     1
 90
        3
176
     1
 62
     5
420
      255
176
     1
290
     0
176
     1
 90
       50
176
     1
 90
       50
176
     1
 90
       50
176
     1
290
     0
176
     1
 90
       50
176
     1
 62
   256
176
     0
 40
1.0
176
     0
 90
        2
176
     1
  1
strokes_ogs.tif
176
     1
290
     0
176
     1
 40
1.0
176
     1
 40
1.0
176
     1
  0
VISUALSTYLE
  5
2E
102
{ACAD_REACTORS
330
29
102
}
330
29
100
AcDbVisualStyle
  2
Basic
 70
     7
177
     3
291
     1
 70
    58
 90
        1
176
     1
 90
        0
176
     1
 90
        1
176
     1
 90
        0
176
     1
 40
0.6
176
     1
 40
30.0
176
     1
 62
     7
420
 16777215
176
     1
 90
        0
176
     1
 90
        4
176
     1
 62
     7
176
     1
 62
   257
176
     1
 90
        1
176
     1
 90
        1
176
     1
 40
1.0
176
     1
 90
        8
176
     1
 62
     7
176
     1
 40
1.0
176
     1
 90
        1
176
     1
 90
        6
176
     1
 90
        2
176
     1
 62
     7
176
     1
 90
        5
176
     1
 90
        0
176
     1
 90
        0
176
     1
290
     0
176
     1
 90
        1
176
     1
 40
0.0
176
     1
 90
        0
176
     1
290
     0
176
     1
290
     1
176
     1
290
     1
176
     1
290
     0
176
     1
290
     0
176
     1
290
     0
176
     1
290
     0
176
     1
290
     0
176
     1
290
     0
176
     1
 90
       50
176
     1
 40
0.0
176
     1
 40
1.0
176
     1
 90
        0
176
     1
 62
    18
420
        0
176
     1
 90
       50
176
     1
 90
        3
176
     1
 62
     5
420
      255
176
     1
290
     0
176
     1
 90
       50
176
     1
 90
       50
176
     1
 90
       50
176
     1
290
     0
176
     1
 90
       50
176
     1
 62
   256
176
     0
 40
1.0
176
     0
 90
        2
176
     1
  1
strokes_ogs.tif
176
     1
290
     0
176
     1
 40
1.0
176
     1
 40
1.0
176
     1
  0
VISUALSTYLE
  5
35
102
{ACAD_REACTORS
330
29
102
}
330
29
100
AcDbVisualStyle
  2
Brighten
 70
    12
177
     3
291
     1
 70
    58
 90
        2
176
     1
 90
        2
176
     1
 90
        0
176
     1
 90
        0
176
     1
 40
0.6
176
     1
 40
30.0
176
     1
 62
     7
420
 16777215
176
     1
 90
        1
176
     1
 90
        4
176
     1
 62
     7
176
     1
 62
   257
176
     1
 90
        1
176
     1
 90
        1
176
     1
 40
1.0
176
     1
 90
        8
176
     1
 62
     7
176
     1
 40
1.0
176
     1
 90
        1
176
     1
 90
        6
176
     1
 90
        2
176
     1
 62
     7
176
     1
 90
        5
176
     1
 90
        0
176
     1
 90
        0
176
     1
290
     0
176
     1
 90
        1
176
     1
 40
50.0
176
     1
 90
        0
176
     1
290
     0
176
     1
290
     1
176
     1
290
     1
176
     1
290
     0
176
     1
290
     0
176
     1
290
     0
176
     1
290
     0
176
     1
290
     0
176
     1
290
     0
176
     1
 90
       50
176
     1
 40
0.0
176
     1
 40
1.0
176
     1
 90
        0
176
     1
 62
    18
420
        0
176
     1
 90
       50
176
     1
 90
        3
176
     1
 62
     5
420
      255
176
     1
290
     0
176
     1
 90
       50
176
     1
 90
       50
176
     1
 90
       50
176
     1
290
     0
176
     1
 90
       50
176
     1
 62
   256
176
     0
 40
1.0
176
     0
 90
        2
176
     1
  1
strokes_ogs.tif
176
     1
290
     0
176
     1
 40
1.0
176
     1
 40
1.0
176
     1
  0
VISUALSTYLE
  5
39
102
{ACAD_REACTORS
330
29
102
}
330
29
100
AcDbVisualStyle
  2
ColorChange
 70
    16
177
     3
291
     1
 70
    58
 90
        2
176
     1
 90
        2
176
     1
 90
        3
176
     1
 90
        0
176
     1
 40
0.6
176
     1
 40
30.0
176
     1
 62
     8
420
  8421504
176
     1
 90
        1
176
     1
 90
        4
176
     1
 62
     7
176
     1
 62
   257
176
     1
 90
        1
176
     1
 90
        1
176
     1
 40
1.0
176
     1
 90
        8
176
     1
 62
     8
420
  8421504
176
     1
 40
1.0
176
     1
 90
        1
176
     1
 90
        6
176
     1
 90
        2
176
     1
 62
     7
176
     1
 90
        5
176
     1
 90
        0
176
     1
 90
        0
176
     1
290
     0
176
     1
 90
        1
176
     1
 40
0.0
176
     1
 90
        0
176
     1
290
     0
176
     1
290
     1
176
     1
290
     1
176
     1
290
     0
176
     1
290
     0
176
     1
290
     0
176
     1
290
     0
176
     1
290
     0
176
     1
290
     0
176
     1
 90
       50
176
     1
 40
0.0
176
     1
 40
1.0
176
     1
 90
        0
176
     1
 62
    18
420
        0
176
     1
 90
       50
176
     1
 90
        3
176
     1
 62
     5
420
      255
176
     1
290
     0
176
     1
 90
       50
176
     1
 90
       50
176
     1
 90
       50
176
     1
290
     0
176
     1
 90
       50
176
     1
 62
   256
176
     0
 40
1.0
176
     0
 90
        2
176
     1
  1
strokes_ogs.tif
176
     1
290
     0
176
     1
 40
1.0
176
     1
 40
1.0
176
     1
  0
VISUALSTYLE
  5
32
102
{ACAD_REACTORS
330
29
102
}
330
29
100
AcDbVisualStyle
  2
Conceptual
 70
     9
177
     3
291
     0
 70
    58
 90
        3
176
     1
 90
        2
176
     1
 90
        0
176
     1
 90
        0
176
     1
 40
0.6
176
     1
 40
30.0
176
     1
 62
     7
420
 16777215
176
     1
 90
        2
176
     1
 90
        2
176
     1
 62
     7
176
     1
 62
   257
176
     1
 90
        1
176
     1
 90
        1
176
     1
 40
179.0
176
     1
 90
        8
176
     1
 62
     7
176
     1
 40
1.0
176
     1
 90
        1
176
     1
 90
        6
176
     1
 90
        2
176
     1
 62
     7
176
     1
 90
        3
176
     1
 90
        0
176
     1
 90
        0
176
     1
290
     0
176
     1
 90
        1
176
     1
 40
0.0
176
     1
 90
        0
176
     1
290
     0
176
     1
290
     1
176
     1
290
     1
176
     1
290
     0
176
     1
290
     0
176
     1
290
     0
176
     1
290
     0
176
     1
290
     0
176
     1
290
     0
176
     1
 90
       50
176
     1
 40
0.0
176
     1
 40
1.0
176
     1
 90
        0
176
     1
 62
    18
420
        0
176
     1
 90
       50
176
     1
 90
        3
176
     1
 62
     5
420
      255
176
     1
290
     0
176
     1
 90
       50
176
     1
 90
       50
176
     1
 90
       50
176
     1
290
     0
176
     1
 90
       50
176
     1
 62
   256
176
     0
 40
1.0
176
     0
 90
        2
176
     1
  1
strokes_ogs.tif
176
     1
290
     0
176
     1
 40
1.0
176
     1
 40
1.0
176
     1
  0
VISUALSTYLE
  5
34
102
{ACAD_REACTORS
330
29
102
}
330
29
100
AcDbVisualStyle
  2
Dim
 70
    11
177
     3
291
     1
 70
    58
 90
        2
176
     1
 90
        2
176
     1
 90
        0
176
     1
 90
        0
176
     1
 40
0.6
176
     1
 40
30.0
176
     1
 62
     7
420
 16777215
176
     1
 90
        1
176
     1
 90
        4
176
     1
 62
     7
176
     1
 62
   257
176
     1
 90
        1
176
     1
 90
        1
176
     1
 40
1.0
176
     1
 90
        8
176
     1
 62
     7
176
     1
 40
1.0
176
     1
 90
        1
176
     1
 90
        6
176
     1
 90
        2
176
     1
 62
     7
176
     1
 90
        5
176
     1
 90
        0
176
     1
 90
        0
176
     1
290
     0
176
     1
 90
        1
176
     1
 40
-50.0
176
     1
 90
        0
176
     1
290
     0
176
     1
290
     1
176
     1
290
     1
176
     1
290
     0
176
     1
290
     0
176
     1
290
     0
176
     1
290
     0
176
     1
290
     0
176
     1
290
     0
176
     1
 90
       50
176
     1
 40
0.0
176
     1
 40
1.0
176
     1
 90
        0
176
     1
 62
    18
420
        0
176
     1
 90
       50
176
     1
 90
        3
176
     1
 62
     5
420
      255
176
     1
290
     0
176
     1
 90
       50
176
     1
 90
       50
176
     1
 90
       50
176
     1
290
     0
176
     1
 90
       50
176
     1
 62
   256
176
     0
 40
1.0
176
     0
 90
        2
176
     1
  1
strokes_ogs.tif
176
     1
290
     0
176
     1
 40
1.0
176
     1
 40
1.0
176
     1
  0
VISUALSTYLE
  5
41
102
{ACAD_REACTORS
330
29
102
}
330
29
100
AcDbVisualStyle
  2
EdgeColorOff
 70
    22
177
     3
291
     1
 70
    58
 90
        2
176
     0
 90
        2
176
     0
 90
        0
176
     0
 90
        0
176
     0
 40
0.6
176
     0
 40
30.0
176
     0
 62
     7
420
 16777215
176
     0
 90
        1
176
     0
 90
        4
176
     0
 62
     7
176
     0
 62
   257
176
     0
 90
        1
176
     0
 90
        1
176
     0
 40
1.0
176
     0
 90
        8
176
     2
 62
     7
176
     0
 40
1.0
176
     0
 90
        1
176
     0
 90
        6
176
     0
 90
        2
176
     0
 62
     7
176
     0
 90
        5
176
     0
 90
        0
176
     0
 90
        0
176
     0
290
     0
176
     0
 90
        1
176
     0
 40
0.0
176
     0
 90
        0
176
     0
290
     0
176
     0
290
     1
176
     0
290
     1
176
     0
290
     0
176
     0
290
     0
176
     0
290
     0
176
     0
290
     0
176
     0
290
     0
176
     0
290
     0
176
     0
 90
       50
176
     0
 40
0.0
176
     0
 40
1.0
176
     0
 90
        0
176
     0
 62
    18
420
        0
176
     0
 90
       50
176
     0
 90
        3
176
     0
 62
     5
420
      255
176
     0
290
     0
176
     0
 90
       50
176
     0
 90
       50
176
     0
 90
       50
176
     0
290
     0
176
     0
 90
       50
176
     0
 62
   256
176
     0
 40
1.0
176
     0
 90
        2
176
     0
  1
strokes_ogs.tif
176
     0
290
     0
176
     0
 40
1.0
176
     0
 40
1.0
176
     0
  0
VISUALSTYLE
  5
38
102
{ACAD_REACTORS
330
29
102
}
330
29
100
AcDbVisualStyle
  2
Facepattern
 70
    15
177
     3
291
     1
 70
    58
 90
        2
176
     1
 90
        2
176
     1
 90
        0
176
     1
 90
        0
176
     1
 40
0.6
176
     1
 40
30.0
176
     1
 62
     7
420
 16777215
176
     1
 90
        1
176
     1
 90
        4
176
     1
 62
     7
176
     1
 62
   257
176
     1
 90
        1
176
     1
 90
        1
176
     1
 40
1.0
176
     1
 90
        8
176
     1
 62
     7
176
     1
 40
1.0
176
     1
 90
        1
176
     1
 90
        6
176
     1
 90
        2
176
     1
 62
     7
176
     1
 90
        5
176
     1
 90
        0
176
     1
 90
        0
176
     1
290
     0
176
     1
 90
        1
176
     1
 40
0.0
176
     1
 90
        0
176
     1
290
     0
176
     1
290
     1
176
     1
290
     1
176
     1
290
     0
176
     1
290
     0
176
     1
290
     0
176
     1
290
     0
176
     1
290
     0
176
     1
290
     0
176
     1
 90
       50
176
     1
 40
0.0
176
     1
 40
1.0
176
     1
 90
        0
176
     1
 62
    18
420
        0
176
     1
 90
       50
176
     1
 90
        3
176
     1
 62
     5
420
      255
176
     1
290
     0
176
     1
 90
       50
176
     1
 90
       50
176
     1
 90
       50
176
     1
290
     0
176
     1
 90
       50
176
     1
 62
   256
176
     0
 40
1.0
176
     0
 90
        2
176
     1
  1
strokes_ogs.tif
176
     1
290
     0
176
     1
 40
1.0
176
     1
 40
1.0
176
     1
  0
VISUALSTYLE
  5
2A
102
{ACAD_REACTORS
330
29
102
}
330
29
100
AcDbVisualStyle
  2
Flat
 70
     0
177
     3
291
     1
 70
    58
 90
        2
176
     1
 90
        1
176
     1
 90
        1
176
     1
 90
        2
176
     1
 40
0.6
176
     1
 40
30.0
176
     1
 62
     7
420
 16777215
176
     1
 90
        0
176
     1
 90
        0
176
     1
 62
     7
176
     1
 62
   257
176
     1
 90
        1
176
     1
 90
        1
176
     1
 40
1.0
176
     1
 90
        8
176
     1
 62
     7
176
     1
 40
1.0
176
     1
 90
        1
176
     1
 90
        6
176
     1
 90
        2
176
     1
 62
     7
176
     1
 90
        5
176
     1
 90
        0
176
     1
 90
        0
176
     1
290
     0
176
     1
 90
       13
176
     1
 40
0.0
176
     1
 90
        0
176
     1
290
     0
176
     1
290
     1
176
     1
290
     1
176
     1
290
     0
176
     1
290
     0
176
     1
290
     0
176
     1
290
     0
176
     1
290
     0
176
     1
290
     0
176
     1
 90
       50
176
     1
 40
0.0
176
     1
 40
1.0
176
     1
 90
        0
176
     1
 62
    18
420
        0
176
     1
 90
       50
176
     1
 90
        3
176
     1
 62
     5
420
      255
176
     1
290
     0
176
     1
 90
       50
176
     1
 90
       50
176
     1
 90
       50
176
     1
290
     0
176
     1
 90
       50
176
     1
 62
   256
176
     0
 40
1.0
176
     0
 90
        2
176
     1
  1
strokes_ogs.tif
176
     1
290
     0
176
     1
 40
1.0
176
     1
 40
1.0
176
     1
  0
VISUALSTYLE
  5
2B
102
{ACAD_REACTORS
330
29
102
}
330
29
100
AcDbVisualStyle
  2
FlatWithEdges
 70
     1
177
     3
291
     1
 70
    58
 90
        2
176
     1
 90
        1
176
     1
 90
        1
176
     1
 90
        2
176
     1
 40
0.6
176
     1
 40
30.0
176
     1
 62
     7
420
 16777215
176
     1
 90
        1
176
     1
 90
        0
176
     1
 62
     7
176
     1
 62
   257
176
     1
 90
        1
176
     1
 90
        1
176
     1
 40
1.0
176
     1
 90
        0
176
     1
 62
   257
176
     1
 40
1.0
176
     1
 90
        1
176
     1
 90
        6
176
     1
 90
        2
176
     1
 62
     7
176
     1
 90
        5
176
     1
 90
        0
176
     1
 90
        0
176
     1
290
     0
176
     1
 90
       13
176
     1
 40
0.0
176
     1
 90
        0
176
     1
290
     0
176
     1
290
     1
176
     1
290
     1
176
     1
290
     0
176
     1
290
     0
176
     1
290
     0
176
     1
290
     0
176
     1
290
     0
176
     1
290
     0
176
     1
 90
       50
176
     1
 40
0.0
176
     1
 40
1.0
176
     1
 90
        0
176
     1
 62
    18
420
        0
176
     1
 90
       50
176
     1
 90
        3
176
     1
 62
     5
420
      255
176
     1
290
     0
176
     1
 90
       50
176
     1
 90
       50
176
     1
 90
       50
176
     1
290
     0
176
     1
 90
       50
176
     1
 62
   256
176
     0
 40
1.0
176
     0
 90
        2
176
     1
  1
strokes_ogs.tif
176
     1
290
     0
176
     1
 40
1.0
176
     1
 40
1.0
176
     1
  0
VISUALSTYLE
  5
2C
102
{ACAD_REACTORS
330
29
102
}
330
29
100
AcDbVisualStyle
  2
Gouraud
 70
     2
177
     3
291
     1
 70
    58
 90
        2
176
     1
 90
        2
176
     1
 90
        1
176
     1
 90
        2
176
     1
 40
0.6
176
     1
 40
30.0
176
     1
 62
     7
420
 16777215
176
     1
 90
        0
176
     1
 90
        0
176
     1
 62
     7
176
     1
 62
   257
176
     1
 90
        1
176
     1
 90
        1
176
     1
 40
1.0
176
     1
 90
        0
176
     1
 62
     7
176
     1
 40
1.0
176
     1
 90
        1
176
     1
 90
        6
176
     1
 90
        2
176
     1
 62
     7
176
     1
 90
        5
176
     1
 90
        0
176
     1
 90
        0
176
     1
290
     0
176
     1
 90
       13
176
     1
 40
0.0
176
     1
 90
        0
176
     1
290
     0
176
     1
290
     1
176
     1
290
     1
176
     1
290
     0
176
     1
290
     0
176
     1
290
     0
176
     1
290
     0
176
     1
290
     0
176
     1
290
     0
176
     1
 90
       50
176
     1
 40
0.0
176
     1
 40
1.0
176
     1
 90
        0
176
     1
 62
    18
420
        0
176
     1
 90
       50
176
     1
 90
        3
176
     1
 62
     5
420
      255
176
     1
290
     0
176
     1
 90
       50
176
     1
 90
       50
176
     1
 90
       50
176
     1
290
     0
176
     1
 90
       50
176
     1
 62
   256
176
     0
 40
1.0
176
     0
 90
        2
176
     1
  1
strokes_ogs.tif
176
     1
290
     0
176
     1
 40
1.0
176
     1
 40
1.0
176
     1
  0
VISUALSTYLE
  5
2D
102
{ACAD_REACTORS
330
29
102
}
330
29
100
AcDbVisualStyle
  2
GouraudWithEdges
 70
     3
177
     3
291
     1
 70
    58
 90
        2
176
     1
 90
        2
176
     1
 90
        1
176
     1
 90
        2
176
     1
 40
0.6
176
     1
 40
30.0
176
     1
 62
     7
420
 16777215
176
     1
 90
        1
176
     1
 90
        0
176
     1
 62
     7
176
     1
 62
   257
176
     1
 90
        1
176
     1
 90
        1
176
     1
 40
1.0
176
     1
 90
        0
176
     1
 62
   257
176
     1
 40
1.0
176
     1
 90
        1
176
     1
 90
        6
176
     1
 90
        2
176
     1
 62
     7
176
     1
 90
        5
176
     1
 90
        0
176
     1
 90
        0
176
     1
290
     0
176
     1
 90
       13
176
     1
 40
0.0
176
     1
 90
        0
176
     1
290
     0
176
     1
290
     1
176
     1
290
     1
176
     1
290
     0
176
     1
290
     0
176
     1
290
     0
176
     1
290
     0
176
     1
290
     0
176
     1
290
     0
176
     1
 90
       50
176
     1
 40
0.0
176
     1
 40
1.0
176
     1
 90
        0
176
     1
 62
    18
420
        0
176
     1
 90
       50
176
     1
 90
        3
176
     1
 62
     5
420
      255
176
     1
290
     0
176
     1
 90
       50
176
     1
 90
       50
176
     1
 90
       50
176
     1
290
     0
176
     1
 90
       50
176
     1
 62
   256
176
     0
 40
1.0
176
     0
 90
        2
176
     1
  1
strokes_ogs.tif
176
     1
290
     0
176
     1
 40
1.0
176
     1
 40
1.0
176
     1
  0
VISUALSTYLE
  5
31
102
{ACAD_REACTORS
330
29
102
}
330
29
100
AcDbVisualStyle
  2
Hidden
 70
     6
177
     3
291
     0
 70
    58
 90
        1
176
     1
 90
        2
176
     1
 90
        2
176
     1
 90
        0
176
     1
 40
0.6
176
     1
 40
30.0
176
     1
 62
     7
420
 16777215
176
     1
 90
        2
176
     1
 90
        2
176
     1
 62
     7
176
     1
 62
   257
176
     1
 90
        2
176
     1
 90
        1
176
     1
 40
40.0
176
     1
 90
        0
176
     1
 62
   257
176
     1
 40
1.0
176
     1
 90
        1
176
     1
 90
        6
176
     1
 90
        2
176
     1
 62
     7
176
     1
 90
        3
176
     1
 90
        0
176
     1
 90
        0
176
     1
290
     0
176
     1
 90
        1
176
     1
 40
0.0
176
     1
 90
        0
176
     1
290
     0
176
     1
290
     1
176
     1
290
     1
176
     1
290
     0
176
     1
290
     0
176
     1
290
     0
176
     1
290
     0
176
     1
290
     0
176
     1
290
     0
176
     1
 90
       50
176
     1
 40
0.0
176
     1
 40
1.0
176
     1
 90
        0
176
     1
 62
    18
420
        0
176
     1
 90
       50
176
     1
 90
        3
176
     1
 62
     5
420
      255
176
     1
290
     0
176
     1
 90
       50
176
     1
 90
       50
176
     1
 90
       50
176
     1
290
     0
176
     1
 90
       50
176
     1
 62
   256
176
     0
 40
1.0
176
     0
 90
        2
176
     1
  1
strokes_ogs.tif
176
     1
290
     0
176
     1
 40
1.0
176
     1
 40
1.0
176
     1
  0
VISUALSTYLE
  5
3F
102
{ACAD_REACTORS
330
29
102
}
330
29
100
AcDbVisualStyle
  2
JitterOff
 70
    20
177
     3
291
     1
 70
    58
 90
        2
176
     0
 90
        2
176
     0
 90
        0
176
     0
 90
        0
176
     0
 40
0.6
176
     0
 40
30.0
176
     0
 62
     7
420
 16777215
176
     0
 90
        1
176
     0
 90
        4
176
     0
 62
     7
176
     0
 62
   257
176
     0
 90
        1
176
     0
 90
        1
176
     0
 40
1.0
176
     0
 90
       10
176
     2
 62
     7
176
     0
 40
1.0
176
     0
 90
        1
176
     0
 90
        6
176
     0
 90
        2
176
     0
 62
     7
176
     0
 90
        5
176
     0
 90
        0
176
     0
 90
        0
176
     0
290
     0
176
     0
 90
        1
176
     0
 40
0.0
176
     0
 90
        0
176
     0
290
     0
176
     0
290
     1
176
     0
290
     1
176
     0
290
     0
176
     0
290
     0
176
     0
290
     0
176
     0
290
     0
176
     0
290
     0
176
     0
290
     0
176
     0
 90
       50
176
     0
 40
0.0
176
     0
 40
1.0
176
     0
 90
        0
176
     0
 62
    18
420
        0
176
     0
 90
       50
176
     0
 90
        3
176
     0
 62
     5
420
      255
176
     0
290
     0
176
     0
 90
       50
176
     0
 90
       50
176
     0
 90
       50
176
     0
290
     0
176
     0
 90
       50
176
     0
 62
   256
176
     0
 40
1.0
176
     0
 90
        2
176
     0
  1
strokes_ogs.tif
176
     0
290
     0
176
     0
 40
1.0
176
     0
 40
1.0
176
     0
  0
VISUALSTYLE
  5
37
102
{ACAD_REACTORS
330
29
102
}
330
29
100
AcDbVisualStyle
  2
Linepattern
 70
    14
177
     3
291
     1
 70
    58
 90
        2
176
     1
 90
        2
176
     1
 90
        0
176
     1
 90
        0
176
     1
 40
0.6
176
     1
 40
30.0
176
     1
 62
     7
420
 16777215
176
     1
 90
        1
176
     1
 90
        4
176
     1
 62
     7
176
     1
 62
   257
176
     1
 90
        7
176
     1
 90
        7
176
     1
 40
1.0
176
     1
 90
        8
176
     1
 62
     7
176
     1
 40
1.0
176
     1
 90
        1
176
     1
 90
        6
176
     1
 90
        2
176
     1
 62
     7
176
     1
 90
        5
176
     1
 90
        0
176
     1
 90
        0
176
     1
290
     0
176
     1
 90
        1
176
     1
 40
0.0
176
     1
 90
        0
176
     1
290
     0
176
     1
290
     1
176
     1
290
     1
176
     1
290
     0
176
     1
290
     0
176
     1
290
     0
176
     1
290
     0
176
     1
290
     0
176
     1
290
     0
176
     1
 90
       50
176
     1
 40
0.0
176
     1
 40
1.0
176
     1
 90
        0
176
     1
 62
    18
420
        0
176
     1
 90
       50
176
     1
 90
        3
176
     1
 62
     5
420
      255
176
     1
290
     0
176
     1
 90
       50
176
     1
 90
       50
176
     1
 90
       50
176
     1
290
     0
176
     1
 90
       50
176
     1
 62
   256
176
     0
 40
1.0
176
     0
 90
        2
176
     1
  1
strokes_ogs.tif
176
     1
290
     0
176
     1
 40
1.0
176
     1
 40
1.0
176
     1
  0
VISUALSTYLE
  5
40
102
{ACAD_REACTORS
330
29
102
}
330
29
100
AcDbVisualStyle
  2
OverhangOff
 70
    21
177
     3
291
     1
 70
    58
 90
        2
176
     0
 90
        2
176
     0
 90
        0
176
     0
 90
        0
176
     0
 40
0.6
176
     0
 40
30.0
176
     0
 62
     7
420
 16777215
176
     0
 90
        1
176
     0
 90
        4
176
     0
 62
     7
176
     0
 62
   257
176
     0
 90
        1
176
     0
 90
        1
176
     0
 40
1.0
176
     0
 90
        9
176
     2
 62
     7
176
     0
 40
1.0
176
     0
 90
        1
176
     0
 90
        6
176
     0
 90
        2
176
     0
 62
     7
176
     0
 90
        5
176
     0
 90
        0
176
     0
 90
        0
176
     0
290
     0
176
     0
 90
        1
176
     0
 40
0.0
176
     0
 90
        0
176
     0
290
     0
176
     0
290
     1
176
     0
290
     1
176
     0
290
     0
176
     0
290
     0
176
     0
290
     0
176
     0
290
     0
176
     0
290
     0
176
     0
290
     0
176
     0
 90
       50
176
     0
 40
0.0
176
     0
 40
1.0
176
     0
 90
        0
176
     0
 62
    18
420
        0
176
     0
 90
       50
176
     0
 90
        3
176
     0
 62
     5
420
      255
176
     0
290
     0
176
     0
 90
       50
176
     0
 90
       50
176
     0
 90
       50
176
     0
290
     0
176
     0
 90
       50
176
     0
 62
   256
176
     0
 40
1.0
176
     0
 90
        2
176
     0
  1
strokes_ogs.tif
176
     0
290
     0
176
     0
 40
1.0
176
     0
 40
1.0
176
     0
  0
VISUALSTYLE
  5
33
102
{ACAD_REACTORS
330
29
102
}
330
29
100
AcDbVisualStyle
  2
Realistic
 70
     8
177
     3
291
     0
 70
    58
 90
        2
176
     1
 90
        3
176
     1
 90
        0
176
     1
 90
        2
176
     1
 40
0.6
176
     1
 40
30.0
176
     1
 62
     7
420
 16777215
176
     1
 90
        0
176
     1
 90
        0
176
     1
 62
     7
176
     1
 62
   257
176
     1
 90
        1
176
     1
 90
        1
176
     1
 40
1.0
176
     1
 90
        8
176
     1
 62
   257
176
     1
 40
1.0
176
     1
 90
        1
176
     1
 90
        6
176
     1
 90
        2
176
     1
 62
     7
176
     1
 90
        3
176
     1
 90
        0
176
     1
 90
        0
176
     1
290
     0
176
     1
 90
       13
176
     1
 40
0.0
176
     1
 90
        0
176
     1
290
     0
176
     1
290
     1
176
     1
290
     1
176
     1
290
     0
176
     1
290
     0
176
     1
290
     0
176
     1
290
     0
176
     1
290
     0
176
     1
290
     0
176
     1
 90
       50
176
     1
 40
0.0
176
     1
 40
1.0
176
     1
 90
        0
176
     1
 62
    18
420
        0
176
     1
 90
       50
176
     1
 90
        3
176
     1
 62
     5
420
      255
176
     1
290
     0
176
     1
 90
       50
176
     1
 90
       50
176
     1
 90
       50
176
     1
290
     0
176
     1
 90
       50
176
     1
 62
   256
176
     0
 40
1.0
176
     0
 90
        2
176
     1
  1
strokes_ogs.tif
176
     1
290
     0
176
     1
 40
1.0
176
     1
 40
1.0
176
     1
  0
VISUALSTYLE
  5
3E
102
{ACAD_REACTORS
330
29
102
}
330
29
100
AcDbVisualStyle
  2
Shaded
 70
    27
177
     3
291
     0
 70
    58
 90
        2
176
     1
 90
        2
176
     1
 90
        1
176
     1
 90
        2
176
     1
 40
0.6
176
     1
 40
30.0
176
     1
 62
     7
420
 16777215
176
     1
 90
        0
176
     1
 90
        4
176
     1
 62
     7
176
     1
 62
   257
176
     1
 90
        1
176
     1
 90
        1
176
     1
 40
1.0
176
     1
 90
        8
176
     1
 62
   257
176
     1
 40
1.0
176
     1
 90
        1
176
     1
 90
        6
176
     1
 90
        2
176
     1
 62
     8
420
  7895160
176
     1
 90
        3
176
     1
 90
        0
176
     1
 90
        0
176
     1
290
     0
176
     1
 90
        5
176
     1
 40
0.0
176
     1
 90
        0
176
     1
290
     0
176
     1
290
     1
176
     1
290
     1
176
     1
290
     0
176
     1
290
     0
176
     1
290
     0
176
     1
290
     0
176
     1
290
     0
176
     1
290
     0
176
     1
 90
       50
176
     1
 40
0.0
176
     1
 40
1.0
176
     1
 90
        0
176
     1
 62
    18
420
        0
176
     1
 90
       50
176
     1
 90
        3
176
     1
 62
     5
420
      255
176
     1
290
     0
176
     1
 90
       50
176
     1
 90
       50
176
     1
 90
       50
176
     1
290
     0
176
     1
 90
       50
176
     1
 62
   256
176
     0
 40
1.0
176
     0
 90
        2
176
     1
  1
strokes_ogs.tif
176
     1
290
     0
176
     1
 40
1.0
176
     1
 40
1.0
176
     1
  0
VISUALSTYLE
  5
3D
102
{ACAD_REACTORS
330
29
102
}
330
29
100
AcDbVisualStyle
  2
Shaded with edges
 70
    26
177
     3
291
     0
 70
    58
 90
        2
176
     1
 90
        2
176
     1
 90
        1
176
     1
 90
        2
176
     1
 40
0.6
176
     1
 40
30.0
176
     1
 62
     7
420
 16777215
176
     1
 90
        1
176
     1
 90
       10
176
     1
 62
     7
176
     1
 62
   257
176
     1
 90
        2
176
     1
 90
        1
176
     1
 40
1.0
176
     1
 90
        8
176
     1
 62
   257
176
     1
 40
1.0
176
     1
 90
        1
176
     1
 90
        6
176
     1
 90
        2
176
     1
 62
     7
176
     1
 90
        3
176
     1
 90
        0
176
     1
 90
        0
176
     1
290
     0
176
     1
 90
        5
176
     1
 40
0.0
176
     1
 90
        0
176
     1
290
     0
176
     1
290
     1
176
     1
290
     1
176
     1
290
     0
176
     1
290
     0
176
     1
290
     0
176
     1
290
     0
176
     1
290
     0
176
     1
290
     0
176
     1
 90
       50
176
     1
 40
0.0
176
     1
 40
1.0
176
     1
 90
        0
176
     1
 62
    18
420
        0
176
     1
 90
       50
176
     1
 90
        3
176
     1
 62
     5
420
      255
176
     1
290
     0
176
     1
 90
       50
176
     1
 90
       50
176
     1
 90
       50
176
     1
290
     0
176
     1
 90
       50
176
     1
 62
   256
176
     0
 40
1.0
176
     0
 90
        2
176
     1
  1
strokes_ogs.tif
176
     1
290
     0
176
     1
 40
1.0
176
     1
 40
1.0
176
     1
  0
VISUALSTYLE
  5
3A
102
{ACAD_REACTORS
330
29
102
}
330
29
100
AcDbVisualStyle
  2
Shades of Gray
 70
    23
177
     3
291
     0
 70
    58
 90
        2
176
     1
 90
        2
176
     1
 90
        3
176
     1
 90
        0
176
     1
 40
0.6
176
     1
 40
30.0
176
     1
 62
     7
420
 16777215
176
     1
 90
        2
176
     1
 90
        2
176
     1
 62
     7
176
     1
 62
     7
176
     1
 90
        1
176
     1
 90
        1
176
     1
 40
40.0
176
     1
 90
        8
176
     1
 62
     7
176
     1
 40
1.0
176
     1
 90
        1
176
     1
 90
        6
176
     1
 90
        2
176
     1
 62
     7
176
     1
 90
        3
176
     1
 90
        0
176
     1
 90
        0
176
     1
290
     0
176
     1
 90
        1
176
     1
 40
0.0
176
     1
 90
        0
176
     1
290
     0
176
     1
290
     1
176
     1
290
     1
176
     1
290
     0
176
     1
290
     0
176
     1
290
     0
176
     1
290
     0
176
     1
290
     0
176
     1
290
     0
176
     1
 90
       50
176
     1
 40
0.0
176
     1
 40
1.0
176
     1
 90
        0
176
     1
 62
    18
420
        0
176
     1
 90
       50
176
     1
 90
        3
176
     1
 62
     5
420
      255
176
     1
290
     0
176
     1
 90
       50
176
     1
 90
       50
176
     1
 90
       50
176
     1
290
     0
176
     1
 90
       50
176
     1
 62
   256
176
     0
 40
1.0
176
     0
 90
        2
176
     1
  1
strokes_ogs.tif
176
     1
290
     0
176
     1
 40
1.0
176
     1
 40
1.0
176
     1
  0
VISUALSTYLE
  5
3B
102
{ACAD_REACTORS
330
29
102
}
330
29
100
AcDbVisualStyle
  2
Sketchy
 70
    24
177
     3
291
     0
 70
    58
 90
        1
176
     1
 90
        2
176
     1
 90
        2
176
     1
 90
        0
176
     1
 40
0.6
176
     1
 40
30.0
176
     1
 62
     7
420
 16777215
176
     1
 90
        2
176
     1
 90
        2
176
     1
 62
     7
176
     1
 62
     7
176
     1
 90
        1
176
     1
 90
        1
176
     1
 40
40.0
176
     1
 90
       11
176
     1
 62
     7
176
     1
 40
1.0
176
     1
 90
        1
176
     1
 90
        6
176
     1
 90
        2
176
     1
 62
     7
176
     1
 90
        6
176
     1
 90
        0
176
     1
 90
        0
176
     1
290
     0
176
     1
 90
        1
176
     1
 40
0.0
176
     1
 90
        0
176
     1
290
     0
176
     1
290
     1
176
     1
290
     1
176
     1
290
     0
176
     1
290
     0
176
     1
290
     0
176
     1
290
     0
176
     1
290
     0
176
     1
290
     0
176
     1
 90
       50
176
     1
 40
0.0
176
     1
 40
1.0
176
     1
 90
        0
176
     1
 62
    18
420
        0
176
     1
 90
       50
176
     1
 90
        3
176
     1
 62
     5
420
      255
176
     1
290
     0
176
     1
 90
       50
176
     1
 90
       50
176
     1
 90
       50
176
     1
290
     0
176
     1
 90
       50
176
     1
 62
   256
176
     0
 40
1.0
176
     0
 90
        2
176
     1
  1
strokes_ogs.tif
176
     1
290
     0
176
     1
 40
1.0
176
     1
 40
1.0
176
     1
  0
VISUALSTYLE
  5
36
102
{ACAD_REACTORS
330
29
102
}
330
29
100
AcDbVisualStyle
  2
Thicken
 70
    13
177
     3
291
     1
 70
    58
 90
        2
176
     1
 90
        2
176
     1
 90
        0
176
     1
 90
        0
176
     1
 40
0.6
176
     1
 40
30.0
176
     1
 62
     7
420
 16777215
176
     1
 90
        1
176
     1
 90
        4
176
     1
 62
     7
176
     1
 62
   257
176
     1
 90
        1
176
     1
 90
        1
176
     1
 40
1.0
176
     1
 90
       12
176
     1
 62
     7
176
     1
 40
1.0
176
     1
 90
        1
176
     1
 90
        6
176
     1
 90
        2
176
     1
 62
     7
176
     1
 90
        5
176
     1
 90
        0
176
     1
 90
        0
176
     1
290
     0
176
     1
 90
        1
176
     1
 40
0.0
176
     1
 90
        0
176
     1
290
     0
176
     1
290
     1
176
     1
290
     1
176
     1
290
     0
176
     1
290
     0
176
     1
290
     0
176
     1
290
     0
176
     1
290
     0
176
     1
290
     0
176
     1
 90
       50
176
     1
 40
0.0
176
     1
 40
1.0
176
     1
 90
        0
176
     1
 62
    18
420
        0
176
     1
 90
       50
176
     1
 90
        3
176
     1
 62
     5
420
      255
176
     1
290
     0
176
     1
 90
       50
176
     1
 90
       50
176
     1
 90
       50
176
     1
290
     0
176
     1
 90
       50
176
     1
 62
   256
176
     0
 40
1.0
176
     0
 90
        2
176
     1
  1
strokes_ogs.tif
176
     1
290
     0
176
     1
 40
1.0
176
     1
 40
1.0
176
     1
  0
VISUALSTYLE
  5
30
102
{ACAD_REACTORS
330
29
102
}
330
29
100
AcDbVisualStyle
  2
Wireframe
 70
     5
177
     3
291
     0
 70
    58
 90
        0
176
     1
 90
        2
176
     1
 90
        0
176
     1
 90
        0
176
     1
 40
0.6
176
     1
 40
30.0
176
     1
 62
     7
420
 16777215
176
     1
 90
        1
176
     1
 90
        4
176
     1
 62
     7
176
     1
 62
   257
176
     1
 90
        1
176
     1
 90
        1
176
     1
 40
1.0
176
     1
 90
        0
176
     1
 62
   257
176
     1
 40
1.0
176
     1
 90
        1
176
     1
 90
        6
176
     1
 90
        2
176
     1
 62
     7
176
     1
 90
        3
176
     1
 90
        0
176
     1
 90
        0
176
     1
290
     0
176
     1
 90
        1
176
     1
 40
0.0
176
     1
 90
        0
176
     1
290
     0
176
     1
290
     1
176
     1
290
     1
176
     1
290
     0
176
     1
290
     0
176
     1
290
     0
176
     1
290
     0
176
     1
290
     0
176
     1
290
     0
176
     1
 90
       50
176
     1
 40
0.0
176
     1
 40
1.0
176
     1
 90
        0
176
     1
 62
    18
420
        0
176
     1
 90
       50
176
     1
 90
        3
176
     1
 62
     5
420
      255
176
     1
290
     0
176
     1
 90
       50
176
     1
 90
       50
176
     1
 90
       50
176
     1
290
     0
176
     1
 90
       50
176
     1
 62
   256
176
     0
 40
1.0
176
     0
 90
        2
176
     1
  1
strokes_ogs.tif
176
     1
290
     0
176
     1
 40
1.0
176
     1
 40
1.0
176
     1
  0
VISUALSTYLE
  5
3C
102
{ACAD_REACTORS
330
29
102
}
330
29
100
AcDbVisualStyle
  2
X-Ray
 70
    25
177
     3
291
     0
 70
    58
 90
        2
176
     1
 90
        2
176
     1
 90
        1
176
     1
 90
        1
176
     1
 40
0.5
176
     1
 40
30.0
176
     1
 62
     7
420
 16777215
176
     1
 90
        1
176
     1
 90
        0
176
     1
 62
     7
176
     1
 62
   257
176
     1
 90
        1
176
     1
 90
        1
176
     1
 40
1.0
176
     1
 90
        8
176
     1
 62
     7
176
     1
 40
1.0
176
     1
 90
        1
176
     1
 90
        6
176
     1
 90
        2
176
     1
 62
     7
176
     1
 90
        3
176
     1
 90
        0
176
     1
 90
        0
176
     1
290
     0
176
     1
 90
       13
176
     1
 40
0.0
176
     1
 90
        0
176
     1
290
     0
176
     1
290
     1
176
     1
290
     1
176
     1
290
     0
176
     1
290
     0
176
     1
290
     0
176
     1
290
     0
176
     1
290
     0
176
     1
290
     0
176
     1
 90
       50
176
     1
 40
0.0
176
     1
 40
1.0
176
     1
 90
        0
176
     1
 62
    18
420
        0
176
     1
 90
       50
176
     1
 90
        3
176
     1
 62
     5
420
      255
176
     1
290
     0
176
     1
 90
       50
176
     1
 90
       50
176
     1
 90
       50
176
     1
290
     0
176
     1
 90
       50
176
     1
 62
   256
176
     0
 40
1.0
176
     0
 90
        2
176
     1
  1
strokes_ogs.tif
176
     1
290
     0
176
     1
 40
1.0
176
     1
 40
1.0
176
     1
  0
DICTIONARYVAR
  5
81
102
{ACAD_REACTORS
330
7C
102
}
330
7C
100
DictionaryVariables
280
     0
  1
1:1
  0
DICTIONARYVAR
  5
7E
102
{ACAD_REACTORS
330
7C
102
}
330
7C
100
DictionaryVariables
280
     0
  1
STANDARD
  0
DICTIONARYVAR
  5
7D
102
{ACAD_REACTORS
330
7C
102
}
330
7C
100
DictionaryVariables
280
     0
  1
STANDARD
  0
DICTIONARYVAR
  5
7F
102
{ACAD_REACTORS
330
7C
102
}
330
7C
100
DictionaryVariables
280
     0
  1
Imperial24
  0
DICTIONARYVAR
  5
80
102
{ACAD_REACTORS
330
7C
102
}
330
7C
100
DictionaryVariables
280
     0
  1
Imperial24
  0
XRECORD
  5
131
102
{ACAD_REACTORS
330
12D
102
}
330
12D
100
AcDbXrecord
280
     1
  1
BUILDING_ID
  1
Progetto per messa in tavola DXF, DWG
  1
FLOOR_ID
  1
694395
  0
XRECORD
  5
12F
102
{ACAD_REACTORS
330
12D
102
}
330
12D
100
AcDbXrecord
280
     1
  1
-2001160
  1
Apparecchi idraulici
  0
XRECORD
  5
130
102
{ACAD_REACTORS
330
12D
102
}
330
12D
100
AcDbXrecord
280
     1
  1
790271
  1
Body
  0
XRECORD
  5
12E
102
{ACAD_REACTORS
330
12D
102
}
330
12D
100
AcDbXrecord
280
     1
  1
859151
  1
Automatic flow rate regulator valve_Caleffi_121 DN15 : 1/2''
  0
DICTIONARY
  5
1A
330
19
100
AcDbDictionary
280
     1
281
     1
  3
BUMPTILE
360
1C
  3
DIFFUSETILE
360
1B
  3
OPACITYTILE
360
1F
  3
REFLECTIONTILE
360
1E
  3
REFRACTIONTILE
360
20
  3
SPECULARTILE
360
1D
  0
DICTIONARY
  5
12
330
11
100
AcDbDictionary
280
     1
281
     1
  3
BUMPTILE
360
14
  3
DIFFUSETILE
360
13
  3
OPACITYTILE
360
17
  3
REFLECTIONTILE
360
16
  3
REFRACTIONTILE
360
18
  3
SPECULARTILE
360
15
  0
DICTIONARY
  5
22
330
21
100
AcDbDictionary
280
     1
281
     1
  3
BUMPTILE
360
24
  3
DIFFUSETILE
360
23
  3
OPACITYTILE
360
27
  3
REFLECTIONTILE
360
26
  3
REFRACTIONTILE
360
28
  3
SPECULARTILE
360
25
  0
DICTIONARY
  5
134
330
65
100
AcDbDictionary
280
     1
281
     1
  3
ACAD_ROUNDTRIP_2008_TABLESTYLE_CELLSTYLEMAP
360
135
  0
XRECORD
  5
1C
102
{ACAD_REACTORS
330
1A
102
}
330
1A
100
AcDbXrecord
280
     1
270
     1
271
     1
  0
XRECORD
  5
1B
102
{ACAD_REACTORS
330
1A
102
}
330
1A
100
AcDbXrecord
280
     1
270
     1
271
     1
  0
XRECORD
  5
1F
102
{ACAD_REACTORS
330
1A
102
}
330
1A
100
AcDbXrecord
280
     1
270
     1
271
     1
  0
XRECORD
  5
1E
102
{ACAD_REACTORS
330
1A
102
}
330
1A
100
AcDbXrecord
280
     1
270
     1
271
     1
  0
XRECORD
  5
20
102
{ACAD_REACTORS
330
1A
102
}
330
1A
100
AcDbXrecord
280
     1
270
     1
271
     1
  0
XRECORD
  5
1D
102
{ACAD_REACTORS
330
1A
102
}
330
1A
100
AcDbXrecord
280
     1
270
     1
271
     1
  0
XRECORD
  5
14
102
{ACAD_REACTORS
330
12
102
}
330
12
100
AcDbXrecord
280
     1
270
     1
271
     1
  0
XRECORD
  5
13
102
{ACAD_REACTORS
330
12
102
}
330
12
100
AcDbXrecord
280
     1
270
     1
271
     1
  0
XRECORD
  5
17
102
{ACAD_REACTORS
330
12
102
}
330
12
100
AcDbXrecord
280
     1
270
     1
271
     1
  0
XRECORD
  5
16
102
{ACAD_REACTORS
330
12
102
}
330
12
100
AcDbXrecord
280
     1
270
     1
271
     1
  0
XRECORD
  5
18
102
{ACAD_REACTORS
330
12
102
}
330
12
100
AcDbXrecord
280
     1
270
     1
271
     1
  0
XRECORD
  5
15
102
{ACAD_REACTORS
330
12
102
}
330
12
100
AcDbXrecord
280
     1
270
     1
271
     1
  0
XRECORD
  5
24
102
{ACAD_REACTORS
330
22
102
}
330
22
100
AcDbXrecord
280
     1
270
     1
271
     1
  0
XRECORD
  5
23
102
{ACAD_REACTORS
330
22
102
}
330
22
100
AcDbXrecord
280
     1
270
     1
271
     1
  0
XRECORD
  5
27
102
{ACAD_REACTORS
330
22
102
}
330
22
100
AcDbXrecord
280
     1
270
     1
271
     1
  0
XRECORD
  5
26
102
{ACAD_REACTORS
330
22
102
}
330
22
100
AcDbXrecord
280
     1
270
     1
271
     1
  0
XRECORD
  5
28
102
{ACAD_REACTORS
330
22
102
}
330
22
100
AcDbXrecord
280
     1
270
     1
271
     1
  0
XRECORD
  5
25
102
{ACAD_REACTORS
330
22
102
}
330
22
100
AcDbXrecord
280
     1
270
     1
271
     1
  0
CELLSTYLEMAP
  5
135
102
{ACAD_REACTORS
330
134
102
}
330
134
100
AcDbCellStyleMap
 90
        3
300
CELLSTYLE
  1
TABLEFORMAT_BEGIN
 90
        5
170
     1
 91
        0
 92
    32768
 62
   257
 93
        1
300
CONTENTFORMAT
  1
CONTENTFORMAT_BEGIN
 90
        0
 91
        0
 92
      512
 93
        0
300

 40
0.0
140
1.0
 94
        5
 62
     0
340
55
144
0.25
309
CONTENTFORMAT_END
171
     0
 94
        0
309
TABLEFORMAT_END
  1
CELLSTYLE_BEGIN
 90
        1
 91
        1
300
_TITLE
309
CELLSTYLE_END
300
CELLSTYLE
  1
TABLEFORMAT_BEGIN
 90
        5
170
     1
 91
        0
 92
        0
 62
   257
 93
        1
300
CONTENTFORMAT
  1
CONTENTFORMAT_BEGIN
 90
        0
 91
        0
 92
      512
 93
        0
300

 40
0.0
140
1.0
 94
        5
 62
     0
340
55
144
0.18
309
CONTENTFORMAT_END
171
     0
 94
        0
309
TABLEFORMAT_END
  1
CELLSTYLE_BEGIN
 90
        2
 91
        1
300
_HEADER
309
CELLSTYLE_END
300
CELLSTYLE
  1
TABLEFORMAT_BEGIN
 90
        5
170
     1
 91
        0
 92
        0
 62
   257
 93
        1
300
CONTENTFORMAT
  1
CONTENTFORMAT_BEGIN
 90
        0
 91
        0
 92
      512
 93
        0
300

 40
0.0
140
1.0
 94
        2
 62
     0
340
55
144
0.18
309
CONTENTFORMAT_END
171
     0
 94
        0
309
TABLEFORMAT_END
  1
CELLSTYLE_BEGIN
 90
        3
 91
        2
300
_DATA
309
CELLSTYLE_END
  0
ENDSEC
  0
EOF
