  0
SECTION
  2
HEADER
  9
$ACADVER
  1
AC1027
  9
$ACADMAINTVER
 70
    20
  9
$DWGCODEPAGE
  3
ANSI_1252
  9
$REQUIREDVERSIONS
160
                 0
  9
$INSBASE
 10
0.0
 20
0.0
 30
0.0
  9
$EXTMIN
 10
906.6664074431873
 20
1833.845878730052
 30
-0.00000001
  9
$EXTMAX
 10
1127.014353953096
 20
2049.999999999996
 30
0.00000001
  9
$LIMMIN
 10
0.0
 20
0.0
  9
$LIMMAX
 10
12.0
 20
9.0
  9
$ORTHOMODE
 70
     0
  9
$REGENMODE
 70
     1
  9
$FILLMODE
 70
     1
  9
$QTEXTMODE
 70
     0
  9
$MIRRTEXT
 70
     0
  9
$LTSCALE
 40
1.0
  9
$ATTMODE
 70
     1
  9
$TEXTSIZE
 40
0.2
  9
$TRACEWID
 40
0.05
  9
$TEXTSTYLE
  7
Standard
  9
$CLAYER
  8
0
  9
$CELTYPE
  6
ByLayer
  9
$CECOLOR
 62
   256
  9
$CELTSCALE
 40
1.0
  9
$DISPSILH
 70
     0
  9
$DIMSCALE
 40
1.0
  9
$DIMASZ
 40
0.18
  9
$DIMEXO
 40
0.0625
  9
$DIMDLI
 40
0.38
  9
$DIMRND
 40
0.0
  9
$DIMDLE
 40
0.0
  9
$DIMEXE
 40
0.18
  9
$DIMTP
 40
0.0
  9
$DIMTM
 40
0.0
  9
$DIMTXT
 40
0.18
  9
$DIMCEN
 40
0.09
  9
$DIMTSZ
 40
0.0
  9
$DIMTOL
 70
     0
  9
$DIMLIM
 70
     0
  9
$DIMTIH
 70
     1
  9
$DIMTOH
 70
     1
  9
$DIMSE1
 70
     0
  9
$DIMSE2
 70
     0
  9
$DIMTAD
 70
     0
  9
$DIMZIN
 70
     0
  9
$DIMBLK
  1

  9
$DIMASO
 70
     1
  9
$DIMSHO
 70
     1
  9
$DIMPOST
  1

  9
$DIMAPOST
  1

  9
$DIMALT
 70
     0
  9
$DIMALTD
 70
     2
  9
$DIMALTF
 40
25.4
  9
$DIMLFAC
 40
1.0
  9
$DIMTOFL
 70
     0
  9
$DIMTVP
 40
0.0
  9
$DIMTIX
 70
     0
  9
$DIMSOXD
 70
     0
  9
$DIMSAH
 70
     0
  9
$DIMBLK1
  1

  9
$DIMBLK2
  1

  9
$DIMSTYLE
  2
Standard
  9
$DIMCLRD
 70
     0
  9
$DIMCLRE
 70
     0
  9
$DIMCLRT
 70
     0
  9
$DIMTFAC
 40
1.0
  9
$DIMGAP
 40
0.09
  9
$DIMJUST
 70
     0
  9
$DIMSD1
 70
     0
  9
$DIMSD2
 70
     0
  9
$DIMTOLJ
 70
     1
  9
$DIMTZIN
 70
     0
  9
$DIMALTZ
 70
     0
  9
$DIMALTTZ
 70
     0
  9
$DIMUPT
 70
     0
  9
$DIMDEC
 70
     4
  9
$DIMTDEC
 70
     4
  9
$DIMALTU
 70
     2
  9
$DIMALTTD
 70
     2
  9
$DIMTXSTY
  7
Standard
  9
$DIMAUNIT
 70
     0
  9
$DIMADEC
 70
     0
  9
$DIMALTRND
 40
0.0
  9
$DIMAZIN
 70
     0
  9
$DIMDSEP
 70
    46
  9
$DIMATFIT
 70
     3
  9
$DIMFRAC
 70
     0
  9
$DIMLDRBLK
  1

  9
$DIMLUNIT
 70
     2
  9
$DIMLWD
 70
    -2
  9
$DIMLWE
 70
    -2
  9
$DIMTMOVE
 70
     0
  9
$DIMFXL
 40
1.0
  9
$DIMFXLON
 70
     0
  9
$DIMJOGANG
 40
0.7853981633974483
  9
$DIMTFILL
 70
     0
  9
$DIMTFILLCLR
 70
     0
  9
$DIMARCSYM
 70
     0
  9
$DIMLTYPE
  6

  9
$DIMLTEX1
  6

  9
$DIMLTEX2
  6

  9
$DIMTXTDIRECTION
 70
     0
  9
$LUNITS
 70
     2
  9
$LUPREC
 70
     4
  9
$SKETCHINC
 40
0.1
  9
$FILLETRAD
 40
0.0
  9
$AUNITS
 70
     0
  9
$AUPREC
 70
     0
  9
$MENU
  1
.
  9
$ELEVATION
 40
0.0
  9
$PELEVATION
 40
0.0
  9
$THICKNESS
 40
0.0
  9
$LIMCHECK
 70
     0
  9
$CHAMFERA
 40
0.0
  9
$CHAMFERB
 40
0.0
  9
$CHAMFERC
 40
0.0
  9
$CHAMFERD
 40
0.0
  9
$SKPOLY
 70
     0
  9
$TDCREATE
 40
2457550.680361412
  9
$TDUCREATE
 40
2457550.597028079
  9
$TDUPDATE
 40
2457550.680361412
  9
$TDUUPDATE
 40
2457550.597028079
  9
$TDINDWG
 40
0.0000083102
  9
$TDUSRTIMER
 40
0.0000083102
  9
$USRTIMER
 70
     1
  9
$ANGBASE
 50
0.0
  9
$ANGDIR
 70
     0
  9
$PDMODE
 70
     0
  9
$PDSIZE
 40
0.0
  9
$PLINEWID
 40
0.0
  9
$SPLFRAME
 70
     0
  9
$SPLINETYPE
 70
     6
  9
$SPLINESEGS
 70
     8
  9
$HANDSEED
  5
20A
  9
$SURFTAB1
 70
     6
  9
$SURFTAB2
 70
     6
  9
$SURFTYPE
 70
     6
  9
$SURFU
 70
     6
  9
$SURFV
 70
     6
  9
$UCSBASE
  2

  9
$UCSNAME
  2

  9
$UCSORG
 10
0.0
 20
0.0
 30
0.0
  9
$UCSXDIR
 10
1.0
 20
0.0
 30
0.0
  9
$UCSYDIR
 10
0.0
 20
1.0
 30
0.0
  9
$UCSORTHOREF
  2

  9
$UCSORTHOVIEW
 70
     0
  9
$UCSORGTOP
 10
0.0
 20
0.0
 30
0.0
  9
$UCSORGBOTTOM
 10
0.0
 20
0.0
 30
0.0
  9
$UCSORGLEFT
 10
0.0
 20
0.0
 30
0.0
  9
$UCSORGRIGHT
 10
0.0
 20
0.0
 30
0.0
  9
$UCSORGFRONT
 10
0.0
 20
0.0
 30
0.0
  9
$UCSORGBACK
 10
0.0
 20
0.0
 30
0.0
  9
$PUCSBASE
  2

  9
$PUCSNAME
  2

  9
$PUCSORG
 10
0.0
 20
0.0
 30
0.0
  9
$PUCSXDIR
 10
1.0
 20
0.0
 30
0.0
  9
$PUCSYDIR
 10
0.0
 20
1.0
 30
0.0
  9
$PUCSORTHOREF
  2

  9
$PUCSORTHOVIEW
 70
     0
  9
$PUCSORGTOP
 10
0.0
 20
0.0
 30
0.0
  9
$PUCSORGBOTTOM
 10
0.0
 20
0.0
 30
0.0
  9
$PUCSORGLEFT
 10
0.0
 20
0.0
 30
0.0
  9
$PUCSORGRIGHT
 10
0.0
 20
0.0
 30
0.0
  9
$PUCSORGFRONT
 10
0.0
 20
0.0
 30
0.0
  9
$PUCSORGBACK
 10
0.0
 20
0.0
 30
0.0
  9
$USERI1
 70
     0
  9
$USERI2
 70
     0
  9
$USERI3
 70
     0
  9
$USERI4
 70
     0
  9
$USERI5
 70
     0
  9
$USERR1
 40
0.0
  9
$USERR2
 40
0.0
  9
$USERR3
 40
0.0
  9
$USERR4
 40
0.0
  9
$USERR5
 40
0.0
  9
$WORLDVIEW
 70
     1
  9
$SHADEDGE
 70
     3
  9
$SHADEDIF
 70
    70
  9
$TILEMODE
 70
     1
  9
$MAXACTVP
 70
    64
  9
$PINSBASE
 10
0.0
 20
0.0
 30
0.0
  9
$PLIMCHECK
 70
     0
  9
$PEXTMIN
 10
1.000000000000000E+20
 20
1.000000000000000E+20
 30
1.000000000000000E+20
  9
$PEXTMAX
 10
-1.000000000000000E+20
 20
-1.000000000000000E+20
 30
-1.000000000000000E+20
  9
$PLIMMIN
 10
0.0
 20
0.0
  9
$PLIMMAX
 10
12.0
 20
9.0
  9
$UNITMODE
 70
     0
  9
$VISRETAIN
 70
     1
  9
$PLINEGEN
 70
     0
  9
$PSLTSCALE
 70
     1
  9
$TREEDEPTH
 70
  3020
  9
$CMLSTYLE
  2
Standard
  9
$CMLJUST
 70
     0
  9
$CMLSCALE
 40
1.0
  9
$PROXYGRAPHICS
 70
     1
  9
$MEASUREMENT
 70
     1
  9
$CELWEIGHT
370
    -1
  9
$ENDCAPS
280
     0
  9
$JOINSTYLE
280
     0
  9
$LWDISPLAY
290
     0
  9
$INSUNITS
 70
     4
  9
$HYPERLINKBASE
  1

  9
$STYLESHEET
  1

  9
$XEDIT
290
     1
  9
$CEPSNTYPE
380
     0
  9
$PSTYLEMODE
290
     1
  9
$FINGERPRINTGUID
  2
{B0E1C086-1436-4C16-8672-63193986EECB}
  9
$VERSIONGUID
  2
{C5181614-000C-4B2D-8709-AEA1F5F7F30A}
  9
$EXTNAMES
290
     1
  9
$PSVPSCALE
 40
0.0
  9
$OLESTARTUP
290
     0
  9
$SORTENTS
280
   127
  9
$INDEXCTL
280
     0
  9
$HIDETEXT
280
     1
  9
$XCLIPFRAME
280
     2
  9
$HALOGAP
280
     0
  9
$OBSCOLOR
 70
   257
  9
$OBSLTYPE
280
     0
  9
$INTERSECTIONDISPLAY
280
     0
  9
$INTERSECTIONCOLOR
 70
   257
  9
$DIMASSOC
280
     2
  9
$PROJECTNAME
  1

  9
$CAMERADISPLAY
290
     0
  9
$LENSLENGTH
 40
50.0
  9
$CAMERAHEIGHT
 40
0.0
  9
$STEPSPERSEC
 40
2.0
  9
$STEPSIZE
 40
6.0
  9
$3DDWFPREC
 40
2.0
  9
$PSOLWIDTH
 40
0.25
  9
$PSOLHEIGHT
 40
4.0
  9
$LOFTANG1
 40
1.570796326794896
  9
$LOFTANG2
 40
1.570796326794896
  9
$LOFTMAG1
 40
0.0
  9
$LOFTMAG2
 40
0.0
  9
$LOFTPARAM
 70
     7
  9
$LOFTNORMALS
280
     1
  9
$LATITUDE
 40
37.795
  9
$LONGITUDE
 40
-122.394
  9
$NORTHDIRECTION
 40
0.0
  9
$TIMEZONE
 70
 -8000
  9
$LIGHTGLYPHDISPLAY
280
     1
  9
$TILEMODELIGHTSYNCH
280
     1
  9
$CMATERIAL
347
11
  9
$SOLIDHIST
280
     0
  9
$SHOWHIST
280
     1
  9
$DWFFRAME
280
     2
  9
$DGNFRAME
280
     0
  9
$REALWORLDSCALE
290
     1
  9
$INTERFERECOLOR
 62
     1
  9
$INTERFEREOBJVS
345
33
  9
$INTERFEREVPVS
346
30
  9
$CSHADOW
280
     0
  9
$SHADOWPLANELOCATION
 40
0.0
  0
ENDSEC
  0
SECTION
  2
CLASSES
  0
CLASS
  1
ACDBDICTIONARYWDFLT
  2
AcDbDictionaryWithDefault
  3
ObjectDBX Classes
 90
        0
 91
        1
280
     0
281
     0
  0
CLASS
  1
MATERIAL
  2
AcDbMaterial
  3
ObjectDBX Classes
 90
     1153
 91
        3
280
     0
281
     0
  0
CLASS
  1
VISUALSTYLE
  2
AcDbVisualStyle
  3
ObjectDBX Classes
 90
     4095
 91
       24
280
     0
281
     0
  0
CLASS
  1
SCALE
  2
AcDbScale
  3
ObjectDBX Classes
 90
     1153
 91
       17
280
     0
281
     0
  0
CLASS
  1
TABLESTYLE
  2
AcDbTableStyle
  3
ObjectDBX Classes
 90
     4095
 91
        1
280
     0
281
     0
  0
CLASS
  1
MLEADERSTYLE
  2
AcDbMLeaderStyle
  3
ACDB_MLEADERSTYLE_CLASS
 90
     4095
 91
        1
280
     0
281
     0
  0
CLASS
  1
ACDBSECTIONVIEWSTYLE
  2
AcDbSectionViewStyle
  3
ObjectDBX Classes
 90
     1025
 91
        1
280
     0
281
     0
  0
CLASS
  1
ACDBDETAILVIEWSTYLE
  2
AcDbDetailViewStyle
  3
ObjectDBX Classes
 90
     1025
 91
        1
280
     0
281
     0
  0
CLASS
  1
RASTERVARIABLES
  2
AcDbRasterVariables
  3
ISM
 90
        0
 91
        1
280
     0
281
     0
  0
CLASS
  1
DICTIONARYVAR
  2
AcDbDictionaryVar
  3
ObjectDBX Classes
 90
        0
 91
        5
280
     0
281
     0
  0
CLASS
  1
CELLSTYLEMAP
  2
AcDbCellStyleMap
  3
ObjectDBX Classes
 90
     1152
 91
        2
280
     0
281
     0
  0
CLASS
  1
SORTENTSTABLE
  2
AcDbSortentsTable
  3
ObjectDBX Classes
 90
        0
 91
        1
280
     0
281
     0
  0
ENDSEC
  0
SECTION
  2
TABLES
  0
TABLE
  2
VPORT
  5
8
330
0
100
AcDbSymbolTable
 70
     1
  0
VPORT
  5
57
330
8
100
AcDbSymbolTableRecord
100
AcDbViewportTableRecord
  2
*Active
 70
     0
 10
0.0
 20
0.0
 11
1.0
 21
1.0
 12
1016.840380698142
 22
1941.922939365024
 13
0.0
 23
0.0
 14
1.0
 24
1.0
 15
0.0
 25
0.0
 16
0.0
 26
0.0
 36
1.0
 17
0.0
 27
0.0
 37
0.0
 40
216.1541212699439
 41
1.019402013782229
 42
50.0
 43
0.0
 44
0.0
 50
0.0
 51
0.0
 71
     0
 72
  1000
 73
     1
 74
     1
 75
     0
 76
     0
 77
     0
 78
     0
281
     0
 65
     1
110
0.0
120
0.0
130
0.0
111
1.0
121
0.0
131
0.0
112
0.0
122
1.0
132
0.0
 79
     0
146
0.0
 60
     3
 61
     5
292
     1
282
     1
141
0.0
142
0.0
 63
   250
421
  3355443
  0
ENDTAB
  0
TABLE
  2
LTYPE
  5
5
330
0
100
AcDbSymbolTable
 70
     3
  0
LTYPE
  5
5B
330
5
100
AcDbSymbolTableRecord
100
AcDbLinetypeTableRecord
  2
ByBlock
 70
     0
  3

 72
    65
 73
     0
 40
0.0
  0
LTYPE
  5
5C
330
5
100
AcDbSymbolTableRecord
100
AcDbLinetypeTableRecord
  2
ByLayer
 70
     0
  3

 72
    65
 73
     0
 40
0.0
  0
LTYPE
  5
5D
330
5
100
AcDbSymbolTableRecord
100
AcDbLinetypeTableRecord
  2
Continuous
 70
     0
  3
Solid line
 72
    65
 73
     0
 40
0.0
  0
LTYPE
  5
69
330
5
100
AcDbSymbolTableRecord
100
AcDbLinetypeTableRecord
  2
PHANTOM2
 70
     0
  3
___ _ _ ___ _ _ ___ _ _ ___ _ _
 72
    65
 73
     6
 40
1.25
 49
0.625
 74
     0
 49
-0.125
 74
     0
 49
0.125
 74
     0
 49
-0.125
 74
     0
 49
0.125
 74
     0
 49
-0.125
 74
     0
  0
LTYPE
  5
86
330
5
100
AcDbSymbolTableRecord
100
AcDbLinetypeTableRecord
  2
Nascosto 1_5 mm
 70
     0
  3

 72
    65
 73
     2
 40
2.2
 49
1.5
 74
     0
 49
-0.7000000000000001
 74
     0
  0
ENDTAB
  0
TABLE
  2
LAYER
  5
2
330
0
100
AcDbSymbolTable
 70
     4
  0
LAYER
  5
54
330
2
100
AcDbSymbolTableRecord
100
AcDbLayerTableRecord
  2
0
 70
     0
 62
     7
  6
Continuous
370
    -3
390
F
347
21
348
0
  0
LAYER
  5
85
330
2
100
AcDbSymbolTableRecord
100
AcDbLayerTableRecord
  2
P-SANR-FIXT
 70
     0
 62
     6
  6
Continuous
370
    18
390
F
347
21
348
0
  0
LAYER
  5
88
330
2
100
AcDbSymbolTableRecord
100
AcDbLayerTableRecord
  2
M-PIPE
 70
     0
 62
     3
  6
Continuous
370
    18
390
F
347
21
348
0
  0
ENDTAB
  0
TABLE
  2
STYLE
  5
3
330
0
100
AcDbSymbolTable
 70
     2
  0
STYLE
  5
55
330
3
100
AcDbSymbolTableRecord
100
AcDbTextStyleTableRecord
  2
Standard
 70
     0
 40
0.0
 41
1.0
 50
0.0
 71
     0
 42
0.2
  3
txt
  4

  0
STYLE
  5
5A
330
3
100
AcDbSymbolTableRecord
100
AcDbTextStyleTableRecord
  2
Annotative
 70
     0
 40
0.0
 41
1.0
 50
0.0
 71
     0
 42
0.2
  3
txt
  4

1001
AcadAnnotative
1000
AnnotativeData
1002
{
1070
     1
1070
     1
1002
}
  0
ENDTAB
  0
TABLE
  2
VIEW
  5
6
330
0
100
AcDbSymbolTable
 70
     0
  0
ENDTAB
  0
TABLE
  2
UCS
  5
7
330
0
100
AcDbSymbolTable
 70
     0
  0
ENDTAB
  0
TABLE
  2
APPID
  5
9
330
0
100
AcDbSymbolTable
 70
     3
  0
APPID
  5
56
330
9
100
AcDbSymbolTableRecord
100
AcDbRegAppTableRecord
  2
ACAD
 70
     0
  0
APPID
  5
5E
330
9
100
AcDbSymbolTableRecord
100
AcDbRegAppTableRecord
  2
AcadAnnotative
 70
     0
  0
APPID
  5
79
330
9
100
AcDbSymbolTableRecord
100
AcDbRegAppTableRecord
  2
REVIT
 70
     0
  0
ENDTAB
  0
TABLE
  2
DIMSTYLE
  5
A
330
0
100
AcDbSymbolTable
 70
     2
100
AcDbDimStyleTable
 71
     0
  0
DIMSTYLE
105
58
330
A
100
AcDbSymbolTableRecord
100
AcDbDimStyleTableRecord
  2
Standard
 70
     0
340
55
  0
DIMSTYLE
105
59
330
A
100
AcDbSymbolTableRecord
100
AcDbDimStyleTableRecord
  2
Annotative
 70
     0
340
55
1001
AcadAnnotative
1000
AnnotativeData
1002
{
1070
     1
1070
     1
1002
}
  0
ENDTAB
  0
TABLE
  2
BLOCK_RECORD
  5
1
330
0
100
AcDbSymbolTable
 70
     4
  0
BLOCK_RECORD
  5
71
102
{ACAD_XDICTIONARY
360
205
102
}
330
1
100
AcDbSymbolTableRecord
100
AcDbBlockTableRecord
  2
*Model_Space
340
74
 70
     0
280
     1
281
     0
  0
BLOCK_RECORD
  5
6D
330
1
100
AcDbSymbolTableRecord
100
AcDbBlockTableRecord
  2
*Paper_Space
340
70
 70
     0
280
     1
281
     0
  0
BLOCK_RECORD
  5
75
330
1
100
AcDbSymbolTableRecord
100
AcDbBlockTableRecord
  2
*Paper_Space0
340
78
 70
     0
280
     1
281
     0
  0
BLOCK_RECORD
  5
87
330
1
100
AcDbSymbolTableRecord
100
AcDbBlockTableRecord
  2
Automatic flow rate regulator valve_Caleffi_121 DN15 - 1_2__-859151-Est - Idraulica
340
0
102
{BLKREFS
331
121
102
}
 70
     0
280
     1
281
     0
  0
BLOCK_RECORD
  5
122
330
1
100
AcDbSymbolTableRecord
100
AcDbBlockTableRecord
  2
Automatic flow rate regulator valve_Caleffi_121 DN15 - 1_2__-V1-Est - Idraulica
340
0
102
{BLKREFS
331
195
102
}
 70
     0
280
     1
281
     0
  0
BLOCK_RECORD
  5
196
330
1
100
AcDbSymbolTableRecord
100
AcDbBlockTableRecord
  2
Automatic flow rate regulator valve_Caleffi_121 DN15 - 1_2__-V2-Est - Idraulica
340
0
102
{BLKREFS
331
1FE
102
}
 70
     0
280
     1
281
     0
  0
ENDTAB
  0
ENDSEC
  0
SECTION
  2
BLOCKS
  0
BLOCK
  5
72
330
71
100
AcDbEntity
  8
0
100
AcDbBlockBegin
  2
*Model_Space
 70
     0
 10
0.0
 20
0.0
 30
0.0
  3
*Model_Space
  1

  0
ENDBLK
  5
73
330
71
100
AcDbEntity
  8
0
100
AcDbBlockEnd
  0
BLOCK
  5
6E
330
6D
100
AcDbEntity
 67
     1
  8
0
100
AcDbBlockBegin
  2
*Paper_Space
 70
     0
 10
0.0
 20
0.0
 30
0.0
  3
*Paper_Space
  1

  0
ENDBLK
  5
6F
330
6D
100
AcDbEntity
 67
     1
  8
0
100
AcDbBlockEnd
  0
BLOCK
  5
76
330
75
100
AcDbEntity
 67
     1
  8
0
100
AcDbBlockBegin
  2
*Paper_Space0
 70
     0
 10
0.0
 20
0.0
 30
0.0
  3
*Paper_Space0
  1

  0
ENDBLK
  5
77
330
75
100
AcDbEntity
 67
     1
  8
0
100
AcDbBlockEnd
  0
BLOCK
  5
11F
330
87
100
AcDbEntity
  8
0
100
AcDbBlockBegin
  2
Automatic flow rate regulator valve_Caleffi_121 DN15 - 1_2__-859151-Est - Idraulica
 70
     0
 10
0.0
 20
0.0
 30
0.0
  3
Automatic flow rate regulator valve_Caleffi_121 DN15 - 1_2__-859151-Est - Idraulica
  1

  0
LWPOLYLINE
  5
89
330
87
100
AcDbEntity
  8
M-PIPE
100
AcDbPolyline
 90
       33
 70
   128
 43
0.0
 10
935.666407443189
 20
2039.37152009134
 10
935.1880507880505
 20
2039.37152009134
 10
934.710459401516
 20
2039.37152009134
 10
934.2343973279238
 20
2039.37152009134
 10
933.7606261650364
 20
2039.37152009134
 10
933.2899038456492
 20
2039.37152009134
 10
932.8229834250578
 20
2039.37152009134
 10
932.3606118763306
 20
2039.37152009134
 10
931.9035288953116
 20
2039.37152009134
 10
931.4524657172647
 20
2039.37152009134
 10
931.0081439470529
 20
2039.37152009134
 10
930.571274404725
 20
2039.37152009134
 10
930.1425559883549
 20
2039.37152009134
 10
929.7226745559537
 20
2039.37152009134
 10
929.3123018282432
 20
2039.37152009134
 10
928.9120943140467
 20
2039.37152009134
 10
928.5226922600134
 20
2039.37152009134
 10
928.1447186263617
 20
2039.37152009134
 10
927.7787780902761
 20
2039.37152009134
 10
927.4254560785502
 20
2039.37152009134
 10
927.085317831032
 20
2039.37152009134
 10
926.7589074963582
 20
2039.37152009134
 10
926.4467472614343
 20
2039.37152009134
 10
926.1493365160452
 20
2039.37152009134
 10
925.8671510539391
 20
2039.37152009134
 10
925.6006423116597
 20
2039.37152009134
 10
925.3502366463417
 20
2039.37152009134
 10
925.116334653633
 20
2039.37152009134
 10
924.8993105268255
 20
2039.37152009134
 10
924.699511458226
 20
2039.37152009134
 10
924.5172570837226
 20
2039.37152009134
 10
924.3528389714359
 20
2039.37152009134
 10
924.307213660508
 20
2039.37152009134
1001
REVIT
1002
{
1070
     3
1000
923114
1002
}
  0
LWPOLYLINE
  5
8A
330
87
100
AcDbEntity
  8
M-PIPE
100
AcDbPolyline
 90
       33
 70
   128
 43
0.0
 10
947.0256012258701
 20
2039.371520091339
 10
946.8665646929778
 20
2039.371520091339
 10
946.6896102977257
 20
2039.371520091339
 10
946.4950211293972
 20
2039.371520091339
 10
946.283108489152
 20
2039.371520091339
 10
946.0542113920087
 20
2039.371520091339
 10
945.8086960244935
 20
2039.371520091339
 10
945.5469551588215
 20
2039.371520091339
 10
945.2694075245423
 20
2039.371520091339
 10
944.9764971386635
 20
2039.371520091339
 10
944.6686925953185
 20
2039.371520091339
 10
944.3464863161151
 20
2039.371520091339
 10
944.0103937623666
 20
2039.371520091339
 10
943.6609526104628
 20
2039.371520091339
 10
943.2987218917034
 20
2039.371520091339
 10
942.9242810979665
 20
2039.371520091339
 10
942.5382292546458
 20
2039.371520091339
 10
942.1411839623376
 20
2039.371520091339
 10
941.7337804088102
 20
2039.371520091339
 10
941.3166703528419
 20
2039.371520091339
 10
940.8905210815435
 20
2039.371520091339
 10
940.4560143428417
 20
2039.371520091339
 10
940.0138452548286
 20
2039.371520091339
 10
939.5647211937211
 20
2039.371520091339
 10
939.1093606622085
 20
2039.371520091339
 10
938.6484921400031
 20
2039.37152009134
 10
938.1828529184268
 20
2039.37152009134
 10
937.7131879209033
 20
2039.37152009134
 10
937.2402485112386
 20
2039.37152009134
 10
936.7647912915998
 20
2039.37152009134
 10
936.287576892113
 20
2039.37152009134
 10
935.8093687540172
 20
2039.37152009134
 10
935.666407443189
 20
2039.37152009134
1001
REVIT
1002
{
1070
     3
1000
923114
1002
}
  0
LWPOLYLINE
  5
8B
330
87
100
AcDbEntity
  8
M-PIPE
100
AcDbPolyline
 90
       11
 70
   128
 43
0.0
 10
927.836583024414
 20
2045.867053054365
 10
927.9928060520123
 20
2045.867053054365
 10
928.1613052048886
 20
2045.867053054365
 10
928.3418109203434
 20
2045.867053054365
 10
928.534034427737
 20
2045.867053054365
 10
928.7376682104639
 20
2045.867053054365
 10
928.9523864979111
 20
2045.867053054365
 10
929.1778457866222
 20
2045.867053054365
 10
929.4136853898315
 20
2045.867053054365
 10
929.6595280144831
 20
2045.867053054365
 10
929.883758441017
 20
2045.867053054365
1001
REVIT
1002
{
1070
     3
1000
923114
1002
}
  0
LWPOLYLINE
  5
8C
330
87
100
AcDbEntity
  8
M-PIPE
100
AcDbPolyline
 90
       30
 70
   128
 43
0.0
 10
935.666407443189
 20
2045.867053054365
 10
935.3192395589841
 20
2045.867053054365
 10
934.9726270693356
 20
2045.867053054365
 10
934.6271244802862
 20
2045.867053054365
 10
934.2832845222758
 20
2045.867053054365
 10
933.9416572658885
 20
2045.867053054365
 10
933.6027892418577
 20
2045.867053054365
 10
933.2672225667339
 20
2045.867053054365
 10
932.9354940756136
 20
2045.867053054365
 10
932.6081344633179
 20
2045.867053054365
 10
932.2856674353928
 20
2045.867053054365
 10
931.9686088702944
 20
2045.867053054365
 10
931.6574659940911
 20
2045.867053054365
 10
931.3527365690108
 20
2045.867053054365
 10
931.0549080971288
 20
2045.867053054365
 10
930.7644570404661
 20
2045.867053054365
 10
930.4818480587542
 20
2045.867053054365
 10
930.2075332660775
 20
2045.867053054365
 10
929.9419515075861
 20
2045.867053054365
 10
929.6855276574392
 20
2045.867053054365
 10
929.4386719390971
 20
2045.867053054365
 10
929.2017792690485
 20
2045.867053054365
 10
928.9752286250315
 20
2045.867053054365
 10
928.7593824397481
 20
2045.867053054365
 10
928.5545860210502
 20
2045.867053054365
 10
928.3611669995201
 20
2045.867053054365
 10
928.1794348043316
 20
2045.867053054365
 10
928.0096801682297
 20
2045.867053054365
 10
927.8521746624196
 20
2045.867053054365
 10
927.836583024414
 20
2045.867053054365
1001
REVIT
1002
{
1070
     3
1000
923114
1002
}
  0
LWPOLYLINE
  5
8D
330
87
100
AcDbEntity
  8
M-PIPE
100
AcDbPolyline
 90
       30
 70
   128
 43
0.0
 10
943.4962318619641
 20
2045.867053054364
 10
943.3400088343658
 20
2045.867053054364
 10
943.1715096814894
 20
2045.867053054364
 10
942.9910039660351
 20
2045.867053054364
 10
942.7987804586409
 20
2045.867053054364
 10
942.5951466759141
 20
2045.867053054364
 10
942.380428388467
 20
2045.867053054364
 10
942.1549690997558
 20
2045.867053054364
 10
941.9191294965466
 20
2045.867053054364
 10
941.673286871895
 20
2045.867053054364
 10
941.4178345215566
 20
2045.867053054364
 10
941.1531811147986
 20
2045.867053054364
 10
940.8797500406151
 20
2045.867053054364
 10
940.5979787303962
 20
2045.867053054364
 10
940.3083179581305
 20
2045.867053054364
 10
940.0112311192623
 20
2045.867053054364
 10
939.7071934893583
 20
2045.867053054364
 10
939.396691463769
 20
2045.867053054364
 10
939.0802217794982
 20
2045.867053054364
 10
938.7582907205311
 20
2045.867053054364
 10
938.4314133078866
 20
2045.867053054364
 10
938.1001124756952
 20
2045.867053054364
 10
937.7649182346143
 20
2045.867053054365
 10
937.4263668239256
 20
2045.867053054365
 10
937.0849998536659
 20
2045.867053054365
 10
936.741363438166
 20
2045.867053054365
 10
936.3960073223863
 20
2045.867053054365
 10
936.0494840024394
 20
2045.867053054365
 10
935.7023478417163
 20
2045.867053054365
 10
935.666407443189
 20
2045.867053054365
1001
REVIT
1002
{
1070
     3
1000
923114
1002
}
  0
LWPOLYLINE
  5
8E
330
87
100
AcDbEntity
  8
M-PIPE
100
AcDbPolyline
 90
       12
 70
   128
 43
0.0
 10
941.4490564453592
 20
2045.867053054364
 10
941.6472872289389
 20
2045.867053054364
 10
941.8941429472813
 20
2045.867053054364
 10
942.1310356173298
 20
2045.867053054364
 10
942.3575862613468
 20
2045.867053054364
 10
942.5734324466302
 20
2045.867053054364
 10
942.7782288653281
 20
2045.867053054364
 10
942.9716478868582
 20
2045.867053054364
 10
943.1533800820465
 20
2045.867053054364
 10
943.3231347181486
 20
2045.867053054364
 10
943.4806402239585
 20
2045.867053054364
 10
943.4962318619641
 20
2045.867053054364
1001
REVIT
1002
{
1070
     3
1000
923114
1002
}
  0
LINE
  5
8F
330
87
100
AcDbEntity
  8
M-PIPE
100
AcDbLine
 10
921.3050008268462
 20
2023.367053054362
 30
0.0
 11
933.6664074431872
 21
2023.367053054362
 31
0.0
1001
REVIT
1002
{
1070
     3
1000
923114
1002
}
  0
LINE
  5
90
330
87
100
AcDbEntity
  8
M-PIPE
100
AcDbLine
 10
933.6664074431867
 20
2023.367053054362
 30
0.0
 11
933.6664074431867
 21
2029.867053054345
 31
0.0
1001
REVIT
1002
{
1070
     3
1000
923114
1002
}
  0
LINE
  5
91
330
87
100
AcDbEntity
  8
M-PIPE
100
AcDbLine
 10
933.6664074431872
 20
2029.867053054345
 30
0.0
 11
935.6664074431874
 21
2029.867053054345
 31
0.0
1001
REVIT
1002
{
1070
     3
1000
923114
1002
}
  0
LINE
  5
92
330
87
100
AcDbEntity
  8
M-PIPE
100
AcDbLine
 10
921.6597126153619
 20
2036.833626109563
 30
0.0
 11
921.6597126153617
 21
2029.867053054345
 31
0.0
1001
REVIT
1002
{
1070
     3
1000
923114
1002
}
  0
LINE
  5
93
330
87
100
AcDbEntity
  8
M-PIPE
100
AcDbLine
 10
921.3050008268464
 20
2029.867053054345
 30
0.0
 11
921.3050008268462
 21
2023.367053054362
 31
0.0
1001
REVIT
1002
{
1070
     3
1000
923114
1002
}
  0
LINE
  5
94
330
87
100
AcDbEntity
  8
M-PIPE
100
AcDbLine
 10
950.0278140595266
 20
2029.867053054345
 30
0.0
 11
950.0278140595266
 21
2023.367053054362
 31
0.0
1001
REVIT
1002
{
1070
     3
1000
923114
1002
}
  0
LINE
  5
95
330
87
100
AcDbEntity
  8
M-PIPE
100
AcDbLine
 10
935.6664074431874
 20
2029.867053054345
 30
0.0
 11
949.6731022710129
 21
2029.867053054345
 31
0.0
1001
REVIT
1002
{
1070
     3
1000
923114
1002
}
  0
LINE
  5
96
330
87
100
AcDbEntity
  8
M-PIPE
100
AcDbLine
 10
949.6731022710129
 20
2029.867053054345
 30
0.0
 11
949.6731022710129
 21
2036.833626109563
 31
0.0
1001
REVIT
1002
{
1070
     3
1000
923114
1002
}
  0
LINE
  5
97
330
87
100
AcDbEntity
  8
M-PIPE
100
AcDbLine
 10
927.2106401805498
 20
2045.298565044156
 30
0.0
 11
927.2106401805498
 21
2041.867053054363
 31
0.0
1001
REVIT
1002
{
1070
     3
1000
923114
1002
}
  0
LINE
  5
98
330
87
100
AcDbEntity
  8
M-PIPE
100
AcDbLine
 10
944.1221747058252
 20
2041.867053054363
 30
0.0
 11
944.1221747058252
 21
2045.298565044156
 31
0.0
1001
REVIT
1002
{
1070
     3
1000
923114
1002
}
  0
LINE
  5
99
330
87
100
AcDbEntity
  8
M-PIPE
100
AcDbLine
 10
950.0278140595266
 20
2023.367053054362
 30
0.0
 11
947.8512000880996
 21
2023.367053054362
 31
0.0
1001
REVIT
1002
{
1070
     3
1000
923114
1002
}
  0
SPLINE
  5
9A
330
87
100
AcDbEntity
  8
M-PIPE
100
AcDbSpline
210
0.0
220
0.0
230
1.0
 70
     8
 71
     3
 72
    12
 73
     8
 74
     0
 42
0.000000001
 43
0.0000000001
 40
-1.0
 40
-1.0
 40
-1.0
 40
-1.0
 40
-0.7857142857142857
 40
-0.5714285714285714
 40
-0.4285714285714286
 40
-0.2857142857142857
 40
0.0
 40
0.0
 40
0.0
 40
0.0
 10
924.4198711656091
 20
2039.369269772794
 30
0.0
 10
924.1170656634317
 20
2039.381177469739
 30
0.0
 10
923.5224895031922
 20
2039.309583394201
 30
0.0
 10
922.7898126946367
 20
2038.960567375948
 30
0.0
 10
922.2673009451561
 20
2038.491462701085
 30
0.0
 10
921.8091213637977
 20
2037.828634004475
 30
0.0
 10
921.6613732252419
 20
2037.240419796955
 30
0.0
 10
921.6597126153619
 20
2036.833626109563
 30
0.0
1001
REVIT
1002
{
1070
     3
1000
923114
1002
}
  0
SPLINE
  5
9B
330
87
100
AcDbEntity
  8
M-PIPE
100
AcDbSpline
210
0.0
220
0.0
230
1.0
 70
     8
 71
     3
 72
    13
 73
     9
 74
     0
 42
0.000000001
 43
0.0000000001
 40
-1.0
 40
-1.0
 40
-1.0
 40
-1.0
 40
-0.7857142857142857
 40
-0.6785714285714287
 40
-0.5714285714285714
 40
-0.4285714285714286
 40
-0.2857142857142857
 40
0.0
 40
0.0
 40
0.0
 40
0.0
 10
949.6731022710129
 20
2036.833626109563
 30
0.0
 10
949.671856813603
 20
2037.138721375107
 30
0.0
 10
949.5893253663048
 20
2037.580710977244
 30
0.0
 10
949.3255358400475
 20
2038.120793385806
 30
0.0
 10
949.028157158996
 20
2038.524928969001
 30
0.0
 10
948.6175967890977
 20
2038.893407730479
 30
0.0
 10
947.9124011567407
 20
2039.280851485288
 30
0.0
 10
947.3166843903358
 20
2039.385146702054
 30
0.0
 10
946.9129437207659
 20
2039.369269772794
 30
0.0
1001
REVIT
1002
{
1070
     3
1000
923114
1002
}
  0
SPLINE
  5
9C
330
87
100
AcDbEntity
  8
M-PIPE
100
AcDbSpline
210
0.0
220
0.0
230
1.0
 70
     8
 71
     3
 72
    15
 73
    11
 74
     0
 42
0.000000001
 43
0.0000000001
 40
-1.0
 40
-1.0
 40
-1.0
 40
-1.0
 40
-0.8928571428571427
 40
-0.8392857142857142
 40
-0.7857142857142857
 40
-0.6785714285714287
 40
-0.5714285714285714
 40
-0.4285714285714286
 40
-0.2857142857142857
 40
-0.142857142857143
 40
-0.142857142857143
 40
-0.142857142857143
 40
-0.142857142857143
 10
927.2106401805473
 20
2041.867053054363
 30
0.0
 10
927.2096439017795
 20
2041.714679513717
 30
0.0
 10
927.1874136388614
 20
2041.491344232385
 30
0.0
 10
927.1171018106366
 20
2041.205270559629
 30
0.0
 10
927.0164304965152
 20
2040.921930037899
 30
0.0
 10
926.8452066344405
 20
2040.591100110158
 30
0.0
 10
926.5381959028713
 20
2040.195360905129
 30
0.0
 10
926.1220208711469
 20
2039.837006145093
 30
0.0
 10
925.5922552002973
 20
2039.553176916321
 30
0.0
 10
925.2109169109461
 20
2039.443760141135
 30
0.0
 10
925.0158215837084
 20
2039.409588486003
 30
0.0
1001
REVIT
1002
{
1070
     3
1000
923114
1002
}
  0
SPLINE
  5
9D
330
87
100
AcDbEntity
  8
M-PIPE
100
AcDbSpline
210
0.0
220
0.0
230
1.0
 70
     8
 71
     3
 72
    12
 73
     8
 74
     0
 42
0.000000001
 43
0.0000000001
 40
-0.8915723064319706
 40
-0.8915723064319706
 40
-0.8915723064319706
 40
-0.8915723064319706
 40
-0.5714285714285714
 40
-0.4285714285714286
 40
-0.2857142857142857
 40
-0.1428571428571428
 40
0.0
 40
0.0
 40
0.0
 40
0.0
 10
946.4577837637015
 20
2039.388949032616
 30
0.0
 10
946.0145585783324
 20
2039.444021382428
 30
0.0
 10
945.4003090534113
 20
2039.674230717275
 30
0.0
 10
944.7561304437019
 20
2040.228572857289
 30
0.0
 10
944.4022027823976
 20
2040.712845629551
 30
0.0
 10
944.1740060049495
 20
2041.272174452597
 30
0.0
 10
944.123503077518
 20
2041.6638883335
 30
0.0
 10
944.1221747058277
 20
2041.867053054363
 30
0.0
1001
REVIT
1002
{
1070
     3
1000
923114
1002
}
  0
SPLINE
  5
9E
330
87
100
AcDbEntity
  8
M-PIPE
100
AcDbSpline
210
0.0
220
0.0
230
1.0
 70
     8
 71
     3
 72
    11
 73
     7
 74
     0
 42
0.000000001
 43
0.0000000001
 40
-1.0
 40
-1.0
 40
-1.0
 40
-1.0
 40
-0.6666666666666666
 40
-0.4166666666666666
 40
-0.1666666666666666
 40
0.0
 40
0.0
 40
0.0
 40
0.0
 10
927.8365830244126
 20
2045.867053054363
 30
0.0
 10
927.7248337347057
 20
2045.865963190564
 30
0.0
 10
927.5544901946895
 20
2045.828160175477
 30
0.0
 10
927.3336190175827
 20
2045.663158184053
 30
0.0
 10
927.2372427840533
 20
2045.489057174112
 30
0.0
 10
927.2140118694018
 20
2045.355786513246
 30
0.0
 10
927.2106401805498
 20
2045.298565044156
 30
0.0
1001
REVIT
1002
{
1070
     3
1000
923114
1002
}
  0
SPLINE
  5
9F
330
87
100
AcDbEntity
  8
M-PIPE
100
AcDbSpline
210
0.0
220
0.0
230
1.0
 70
     8
 71
     3
 72
    11
 73
     7
 74
     0
 42
0.000000001
 43
0.0000000001
 40
-1.0
 40
-1.0
 40
-1.0
 40
-1.0
 40
-0.7083333333333333
 40
-0.5
 40
-0.1666666666666666
 40
0.0
 40
0.0
 40
0.0
 40
0.0
 10
944.1221747058252
 20
2045.298565044156
 30
0.0
 10
944.1162742503344
 20
2045.398702615064
 30
0.0
 10
944.0783299173073
 20
2045.548117378281
 30
0.0
 10
943.9076832767071
 20
2045.748188593319
 30
0.0
 10
943.710076845163
 20
2045.848884712476
 30
0.0
 10
943.5521065068158
 20
2045.866508122463
 30
0.0
 10
943.4962318619623
 20
2045.867053054363
 30
0.0
1001
REVIT
1002
{
1070
     3
1000
923114
1002
}
  0
LINE
  5
A0
330
87
100
AcDbEntity
  8
M-PIPE
100
AcDbLine
 10
946.9911590961123
 20
2029.867053054345
 30
0.0
 11
946.9911590961123
 21
2028.249999999995
 31
0.0
1001
REVIT
1002
{
1070
     3
1000
923114
1002
}
  0
LINE
  5
A1
330
87
100
AcDbEntity
  8
M-PIPE
100
AcDbLine
 10
964.666407443252
 20
2029.867053054345
 30
0.0
 11
964.187357662038
 21
2043.585243924314
 31
0.0
1001
REVIT
1002
{
1070
     3
1000
923114
1002
}
  0
ARC
  5
A2
330
87
100
AcDbEntity
  8
M-PIPE
100
AcDbCircle
 10
959.1904035269426
 20
2043.410746440802
 30
0.0
 40
4.999999999999918
100
AcDbArc
 50
1.999999999995965
 51
100.0000000000001
1001
REVIT
1002
{
1070
     3
1000
923114
1002
}
  0
LINE
  5
A3
330
87
100
AcDbEntity
  8
M-PIPE
100
AcDbLine
 10
958.3221626386078
 20
2048.334785205863
 30
0.0
 11
944.8808998386613
 21
2045.964727919439
 31
0.0
1001
REVIT
1002
{
1070
     3
1000
923114
1002
}
  0
ARC
  5
A4
330
87
100
AcDbEntity
  8
M-PIPE
100
AcDbCircle
 10
943.7644710221835
 20
2052.296310369227
 30
0.0
 40
6.429257314863274
100
AcDbArc
 50
269.9999999999997
 51
280.0000000000004
1001
REVIT
1002
{
1070
     3
1000
923114
1002
}
  0
LINE
  5
A5
330
87
100
AcDbEntity
  8
M-PIPE
100
AcDbLine
 10
943.4962318619623
 20
2045.867053054363
 30
0.0
 11
943.7644710221835
 21
2045.867053054363
 31
0.0
1001
REVIT
1002
{
1070
     3
1000
923114
1002
}
  0
LINE
  5
A6
330
87
100
AcDbEntity
  8
M-PIPE
100
AcDbLine
 10
964.666407443252
 20
2029.867053054345
 30
0.0
 11
949.6731022710129
 21
2029.867053054345
 31
0.0
1001
REVIT
1002
{
1070
     3
1000
923114
1002
}
  0
ARC
  5
A7
330
87
100
AcDbEntity
  8
M-PIPE
100
AcDbCircle
 10
927.5683438642557
 20
2052.296310369227
 30
0.0
 40
6.429257314863434
100
AcDbArc
 50
259.9999999999994
 51
269.9999999999997
1001
REVIT
1002
{
1070
     3
1000
923114
1002
}
  0
LINE
  5
A8
330
87
100
AcDbEntity
  8
M-PIPE
100
AcDbLine
 10
926.4519150477777
 20
2045.964727919439
 30
0.0
 11
913.0106522478312
 21
2048.334785205863
 31
0.0
1001
REVIT
1002
{
1070
     3
1000
923114
1002
}
  0
ARC
  5
A9
330
87
100
AcDbEntity
  8
M-PIPE
100
AcDbCircle
 10
912.1424113594967
 20
2043.410746440801
 30
0.0
 40
4.999999999999965
100
AcDbArc
 50
80.00000000000127
 51
177.999999999999
1001
REVIT
1002
{
1070
     3
1000
923114
1002
}
  0
LINE
  5
AA
330
87
100
AcDbEntity
  8
M-PIPE
100
AcDbLine
 10
907.1454572244013
 20
2043.585243924314
 30
0.0
 11
906.6664074431873
 21
2029.867053054345
 31
0.0
1001
REVIT
1002
{
1070
     3
1000
923114
1002
}
  0
LINE
  5
AB
330
87
100
AcDbEntity
  8
M-PIPE
100
AcDbLine
 10
921.6597126153619
 20
2029.867053054345
 30
0.0
 11
906.6664074431873
 21
2029.867053054345
 31
0.0
1001
REVIT
1002
{
1070
     3
1000
923114
1002
}
  0
LINE
  5
AC
330
87
100
AcDbEntity
  8
M-PIPE
100
AcDbLine
 10
927.5683438642557
 20
2045.867053054363
 30
0.0
 11
927.8365830244126
 21
2045.867053054363
 31
0.0
1001
REVIT
1002
{
1070
     3
1000
923114
1002
}
  0
LINE
  5
AD
330
87
100
AcDbEntity
  8
P-SANR-FIXT
100
AcDbLine
 10
925.4693149628577
 20
2017.399999999996
 30
0.0
 11
922.6664074431882
 21
2017.399999999996
 31
0.0
  0
LINE
  5
AE
330
87
100
AcDbEntity
  8
P-SANR-FIXT
100
AcDbLine
 10
922.6664074431882
 20
1982.599999999996
 30
0.0
 11
935.1664074431882
 21
1982.599999999996
 31
0.0
  0
LINE
  5
AF
330
87
100
AcDbEntity
  8
P-SANR-FIXT
100
AcDbLine
 10
922.6664074431864
 20
1982.599999999995
 30
0.0
 11
922.6664074431864
 21
2017.399999999995
 31
0.0
  0
LINE
  5
B0
330
87
100
AcDbEntity
  8
P-SANR-FIXT
100
AcDbLine
 10
935.1664074431864
 20
2014.065281879652
 30
0.0
 11
935.1664074431864
 21
1982.599999999995
 31
0.0
  0
LINE
  5
B1
330
87
100
AcDbEntity
  8
P-SANR-FIXT
100
AcDbLine
 10
920.6880952796449
 20
1984.249999999996
 30
0.0
 11
922.6664074431882
 21
1984.249999999996
 31
0.0
  0
LINE
  5
B2
330
87
100
AcDbEntity
  8
P-SANR-FIXT
100
AcDbLine
 10
922.6664074431882
 20
2015.749999999996
 30
0.0
 11
920.6880952796449
 21
2015.749999999996
 31
0.0
  0
LINE
  5
B3
330
87
100
AcDbEntity
  8
P-SANR-FIXT
100
AcDbLine
 10
919.9664074431574
 20
1985.5
 30
0.0
 11
920.6443087148505
 21
1984.325840554908
 31
0.0
  0
LINE
  5
B4
330
87
100
AcDbEntity
  8
P-SANR-FIXT
100
AcDbLine
 10
920.6519244516854
 20
1984.312649711773
 30
0.0
 11
920.6880952796449
 21
1984.249999999996
 31
0.0
  0
LINE
  5
B5
330
87
100
AcDbEntity
  8
P-SANR-FIXT
100
AcDbLine
 10
920.6880952796449
 20
2015.749999999996
 30
0.0
 11
920.6519244516856
 21
2015.687350288219
 31
0.0
  0
LINE
  5
B6
330
87
100
AcDbEntity
  8
P-SANR-FIXT
100
AcDbLine
 10
920.6443087148507
 20
2015.674159445083
 30
0.0
 11
919.9664074431574
 21
2014.499999999992
 31
0.0
  0
LINE
  5
B7
330
87
100
AcDbEntity
  8
P-SANR-FIXT
100
AcDbLine
 10
945.916407443188
 20
2015.749999999996
 30
0.0
 11
945.916407443188
 21
2022.249999999996
 31
0.0
  0
LINE
  5
B8
330
87
100
AcDbEntity
  8
P-SANR-FIXT
100
AcDbLine
 10
925.4164074431882
 20
2023.367053054363
 30
0.0
 11
925.4164074431882
 21
2017.364189677981
 31
0.0
  0
LINE
  5
B9
330
87
100
AcDbEntity
  8
P-SANR-FIXT
100
AcDbLine
 10
935.1664074431882
 20
1984.249999999996
 30
0.0
 11
948.1734021870634
 21
1984.249999999996
 31
0.0
  0
LINE
  5
BA
330
87
100
AcDbEntity
  8
P-SANR-FIXT
100
AcDbLine
 10
948.1734021870634
 20
2015.749999999996
 30
0.0
 11
945.916407443188
 21
2015.749999999996
 31
0.0
  0
LWPOLYLINE
  5
BB
330
87
100
AcDbEntity
  8
P-SANR-FIXT
100
AcDbPolyline
 90
       39
 70
   128
 43
0.0
 10
948.1734021870634
 20
2015.749999999996
 10
948.2333861883434
 20
2015.748800159987
 10
948.2932742280173
 20
2015.74520255945
 10
948.3529704979966
 20
2015.739212953777
 10
948.4123794969846
 20
2015.73084092506
 10
948.471406183256
 20
2015.720099866758
 10
948.5299561267041
 20
2015.707006962274
 10
948.5879356599095
 20
2015.691583157462
 10
948.6452520279877
 20
2015.67385312712
 10
948.7018135369762
 20
2015.653845235513
 10
948.7575297005262
 20
2015.631591491001
 10
948.8123113846624
 20
2015.607127494826
 10
948.8660709503758
 20
2015.580492384165
 10
948.9187223938291
 20
2015.551728769512
 10
948.9701814839447
 20
2015.520882666516
 10
949.0203658971561
 20
2015.48800342236
 10
949.069195349107
 20
2015.453143636822
 10
949.1165917230912
 20
2015.416359078122
 10
949.1624791950206
 20
2015.377708593708
 10
949.2067843547292
 20
2015.337254016107
 10
949.2494363234126
 20
2015.295060064016
 10
949.2903668670198
 20
2015.251194238758
 10
949.3295105054119
 20
2015.205726716294
 10
949.366804617118
 20
2015.158730234961
 10
949.402189539515
 20
2015.110279979104
 10
949.4356086642753
 20
2015.060453458798
 10
949.4670085279285
 20
2015.009330385845
 10
949.4963388973909
 20
2014.956992546256
 10
949.5235528503283
 20
2014.903523669411
 10
949.5486068502211
 20
2014.849009294105
 10
949.5714608160142
 20
2014.793536631711
 10
949.5920781862379
 20
2014.737194426654
 10
949.6104259774972
 20
2014.680072814444
 10
949.6264748372407
 20
2014.622263177475
 10
949.6401990907166
 20
2014.563857998833
 10
949.6515767820461
 20
2014.504950714346
 10
949.6605897093511
 20
2014.445635563103
 10
949.6672234538698
 20
2014.386007436693
 10
949.6698493135962
 20
2014.353179443161
  0
LWPOLYLINE
  5
BC
330
87
100
AcDbEntity
  8
P-SANR-FIXT
100
AcDbPolyline
 90
       39
 70
   128
 43
0.0
 10
949.6698493135962
 20
1985.646820556831
 10
949.6645262382736
 20
1985.587061165145
 10
949.6568176825585
 20
1985.527562440836
 10
949.6467359784958
 20
1985.468419569171
 10
949.6342972546612
 20
1985.409727166128
 10
949.6195214103595
 20
1985.351579127031
 10
949.6024320837895
 20
1985.29406847634
 10
949.5830566142281
 20
1985.237287218826
 10
949.5614259982936
 20
1985.181326192389
 10
949.5375748403569
 20
1985.126274922733
 10
949.5115412971831
 20
1985.072221480147
 10
949.4833670168874
 20
1985.019252338608
 10
949.4530970723083
 20
1984.967452237442
 10
949.4207798888998
 20
1984.916904045762
 10
949.3864671672616
 20
1984.867688629891
 10
949.3502138004281
 20
1984.819884723995
 10
949.3120777860534
 20
1984.773568804127
 10
949.2721201336244
 20
1984.728814965879
 10
949.230404766862
 20
1984.685694805843
 10
949.1869984214536
 20
1984.644277307079
 10
949.1419705382924
 20
1984.604628728749
 10
949.0953931523861
 20
1984.566812500119
 10
949.0473407776166
 20
1984.53088911909
 10
948.997890287532
 20
1984.496916055407
 10
948.9471207923683
 20
1984.464947658725
 10
948.8951135124873
 20
1984.435035071659
 10
948.8419516484425
 20
1984.407226147968
 10
948.7877202478754
 20
1984.381565375997
 10
948.732506069459
 20
1984.358093807506
 10
948.6763974440997
 20
1984.336848992
 10
948.6194841336292
 20
1984.317864916651
 10
948.5618571872032
 20
1984.301171951928
 10
948.503608795643
 20
1984.286796803016
 10
948.4448321439494
 20
1984.274762467086
 10
948.3856212622264
 20
1984.265088196508
 10
948.3260708752544
 20
1984.257789468051
 10
948.2662762509489
 20
1984.252877958124
 10
948.2063330479533
 20
1984.250361524095
 10
948.1734021870634
 20
1984.249999999996
  0
LWPOLYLINE
  5
BD
330
87
100
AcDbEntity
  8
P-SANR-FIXT
100
AcDbPolyline
 90
       39
 70
   128
 43
0.0
 10
949.6698493135962
 20
2014.353179443161
 10
949.6750060791276
 20
2014.295287124802
 10
949.6824737950623
 20
2014.237647329744
 10
949.6922405146477
 20
2014.180352269361
 10
949.7042906132159
 20
2014.12349360353
 10
949.7186048131801
 20
2014.067162293985
 10
949.7351602148736
 20
2014.011448458806
 10
949.7539303331853
 20
2013.956441228243
 10
949.77488513993
 20
2013.902228602131
 10
949.7979911118873
 20
2013.848897309107
 10
949.8232112844307
 20
2013.796532667864
 10
949.8505053106645
 20
2013.745218450656
 10
949.8798295259687
 20
2013.695036749286
 10
949.9111370178546
 20
2013.64606784377
 10
949.944377701014
 20
2013.59839007391
 10
949.9794983974442
 20
2013.552079713969
 10
950.0164429215235
 20
2013.507210850643
 10
950.0551521698941
 20
2013.463855264541
 10
950.0955642160162
 20
2013.422082315353
 10
950.1376144092372
 20
2013.381958830886
 10
950.1812354782174
 20
2013.343549000156
 10
950.2263576385523
 20
2013.3069142707
 10
950.2729087044107
 20
2013.272113250268
 10
950.3208142040177
 20
2013.23920161307
 10
950.3699974987934
 20
2013.208232010704
 10
950.4203799059576
 20
2013.179253987929
 10
950.4718808244069
 20
2013.152313903398
 10
950.5244178636576
 20
2013.1274548555
 10
950.5779069756549
 20
2013.104716613408
 10
950.6322625892295
 20
2013.08413555346
 10
950.687397746995
 20
2013.065744600961
 10
950.7432242444606
 20
2013.049573177512
 10
950.7996527711393
 20
2013.03564715394
 10
950.856593053426
 20
2013.023988808912
 10
950.9139539990153
 20
2013.014616793295
 10
950.9716438426309
 20
2013.007546100312
 10
951.0295702928297
 20
2013.002788041566
 10
951.087640679648
 20
2013.000350228934
 10
951.1195426757804
 20
2012.999999999996
  0
LWPOLYLINE
  5
BE
330
87
100
AcDbEntity
  8
P-SANR-FIXT
100
AcDbPolyline
 90
       39
 70
   128
 43
0.0
 10
951.1195426757804
 20
1986.999999999996
 10
951.061432765346
 20
1986.998837646802
 10
951.0034158183721
 20
1986.99535244674
 10
950.9455846495976
 20
1986.989549975385
 10
950.8880317765559
 20
1986.981439515453
 10
950.8308492715668
 20
1986.971034041951
 10
950.7741286144396
 20
1986.958350201416
 10
950.717960546126
 20
1986.943408285287
 10
950.6624349235538
 20
1986.926232197443
 10
950.607640575874
 20
1986.906849415961
 10
950.5536651623541
 20
1986.885290949156
 10
950.5005950321415
 20
1986.861591285975
 10
950.4485150861237
 20
1986.835788340824
 10
950.3975086411045
 20
1986.807923392913
 10
950.347657296515
 20
1986.778041020211
 10
950.2990408038723
 20
1986.746189028142
 10
950.2517369391934
 20
1986.712418373098
 10
950.2058213785709
 20
1986.676783080923
 10
950.1613675771073
 20
1986.639340160483
 10
950.1184466514018
 20
1986.600149512463
 10
950.0771272657797
 20
1986.559273833539
 10
950.0374755224434
 20
1986.516778516079
 10
949.9995548557237
 20
1986.472731543525
 10
949.9634259305981
 20
1986.427203381637
 10
949.9291465456396
 20
1986.380266865761
 10
949.896771540552
 20
1986.331997084311
 10
949.8663527084366
 20
1986.28247125864
 10
949.8379387129359
 20
1986.231768619504
 10
949.8115750103817
 20
1986.17997028031
 10
949.7873037770741
 20
1986.127159107351
 10
949.7651638418084
 20
1986.073419587237
 10
949.7451906237582
 20
1986.018837691737
 10
949.7274160758118
 20
1985.96350074024
 10
949.7118686334545
 20
1985.907497260064
 10
949.6985731692769
 20
1985.850916844831
 10
949.6875509531857
 20
1985.793850011135
 10
949.6788196183754
 20
1985.736388053736
 10
949.6723931331191
 20
1985.678622899509
 10
949.6698493135962
 20
1985.646820556831
  0
LINE
  5
BF
330
87
100
AcDbEntity
  8
P-SANR-FIXT
100
AcDbLine
 10
951.1195426757804
 20
1986.999999999996
 30
0.0
 11
960.2738950330413
 21
1986.999999999996
 31
0.0
  0
LINE
  5
C0
330
87
100
AcDbEntity
  8
P-SANR-FIXT
100
AcDbLine
 10
960.2738950330413
 20
2012.999999999996
 30
0.0
 11
951.1195426757804
 21
2012.999999999996
 31
0.0
  0
LINE
  5
C1
330
87
100
AcDbEntity
  8
P-SANR-FIXT
100
AcDbLine
 10
941.4490564453592
 20
2028.249999999996
 30
0.0
 11
941.4490564453592
 21
2029.867053054346
 31
0.0
  0
LINE
  5
C2
330
87
100
AcDbEntity
  8
P-SANR-FIXT
100
AcDbLine
 10
941.4490564453592
 20
2045.867053054364
 30
0.0
 11
941.4490564453592
 21
2048.999999999996
 31
0.0
  0
LINE
  5
C3
330
87
100
AcDbEntity
  8
P-SANR-FIXT
100
AcDbLine
 10
929.883758441017
 20
2048.999999999996
 30
0.0
 11
929.883758441017
 21
2045.867053054365
 31
0.0
  0
LINE
  5
C4
330
87
100
AcDbEntity
  8
P-SANR-FIXT
100
AcDbLine
 10
941.4490564453592
 20
2048.999999999996
 30
0.0
 11
940.4490564453592
 21
2049.999999999996
 31
0.0
  0
LINE
  5
C5
330
87
100
AcDbEntity
  8
P-SANR-FIXT
100
AcDbLine
 10
930.8837584410172
 20
2049.999999999996
 30
0.0
 11
929.883758441017
 21
2048.999999999996
 31
0.0
  0
LINE
  5
C6
330
87
100
AcDbEntity
  8
P-SANR-FIXT
100
AcDbLine
 10
960.6664074431883
 20
2012.229651020301
 30
0.0
 11
960.3287684550906
 21
2012.892304845409
 31
0.0
  0
LINE
  5
C7
330
87
100
AcDbEntity
  8
P-SANR-FIXT
100
AcDbLine
 10
960.3063246859656
 20
2012.936353222477
 30
0.0
 11
960.2738950330413
 21
2012.999999999996
 31
0.0
  0
LINE
  5
C8
330
87
100
AcDbEntity
  8
P-SANR-FIXT
100
AcDbLine
 10
960.2738950330413
 20
1986.999999999996
 30
0.0
 11
960.3063246859656
 21
1987.063646777515
 31
0.0
  0
LINE
  5
C9
330
87
100
AcDbEntity
  8
P-SANR-FIXT
100
AcDbLine
 10
960.3287684550906
 20
1987.107695154582
 30
0.0
 11
960.6664074431883
 21
1987.770348979691
 31
0.0
  0
LINE
  5
CA
330
87
100
AcDbEntity
  8
P-SANR-FIXT
100
AcDbLine
 10
909.6664074431576
 20
1987.000000000011
 30
0.0
 11
910.5324328469473
 21
1985.500000000002
 31
0.0
  0
LINE
  5
CB
330
87
100
AcDbEntity
  8
P-SANR-FIXT
100
AcDbLine
 10
910.5324328469485
 20
2014.499999999992
 30
0.0
 11
909.6664074431574
 21
2012.999999999981
 31
0.0
  0
LINE
  5
CC
330
87
100
AcDbEntity
  8
P-SANR-FIXT
100
AcDbLine
 10
909.666407443156
 20
1987.00000000001
 30
0.0
 11
909.666407443156
 21
1988.082864355458
 31
0.0
  0
LINE
  5
CD
330
87
100
AcDbEntity
  8
P-SANR-FIXT
100
AcDbLine
 10
909.666407443156
 20
1988.100950771456
 30
0.0
 11
909.666407443156
 21
1988.741669750811
 31
0.0
  0
LINE
  5
CE
330
87
100
AcDbEntity
  8
P-SANR-FIXT
100
AcDbLine
 10
909.666407443156
 20
1988.74166975081
 30
0.0
 11
909.666407443156
 21
1989.388922078344
 31
0.0
  0
LINE
  5
CF
330
87
100
AcDbEntity
  8
P-SANR-FIXT
100
AcDbLine
 10
909.666407443156
 20
1989.51622014453
 30
0.0
 11
909.666407443156
 21
1998.584730626921
 31
0.0
  0
LINE
  5
D0
330
87
100
AcDbEntity
  8
P-SANR-FIXT
100
AcDbLine
 10
909.666407443156
 20
1998.700411816436
 30
0.0
 11
909.666407443156
 21
1999.999999999994
 31
0.0
  0
LINE
  5
D1
330
87
100
AcDbEntity
  8
P-SANR-FIXT
100
AcDbLine
 10
909.666407443156
 20
1999.999999999994
 30
0.0
 11
909.666407443156
 21
2001.299588183556
 31
0.0
  0
LINE
  5
D2
330
87
100
AcDbEntity
  8
P-SANR-FIXT
100
AcDbLine
 10
909.666407443156
 20
2001.415269373069
 30
0.0
 11
909.666407443156
 21
2010.48377985546
 31
0.0
  0
LINE
  5
D3
330
87
100
AcDbEntity
  8
P-SANR-FIXT
100
AcDbLine
 10
909.666407443156
 20
2010.61107792176
 30
0.0
 11
909.666407443156
 21
2011.258330249179
 31
0.0
  0
LINE
  5
D4
330
87
100
AcDbEntity
  8
P-SANR-FIXT
100
AcDbLine
 10
909.666407443156
 20
2011.258330249179
 30
0.0
 11
909.666407443156
 21
2011.899049228534
 31
0.0
  0
LINE
  5
D5
330
87
100
AcDbEntity
  8
P-SANR-FIXT
100
AcDbLine
 10
909.666407443156
 20
2011.917135644411
 30
0.0
 11
909.666407443156
 21
2012.99999999998
 31
0.0
  0
LINE
  5
D6
330
87
100
AcDbEntity
  8
P-SANR-FIXT
100
AcDbLine
 10
909.666407443156
 20
2011.899049228534
 30
0.0
 11
909.666407443156
 21
2011.25833024918
 31
0.0
  0
LINE
  5
D7
330
87
100
AcDbEntity
  8
P-SANR-FIXT
100
AcDbLine
 10
909.666407443156
 20
2011.25833024918
 30
0.0
 11
909.666407443156
 21
2010.61107792176
 31
0.0
  0
LINE
  5
D8
330
87
100
AcDbEntity
  8
P-SANR-FIXT
100
AcDbLine
 10
909.666407443156
 20
1989.388922078344
 30
0.0
 11
909.666407443156
 21
1988.741669750811
 31
0.0
  0
LINE
  5
D9
330
87
100
AcDbEntity
  8
P-SANR-FIXT
100
AcDbLine
 10
909.666407443156
 20
1988.741669750811
 30
0.0
 11
909.666407443156
 21
1988.100950771456
 31
0.0
  0
LINE
  5
DA
330
87
100
AcDbEntity
  8
P-SANR-FIXT
100
AcDbLine
 10
909.666407443156
 20
2001.301472653318
 30
0.0
 11
909.666407443156
 21
1998.698527346674
 31
0.0
  0
LINE
  5
DB
330
87
100
AcDbEntity
  8
P-SANR-FIXT
100
AcDbLine
 10
909.666407443156
 20
1998.698527346674
 30
0.0
 11
909.666407443156
 21
2001.301472653318
 31
0.0
  0
LINE
  5
DC
330
87
100
AcDbEntity
  8
P-SANR-FIXT
100
AcDbLine
 10
910.5324328469469
 20
1985.530361606134
 30
0.0
 11
910.5324328469469
 21
1985.499999999999
 31
0.0
  0
LINE
  5
DD
330
87
100
AcDbEntity
  8
P-SANR-FIXT
100
AcDbLine
 10
919.9664074431558
 20
1985.530361606134
 30
0.0
 11
910.5324328469453
 21
1985.530361606134
 31
0.0
  0
SPLINE
  5
DE
330
87
100
AcDbEntity
  8
P-SANR-FIXT
100
AcDbSpline
210
0.0
220
0.0
230
1.0
 70
     8
 71
     3
 72
     9
 73
     5
 74
     0
 42
0.000000001
 43
0.0000000001
 40
0.0
 40
0.0
 40
0.0
 40
0.0
 40
0.5
 40
0.8024967357879532
 40
0.8024967357879532
 40
0.8024967357879532
 40
0.8024967357879532
 10
910.532432846926
 20
1991.95297789547
 30
0.0
 10
910.2522793430155
 20
1991.426590861058
 30
0.0
 10
909.9116266440024
 20
1990.5746562669
 30
0.0
 10
909.7459051459559
 20
1989.711347340157
 30
0.0
 10
909.708292815381
 20
1989.384311636458
 30
0.0
  0
SPLINE
  5
DF
330
87
100
AcDbEntity
  8
P-SANR-FIXT
100
AcDbSpline
210
0.0
220
0.0
230
1.0
 70
     8
 71
     3
 72
     8
 73
     4
 74
     0
 42
0.000000001
 43
0.0000000001
 40
0.8146817145953326
 40
0.8146817145953326
 40
0.8146817145953326
 40
0.8146817145953326
 40
1.0
 40
1.0
 40
1.0
 40
1.0
 10
909.7038685788831
 20
1989.344783444285
 30
0.0
 10
909.6820529163711
 20
1989.144352109471
 30
0.0
 10
909.6695658711288
 20
1988.94331421165
 30
0.0
 10
909.666407443156
 20
1988.741669750822
 30
0.0
  0
SPLINE
  5
E0
330
87
100
AcDbEntity
  8
P-SANR-FIXT
100
AcDbSpline
210
0.0
220
0.0
230
1.0
 70
     8
 71
     3
 72
     8
 73
     4
 74
     0
 42
0.000000001
 43
0.0000000001
 40
0.0
 40
0.0
 40
0.0
 40
0.0
 40
0.192257762847509
 40
0.192257762847509
 40
0.192257762847509
 40
0.192257762847509
 10
909.666407443156
 20
1988.741669750822
 30
0.0
 10
909.6696841424567
 20
1988.532474458272
 30
0.0
 10
909.6830011835564
 20
1988.323932006304
 30
0.0
 10
909.7063585664553
 20
1988.116042394917
 30
0.0
  0
SPLINE
  5
E1
330
87
100
AcDbEntity
  8
P-SANR-FIXT
100
AcDbSpline
210
0.0
220
0.0
230
1.0
 70
     8
 71
     3
 72
     9
 73
     5
 74
     0
 42
0.000000001
 43
0.0000000001
 40
0.25
 40
0.25
 40
0.25
 40
0.25
 40
0.5
 40
1.0
 40
1.0
 40
1.0
 40
1.0
 10
909.7301208654078
 20
1987.928907851241
 30
0.0
 10
909.7683356649026
 20
1987.65909109176
 30
0.0
 10
909.9339110396179
 20
1986.852952434452
 30
0.0
 10
910.252279343029
 20
1986.056748640553
 30
0.0
 10
910.5324328469453
 20
1985.530361606134
 30
0.0
  0
LINE
  5
E2
330
87
100
AcDbEntity
  8
P-SANR-FIXT
100
AcDbLine
 10
919.9664074431558
 20
1991.95297789547
 30
0.0
 11
910.532432846926
 21
1991.95297789547
 31
0.0
  0
LINE
  5
E3
330
87
100
AcDbEntity
  8
P-SANR-FIXT
100
AcDbLine
 10
910.5324328469469
 20
1993.577383710658
 30
0.0
 11
910.5324328469469
 21
1991.95297789547
 31
0.0
  0
LINE
  5
E4
330
87
100
AcDbEntity
  8
P-SANR-FIXT
100
AcDbLine
 10
933.6625207418247
 20
2028.249999999995
 30
0.0
 11
945.2090747851826
 21
2028.249999999995
 31
0.0
  0
LINE
  5
E5
330
87
100
AcDbEntity
  8
P-SANR-FIXT
100
AcDbLine
 10
920.6880952796431
 20
2015.749999999995
 30
0.0
 11
920.6880952796431
 21
1984.249999999995
 31
0.0
  0
LINE
  5
E6
330
87
100
AcDbEntity
  8
P-SANR-FIXT
100
AcDbLine
 10
919.9664074431558
 20
2014.499999999991
 30
0.0
 11
919.9664074431558
 21
2014.469638393859
 31
0.0
  0
LINE
  5
E7
330
87
100
AcDbEntity
  8
P-SANR-FIXT
100
AcDbLine
 10
919.9664074431558
 20
2014.469638393859
 30
0.0
 11
919.9664074431558
 21
2008.047022104478
 31
0.0
  0
LINE
  5
E8
330
87
100
AcDbEntity
  8
P-SANR-FIXT
100
AcDbLine
 10
919.9664074431399
 20
2008.047022104463
 30
0.0
 11
919.9664074431399
 21
2006.422616289408
 31
0.0
  0
LINE
  5
E9
330
87
100
AcDbEntity
  8
P-SANR-FIXT
100
AcDbLine
 10
919.9664074431558
 20
2006.42261628942
 30
0.0
 11
919.9664074431558
 21
1993.57738371057
 31
0.0
  0
LINE
  5
EA
330
87
100
AcDbEntity
  8
P-SANR-FIXT
100
AcDbLine
 10
919.9664074431387
 20
1991.952977895528
 30
0.0
 11
919.9664074431387
 21
1993.577383710583
 31
0.0
  0
LINE
  5
EB
330
87
100
AcDbEntity
  8
P-SANR-FIXT
100
AcDbLine
 10
919.9664074431558
 20
1991.952977895512
 30
0.0
 11
919.9664074431558
 21
1985.530361606131
 31
0.0
  0
LINE
  5
EC
330
87
100
AcDbEntity
  8
P-SANR-FIXT
100
AcDbLine
 10
919.9664074431545
 20
1985.500000000001
 30
0.0
 11
919.9664074431545
 21
1985.530361606133
 31
0.0
  0
LINE
  5
ED
330
87
100
AcDbEntity
  8
P-SANR-FIXT
100
AcDbLine
 10
945.7193920746281
 20
2022.136253123923
 30
0.0
 11
945.7193920746281
 21
2027.749999999995
 31
0.0
  0
LINE
  5
EE
330
87
100
AcDbEntity
  8
P-SANR-FIXT
100
AcDbLine
 10
945.7193920746281
 20
2027.749999999995
 30
0.0
 11
933.6643105087251
 21
2027.749999999995
 31
0.0
  0
SPLINE
  5
EF
330
87
100
AcDbEntity
  8
P-SANR-FIXT
100
AcDbSpline
210
0.0
220
0.0
230
1.0
 70
     8
 71
     3
 72
    20
 73
    16
 74
     0
 42
0.000000001
 43
0.0000000001
 40
-0.8234606482010356
 40
-0.8234606482010356
 40
-0.8234606482010356
 40
-0.8234606482010356
 40
-0.8125
 40
-0.75
 40
-0.6875
 40
-0.65625
 40
-0.625
 40
-0.59375
 40
-0.5625
 40
-0.53125
 40
-0.5
 40
-0.375
 40
-0.25
 40
-0.125
 40
0.0
 40
0.0
 40
0.0
 40
0.0
 10
935.1674968090371
 20
2011.972987845957
 30
0.0
 10
935.2436152396736
 20
2011.969883161456
 30
0.0
 10
935.7542533018992
 20
2011.953450244623
 30
0.0
 10
936.7006835250272
 20
2011.977476127754
 30
0.0
 10
937.7556895893674
 20
2012.129426033917
 30
0.0
 10
938.5865249229411
 20
2012.308349179372
 30
0.0
 10
939.1854612080399
 20
2012.460807945839
 30
0.0
 10
939.763409746174
 20
2012.634305237539
 30
0.0
 10
940.3265504088111
 20
2012.83017974809
 30
0.0
 10
940.8694343790887
 20
2013.039463497842
 30
0.0
 10
941.9059807260859
 20
2013.467927829839
 30
0.0
 10
943.297937276786
 20
2014.16397280534
 30
0.0
 10
944.7434016164688
 20
2015.003581735627
 30
0.0
 10
945.6966341842706
 20
2015.603280261604
 30
0.0
 10
945.9084547032031
 20
2015.749999999995
 30
0.0
 10
945.9164074431864
 20
2015.749999999995
 30
0.0
  0
LINE
  5
F0
330
87
100
AcDbEntity
  8
P-SANR-FIXT
100
AcDbLine
 10
951.0392548939163
 20
1987.105493840916
 30
0.0
 11
951.0392548939163
 21
1992.085723340784
 31
0.0
  0
LINE
  5
F1
330
87
100
AcDbEntity
  8
P-SANR-FIXT
100
AcDbLine
 10
951.0392548939163
 20
1994.999146268373
 30
0.0
 11
951.0392548939163
 21
2004.999551513414
 31
0.0
  0
LINE
  5
F2
330
87
100
AcDbEntity
  8
P-SANR-FIXT
100
AcDbLine
 10
951.0392548939163
 20
2007.893652427451
 30
0.0
 11
951.0392548939163
 21
2012.667179408452
 31
0.0
  0
LINE
  5
F3
330
87
100
AcDbEntity
  8
P-SANR-FIXT
100
AcDbLine
 10
960.2738950330397
 20
1986.999999999995
 30
0.0
 11
960.2738950330397
 21
1987.107695154582
 31
0.0
  0
LINE
  5
F4
330
87
100
AcDbEntity
  8
P-SANR-FIXT
100
AcDbLine
 10
960.2738950330397
 20
1987.107695154582
 30
0.0
 11
951.1195426757788
 21
1987.107695154582
 31
0.0
  0
LINE
  5
F5
330
87
100
AcDbEntity
  8
P-SANR-FIXT
100
AcDbLine
 10
951.1195426757788
 20
1992.107695154581
 30
0.0
 11
960.2738950330397
 21
1992.107695154581
 31
0.0
  0
LINE
  5
F6
330
87
100
AcDbEntity
  8
P-SANR-FIXT
100
AcDbLine
 10
960.2738950330397
 20
1992.107695154581
 30
0.0
 11
960.2738950330397
 21
1994.999999999995
 31
0.0
  0
LINE
  5
F7
330
87
100
AcDbEntity
  8
P-SANR-FIXT
100
AcDbLine
 10
960.2738950330397
 20
1994.999999999995
 30
0.0
 11
951.1195426757788
 21
1994.999999999995
 31
0.0
  0
LINE
  5
F8
330
87
100
AcDbEntity
  8
P-SANR-FIXT
100
AcDbLine
 10
951.1195426757788
 20
2004.999999999995
 30
0.0
 11
960.2738950330397
 21
2004.999999999995
 31
0.0
  0
LINE
  5
F9
330
87
100
AcDbEntity
  8
P-SANR-FIXT
100
AcDbLine
 10
960.2738950330397
 20
2004.999999999995
 30
0.0
 11
960.2738950330397
 21
2007.892304845408
 31
0.0
  0
LINE
  5
FA
330
87
100
AcDbEntity
  8
P-SANR-FIXT
100
AcDbLine
 10
960.2738950330397
 20
2007.892304845408
 30
0.0
 11
951.1195426757788
 21
2007.892304845408
 31
0.0
  0
LINE
  5
FB
330
87
100
AcDbEntity
  8
P-SANR-FIXT
100
AcDbLine
 10
951.1195426757788
 20
2012.892304845408
 30
0.0
 11
960.2738950330397
 21
2012.892304845408
 31
0.0
  0
LINE
  5
FC
330
87
100
AcDbEntity
  8
P-SANR-FIXT
100
AcDbLine
 10
960.2738950330397
 20
2012.892304845408
 30
0.0
 11
960.2738950330397
 21
2012.999999999995
 31
0.0
  0
LINE
  5
FD
330
87
100
AcDbEntity
  8
P-SANR-FIXT
100
AcDbLine
 10
960.6664074431865
 20
2012.2296510203
 30
0.0
 11
960.6664074431865
 21
2011.571750062284
 31
0.0
  0
LINE
  5
FE
330
87
100
AcDbEntity
  8
P-SANR-FIXT
100
AcDbLine
 10
960.6664074431865
 20
2011.571750062284
 30
0.0
 11
960.6664074431865
 21
2009.212859628533
 31
0.0
  0
LINE
  5
FF
330
87
100
AcDbEntity
  8
P-SANR-FIXT
100
AcDbLine
 10
960.6664074431865
 20
2009.212859628533
 30
0.0
 11
960.6664074431865
 21
2002.358890433745
 31
0.0
  0
LINE
  5
100
330
87
100
AcDbEntity
  8
P-SANR-FIXT
100
AcDbLine
 10
960.6664074431865
 20
2002.358890433745
 30
0.0
 11
960.6664074431865
 21
1997.641109566244
 31
0.0
  0
LINE
  5
101
330
87
100
AcDbEntity
  8
P-SANR-FIXT
100
AcDbLine
 10
960.6664074431865
 20
1997.641109566244
 30
0.0
 11
960.6664074431865
 21
1990.787140371457
 31
0.0
  0
LINE
  5
102
330
87
100
AcDbEntity
  8
P-SANR-FIXT
100
AcDbLine
 10
960.6664074431865
 20
1990.787140371457
 30
0.0
 11
960.6664074431865
 21
1988.428249937706
 31
0.0
  0
LINE
  5
103
330
87
100
AcDbEntity
  8
P-SANR-FIXT
100
AcDbLine
 10
960.6664074431865
 20
1988.428249937706
 30
0.0
 11
960.6664074431865
 21
1987.77034897969
 31
0.0
  0
SPLINE
  5
104
330
87
100
AcDbEntity
  8
P-SANR-FIXT
100
AcDbSpline
210
0.0
220
0.0
230
1.0
 70
     8
 71
     3
 72
     9
 73
     5
 74
     0
 42
0.000000001
 43
0.0000000001
 40
0.0
 40
0.0
 40
0.0
 40
0.0
 40
0.5
 40
1.0
 40
1.0
 40
1.0
 40
1.0
 10
960.2738950330397
 20
2007.892304845408
 30
0.0
 10
960.3603890412889
 20
2008.11085769771
 30
0.0
 10
960.5123017845627
 20
2008.549503013867
 30
0.0
 10
960.6220639813868
 20
2008.991227553127
 30
0.0
 10
960.6664074431865
 20
2009.212859628533
 30
0.0
  0
SPLINE
  5
105
330
87
100
AcDbEntity
  8
P-SANR-FIXT
100
AcDbSpline
210
0.0
220
0.0
230
1.0
 70
     8
 71
     3
 72
     9
 73
     5
 74
     0
 42
0.000000001
 43
0.0000000001
 40
0.0
 40
0.0
 40
0.0
 40
0.0
 40
0.5
 40
1.0
 40
1.0
 40
1.0
 40
1.0
 10
960.6664074431865
 20
2011.571750062284
 30
0.0
 10
960.6220639813868
 20
2011.793382137689
 30
0.0
 10
960.5123017845627
 20
2012.235106676949
 30
0.0
 10
960.3603890412889
 20
2012.673751993106
 30
0.0
 10
960.2738950330397
 20
2012.892304845408
 30
0.0
  0
SPLINE
  5
106
330
87
100
AcDbEntity
  8
P-SANR-FIXT
100
AcDbSpline
210
0.0
220
0.0
230
1.0
 70
     8
 71
     3
 72
     9
 73
     5
 74
     0
 42
0.000000001
 43
0.0000000001
 40
0.0
 40
0.0
 40
0.0
 40
0.0
 40
0.5
 40
1.0
 40
1.0
 40
1.0
 40
1.0
 10
960.2738950330397
 20
1994.999999999995
 30
0.0
 10
960.3603890412889
 20
1995.437105704599
 30
0.0
 10
960.5123017845627
 20
1996.314396336913
 30
0.0
 10
960.6220639813868
 20
1997.197845415432
 30
0.0
 10
960.6664074431865
 20
1997.641109566244
 30
0.0
  0
SPLINE
  5
107
330
87
100
AcDbEntity
  8
P-SANR-FIXT
100
AcDbSpline
210
0.0
220
0.0
230
1.0
 70
     8
 71
     3
 72
     9
 73
     5
 74
     0
 42
0.000000001
 43
0.0000000001
 40
0.0
 40
0.0
 40
0.0
 40
0.0
 40
0.5
 40
1.0
 40
1.0
 40
1.0
 40
1.0
 10
960.6664074431865
 20
2002.358890433745
 30
0.0
 10
960.6220639813868
 20
2002.802154584557
 30
0.0
 10
960.5123017845627
 20
2003.685603663077
 30
0.0
 10
960.3603890412889
 20
2004.56289429539
 30
0.0
 10
960.2738950330397
 20
2004.999999999995
 30
0.0
  0
SPLINE
  5
108
330
87
100
AcDbEntity
  8
P-SANR-FIXT
100
AcDbSpline
210
0.0
220
0.0
230
1.0
 70
     8
 71
     3
 72
     9
 73
     5
 74
     0
 42
0.000000001
 43
0.0000000001
 40
0.0
 40
0.0
 40
0.0
 40
0.0
 40
0.5
 40
1.0
 40
1.0
 40
1.0
 40
1.0
 10
960.2738950330397
 20
1987.107695154582
 30
0.0
 10
960.3603890412889
 20
1987.326248006884
 30
0.0
 10
960.5123017845627
 20
1987.76489332304
 30
0.0
 10
960.6220639813868
 20
1988.2066178623
 30
0.0
 10
960.6664074431865
 20
1988.428249937706
 30
0.0
  0
SPLINE
  5
109
330
87
100
AcDbEntity
  8
P-SANR-FIXT
100
AcDbSpline
210
0.0
220
0.0
230
1.0
 70
     8
 71
     3
 72
     9
 73
     5
 74
     0
 42
0.000000001
 43
0.0000000001
 40
0.0
 40
0.0
 40
0.0
 40
0.0
 40
0.5
 40
1.0
 40
1.0
 40
1.0
 40
1.0
 10
960.6664074431865
 20
1990.787140371457
 30
0.0
 10
960.6220639813868
 20
1991.008772446862
 30
0.0
 10
960.5123017845627
 20
1991.450496986123
 30
0.0
 10
960.3603890412889
 20
1991.889142302279
 30
0.0
 10
960.2738950330397
 20
1992.107695154581
 30
0.0
  0
LINE
  5
10A
330
87
100
AcDbEntity
  8
P-SANR-FIXT
100
AcDbLine
 10
945.7193920746311
 20
2027.749999999992
 30
0.0
 11
945.209074785186
 21
2028.249999999992
 31
0.0
  0
ARC
  5
10B
330
87
100
AcDbEntity
  8
P-SANR-FIXT
100
AcDbCircle
 10
947.6664074431864
 20
2025.569764047836
 30
0.0
 40
2.000000000000122
100
AcDbArc
 50
299.9999999999996
 51
0.0
  0
LINE
  5
10C
330
87
100
AcDbEntity
  8
P-SANR-FIXT
100
AcDbLine
 10
949.6664074431865
 20
2025.569764047836
 30
0.0
 11
949.6664074431865
 21
2028.249999999995
 31
0.0
  0
LINE
  5
10D
330
87
100
AcDbEntity
  8
P-SANR-FIXT
100
AcDbLine
 10
945.2090747851826
 20
2028.249999999995
 30
0.0
 11
949.6664074431865
 21
2028.249999999995
 31
0.0
  0
LINE
  5
10E
330
87
100
AcDbEntity
  8
P-SANR-FIXT
100
AcDbLine
 10
945.7193920746281
 20
2022.136253123923
 30
0.0
 11
948.6664074431866
 21
2023.837713240267
 31
0.0
  0
LINE
  5
10F
330
87
100
AcDbEntity
  8
P-SANR-FIXT
100
AcDbLine
 10
930.8837584410154
 20
2049.999999999995
 30
0.0
 11
940.4490564453574
 21
2049.999999999995
 31
0.0
  0
LINE
  5
110
330
87
100
AcDbEntity
  8
P-SANR-FIXT
100
AcDbLine
 10
941.4490564453574
 20
2048.999999999995
 30
0.0
 11
929.8837584410156
 21
2048.999999999995
 31
0.0
  0
LINE
  5
111
330
87
100
AcDbEntity
  8
P-SANR-FIXT
100
AcDbLine
 10
919.9664074431558
 20
1993.577383710659
 30
0.0
 11
910.5324328469244
 21
1993.577383710659
 31
0.0
  0
SPLINE
  5
112
330
87
100
AcDbEntity
  8
P-SANR-FIXT
100
AcDbSpline
210
0.0
220
0.0
230
1.0
 70
     8
 71
     3
 72
     9
 73
     5
 74
     0
 42
0.000000001
 43
0.0000000001
 40
0.0
 40
0.0
 40
0.0
 40
0.0
 40
0.5
 40
0.8024967358094905
 40
0.8024967358094905
 40
0.8024967358094905
 40
0.8024967358094905
 10
910.5324328469244
 20
2006.422616289331
 30
0.0
 10
910.2522793430086
 20
2005.369842220501
 30
0.0
 10
909.9116266439819
 20
2003.665973032129
 30
0.0
 10
909.7459051459388
 20
2001.939355178587
 30
0.0
 10
909.7082928153673
 20
2001.285283771136
 30
0.0
  0
SPLINE
  5
113
330
87
100
AcDbEntity
  8
P-SANR-FIXT
100
AcDbSpline
210
0.0
220
0.0
230
1.0
 70
     8
 71
     3
 72
     8
 73
     4
 74
     0
 42
0.000000001
 43
0.0000000001
 40
0.8277107403523535
 40
0.8277107403523535
 40
0.8277107403523535
 40
0.8277107403523535
 40
1.0
 40
1.0
 40
1.0
 40
1.0
 10
909.6994055824401
 20
2001.121659995984
 30
0.0
 10
909.6803431937969
 20
2000.748821872528
 30
0.0
 10
909.6693438140356
 20
2000.374935207199
 30
0.0
 10
909.666407443156
 20
1999.999999999994
 30
0.0
  0
SPLINE
  5
114
330
87
100
AcDbEntity
  8
P-SANR-FIXT
100
AcDbSpline
210
0.0
220
0.0
230
1.0
 70
     8
 71
     3
 72
     8
 73
     4
 74
     0
 42
0.000000001
 43
0.0000000001
 40
0.0
 40
0.0
 40
0.0
 40
0.0
 40
0.1722892596476722
 40
0.1722892596476722
 40
0.1722892596476722
 40
0.1722892596476722
 10
909.666407443156
 20
1999.999999999994
 30
0.0
 10
909.6693438140356
 20
1999.625064792791
 30
0.0
 10
909.6803431937969
 20
1999.251178127461
 30
0.0
 10
909.6994055824401
 20
1998.878340004005
 30
0.0
  0
SPLINE
  5
115
330
87
100
AcDbEntity
  8
P-SANR-FIXT
100
AcDbSpline
210
0.0
220
0.0
230
1.0
 70
     8
 71
     3
 72
     9
 73
     5
 74
     0
 42
0.000000001
 43
0.0000000001
 40
0.1975032641901681
 40
0.1975032641901681
 40
0.1975032641901681
 40
0.1975032641901681
 40
0.5
 40
1.0
 40
1.0
 40
1.0
 40
1.0
 10
909.7082928153669
 20
1998.714716228856
 30
0.0
 10
909.7459051459386
 20
1998.060644821405
 30
0.0
 10
909.9116266439818
 20
1996.334026967862
 30
0.0
 10
910.2522793430086
 20
1994.630157779489
 30
0.0
 10
910.5324328469244
 20
1993.577383710659
 30
0.0
  0
LINE
  5
116
330
87
100
AcDbEntity
  8
P-SANR-FIXT
100
AcDbLine
 10
919.9664074431558
 20
2006.422616289331
 30
0.0
 11
910.5324328469244
 21
2006.422616289331
 31
0.0
  0
LINE
  5
117
330
87
100
AcDbEntity
  8
P-SANR-FIXT
100
AcDbLine
 10
910.5324328469469
 20
2008.047022104519
 30
0.0
 11
910.5324328469469
 21
2006.422616289331
 31
0.0
  0
LINE
  5
118
330
87
100
AcDbEntity
  8
P-SANR-FIXT
100
AcDbLine
 10
919.9664074431558
 20
2008.047022104519
 30
0.0
 11
910.532432846926
 21
2008.047022104519
 31
0.0
  0
SPLINE
  5
119
330
87
100
AcDbEntity
  8
P-SANR-FIXT
100
AcDbSpline
210
0.0
220
0.0
230
1.0
 70
     8
 71
     3
 72
     9
 73
     5
 74
     0
 42
0.000000001
 43
0.0000000001
 40
0.0
 40
0.0
 40
0.0
 40
0.0
 40
0.5
 40
0.75
 40
0.75
 40
0.75
 40
0.75
 10
910.5324328469453
 20
2014.469638393856
 30
0.0
 10
910.2522793430289
 20
2013.943251359437
 30
0.0
 10
909.9339110396179
 20
2013.147047565538
 30
0.0
 10
909.7683356649026
 20
2012.34090890823
 30
0.0
 10
909.7301208654078
 20
2012.071092148749
 30
0.0
  0
SPLINE
  5
11A
330
87
100
AcDbEntity
  8
P-SANR-FIXT
100
AcDbSpline
210
0.0
220
0.0
230
1.0
 70
     8
 71
     3
 72
     8
 73
     4
 74
     0
 42
0.000000001
 43
0.0000000001
 40
0.8077422371525301
 40
0.8077422371525301
 40
0.8077422371525301
 40
0.8077422371525301
 40
1.0
 40
1.0
 40
1.0
 40
1.0
 10
909.7063585664553
 20
2011.883957605073
 30
0.0
 10
909.6830011835564
 20
2011.676067993686
 30
0.0
 10
909.6696841424567
 20
2011.467525541718
 30
0.0
 10
909.666407443156
 20
2011.258330249168
 30
0.0
  0
SPLINE
  5
11B
330
87
100
AcDbEntity
  8
P-SANR-FIXT
100
AcDbSpline
210
0.0
220
0.0
230
1.0
 70
     8
 71
     3
 72
     8
 73
     4
 74
     0
 42
0.000000001
 43
0.0000000001
 40
0.0
 40
0.0
 40
0.0
 40
0.0
 40
0.1853182854047286
 40
0.1853182854047286
 40
0.1853182854047286
 40
0.1853182854047286
 10
909.666407443156
 20
2011.258330249168
 30
0.0
 10
909.6695658711288
 20
2011.056685788339
 30
0.0
 10
909.6820529163711
 20
2010.855647890519
 30
0.0
 10
909.7038685788835
 20
2010.655216555705
 30
0.0
  0
SPLINE
  5
11C
330
87
100
AcDbEntity
  8
P-SANR-FIXT
100
AcDbSpline
210
0.0
220
0.0
230
1.0
 70
     8
 71
     3
 72
     9
 73
     5
 74
     0
 42
0.000000001
 43
0.0000000001
 40
0.1975032641755911
 40
0.1975032641755911
 40
0.1975032641755911
 40
0.1975032641755911
 40
0.5
 40
1.0
 40
1.0
 40
1.0
 40
1.0
 10
909.7082928153675
 20
2010.61568836365
 30
0.0
 10
909.7459051459408
 20
2010.288652659911
 30
0.0
 10
909.9116266439867
 20
2009.425343733128
 30
0.0
 10
910.2522793430155
 20
2008.573409138931
 30
0.0
 10
910.532432846926
 20
2008.047022104519
 30
0.0
  0
LINE
  5
11D
330
87
100
AcDbEntity
  8
P-SANR-FIXT
100
AcDbLine
 10
919.9664074431558
 20
2014.469638393856
 30
0.0
 11
910.5324328469453
 21
2014.469638393856
 31
0.0
  0
LINE
  5
11E
330
87
100
AcDbEntity
  8
P-SANR-FIXT
100
AcDbLine
 10
910.5324328469469
 20
2014.499999999991
 30
0.0
 11
910.5324328469469
 21
2014.469638393856
 31
0.0
  0
ENDBLK
  5
120
330
87
100
AcDbEntity
  8
0
100
AcDbBlockEnd
  0
BLOCK
  5
193
330
122
100
AcDbEntity
  8
0
100
AcDbBlockBegin
  2
Automatic flow rate regulator valve_Caleffi_121 DN15 - 1_2__-V1-Est - Idraulica
 70
     0
 10
0.0
 20
0.0
 30
0.0
  3
Automatic flow rate regulator valve_Caleffi_121 DN15 - 1_2__-V1-Est - Idraulica
  1

  0
LWPOLYLINE
  5
123
330
122
100
AcDbEntity
  8
M-PIPE
100
AcDbPolyline
 90
       34
 70
   128
 43
0.0
 10
935.666407443189
 20
1865.745878730053
 10
935.0865620974829
 20
1865.734280276637
 10
934.5076443806362
 20
1865.699503471441
 10
933.9305804374999
 20
1865.641603949934
 10
933.3562934472828
 20
1865.560674338999
 10
932.7857021466611
 20
1865.456844108751
 10
932.2197193599961
 20
1865.330279365407
 10
931.6592505390101
 20
1865.181182585559
 10
931.105192314256
 20
1865.009792292249
 10
930.5584310607011
 20
1864.816382673383
 10
930.0198414797145
 20
1864.601263143095
 10
929.4902851997331
 20
1864.364777846743
 10
928.9706093978388
 20
1864.107305110353
 10
928.4616454444561
 20
1863.829256835379
 10
927.9642075733375
 20
1863.531077839748
 10
927.4790915789624
 20
1863.213245146244
 10
927.0070735434357
 20
1862.876267219376
 10
926.5489085949226
 20
1862.520683151942
 10
926.1053296996042
 20
1862.147061802597
 10
925.6770464890875
 20
1861.756000885797
 10
925.2647441251477
 20
1861.348126015587
 10
924.8690822036135
 20
1860.924089704753
 10
924.490693699156
 20
1860.484570320933
 10
924.1301839526638
 20
1860.030271001384
 10
923.7881297028266
 20
1859.561918528105
 10
923.4650781634766
 20
1859.080262165142
 10
923.1615461481627
 20
1858.586072459929
 10
922.8780192433594
 20
1858.080140010574
 10
922.6149510316318
 20
1857.563274201067
 10
922.3727623660007
 20
1857.036301906445
 10
922.1518406966664
 20
1856.500066169967
 10
921.952539451173
 20
1855.955424854417
 10
921.7751774689977
 20
1855.403249269718
 10
921.6597126153601
 20
1854.995878730055
1001
REVIT
1002
{
1070
     3
1000
923114
1002
}
  0
LWPOLYLINE
  5
124
330
122
100
AcDbEntity
  8
M-PIPE
100
AcDbPolyline
 90
       34
 70
   128
 43
0.0
 10
921.6597126153601
 20
1847.495878730055
 10
921.8208764804547
 20
1846.938759929756
 10
922.0041902415335
 20
1846.388531600735
 10
922.2093606356844
 20
1845.846073990941
 10
922.4360594340437
 20
1845.312254916834
 10
922.6839239668937
 20
1844.787928375055
 10
922.952557703857
 20
1844.273933176222
 10
923.2415308882602
 20
1843.771091603005
 10
923.5503812246522
 20
1843.280208094656
 10
923.8786146183795
 20
1842.802067960072
 10
924.2257059660314
 20
1842.337436121468
 10
924.591099995494
 20
1841.887055890672
 10
924.9742121542666
 20
1841.451647779977
 10
925.3744295446216
 20
1841.031908349477
 10
925.7911119041093
 20
1840.628509092723
 10
926.2235926298421
 20
1840.242095362469
 10
926.6711798449167
 20
1839.873285338255
 10
927.1331575052689
 20
1839.522669037445
 10
927.6087865451923
 20
1839.190807371324
 10
928.0973060596849
 20
1838.878231247767
 10
928.5979345217358
 20
1838.58544072189
 10
929.1098710326002
 20
1838.312904196076
 10
929.6322966030686
 20
1838.06105767063
 10
930.1643754636732
 20
1837.830304046267
 10
930.7052564017403
 20
1837.621012479561
 10
931.2540741231513
 20
1837.433517792373
 10
931.8099506366271
 20
1837.268119936205
 10
932.3719966583265
 20
1837.125083512345
 10
932.9393130345112
 20
1837.004637348558
 10
933.5109921800007
 20
1836.906974133011
 10
934.0861195301142
 20
1836.832250106017
 10
934.6637750037782
 20
1836.780584810077
 10
935.2430344754621
 20
1836.752060898644
 10
935.666407443189
 20
1836.745878730058
1001
REVIT
1002
{
1070
     3
1000
923114
1002
}
  0
LWPOLYLINE
  5
125
330
122
100
AcDbEntity
  8
M-PIPE
100
AcDbPolyline
 90
       34
 70
   128
 43
0.0
 10
935.666407443189
 20
1836.745878730058
 10
936.2462527888951
 20
1836.757477183473
 10
936.8251705057417
 20
1836.79225398867
 10
937.4022344488778
 20
1836.850153510177
 10
937.9765214390952
 20
1836.931083121111
 10
938.5471127397169
 20
1837.03491335136
 10
939.1130955263818
 20
1837.161478094703
 10
939.6735643473679
 20
1837.310574874551
 10
940.2276225721218
 20
1837.481965167862
 10
940.774383825677
 20
1837.675374786728
 10
941.3129734066634
 20
1837.890494317016
 10
941.842529686645
 20
1838.126979613368
 10
942.3622054885393
 20
1838.384452349758
 10
942.8711694419218
 20
1838.662500624732
 10
943.3686073130406
 20
1838.960679620363
 10
943.8537233074155
 20
1839.278512313867
 10
944.3257413429423
 20
1839.615490240735
 10
944.7839062914551
 20
1839.971074308169
 10
945.2274851867738
 20
1840.344695657514
 10
945.6557683972901
 20
1840.735756574314
 10
946.0680707612302
 20
1841.143631444523
 10
946.4637326827647
 20
1841.567667755358
 10
946.8421211872222
 20
1842.007187139177
 10
947.2026309337143
 20
1842.461486458727
 10
947.5446851835513
 20
1842.929838932006
 10
947.8677367229014
 20
1843.411495294969
 10
948.1712687382152
 20
1843.905685000181
 10
948.4547956430187
 20
1844.411617449537
 10
948.7178638547462
 20
1844.928483259044
 10
948.9600525203774
 20
1845.455455553665
 10
949.1809741897114
 20
1845.991691290145
 10
949.3802754352049
 20
1846.536332605694
 10
949.5576374173804
 20
1847.088508190393
 10
949.6731022710177
 20
1847.495878730055
1001
REVIT
1002
{
1070
     3
1000
923114
1002
}
  0
LWPOLYLINE
  5
126
330
122
100
AcDbEntity
  8
M-PIPE
100
AcDbPolyline
 90
       34
 70
   128
 43
0.0
 10
949.673102271018
 20
1854.995878730055
 10
949.5119384059234
 20
1855.552997530354
 10
949.3286246448446
 20
1856.103225859376
 10
949.1234542506939
 20
1856.645683469169
 10
948.8967554523346
 20
1857.179502543276
 10
948.6488909194845
 20
1857.703829085055
 10
948.3802571825211
 20
1858.217824283889
 10
948.0912839981181
 20
1858.720665857105
 10
947.782433661726
 20
1859.211549365454
 10
947.4542002679989
 20
1859.689689500039
 10
947.1071089203467
 20
1860.154321338643
 10
946.7417148908843
 20
1860.604701569439
 10
946.3586027321117
 20
1861.040109680133
 10
945.9583853417568
 20
1861.459849110633
 10
945.5417029822692
 20
1861.863248367388
 10
945.109222256536
 20
1862.249662097642
 10
944.6616350414617
 20
1862.618472121855
 10
944.1996573811094
 20
1862.969088422666
 10
943.7240283411862
 20
1863.300950088786
 10
943.2355088266934
 20
1863.613526212344
 10
942.7348803646426
 20
1863.906316738221
 10
942.222943853778
 20
1864.178853264035
 10
941.7005182833095
 20
1864.430699789481
 10
941.1684394227053
 20
1864.661453413844
 10
940.627558484638
 20
1864.87074498055
 10
940.0787407632268
 20
1865.058239667738
 10
939.5228642497514
 20
1865.223637523905
 10
938.960818228052
 20
1865.366673947766
 10
938.393501851867
 20
1865.487120111553
 10
937.8218227063777
 20
1865.5847833271
 10
937.2466953562643
 20
1865.659507354095
 10
936.6690398826001
 20
1865.711172650034
 10
936.0897804109166
 20
1865.739696561466
 10
935.666407443189
 20
1865.745878730053
1001
REVIT
1002
{
1070
     3
1000
923114
1002
}
  0
LWPOLYLINE
  5
127
330
122
100
AcDbEntity
  8
M-PIPE
100
AcDbPolyline
 90
       30
 70
   128
 43
0.0
 10
935.666407443189
 20
1860.495878730051
 10
935.2965061019629
 20
1860.488479716666
 10
934.9271965239747
 20
1860.466294513351
 10
934.5590695257671
 20
1860.4293586117
 10
934.1927140320079
 20
1860.377731101276
 10
933.8287161333354
 20
1860.311494575083
 10
933.4676581487389
 20
1860.230754997433
 10
933.1101176939721
 20
1860.135641534427
 10
932.7566667574913
 20
1860.026306347315
 10
932.407870785396
 20
1859.902924349073
 10
932.0642877768356
 20
1859.765692924579
 10
931.7264673913303
 20
1859.614831614837
 10
931.3949500694322
 20
1859.45058176576
 10
931.0702661681364
 20
1859.27320614207
 10
930.7529351124228
 20
1859.082988506926
 10
930.4434645642873
 20
1858.880233167967
 10
930.1423496105893
 20
1858.665264490482
 10
929.8500719710206
 20
1858.438426378499
 10
929.5670992274555
 20
1858.200081724606
 10
929.2938840759191
 20
1857.950611829406
 10
929.0308636023713
 20
1857.690415791514
 10
928.7784585834614
 20
1857.419909869085
 10
928.5370728133766
 20
1857.13952681389
 10
928.3070924578558
 20
1856.849715179005
 10
928.088885436408
 20
1856.550938601223
 10
927.8828008337194
 20
1856.243675059334
 10
927.6891683411916
 20
1855.928416109457
 10
927.5082977295069
 20
1855.605666098661
 10
927.3404783530599
 20
1855.275941358113
 10
927.2106401805494
 20
1854.995878730055
1001
REVIT
1002
{
1070
     3
1000
923114
1002
}
  0
LWPOLYLINE
  5
128
330
122
100
AcDbEntity
  8
M-PIPE
100
AcDbPolyline
 90
       30
 70
   128
 43
0.0
 10
927.2106401805494
 20
1847.495878730055
 10
927.3673638956593
 20
1847.160737827207
 10
927.5373643100765
 20
1846.832132278352
 10
927.7203694594035
 20
1846.510587782271
 10
927.9160865744401
 20
1846.196618741566
 10
928.1242025495533
 20
1845.890727439723
 10
928.3443844435783
 20
1845.593403237574
 10
928.5762800124546
 20
1845.305121790416
 10
928.8195182727399
 20
1845.026344287067
 10
929.0737100951066
 20
1844.757516712064
 10
929.3384488268626
 20
1844.49906913218
 10
929.6133109425126
 20
1844.251415008409
 10
929.8978567213051
 20
1844.014950534521
 10
930.1916309506941
 20
1843.790054003229
 10
930.4941636545812
 20
1843.57708520101
 10
930.8049708451767
 20
1843.376384832514
 10
931.1235552972778
 20
1843.188273975519
 10
931.4494073437227
 20
1843.013053567268
 10
931.7820056907477
 20
1842.851003923034
 10
932.1208182519484
 20
1842.702384287681
 10
932.4653029995031
 20
1842.56743242092
 10
932.8149088313018
 20
1842.446364216951
 10
933.1690764525925
 20
1842.339373359073
 10
933.5272392707326
 20
1842.246631009836
 10
933.8888243016169
 20
1842.168285537213
 10
934.2532530863302
 20
1842.10446227725
 10
934.6199426165577
 20
1842.055263333546
 10
934.988306267274
 20
1842.020767413917
 10
935.3577547352177
 20
1842.001029704474
 10
935.666407443189
 20
1841.995878730059
1001
REVIT
1002
{
1070
     3
1000
923114
1002
}
  0
LWPOLYLINE
  5
129
330
122
100
AcDbEntity
  8
M-PIPE
100
AcDbPolyline
 90
       30
 70
   128
 43
0.0
 10
935.666407443189
 20
1841.995878730059
 10
936.0363087844152
 20
1842.003277743445
 10
936.4056183624038
 20
1842.02546294676
 10
936.7737453606112
 20
1842.062398848411
 10
937.1401008543704
 20
1842.114026358835
 10
937.5040987530427
 20
1842.180262885028
 10
937.8651567376392
 20
1842.261002462678
 10
938.2226971924062
 20
1842.356115925684
 10
938.576148128887
 20
1842.465451112796
 10
938.9249441009823
 20
1842.588833111038
 10
939.2685271095427
 20
1842.726064535532
 10
939.6063474950478
 20
1842.876925845274
 10
939.9378648169461
 20
1843.04117569435
 10
940.2625487182417
 20
1843.218551318041
 10
940.5798797739553
 20
1843.408768953185
 10
940.8893503220911
 20
1843.611524292144
 10
941.190465275789
 20
1843.826492969629
 10
941.4827429153575
 20
1844.053331081612
 10
941.7657156589227
 20
1844.291675735505
 10
942.038930810459
 20
1844.541145630705
 10
942.3019512840069
 20
1844.801341668597
 10
942.5543563029165
 20
1845.071847591026
 10
942.7957420730017
 20
1845.352230646221
 10
943.0257224285226
 20
1845.642042281106
 10
943.2439294499701
 20
1845.940818858888
 10
943.4500140526589
 20
1846.248082400777
 10
943.6436465451867
 20
1846.563341350654
 10
943.8245171568716
 20
1846.88609136145
 10
943.9923365333182
 20
1847.215816101997
 10
944.1221747058289
 20
1847.495878730055
1001
REVIT
1002
{
1070
     3
1000
923114
1002
}
  0
LWPOLYLINE
  5
12A
330
122
100
AcDbEntity
  8
M-PIPE
100
AcDbPolyline
 90
       30
 70
   128
 43
0.0
 10
944.1221747058289
 20
1854.995878730055
 10
943.9654509907192
 20
1855.331019632904
 10
943.7954505763018
 20
1855.659625181759
 10
943.6124454269748
 20
1855.981169677839
 10
943.416728311938
 20
1856.295138718545
 10
943.208612336825
 20
1856.601030020388
 10
942.9884304428
 20
1856.898354222536
 10
942.7565348739239
 20
1857.186635669695
 10
942.5132966136382
 20
1857.465413173043
 10
942.2591047912721
 20
1857.734240748047
 10
941.9943660595157
 20
1857.992688327931
 10
941.7195039438659
 20
1858.240342451702
 10
941.4349581650734
 20
1858.47680692559
 10
941.1411839356842
 20
1858.701703456882
 10
940.8386512317973
 20
1858.914672259101
 10
940.5278440412017
 20
1859.115372627596
 10
940.2092595891005
 20
1859.303483484591
 10
939.8834075426558
 20
1859.478703892843
 10
939.5508091956308
 20
1859.640753537076
 10
939.2119966344299
 20
1859.78937317243
 10
938.8675118868752
 20
1859.924325039191
 10
938.5179060550765
 20
1860.04539324316
 10
938.1637384337858
 20
1860.152384101038
 10
937.8055756156459
 20
1860.245126450275
 10
937.4439905847616
 20
1860.323471922897
 10
937.0795618000483
 20
1860.387295182861
 10
936.7128722698206
 20
1860.436494126565
 10
936.3445086191045
 20
1860.470990046194
 10
935.9750601511606
 20
1860.490727755637
 10
935.666407443189
 20
1860.495878730051
1001
REVIT
1002
{
1070
     3
1000
923114
1002
}
  0
LINE
  5
12B
330
122
100
AcDbEntity
  8
M-PIPE
100
AcDbLine
 10
964.666407443252
 20
1854.995878730054
 30
0.0
 11
964.666407443252
 21
1847.495878730055
 31
0.0
1001
REVIT
1002
{
1070
     3
1000
923114
1002
}
  0
LINE
  5
12C
330
122
100
AcDbEntity
  8
M-PIPE
100
AcDbLine
 10
906.6664074431873
 20
1854.995878730054
 30
0.0
 11
907.1454572244013
 21
1854.995878730054
 31
0.0
1001
REVIT
1002
{
1070
     3
1000
923114
1002
}
  0
LINE
  5
12D
330
122
100
AcDbEntity
  8
M-PIPE
100
AcDbLine
 10
907.1454572244013
 20
1854.995878730054
 30
0.0
 11
913.0106522478312
 21
1854.995878730054
 31
0.0
1001
REVIT
1002
{
1070
     3
1000
923114
1002
}
  0
LINE
  5
12E
330
122
100
AcDbEntity
  8
M-PIPE
100
AcDbLine
 10
913.0106522478312
 20
1854.995878730054
 30
0.0
 11
926.4519150477777
 21
1854.995878730054
 31
0.0
1001
REVIT
1002
{
1070
     3
1000
923114
1002
}
  0
LINE
  5
12F
330
122
100
AcDbEntity
  8
M-PIPE
100
AcDbLine
 10
926.4519150477777
 20
1854.995878730054
 30
0.0
 11
927.5683438642557
 21
1854.995878730054
 31
0.0
1001
REVIT
1002
{
1070
     3
1000
923114
1002
}
  0
LINE
  5
130
330
122
100
AcDbEntity
  8
M-PIPE
100
AcDbLine
 10
927.8365830244124
 20
1854.995878730054
 30
0.0
 11
927.5683438642557
 21
1854.995878730054
 31
0.0
1001
REVIT
1002
{
1070
     3
1000
923114
1002
}
  0
LINE
  5
131
330
122
100
AcDbEntity
  8
M-PIPE
100
AcDbLine
 10
943.7644710221833
 20
1854.995878730054
 30
0.0
 11
944.8808998386613
 21
1854.995878730054
 31
0.0
1001
REVIT
1002
{
1070
     3
1000
923114
1002
}
  0
LINE
  5
132
330
122
100
AcDbEntity
  8
M-PIPE
100
AcDbLine
 10
944.8808998386613
 20
1854.995878730054
 30
0.0
 11
958.3221626386078
 21
1854.995878730054
 31
0.0
1001
REVIT
1002
{
1070
     3
1000
923114
1002
}
  0
LINE
  5
133
330
122
100
AcDbEntity
  8
M-PIPE
100
AcDbLine
 10
958.3221626386077
 20
1854.995878730054
 30
0.0
 11
964.187357662038
 21
1854.995878730054
 31
0.0
1001
REVIT
1002
{
1070
     3
1000
923114
1002
}
  0
LINE
  5
134
330
122
100
AcDbEntity
  8
M-PIPE
100
AcDbLine
 10
964.187357662038
 20
1854.995878730054
 30
0.0
 11
964.666407443252
 21
1854.995878730054
 31
0.0
1001
REVIT
1002
{
1070
     3
1000
923114
1002
}
  0
LINE
  5
135
330
122
100
AcDbEntity
  8
M-PIPE
100
AcDbLine
 10
943.7644710221835
 20
1854.995878730054
 30
0.0
 11
943.4962318619625
 21
1854.995878730054
 31
0.0
1001
REVIT
1002
{
1070
     3
1000
923114
1002
}
  0
LINE
  5
136
330
122
100
AcDbEntity
  8
M-PIPE
100
AcDbLine
 10
964.666407443252
 20
1847.495878730055
 30
0.0
 11
964.187357662038
 21
1847.495878730055
 31
0.0
1001
REVIT
1002
{
1070
     3
1000
923114
1002
}
  0
LINE
  5
137
330
122
100
AcDbEntity
  8
M-PIPE
100
AcDbLine
 10
964.187357662038
 20
1847.495878730055
 30
0.0
 11
958.3221626386078
 21
1847.495878730055
 31
0.0
1001
REVIT
1002
{
1070
     3
1000
923114
1002
}
  0
LINE
  5
138
330
122
100
AcDbEntity
  8
M-PIPE
100
AcDbLine
 10
958.3221626386078
 20
1847.495878730055
 30
0.0
 11
944.8808998386613
 21
1847.495878730055
 31
0.0
1001
REVIT
1002
{
1070
     3
1000
923114
1002
}
  0
LINE
  5
139
330
122
100
AcDbEntity
  8
M-PIPE
100
AcDbLine
 10
944.8808998386613
 20
1847.495878730055
 30
0.0
 11
943.7644710221835
 21
1847.495878730055
 31
0.0
1001
REVIT
1002
{
1070
     3
1000
923114
1002
}
  0
LINE
  5
13A
330
122
100
AcDbEntity
  8
M-PIPE
100
AcDbLine
 10
943.4962318619623
 20
1847.495878730055
 30
0.0
 11
943.7644710221835
 21
1847.495878730055
 31
0.0
1001
REVIT
1002
{
1070
     3
1000
923114
1002
}
  0
LINE
  5
13B
330
122
100
AcDbEntity
  8
M-PIPE
100
AcDbLine
 10
927.5683438642557
 20
1847.495878730055
 30
0.0
 11
926.4519150477777
 21
1847.495878730055
 31
0.0
1001
REVIT
1002
{
1070
     3
1000
923114
1002
}
  0
LINE
  5
13C
330
122
100
AcDbEntity
  8
M-PIPE
100
AcDbLine
 10
926.4519150477777
 20
1847.495878730055
 30
0.0
 11
913.0106522478312
 21
1847.495878730055
 31
0.0
1001
REVIT
1002
{
1070
     3
1000
923114
1002
}
  0
LINE
  5
13D
330
122
100
AcDbEntity
  8
M-PIPE
100
AcDbLine
 10
913.0106522478312
 20
1847.495878730055
 30
0.0
 11
907.1454572244013
 21
1847.495878730055
 31
0.0
1001
REVIT
1002
{
1070
     3
1000
923114
1002
}
  0
LINE
  5
13E
330
122
100
AcDbEntity
  8
M-PIPE
100
AcDbLine
 10
907.1454572244013
 20
1847.495878730055
 30
0.0
 11
906.6664074431873
 21
1847.495878730055
 31
0.0
1001
REVIT
1002
{
1070
     3
1000
923114
1002
}
  0
LINE
  5
13F
330
122
100
AcDbEntity
  8
M-PIPE
100
AcDbLine
 10
927.5683438642557
 20
1847.495878730055
 30
0.0
 11
927.8365830244126
 21
1847.495878730055
 31
0.0
1001
REVIT
1002
{
1070
     3
1000
923114
1002
}
  0
LINE
  5
140
330
122
100
AcDbEntity
  8
M-PIPE
100
AcDbLine
 10
906.6664074431873
 20
1847.495878730055
 30
0.0
 11
906.6664074431873
 21
1854.995878730054
 31
0.0
1001
REVIT
1002
{
1070
     3
1000
923114
1002
}
  0
LINE
  5
141
330
122
100
AcDbEntity
  8
P-SANR-FIXT
100
AcDbLine
 10
922.6664074431882
 20
1833.845878730053
 30
0.0
 11
935.1664074431882
 21
1833.845878730053
 31
0.0
  0
LINE
  5
142
330
122
100
AcDbEntity
  8
P-SANR-FIXT
100
AcDbLine
 10
935.1664074431882
 20
1868.645878730053
 30
0.0
 11
922.6664074431882
 21
1868.645878730053
 31
0.0
  0
LINE
  5
143
330
122
100
AcDbEntity
  8
P-SANR-FIXT
100
AcDbLine
 10
922.6664074431864
 20
1833.845878730052
 30
0.0
 11
922.6664074431864
 21
1844.851622509153
 31
0.0
  0
LINE
  5
144
330
122
100
AcDbEntity
  8
P-SANR-FIXT
100
AcDbLine
 10
922.6664074431864
 20
1857.640134950957
 30
0.0
 11
922.6664074431864
 21
1868.645878730051
 31
0.0
  0
LINE
  5
145
330
122
100
AcDbEntity
  8
P-SANR-FIXT
100
AcDbLine
 10
935.1664074431864
 20
1836.772767504635
 30
0.0
 11
935.1664074431864
 21
1833.845878730052
 31
0.0
  0
LINE
  5
146
330
122
100
AcDbEntity
  8
P-SANR-FIXT
100
AcDbLine
 10
935.1664074431864
 20
1868.645878730051
 30
0.0
 11
935.1664074431864
 21
1865.718989955475
 31
0.0
  0
LINE
  5
147
330
122
100
AcDbEntity
  8
P-SANR-FIXT
100
AcDbLine
 10
920.6880952796449
 20
1835.495878730052
 30
0.0
 11
922.6664074431882
 21
1835.495878730052
 31
0.0
  0
LINE
  5
148
330
122
100
AcDbEntity
  8
P-SANR-FIXT
100
AcDbLine
 10
922.6664074431882
 20
1866.995878730052
 30
0.0
 11
920.6880952796449
 21
1866.995878730052
 31
0.0
  0
LINE
  5
149
330
122
100
AcDbEntity
  8
P-SANR-FIXT
100
AcDbLine
 10
919.9664074431574
 20
1836.745878730057
 30
0.0
 11
920.6443087148507
 21
1835.571719284965
 31
0.0
  0
LINE
  5
14A
330
122
100
AcDbEntity
  8
P-SANR-FIXT
100
AcDbLine
 10
920.6519244516856
 20
1835.55852844183
 30
0.0
 11
920.6880952796449
 21
1835.495878730052
 31
0.0
  0
LINE
  5
14B
330
122
100
AcDbEntity
  8
P-SANR-FIXT
100
AcDbLine
 10
920.6880952796449
 20
1866.995878730052
 30
0.0
 11
920.6519244516856
 21
1866.933229018275
 31
0.0
  0
LINE
  5
14C
330
122
100
AcDbEntity
  8
P-SANR-FIXT
100
AcDbLine
 10
920.6443087148507
 20
1866.92003817514
 30
0.0
 11
919.9664074431574
 21
1865.745878730049
 31
0.0
  0
LINE
  5
14D
330
122
100
AcDbEntity
  8
P-SANR-FIXT
100
AcDbLine
 10
935.1664074431882
 20
1835.495878730052
 30
0.0
 11
948.1734021870634
 21
1835.495878730052
 31
0.0
  0
LINE
  5
14E
330
122
100
AcDbEntity
  8
P-SANR-FIXT
100
AcDbLine
 10
948.1734021870634
 20
1866.995878730052
 30
0.0
 11
935.1664074431882
 21
1866.995878730052
 31
0.0
  0
LWPOLYLINE
  5
14F
330
122
100
AcDbEntity
  8
P-SANR-FIXT
100
AcDbPolyline
 90
       39
 70
   128
 43
0.0
 10
949.6698493135962
 20
1836.892699286888
 10
949.6645262382736
 20
1836.832939895202
 10
949.6568176825585
 20
1836.773441170892
 10
949.6467359784958
 20
1836.714298299227
 10
949.6342972546612
 20
1836.655605896185
 10
949.6195214103595
 20
1836.597457857088
 10
949.6024320837895
 20
1836.539947206397
 10
949.5830566142281
 20
1836.483165948882
 10
949.5614259982936
 20
1836.427204922445
 10
949.5375748403569
 20
1836.37215365279
 10
949.5115412971831
 20
1836.318100210204
 10
949.4833670168874
 20
1836.265131068664
 10
949.4530970723083
 20
1836.213330967498
 10
949.4207798888998
 20
1836.162782775818
 10
949.3864671672616
 20
1836.113567359947
 10
949.3502138004281
 20
1836.065763454052
 10
949.3120777860534
 20
1836.019447534184
 10
949.2721201336244
 20
1835.974693695935
 10
949.230404766862
 20
1835.9315735359
 10
949.1869984214536
 20
1835.890156037136
 10
949.1419705382924
 20
1835.850507458805
 10
949.0953931523861
 20
1835.812691230176
 10
949.0473407776166
 20
1835.776767849147
 10
948.997890287532
 20
1835.742794785464
 10
948.9471207923683
 20
1835.710826388782
 10
948.8951135124873
 20
1835.680913801716
 10
948.8419516484425
 20
1835.653104878025
 10
948.7877202478754
 20
1835.627444106053
 10
948.732506069459
 20
1835.603972537563
 10
948.6763974440997
 20
1835.582727722057
 10
948.6194841336292
 20
1835.563743646707
 10
948.5618571872032
 20
1835.547050681985
 10
948.503608795643
 20
1835.532675533073
 10
948.4448321439494
 20
1835.520641197143
 10
948.3856212622264
 20
1835.510966926564
 10
948.3260708752544
 20
1835.503668198108
 10
948.2662762509489
 20
1835.498756688181
 10
948.2063330479533
 20
1835.496240254152
 10
948.1734021870634
 20
1835.495878730052
  0
LWPOLYLINE
  5
150
330
122
100
AcDbEntity
  8
P-SANR-FIXT
100
AcDbPolyline
 90
       39
 70
   128
 43
0.0
 10
948.1734021870634
 20
1866.995878730052
 10
948.2333861883434
 20
1866.994678890044
 10
948.2932742280173
 20
1866.991081289506
 10
948.3529704979966
 20
1866.985091683833
 10
948.4123794969846
 20
1866.976719655116
 10
948.471406183256
 20
1866.965978596814
 10
948.5299561267041
 20
1866.95288569233
 10
948.5879356599095
 20
1866.937461887519
 10
948.6452520279877
 20
1866.919731857176
 10
948.7018135369762
 20
1866.899723965569
 10
948.7575297005262
 20
1866.877470221057
 10
948.8123113846624
 20
1866.853006224882
 10
948.8660709503758
 20
1866.826371114221
 10
948.9187223938291
 20
1866.797607499569
 10
948.9701814839447
 20
1866.766761396573
 10
949.0203658971561
 20
1866.733882152417
 10
949.069195349107
 20
1866.699022366879
 10
949.1165917230912
 20
1866.662237808179
 10
949.1624791950206
 20
1866.623587323764
 10
949.2067843547292
 20
1866.583132746164
 10
949.2494363234126
 20
1866.540938794073
 10
949.2903668670198
 20
1866.497072968815
 10
949.3295105054119
 20
1866.45160544635
 10
949.366804617118
 20
1866.404608965018
 10
949.402189539515
 20
1866.356158709161
 10
949.4356086642753
 20
1866.306332188855
 10
949.4670085279285
 20
1866.255209115902
 10
949.4963388973909
 20
1866.202871276313
 10
949.5235528503283
 20
1866.149402399468
 10
949.5486068502211
 20
1866.094888024162
 10
949.5714608160142
 20
1866.039415361767
 10
949.5920781862379
 20
1865.983073156711
 10
949.6104259774972
 20
1865.9259515445
 10
949.6264748372407
 20
1865.868141907531
 10
949.6401990907166
 20
1865.80973672889
 10
949.6515767820461
 20
1865.750829444403
 10
949.6605897093511
 20
1865.69151429316
 10
949.6672234538698
 20
1865.631886166749
 10
949.6698493135962
 20
1865.599058173217
  0
LWPOLYLINE
  5
151
330
122
100
AcDbEntity
  8
P-SANR-FIXT
100
AcDbPolyline
 90
       38
 70
   128
 43
0.0
 10
951.0392548939181
 20
1838.243659027835
 10
950.9812979695594
 20
1838.239287795227
 10
950.9235622072397
 20
1838.232602400323
 10
950.8661399718631
 20
1838.223613538326
 10
950.8091231267561
 20
1838.212335589501
 10
950.7526028867083
 20
1838.198786596158
 10
950.6966696720466
 20
1838.182988233798
 10
950.641412963983
 20
1838.164965776429
 10
950.5869211614626
 20
1838.144748056138
 10
950.5332814397453
 20
1838.122367416967
 10
950.4805796109435
 20
1838.097859663161
 10
950.4288999867402
 20
1838.071264001901
 10
950.3783252435102
 20
1838.04262298057
 10
950.328936290054
 20
1838.011982418693
 10
950.280812138161
 20
1837.979391334633
 10
950.234029776209
 20
1837.944901867171
 10
950.1886640459966
 20
1837.908569192097
 10
950.1447875230152
 20
1837.870451433943
 10
950.1024704003414
 20
1837.830609572989
 10
950.0617803763445
 20
1837.789107347714
 10
950.0227825463829
 20
1837.746011152825
 10
949.9855392986653
 20
1837.70138993304
 10
949.950110214443
 20
1837.655315072792
 10
949.9165519726934
 20
1837.60786028203
 10
949.8849182594444
 20
1837.559101478294
 10
949.8552596818891
 20
1837.50911666527
 10
949.8276236874247
 20
1837.457985807995
 10
949.8020544877469
 20
1837.405790704935
 10
949.7785929881207
 20
1837.352614857119
 10
949.7572767219409
 20
1837.298543334561
 10
949.7381397906861
 20
1837.243662640161
 10
949.7212128093638
 20
1837.188060571324
 10
949.7065228575333
 20
1837.131826079498
 10
949.6940934359837
 20
1837.075049127875
 10
949.6839444291383
 20
1837.017820547466
 10
949.676092073243
 20
1836.96023189179
 10
949.670548930392
 20
1836.902375290412
 10
949.6698493135962
 20
1836.892699286888
  0
LWPOLYLINE
  5
152
330
122
100
AcDbEntity
  8
P-SANR-FIXT
100
AcDbPolyline
 90
       38
 70
   128
 43
0.0
 10
949.6698493135962
 20
1865.599058173217
 10
949.6750060791276
 20
1865.541165854859
 10
949.6824737950623
 20
1865.4835260598
 10
949.6922405146477
 20
1865.426230999418
 10
949.7042906132159
 20
1865.369372333586
 10
949.7186048131801
 20
1865.313041024042
 10
949.7351602148736
 20
1865.257327188862
 10
949.7539303331853
 20
1865.202319958299
 10
949.77488513993
 20
1865.148107332187
 10
949.7979911118873
 20
1865.094776039164
 10
949.8232112844307
 20
1865.04241139792
 10
949.8505053106645
 20
1864.991097180713
 10
949.8798295259687
 20
1864.940915479342
 10
949.9111370178546
 20
1864.891946573827
 10
949.944377701014
 20
1864.844268803967
 10
949.9794983974442
 20
1864.797958444025
 10
950.0164429215235
 20
1864.753089580699
 10
950.0551521698941
 20
1864.709733994597
 10
950.0955642160162
 20
1864.667961045409
 10
950.1376144092372
 20
1864.627837560942
 10
950.1812354782174
 20
1864.589427730213
 10
950.2263576385523
 20
1864.552793000756
 10
950.2729087044107
 20
1864.517991980324
 10
950.3208142040177
 20
1864.485080343126
 10
950.3699974987934
 20
1864.454110740761
 10
950.4203799059576
 20
1864.425132717985
 10
950.4718808244069
 20
1864.398192633455
 10
950.5244178636576
 20
1864.373333585556
 10
950.5779069756549
 20
1864.350595343465
 10
950.6322625892295
 20
1864.330014283517
 10
950.687397746995
 20
1864.311623331018
 10
950.7432242444606
 20
1864.295451907569
 10
950.7996527711393
 20
1864.281525883997
 10
950.856593053426
 20
1864.269867538969
 10
950.9139539990153
 20
1864.260495523351
 10
950.9716438426309
 20
1864.253424830369
 10
951.0295702928297
 20
1864.248666771622
 10
951.0392548939181
 20
1864.248098432269
  0
LINE
  5
153
330
122
100
AcDbEntity
  8
P-SANR-FIXT
100
AcDbLine
 10
909.666407443156
 20
1844.89292257646
 30
0.0
 11
909.666407443156
 21
1844.74587873006
 31
0.0
  0
LINE
  5
154
330
122
100
AcDbEntity
  8
P-SANR-FIXT
100
AcDbLine
 10
909.666407443156
 20
1844.74587873006
 30
0.0
 11
909.666407443156
 21
1843.616523236027
 31
0.0
  0
LINE
  5
155
330
122
100
AcDbEntity
  8
P-SANR-FIXT
100
AcDbLine
 10
909.666407443156
 20
1838.295347654874
 30
0.0
 11
909.666407443156
 21
1843.558853301334
 31
0.0
  0
LINE
  5
156
330
122
100
AcDbEntity
  8
P-SANR-FIXT
100
AcDbLine
 10
909.666407443156
 20
1843.616523236026
 30
0.0
 11
909.666407443156
 21
1844.745878730059
 31
0.0
  0
LINE
  5
157
330
122
100
AcDbEntity
  8
P-SANR-FIXT
100
AcDbLine
 10
909.666407443156
 20
1844.745878730059
 30
0.0
 11
909.666407443156
 21
1845.868750166032
 31
0.0
  0
LINE
  5
158
330
122
100
AcDbEntity
  8
P-SANR-FIXT
100
AcDbLine
 10
909.666407443156
 20
1846.010171761894
 30
0.0
 11
909.666407443156
 21
1847.492510795693
 31
0.0
  0
LINE
  5
159
330
122
100
AcDbEntity
  8
P-SANR-FIXT
100
AcDbLine
 10
909.666407443156
 20
1854.999246664417
 30
0.0
 11
909.666407443156
 21
1856.481585698209
 31
0.0
  0
LINE
  5
15A
330
122
100
AcDbEntity
  8
P-SANR-FIXT
100
AcDbLine
 10
909.666407443156
 20
1856.623007294364
 30
0.0
 11
909.666407443156
 21
1857.745878730044
 31
0.0
  0
LINE
  5
15B
330
122
100
AcDbEntity
  8
P-SANR-FIXT
100
AcDbLine
 10
909.666407443156
 20
1857.745878730044
 30
0.0
 11
909.666407443156
 21
1858.875234223834
 31
0.0
  0
LINE
  5
15C
330
122
100
AcDbEntity
  8
P-SANR-FIXT
100
AcDbLine
 10
909.666407443156
 20
1858.932904158769
 30
0.0
 11
909.666407443156
 21
1864.196409805229
 31
0.0
  0
LINE
  5
15D
330
122
100
AcDbEntity
  8
P-SANR-FIXT
100
AcDbLine
 10
909.666407443156
 20
1858.875234223834
 30
0.0
 11
909.666407443156
 21
1857.745878730044
 31
0.0
  0
LINE
  5
15E
330
122
100
AcDbEntity
  8
P-SANR-FIXT
100
AcDbLine
 10
909.666407443156
 20
1857.745878730044
 30
0.0
 11
909.666407443156
 21
1857.598834883644
 31
0.0
  0
LINE
  5
15F
330
122
100
AcDbEntity
  8
P-SANR-FIXT
100
AcDbLine
 10
909.666407443156
 20
1845.861757792114
 30
0.0
 11
909.666407443156
 21
1845.861757792114
 31
0.0
  0
LINE
  5
160
330
122
100
AcDbEntity
  8
P-SANR-FIXT
100
AcDbLine
 10
909.666407443156
 20
1856.629999668273
 30
0.0
 11
909.666407443156
 21
1856.629999668273
 31
0.0
  0
LINE
  5
161
330
122
100
AcDbEntity
  8
P-SANR-FIXT
100
AcDbLine
 10
910.5324328469697
 20
1864.245878730089
 30
0.0
 11
919.9664074431558
 21
1864.245878730089
 31
0.0
  0
SPLINE
  5
162
330
122
100
AcDbEntity
  8
P-SANR-FIXT
100
AcDbSpline
210
0.0
220
0.0
230
1.0
 70
    24
 71
     3
 72
     9
 73
     5
 74
     0
 42
0.000000001
 43
0.0000000001
 40
0.1975032641252967
 40
0.1975032641252967
 40
0.1975032641252967
 40
0.1975032641252967
 40
0.5
 40
1.0
 40
1.0
 40
1.0
 40
1.0
 10
909.7082928153684
 20
1864.245878730089
 30
0.0
 10
909.7459051459482
 20
1864.245878730089
 30
0.0
 10
909.9116266440113
 20
1864.245878730089
 30
0.0
 10
910.2522793430637
 20
1864.245878730089
 30
0.0
 10
910.5324328469697
 20
1864.245878730089
 30
0.0
  0
LINE
  5
163
330
122
100
AcDbEntity
  8
P-SANR-FIXT
100
AcDbLine
 10
920.6880952796431
 20
1847.491340719295
 30
0.0
 11
920.6880952796431
 21
1835.495878730052
 31
0.0
  0
LINE
  5
164
330
122
100
AcDbEntity
  8
P-SANR-FIXT
100
AcDbLine
 10
920.6880952796431
 20
1866.995878730052
 30
0.0
 11
920.6880952796431
 21
1855.000416740814
 31
0.0
  0
LINE
  5
165
330
122
100
AcDbEntity
  8
P-SANR-FIXT
100
AcDbLine
 10
919.9664074431558
 20
1847.569907654278
 30
0.0
 11
919.9664074431558
 21
1839.183729864702
 31
0.0
  0
LINE
  5
166
330
122
100
AcDbEntity
  8
P-SANR-FIXT
100
AcDbLine
 10
919.9664074431399
 20
1839.183729864725
 30
0.0
 11
919.9664074431399
 21
1838.245878730126
 31
0.0
  0
LINE
  5
167
330
122
100
AcDbEntity
  8
P-SANR-FIXT
100
AcDbLine
 10
919.9664074431558
 20
1838.245878730101
 30
0.0
 11
919.9664074431558
 21
1836.745878730055
 31
0.0
  0
LINE
  5
168
330
122
100
AcDbEntity
  8
P-SANR-FIXT
100
AcDbLine
 10
919.9664074431558
 20
1865.745878730048
 30
0.0
 11
919.9664074431558
 21
1864.245878730089
 31
0.0
  0
LINE
  5
169
330
122
100
AcDbEntity
  8
P-SANR-FIXT
100
AcDbLine
 10
919.9664074431728
 20
1864.245878730115
 30
0.0
 11
919.9664074431728
 21
1863.308027595371
 31
0.0
  0
LINE
  5
16A
330
122
100
AcDbEntity
  8
P-SANR-FIXT
100
AcDbLine
 10
919.9664074431558
 20
1863.308027595346
 30
0.0
 11
919.9664074431558
 21
1854.906212920639
 31
0.0
  0
LINE
  5
16B
330
122
100
AcDbEntity
  8
P-SANR-FIXT
100
AcDbLine
 10
951.0392548939163
 20
1838.243659027835
 30
0.0
 11
951.0392548939163
 21
1839.226202081264
 31
0.0
  0
LINE
  5
16C
330
122
100
AcDbEntity
  8
P-SANR-FIXT
100
AcDbLine
 10
951.0392548939163
 20
1840.913987879911
 30
0.0
 11
951.0392548939163
 21
1847.491936018079
 31
0.0
  0
LINE
  5
16D
330
122
100
AcDbEntity
  8
P-SANR-FIXT
100
AcDbLine
 10
951.0392548939163
 20
1854.99982144203
 30
0.0
 11
951.0392548939163
 21
1861.577769580193
 31
0.0
  0
LINE
  5
16E
330
122
100
AcDbEntity
  8
P-SANR-FIXT
100
AcDbLine
 10
951.0392548939163
 20
1863.247927685944
 30
0.0
 11
951.0392548939163
 21
1864.248098432269
 31
0.0
  0
LINE
  5
16F
330
122
100
AcDbEntity
  8
P-SANR-FIXT
100
AcDbLine
 10
951.1195426757788
 20
1839.245878730052
 30
0.0
 11
960.2738950330397
 21
1839.245878730052
 31
0.0
  0
LINE
  5
170
330
122
100
AcDbEntity
  8
P-SANR-FIXT
100
AcDbLine
 10
960.2738950330397
 20
1839.245878730051
 30
0.0
 11
960.2738950330397
 21
1840.915751711129
 31
0.0
  0
LINE
  5
171
330
122
100
AcDbEntity
  8
P-SANR-FIXT
100
AcDbLine
 10
960.2738950330397
 20
1840.91575171113
 30
0.0
 11
951.1195426757788
 21
1840.91575171113
 31
0.0
  0
LINE
  5
172
330
122
100
AcDbEntity
  8
P-SANR-FIXT
100
AcDbLine
 10
951.1195426757788
 20
1861.576005748974
 30
0.0
 11
960.2738950330397
 21
1861.576005748974
 31
0.0
  0
LINE
  5
173
330
122
100
AcDbEntity
  8
P-SANR-FIXT
100
AcDbLine
 10
960.2738950330397
 20
1861.576005748974
 30
0.0
 11
960.2738950330397
 21
1863.245878730052
 31
0.0
  0
LINE
  5
174
330
122
100
AcDbEntity
  8
P-SANR-FIXT
100
AcDbLine
 10
960.2738950330397
 20
1863.245878730052
 30
0.0
 11
951.1195426757788
 21
1863.245878730052
 31
0.0
  0
LINE
  5
175
330
122
100
AcDbEntity
  8
P-SANR-FIXT
100
AcDbLine
 10
960.6664074431865
 20
1847.491700045311
 30
0.0
 11
960.6664074431865
 21
1847.288737770424
 31
0.0
  0
LINE
  5
176
330
122
100
AcDbEntity
  8
P-SANR-FIXT
100
AcDbLine
 10
960.6664074431865
 20
1847.288737770424
 30
0.0
 11
960.6664074431865
 21
1843.20301968968
 31
0.0
  0
LINE
  5
177
330
122
100
AcDbEntity
  8
P-SANR-FIXT
100
AcDbLine
 10
960.6664074431865
 20
1843.20301968968
 30
0.0
 11
960.6664074431865
 21
1839.245878730052
 31
0.0
  0
LINE
  5
178
330
122
100
AcDbEntity
  8
P-SANR-FIXT
100
AcDbLine
 10
960.6664074431865
 20
1863.245878730052
 30
0.0
 11
960.6664074431865
 21
1859.288737770424
 31
0.0
  0
LINE
  5
179
330
122
100
AcDbEntity
  8
P-SANR-FIXT
100
AcDbLine
 10
960.6664074431865
 20
1859.288737770424
 30
0.0
 11
960.6664074431865
 21
1855.20301968968
 31
0.0
  0
LINE
  5
17A
330
122
100
AcDbEntity
  8
P-SANR-FIXT
100
AcDbLine
 10
960.6664074431865
 20
1855.20301968968
 30
0.0
 11
960.6664074431865
 21
1855.000057414798
 31
0.0
  0
SPLINE
  5
17B
330
122
100
AcDbEntity
  8
P-SANR-FIXT
100
AcDbSpline
210
0.0
220
0.0
230
1.0
 70
     8
 71
     3
 72
     9
 73
     5
 74
     0
 42
0.000000001
 43
0.0000000001
 40
0.0
 40
0.0
 40
0.0
 40
0.0
 40
0.5
 40
1.0
 40
1.0
 40
1.0
 40
1.0
 10
960.2738950330397
 20
1840.91575171113
 30
0.0
 10
960.3603890412889
 20
1841.294296355457
 30
0.0
 10
960.5123017845627
 20
1842.054052329541
 30
0.0
 10
960.6220639813868
 20
1842.81914167449
 30
0.0
 10
960.6664074431865
 20
1843.20301968968
 30
0.0
  0
SPLINE
  5
17C
330
122
100
AcDbEntity
  8
P-SANR-FIXT
100
AcDbSpline
210
0.0
220
0.0
230
1.0
 70
     8
 71
     3
 72
     8
 73
     4
 74
     0
 42
0.000000001
 43
0.0000000001
 40
0.0
 40
0.0
 40
0.0
 40
0.0
 40
0.0902469587370551
 40
0.0902469587370551
 40
0.0902469587370551
 40
0.0902469587370551
 10
960.6664074431865
 20
1847.288737770424
 30
0.0
 10
960.6584037180519
 20
1847.358025417218
 30
0.0
 10
960.6500566972201
 20
1847.4272696263
 30
0.0
 10
960.6413663806913
 20
1847.496470397671
 30
0.0
  0
SPLINE
  5
17D
330
122
100
AcDbEntity
  8
P-SANR-FIXT
100
AcDbSpline
210
0.0
220
0.0
230
1.0
 70
    24
 71
     3
 72
     9
 73
     5
 74
     0
 42
0.000000001
 43
0.0000000001
 40
0.0
 40
0.0
 40
0.0
 40
0.0
 40
0.5
 40
1.0
 40
1.0
 40
1.0
 40
1.0
 10
960.6664074431865
 20
1839.245878730052
 30
0.0
 10
960.6220639813868
 20
1839.245878730052
 30
0.0
 10
960.5123017845627
 20
1839.245878730052
 30
0.0
 10
960.3603890412889
 20
1839.245878730052
 30
0.0
 10
960.2738950330397
 20
1839.245878730052
 30
0.0
  0
SPLINE
  5
17E
330
122
100
AcDbEntity
  8
P-SANR-FIXT
100
AcDbSpline
210
0.0
220
0.0
230
1.0
 70
    24
 71
     3
 72
     9
 73
     5
 74
     0
 42
0.000000001
 43
0.0000000001
 40
0.0
 40
0.0
 40
0.0
 40
0.0
 40
0.5
 40
1.0
 40
1.0
 40
1.0
 40
1.0
 10
960.2738950330397
 20
1863.245878730052
 30
0.0
 10
960.3603890412889
 20
1863.245878730052
 30
0.0
 10
960.5123017845627
 20
1863.245878730052
 30
0.0
 10
960.6220639813868
 20
1863.245878730052
 30
0.0
 10
960.6664074431865
 20
1863.245878730052
 30
0.0
  0
SPLINE
  5
17F
330
122
100
AcDbEntity
  8
P-SANR-FIXT
100
AcDbSpline
210
0.0
220
0.0
230
1.0
 70
     8
 71
     3
 72
     8
 73
     4
 74
     0
 42
0.000000001
 43
0.0000000001
 40
0.9097530412656606
 40
0.9097530412656606
 40
0.9097530412656606
 40
0.9097530412656606
 40
1.0
 40
1.0
 40
1.0
 40
1.0
 10
960.641366380692
 20
1854.995287062439
 30
0.0
 10
960.6500566972208
 20
1855.064487833807
 30
0.0
 10
960.6584037180523
 20
1855.133732042888
 30
0.0
 10
960.6664074431865
 20
1855.20301968968
 30
0.0
  0
SPLINE
  5
180
330
122
100
AcDbEntity
  8
P-SANR-FIXT
100
AcDbSpline
210
0.0
220
0.0
230
1.0
 70
     8
 71
     3
 72
     9
 73
     5
 74
     0
 42
0.000000001
 43
0.0000000001
 40
0.0
 40
0.0
 40
0.0
 40
0.0
 40
0.5
 40
1.0
 40
1.0
 40
1.0
 40
1.0
 10
960.6664074431865
 20
1859.288737770424
 30
0.0
 10
960.6220639813868
 20
1859.672615785614
 30
0.0
 10
960.5123017845627
 20
1860.437705130562
 30
0.0
 10
960.3603890412889
 20
1861.197461104647
 30
0.0
 10
960.2738950330397
 20
1861.576005748974
 30
0.0
  0
ARC
  5
181
330
122
100
AcDbEntity
  8
P-SANR-FIXT
100
AcDbCircle
 10
935.6664074431865
 20
1851.245878730052
 30
0.0
 40
4.782649002170956
100
AcDbArc
 50
180.0
 51
0.0
  0
ARC
  5
182
330
122
100
AcDbEntity
  8
P-SANR-FIXT
100
AcDbCircle
 10
935.6664074431865
 20
1851.245878730052
 30
0.0
 40
4.782649002170956
100
AcDbArc
 50
0.0
 51
180.0
  0
ARC
  5
183
330
122
100
AcDbEntity
  8
P-SANR-FIXT
100
AcDbCircle
 10
935.6664074431865
 20
1851.245878730052
 30
0.0
 40
5.782649002170956
100
AcDbArc
 50
180.0
 51
0.0
  0
ARC
  5
184
330
122
100
AcDbEntity
  8
P-SANR-FIXT
100
AcDbCircle
 10
935.6664074431865
 20
1851.245878730052
 30
0.0
 40
5.782649002170842
100
AcDbArc
 50
0.0
 51
180.0
  0
SPLINE
  5
185
330
122
100
AcDbEntity
  8
P-SANR-FIXT
100
AcDbSpline
210
0.0
220
0.0
230
1.0
 70
    24
 71
     3
 72
     9
 73
     5
 74
     0
 42
0.000000001
 43
0.0000000001
 40
0.0
 40
0.0
 40
0.0
 40
0.0
 40
0.5
 40
0.802496735809829
 40
0.802496735809829
 40
0.802496735809829
 40
0.802496735809829
 10
910.5324328469244
 20
1838.245878730101
 30
0.0
 10
910.2522793430086
 20
1838.245878730102
 30
0.0
 10
909.9116266439816
 20
1838.245878730102
 30
0.0
 10
909.7459051459386
 20
1838.245878730102
 30
0.0
 10
909.7082928153669
 20
1838.245878730102
 30
0.0
  0
LINE
  5
186
330
122
100
AcDbEntity
  8
P-SANR-FIXT
100
AcDbLine
 10
919.9664074431558
 20
1838.245878730101
 30
0.0
 11
910.5324328469244
 21
1838.245878730101
 31
0.0
  0
LINE
  5
187
330
122
100
AcDbEntity
  8
P-SANR-FIXT
100
AcDbLine
 10
910.5324328469469
 20
1839.183729864774
 30
0.0
 11
910.5324328469469
 21
1838.245878730102
 31
0.0
  0
LINE
  5
188
330
122
100
AcDbEntity
  8
P-SANR-FIXT
100
AcDbLine
 10
919.9664074431558
 20
1839.183729864774
 30
0.0
 11
910.532432846926
 21
1839.183729864774
 31
0.0
  0
SPLINE
  5
189
330
122
100
AcDbEntity
  8
P-SANR-FIXT
100
AcDbSpline
210
0.0
220
0.0
230
1.0
 70
     8
 71
     3
 72
     8
 73
     4
 74
     0
 42
0.000000001
 43
0.0000000001
 40
0.5097843921261019
 40
0.5097843921261019
 40
0.5097843921261019
 40
0.5097843921261019
 40
0.8024967358244177
 40
0.8024967358244177
 40
0.8024967358244177
 40
0.8024967358244177
 10
909.8873007214672
 20
1847.49546571548
 30
0.0
 10
909.8043578603318
 20
1846.952587276797
 30
0.0
 10
909.7634419550407
 20
1846.404975721486
 30
0.0
 10
909.7309595175996
 20
1845.856414380824
 30
0.0
  0
SPLINE
  5
18A
330
122
100
AcDbEntity
  8
P-SANR-FIXT
100
AcDbSpline
210
0.0
220
0.0
230
1.0
 70
     8
 71
     3
 72
     8
 73
     4
 74
     0
 42
0.000000001
 43
0.0000000001
 40
0.8233677317680545
 40
0.8233677317680545
 40
0.8233677317680545
 40
0.8233677317680545
 40
1.0
 40
1.0
 40
1.0
 40
1.0
 10
909.7008625072533
 20
1845.741680746007
 30
0.0
 10
909.680902854434
 20
1845.410701161927
 30
0.0
 10
909.6694178330681
 20
1845.078767156613
 30
0.0
 10
909.666407443156
 20
1844.745878730066
 30
0.0
  0
SPLINE
  5
18B
330
122
100
AcDbEntity
  8
P-SANR-FIXT
100
AcDbSpline
210
0.0
220
0.0
230
1.0
 70
     8
 71
     3
 72
     8
 73
     4
 74
     0
 42
0.000000001
 43
0.0000000001
 40
0.0
 40
0.0
 40
0.0
 40
0.0
 40
0.2074417664411201
 40
0.2074417664411201
 40
0.2074417664411201
 40
0.2074417664411201
 10
909.666407443156
 20
1844.745878730066
 30
0.0
 10
909.6699429273982
 20
1844.35492545793
 30
0.0
 10
909.685167297896
 20
1843.965288599529
 30
0.0
 10
909.7120805546488
 20
1843.576968154863
 30
0.0
  0
SPLINE
  5
18C
330
122
100
AcDbEntity
  8
P-SANR-FIXT
100
AcDbSpline
210
0.0
220
0.0
230
1.0
 70
     8
 71
     3
 72
     9
 73
     5
 74
     0
 42
0.000000001
 43
0.0000000001
 40
0.25
 40
0.25
 40
0.25
 40
0.25
 40
0.5
 40
1.0
 40
1.0
 40
1.0
 40
1.0
 10
909.7301208654062
 20
1843.338133825554
 30
0.0
 10
909.7683356649
 20
1842.870797489404
 30
0.0
 10
909.9339110396119
 20
1841.474524377018
 30
0.0
 10
910.2522793430155
 20
1840.095458952821
 30
0.0
 10
910.532432846926
 20
1839.183729864774
 30
0.0
  0
SPLINE
  5
18D
330
122
100
AcDbEntity
  8
P-SANR-FIXT
100
AcDbSpline
210
0.0
220
0.0
230
1.0
 70
     8
 71
     3
 72
     9
 73
     5
 74
     0
 42
0.000000001
 43
0.0000000001
 40
0.0
 40
0.0
 40
0.0
 40
0.0
 40
0.5
 40
0.75
 40
0.75
 40
0.75
 40
0.75
 10
910.5324328469679
 20
1863.308027595417
 30
0.0
 10
910.2522793430566
 20
1862.396298507359
 30
0.0
 10
909.9339110396464
 20
1861.017233083145
 30
0.0
 10
909.7683356649222
 20
1859.620959970743
 30
0.0
 10
909.7301208654233
 20
1859.153623634588
 30
0.0
  0
SPLINE
  5
18E
330
122
100
AcDbEntity
  8
P-SANR-FIXT
100
AcDbSpline
210
0.0
220
0.0
230
1.0
 70
     8
 71
     3
 72
     8
 73
     4
 74
     0
 42
0.000000001
 43
0.0000000001
 40
0.7925582335648789
 40
0.7925582335648789
 40
0.7925582335648789
 40
0.7925582335648789
 40
1.0
 40
1.0
 40
1.0
 40
1.0
 10
909.7120805546609
 20
1858.914789305241
 30
0.0
 10
909.6851672979052
 20
1858.526468860582
 30
0.0
 10
909.6699429274035
 20
1858.136832002189
 30
0.0
 10
909.666407443156
 20
1857.745878730059
 30
0.0
  0
SPLINE
  5
18F
330
122
100
AcDbEntity
  8
P-SANR-FIXT
100
AcDbSpline
210
0.0
220
0.0
230
1.0
 70
     8
 71
     3
 72
     8
 73
     4
 74
     0
 42
0.000000001
 43
0.0000000001
 40
0.0
 40
0.0
 40
0.0
 40
0.0
 40
0.1766322682378055
 40
0.1766322682378055
 40
0.1766322682378055
 40
0.1766322682378055
 10
909.666407443156
 20
1857.745878730059
 30
0.0
 10
909.6694178330723
 20
1857.412990303505
 30
0.0
 10
909.6809028544425
 20
1857.081056298184
 30
0.0
 10
909.7008625072659
 20
1856.750076714098
 30
0.0
  0
SPLINE
  5
190
330
122
100
AcDbEntity
  8
P-SANR-FIXT
100
AcDbSpline
210
0.0
220
0.0
230
1.0
 70
     8
 71
     3
 72
     8
 73
     4
 74
     0
 42
0.000000001
 43
0.0000000001
 40
0.1975032641295909
 40
0.1975032641295909
 40
0.1975032641295909
 40
0.1975032641295909
 40
0.4902156078828168
 40
0.4902156078828168
 40
0.4902156078828168
 40
0.4902156078828168
 10
909.708292815363
 20
1856.632790333529
 30
0.0
 10
909.7446885582973
 20
1856.08466971304
 30
0.0
 10
909.7895733800399
 20
1855.53750514086
 30
0.0
 10
909.8858660896247
 20
1854.996130174993
 30
0.0
  0
LINE
  5
191
330
122
100
AcDbEntity
  8
P-SANR-FIXT
100
AcDbLine
 10
910.5324328469469
 20
1864.245878730089
 30
0.0
 11
910.5324328469469
 21
1863.308027595417
 31
0.0
  0
LINE
  5
192
330
122
100
AcDbEntity
  8
P-SANR-FIXT
100
AcDbLine
 10
919.9664074431558
 20
1863.308027595417
 30
0.0
 11
910.5324328469679
 21
1863.308027595417
 31
0.0
  0
ENDBLK
  5
194
330
122
100
AcDbEntity
  8
0
100
AcDbBlockEnd
  0
BLOCK
  5
1FC
330
196
100
AcDbEntity
  8
0
100
AcDbBlockBegin
  2
Automatic flow rate regulator valve_Caleffi_121 DN15 - 1_2__-V2-Est - Idraulica
 70
     0
 10
0.0
 20
0.0
 30
0.0
  3
Automatic flow rate regulator valve_Caleffi_121 DN15 - 1_2__-V2-Est - Idraulica
  1

  0
LINE
  5
197
330
196
100
AcDbEntity
  8
M-PIPE
100
AcDbLine
 10
1095.114353943101
 20
2036.81618495958
 30
0.0
 11
1095.114353943101
 21
2029.849611904362
 31
0.0
1001
REVIT
1002
{
1070
     3
1000
923114
1002
}
  0
LINE
  5
198
330
196
100
AcDbEntity
  8
M-PIPE
100
AcDbLine
 10
1124.11435394309
 20
2029.849611904362
 30
0.0
 11
1124.11435394309
 21
2036.81618495958
 31
0.0
1001
REVIT
1002
{
1070
     3
1000
923114
1002
}
  0
LINE
  5
199
330
196
100
AcDbEntity
  8
M-PIPE
100
AcDbLine
 10
1100.364353943101
 20
2045.281123894173
 30
0.0
 11
1100.364353943101
 21
2041.84961190438
 31
0.0
1001
REVIT
1002
{
1070
     3
1000
923114
1002
}
  0
LINE
  5
19A
330
196
100
AcDbEntity
  8
M-PIPE
100
AcDbLine
 10
1118.86435394309
 20
2041.84961190438
 30
0.0
 11
1118.86435394309
 21
2045.281123894173
 31
0.0
1001
REVIT
1002
{
1070
     3
1000
923114
1002
}
  0
LWPOLYLINE
  5
19B
330
196
100
AcDbEntity
  8
M-PIPE
100
AcDbPolyline
 90
       33
 70
   128
 43
0.0
 10
1105.864353943096
 20
2039.354078941356
 10
1105.413347162433
 20
2039.354078941356
 10
1104.968820688569
 20
2039.354078941356
 10
1104.531726076918
 20
2039.354078941356
 10
1104.102762585618
 20
2039.354078941356
 10
1103.682616464745
 20
2039.354078941356
 10
1103.271959858468
 20
2039.354078941356
 10
1102.871449729755
 20
2039.354078941356
 10
1102.481726809374
 20
2039.354078941356
 10
1102.10341457086
 20
2039.354078941356
 10
1101.737118233094
 20
2039.354078941356
 10
1101.383423792076
 20
2039.354078941356
 10
1101.042897083462
 20
2039.354078941356
 10
1100.716082877344
 20
2039.354078941356
 10
1100.403504006734
 20
2039.354078941356
 10
1100.105660531146
 20
2039.354078941356
 10
1099.823028936603
 20
2039.354078941356
 10
1099.556061373367
 20
2039.354078941356
 10
1099.305184932587
 20
2039.354078941356
 10
1099.070800963052
 20
2039.354078941356
 10
1098.853284429114
 20
2039.354078941356
 10
1098.652983310826
 20
2039.354078941356
 10
1098.470218047249
 20
2039.354078941356
 10
1098.305281023816
 20
2039.354078941356
 10
1098.15843610458
 20
2039.354078941356
 10
1098.029918210087
 20
2039.354078941356
 10
1097.919932941552
 20
2039.354078941356
 10
1097.828656251944
 20
2039.354078941356
 10
1097.756234164493
 20
2039.354078941356
 10
1097.70278253909
 20
2039.354078941356
 10
1097.668386886934
 20
2039.354078941356
 10
1097.653102233731
 20
2039.354078941356
 10
1097.652247924874
 20
2039.354078941356
1001
REVIT
1002
{
1070
     3
1000
923114
1002
}
  0
LWPOLYLINE
  5
19C
330
196
100
AcDbEntity
  8
M-PIPE
100
AcDbPolyline
 90
       33
 70
   128
 43
0.0
 10
1121.576459961317
 20
2039.354078941356
 10
1121.566891552392
 20
2039.354078941356
 10
1121.538201633032
 20
2039.354078941356
 10
1121.490436100985
 20
2039.354078941356
 10
1121.423671370916
 20
2039.354078941356
 10
1121.338014252148
 20
2039.354078941356
 10
1121.2336017778
 20
2039.354078941356
 10
1121.110600985557
 20
2039.354078941356
 10
1120.969208650449
 20
2039.354078941356
 10
1120.809650970048
 20
2039.354078941356
 10
1120.632183202606
 20
2039.354078941356
 10
1120.437089258695
 20
2039.354078941356
 10
1120.224681247006
 20
2039.354078941356
 10
1119.995298975045
 20
2039.354078941356
 10
1119.749309405518
 20
2039.354078941356
 10
1119.487106069259
 20
2039.354078941356
 10
1119.209108435673
 20
2039.354078941356
 10
1118.915761241671
 20
2039.354078941356
 10
1118.607533780185
 20
2039.354078941356
 10
1118.284919149403
 20
2039.354078941356
 10
1117.948433463912
 20
2039.354078941356
 10
1117.598615029031
 20
2039.354078941356
 10
1117.23602347963
 20
2039.354078941356
 10
1116.86123888484
 20
2039.354078941356
 10
1116.474860820063
 20
2039.354078941356
 10
1116.07750740778
 20
2039.354078941356
 10
1115.669814328685
 20
2039.354078941356
 10
1115.252433804736
 20
2039.354078941356
 10
1114.826033555736
 20
2039.354078941356
 10
1114.39129573112
 20
2039.354078941356
 10
1113.94891581867
 20
2039.354078941356
 10
1113.499601531876
 20
2039.354078941356
 10
1113.364353943095
 20
2039.354078941356
1001
REVIT
1002
{
1070
     3
1000
923114
1002
}
  0
LWPOLYLINE
  5
19D
330
196
100
AcDbEntity
  8
M-PIPE
100
AcDbPolyline
 90
       41
 70
   128
 43
0.0
 10
1095.114353943098
 20
2036.81618495958
 10
1095.116383987589
 20
2036.917673650147
 10
1095.122470873424
 20
2037.01899998046
 10
1095.132604862885
 20
2037.120001850004
 10
1095.14676974375
 20
2037.220517677334
 10
1095.164942855231
 20
2037.320386658568
 10
1095.187095124226
 20
2037.419449024642
 10
1095.213191111832
 20
2037.517546296901
 10
1095.243189070034
 20
2037.614521540636
 10
1095.277041008499
 20
2037.710219616144
 10
1095.314692771345
 20
2037.804487426918
 10
1095.356084123786
 20
2037.897174164572
 10
1095.401148848487
 20
2037.988131550096
 10
1095.4498148515
 20
2038.077214071078
 10
1095.502004277604
 20
2038.164279214486
 10
1095.557633634849
 20
2038.249187694664
 10
1095.616613928132
 20
2038.331803676157
 10
1095.678850801563
 20
2038.411994991019
 10
1095.744244689423
 20
2038.489633350252
 10
1095.81269097544
 20
2038.564594549042
 10
1095.884080160159
 20
2038.636758665464
 10
1095.958298036112
 20
2038.706010252325
 10
1096.035225870531
 20
2038.772238521858
 10
1096.11474059529
 20
2038.835337522961
 10
1096.196715003793
 20
2038.895206310693
 10
1096.281017954472
 20
2038.951749107763
 10
1096.36751458059
 20
2039.004875457758
 10
1096.456066505997
 20
2039.054500369854
 10
1096.546532066503
 20
2039.100544454774
 10
1096.638766536509
 20
2039.142934051805
 10
1096.732622360538
 20
2039.181601346636
 10
1096.827949389294
 20
2039.216484479843
 10
1096.924595119865
 20
2039.247527645854
 10
1097.022404939701
 20
2039.274681182225
 10
1097.121222373954
 20
2039.297901649092
 10
1097.220889335808
 20
2039.31715189866
 10
1097.321246379387
 20
2039.332401134637
 10
1097.422132954828
 20
2039.343624961498
 10
1097.523387665134
 20
2039.350805423514
 10
1097.624848524365
 20
2039.353931033478
 10
1097.652247924874
 20
2039.354078941356
1001
REVIT
1002
{
1070
     3
1000
923114
1002
}
  0
LWPOLYLINE
  5
19E
330
196
100
AcDbEntity
  8
M-PIPE
100
AcDbPolyline
 90
       41
 70
   128
 43
0.0
 10
1121.576459961317
 20
2039.354078941356
 10
1121.677948651885
 20
2039.352048896864
 10
1121.779274982197
 20
2039.345962011029
 10
1121.880276851741
 20
2039.335828021568
 10
1121.98079267907
 20
2039.321663140704
 10
1122.080661660305
 20
2039.303490029222
 10
1122.179724026379
 20
2039.281337760227
 10
1122.277821298638
 20
2039.255241772622
 10
1122.374796542373
 20
2039.225243814419
 10
1122.470494617881
 20
2039.191391875955
 10
1122.564762428655
 20
2039.153740113108
 10
1122.657449166309
 20
2039.112348760667
 10
1122.748406551833
 20
2039.067284035967
 10
1122.837489072814
 20
2039.018618032953
 10
1122.924554216223
 20
2038.966428606849
 10
1123.009462696401
 20
2038.910799249604
 10
1123.092078677895
 20
2038.851818956322
 10
1123.172269992756
 20
2038.789582082891
 10
1123.249908351989
 20
2038.724188195031
 10
1123.32486955078
 20
2038.655741909014
 10
1123.397033667201
 20
2038.584352724295
 10
1123.466285254062
 20
2038.510134848341
 10
1123.532513523595
 20
2038.433207013923
 10
1123.595612524699
 20
2038.353692289164
 10
1123.65548131243
 20
2038.271717880661
 10
1123.7120241095
 20
2038.187414929982
 10
1123.765150459496
 20
2038.100918303864
 10
1123.814775371591
 20
2038.012366378456
 10
1123.860819456511
 20
2037.921900817951
 10
1123.903209053542
 20
2037.829666347945
 10
1123.941876348373
 20
2037.735810523916
 10
1123.97675948158
 20
2037.64048349516
 10
1124.007802647591
 20
2037.543837764588
 10
1124.034956183963
 20
2037.446027944753
 10
1124.058176650829
 20
2037.347210510501
 10
1124.077426900397
 20
2037.247543548646
 10
1124.092676136374
 20
2037.147186505067
 10
1124.103899963235
 20
2037.046299929626
 10
1124.111080425251
 20
2036.94504521932
 10
1124.114206035215
 20
2036.843584360088
 10
1124.114353943093
 20
2036.81618495958
1001
REVIT
1002
{
1070
     3
1000
923114
1002
}
  0
LWPOLYLINE
  5
19F
330
196
100
AcDbEntity
  8
M-PIPE
100
AcDbPolyline
 90
        7
 70
   128
 43
0.0
 10
1121.333114331893
 20
2039.354078941356
 10
1121.400051634247
 20
2039.354078941356
 10
1121.472473721699
 20
2039.354078941356
 10
1121.525925347101
 20
2039.354078941356
 10
1121.560320999257
 20
2039.354078941356
 10
1121.57560565246
 20
2039.354078941356
 10
1121.576459961317
 20
2039.354078941356
1001
REVIT
1002
{
1070
     3
1000
923114
1002
}
  0
LWPOLYLINE
  5
1A0
330
196
100
AcDbEntity
  8
M-PIPE
100
AcDbPolyline
 90
        6
 70
   128
 43
0.0
 10
1097.652247924874
 20
2039.354078941356
 10
1097.661816333799
 20
2039.354078941356
 10
1097.690506253159
 20
2039.354078941356
 10
1097.738271785205
 20
2039.354078941356
 10
1097.805036515275
 20
2039.354078941356
 10
1097.890693634043
 20
2039.354078941356
1001
REVIT
1002
{
1070
     3
1000
923114
1002
}
  0
LWPOLYLINE
  5
1A1
330
196
100
AcDbEntity
  8
M-PIPE
100
AcDbPolyline
 90
       41
 70
   128
 43
0.0
 10
1097.884146166118
 20
2039.350007801628
 10
1097.964327278565
 20
2039.351611637728
 10
1098.064140678022
 20
2039.357607638624
 10
1098.163634461321
 20
2039.367590314746
 10
1098.262649459634
 20
2039.381543695942
 10
1098.361027270086
 20
2039.399445459777
 10
1098.458610509166
 20
2039.42126696725
 10
1098.555243064509
 20
2039.446973308603
 10
1098.650770344639
 20
2039.476523359174
 10
1098.745039526286
 20
2039.509869845185
 10
1098.83789979887
 20
2039.546959419373
 10
1098.929202605764
 20
2039.58773274633
 10
1099.018801881952
 20
2039.632124597432
 10
1099.106554287708
 20
2039.680063955186
 10
1099.192319437901
 20
2039.731474126847
 10
1099.275960126586
 20
2039.786272867106
 10
1099.357342546505
 20
2039.84437250967
 10
1099.436336503145
 20
2039.905680107503
 10
1099.512815623027
 20
2039.970097581528
 10
1099.586657555875
 20
2040.037521877528
 10
1099.657744170348
 20
2040.107845131013
 10
1099.725961743026
 20
2040.180954839777
 10
1099.791201140346
 20
2040.256734043884
 10
1099.85335799319
 20
2040.335061512772
 10
1099.912332863851
 20
2040.415811939199
 10
1099.968031405119
 20
2040.49885613971
 10
1100.020364511207
 20
2040.584061261299
 10
1100.069248460311
 20
2040.671290993946
 10
1100.11460504854
 20
2040.760405788689
 10
1100.156361715028
 20
2040.851263080865
 10
1100.194451658016
 20
2040.943717518189
 10
1100.228813941723
 20
2041.037621193283
 10
1100.259393593822
 20
2041.132823880301
 10
1100.286141693394
 20
2041.229173275249
 10
1100.309015449187
 20
2041.326515239652
 10
1100.32797826807
 20
2041.42469404713
 10
1100.342999813578
 20
2041.523552632535
 10
1100.354056054443
 20
2041.622932843219
 10
1100.361129303037
 20
2041.722675692047
 10
1100.364208243674
 20
2041.822621611735
 10
1100.364353943098
 20
2041.84961190438
1001
REVIT
1002
{
1070
     3
1000
923114
1002
}
  0
LWPOLYLINE
  5
1A2
330
196
100
AcDbEntity
  8
M-PIPE
100
AcDbPolyline
 90
       41
 70
   128
 43
0.0
 10
1118.864353943092
 20
2041.84961190438
 10
1118.86635367644
 20
2041.749638568914
 10
1118.872349677336
 20
2041.649825169457
 10
1118.882332353458
 20
2041.550331386158
 10
1118.896285734653
 20
2041.451316387844
 10
1118.914187498489
 20
2041.352938577392
 10
1118.936009005962
 20
2041.255355338312
 10
1118.961715347315
 20
2041.15872278297
 10
1118.991265397886
 20
2041.06319550284
 10
1119.024611883898
 20
2040.968926321192
 10
1119.061701458085
 20
2040.876066048608
 10
1119.102474785042
 20
2040.784763241715
 10
1119.146866636144
 20
2040.695163965526
 10
1119.194805993898
 20
2040.607411559771
 10
1119.246216165559
 20
2040.521646409578
 10
1119.301014905818
 20
2040.438005720893
 10
1119.359114548382
 20
2040.356623300974
 10
1119.420422146215
 20
2040.277629344334
 10
1119.48483962024
 20
2040.201150224452
 10
1119.55226391624
 20
2040.127308291604
 10
1119.622587169724
 20
2040.056221677131
 10
1119.695696878489
 20
2039.988004104453
 10
1119.771476082596
 20
2039.922764707133
 10
1119.849803551484
 20
2039.86060785429
 10
1119.930553977911
 20
2039.801632983628
 10
1120.013598178422
 20
2039.74593444236
 10
1120.09880330001
 20
2039.693601336272
 10
1120.186033032658
 20
2039.644717387168
 10
1120.275147827401
 20
2039.599360798939
 10
1120.366005119577
 20
2039.557604132451
 10
1120.458459556901
 20
2039.519514189462
 10
1120.552363231996
 20
2039.485151905756
 10
1120.647565919012
 20
2039.454572253657
 10
1120.743915313962
 20
2039.427824154085
 10
1120.841257278364
 20
2039.404950398292
 10
1120.939436085842
 20
2039.385987579409
 10
1121.038294671247
 20
2039.370966033901
 10
1121.137674881932
 20
2039.359909793037
 10
1121.237417730758
 20
2039.352836544441
 10
1121.337363650447
 20
2039.349757603805
 10
1121.364353943092
 20
2039.349611904381
1001
REVIT
1002
{
1070
     3
1000
923114
1002
}
  0
LWPOLYLINE
  5
1A3
330
196
100
AcDbEntity
  8
M-PIPE
100
AcDbPolyline
 90
       30
 70
   128
 43
0.0
 10
1105.864353943095
 20
2045.84961190438
 10
1105.554244077812
 20
2045.84961190438
 10
1105.250629522202
 20
2045.84961190438
 10
1104.953995994787
 20
2045.84961190438
 10
1104.664818045933
 20
2045.84961190438
 10
1104.38355829867
 20
2045.84961190438
 10
1104.110666708594
 20
2045.84961190438
 10
1103.846579844037
 20
2045.84961190438
 10
1103.591720187644
 20
2045.84961190438
 10
1103.346495460501
 20
2045.84961190438
 10
1103.111297969858
 20
2045.84961190438
 10
1102.886503981527
 20
2045.84961190438
 10
1102.672473117937
 20
2045.84961190438
 10
1102.469547782811
 20
2045.84961190438
 10
1102.278052613398
 20
2045.84961190438
 10
1102.098293961118
 20
2045.84961190438
 10
1101.930559401469
 20
2045.84961190438
 10
1101.775117273964
 20
2045.84961190438
 10
1101.632216252849
 20
2045.84961190438
 10
1101.502084949273
 20
2045.84961190438
 10
1101.384931545561
 20
2045.84961190438
 10
1101.28094346217
 20
2045.84961190438
 10
1101.190287057849
 20
2045.84961190438
 10
1101.113107363505
 20
2045.84961190438
 10
1101.049527850186
 20
2045.84961190438
 10
1100.99965023155
 20
2045.84961190438
 10
1100.963554301148
 20
2045.84961190438
 10
1100.941297804767
 20
2045.84961190438
 10
1100.932916348054
 20
2045.84961190438
 10
1100.932841953307
 20
2045.84961190438
1001
REVIT
1002
{
1070
     3
1000
923114
1002
}
  0
LWPOLYLINE
  5
1A4
330
196
100
AcDbEntity
  8
M-PIPE
100
AcDbPolyline
 90
       30
 70
   128
 43
0.0
 10
1118.295865932884
 20
2045.84961190438
 10
1118.288921649271
 20
2045.84961190438
 10
1118.268099907803
 20
2045.84961190438
 10
1118.233434018827
 20
2045.84961190438
 10
1118.184979440367
 20
2045.84961190438
 10
1118.122813689415
 20
2045.84961190438
 10
1118.04703621791
 20
2045.84961190438
 10
1117.957768253642
 20
2045.84961190438
 10
1117.85515260631
 20
2045.84961190438
 10
1117.739353439061
 20
2045.84961190438
 10
1117.610556005858
 20
2045.84961190438
 10
1117.46896635512
 20
2045.84961190438
 10
1117.314811000085
 20
2045.84961190438
 10
1117.148336556435
 20
2045.84961190438
 10
1116.969809347768
 20
2045.84961190438
 10
1116.779514979533
 20
2045.84961190438
 10
1116.577757882126
 20
2045.84961190438
 10
1116.364860823864
 20
2045.84961190438
 10
1116.141164394624
 20
2045.84961190438
 10
1115.907026460973
 20
2045.84961190438
 10
1115.662821593659
 20
2045.84961190438
 10
1115.408940468375
 20
2045.84961190438
 10
1115.145789240763
 20
2045.84961190438
 10
1114.873788896651
 20
2045.84961190438
 10
1114.593374578567
 20
2045.84961190438
 10
1114.3049948896
 20
2045.84961190438
 10
1114.009111175736
 20
2045.84961190438
 10
1113.706196787797
 20
2045.84961190438
 10
1113.396736324187
 20
2045.84961190438
 10
1113.364353943095
 20
2045.84961190438
1001
REVIT
1002
{
1070
     3
1000
923114
1002
}
  0
LWPOLYLINE
  5
1A5
330
196
100
AcDbEntity
  8
M-PIPE
100
AcDbPolyline
 90
       41
 70
   128
 43
0.0
 10
1100.364353943099
 20
2045.281123894173
 10
1100.364808672872
 20
2045.303857351194
 10
1100.366172134719
 20
2045.326554439533
 10
1100.368442147393
 20
2045.349178848692
 10
1100.371615079358
 20
2045.37169438444
 10
1100.375685854599
 20
2045.394065026726
 10
1100.380647960744
 20
2045.416254987291
 10
1100.386493459482
 20
2045.438228766935
 10
1100.393212999263
 20
2045.459951212295
 10
1100.400795830255
 20
2045.481387572094
 10
1100.409229821546
 20
2045.50250355273
 10
1100.418501480551
 20
2045.523265373137
 10
1100.428595974592
 20
2045.543639818832
 10
1100.439497154632
 20
2045.563594295047
 10
1100.451187581109
 20
2045.583096878878
 10
1100.463648551833
 20
2045.602116370352
 10
1100.476860131911
 20
2045.620622342338
 10
1100.490801185632
 20
2045.638585189229
 10
1100.505449410285
 20
2045.655976174303
 10
1100.520781371834
 20
2045.672767475693
 10
1100.536772542412
 20
2045.688932230898
 10
1100.553397339557
 20
2045.70444457976
 10
1100.57062916714
 20
2045.719279705827
 10
1100.588440457913
 20
2045.733413876065
 10
1100.606802717611
 20
2045.746824478815
 10
1100.625686570533
 20
2045.759490059973
 10
1100.645061806546
 20
2045.771390357312
 10
1100.664897429403
 20
2045.782506332896
 10
1100.685161706341
 20
2045.792820203533
 10
1100.705822218837
 20
2045.80231546923
 10
1100.726845914481
 20
2045.81097693959
 10
1100.748199159843
 20
2045.818790758106
 10
1100.769847794287
 20
2045.825744424336
 10
1100.791757184615
 20
2045.831826813897
 10
1100.813892280475
 20
2045.837028196263
 10
1100.836217670439
 20
2045.841340250333
 10
1100.858697638642
 20
2045.844756077739
 10
1100.881296221933
 20
2045.847270213888
 10
1100.903977267398
 20
2045.848878636695
 10
1100.926704490202
 20
2045.849578773029
 10
1100.932841953307
 20
2045.84961190438
1001
REVIT
1002
{
1070
     3
1000
923114
1002
}
  0
LWPOLYLINE
  5
1A6
330
196
100
AcDbEntity
  8
M-PIPE
100
AcDbPolyline
 90
       41
 70
   128
 43
0.0
 10
1118.295865932884
 20
2045.84961190438
 10
1118.318599389906
 20
2045.849157174608
 10
1118.341296478245
 20
2045.84779371276
 10
1118.363920887403
 20
2045.845523700086
 10
1118.386436423152
 20
2045.842350768121
 10
1118.408807065437
 20
2045.838279992881
 10
1118.430997026003
 20
2045.833317886735
 10
1118.452970805646
 20
2045.827472387997
 10
1118.474693251007
 20
2045.820752848217
 10
1118.496129610806
 20
2045.813170017225
 10
1118.517245591441
 20
2045.804736025933
 10
1118.538007411848
 20
2045.795464366928
 10
1118.558381857543
 20
2045.785369872888
 10
1118.578336333758
 20
2045.774468692847
 10
1118.59783891759
 20
2045.762778266371
 10
1118.616858409063
 20
2045.750317295646
 10
1118.635364381049
 20
2045.737105715568
 10
1118.65332722794
 20
2045.723164661847
 10
1118.670718213015
 20
2045.708516437195
 10
1118.687509514404
 20
2045.693184475645
 10
1118.70367426961
 20
2045.677193305067
 10
1118.719186618471
 20
2045.660568507923
 10
1118.734021744539
 20
2045.64333668034
 10
1118.748155914776
 20
2045.625525389566
 10
1118.761566517526
 20
2045.607163129869
 10
1118.774232098685
 20
2045.588279276946
 10
1118.786132396024
 20
2045.568904040933
 10
1118.797248371607
 20
2045.549068418076
 10
1118.807562242244
 20
2045.528804141139
 10
1118.817057507942
 20
2045.508143628642
 10
1118.825718978301
 20
2045.487119932998
 10
1118.833532796817
 20
2045.465766687636
 10
1118.840486463047
 20
2045.444118053192
 10
1118.846568852608
 20
2045.422208662865
 10
1118.851770234974
 20
2045.400073567003
 10
1118.856082289045
 20
2045.37774817704
 10
1118.859498116451
 20
2045.355268208837
 10
1118.862012252599
 20
2045.332669625547
 10
1118.863620675407
 20
2045.309988580082
 10
1118.864320811741
 20
2045.287261357277
 10
1118.864353943092
 20
2045.281123894173
1001
REVIT
1002
{
1070
     3
1000
923114
1002
}
  0
LWPOLYLINE
  5
1A7
330
196
100
AcDbEntity
  8
M-PIPE
100
AcDbPolyline
 90
        5
 70
   128
 43
0.0
 10
1118.243161994445
 20
2045.84961190438
 10
1118.265153585043
 20
2045.84961190438
 10
1118.287410081424
 20
2045.84961190438
 10
1118.295791538137
 20
2045.84961190438
 10
1118.295865932884
 20
2045.84961190438
1001
REVIT
1002
{
1070
     3
1000
923114
1002
}
  0
LWPOLYLINE
  5
1A8
330
196
100
AcDbEntity
  8
M-PIPE
100
AcDbPolyline
 90
        4
 70
   128
 43
0.0
 10
1100.932841953307
 20
2045.84961190438
 10
1100.93978623692
 20
2045.84961190438
 10
1100.960607978388
 20
2045.84961190438
 10
1100.995273867364
 20
2045.84961190438
1001
REVIT
1002
{
1070
     3
1000
923114
1002
}
  0
LINE
  5
1A9
330
196
100
AcDbEntity
  8
M-PIPE
100
AcDbLine
 10
1113.364353943095
 20
2048.393305290818
 30
0.0
 11
1105.864353943095
 21
2048.393305290818
 31
0.0
1001
REVIT
1002
{
1070
     3
1000
923114
1002
}
  0
LINE
  5
1AA
330
196
100
AcDbEntity
  8
M-PIPE
100
AcDbLine
 10
1095.114353943099
 20
2029.849611904361
 30
0.0
 11
1105.864353943093
 21
2029.849611904361
 31
0.0
1001
REVIT
1002
{
1070
     3
1000
923114
1002
}
  0
LINE
  5
1AB
330
196
100
AcDbEntity
  8
M-PIPE
100
AcDbLine
 10
1111.614353943081
 20
2023.349611904377
 30
0.0
 11
1123.975760559432
 21
2023.349611904377
 31
0.0
1001
REVIT
1002
{
1070
     3
1000
923114
1002
}
  0
LINE
  5
1AC
330
196
100
AcDbEntity
  8
M-PIPE
100
AcDbLine
 10
1123.975760559432
 20
2023.349611904377
 30
0.0
 11
1123.975760559432
 21
2029.849611904361
 31
0.0
1001
REVIT
1002
{
1070
     3
1000
923114
1002
}
  0
LINE
  5
1AD
330
196
100
AcDbEntity
  8
M-PIPE
100
AcDbLine
 10
1123.975760559432
 20
2029.849611904361
 30
0.0
 11
1124.114353943088
 21
2029.849611904361
 31
0.0
1001
REVIT
1002
{
1070
     3
1000
923114
1002
}
  0
LINE
  5
1AE
330
196
100
AcDbEntity
  8
M-PIPE
100
AcDbLine
 10
1111.614353943081
 20
2029.849611904361
 30
0.0
 11
1111.614353943081
 21
2023.349611904377
 31
0.0
1001
REVIT
1002
{
1070
     3
1000
923114
1002
}
  0
LINE
  5
1AF
330
196
100
AcDbEntity
  8
M-PIPE
100
AcDbLine
 10
1095.252947326756
 20
2023.349611904377
 30
0.0
 11
1095.252947326756
 21
2029.849611904361
 31
0.0
1001
REVIT
1002
{
1070
     3
1000
923114
1002
}
  0
LINE
  5
1B0
330
196
100
AcDbEntity
  8
M-PIPE
100
AcDbLine
 10
1099.348708600103
 20
2023.349611904377
 30
0.0
 11
1098.289602290175
 21
2023.349611904377
 31
0.0
1001
REVIT
1002
{
1070
     3
1000
923114
1002
}
  0
LINE
  5
1B1
330
196
100
AcDbEntity
  8
M-PIPE
100
AcDbLine
 10
1098.289602290175
 20
2023.349611904377
 30
0.0
 11
1095.252947326756
 21
2023.349611904377
 31
0.0
1001
REVIT
1002
{
1070
     3
1000
923114
1002
}
  0
SPLINE
  5
1B2
330
196
100
AcDbEntity
  8
M-PIPE
100
AcDbSpline
210
0.0
220
0.0
230
1.0
 70
    24
 71
     3
 72
     8
 73
     4
 74
     0
 42
0.000000001
 43
0.0000000001
 40
-0.142857142857143
 40
-0.142857142857143
 40
-0.142857142857143
 40
-0.142857142857143
 40
-0.0269704286773724
 40
-0.0269704286773724
 40
-0.0269704286773724
 40
-0.0269704286773724
 10
1105.864353943093
 20
2039.311915284519
 30
0.0
 10
1105.864353943093
 20
2039.339852036039
 30
0.0
 10
1105.864353943093
 20
2039.348655335993
 30
0.0
 10
1105.864353943093
 20
2039.351043395678
 30
0.0
1001
REVIT
1002
{
1070
     3
1000
923114
1002
}
  0
LINE
  5
1B3
330
196
100
AcDbEntity
  8
M-PIPE
100
AcDbLine
 10
1098.289602290175
 20
2023.349611904361
 30
0.0
 11
1098.289602290175
 21
2029.849611904361
 31
0.0
1001
REVIT
1002
{
1070
     3
1000
923114
1002
}
  0
LINE
  5
1B4
330
196
100
AcDbEntity
  8
M-PIPE
100
AcDbLine
 10
1105.864353943093
 20
2029.84961190436
 30
0.0
 11
1105.864353943093
 21
2043.56780277433
 31
0.0
1001
REVIT
1002
{
1070
     3
1000
923114
1002
}
  0
LINE
  5
1B5
330
196
100
AcDbEntity
  8
M-PIPE
100
AcDbLine
 10
1105.864353943093
 20
2043.56780277433
 30
0.0
 11
1105.864353943093
 21
2048.391392281468
 31
0.0
1001
REVIT
1002
{
1070
     3
1000
923114
1002
}
  0
LINE
  5
1B6
330
196
100
AcDbEntity
  8
M-PIPE
100
AcDbLine
 10
1113.364353943093
 20
2048.391392281468
 30
0.0
 11
1113.364353943093
 21
2043.56780277433
 31
0.0
1001
REVIT
1002
{
1070
     3
1000
923114
1002
}
  0
LINE
  5
1B7
330
196
100
AcDbEntity
  8
M-PIPE
100
AcDbLine
 10
1113.364353943093
 20
2043.56780277433
 30
0.0
 11
1113.364353943093
 21
2029.849611904361
 31
0.0
1001
REVIT
1002
{
1070
     3
1000
923114
1002
}
  0
LINE
  5
1B8
330
196
100
AcDbEntity
  8
M-PIPE
100
AcDbLine
 10
1113.364353943093
 20
2029.849611904361
 30
0.0
 11
1105.864353943093
 21
2029.84961190436
 31
0.0
1001
REVIT
1002
{
1070
     3
1000
923114
1002
}
  0
ARC
  5
1B9
330
196
100
AcDbEntity
  8
P-SANR-FIXT
100
AcDbCircle
 10
1109.614353943096
 20
1999.982558850011
 30
0.0
 40
17.39999999999986
100
AcDbArc
 50
269.9999999999997
 51
90.0
  0
ARC
  5
1BA
330
196
100
AcDbEntity
  8
P-SANR-FIXT
100
AcDbCircle
 10
1109.614353943096
 20
1999.982558850011
 30
0.0
 40
17.39999999999986
100
AcDbArc
 50
90.0
 51
269.9999999999989
  0
ARC
  5
1BB
330
196
100
AcDbEntity
  8
P-SANR-FIXT
100
AcDbCircle
 10
1109.614353943096
 20
1999.982558850011
 30
0.0
 40
16.25
100
AcDbArc
 50
270.0000000000005
 51
90.0
  0
ARC
  5
1BC
330
196
100
AcDbEntity
  8
P-SANR-FIXT
100
AcDbCircle
 10
1109.614353943096
 20
1999.982558850011
 30
0.0
 40
16.25
100
AcDbArc
 50
90.0
 51
269.9999999999997
  0
LINE
  5
1BD
330
196
100
AcDbEntity
  8
P-SANR-FIXT
100
AcDbLine
 10
1119.864353943099
 20
2014.017690027307
 30
0.0
 11
1119.864353943099
 21
2023.349611904379
 31
0.0
  0
LINE
  5
1BE
330
196
100
AcDbEntity
  8
P-SANR-FIXT
100
AcDbLine
 10
1099.364353943099
 20
2027.732558850011
 30
0.0
 11
1099.364353943099
 21
2014.017690027307
 31
0.0
  0
LINE
  5
1BF
330
196
100
AcDbEntity
  8
P-SANR-FIXT
100
AcDbLine
 10
1099.864353943099
 20
2028.232558850012
 30
0.0
 11
1099.413726695907
 21
2027.781931602821
 31
0.0
  0
LINE
  5
1C0
330
196
100
AcDbEntity
  8
P-SANR-FIXT
100
AcDbLine
 10
1099.398158608028
 20
2027.766363514941
 30
0.0
 11
1099.364353943099
 21
2027.732558850011
 31
0.0
  0
LINE
  5
1C1
330
196
100
AcDbEntity
  8
P-SANR-FIXT
100
AcDbLine
 10
1115.397002945269
 20
2045.84961190438
 30
0.0
 11
1115.397002945269
 21
2048.982558850012
 31
0.0
  0
LINE
  5
1C2
330
196
100
AcDbEntity
  8
P-SANR-FIXT
100
AcDbLine
 10
1103.831704940927
 20
2048.982558850012
 30
0.0
 11
1103.831704940927
 21
2045.84961190438
 31
0.0
  0
LINE
  5
1C3
330
196
100
AcDbEntity
  8
P-SANR-FIXT
100
AcDbLine
 10
1103.831704940927
 20
2029.849611904362
 30
0.0
 11
1103.831704940927
 21
2028.232558850012
 31
0.0
  0
LINE
  5
1C4
330
196
100
AcDbEntity
  8
P-SANR-FIXT
100
AcDbLine
 10
1115.397002945269
 20
2048.982558850012
 30
0.0
 11
1114.397002945269
 21
2049.982558850012
 31
0.0
  0
LINE
  5
1C5
330
196
100
AcDbEntity
  8
P-SANR-FIXT
100
AcDbLine
 10
1104.831704940927
 20
2049.982558850012
 30
0.0
 11
1103.831704940927
 21
2048.982558850012
 31
0.0
  0
ARC
  5
1C6
330
196
100
AcDbEntity
  8
P-SANR-FIXT
100
AcDbCircle
 10
1109.614353943096
 20
1999.982558850011
 30
0.0
 40
12.99999999998476
100
AcDbArc
 50
269.9999999999997
 51
299.9999999999986
  0
ARC
  5
1C7
330
196
100
AcDbEntity
  8
P-SANR-FIXT
100
AcDbCircle
 10
1109.614353943096
 20
1999.982558850011
 30
0.0
 40
12.99999999998468
100
AcDbArc
 50
299.999999999998
 51
359.9999999999976
  0
ARC
  5
1C8
330
196
100
AcDbEntity
  8
P-SANR-FIXT
100
AcDbCircle
 10
1109.614353943096
 20
1999.982558850011
 30
0.0
 40
12.99999999998476
100
AcDbArc
 50
359.9999999999976
 51
54.89528414905472
  0
ARC
  5
1C9
330
196
100
AcDbEntity
  8
P-SANR-FIXT
100
AcDbCircle
 10
1109.614353943096
 20
1999.982558850011
 30
0.0
 40
12.99999999998454
100
AcDbArc
 50
54.99999999999804
 51
59.99999999999793
  0
ARC
  5
1CA
330
196
100
AcDbEntity
  8
P-SANR-FIXT
100
AcDbCircle
 10
1109.614353943096
 20
1999.982558850011
 30
0.0
 40
12.99999999998463
100
AcDbArc
 50
59.99999999999814
 51
89.999999999999
  0
ARC
  5
1CB
330
196
100
AcDbEntity
  8
P-SANR-FIXT
100
AcDbCircle
 10
1109.614353943096
 20
1999.982558850011
 30
0.0
 40
12.99999999998454
100
AcDbArc
 50
90.0
 51
119.9999999999989
  0
ARC
  5
1CC
330
196
100
AcDbEntity
  8
P-SANR-FIXT
100
AcDbCircle
 10
1109.614353943096
 20
1999.982558850011
 30
0.0
 40
12.99999999998448
100
AcDbArc
 50
119.9999999999992
 51
124.9999999999994
  0
ARC
  5
1CD
330
196
100
AcDbEntity
  8
P-SANR-FIXT
100
AcDbCircle
 10
1109.614353943096
 20
1999.982558850011
 30
0.0
 40
12.99999999998441
100
AcDbArc
 50
125.1047158488534
 51
179.999999999999
  0
ARC
  5
1CE
330
196
100
AcDbEntity
  8
P-SANR-FIXT
100
AcDbCircle
 10
1109.614353943096
 20
1999.982558850011
 30
0.0
 40
12.99999999998454
100
AcDbArc
 50
179.999999999999
 51
239.999999999998
  0
ARC
  5
1CF
330
196
100
AcDbEntity
  8
P-SANR-FIXT
100
AcDbCircle
 10
1109.614353943096
 20
1999.982558850011
 30
0.0
 40
12.99999999998471
100
AcDbArc
 50
239.9999999999986
 51
269.9999999999997
  0
ARC
  5
1D0
330
196
100
AcDbEntity
  8
P-SANR-FIXT
100
AcDbCircle
 10
1109.614353943096
 20
1999.982558850011
 30
0.0
 40
6.349999999999909
100
AcDbArc
 50
269.9999999999997
 51
90.0
  0
ARC
  5
1D1
330
196
100
AcDbEntity
  8
P-SANR-FIXT
100
AcDbCircle
 10
1109.614353943096
 20
1999.982558850011
 30
0.0
 40
6.349999999999909
100
AcDbArc
 50
90.0
 51
269.9999999999997
  0
SPLINE
  5
1D2
330
196
100
AcDbEntity
  8
P-SANR-FIXT
100
AcDbSpline
210
0.0
220
0.0
230
1.0
 70
    24
 71
     3
 72
     9
 73
     5
 74
     0
 42
0.000000001
 43
0.0000000001
 40
0.0
 40
0.0
 40
0.0
 40
0.0
 40
0.5
 40
0.8277107403520099
 40
0.8277107403520099
 40
0.8277107403520099
 40
0.8277107403520099
 10
1096.614353943058
 20
1993.559942560675
 30
0.0
 10
1096.614353943058
 20
1994.612716629506
 30
0.0
 10
1096.614353943058
 20
1996.370120447416
 30
0.0
 10
1096.614353943059
 20
1998.151724888569
 30
0.0
 10
1096.614353943059
 20
1998.860898854021
 30
0.0
  0
SPLINE
  5
1D3
330
196
100
AcDbEntity
  8
P-SANR-FIXT
100
AcDbSpline
210
0.0
220
0.0
230
1.0
 70
    24
 71
     3
 72
     8
 73
     4
 74
     0
 42
0.000000001
 43
0.0000000001
 40
0.0
 40
0.0
 40
0.0
 40
0.0
 40
0.0669728345243492
 40
0.0669728345243492
 40
0.0669728345243492
 40
0.0669728345243492
 10
1096.614353943059
 20
1999.982558850011
 30
0.0
 10
1096.614353943059
 20
2000.12830486831
 30
0.0
 10
1096.614353943059
 20
2000.273892445918
 30
0.0
 10
1096.614353943059
 20
2000.419321582834
 30
0.0
  0
SPLINE
  5
1D4
330
196
100
AcDbEntity
  8
P-SANR-FIXT
100
AcDbSpline
210
0.0
220
0.0
230
1.0
 70
    24
 71
     3
 72
     9
 73
     5
 74
     0
 42
0.000000001
 43
0.0000000001
 40
0.1722892596479572
 40
0.1722892596479572
 40
0.1722892596479572
 40
0.1722892596479572
 40
0.5
 40
1.0
 40
1.0
 40
1.0
 40
1.0
 10
1096.614353943059
 20
2001.104218846001
 30
0.0
 10
1096.614353943059
 20
2001.813392811452
 30
0.0
 10
1096.614353943059
 20
2003.594997252606
 30
0.0
 10
1096.614353943059
 20
2005.352401070516
 30
0.0
 10
1096.614353943059
 20
2006.405175139347
 30
0.0
  0
ARC
  5
1D5
330
196
100
AcDbEntity
  8
P-SANR-FIXT
100
AcDbCircle
 10
1109.614353943052
 20
1999.982558850011
 30
0.0
 40
14.49999999999599
100
AcDbArc
 50
206.2915552747515
 51
213.7084447252443
  0
SPLINE
  5
1D6
330
196
100
AcDbEntity
  8
P-SANR-FIXT
100
AcDbSpline
210
0.0
220
0.0
230
1.0
 70
    24
 71
     3
 72
     9
 73
     5
 74
     0
 42
0.000000001
 43
0.0000000001
 40
0.0
 40
0.0
 40
0.0
 40
0.0
 40
0.5
 40
0.8233677317621555
 40
0.8233677317621555
 40
0.8233677317621555
 40
0.8233677317621555
 10
1108.67650280838
 20
1985.512920456151
 30
0.0
 10
1107.764773720332
 20
1986.039307490562
 30
0.0
 10
1106.250803093301
 20
1986.913398839624
 30
0.0
 10
1104.716093472242
 20
1987.799463852471
 30
0.0
 10
1104.11015595905
 20
1988.149302038824
 30
0.0
  0
SPLINE
  5
1D7
330
196
100
AcDbEntity
  8
P-SANR-FIXT
100
AcDbSpline
210
0.0
220
0.0
230
1.0
 70
    24
 71
     3
 72
     8
 73
     4
 74
     0
 42
0.000000001
 43
0.0000000001
 40
0.9826876463759171
 40
0.9826876463759171
 40
0.9826876463759171
 40
0.9826876463759171
 40
1.0
 40
1.0
 40
1.0
 40
1.0
 10
1103.212209154547
 20
1988.667731868122
 30
0.0
 10
1103.179599919521
 20
1988.686558818742
 30
0.0
 10
1103.146981515702
 20
1988.705391062968
 30
0.0
 10
1103.114353943088
 20
1988.7242286008
 30
0.0
  0
SPLINE
  5
1D8
330
196
100
AcDbEntity
  8
P-SANR-FIXT
100
AcDbSpline
210
0.0
220
0.0
230
1.0
 70
    24
 71
     3
 72
     9
 73
     5
 74
     0
 42
0.000000001
 43
0.0000000001
 40
0.1679462510580497
 40
0.1679462510580497
 40
0.1679462510580497
 40
0.1679462510580497
 40
0.5
 40
1.0
 40
1.0
 40
1.0
 40
1.0
 10
1102.167387319222
 20
1989.270960036002
 30
0.0
 10
1101.544997184817
 20
1989.630297147642
 30
0.0
 10
1099.993876240793
 20
1990.52583724222
 30
0.0
 10
1098.463934165789
 20
1991.409149711068
 30
0.0
 10
1097.55220507773
 20
1991.935536745487
 30
0.0
  0
ARC
  5
1D9
330
196
100
AcDbEntity
  8
P-SANR-FIXT
100
AcDbCircle
 10
1109.614353943052
 20
1999.982558850011
 30
0.0
 40
14.49999999999594
100
AcDbArc
 50
270.0000000001722
 51
273.7084447252446
  0
ARC
  5
1DA
330
196
100
AcDbEntity
  8
P-SANR-FIXT
100
AcDbCircle
 10
1109.614353943052
 20
1999.982558850011
 30
0.0
 40
14.4999999999959
100
AcDbArc
 50
266.291555274751
 51
270.0000000001722
  0
SPLINE
  5
1DB
330
196
100
AcDbEntity
  8
P-SANR-FIXT
100
AcDbSpline
210
0.0
220
0.0
230
1.0
 70
    24
 71
     3
 72
     9
 73
     5
 74
     0
 42
0.000000001
 43
0.0000000001
 40
0.0
 40
0.0
 40
0.0
 40
0.0
 40
0.5
 40
0.8320537489365568
 40
0.8320537489365568
 40
0.8320537489365568
 40
0.8320537489365568
 10
1121.676502808374
 20
1991.935536745486
 30
0.0
 10
1120.764773720327
 20
1991.409149711074
 30
0.0
 10
1119.234831645351
 20
1990.525837242242
 30
0.0
 10
1117.683710701355
 20
1989.63029714768
 30
0.0
 10
1117.061320566968
 20
1989.270960036051
 30
0.0
  0
SPLINE
  5
1DC
330
196
100
AcDbEntity
  8
P-SANR-FIXT
100
AcDbSpline
210
0.0
220
0.0
230
1.0
 70
    24
 71
     3
 72
     9
 73
     5
 74
     0
 42
0.000000001
 43
0.0000000001
 40
0.1766322682319327
 40
0.1766322682319327
 40
0.1766322682319327
 40
0.1766322682319327
 40
0.5
 40
1.0
 40
1.0
 40
1.0
 40
1.0
 10
1115.118551927141
 20
1988.149302038874
 30
0.0
 10
1114.512614413929
 20
1987.79946385251
 30
0.0
 10
1112.97790479284
 20
1986.913398839646
 30
0.0
 10
1111.463934165782
 20
1986.039307490568
 30
0.0
 10
1110.552205077724
 20
1985.51292045615
 30
0.0
  0
ARC
  5
1DD
330
196
100
AcDbEntity
  8
P-SANR-FIXT
100
AcDbCircle
 10
1109.614353943052
 20
1999.982558850011
 30
0.0
 40
14.49999999999602
100
AcDbArc
 50
326.291555274751
 51
333.7084447252447
  0
LINE
  5
1DE
330
196
100
AcDbEntity
  8
P-SANR-FIXT
100
AcDbLine
 10
1099.866112697139
 20
2028.232558850011
 30
0.0
 11
1109.614353943096
 21
2028.232558850011
 31
0.0
  0
LINE
  5
1DF
330
196
100
AcDbEntity
  8
P-SANR-FIXT
100
AcDbLine
 10
1109.614353943096
 20
2028.232558850011
 30
0.0
 11
1111.616302488805
 21
2028.232558850011
 31
0.0
  0
ARC
  5
1E0
330
196
100
AcDbEntity
  8
P-SANR-FIXT
100
AcDbCircle
 10
1109.614353943096
 20
1999.982558850011
 30
0.0
 40
15.75
100
AcDbArc
 50
269.9999999999997
 51
90.0
  0
ARC
  5
1E1
330
196
100
AcDbEntity
  8
P-SANR-FIXT
100
AcDbCircle
 10
1109.614353943096
 20
1999.982558850011
 30
0.0
 40
15.75
100
AcDbArc
 50
90.00000000000081
 51
269.9999999999997
  0
ARC
  5
1E2
330
196
100
AcDbEntity
  8
P-SANR-FIXT
100
AcDbCircle
 10
1109.614353943096
 20
1999.982558850011
 30
0.0
 40
14.49999999999619
100
AcDbArc
 50
33.70844472505108
 51
86.29155527494773
  0
ARC
  5
1E3
330
196
100
AcDbEntity
  8
P-SANR-FIXT
100
AcDbCircle
 10
1109.614353943096
 20
1999.982558850011
 30
0.0
 40
14.49999999999596
100
AcDbArc
 50
333.7084447248547
 51
26.29155527514299
  0
ARC
  5
1E4
330
196
100
AcDbEntity
  8
P-SANR-FIXT
100
AcDbCircle
 10
1109.614353943096
 20
1999.982558850011
 30
0.0
 40
14.49999999999591
100
AcDbArc
 50
273.7084447250484
 51
326.2915552749483
  0
ARC
  5
1E5
330
196
100
AcDbEntity
  8
P-SANR-FIXT
100
AcDbCircle
 10
1109.614353943096
 20
1999.982558850011
 30
0.0
 40
14.49999999999619
100
AcDbArc
 50
213.7084447254395
 51
266.2915552745584
  0
ARC
  5
1E6
330
196
100
AcDbEntity
  8
P-SANR-FIXT
100
AcDbCircle
 10
1109.614353943096
 20
1999.982558850011
 30
0.0
 40
14.49999999999609
100
AcDbArc
 50
153.7084447256343
 51
206.2915552743633
  0
ARC
  5
1E7
330
196
100
AcDbEntity
  8
P-SANR-FIXT
100
AcDbCircle
 10
1109.614353943096
 20
1999.982558850011
 30
0.0
 40
14.49999999999601
100
AcDbArc
 50
93.70844472544037
 51
146.2915552745581
  0
LINE
  5
1E8
330
196
100
AcDbEntity
  8
P-SANR-FIXT
100
AcDbLine
 10
1111.617811007587
 20
2027.732558850011
 30
0.0
 11
1109.614353943096
 21
2027.732558850011
 31
0.0
  0
LINE
  5
1E9
330
196
100
AcDbEntity
  8
P-SANR-FIXT
100
AcDbLine
 10
1094.53904047937
 20
2004.542978125736
 30
0.0
 11
1094.543717056385
 21
2004.558408916272
 31
0.0
  0
LINE
  5
1EA
330
196
100
AcDbEntity
  8
P-SANR-FIXT
100
AcDbLine
 10
1109.614353943096
 20
2027.732558850011
 30
0.0
 11
1099.367436658943
 21
2027.732558850011
 31
0.0
  0
LINE
  5
1EB
330
196
100
AcDbEntity
  8
P-SANR-FIXT
100
AcDbLine
 10
1109.614353943096
 20
2049.982558850011
 30
0.0
 11
1114.397002945267
 21
2049.982558850011
 31
0.0
  0
LINE
  5
1EC
330
196
100
AcDbEntity
  8
P-SANR-FIXT
100
AcDbLine
 10
1104.831704940925
 20
2049.982558850011
 30
0.0
 11
1109.614353943096
 21
2049.982558850011
 31
0.0
  0
LINE
  5
1ED
330
196
100
AcDbEntity
  8
P-SANR-FIXT
100
AcDbLine
 10
1115.397002945267
 20
2048.982558850011
 30
0.0
 11
1109.614353943096
 21
2048.982558850011
 31
0.0
  0
LINE
  5
1EE
330
196
100
AcDbEntity
  8
P-SANR-FIXT
100
AcDbLine
 10
1109.614353943096
 20
2048.982558850011
 30
0.0
 11
1103.831704940925
 21
2048.982558850011
 31
0.0
  0
SPLINE
  5
1EF
330
196
100
AcDbEntity
  8
P-SANR-FIXT
100
AcDbSpline
210
0.0
220
0.0
230
1.0
 70
    24
 71
     3
 72
     9
 73
     5
 74
     0
 42
0.000000001
 43
0.0000000001
 40
0.0
 40
0.0
 40
0.0
 40
0.0
 40
0.5
 40
0.8277107403523535
 40
0.8277107403523535
 40
0.8277107403523535
 40
0.8277107403523535
 10
1122.614353943046
 20
2006.405175139347
 30
0.0
 10
1122.614353943046
 20
2005.352401070517
 30
0.0
 10
1122.614353943046
 20
2003.594997252608
 30
0.0
 10
1122.614353943046
 20
2001.813392811452
 30
0.0
 10
1122.614353943046
 20
2001.104218846
 30
0.0
  0
SPLINE
  5
1F0
330
196
100
AcDbEntity
  8
P-SANR-FIXT
100
AcDbSpline
210
0.0
220
0.0
230
1.0
 70
    24
 71
     3
 72
     8
 73
     4
 74
     0
 42
0.000000001
 43
0.0000000001
 40
0.9330271654757201
 40
0.9330271654757201
 40
0.9330271654757201
 40
0.9330271654757201
 40
1.0
 40
1.0
 40
1.0
 40
1.0
 10
1122.614353943046
 20
2000.419321582834
 30
0.0
 10
1122.614353943046
 20
2000.273892445918
 30
0.0
 10
1122.614353943046
 20
2000.12830486831
 30
0.0
 10
1122.614353943046
 20
1999.98255885001
 30
0.0
  0
SPLINE
  5
1F1
330
196
100
AcDbEntity
  8
P-SANR-FIXT
100
AcDbSpline
210
0.0
220
0.0
230
1.0
 70
    24
 71
     3
 72
     9
 73
     5
 74
     0
 42
0.000000001
 43
0.0000000001
 40
0.1722892596476722
 40
0.1722892596476722
 40
0.1722892596476722
 40
0.1722892596476722
 40
0.5
 40
1.0
 40
1.0
 40
1.0
 40
1.0
 10
1122.614353943046
 20
1998.860898854021
 30
0.0
 10
1122.614353943046
 20
1998.151724888568
 30
0.0
 10
1122.614353943046
 20
1996.370120447413
 30
0.0
 10
1122.614353943046
 20
1994.612716629504
 30
0.0
 10
1122.614353943046
 20
1993.559942560674
 30
0.0
  0
ARC
  5
1F2
330
196
100
AcDbEntity
  8
P-SANR-FIXT
100
AcDbCircle
 10
1109.614353943052
 20
1999.982558850011
 30
0.0
 40
14.49999999999606
100
AcDbArc
 50
26.29155527475235
 51
33.70844472524627
  0
SPLINE
  5
1F3
330
196
100
AcDbEntity
  8
P-SANR-FIXT
100
AcDbSpline
210
0.0
220
0.0
230
1.0
 70
    24
 71
     3
 72
     9
 73
     5
 74
     0
 42
0.000000001
 43
0.0000000001
 40
0.0
 40
0.0
 40
0.0
 40
0.0
 40
0.5
 40
0.8233677317680673
 40
0.8233677317680673
 40
0.8233677317680673
 40
0.8233677317680673
 10
1110.552205077725
 20
2014.452197243871
 30
0.0
 10
1111.463934165782
 20
2013.925810209453
 30
0.0
 10
1112.977904792841
 20
2013.051718860376
 30
0.0
 10
1114.51261441393
 20
2012.165653847512
 30
0.0
 10
1115.118551927141
 20
2011.815815661147
 30
0.0
  0
SPLINE
  5
1F4
330
196
100
AcDbEntity
  8
P-SANR-FIXT
100
AcDbSpline
210
0.0
220
0.0
230
1.0
 70
    24
 71
     3
 72
     8
 73
     4
 74
     0
 42
0.000000001
 43
0.0000000001
 40
0.9498838622075179
 40
0.9498838622075179
 40
0.9498838622075179
 40
0.9498838622075179
 40
1.0
 40
1.0
 40
1.0
 40
1.0
 10
1115.831231651732
 20
2011.404349830309
 30
0.0
 10
1115.925528914539
 20
2011.349907280243
 30
0.0
 10
1116.019903011656
 20
2011.295420369868
 30
0.0
 10
1116.114353943082
 20
2011.240889099184
 30
0.0
  0
SPLINE
  5
1F5
330
196
100
AcDbEntity
  8
P-SANR-FIXT
100
AcDbSpline
210
0.0
220
0.0
230
1.0
 70
    24
 71
     3
 72
     9
 73
     5
 74
     0
 42
0.000000001
 43
0.0000000001
 40
0.1679462510634631
 40
0.1679462510634631
 40
0.1679462510634631
 40
0.1679462510634631
 40
0.5
 40
1.0
 40
1.0
 40
1.0
 40
1.0
 10
1117.061320566968
 20
2010.69415766397
 30
0.0
 10
1117.683710701355
 20
2010.334820552341
 30
0.0
 10
1119.234831645351
 20
2009.439280457779
 30
0.0
 10
1120.764773720327
 20
2008.555967988947
 30
0.0
 10
1121.676502808374
 20
2008.029580954535
 30
0.0
  0
ARC
  5
1F6
330
196
100
AcDbEntity
  8
P-SANR-FIXT
100
AcDbCircle
 10
1109.614353943052
 20
1999.982558850011
 30
0.0
 40
14.49999999999595
100
AcDbArc
 50
89.99999999982749
 51
93.7084447252459
  0
ARC
  5
1F7
330
196
100
AcDbEntity
  8
P-SANR-FIXT
100
AcDbCircle
 10
1109.614353943052
 20
1999.982558850011
 30
0.0
 40
14.4999999999959
100
AcDbArc
 50
86.29155527475232
 51
89.99999999982749
  0
SPLINE
  5
1F8
330
196
100
AcDbEntity
  8
P-SANR-FIXT
100
AcDbSpline
210
0.0
220
0.0
230
1.0
 70
    24
 71
     3
 72
     9
 73
     5
 74
     0
 42
0.000000001
 43
0.0000000001
 40
0.0
 40
0.0
 40
0.0
 40
0.0
 40
0.5
 40
0.8320537489419304
 40
0.8320537489419304
 40
0.8320537489419304
 40
0.8320537489419304
 10
1097.552205077731
 20
2008.029580954535
 30
0.0
 10
1098.463934165789
 20
2008.555967988954
 30
0.0
 10
1099.993876240793
 20
2009.439280457802
 30
0.0
 10
1101.544997184817
 20
2010.33482055238
 30
0.0
 10
1102.167387319222
 20
2010.694157664019
 30
0.0
  0
SPLINE
  5
1F9
330
196
100
AcDbEntity
  8
P-SANR-FIXT
100
AcDbSpline
210
0.0
220
0.0
230
1.0
 70
    24
 71
     3
 72
     8
 73
     4
 74
     0
 42
0.000000001
 43
0.0000000001
 40
0.0
 40
0.0
 40
0.0
 40
0.0
 40
0.0501161377838694
 40
0.0501161377838694
 40
0.0501161377838694
 40
0.0501161377838694
 10
1103.114353943088
 20
2011.240889099222
 30
0.0
 10
1103.208804874497
 20
2011.295420369896
 30
0.0
 10
1103.303178971597
 20
2011.349907280261
 30
0.0
 10
1103.397476234387
 20
2011.404349830317
 30
0.0
  0
SPLINE
  5
1FA
330
196
100
AcDbEntity
  8
P-SANR-FIXT
100
AcDbSpline
210
0.0
220
0.0
230
1.0
 70
    24
 71
     3
 72
     9
 73
     5
 74
     0
 42
0.000000001
 43
0.0000000001
 40
0.1766322682378025
 40
0.1766322682378025
 40
0.1766322682378025
 40
0.1766322682378025
 40
0.5
 40
1.0
 40
1.0
 40
1.0
 40
1.0
 10
1104.11015595905
 20
2011.815815661197
 30
0.0
 10
1104.716093472243
 20
2012.165653847551
 30
0.0
 10
1106.250803093302
 20
2013.051718860397
 30
0.0
 10
1107.764773720333
 20
2013.925810209459
 30
0.0
 10
1108.67650280838
 20
2014.452197243871
 30
0.0
  0
ARC
  5
1FB
330
196
100
AcDbEntity
  8
P-SANR-FIXT
100
AcDbCircle
 10
1109.614353943052
 20
1999.982558850011
 30
0.0
 40
14.49999999999592
100
AcDbArc
 50
146.2915552747532
 51
153.7084447252464
  0
ENDBLK
  5
1FD
330
196
100
AcDbEntity
  8
0
100
AcDbBlockEnd
  0
ENDSEC
  0
SECTION
  2
ENTITIES
  0
INSERT
  5
121
330
71
100
AcDbEntity
  8
P-SANR-FIXT
100
AcDbBlockReference
  2
Automatic flow rate regulator valve_Caleffi_121 DN15 - 1_2__-859151-Est - Idraulica
 10
0.0
 20
0.0
 30
0.0
1001
REVIT
1002
{
1070
     1
1000
863131
1002
}
1002
{
1070
     5
1000
859151
1002
}
1002
{
1070
     2
1000
-2001160
1002
}
  0
INSERT
  5
195
330
71
100
AcDbEntity
  8
P-SANR-FIXT
100
AcDbBlockReference
  2
Automatic flow rate regulator valve_Caleffi_121 DN15 - 1_2__-V1-Est - Idraulica
 10
0.0
 20
0.0
 30
0.0
1001
REVIT
1002
{
1070
     1
1000
863152
1002
}
1002
{
1070
     5
1000
859151
1002
}
1002
{
1070
     2
1000
-2001160
1002
}
  0
INSERT
  5
1FE
330
71
100
AcDbEntity
  8
P-SANR-FIXT
100
AcDbBlockReference
  2
Automatic flow rate regulator valve_Caleffi_121 DN15 - 1_2__-V2-Est - Idraulica
 10
0.0
 20
0.0
 30
0.0
1001
REVIT
1002
{
1070
     1
1000
863172
1002
}
1002
{
1070
     5
1000
859151
1002
}
1002
{
1070
     2
1000
-2001160
1002
}
  0
ENDSEC
  0
SECTION
  2
OBJECTS
  0
DICTIONARY
  5
C
330
0
100
AcDbDictionary
281
     1
  3
ACAD_CIP_PREVIOUS_PRODUCT_INFO
350
7A
  3
ACAD_COLOR
350
63
  3
ACAD_DETAILVIEWSTYLE
350
6B
  3
ACAD_GROUP
350
D
  3
ACAD_IMAGE_VARS
350
7B
  3
ACAD_LAYOUT
350
62
  3
ACAD_MATERIAL
350
10
  3
ACAD_MLEADERSTYLE
350
66
  3
ACAD_MLINESTYLE
350
5F
  3
ACAD_PLOTSETTINGS
350
61
  3
ACAD_PLOTSTYLENAME
350
E
  3
ACAD_SCALELIST
350
42
  3
ACAD_SECTIONVIEWSTYLE
350
68
  3
ACAD_TABLESTYLE
350
64
  3
ACAD_VISUALSTYLE
350
29
  3
ACDB_RECOMPOSE_DATA
350
209
  3
AcDbVariableDictionary
350
7C
  3
REVIT_DICTIONARY
350
200
  0
DICTIONARY
  5
205
330
71
100
AcDbDictionary
280
     1
281
     1
  3
ACAD_SORTENTS
360
206
  0
XRECORD
  5
7A
102
{ACAD_REACTORS
330
C
102
}
330
C
100
AcDbXrecord
280
     1
300
RVT
300
2013
300
RVT2013
  0
DICTIONARY
  5
63
102
{ACAD_REACTORS
330
C
102
}
330
C
100
AcDbDictionary
281
     1
  0
DICTIONARY
  5
6B
102
{ACAD_REACTORS
330
C
102
}
330
C
100
AcDbDictionary
281
     1
  3
Imperial24
350
6C
  0
DICTIONARY
  5
D
102
{ACAD_REACTORS
330
C
102
}
330
C
100
AcDbDictionary
281
     1
  0
RASTERVARIABLES
  5
7B
102
{ACAD_REACTORS
330
C
102
}
330
C
100
AcDbRasterVariables
 90
        0
 70
     0
 71
     1
 72
     1
  0
DICTIONARY
  5
62
102
{ACAD_REACTORS
330
C
102
}
330
C
100
AcDbDictionary
281
     1
  3
Layout1
350
70
  3
Layout2
350
78
  3
Model
350
74
  0
DICTIONARY
  5
10
102
{ACAD_REACTORS
330
C
102
}
330
C
100
AcDbDictionary
281
     1
  3
ByBlock
350
19
  3
ByLayer
350
11
  3
Global
350
21
  0
DICTIONARY
  5
66
102
{ACAD_REACTORS
330
C
102
}
330
C
100
AcDbDictionary
281
     1
  3
Standard
350
67
  0
DICTIONARY
  5
5F
102
{ACAD_REACTORS
330
C
102
}
330
C
100
AcDbDictionary
281
     1
  3
Standard
350
60
  0
DICTIONARY
  5
61
102
{ACAD_REACTORS
330
C
102
}
330
C
100
AcDbDictionary
281
     1
  0
ACDBDICTIONARYWDFLT
  5
E
102
{ACAD_REACTORS
330
C
102
}
330
C
100
AcDbDictionary
281
     1
  3
Normal
350
F
100
AcDbDictionaryWithDefault
340
F
  0
DICTIONARY
  5
42
102
{ACAD_REACTORS
330
C
102
}
330
C
100
AcDbDictionary
281
     1
  3
A0
350
43
  3
A1
350
44
  3
A2
350
45
  3
A3
350
46
  3
A4
350
47
  3
A5
350
48
  3
A6
350
49
  3
A7
350
4A
  3
A8
350
4B
  3
A9
350
4C
  3
B0
350
4D
  3
B1
350
4E
  3
B2
350
4F
  3
B3
350
50
  3
B4
350
51
  3
B5
350
52
  3
B6
350
53
  0
DICTIONARY
  5
68
102
{ACAD_REACTORS
330
C
102
}
330
C
100
AcDbDictionary
281
     1
  3
Imperial24
350
6A
  0
DICTIONARY
  5
64
102
{ACAD_REACTORS
330
C
102
}
330
C
100
AcDbDictionary
281
     1
  3
Standard
350
65
  0
DICTIONARY
  5
29
102
{ACAD_REACTORS
330
C
102
}
330
C
100
AcDbDictionary
281
     1
  3
2dWireframe
350
2F
  3
Basic
350
2E
  3
Brighten
350
35
  3
ColorChange
350
39
  3
Conceptual
350
32
  3
Dim
350
34
  3
EdgeColorOff
350
41
  3
Facepattern
350
38
  3
Flat
350
2A
  3
FlatWithEdges
350
2B
  3
Gouraud
350
2C
  3
GouraudWithEdges
350
2D
  3
Hidden
350
31
  3
JitterOff
350
3F
  3
Linepattern
350
37
  3
OverhangOff
350
40
  3
Realistic
350
33
  3
Shaded
350
3E
  3
Shaded with edges
350
3D
  3
Shades of Gray
350
3A
  3
Sketchy
350
3B
  3
Thicken
350
36
  3
Wireframe
350
30
  3
X-Ray
350
3C
  0
XRECORD
  5
209
102
{ACAD_REACTORS
330
C
102
}
330
C
100
AcDbXrecord
280
     1
 90
        1
330
65
  0
DICTIONARY
  5
7C
102
{ACAD_REACTORS
330
C
102
}
330
C
100
AcDbDictionary
281
     1
  3
CANNOSCALE
350
81
  3
CMLEADERSTYLE
350
7E
  3
CTABLESTYLE
350
7D
  3
CVIEWDETAILSTYLE
350
7F
  3
CVIEWSECTIONSTYLE
350
80
  0
DICTIONARY
  5
200
102
{ACAD_REACTORS
330
C
102
}
330
C
100
AcDbDictionary
281
     1
  3
DRAWING_TOOL
350
204
  3
REVIT_CATEGORY_MAPPING
350
202
  3
REVIT_SUB_CATEGORY_MAPPING
350
203
  3
REVIT_TYPE_MAPPING
350
201
  0
SORTENTSTABLE
  5
206
102
{ACAD_REACTORS
330
205
102
}
330
205
100
AcDbSortentsTable
330
71
  0
ACDBDETAILVIEWSTYLE
  5
6C
102
{ACAD_REACTORS
330
6B
102
}
330
6B
100
AcDbModelDocViewStyle
 70
     0
  3
Imperial24
290
     1
100
AcDbDetailViewStyle
 70
     0
 71
     0
 90
        3
 71
     1
340
55
 62
   256
 40
0.24
340
0
 62
   256
 40
0.24
300

 40
0.36
280
     3
 71
     2
340
5D
 90
       25
 62
   256
 71
     3
340
55
 62
   256
 40
0.24
 90
        1
 40
0.75
 90
        1
300
%<\AcVar ViewType \f "%tc1">% %<\AcVar ViewDetailId>%\PSCALA %<\AcVar ViewScale \f "%sn">%
 71
     4
340
5D
 90
       25
 62
   256
340
5D
 90
       25
 62
   256
280
     0
  0
LAYOUT
  5
70
102
{ACAD_REACTORS
330
62
102
}
330
62
100
AcDbPlotSettings
  1

  2

  4

  6

 40
0.0
 41
0.0
 42
0.0
 43
0.0
 44
0.0
 45
0.0
 46
0.0
 47
0.0
 48
0.0
 49
0.0
140
0.0
141
0.0
142
1.0
143
1.0
 70
   688
 72
     0
 73
     0
 74
     5
  7

 75
    16
147
1.0
 76
     0
 77
     2
 78
   300
148
0.0
149
0.0
100
AcDbLayout
  1
Layout1
 70
     1
 71
     1
 10
0.0
 20
0.0
 11
12.0
 21
9.0
 12
0.0
 22
0.0
 32
0.0
 14
0.0
 24
0.0
 34
0.0
 15
0.0
 25
0.0
 35
0.0
146
0.0
 13
0.0
 23
0.0
 33
0.0
 16
1.0
 26
0.0
 36
0.0
 17
0.0
 27
1.0
 37
0.0
 76
     0
330
6D
  0
LAYOUT
  5
78
102
{ACAD_REACTORS
330
62
102
}
330
62
100
AcDbPlotSettings
  1

  2

  4

  6

 40
0.0
 41
0.0
 42
0.0
 43
0.0
 44
0.0
 45
0.0
 46
0.0
 47
0.0
 48
0.0
 49
0.0
140
0.0
141
0.0
142
1.0
143
1.0
 70
   688
 72
     0
 73
     0
 74
     5
  7

 75
    16
147
1.0
 76
     0
 77
     2
 78
   300
148
0.0
149
0.0
100
AcDbLayout
  1
Layout2
 70
     1
 71
     2
 10
0.0
 20
0.0
 11
12.0
 21
9.0
 12
0.0
 22
0.0
 32
0.0
 14
0.0
 24
0.0
 34
0.0
 15
0.0
 25
0.0
 35
0.0
146
0.0
 13
0.0
 23
0.0
 33
0.0
 16
1.0
 26
0.0
 36
0.0
 17
0.0
 27
1.0
 37
0.0
 76
     0
330
75
  0
LAYOUT
  5
74
102
{ACAD_REACTORS
330
62
102
}
330
62
100
AcDbPlotSettings
  1

  2

  4

  6

 40
0.0
 41
0.0
 42
0.0
 43
0.0
 44
0.0
 45
0.0
 46
0.0
 47
0.0
 48
0.0
 49
0.0
140
0.0
141
0.0
142
1.0
143
1.0
 70
  1712
 72
     0
 73
     0
 74
     0
  7

 75
     0
147
1.0
 76
     0
 77
     2
 78
   300
148
0.0
149
0.0
100
AcDbLayout
  1
Model
 70
     1
 71
     0
 10
0.0
 20
0.0
 11
12.0
 21
9.0
 12
0.0
 22
0.0
 32
0.0
 14
0.0
 24
0.0
 34
0.0
 15
0.0
 25
0.0
 35
0.0
146
0.0
 13
0.0
 23
0.0
 33
0.0
 16
1.0
 26
0.0
 36
0.0
 17
0.0
 27
1.0
 37
0.0
 76
     0
330
71
  0
MATERIAL
  5
19
102
{ACAD_XDICTIONARY
360
1A
102
}
102
{ACAD_REACTORS
330
10
102
}
330
10
100
AcDbMaterial
  1
ByBlock
 72
     0
 43
0.0208333333333333
 43
0.0
 43
0.0
 43
0.0
 43
0.0
 43
0.0208333333333333
 43
0.0
 43
0.0
 43
0.0
 43
0.0
 43
1.0
 43
0.0
 43
0.0
 43
0.0
 43
0.0
 43
1.0
 77
     0
 47
0.0208333333333333
 47
0.0
 47
0.0
 47
0.0
 47
0.0
 47
0.0208333333333333
 47
0.0
 47
0.0
 47
0.0
 47
0.0
 47
1.0
 47
0.0
 47
0.0
 47
0.0
 47
0.0
 47
1.0
171
     0
 49
0.0208333333333333
 49
0.0
 49
0.0
 49
0.0
 49
0.0
 49
0.0208333333333333
 49
0.0
 49
0.0
 49
0.0
 49
0.0
 49
1.0
 49
0.0
 49
0.0
 49
0.0
 49
0.0
 49
1.0
175
     0
142
0.0208333333333333
142
0.0
142
0.0
142
0.0
142
0.0
142
0.0208333333333333
142
0.0
142
0.0
142
0.0
142
0.0
142
1.0
142
0.0
142
0.0
142
0.0
142
0.0
142
1.0
179
     0
144
0.0208333333333333
144
0.0
144
0.0
144
0.0
144
0.0
144
0.0208333333333333
144
0.0
144
0.0
144
0.0
144
0.0
144
1.0
144
0.0
144
0.0
144
0.0
144
0.0
144
1.0
147
0.0208333333333333
147
0.0
147
0.0
147
0.0
147
0.0
147
0.0208333333333333
147
0.0
147
0.0
147
0.0
147
0.0
147
1.0
147
0.0
147
0.0
147
0.0
147
0.0
147
1.0
  0
MATERIAL
  5
11
102
{ACAD_XDICTIONARY
360
12
102
}
102
{ACAD_REACTORS
330
10
102
}
330
10
100
AcDbMaterial
  1
ByLayer
 72
     0
 43
0.0208333333333333
 43
0.0
 43
0.0
 43
0.0
 43
0.0
 43
0.0208333333333333
 43
0.0
 43
0.0
 43
0.0
 43
0.0
 43
1.0
 43
0.0
 43
0.0
 43
0.0
 43
0.0
 43
1.0
 77
     0
 47
0.0208333333333333
 47
0.0
 47
0.0
 47
0.0
 47
0.0
 47
0.0208333333333333
 47
0.0
 47
0.0
 47
0.0
 47
0.0
 47
1.0
 47
0.0
 47
0.0
 47
0.0
 47
0.0
 47
1.0
171
     0
 49
0.0208333333333333
 49
0.0
 49
0.0
 49
0.0
 49
0.0
 49
0.0208333333333333
 49
0.0
 49
0.0
 49
0.0
 49
0.0
 49
1.0
 49
0.0
 49
0.0
 49
0.0
 49
0.0
 49
1.0
175
     0
142
0.0208333333333333
142
0.0
142
0.0
142
0.0
142
0.0
142
0.0208333333333333
142
0.0
142
0.0
142
0.0
142
0.0
142
1.0
142
0.0
142
0.0
142
0.0
142
0.0
142
1.0
179
     0
144
0.0208333333333333
144
0.0
144
0.0
144
0.0
144
0.0
144
0.0208333333333333
144
0.0
144
0.0
144
0.0
144
0.0
144
1.0
144
0.0
144
0.0
144
0.0
144
0.0
144
1.0
147
0.0208333333333333
147
0.0
147
0.0
147
0.0
147
0.0
147
0.0208333333333333
147
0.0
147
0.0
147
0.0
147
0.0
147
1.0
147
0.0
147
0.0
147
0.0
147
0.0
147
1.0
  0
MATERIAL
  5
21
102
{ACAD_XDICTIONARY
360
22
102
}
102
{ACAD_REACTORS
330
10
102
}
330
10
100
AcDbMaterial
  1
Global
 72
     0
 43
0.0208333333333333
 43
0.0
 43
0.0
 43
0.0
 43
0.0
 43
0.0208333333333333
 43
0.0
 43
0.0
 43
0.0
 43
0.0
 43
1.0
 43
0.0
 43
0.0
 43
0.0
 43
0.0
 43
1.0
 77
     0
 47
0.0208333333333333
 47
0.0
 47
0.0
 47
0.0
 47
0.0
 47
0.0208333333333333
 47
0.0
 47
0.0
 47
0.0
 47
0.0
 47
1.0
 47
0.0
 47
0.0
 47
0.0
 47
0.0
 47
1.0
171
     0
 49
0.0208333333333333
 49
0.0
 49
0.0
 49
0.0
 49
0.0
 49
0.0208333333333333
 49
0.0
 49
0.0
 49
0.0
 49
0.0
 49
1.0
 49
0.0
 49
0.0
 49
0.0
 49
0.0
 49
1.0
175
     0
142
0.0208333333333333
142
0.0
142
0.0
142
0.0
142
0.0
142
0.0208333333333333
142
0.0
142
0.0
142
0.0
142
0.0
142
1.0
142
0.0
142
0.0
142
0.0
142
0.0
142
1.0
179
     0
144
0.0208333333333333
144
0.0
144
0.0
144
0.0
144
0.0
144
0.0208333333333333
144
0.0
144
0.0
144
0.0
144
0.0
144
1.0
144
0.0
144
0.0
144
0.0
144
0.0
144
1.0
147
0.0208333333333333
147
0.0
147
0.0
147
0.0
147
0.0
147
0.0208333333333333
147
0.0
147
0.0
147
0.0
147
0.0
147
1.0
147
0.0
147
0.0
147
0.0
147
0.0
147
1.0
  0
MLEADERSTYLE
  5
67
102
{ACAD_REACTORS
330
66
102
}
330
66
100
AcDbMLeaderStyle
179
     2
170
     2
171
     1
172
     0
 90
        2
 40
0.0
 41
0.0
173
     1
 91
-1056964608
340
5B
 92
       -2
290
     1
 42
0.09
291
     1
 43
0.36
  3
Standard
 44
0.18
300

342
55
174
     1
178
     6
175
     1
176
     0
 93
-1056964608
 45
0.18
292
     0
297
     0
 46
0.18
 94
-1056964608
 47
1.0
 49
1.0
140
1.0
293
     1
141
0.0
294
     1
177
     0
142
1.0
295
     1
296
     0
143
0.125
271
     0
272
     9
273
     9
298
     1
  0
MLINESTYLE
  5
60
102
{ACAD_REACTORS
330
5F
102
}
330
5F
100
AcDbMlineStyle
  2
STANDARD
 70
     0
  3

 62
   256
 51
90.0
 52
90.0
 71
     2
 49
0.5
 62
   256
  6
BYLAYER
 49
-0.5
 62
   256
  6
BYLAYER
  0
ACDBPLACEHOLDER
  5
F
102
{ACAD_REACTORS
330
E
102
}
330
E
  0
SCALE
  5
43
102
{ACAD_REACTORS
330
42
102
}
330
42
100
AcDbScale
 70
     0
300
1:1
140
1.0
141
1.0
290
     1
  0
SCALE
  5
44
102
{ACAD_REACTORS
330
42
102
}
330
42
100
AcDbScale
 70
     0
300
1/128" = 1'-0"
140
0.0078125
141
12.0
290
     0
  0
SCALE
  5
45
102
{ACAD_REACTORS
330
42
102
}
330
42
100
AcDbScale
 70
     0
300
1/64" = 1'-0"
140
0.015625
141
12.0
290
     0
  0
SCALE
  5
46
102
{ACAD_REACTORS
330
42
102
}
330
42
100
AcDbScale
 70
     0
300
1/32" = 1'-0"
140
0.03125
141
12.0
290
     0
  0
SCALE
  5
47
102
{ACAD_REACTORS
330
42
102
}
330
42
100
AcDbScale
 70
     0
300
1/16" = 1'-0"
140
0.0625
141
12.0
290
     0
  0
SCALE
  5
48
102
{ACAD_REACTORS
330
42
102
}
330
42
100
AcDbScale
 70
     0
300
3/32" = 1'-0"
140
0.09375
141
12.0
290
     0
  0
SCALE
  5
49
102
{ACAD_REACTORS
330
42
102
}
330
42
100
AcDbScale
 70
     0
300
1/8" = 1'-0"
140
0.125
141
12.0
290
     0
  0
SCALE
  5
4A
102
{ACAD_REACTORS
330
42
102
}
330
42
100
AcDbScale
 70
     0
300
3/16" = 1'-0"
140
0.1875
141
12.0
290
     0
  0
SCALE
  5
4B
102
{ACAD_REACTORS
330
42
102
}
330
42
100
AcDbScale
 70
     0
300
1/4" = 1'-0"
140
0.25
141
12.0
290
     0
  0
SCALE
  5
4C
102
{ACAD_REACTORS
330
42
102
}
330
42
100
AcDbScale
 70
     0
300
3/8" = 1'-0"
140
0.375
141
12.0
290
     0
  0
SCALE
  5
4D
102
{ACAD_REACTORS
330
42
102
}
330
42
100
AcDbScale
 70
     0
300
1/2" = 1'-0"
140
0.5
141
12.0
290
     0
  0
SCALE
  5
4E
102
{ACAD_REACTORS
330
42
102
}
330
42
100
AcDbScale
 70
     0
300
3/4" = 1'-0"
140
0.75
141
12.0
290
     0
  0
SCALE
  5
4F
102
{ACAD_REACTORS
330
42
102
}
330
42
100
AcDbScale
 70
     0
300
1" = 1'-0"
140
1.0
141
12.0
290
     0
  0
SCALE
  5
50
102
{ACAD_REACTORS
330
42
102
}
330
42
100
AcDbScale
 70
     0
300
1-1/2" = 1'-0"
140
1.5
141
12.0
290
     0
  0
SCALE
  5
51
102
{ACAD_REACTORS
330
42
102
}
330
42
100
AcDbScale
 70
     0
300
3" = 1'-0"
140
3.0
141
12.0
290
     0
  0
SCALE
  5
52
102
{ACAD_REACTORS
330
42
102
}
330
42
100
AcDbScale
 70
     0
300
6" = 1'-0"
140
6.0
141
12.0
290
     0
  0
SCALE
  5
53
102
{ACAD_REACTORS
330
42
102
}
330
42
100
AcDbScale
 70
     0
300
1'-0" = 1'-0"
140
12.0
141
12.0
290
     0
  0
ACDBSECTIONVIEWSTYLE
  5
6A
102
{ACAD_REACTORS
330
68
102
}
330
68
100
AcDbModelDocViewStyle
 70
     0
  3
Imperial24
290
     1
100
AcDbSectionViewStyle
 70
     0
 71
     0
 90
       78
 71
     1
340
55
 62
   256
 40
0.24
340
0
340
0
 62
   256
 40
0.24
300
I, O, Q, S, X, Z
 40
0.48
 90
        3
 40
0.18
 90
        1
 71
     2
340
69
 90
       25
 62
   256
340
5D
 90
       50
 62
   256
 40
0.24
 40
0.0
 40
0.24
 71
     3
340
55
 62
   256
 40
0.24
 90
        1
 40
0.75
 90
        1
300
%<\AcVar ViewType \f "%tc1">% %<\AcVar ViewSectionStartId>%-%<\AcVar ViewSectionEndId>%\PSCALA %<\AcVar ViewScale \f "%sn">%
 71
     4
 62
   256
 62
   257
300
ANSI31
 40
1.0
 90
        0
290
     0
290
     0
 90
        6
 40
0.0
 40
1.570796326794896
 40
0.2617993877991494
 40
1.308996938995747
 40
-0.2617993877991494
 40
1.832595714594046
  0
TABLESTYLE
  5
65
102
{ACAD_XDICTIONARY
360
207
102
}
102
{ACAD_REACTORS
330
64
102
}
330
64
100
AcDbTableStyle
280
     0
  3
Standard
 70
     0
 71
     0
 40
0.06
 41
0.06
280
     0
281
     0
  7
Standard
140
0.18
170
     2
 62
     0
 63
     7
283
     0
 90
      512
 91
        0
  1

274
    -2
284
     1
 64
     0
275
    -2
285
     1
 65
     0
276
    -2
286
     1
 66
     0
277
    -2
287
     1
 67
     0
278
    -2
288
     1
 68
     0
279
    -2
289
     1
 69
     0
  7
Standard
140
0.25
170
     5
 62
     0
 63
     7
283
     0
 90
      512
 91
        0
  1

274
    -2
284
     1
 64
     0
275
    -2
285
     1
 65
     0
276
    -2
286
     1
 66
     0
277
    -2
287
     1
 67
     0
278
    -2
288
     1
 68
     0
279
    -2
289
     1
 69
     0
  7
Standard
140
0.18
170
     5
 62
     0
 63
     7
283
     0
 90
      512
 91
        0
  1

274
    -2
284
     1
 64
     0
275
    -2
285
     1
 65
     0
276
    -2
286
     1
 66
     0
277
    -2
287
     1
 67
     0
278
    -2
288
     1
 68
     0
279
    -2
289
     1
 69
     0
  0
VISUALSTYLE
  5
2F
102
{ACAD_REACTORS
330
29
102
}
330
29
100
AcDbVisualStyle
  2
2dWireframe
 70
     4
177
     3
291
     0
 70
    58
 90
        0
176
     1
 90
        2
176
     1
 90
        0
176
     1
 90
        0
176
     1
 40
0.6
176
     1
 40
30.0
176
     1
 62
     7
420
 16777215
176
     1
 90
        1
176
     1
 90
        4
176
     1
 62
     7
176
     1
 62
   257
176
     1
 90
        1
176
     1
 90
        1
176
     1
 40
1.0
176
     1
 90
        0
176
     1
 62
   257
176
     1
 40
1.0
176
     1
 90
        1
176
     1
 90
        6
176
     1
 90
        2
176
     1
 62
     7
176
     1
 90
        5
176
     1
 90
        0
176
     1
 90
        0
176
     1
290
     0
176
     1
 90
        1
176
     1
 40
0.0
176
     1
 90
        0
176
     1
290
     1
176
     1
290
     1
176
     1
290
     0
176
     1
290
     0
176
     1
290
     0
176
     1
290
     0
176
     1
290
     0
176
     1
290
     0
176
     1
290
     0
176
     1
 90
       50
176
     1
 40
0.0
176
     1
 40
1.0
176
     1
 90
        0
176
     1
 62
    18
420
        0
176
     1
 90
       50
176
     1
 90
        3
176
     1
 62
     5
420
      255
176
     1
290
     0
176
     1
 90
       50
176
     1
 90
       50
176
     1
 90
       50
176
     1
290
     0
176
     1
 90
       50
176
     1
 62
   256
176
     0
 40
1.0
176
     0
 90
        2
176
     1
  1
strokes_ogs.tif
176
     1
290
     0
176
     1
 40
1.0
176
     1
 40
1.0
176
     1
  0
VISUALSTYLE
  5
2E
102
{ACAD_REACTORS
330
29
102
}
330
29
100
AcDbVisualStyle
  2
Basic
 70
     7
177
     3
291
     1
 70
    58
 90
        1
176
     1
 90
        0
176
     1
 90
        1
176
     1
 90
        0
176
     1
 40
0.6
176
     1
 40
30.0
176
     1
 62
     7
420
 16777215
176
     1
 90
        0
176
     1
 90
        4
176
     1
 62
     7
176
     1
 62
   257
176
     1
 90
        1
176
     1
 90
        1
176
     1
 40
1.0
176
     1
 90
        8
176
     1
 62
     7
176
     1
 40
1.0
176
     1
 90
        1
176
     1
 90
        6
176
     1
 90
        2
176
     1
 62
     7
176
     1
 90
        5
176
     1
 90
        0
176
     1
 90
        0
176
     1
290
     0
176
     1
 90
        1
176
     1
 40
0.0
176
     1
 90
        0
176
     1
290
     0
176
     1
290
     1
176
     1
290
     1
176
     1
290
     0
176
     1
290
     0
176
     1
290
     0
176
     1
290
     0
176
     1
290
     0
176
     1
290
     0
176
     1
 90
       50
176
     1
 40
0.0
176
     1
 40
1.0
176
     1
 90
        0
176
     1
 62
    18
420
        0
176
     1
 90
       50
176
     1
 90
        3
176
     1
 62
     5
420
      255
176
     1
290
     0
176
     1
 90
       50
176
     1
 90
       50
176
     1
 90
       50
176
     1
290
     0
176
     1
 90
       50
176
     1
 62
   256
176
     0
 40
1.0
176
     0
 90
        2
176
     1
  1
strokes_ogs.tif
176
     1
290
     0
176
     1
 40
1.0
176
     1
 40
1.0
176
     1
  0
VISUALSTYLE
  5
35
102
{ACAD_REACTORS
330
29
102
}
330
29
100
AcDbVisualStyle
  2
Brighten
 70
    12
177
     3
291
     1
 70
    58
 90
        2
176
     1
 90
        2
176
     1
 90
        0
176
     1
 90
        0
176
     1
 40
0.6
176
     1
 40
30.0
176
     1
 62
     7
420
 16777215
176
     1
 90
        1
176
     1
 90
        4
176
     1
 62
     7
176
     1
 62
   257
176
     1
 90
        1
176
     1
 90
        1
176
     1
 40
1.0
176
     1
 90
        8
176
     1
 62
     7
176
     1
 40
1.0
176
     1
 90
        1
176
     1
 90
        6
176
     1
 90
        2
176
     1
 62
     7
176
     1
 90
        5
176
     1
 90
        0
176
     1
 90
        0
176
     1
290
     0
176
     1
 90
        1
176
     1
 40
50.0
176
     1
 90
        0
176
     1
290
     0
176
     1
290
     1
176
     1
290
     1
176
     1
290
     0
176
     1
290
     0
176
     1
290
     0
176
     1
290
     0
176
     1
290
     0
176
     1
290
     0
176
     1
 90
       50
176
     1
 40
0.0
176
     1
 40
1.0
176
     1
 90
        0
176
     1
 62
    18
420
        0
176
     1
 90
       50
176
     1
 90
        3
176
     1
 62
     5
420
      255
176
     1
290
     0
176
     1
 90
       50
176
     1
 90
       50
176
     1
 90
       50
176
     1
290
     0
176
     1
 90
       50
176
     1
 62
   256
176
     0
 40
1.0
176
     0
 90
        2
176
     1
  1
strokes_ogs.tif
176
     1
290
     0
176
     1
 40
1.0
176
     1
 40
1.0
176
     1
  0
VISUALSTYLE
  5
39
102
{ACAD_REACTORS
330
29
102
}
330
29
100
AcDbVisualStyle
  2
ColorChange
 70
    16
177
     3
291
     1
 70
    58
 90
        2
176
     1
 90
        2
176
     1
 90
        3
176
     1
 90
        0
176
     1
 40
0.6
176
     1
 40
30.0
176
     1
 62
     8
420
  8421504
176
     1
 90
        1
176
     1
 90
        4
176
     1
 62
     7
176
     1
 62
   257
176
     1
 90
        1
176
     1
 90
        1
176
     1
 40
1.0
176
     1
 90
        8
176
     1
 62
     8
420
  8421504
176
     1
 40
1.0
176
     1
 90
        1
176
     1
 90
        6
176
     1
 90
        2
176
     1
 62
     7
176
     1
 90
        5
176
     1
 90
        0
176
     1
 90
        0
176
     1
290
     0
176
     1
 90
        1
176
     1
 40
0.0
176
     1
 90
        0
176
     1
290
     0
176
     1
290
     1
176
     1
290
     1
176
     1
290
     0
176
     1
290
     0
176
     1
290
     0
176
     1
290
     0
176
     1
290
     0
176
     1
290
     0
176
     1
 90
       50
176
     1
 40
0.0
176
     1
 40
1.0
176
     1
 90
        0
176
     1
 62
    18
420
        0
176
     1
 90
       50
176
     1
 90
        3
176
     1
 62
     5
420
      255
176
     1
290
     0
176
     1
 90
       50
176
     1
 90
       50
176
     1
 90
       50
176
     1
290
     0
176
     1
 90
       50
176
     1
 62
   256
176
     0
 40
1.0
176
     0
 90
        2
176
     1
  1
strokes_ogs.tif
176
     1
290
     0
176
     1
 40
1.0
176
     1
 40
1.0
176
     1
  0
VISUALSTYLE
  5
32
102
{ACAD_REACTORS
330
29
102
}
330
29
100
AcDbVisualStyle
  2
Conceptual
 70
     9
177
     3
291
     0
 70
    58
 90
        3
176
     1
 90
        2
176
     1
 90
        0
176
     1
 90
        0
176
     1
 40
0.6
176
     1
 40
30.0
176
     1
 62
     7
420
 16777215
176
     1
 90
        2
176
     1
 90
        2
176
     1
 62
     7
176
     1
 62
   257
176
     1
 90
        1
176
     1
 90
        1
176
     1
 40
179.0
176
     1
 90
        8
176
     1
 62
     7
176
     1
 40
1.0
176
     1
 90
        1
176
     1
 90
        6
176
     1
 90
        2
176
     1
 62
     7
176
     1
 90
        3
176
     1
 90
        0
176
     1
 90
        0
176
     1
290
     0
176
     1
 90
        1
176
     1
 40
0.0
176
     1
 90
        0
176
     1
290
     0
176
     1
290
     1
176
     1
290
     1
176
     1
290
     0
176
     1
290
     0
176
     1
290
     0
176
     1
290
     0
176
     1
290
     0
176
     1
290
     0
176
     1
 90
       50
176
     1
 40
0.0
176
     1
 40
1.0
176
     1
 90
        0
176
     1
 62
    18
420
        0
176
     1
 90
       50
176
     1
 90
        3
176
     1
 62
     5
420
      255
176
     1
290
     0
176
     1
 90
       50
176
     1
 90
       50
176
     1
 90
       50
176
     1
290
     0
176
     1
 90
       50
176
     1
 62
   256
176
     0
 40
1.0
176
     0
 90
        2
176
     1
  1
strokes_ogs.tif
176
     1
290
     0
176
     1
 40
1.0
176
     1
 40
1.0
176
     1
  0
VISUALSTYLE
  5
34
102
{ACAD_REACTORS
330
29
102
}
330
29
100
AcDbVisualStyle
  2
Dim
 70
    11
177
     3
291
     1
 70
    58
 90
        2
176
     1
 90
        2
176
     1
 90
        0
176
     1
 90
        0
176
     1
 40
0.6
176
     1
 40
30.0
176
     1
 62
     7
420
 16777215
176
     1
 90
        1
176
     1
 90
        4
176
     1
 62
     7
176
     1
 62
   257
176
     1
 90
        1
176
     1
 90
        1
176
     1
 40
1.0
176
     1
 90
        8
176
     1
 62
     7
176
     1
 40
1.0
176
     1
 90
        1
176
     1
 90
        6
176
     1
 90
        2
176
     1
 62
     7
176
     1
 90
        5
176
     1
 90
        0
176
     1
 90
        0
176
     1
290
     0
176
     1
 90
        1
176
     1
 40
-50.0
176
     1
 90
        0
176
     1
290
     0
176
     1
290
     1
176
     1
290
     1
176
     1
290
     0
176
     1
290
     0
176
     1
290
     0
176
     1
290
     0
176
     1
290
     0
176
     1
290
     0
176
     1
 90
       50
176
     1
 40
0.0
176
     1
 40
1.0
176
     1
 90
        0
176
     1
 62
    18
420
        0
176
     1
 90
       50
176
     1
 90
        3
176
     1
 62
     5
420
      255
176
     1
290
     0
176
     1
 90
       50
176
     1
 90
       50
176
     1
 90
       50
176
     1
290
     0
176
     1
 90
       50
176
     1
 62
   256
176
     0
 40
1.0
176
     0
 90
        2
176
     1
  1
strokes_ogs.tif
176
     1
290
     0
176
     1
 40
1.0
176
     1
 40
1.0
176
     1
  0
VISUALSTYLE
  5
41
102
{ACAD_REACTORS
330
29
102
}
330
29
100
AcDbVisualStyle
  2
EdgeColorOff
 70
    22
177
     3
291
     1
 70
    58
 90
        2
176
     0
 90
        2
176
     0
 90
        0
176
     0
 90
        0
176
     0
 40
0.6
176
     0
 40
30.0
176
     0
 62
     7
420
 16777215
176
     0
 90
        1
176
     0
 90
        4
176
     0
 62
     7
176
     0
 62
   257
176
     0
 90
        1
176
     0
 90
        1
176
     0
 40
1.0
176
     0
 90
        8
176
     2
 62
     7
176
     0
 40
1.0
176
     0
 90
        1
176
     0
 90
        6
176
     0
 90
        2
176
     0
 62
     7
176
     0
 90
        5
176
     0
 90
        0
176
     0
 90
        0
176
     0
290
     0
176
     0
 90
        1
176
     0
 40
0.0
176
     0
 90
        0
176
     0
290
     0
176
     0
290
     1
176
     0
290
     1
176
     0
290
     0
176
     0
290
     0
176
     0
290
     0
176
     0
290
     0
176
     0
290
     0
176
     0
290
     0
176
     0
 90
       50
176
     0
 40
0.0
176
     0
 40
1.0
176
     0
 90
        0
176
     0
 62
    18
420
        0
176
     0
 90
       50
176
     0
 90
        3
176
     0
 62
     5
420
      255
176
     0
290
     0
176
     0
 90
       50
176
     0
 90
       50
176
     0
 90
       50
176
     0
290
     0
176
     0
 90
       50
176
     0
 62
   256
176
     0
 40
1.0
176
     0
 90
        2
176
     0
  1
strokes_ogs.tif
176
     0
290
     0
176
     0
 40
1.0
176
     0
 40
1.0
176
     0
  0
VISUALSTYLE
  5
38
102
{ACAD_REACTORS
330
29
102
}
330
29
100
AcDbVisualStyle
  2
Facepattern
 70
    15
177
     3
291
     1
 70
    58
 90
        2
176
     1
 90
        2
176
     1
 90
        0
176
     1
 90
        0
176
     1
 40
0.6
176
     1
 40
30.0
176
     1
 62
     7
420
 16777215
176
     1
 90
        1
176
     1
 90
        4
176
     1
 62
     7
176
     1
 62
   257
176
     1
 90
        1
176
     1
 90
        1
176
     1
 40
1.0
176
     1
 90
        8
176
     1
 62
     7
176
     1
 40
1.0
176
     1
 90
        1
176
     1
 90
        6
176
     1
 90
        2
176
     1
 62
     7
176
     1
 90
        5
176
     1
 90
        0
176
     1
 90
        0
176
     1
290
     0
176
     1
 90
        1
176
     1
 40
0.0
176
     1
 90
        0
176
     1
290
     0
176
     1
290
     1
176
     1
290
     1
176
     1
290
     0
176
     1
290
     0
176
     1
290
     0
176
     1
290
     0
176
     1
290
     0
176
     1
290
     0
176
     1
 90
       50
176
     1
 40
0.0
176
     1
 40
1.0
176
     1
 90
        0
176
     1
 62
    18
420
        0
176
     1
 90
       50
176
     1
 90
        3
176
     1
 62
     5
420
      255
176
     1
290
     0
176
     1
 90
       50
176
     1
 90
       50
176
     1
 90
       50
176
     1
290
     0
176
     1
 90
       50
176
     1
 62
   256
176
     0
 40
1.0
176
     0
 90
        2
176
     1
  1
strokes_ogs.tif
176
     1
290
     0
176
     1
 40
1.0
176
     1
 40
1.0
176
     1
  0
VISUALSTYLE
  5
2A
102
{ACAD_REACTORS
330
29
102
}
330
29
100
AcDbVisualStyle
  2
Flat
 70
     0
177
     3
291
     1
 70
    58
 90
        2
176
     1
 90
        1
176
     1
 90
        1
176
     1
 90
        2
176
     1
 40
0.6
176
     1
 40
30.0
176
     1
 62
     7
420
 16777215
176
     1
 90
        0
176
     1
 90
        0
176
     1
 62
     7
176
     1
 62
   257
176
     1
 90
        1
176
     1
 90
        1
176
     1
 40
1.0
176
     1
 90
        8
176
     1
 62
     7
176
     1
 40
1.0
176
     1
 90
        1
176
     1
 90
        6
176
     1
 90
        2
176
     1
 62
     7
176
     1
 90
        5
176
     1
 90
        0
176
     1
 90
        0
176
     1
290
     0
176
     1
 90
       13
176
     1
 40
0.0
176
     1
 90
        0
176
     1
290
     0
176
     1
290
     1
176
     1
290
     1
176
     1
290
     0
176
     1
290
     0
176
     1
290
     0
176
     1
290
     0
176
     1
290
     0
176
     1
290
     0
176
     1
 90
       50
176
     1
 40
0.0
176
     1
 40
1.0
176
     1
 90
        0
176
     1
 62
    18
420
        0
176
     1
 90
       50
176
     1
 90
        3
176
     1
 62
     5
420
      255
176
     1
290
     0
176
     1
 90
       50
176
     1
 90
       50
176
     1
 90
       50
176
     1
290
     0
176
     1
 90
       50
176
     1
 62
   256
176
     0
 40
1.0
176
     0
 90
        2
176
     1
  1
strokes_ogs.tif
176
     1
290
     0
176
     1
 40
1.0
176
     1
 40
1.0
176
     1
  0
VISUALSTYLE
  5
2B
102
{ACAD_REACTORS
330
29
102
}
330
29
100
AcDbVisualStyle
  2
FlatWithEdges
 70
     1
177
     3
291
     1
 70
    58
 90
        2
176
     1
 90
        1
176
     1
 90
        1
176
     1
 90
        2
176
     1
 40
0.6
176
     1
 40
30.0
176
     1
 62
     7
420
 16777215
176
     1
 90
        1
176
     1
 90
        0
176
     1
 62
     7
176
     1
 62
   257
176
     1
 90
        1
176
     1
 90
        1
176
     1
 40
1.0
176
     1
 90
        0
176
     1
 62
   257
176
     1
 40
1.0
176
     1
 90
        1
176
     1
 90
        6
176
     1
 90
        2
176
     1
 62
     7
176
     1
 90
        5
176
     1
 90
        0
176
     1
 90
        0
176
     1
290
     0
176
     1
 90
       13
176
     1
 40
0.0
176
     1
 90
        0
176
     1
290
     0
176
     1
290
     1
176
     1
290
     1
176
     1
290
     0
176
     1
290
     0
176
     1
290
     0
176
     1
290
     0
176
     1
290
     0
176
     1
290
     0
176
     1
 90
       50
176
     1
 40
0.0
176
     1
 40
1.0
176
     1
 90
        0
176
     1
 62
    18
420
        0
176
     1
 90
       50
176
     1
 90
        3
176
     1
 62
     5
420
      255
176
     1
290
     0
176
     1
 90
       50
176
     1
 90
       50
176
     1
 90
       50
176
     1
290
     0
176
     1
 90
       50
176
     1
 62
   256
176
     0
 40
1.0
176
     0
 90
        2
176
     1
  1
strokes_ogs.tif
176
     1
290
     0
176
     1
 40
1.0
176
     1
 40
1.0
176
     1
  0
VISUALSTYLE
  5
2C
102
{ACAD_REACTORS
330
29
102
}
330
29
100
AcDbVisualStyle
  2
Gouraud
 70
     2
177
     3
291
     1
 70
    58
 90
        2
176
     1
 90
        2
176
     1
 90
        1
176
     1
 90
        2
176
     1
 40
0.6
176
     1
 40
30.0
176
     1
 62
     7
420
 16777215
176
     1
 90
        0
176
     1
 90
        0
176
     1
 62
     7
176
     1
 62
   257
176
     1
 90
        1
176
     1
 90
        1
176
     1
 40
1.0
176
     1
 90
        0
176
     1
 62
     7
176
     1
 40
1.0
176
     1
 90
        1
176
     1
 90
        6
176
     1
 90
        2
176
     1
 62
     7
176
     1
 90
        5
176
     1
 90
        0
176
     1
 90
        0
176
     1
290
     0
176
     1
 90
       13
176
     1
 40
0.0
176
     1
 90
        0
176
     1
290
     0
176
     1
290
     1
176
     1
290
     1
176
     1
290
     0
176
     1
290
     0
176
     1
290
     0
176
     1
290
     0
176
     1
290
     0
176
     1
290
     0
176
     1
 90
       50
176
     1
 40
0.0
176
     1
 40
1.0
176
     1
 90
        0
176
     1
 62
    18
420
        0
176
     1
 90
       50
176
     1
 90
        3
176
     1
 62
     5
420
      255
176
     1
290
     0
176
     1
 90
       50
176
     1
 90
       50
176
     1
 90
       50
176
     1
290
     0
176
     1
 90
       50
176
     1
 62
   256
176
     0
 40
1.0
176
     0
 90
        2
176
     1
  1
strokes_ogs.tif
176
     1
290
     0
176
     1
 40
1.0
176
     1
 40
1.0
176
     1
  0
VISUALSTYLE
  5
2D
102
{ACAD_REACTORS
330
29
102
}
330
29
100
AcDbVisualStyle
  2
GouraudWithEdges
 70
     3
177
     3
291
     1
 70
    58
 90
        2
176
     1
 90
        2
176
     1
 90
        1
176
     1
 90
        2
176
     1
 40
0.6
176
     1
 40
30.0
176
     1
 62
     7
420
 16777215
176
     1
 90
        1
176
     1
 90
        0
176
     1
 62
     7
176
     1
 62
   257
176
     1
 90
        1
176
     1
 90
        1
176
     1
 40
1.0
176
     1
 90
        0
176
     1
 62
   257
176
     1
 40
1.0
176
     1
 90
        1
176
     1
 90
        6
176
     1
 90
        2
176
     1
 62
     7
176
     1
 90
        5
176
     1
 90
        0
176
     1
 90
        0
176
     1
290
     0
176
     1
 90
       13
176
     1
 40
0.0
176
     1
 90
        0
176
     1
290
     0
176
     1
290
     1
176
     1
290
     1
176
     1
290
     0
176
     1
290
     0
176
     1
290
     0
176
     1
290
     0
176
     1
290
     0
176
     1
290
     0
176
     1
 90
       50
176
     1
 40
0.0
176
     1
 40
1.0
176
     1
 90
        0
176
     1
 62
    18
420
        0
176
     1
 90
       50
176
     1
 90
        3
176
     1
 62
     5
420
      255
176
     1
290
     0
176
     1
 90
       50
176
     1
 90
       50
176
     1
 90
       50
176
     1
290
     0
176
     1
 90
       50
176
     1
 62
   256
176
     0
 40
1.0
176
     0
 90
        2
176
     1
  1
strokes_ogs.tif
176
     1
290
     0
176
     1
 40
1.0
176
     1
 40
1.0
176
     1
  0
VISUALSTYLE
  5
31
102
{ACAD_REACTORS
330
29
102
}
330
29
100
AcDbVisualStyle
  2
Hidden
 70
     6
177
     3
291
     0
 70
    58
 90
        1
176
     1
 90
        2
176
     1
 90
        2
176
     1
 90
        0
176
     1
 40
0.6
176
     1
 40
30.0
176
     1
 62
     7
420
 16777215
176
     1
 90
        2
176
     1
 90
        2
176
     1
 62
     7
176
     1
 62
   257
176
     1
 90
        2
176
     1
 90
        1
176
     1
 40
40.0
176
     1
 90
        0
176
     1
 62
   257
176
     1
 40
1.0
176
     1
 90
        1
176
     1
 90
        6
176
     1
 90
        2
176
     1
 62
     7
176
     1
 90
        3
176
     1
 90
        0
176
     1
 90
        0
176
     1
290
     0
176
     1
 90
        1
176
     1
 40
0.0
176
     1
 90
        0
176
     1
290
     0
176
     1
290
     1
176
     1
290
     1
176
     1
290
     0
176
     1
290
     0
176
     1
290
     0
176
     1
290
     0
176
     1
290
     0
176
     1
290
     0
176
     1
 90
       50
176
     1
 40
0.0
176
     1
 40
1.0
176
     1
 90
        0
176
     1
 62
    18
420
        0
176
     1
 90
       50
176
     1
 90
        3
176
     1
 62
     5
420
      255
176
     1
290
     0
176
     1
 90
       50
176
     1
 90
       50
176
     1
 90
       50
176
     1
290
     0
176
     1
 90
       50
176
     1
 62
   256
176
     0
 40
1.0
176
     0
 90
        2
176
     1
  1
strokes_ogs.tif
176
     1
290
     0
176
     1
 40
1.0
176
     1
 40
1.0
176
     1
  0
VISUALSTYLE
  5
3F
102
{ACAD_REACTORS
330
29
102
}
330
29
100
AcDbVisualStyle
  2
JitterOff
 70
    20
177
     3
291
     1
 70
    58
 90
        2
176
     0
 90
        2
176
     0
 90
        0
176
     0
 90
        0
176
     0
 40
0.6
176
     0
 40
30.0
176
     0
 62
     7
420
 16777215
176
     0
 90
        1
176
     0
 90
        4
176
     0
 62
     7
176
     0
 62
   257
176
     0
 90
        1
176
     0
 90
        1
176
     0
 40
1.0
176
     0
 90
       10
176
     2
 62
     7
176
     0
 40
1.0
176
     0
 90
        1
176
     0
 90
        6
176
     0
 90
        2
176
     0
 62
     7
176
     0
 90
        5
176
     0
 90
        0
176
     0
 90
        0
176
     0
290
     0
176
     0
 90
        1
176
     0
 40
0.0
176
     0
 90
        0
176
     0
290
     0
176
     0
290
     1
176
     0
290
     1
176
     0
290
     0
176
     0
290
     0
176
     0
290
     0
176
     0
290
     0
176
     0
290
     0
176
     0
290
     0
176
     0
 90
       50
176
     0
 40
0.0
176
     0
 40
1.0
176
     0
 90
        0
176
     0
 62
    18
420
        0
176
     0
 90
       50
176
     0
 90
        3
176
     0
 62
     5
420
      255
176
     0
290
     0
176
     0
 90
       50
176
     0
 90
       50
176
     0
 90
       50
176
     0
290
     0
176
     0
 90
       50
176
     0
 62
   256
176
     0
 40
1.0
176
     0
 90
        2
176
     0
  1
strokes_ogs.tif
176
     0
290
     0
176
     0
 40
1.0
176
     0
 40
1.0
176
     0
  0
VISUALSTYLE
  5
37
102
{ACAD_REACTORS
330
29
102
}
330
29
100
AcDbVisualStyle
  2
Linepattern
 70
    14
177
     3
291
     1
 70
    58
 90
        2
176
     1
 90
        2
176
     1
 90
        0
176
     1
 90
        0
176
     1
 40
0.6
176
     1
 40
30.0
176
     1
 62
     7
420
 16777215
176
     1
 90
        1
176
     1
 90
        4
176
     1
 62
     7
176
     1
 62
   257
176
     1
 90
        7
176
     1
 90
        7
176
     1
 40
1.0
176
     1
 90
        8
176
     1
 62
     7
176
     1
 40
1.0
176
     1
 90
        1
176
     1
 90
        6
176
     1
 90
        2
176
     1
 62
     7
176
     1
 90
        5
176
     1
 90
        0
176
     1
 90
        0
176
     1
290
     0
176
     1
 90
        1
176
     1
 40
0.0
176
     1
 90
        0
176
     1
290
     0
176
     1
290
     1
176
     1
290
     1
176
     1
290
     0
176
     1
290
     0
176
     1
290
     0
176
     1
290
     0
176
     1
290
     0
176
     1
290
     0
176
     1
 90
       50
176
     1
 40
0.0
176
     1
 40
1.0
176
     1
 90
        0
176
     1
 62
    18
420
        0
176
     1
 90
       50
176
     1
 90
        3
176
     1
 62
     5
420
      255
176
     1
290
     0
176
     1
 90
       50
176
     1
 90
       50
176
     1
 90
       50
176
     1
290
     0
176
     1
 90
       50
176
     1
 62
   256
176
     0
 40
1.0
176
     0
 90
        2
176
     1
  1
strokes_ogs.tif
176
     1
290
     0
176
     1
 40
1.0
176
     1
 40
1.0
176
     1
  0
VISUALSTYLE
  5
40
102
{ACAD_REACTORS
330
29
102
}
330
29
100
AcDbVisualStyle
  2
OverhangOff
 70
    21
177
     3
291
     1
 70
    58
 90
        2
176
     0
 90
        2
176
     0
 90
        0
176
     0
 90
        0
176
     0
 40
0.6
176
     0
 40
30.0
176
     0
 62
     7
420
 16777215
176
     0
 90
        1
176
     0
 90
        4
176
     0
 62
     7
176
     0
 62
   257
176
     0
 90
        1
176
     0
 90
        1
176
     0
 40
1.0
176
     0
 90
        9
176
     2
 62
     7
176
     0
 40
1.0
176
     0
 90
        1
176
     0
 90
        6
176
     0
 90
        2
176
     0
 62
     7
176
     0
 90
        5
176
     0
 90
        0
176
     0
 90
        0
176
     0
290
     0
176
     0
 90
        1
176
     0
 40
0.0
176
     0
 90
        0
176
     0
290
     0
176
     0
290
     1
176
     0
290
     1
176
     0
290
     0
176
     0
290
     0
176
     0
290
     0
176
     0
290
     0
176
     0
290
     0
176
     0
290
     0
176
     0
 90
       50
176
     0
 40
0.0
176
     0
 40
1.0
176
     0
 90
        0
176
     0
 62
    18
420
        0
176
     0
 90
       50
176
     0
 90
        3
176
     0
 62
     5
420
      255
176
     0
290
     0
176
     0
 90
       50
176
     0
 90
       50
176
     0
 90
       50
176
     0
290
     0
176
     0
 90
       50
176
     0
 62
   256
176
     0
 40
1.0
176
     0
 90
        2
176
     0
  1
strokes_ogs.tif
176
     0
290
     0
176
     0
 40
1.0
176
     0
 40
1.0
176
     0
  0
VISUALSTYLE
  5
33
102
{ACAD_REACTORS
330
29
102
}
330
29
100
AcDbVisualStyle
  2
Realistic
 70
     8
177
     3
291
     0
 70
    58
 90
        2
176
     1
 90
        3
176
     1
 90
        0
176
     1
 90
        2
176
     1
 40
0.6
176
     1
 40
30.0
176
     1
 62
     7
420
 16777215
176
     1
 90
        0
176
     1
 90
        0
176
     1
 62
     7
176
     1
 62
   257
176
     1
 90
        1
176
     1
 90
        1
176
     1
 40
1.0
176
     1
 90
        8
176
     1
 62
   257
176
     1
 40
1.0
176
     1
 90
        1
176
     1
 90
        6
176
     1
 90
        2
176
     1
 62
     7
176
     1
 90
        3
176
     1
 90
        0
176
     1
 90
        0
176
     1
290
     0
176
     1
 90
       13
176
     1
 40
0.0
176
     1
 90
        0
176
     1
290
     0
176
     1
290
     1
176
     1
290
     1
176
     1
290
     0
176
     1
290
     0
176
     1
290
     0
176
     1
290
     0
176
     1
290
     0
176
     1
290
     0
176
     1
 90
       50
176
     1
 40
0.0
176
     1
 40
1.0
176
     1
 90
        0
176
     1
 62
    18
420
        0
176
     1
 90
       50
176
     1
 90
        3
176
     1
 62
     5
420
      255
176
     1
290
     0
176
     1
 90
       50
176
     1
 90
       50
176
     1
 90
       50
176
     1
290
     0
176
     1
 90
       50
176
     1
 62
   256
176
     0
 40
1.0
176
     0
 90
        2
176
     1
  1
strokes_ogs.tif
176
     1
290
     0
176
     1
 40
1.0
176
     1
 40
1.0
176
     1
  0
VISUALSTYLE
  5
3E
102
{ACAD_REACTORS
330
29
102
}
330
29
100
AcDbVisualStyle
  2
Shaded
 70
    27
177
     3
291
     0
 70
    58
 90
        2
176
     1
 90
        2
176
     1
 90
        1
176
     1
 90
        2
176
     1
 40
0.6
176
     1
 40
30.0
176
     1
 62
     7
420
 16777215
176
     1
 90
        0
176
     1
 90
        4
176
     1
 62
     7
176
     1
 62
   257
176
     1
 90
        1
176
     1
 90
        1
176
     1
 40
1.0
176
     1
 90
        8
176
     1
 62
   257
176
     1
 40
1.0
176
     1
 90
        1
176
     1
 90
        6
176
     1
 90
        2
176
     1
 62
     8
420
  7895160
176
     1
 90
        3
176
     1
 90
        0
176
     1
 90
        0
176
     1
290
     0
176
     1
 90
        5
176
     1
 40
0.0
176
     1
 90
        0
176
     1
290
     0
176
     1
290
     1
176
     1
290
     1
176
     1
290
     0
176
     1
290
     0
176
     1
290
     0
176
     1
290
     0
176
     1
290
     0
176
     1
290
     0
176
     1
 90
       50
176
     1
 40
0.0
176
     1
 40
1.0
176
     1
 90
        0
176
     1
 62
    18
420
        0
176
     1
 90
       50
176
     1
 90
        3
176
     1
 62
     5
420
      255
176
     1
290
     0
176
     1
 90
       50
176
     1
 90
       50
176
     1
 90
       50
176
     1
290
     0
176
     1
 90
       50
176
     1
 62
   256
176
     0
 40
1.0
176
     0
 90
        2
176
     1
  1
strokes_ogs.tif
176
     1
290
     0
176
     1
 40
1.0
176
     1
 40
1.0
176
     1
  0
VISUALSTYLE
  5
3D
102
{ACAD_REACTORS
330
29
102
}
330
29
100
AcDbVisualStyle
  2
Shaded with edges
 70
    26
177
     3
291
     0
 70
    58
 90
        2
176
     1
 90
        2
176
     1
 90
        1
176
     1
 90
        2
176
     1
 40
0.6
176
     1
 40
30.0
176
     1
 62
     7
420
 16777215
176
     1
 90
        1
176
     1
 90
       10
176
     1
 62
     7
176
     1
 62
   257
176
     1
 90
        2
176
     1
 90
        1
176
     1
 40
1.0
176
     1
 90
        8
176
     1
 62
   257
176
     1
 40
1.0
176
     1
 90
        1
176
     1
 90
        6
176
     1
 90
        2
176
     1
 62
     7
176
     1
 90
        3
176
     1
 90
        0
176
     1
 90
        0
176
     1
290
     0
176
     1
 90
        5
176
     1
 40
0.0
176
     1
 90
        0
176
     1
290
     0
176
     1
290
     1
176
     1
290
     1
176
     1
290
     0
176
     1
290
     0
176
     1
290
     0
176
     1
290
     0
176
     1
290
     0
176
     1
290
     0
176
     1
 90
       50
176
     1
 40
0.0
176
     1
 40
1.0
176
     1
 90
        0
176
     1
 62
    18
420
        0
176
     1
 90
       50
176
     1
 90
        3
176
     1
 62
     5
420
      255
176
     1
290
     0
176
     1
 90
       50
176
     1
 90
       50
176
     1
 90
       50
176
     1
290
     0
176
     1
 90
       50
176
     1
 62
   256
176
     0
 40
1.0
176
     0
 90
        2
176
     1
  1
strokes_ogs.tif
176
     1
290
     0
176
     1
 40
1.0
176
     1
 40
1.0
176
     1
  0
VISUALSTYLE
  5
3A
102
{ACAD_REACTORS
330
29
102
}
330
29
100
AcDbVisualStyle
  2
Shades of Gray
 70
    23
177
     3
291
     0
 70
    58
 90
        2
176
     1
 90
        2
176
     1
 90
        3
176
     1
 90
        0
176
     1
 40
0.6
176
     1
 40
30.0
176
     1
 62
     7
420
 16777215
176
     1
 90
        2
176
     1
 90
        2
176
     1
 62
     7
176
     1
 62
     7
176
     1
 90
        1
176
     1
 90
        1
176
     1
 40
40.0
176
     1
 90
        8
176
     1
 62
     7
176
     1
 40
1.0
176
     1
 90
        1
176
     1
 90
        6
176
     1
 90
        2
176
     1
 62
     7
176
     1
 90
        3
176
     1
 90
        0
176
     1
 90
        0
176
     1
290
     0
176
     1
 90
        1
176
     1
 40
0.0
176
     1
 90
        0
176
     1
290
     0
176
     1
290
     1
176
     1
290
     1
176
     1
290
     0
176
     1
290
     0
176
     1
290
     0
176
     1
290
     0
176
     1
290
     0
176
     1
290
     0
176
     1
 90
       50
176
     1
 40
0.0
176
     1
 40
1.0
176
     1
 90
        0
176
     1
 62
    18
420
        0
176
     1
 90
       50
176
     1
 90
        3
176
     1
 62
     5
420
      255
176
     1
290
     0
176
     1
 90
       50
176
     1
 90
       50
176
     1
 90
       50
176
     1
290
     0
176
     1
 90
       50
176
     1
 62
   256
176
     0
 40
1.0
176
     0
 90
        2
176
     1
  1
strokes_ogs.tif
176
     1
290
     0
176
     1
 40
1.0
176
     1
 40
1.0
176
     1
  0
VISUALSTYLE
  5
3B
102
{ACAD_REACTORS
330
29
102
}
330
29
100
AcDbVisualStyle
  2
Sketchy
 70
    24
177
     3
291
     0
 70
    58
 90
        1
176
     1
 90
        2
176
     1
 90
        2
176
     1
 90
        0
176
     1
 40
0.6
176
     1
 40
30.0
176
     1
 62
     7
420
 16777215
176
     1
 90
        2
176
     1
 90
        2
176
     1
 62
     7
176
     1
 62
     7
176
     1
 90
        1
176
     1
 90
        1
176
     1
 40
40.0
176
     1
 90
       11
176
     1
 62
     7
176
     1
 40
1.0
176
     1
 90
        1
176
     1
 90
        6
176
     1
 90
        2
176
     1
 62
     7
176
     1
 90
        6
176
     1
 90
        0
176
     1
 90
        0
176
     1
290
     0
176
     1
 90
        1
176
     1
 40
0.0
176
     1
 90
        0
176
     1
290
     0
176
     1
290
     1
176
     1
290
     1
176
     1
290
     0
176
     1
290
     0
176
     1
290
     0
176
     1
290
     0
176
     1
290
     0
176
     1
290
     0
176
     1
 90
       50
176
     1
 40
0.0
176
     1
 40
1.0
176
     1
 90
        0
176
     1
 62
    18
420
        0
176
     1
 90
       50
176
     1
 90
        3
176
     1
 62
     5
420
      255
176
     1
290
     0
176
     1
 90
       50
176
     1
 90
       50
176
     1
 90
       50
176
     1
290
     0
176
     1
 90
       50
176
     1
 62
   256
176
     0
 40
1.0
176
     0
 90
        2
176
     1
  1
strokes_ogs.tif
176
     1
290
     0
176
     1
 40
1.0
176
     1
 40
1.0
176
     1
  0
VISUALSTYLE
  5
36
102
{ACAD_REACTORS
330
29
102
}
330
29
100
AcDbVisualStyle
  2
Thicken
 70
    13
177
     3
291
     1
 70
    58
 90
        2
176
     1
 90
        2
176
     1
 90
        0
176
     1
 90
        0
176
     1
 40
0.6
176
     1
 40
30.0
176
     1
 62
     7
420
 16777215
176
     1
 90
        1
176
     1
 90
        4
176
     1
 62
     7
176
     1
 62
   257
176
     1
 90
        1
176
     1
 90
        1
176
     1
 40
1.0
176
     1
 90
       12
176
     1
 62
     7
176
     1
 40
1.0
176
     1
 90
        1
176
     1
 90
        6
176
     1
 90
        2
176
     1
 62
     7
176
     1
 90
        5
176
     1
 90
        0
176
     1
 90
        0
176
     1
290
     0
176
     1
 90
        1
176
     1
 40
0.0
176
     1
 90
        0
176
     1
290
     0
176
     1
290
     1
176
     1
290
     1
176
     1
290
     0
176
     1
290
     0
176
     1
290
     0
176
     1
290
     0
176
     1
290
     0
176
     1
290
     0
176
     1
 90
       50
176
     1
 40
0.0
176
     1
 40
1.0
176
     1
 90
        0
176
     1
 62
    18
420
        0
176
     1
 90
       50
176
     1
 90
        3
176
     1
 62
     5
420
      255
176
     1
290
     0
176
     1
 90
       50
176
     1
 90
       50
176
     1
 90
       50
176
     1
290
     0
176
     1
 90
       50
176
     1
 62
   256
176
     0
 40
1.0
176
     0
 90
        2
176
     1
  1
strokes_ogs.tif
176
     1
290
     0
176
     1
 40
1.0
176
     1
 40
1.0
176
     1
  0
VISUALSTYLE
  5
30
102
{ACAD_REACTORS
330
29
102
}
330
29
100
AcDbVisualStyle
  2
Wireframe
 70
     5
177
     3
291
     0
 70
    58
 90
        0
176
     1
 90
        2
176
     1
 90
        0
176
     1
 90
        0
176
     1
 40
0.6
176
     1
 40
30.0
176
     1
 62
     7
420
 16777215
176
     1
 90
        1
176
     1
 90
        4
176
     1
 62
     7
176
     1
 62
   257
176
     1
 90
        1
176
     1
 90
        1
176
     1
 40
1.0
176
     1
 90
        0
176
     1
 62
   257
176
     1
 40
1.0
176
     1
 90
        1
176
     1
 90
        6
176
     1
 90
        2
176
     1
 62
     7
176
     1
 90
        3
176
     1
 90
        0
176
     1
 90
        0
176
     1
290
     0
176
     1
 90
        1
176
     1
 40
0.0
176
     1
 90
        0
176
     1
290
     0
176
     1
290
     1
176
     1
290
     1
176
     1
290
     0
176
     1
290
     0
176
     1
290
     0
176
     1
290
     0
176
     1
290
     0
176
     1
290
     0
176
     1
 90
       50
176
     1
 40
0.0
176
     1
 40
1.0
176
     1
 90
        0
176
     1
 62
    18
420
        0
176
     1
 90
       50
176
     1
 90
        3
176
     1
 62
     5
420
      255
176
     1
290
     0
176
     1
 90
       50
176
     1
 90
       50
176
     1
 90
       50
176
     1
290
     0
176
     1
 90
       50
176
     1
 62
   256
176
     0
 40
1.0
176
     0
 90
        2
176
     1
  1
strokes_ogs.tif
176
     1
290
     0
176
     1
 40
1.0
176
     1
 40
1.0
176
     1
  0
VISUALSTYLE
  5
3C
102
{ACAD_REACTORS
330
29
102
}
330
29
100
AcDbVisualStyle
  2
X-Ray
 70
    25
177
     3
291
     0
 70
    58
 90
        2
176
     1
 90
        2
176
     1
 90
        1
176
     1
 90
        1
176
     1
 40
0.5
176
     1
 40
30.0
176
     1
 62
     7
420
 16777215
176
     1
 90
        1
176
     1
 90
        0
176
     1
 62
     7
176
     1
 62
   257
176
     1
 90
        1
176
     1
 90
        1
176
     1
 40
1.0
176
     1
 90
        8
176
     1
 62
     7
176
     1
 40
1.0
176
     1
 90
        1
176
     1
 90
        6
176
     1
 90
        2
176
     1
 62
     7
176
     1
 90
        3
176
     1
 90
        0
176
     1
 90
        0
176
     1
290
     0
176
     1
 90
       13
176
     1
 40
0.0
176
     1
 90
        0
176
     1
290
     0
176
     1
290
     1
176
     1
290
     1
176
     1
290
     0
176
     1
290
     0
176
     1
290
     0
176
     1
290
     0
176
     1
290
     0
176
     1
290
     0
176
     1
 90
       50
176
     1
 40
0.0
176
     1
 40
1.0
176
     1
 90
        0
176
     1
 62
    18
420
        0
176
     1
 90
       50
176
     1
 90
        3
176
     1
 62
     5
420
      255
176
     1
290
     0
176
     1
 90
       50
176
     1
 90
       50
176
     1
 90
       50
176
     1
290
     0
176
     1
 90
       50
176
     1
 62
   256
176
     0
 40
1.0
176
     0
 90
        2
176
     1
  1
strokes_ogs.tif
176
     1
290
     0
176
     1
 40
1.0
176
     1
 40
1.0
176
     1
  0
DICTIONARYVAR
  5
81
102
{ACAD_REACTORS
330
7C
102
}
330
7C
100
DictionaryVariables
280
     0
  1
1:1
  0
DICTIONARYVAR
  5
7E
102
{ACAD_REACTORS
330
7C
102
}
330
7C
100
DictionaryVariables
280
     0
  1
STANDARD
  0
DICTIONARYVAR
  5
7D
102
{ACAD_REACTORS
330
7C
102
}
330
7C
100
DictionaryVariables
280
     0
  1
STANDARD
  0
DICTIONARYVAR
  5
7F
102
{ACAD_REACTORS
330
7C
102
}
330
7C
100
DictionaryVariables
280
     0
  1
Imperial24
  0
DICTIONARYVAR
  5
80
102
{ACAD_REACTORS
330
7C
102
}
330
7C
100
DictionaryVariables
280
     0
  1
Imperial24
  0
XRECORD
  5
204
102
{ACAD_REACTORS
330
200
102
}
330
200
100
AcDbXrecord
280
     1
  1
BUILDING_ID
  1
Progetto per messa in tavola DXF, DWG
  1
FLOOR_ID
  1
694395
  0
XRECORD
  5
202
102
{ACAD_REACTORS
330
200
102
}
330
200
100
AcDbXrecord
280
     1
  1
-2001160
  1
Apparecchi idraulici
  0
XRECORD
  5
203
102
{ACAD_REACTORS
330
200
102
}
330
200
100
AcDbXrecord
280
     1
  1
923114
  1
Handle
  0
XRECORD
  5
201
102
{ACAD_REACTORS
330
200
102
}
330
200
100
AcDbXrecord
280
     1
  1
859151
  1
Automatic flow rate regulator valve_Caleffi_121 DN15 : 1/2''
  0
DICTIONARY
  5
1A
330
19
100
AcDbDictionary
280
     1
281
     1
  3
BUMPTILE
360
1C
  3
DIFFUSETILE
360
1B
  3
OPACITYTILE
360
1F
  3
REFLECTIONTILE
360
1E
  3
REFRACTIONTILE
360
20
  3
SPECULARTILE
360
1D
  0
DICTIONARY
  5
12
330
11
100
AcDbDictionary
280
     1
281
     1
  3
BUMPTILE
360
14
  3
DIFFUSETILE
360
13
  3
OPACITYTILE
360
17
  3
REFLECTIONTILE
360
16
  3
REFRACTIONTILE
360
18
  3
SPECULARTILE
360
15
  0
DICTIONARY
  5
22
330
21
100
AcDbDictionary
280
     1
281
     1
  3
BUMPTILE
360
24
  3
DIFFUSETILE
360
23
  3
OPACITYTILE
360
27
  3
REFLECTIONTILE
360
26
  3
REFRACTIONTILE
360
28
  3
SPECULARTILE
360
25
  0
DICTIONARY
  5
207
330
65
100
AcDbDictionary
280
     1
281
     1
  3
ACAD_ROUNDTRIP_2008_TABLESTYLE_CELLSTYLEMAP
360
208
  0
XRECORD
  5
1C
102
{ACAD_REACTORS
330
1A
102
}
330
1A
100
AcDbXrecord
280
     1
270
     1
271
     1
  0
XRECORD
  5
1B
102
{ACAD_REACTORS
330
1A
102
}
330
1A
100
AcDbXrecord
280
     1
270
     1
271
     1
  0
XRECORD
  5
1F
102
{ACAD_REACTORS
330
1A
102
}
330
1A
100
AcDbXrecord
280
     1
270
     1
271
     1
  0
XRECORD
  5
1E
102
{ACAD_REACTORS
330
1A
102
}
330
1A
100
AcDbXrecord
280
     1
270
     1
271
     1
  0
XRECORD
  5
20
102
{ACAD_REACTORS
330
1A
102
}
330
1A
100
AcDbXrecord
280
     1
270
     1
271
     1
  0
XRECORD
  5
1D
102
{ACAD_REACTORS
330
1A
102
}
330
1A
100
AcDbXrecord
280
     1
270
     1
271
     1
  0
XRECORD
  5
14
102
{ACAD_REACTORS
330
12
102
}
330
12
100
AcDbXrecord
280
     1
270
     1
271
     1
  0
XRECORD
  5
13
102
{ACAD_REACTORS
330
12
102
}
330
12
100
AcDbXrecord
280
     1
270
     1
271
     1
  0
XRECORD
  5
17
102
{ACAD_REACTORS
330
12
102
}
330
12
100
AcDbXrecord
280
     1
270
     1
271
     1
  0
XRECORD
  5
16
102
{ACAD_REACTORS
330
12
102
}
330
12
100
AcDbXrecord
280
     1
270
     1
271
     1
  0
XRECORD
  5
18
102
{ACAD_REACTORS
330
12
102
}
330
12
100
AcDbXrecord
280
     1
270
     1
271
     1
  0
XRECORD
  5
15
102
{ACAD_REACTORS
330
12
102
}
330
12
100
AcDbXrecord
280
     1
270
     1
271
     1
  0
XRECORD
  5
24
102
{ACAD_REACTORS
330
22
102
}
330
22
100
AcDbXrecord
280
     1
270
     1
271
     1
  0
XRECORD
  5
23
102
{ACAD_REACTORS
330
22
102
}
330
22
100
AcDbXrecord
280
     1
270
     1
271
     1
  0
XRECORD
  5
27
102
{ACAD_REACTORS
330
22
102
}
330
22
100
AcDbXrecord
280
     1
270
     1
271
     1
  0
XRECORD
  5
26
102
{ACAD_REACTORS
330
22
102
}
330
22
100
AcDbXrecord
280
     1
270
     1
271
     1
  0
XRECORD
  5
28
102
{ACAD_REACTORS
330
22
102
}
330
22
100
AcDbXrecord
280
     1
270
     1
271
     1
  0
XRECORD
  5
25
102
{ACAD_REACTORS
330
22
102
}
330
22
100
AcDbXrecord
280
     1
270
     1
271
     1
  0
CELLSTYLEMAP
  5
208
102
{ACAD_REACTORS
330
207
102
}
330
207
100
AcDbCellStyleMap
 90
        3
300
CELLSTYLE
  1
TABLEFORMAT_BEGIN
 90
        5
170
     1
 91
        0
 92
    32768
 62
   257
 93
        1
300
CONTENTFORMAT
  1
CONTENTFORMAT_BEGIN
 90
        0
 91
        0
 92
      512
 93
        0
300

 40
0.0
140
1.0
 94
        5
 62
     0
340
55
144
0.25
309
CONTENTFORMAT_END
171
     0
 94
        0
309
TABLEFORMAT_END
  1
CELLSTYLE_BEGIN
 90
        1
 91
        1
300
_TITLE
309
CELLSTYLE_END
300
CELLSTYLE
  1
TABLEFORMAT_BEGIN
 90
        5
170
     1
 91
        0
 92
        0
 62
   257
 93
        1
300
CONTENTFORMAT
  1
CONTENTFORMAT_BEGIN
 90
        0
 91
        0
 92
      512
 93
        0
300

 40
0.0
140
1.0
 94
        5
 62
     0
340
55
144
0.18
309
CONTENTFORMAT_END
171
     0
 94
        0
309
TABLEFORMAT_END
  1
CELLSTYLE_BEGIN
 90
        2
 91
        1
300
_HEADER
309
CELLSTYLE_END
300
CELLSTYLE
  1
TABLEFORMAT_BEGIN
 90
        5
170
     1
 91
        0
 92
        0
 62
   257
 93
        1
300
CONTENTFORMAT
  1
CONTENTFORMAT_BEGIN
 90
        0
 91
        0
 92
      512
 93
        0
300

 40
0.0
140
1.0
 94
        2
 62
     0
340
55
144
0.18
309
CONTENTFORMAT_END
171
     0
 94
        0
309
TABLEFORMAT_END
  1
CELLSTYLE_BEGIN
 90
        3
 91
        2
300
_DATA
309
CELLSTYLE_END
  0
ENDSEC
  0
EOF
