  0
SECTION
  2
HEADER
  9
$ACADVER
  1
AC1027
  9
$ACADMAINTVER
 70
    20
  9
$DWGCODEPAGE
  3
ANSI_1252
  9
$REQUIREDVERSIONS
160
                 0
  9
$INSBASE
 10
0.0
 20
0.0
 30
0.0
  9
$EXTMIN
 10
759.86640744317
 20
1806.995878730052
 30
-0.00000001
  9
$EXTMAX
 10
1153.864353953096
 20
2094.177323047547
 30
0.00000001
  9
$LIMMIN
 10
0.0
 20
0.0
  9
$LIMMAX
 10
12.0
 20
9.0
  9
$ORTHOMODE
 70
     0
  9
$REGENMODE
 70
     1
  9
$FILLMODE
 70
     1
  9
$QTEXTMODE
 70
     0
  9
$MIRRTEXT
 70
     0
  9
$LTSCALE
 40
1.0
  9
$ATTMODE
 70
     1
  9
$TEXTSIZE
 40
0.2
  9
$TRACEWID
 40
0.05
  9
$TEXTSTYLE
  7
Standard
  9
$CLAYER
  8
0
  9
$CELTYPE
  6
ByLayer
  9
$CECOLOR
 62
   256
  9
$CELTSCALE
 40
1.0
  9
$DISPSILH
 70
     0
  9
$DIMSCALE
 40
1.0
  9
$DIMASZ
 40
0.18
  9
$DIMEXO
 40
0.0625
  9
$DIMDLI
 40
0.38
  9
$DIMRND
 40
0.0
  9
$DIMDLE
 40
0.0
  9
$DIMEXE
 40
0.18
  9
$DIMTP
 40
0.0
  9
$DIMTM
 40
0.0
  9
$DIMTXT
 40
0.18
  9
$DIMCEN
 40
0.09
  9
$DIMTSZ
 40
0.0
  9
$DIMTOL
 70
     0
  9
$DIMLIM
 70
     0
  9
$DIMTIH
 70
     1
  9
$DIMTOH
 70
     1
  9
$DIMSE1
 70
     0
  9
$DIMSE2
 70
     0
  9
$DIMTAD
 70
     0
  9
$DIMZIN
 70
     0
  9
$DIMBLK
  1

  9
$DIMASO
 70
     1
  9
$DIMSHO
 70
     1
  9
$DIMPOST
  1

  9
$DIMAPOST
  1

  9
$DIMALT
 70
     0
  9
$DIMALTD
 70
     2
  9
$DIMALTF
 40
25.4
  9
$DIMLFAC
 40
1.0
  9
$DIMTOFL
 70
     0
  9
$DIMTVP
 40
0.0
  9
$DIMTIX
 70
     0
  9
$DIMSOXD
 70
     0
  9
$DIMSAH
 70
     0
  9
$DIMBLK1
  1

  9
$DIMBLK2
  1

  9
$DIMSTYLE
  2
Standard
  9
$DIMCLRD
 70
     0
  9
$DIMCLRE
 70
     0
  9
$DIMCLRT
 70
     0
  9
$DIMTFAC
 40
1.0
  9
$DIMGAP
 40
0.09
  9
$DIMJUST
 70
     0
  9
$DIMSD1
 70
     0
  9
$DIMSD2
 70
     0
  9
$DIMTOLJ
 70
     1
  9
$DIMTZIN
 70
     0
  9
$DIMALTZ
 70
     0
  9
$DIMALTTZ
 70
     0
  9
$DIMUPT
 70
     0
  9
$DIMDEC
 70
     4
  9
$DIMTDEC
 70
     4
  9
$DIMALTU
 70
     2
  9
$DIMALTTD
 70
     2
  9
$DIMTXSTY
  7
Standard
  9
$DIMAUNIT
 70
     0
  9
$DIMADEC
 70
     0
  9
$DIMALTRND
 40
0.0
  9
$DIMAZIN
 70
     0
  9
$DIMDSEP
 70
    46
  9
$DIMATFIT
 70
     3
  9
$DIMFRAC
 70
     0
  9
$DIMLDRBLK
  1

  9
$DIMLUNIT
 70
     2
  9
$DIMLWD
 70
    -2
  9
$DIMLWE
 70
    -2
  9
$DIMTMOVE
 70
     0
  9
$DIMFXL
 40
1.0
  9
$DIMFXLON
 70
     0
  9
$DIMJOGANG
 40
0.7853981633974483
  9
$DIMTFILL
 70
     0
  9
$DIMTFILLCLR
 70
     0
  9
$DIMARCSYM
 70
     0
  9
$DIMLTYPE
  6

  9
$DIMLTEX1
  6

  9
$DIMLTEX2
  6

  9
$DIMTXTDIRECTION
 70
     0
  9
$LUNITS
 70
     2
  9
$LUPREC
 70
     4
  9
$SKETCHINC
 40
0.1
  9
$FILLETRAD
 40
0.0
  9
$AUNITS
 70
     0
  9
$AUPREC
 70
     0
  9
$MENU
  1
.
  9
$ELEVATION
 40
0.0
  9
$PELEVATION
 40
0.0
  9
$THICKNESS
 40
0.0
  9
$LIMCHECK
 70
     0
  9
$CHAMFERA
 40
0.0
  9
$CHAMFERB
 40
0.0
  9
$CHAMFERC
 40
0.0
  9
$CHAMFERD
 40
0.0
  9
$SKPOLY
 70
     0
  9
$TDCREATE
 40
2457550.675826551
  9
$TDUCREATE
 40
2457550.592493217
  9
$TDUPDATE
 40
2457550.675826551
  9
$TDUUPDATE
 40
2457550.592493217
  9
$TDINDWG
 40
0.0000111343
  9
$TDUSRTIMER
 40
0.0000111343
  9
$USRTIMER
 70
     1
  9
$ANGBASE
 50
0.0
  9
$ANGDIR
 70
     0
  9
$PDMODE
 70
     0
  9
$PDSIZE
 40
0.0
  9
$PLINEWID
 40
0.0
  9
$SPLFRAME
 70
     0
  9
$SPLINETYPE
 70
     6
  9
$SPLINESEGS
 70
     8
  9
$HANDSEED
  5
1C2
  9
$SURFTAB1
 70
     6
  9
$SURFTAB2
 70
     6
  9
$SURFTYPE
 70
     6
  9
$SURFU
 70
     6
  9
$SURFV
 70
     6
  9
$UCSBASE
  2

  9
$UCSNAME
  2

  9
$UCSORG
 10
0.0
 20
0.0
 30
0.0
  9
$UCSXDIR
 10
1.0
 20
0.0
 30
0.0
  9
$UCSYDIR
 10
0.0
 20
1.0
 30
0.0
  9
$UCSORTHOREF
  2

  9
$UCSORTHOVIEW
 70
     0
  9
$UCSORGTOP
 10
0.0
 20
0.0
 30
0.0
  9
$UCSORGBOTTOM
 10
0.0
 20
0.0
 30
0.0
  9
$UCSORGLEFT
 10
0.0
 20
0.0
 30
0.0
  9
$UCSORGRIGHT
 10
0.0
 20
0.0
 30
0.0
  9
$UCSORGFRONT
 10
0.0
 20
0.0
 30
0.0
  9
$UCSORGBACK
 10
0.0
 20
0.0
 30
0.0
  9
$PUCSBASE
  2

  9
$PUCSNAME
  2

  9
$PUCSORG
 10
0.0
 20
0.0
 30
0.0
  9
$PUCSXDIR
 10
1.0
 20
0.0
 30
0.0
  9
$PUCSYDIR
 10
0.0
 20
1.0
 30
0.0
  9
$PUCSORTHOREF
  2

  9
$PUCSORTHOVIEW
 70
     0
  9
$PUCSORGTOP
 10
0.0
 20
0.0
 30
0.0
  9
$PUCSORGBOTTOM
 10
0.0
 20
0.0
 30
0.0
  9
$PUCSORGLEFT
 10
0.0
 20
0.0
 30
0.0
  9
$PUCSORGRIGHT
 10
0.0
 20
0.0
 30
0.0
  9
$PUCSORGFRONT
 10
0.0
 20
0.0
 30
0.0
  9
$PUCSORGBACK
 10
0.0
 20
0.0
 30
0.0
  9
$USERI1
 70
     0
  9
$USERI2
 70
     0
  9
$USERI3
 70
     0
  9
$USERI4
 70
     0
  9
$USERI5
 70
     0
  9
$USERR1
 40
0.0
  9
$USERR2
 40
0.0
  9
$USERR3
 40
0.0
  9
$USERR4
 40
0.0
  9
$USERR5
 40
0.0
  9
$WORLDVIEW
 70
     1
  9
$SHADEDGE
 70
     3
  9
$SHADEDIF
 70
    70
  9
$TILEMODE
 70
     1
  9
$MAXACTVP
 70
    64
  9
$PINSBASE
 10
0.0
 20
0.0
 30
0.0
  9
$PLIMCHECK
 70
     0
  9
$PEXTMIN
 10
1.000000000000000E+20
 20
1.000000000000000E+20
 30
1.000000000000000E+20
  9
$PEXTMAX
 10
-1.000000000000000E+20
 20
-1.000000000000000E+20
 30
-1.000000000000000E+20
  9
$PLIMMIN
 10
0.0
 20
0.0
  9
$PLIMMAX
 10
12.0
 20
9.0
  9
$UNITMODE
 70
     0
  9
$VISRETAIN
 70
     1
  9
$PLINEGEN
 70
     0
  9
$PSLTSCALE
 70
     1
  9
$TREEDEPTH
 70
  3020
  9
$CMLSTYLE
  2
Standard
  9
$CMLJUST
 70
     0
  9
$CMLSCALE
 40
1.0
  9
$PROXYGRAPHICS
 70
     1
  9
$MEASUREMENT
 70
     1
  9
$CELWEIGHT
370
    -1
  9
$ENDCAPS
280
     0
  9
$JOINSTYLE
280
     0
  9
$LWDISPLAY
290
     0
  9
$INSUNITS
 70
     4
  9
$HYPERLINKBASE
  1

  9
$STYLESHEET
  1

  9
$XEDIT
290
     1
  9
$CEPSNTYPE
380
     0
  9
$PSTYLEMODE
290
     1
  9
$FINGERPRINTGUID
  2
{2258E14B-F81A-4599-BD68-2B7CAD95C91D}
  9
$VERSIONGUID
  2
{CBF83F7C-8196-455B-8A8F-47276F1CA749}
  9
$EXTNAMES
290
     1
  9
$PSVPSCALE
 40
0.0
  9
$OLESTARTUP
290
     0
  9
$SORTENTS
280
   127
  9
$INDEXCTL
280
     0
  9
$HIDETEXT
280
     1
  9
$XCLIPFRAME
280
     2
  9
$HALOGAP
280
     0
  9
$OBSCOLOR
 70
   257
  9
$OBSLTYPE
280
     0
  9
$INTERSECTIONDISPLAY
280
     0
  9
$INTERSECTIONCOLOR
 70
   257
  9
$DIMASSOC
280
     2
  9
$PROJECTNAME
  1

  9
$CAMERADISPLAY
290
     0
  9
$LENSLENGTH
 40
50.0
  9
$CAMERAHEIGHT
 40
0.0
  9
$STEPSPERSEC
 40
2.0
  9
$STEPSIZE
 40
6.0
  9
$3DDWFPREC
 40
2.0
  9
$PSOLWIDTH
 40
0.25
  9
$PSOLHEIGHT
 40
4.0
  9
$LOFTANG1
 40
1.570796326794896
  9
$LOFTANG2
 40
1.570796326794896
  9
$LOFTMAG1
 40
0.0
  9
$LOFTMAG2
 40
0.0
  9
$LOFTPARAM
 70
     7
  9
$LOFTNORMALS
280
     1
  9
$LATITUDE
 40
37.795
  9
$LONGITUDE
 40
-122.394
  9
$NORTHDIRECTION
 40
0.0
  9
$TIMEZONE
 70
 -8000
  9
$LIGHTGLYPHDISPLAY
280
     1
  9
$TILEMODELIGHTSYNCH
280
     1
  9
$CMATERIAL
347
11
  9
$SOLIDHIST
280
     0
  9
$SHOWHIST
280
     1
  9
$DWFFRAME
280
     2
  9
$DGNFRAME
280
     0
  9
$REALWORLDSCALE
290
     1
  9
$INTERFERECOLOR
 62
     1
  9
$INTERFEREOBJVS
345
33
  9
$INTERFEREVPVS
346
30
  9
$CSHADOW
280
     0
  9
$SHADOWPLANELOCATION
 40
0.0
  0
ENDSEC
  0
SECTION
  2
CLASSES
  0
CLASS
  1
ACDBDICTIONARYWDFLT
  2
AcDbDictionaryWithDefault
  3
ObjectDBX Classes
 90
        0
 91
        1
280
     0
281
     0
  0
CLASS
  1
MATERIAL
  2
AcDbMaterial
  3
ObjectDBX Classes
 90
     1153
 91
        3
280
     0
281
     0
  0
CLASS
  1
VISUALSTYLE
  2
AcDbVisualStyle
  3
ObjectDBX Classes
 90
     4095
 91
       24
280
     0
281
     0
  0
CLASS
  1
SCALE
  2
AcDbScale
  3
ObjectDBX Classes
 90
     1153
 91
       17
280
     0
281
     0
  0
CLASS
  1
TABLESTYLE
  2
AcDbTableStyle
  3
ObjectDBX Classes
 90
     4095
 91
        1
280
     0
281
     0
  0
CLASS
  1
MLEADERSTYLE
  2
AcDbMLeaderStyle
  3
ACDB_MLEADERSTYLE_CLASS
 90
     4095
 91
        1
280
     0
281
     0
  0
CLASS
  1
ACDBSECTIONVIEWSTYLE
  2
AcDbSectionViewStyle
  3
ObjectDBX Classes
 90
     1025
 91
        1
280
     0
281
     0
  0
CLASS
  1
ACDBDETAILVIEWSTYLE
  2
AcDbDetailViewStyle
  3
ObjectDBX Classes
 90
     1025
 91
        1
280
     0
281
     0
  0
CLASS
  1
RASTERVARIABLES
  2
AcDbRasterVariables
  3
ISM
 90
        0
 91
        1
280
     0
281
     0
  0
CLASS
  1
DICTIONARYVAR
  2
AcDbDictionaryVar
  3
ObjectDBX Classes
 90
        0
 91
        5
280
     0
281
     0
  0
CLASS
  1
CELLSTYLEMAP
  2
AcDbCellStyleMap
  3
ObjectDBX Classes
 90
     1152
 91
        2
280
     0
281
     0
  0
CLASS
  1
SORTENTSTABLE
  2
AcDbSortentsTable
  3
ObjectDBX Classes
 90
        0
 91
        1
280
     0
281
     0
  0
ENDSEC
  0
SECTION
  2
TABLES
  0
TABLE
  2
VPORT
  5
8
330
0
100
AcDbSymbolTable
 70
     1
  0
VPORT
  5
57
330
8
100
AcDbSymbolTableRecord
100
AcDbViewportTableRecord
  2
*Active
 70
     0
 10
0.0
 20
0.0
 11
1.0
 21
1.0
 12
956.865380698133
 22
1950.586600888799
 13
0.0
 23
0.0
 14
1.0
 24
1.0
 15
0.0
 25
0.0
 16
0.0
 26
0.0
 36
1.0
 17
0.0
 27
0.0
 37
0.0
 40
287.1814443174947
 41
1.371947785297507
 42
50.0
 43
0.0
 44
0.0
 50
0.0
 51
0.0
 71
     0
 72
  1000
 73
     1
 74
     1
 75
     0
 76
     0
 77
     0
 78
     0
281
     0
 65
     1
110
0.0
120
0.0
130
0.0
111
1.0
121
0.0
131
0.0
112
0.0
122
1.0
132
0.0
 79
     0
146
0.0
 60
     3
 61
     5
292
     1
282
     1
141
0.0
142
0.0
 63
   250
421
  3355443
  0
ENDTAB
  0
TABLE
  2
LTYPE
  5
5
330
0
100
AcDbSymbolTable
 70
     3
  0
LTYPE
  5
5B
330
5
100
AcDbSymbolTableRecord
100
AcDbLinetypeTableRecord
  2
ByBlock
 70
     0
  3

 72
    65
 73
     0
 40
0.0
  0
LTYPE
  5
5C
330
5
100
AcDbSymbolTableRecord
100
AcDbLinetypeTableRecord
  2
ByLayer
 70
     0
  3

 72
    65
 73
     0
 40
0.0
  0
LTYPE
  5
5D
330
5
100
AcDbSymbolTableRecord
100
AcDbLinetypeTableRecord
  2
Continuous
 70
     0
  3
Solid line
 72
    65
 73
     0
 40
0.0
  0
LTYPE
  5
69
330
5
100
AcDbSymbolTableRecord
100
AcDbLinetypeTableRecord
  2
PHANTOM2
 70
     0
  3
___ _ _ ___ _ _ ___ _ _ ___ _ _
 72
    65
 73
     6
 40
1.25
 49
0.625
 74
     0
 49
-0.125
 74
     0
 49
0.125
 74
     0
 49
-0.125
 74
     0
 49
0.125
 74
     0
 49
-0.125
 74
     0
  0
LTYPE
  5
86
330
5
100
AcDbSymbolTableRecord
100
AcDbLinetypeTableRecord
  2
Nascosto 1_5 mm
 70
     0
  3

 72
    65
 73
     2
 40
2.2
 49
1.5
 74
     0
 49
-0.7000000000000001
 74
     0
  0
ENDTAB
  0
TABLE
  2
LAYER
  5
2
330
0
100
AcDbSymbolTable
 70
     4
  0
LAYER
  5
54
330
2
100
AcDbSymbolTableRecord
100
AcDbLayerTableRecord
  2
0
 70
     0
 62
     7
  6
Continuous
370
    -3
390
F
347
21
348
0
  0
LAYER
  5
85
330
2
100
AcDbSymbolTableRecord
100
AcDbLayerTableRecord
  2
P-SANR-FIXT
 70
     0
 62
     6
  6
Continuous
370
    18
390
F
347
21
348
0
  0
LAYER
  5
88
330
2
100
AcDbSymbolTableRecord
100
AcDbLayerTableRecord
  2
M-PIPE
 70
     0
 62
     3
  6
Continuous
370
    18
390
F
347
21
348
0
  0
ENDTAB
  0
TABLE
  2
STYLE
  5
3
330
0
100
AcDbSymbolTable
 70
     2
  0
STYLE
  5
55
330
3
100
AcDbSymbolTableRecord
100
AcDbTextStyleTableRecord
  2
Standard
 70
     0
 40
0.0
 41
1.0
 50
0.0
 71
     0
 42
0.2
  3
txt
  4

  0
STYLE
  5
5A
330
3
100
AcDbSymbolTableRecord
100
AcDbTextStyleTableRecord
  2
Annotative
 70
     0
 40
0.0
 41
1.0
 50
0.0
 71
     0
 42
0.2
  3
txt
  4

1001
AcadAnnotative
1000
AnnotativeData
1002
{
1070
     1
1070
     1
1002
}
  0
ENDTAB
  0
TABLE
  2
VIEW
  5
6
330
0
100
AcDbSymbolTable
 70
     0
  0
ENDTAB
  0
TABLE
  2
UCS
  5
7
330
0
100
AcDbSymbolTable
 70
     0
  0
ENDTAB
  0
TABLE
  2
APPID
  5
9
330
0
100
AcDbSymbolTable
 70
     3
  0
APPID
  5
56
330
9
100
AcDbSymbolTableRecord
100
AcDbRegAppTableRecord
  2
ACAD
 70
     0
  0
APPID
  5
5E
330
9
100
AcDbSymbolTableRecord
100
AcDbRegAppTableRecord
  2
AcadAnnotative
 70
     0
  0
APPID
  5
79
330
9
100
AcDbSymbolTableRecord
100
AcDbRegAppTableRecord
  2
REVIT
 70
     0
  0
ENDTAB
  0
TABLE
  2
DIMSTYLE
  5
A
330
0
100
AcDbSymbolTable
 70
     2
100
AcDbDimStyleTable
 71
     0
  0
DIMSTYLE
105
58
330
A
100
AcDbSymbolTableRecord
100
AcDbDimStyleTableRecord
  2
Standard
 70
     0
340
55
  0
DIMSTYLE
105
59
330
A
100
AcDbSymbolTableRecord
100
AcDbDimStyleTableRecord
  2
Annotative
 70
     0
340
55
1001
AcadAnnotative
1000
AnnotativeData
1002
{
1070
     1
1070
     1
1002
}
  0
ENDTAB
  0
TABLE
  2
BLOCK_RECORD
  5
1
330
0
100
AcDbSymbolTable
 70
     4
  0
BLOCK_RECORD
  5
71
102
{ACAD_XDICTIONARY
360
1BD
102
}
330
1
100
AcDbSymbolTableRecord
100
AcDbBlockTableRecord
  2
*Model_Space
340
74
 70
     0
280
     1
281
     0
  0
BLOCK_RECORD
  5
6D
330
1
100
AcDbSymbolTableRecord
100
AcDbBlockTableRecord
  2
*Paper_Space
340
70
 70
     0
280
     1
281
     0
  0
BLOCK_RECORD
  5
75
330
1
100
AcDbSymbolTableRecord
100
AcDbBlockTableRecord
  2
*Paper_Space0
340
78
 70
     0
280
     1
281
     0
  0
BLOCK_RECORD
  5
87
330
1
100
AcDbSymbolTableRecord
100
AcDbBlockTableRecord
  2
Automatic flow rate regulator valve_Caleffi_121 DN15 - 1_2__-859151-Est - Idraulica
340
0
102
{BLKREFS
331
FD
102
}
 70
     0
280
     1
281
     0
  0
BLOCK_RECORD
  5
FE
330
1
100
AcDbSymbolTableRecord
100
AcDbBlockTableRecord
  2
Automatic flow rate regulator valve_Caleffi_121 DN15 - 1_2__-V1-Est - Idraulica
340
0
102
{BLKREFS
331
15B
102
}
 70
     0
280
     1
281
     0
  0
BLOCK_RECORD
  5
15C
330
1
100
AcDbSymbolTableRecord
100
AcDbBlockTableRecord
  2
Automatic flow rate regulator valve_Caleffi_121 DN15 - 1_2__-V2-Est - Idraulica
340
0
102
{BLKREFS
331
1B6
102
}
 70
     0
280
     1
281
     0
  0
ENDTAB
  0
ENDSEC
  0
SECTION
  2
BLOCKS
  0
BLOCK
  5
72
330
71
100
AcDbEntity
  8
0
100
AcDbBlockBegin
  2
*Model_Space
 70
     0
 10
0.0
 20
0.0
 30
0.0
  3
*Model_Space
  1

  0
ENDBLK
  5
73
330
71
100
AcDbEntity
  8
0
100
AcDbBlockEnd
  0
BLOCK
  5
6E
330
6D
100
AcDbEntity
 67
     1
  8
0
100
AcDbBlockBegin
  2
*Paper_Space
 70
     0
 10
0.0
 20
0.0
 30
0.0
  3
*Paper_Space
  1

  0
ENDBLK
  5
6F
330
6D
100
AcDbEntity
 67
     1
  8
0
100
AcDbBlockEnd
  0
BLOCK
  5
76
330
75
100
AcDbEntity
 67
     1
  8
0
100
AcDbBlockBegin
  2
*Paper_Space0
 70
     0
 10
0.0
 20
0.0
 30
0.0
  3
*Paper_Space0
  1

  0
ENDBLK
  5
77
330
75
100
AcDbEntity
 67
     1
  8
0
100
AcDbBlockEnd
  0
BLOCK
  5
FB
330
87
100
AcDbEntity
  8
0
100
AcDbBlockBegin
  2
Automatic flow rate regulator valve_Caleffi_121 DN15 - 1_2__-859151-Est - Idraulica
 70
     0
 10
0.0
 20
0.0
 30
0.0
  3
Automatic flow rate regulator valve_Caleffi_121 DN15 - 1_2__-859151-Est - Idraulica
  1

  0
LINE
  5
89
330
87
100
AcDbEntity
  8
M-PIPE
100
AcDbLine
 10
953.5164074431886
 20
2094.177323047547
 30
0.0
 11
953.5164074431888
 21
2073.877323047546
 31
0.0
1001
REVIT
1002
{
1070
     3
1000
856288
1002
}
  0
LWPOLYLINE
  5
8A
330
87
100
AcDbEntity
  8
M-PIPE
100
AcDbPolyline
 90
       80
 70
   128
 43
0.0
 10
953.5164074431886
 20
2094.177323047547
 10
953.9222991851831
 20
2094.169204130155
 10
954.3275415869757
 20
2094.144860366518
 10
954.7314863471711
 20
2094.104330701464
 10
955.1334872403232
 20
2094.047679973809
 10
955.5329011507586
 20
2093.974998812635
 10
955.9290891014242
 20
2093.886403492295
 10
956.3214172761146
 20
2093.7820357464
 10
956.7092580334422
 20
2093.662062541083
 10
957.0919909109308
 20
2093.526675807877
 10
957.4690036176216
 20
2093.376092136676
 10
957.8396930136086
 20
2093.210552429229
 10
958.2034660749346
 20
2093.030321513757
 10
958.5597408423026
 20
2092.835687721275
 10
958.9079473520857
 20
2092.626962424333
 10
959.2475285481484
 20
2092.40447953888
 10
959.577941173017
 20
2092.168594990072
 10
959.8986566369763
 20
2091.919686142869
 10
960.2091618636992
 20
2091.658151198327
 10
960.5089601110607
 20
2091.384408556567
 10
960.7975717658188
 20
2091.09889614742
 10
961.0745351108928
 20
2090.802070729836
 10
961.3394070640133
 20
2090.494407161162
 10
961.5917638865578
 20
2090.176397637478
 10
961.8312018614441
 20
2089.848550906182
 10
962.0573379389888
 20
2089.511391452109
 10
962.2698103497086
 20
2089.165458658459
 10
962.4682791830709
 20
2088.81130594391
 10
962.6524269312801
 20
2088.449499877255
 10
962.8219589972223
 20
2088.08061927102
 10
962.9766041657561
 20
2087.705254255485
 10
963.1161150376016
 20
2087.3240053346
 10
963.2402684251244
 20
2086.937482425311
 10
963.348865709389
 20
2086.546303881818
 10
963.441733157907
 20
2086.151095506345
 10
963.5187222025715
 20
2085.752489547984
 10
963.5797096773343
 20
2085.351123691239
 10
963.6245980152459
 20
2084.947640035859
 10
963.6533154045409
 20
2084.542684069623
 10
963.6658159035228
 20
2084.136903635688
 10
963.6620795140599
 20
2083.730947896189
 10
963.6421122135784
 20
2083.325466293708
 10
963.6059459454992
 20
2082.921107512312
 10
963.5536385681364
 20
2082.518518439792
 10
963.4852737621358
 20
2082.118343132783
 10
963.4009608966024
 20
2081.721221786412
 10
963.3008348541361
 20
2081.327789710115
 10
963.1850558150453
 20
2080.938676311289
 10
963.0538090010947
 20
2080.554504088365
 10
962.9073043791887
 20
2080.175887634947
 10
962.7457763254696
 20
2079.803432656593
 10
962.5694832503656
 20
2079.437735001816
 10
962.3787071851902
 20
2079.079379708852
 10
962.1737533309504
 20
2078.728940069726
 10
961.9549495700923
 20
2078.386976713103
 10
961.7226459419576
 20
2078.054036707404
 10
961.4772140827955
 20
2077.730652685618
 10
961.2190466312252
 20
2077.417341993192
 10
960.9485566000959
 20
2077.114605860399
 10
960.6661767157561
 20
2076.822928600471
 10
960.3723587257828
 20
2076.542776834803
 10
960.0675726762828
 20
2076.274598746457
 10
959.7523061599167
 20
2076.018823363167
 10
959.4270635358581
 20
2075.775859870983
 10
959.0923651229239
 20
2075.546096959663
 10
958.7487463671767
 20
2075.329902200852
 10
958.3967569853236
 20
2075.127621460045
 10
958.0369600852886
 20
2074.939578343276
 10
957.6699312653596
 20
2074.766073679418
 10
957.296257693353
 20
2074.607385038921
 10
956.9165371672712
 20
2074.46376628976
 10
956.5313771589531
 20
2074.335447191293
 10
956.1413938422489
 20
2074.222633026707
 10
955.7472111072737
 20
2074.125504274598
 10
955.3494595623151
 20
2074.044216320252
 10
954.9487755249964
 20
2073.978899207052
 10
954.5458000043023
 20
2073.929657428448
 10
954.1411776751026
 20
2073.896569760781
 10
953.7355558468087
 20
2073.87968913726
 10
953.5164074431888
 20
2073.877323047546
1001
REVIT
1002
{
1070
     3
1000
856288
1002
}
  0
LWPOLYLINE
  5
8B
330
87
100
AcDbEntity
  8
M-PIPE
100
AcDbPolyline
 90
       32
 70
   128
 43
0.0
 10
943.9889471310175
 20
2087.527323047547
 10
944.1365307527121
 20
2087.905520215233
 10
944.2991201761778
 20
2088.277513094756
 10
944.4764552930211
 20
2088.642706576862
 10
944.6682524048844
 20
2089.000516429885
 10
944.8742046773032
 20
2089.350370234386
 10
945.0939826305759
 20
2089.691708298912
 10
945.3272346668606
 20
2090.023984555374
 10
945.5735876326572
 20
2090.346667432641
 10
945.8326474157727
 20
2090.659240706949
 10
946.1039995758172
 20
2090.961204327734
 10
946.3872100072203
 20
2091.25207521762
 10
946.6818256337065
 20
2091.531388045233
 10
946.9873751331217
 20
2091.798695969631
 10
947.303369691447
 20
2092.053571355158
 10
947.6293037847977
 20
2092.295606455568
 10
947.9646559881532
 20
2092.524414066331
 10
948.3088898095266
 20
2092.739628144081
 10
948.6614545482359
 20
2092.940904392202
 10
949.021786175909
 20
2093.127920811634
 10
949.3893082388082
 20
2093.300378216001
 10
949.7634327800337
 20
2093.458000710245
 10
950.1435612801284
 20
2093.600536131999
 10
950.5290856145817
 20
2093.727756454994
 10
950.9193890266995
 20
2093.839458153853
 10
951.3138471142829
 20
2093.935462529686
 10
951.7118288285377
 20
2094.015615995971
 10
952.1126974836198
 20
2094.079790324261
 10
952.5158117751953
 20
2094.12788284932
 10
952.9205268063902
 20
2094.159816633367
 10
953.3261951194898
 20
2094.17554058916
 10
953.5164074431886
 20
2094.177323047547
1001
REVIT
1002
{
1070
     3
1000
856288
1002
}
  0
LWPOLYLINE
  5
8C
330
87
100
AcDbEntity
  8
M-PIPE
100
AcDbPolyline
 90
        8
 70
   128
 43
0.0
 10
953.5164074431888
 20
2073.877323047546
 10
953.1105157011944
 20
2073.885441964938
 10
952.7052732994016
 20
2073.909785728575
 10
952.3013285392064
 20
2073.95031539363
 10
951.8993276460539
 20
2074.006966121284
 10
951.4999137356188
 20
2074.079647282458
 10
951.1037257849533
 20
2074.168242602799
 10
950.8405173135898
 20
2074.236403171747
1001
REVIT
1002
{
1070
     3
1000
856288
1002
}
  0
LINE
  5
8D
330
87
100
AcDbEntity
  8
M-PIPE
100
AcDbLine
 10
795.6664074431889
 20
2073.840748672017
 30
0.0
 11
795.666407443189
 21
2062.827323047529
 31
0.0
1001
REVIT
1002
{
1070
     3
1000
856288
1002
}
  0
LINE
  5
8E
330
87
100
AcDbEntity
  8
M-PIPE
100
AcDbLine
 10
835.666407443189
 20
2062.827323047529
 30
0.0
 11
835.666407443189
 21
2073.8405310317
 31
0.0
1001
REVIT
1002
{
1070
     3
1000
856288
1002
}
  0
LINE
  5
8F
330
87
100
AcDbEntity
  8
M-PIPE
100
AcDbLine
 10
798.4164074431892
 20
2075.428461912289
 30
0.0
 11
795.7375496260212
 21
2073.881822630426
 31
0.0
1001
REVIT
1002
{
1070
     3
1000
856288
1002
}
  0
LINE
  5
90
330
87
100
AcDbEntity
  8
M-PIPE
100
AcDbLine
 10
795.7270988959657
 20
2073.875788898616
 30
0.0
 11
795.6664074431889
 21
2073.840748672017
 31
0.0
1001
REVIT
1002
{
1070
     3
1000
856288
1002
}
  0
LINE
  5
91
330
87
100
AcDbEntity
  8
M-PIPE
100
AcDbLine
 10
802.0664074431888
 20
2084.027323047545
 30
0.0
 11
798.4164074431892
 21
2075.428461912289
 31
0.0
1001
REVIT
1002
{
1070
     3
1000
856288
1002
}
  0
SPLINE
  5
92
330
87
100
AcDbEntity
  8
M-PIPE
100
AcDbSpline
210
0.0
220
0.0
230
1.0
 70
     8
 71
     3
 72
    16
 73
    12
 74
     0
 42
0.000000001
 43
0.0000000001
 40
-1.0
 40
-1.0
 40
-1.0
 40
-1.0
 40
-0.875
 40
-0.75
 40
-0.625
 40
-0.5
 40
-0.375
 40
-0.25
 40
-0.1875
 40
-0.125
 40
0.0
 40
0.0
 40
0.0
 40
0.0
 10
949.3128375317899
 20
2087.527323047545
 30
0.0
 10
949.063838644159
 20
2087.21887619472
 30
0.0
 10
948.6394315379959
 20
2086.577482364598
 30
0.0
 10
948.2250576734539
 20
2085.565513963315
 30
0.0
 10
948.0285262413977
 20
2084.43279975401
 30
0.0
 10
948.0535488114682
 20
2083.29482246636
 30
0.0
 10
948.326876742777
 20
2082.193620815678
 30
0.0
 10
948.734577371543
 20
2081.322457542715
 30
0.0
 10
949.1522213478502
 20
2080.717817383095
 30
0.0
 10
949.638916028174
 20
2080.146490971552
 30
0.0
 10
950.0793517211731
 20
2079.763409098851
 30
0.0
 10
950.4067450820935
 20
2079.527323047546
 30
0.0
1001
REVIT
1002
{
1070
     3
1000
856288
1002
}
  0
SPLINE
  5
93
330
87
100
AcDbEntity
  8
M-PIPE
100
AcDbSpline
210
0.0
220
0.0
230
1.0
 70
     8
 71
     3
 72
     9
 73
     5
 74
     0
 42
0.000000001
 43
0.0000000001
 40
-1.0
 40
-1.0
 40
-1.0
 40
-1.0
 40
-0.5
 40
0.0
 40
0.0
 40
0.0
 40
0.0
 10
948.2463185769191
 20
2079.527323047546
 30
0.0
 10
948.4312506247645
 20
2079.310946601635
 30
0.0
 10
948.8245250434177
 20
2078.903779144865
 30
0.0
 10
949.2646201079956
 20
2078.547782558195
 30
0.0
 10
949.4963728017658
 20
2078.382576982386
 30
0.0
1001
REVIT
1002
{
1070
     3
1000
856288
1002
}
  0
SPLINE
  5
94
330
87
100
AcDbEntity
  8
M-PIPE
100
AcDbSpline
210
0.0
220
0.0
230
1.0
 70
    24
 71
     3
 72
    11
 73
     7
 74
     0
 42
0.000000001
 43
0.0000000001
 40
-1.0
 40
-1.0
 40
-1.0
 40
-1.0
 40
-0.75
 40
-0.5
 40
-0.25
 40
0.0
 40
0.0
 40
0.0
 40
0.0
 10
949.4963728017658
 20
2078.382576982386
 30
0.0
 10
949.702412167011
 20
2077.74702402463
 30
0.0
 10
950.0704753411099
 20
2076.611689334284
 30
0.0
 10
950.5096410960586
 20
2075.257030266243
 30
0.0
 10
950.7785248558869
 20
2074.427626289735
 30
0.0
 10
950.8393219810001
 20
2074.240090317457
 30
0.0
 10
950.8405173135882
 20
2074.236403171747
 30
0.0
1001
REVIT
1002
{
1070
     3
1000
856288
1002
}
  0
SPLINE
  5
95
330
87
100
AcDbEntity
  8
M-PIPE
100
AcDbSpline
210
0.0
220
0.0
230
1.0
 70
     8
 71
     3
 72
     9
 73
     5
 74
     0
 42
0.000000001
 43
0.0000000001
 40
-1.0
 40
-1.0
 40
-1.0
 40
-1.0
 40
-0.5
 40
0.0
 40
0.0
 40
0.0
 40
0.0
 10
949.5854951113743
 20
2078.107668605502
 30
0.0
 10
949.2886699260791
 20
2078.305120884465
 30
0.0
 10
948.7304152777134
 20
2078.739182237103
 30
0.0
 10
948.2429520737969
 20
2079.251557179161
 30
0.0
 10
948.0169183329509
 20
2079.527323047546
 30
0.0
1001
REVIT
1002
{
1070
     3
1000
856288
1002
}
  0
LINE
  5
96
330
87
100
AcDbEntity
  8
M-PIPE
100
AcDbLine
 10
801.1595355371559
 20
2053.227323047544
 30
0.0
 11
799.4896494243334
 21
2053.227323047544
 31
0.0
1001
REVIT
1002
{
1070
     3
1000
856288
1002
}
  0
LINE
  5
97
330
87
100
AcDbEntity
  8
M-PIPE
100
AcDbLine
 10
799.4896494243334
 20
2053.227323047544
 30
0.0
 11
795.9322365713209
 21
2053.227323047544
 31
0.0
1001
REVIT
1002
{
1070
     3
1000
856288
1002
}
  0
LINE
  5
98
330
87
100
AcDbEntity
  8
M-PIPE
100
AcDbLine
 10
795.6664074431877
 20
2062.827323047528
 30
0.0
 11
818.9164074431895
 21
2062.827323047528
 31
0.0
1001
REVIT
1002
{
1070
     3
1000
856288
1002
}
  0
LINE
  5
99
330
87
100
AcDbEntity
  8
M-PIPE
100
AcDbLine
 10
818.9164074431898
 20
2062.827323047528
 30
0.0
 11
818.91640744319
 21
2053.227323047545
 31
0.0
1001
REVIT
1002
{
1070
     3
1000
856288
1002
}
  0
LINE
  5
9A
330
87
100
AcDbEntity
  8
M-PIPE
100
AcDbLine
 10
835.4005783150562
 20
2053.227323047545
 30
0.0
 11
818.9164074431896
 21
2053.227323047545
 31
0.0
1001
REVIT
1002
{
1070
     3
1000
856288
1002
}
  0
LINE
  5
9B
330
87
100
AcDbEntity
  8
M-PIPE
100
AcDbLine
 10
835.400578315056
 20
2053.227323047545
 30
0.0
 11
835.4005783150558
 21
2062.827323047528
 31
0.0
1001
REVIT
1002
{
1070
     3
1000
856288
1002
}
  0
LINE
  5
9C
330
87
100
AcDbEntity
  8
M-PIPE
100
AcDbLine
 10
835.400578315056
 20
2062.827323047528
 30
0.0
 11
835.6664074431876
 21
2062.827323047528
 31
0.0
1001
REVIT
1002
{
1070
     3
1000
856288
1002
}
  0
LINE
  5
9D
330
87
100
AcDbEntity
  8
M-PIPE
100
AcDbLine
 10
833.7467144096082
 20
2073.397334973521
 30
0.0
 11
833.7467144096082
 21
2073.840748672017
 31
0.0
1001
REVIT
1002
{
1070
     3
1000
856288
1002
}
  0
LINE
  5
9E
330
87
100
AcDbEntity
  8
M-PIPE
100
AcDbLine
 10
795.9322365713206
 20
2053.227323047544
 30
0.0
 11
795.9322365713205
 21
2062.827323047528
 31
0.0
1001
REVIT
1002
{
1070
     3
1000
856288
1002
}
  0
LINE
  5
9F
330
87
100
AcDbEntity
  8
M-PIPE
100
AcDbLine
 10
833.7467144096084
 20
2073.840748672017
 30
0.0
 11
795.6664074431876
 21
2073.840748672017
 31
0.0
1001
REVIT
1002
{
1070
     3
1000
856288
1002
}
  0
ARC
  5
A0
330
87
100
AcDbEntity
  8
M-PIPE
100
AcDbCircle
 10
733.8610108756324
 20
1882.737317477096
 30
0.0
 40
215.6331959252773
100
AcDbArc
 50
62.40488745566746
 51
63.3299483469717
1001
REVIT
1002
{
1070
     3
1000
856288
1002
}
  0
LINE
  5
A1
330
87
100
AcDbEntity
  8
M-PIPE
100
AcDbLine
 10
830.648396630208
 20
2075.428461912289
 30
0.0
 11
798.4164074431877
 21
2075.428461912288
 31
0.0
1001
REVIT
1002
{
1070
     3
1000
856288
1002
}
  0
SPLINE
  5
A2
330
87
100
AcDbEntity
  8
M-PIPE
100
AcDbSpline
210
0.0
220
0.0
230
1.0
 70
     8
 71
     3
 72
     9
 73
     5
 74
     0
 42
0.000000001
 43
0.0000000001
 40
-1.0
 40
-1.0
 40
-1.0
 40
-1.0
 40
-0.5
 40
0.0
 40
0.0
 40
0.0
 40
0.0
 10
830.648396630208
 20
2075.428461912289
 30
0.0
 10
830.1064226427358
 20
2076.541823833677
 30
0.0
 10
829.0059914034198
 20
2078.760212702754
 30
0.0
 10
827.8725936353607
 20
2080.961931624435
 30
0.0
 10
827.2976531191453
 20
2082.058623598427
 30
0.0
1001
REVIT
1002
{
1070
     3
1000
856288
1002
}
  0
LINE
  5
A3
330
87
100
AcDbEntity
  8
M-PIPE
100
AcDbLine
 10
829.2664073971684
 20
2084.027323047545
 30
0.0
 11
802.0664074431874
 21
2084.027323047545
 31
0.0
1001
REVIT
1002
{
1070
     3
1000
856288
1002
}
  0
LINE
  5
A4
330
87
100
AcDbEntity
  8
M-PIPE
100
AcDbLine
 10
829.1482351370945
 20
2084.027323047545
 30
0.0
 11
829.2664073971684
 21
2084.027323047545
 31
0.0
1001
REVIT
1002
{
1070
     3
1000
856288
1002
}
  0
LINE
  5
A5
330
87
100
AcDbEntity
  8
M-PIPE
100
AcDbLine
 10
799.4896494243334
 20
2062.827323047528
 30
0.0
 11
799.4896494243334
 21
2053.227323047528
 31
0.0
1001
REVIT
1002
{
1070
     3
1000
856288
1002
}
  0
LINE
  5
A6
330
87
100
AcDbEntity
  8
M-PIPE
100
AcDbLine
 10
832.7663525682639
 20
2087.527323047545
 30
0.0
 11
827.2976531191453
 21
2082.058623598427
 31
0.0
1001
REVIT
1002
{
1070
     3
1000
856288
1002
}
  0
LINE
  5
A7
330
87
100
AcDbEntity
  8
M-PIPE
100
AcDbLine
 10
833.7467144096082
 20
2073.397334973521
 30
0.0
 11
860.2986098618927
 21
2079.527323047545
 31
0.0
1001
REVIT
1002
{
1070
     3
1000
856288
1002
}
  0
LINE
  5
A8
330
87
100
AcDbEntity
  8
M-PIPE
100
AcDbLine
 10
860.2986098618927
 20
2079.527323047545
 30
0.0
 11
950.4067450820935
 21
2079.527323047546
 31
0.0
1001
REVIT
1002
{
1070
     3
1000
856288
1002
}
  0
LINE
  5
A9
330
87
100
AcDbEntity
  8
M-PIPE
100
AcDbLine
 10
949.3128375317899
 20
2087.527323047545
 30
0.0
 11
832.7663525682639
 21
2087.527323047545
 31
0.0
1001
REVIT
1002
{
1070
     3
1000
856288
1002
}
  0
LWPOLYLINE
  5
AA
330
87
100
AcDbEntity
  8
P-SANR-FIXT
100
AcDbPolyline
 90
       13
 70
   128
 43
0.0
 10
779.6664074431714
 20
2036.696063995727
 10
779.7323073859541
 20
2036.741410927856
 10
779.7963412221879
 20
2036.78935688211
 10
779.8584065113954
 20
2036.839825155191
 10
779.9184039623533
 20
2036.892735008628
 10
779.9762375919388
 20
2036.948001797942
 10
780.031814878682
 20
2037.005537108061
 10
780.08504691078
 20
2037.065248894761
 10
780.1358485283367
 20
2037.127041631921
 10
780.1841384596014
 20
2037.190816464344
 10
780.2298394509853
 20
2037.256471365903
 10
780.2728783906509
 20
2037.323901302761
 10
780.2978860793976
 20
2037.366016359019
  0
LWPOLYLINE
  5
AB
330
87
100
AcDbEntity
  8
P-SANR-FIXT
100
AcDbPolyline
 90
       13
 70
   128
 43
0.0
 10
780.2978860793976
 20
1962.633983640972
 10
780.2565112893069
 20
1962.702447306205
 10
780.2124317782469
 20
1962.769201657501
 10
780.1657180640317
 20
1962.834139902136
 10
780.1164448786391
 20
1962.897158152774
 10
780.0646910486546
 20
1962.958155593656
 10
780.0105393691661
 20
1963.017034641888
 10
779.954076471309
 20
1963.073701103554
 10
779.8953926836751
 20
1963.128064324404
 10
779.834581887806
 20
1963.18003733488
 10
779.7717413680027
 20
1963.229536989253
 10
779.706971655692
 20
1963.276484098635
 10
779.6664074431714
 20
1963.303936004264
  0
LWPOLYLINE
  5
AC
330
87
100
AcDbEntity
  8
P-SANR-FIXT
100
AcDbPolyline
 90
       28
 70
   128
 43
0.0
 10
782.5403050800412
 20
2041.249999999993
 10
782.5713361726092
 20
2041.301347748918
 10
782.6043958059042
 20
2041.351413512389
 10
782.6394310915656
 20
2041.400117195866
 10
782.6763859806101
 20
2041.447380883845
 10
782.7152013530985
 20
2041.493128964506
 10
782.7558151127149
 20
2041.53728825068
 10
782.7981622861076
 20
2041.579788096929
 10
782.842175126833
 20
2041.620560512567
 10
782.8877832237347
 20
2041.659540270424
 10
782.9349136135872
 20
2041.696665011203
 10
782.9834908978203
 20
2041.73187534324
 10
783.033437363142
 20
2041.765114937513
 10
783.0846731058624
 20
2041.796330617764
 10
783.1371161597228
 20
2041.825472445562
 10
783.1906826270246
 20
2041.852493800199
 10
783.2452868128465
 20
2041.877351453272
 10
783.3008413621397
 20
2041.90000563784
 10
783.3572573994764
 20
2041.920420112039
 10
783.4144446712318
 20
2041.938562217065
 10
783.47231168997
 20
2041.954402929421
 10
783.5307658808057
 20
2041.967916907346
 10
783.5897137295027
 20
2041.979082531358
 10
783.6490609320783
 20
2041.98788193884
 10
783.7087125456684
 20
2041.994301052619
 10
783.7685731404162
 20
2041.998329603481
 10
783.8285469521395
 20
2041.999961146603
 10
783.839343185718
 20
2041.999999999993
  0
LWPOLYLINE
  5
AD
330
87
100
AcDbEntity
  8
P-SANR-FIXT
100
AcDbPolyline
 90
       28
 70
   128
 43
0.0
 10
783.839343185718
 20
1957.999999999999
 10
783.779359184438
 20
1958.001199840008
 10
783.7194711447643
 20
1958.004797440545
 10
783.6597748747846
 20
1958.010787046218
 10
783.6003658757966
 20
1958.019159074936
 10
783.5413391895254
 20
1958.029900133237
 10
783.4827892460772
 20
1958.042993037721
 10
783.4248097128719
 20
1958.058416842533
 10
783.3674933447937
 20
1958.076146872875
 10
783.3109318358054
 20
1958.096154764482
 10
783.2552156722551
 20
1958.118408508995
 10
783.2004339881189
 20
1958.142872505169
 10
783.1466744224058
 20
1958.16950761583
 10
783.0940229789523
 20
1958.198271230482
 10
783.0425638888367
 20
1958.229117333479
 10
782.9923794756255
 20
1958.261996577634
 10
782.9435500236743
 20
1958.296856363173
 10
782.8961536496903
 20
1958.333640921873
 10
782.8502661777608
 20
1958.372291406288
 10
782.8059610180521
 20
1958.412745983887
 10
782.7633090493685
 20
1958.454939935978
 10
782.7223785057618
 20
1958.498805761237
 10
782.6832348673696
 20
1958.544273283701
 10
782.6459407556634
 20
1958.591269765034
 10
782.6105558332665
 20
1958.63972002089
 10
782.5771367085061
 20
1958.689546541197
 10
782.5457368448529
 20
1958.74066961415
 10
782.5403050800412
 20
1958.749999999999
  0
LINE
  5
AE
330
87
100
AcDbEntity
  8
P-SANR-FIXT
100
AcDbLine
 10
780.2978860793976
 20
1962.633983640972
 30
0.0
 11
782.5403050800412
 21
1958.749999999999
 31
0.0
  0
LINE
  5
AF
330
87
100
AcDbEntity
  8
P-SANR-FIXT
100
AcDbLine
 10
782.5403050800412
 20
2041.249999999993
 30
0.0
 11
780.2978860793976
 21
2037.366016359019
 31
0.0
  0
LINE
  5
B0
330
87
100
AcDbEntity
  8
P-SANR-FIXT
100
AcDbLine
 10
783.839343185718
 20
1957.999999999999
 30
0.0
 11
786.1664074431708
 21
1957.999999999999
 31
0.0
  0
LINE
  5
B1
330
87
100
AcDbEntity
  8
P-SANR-FIXT
100
AcDbLine
 10
786.1664074431708
 20
2041.999999999993
 30
0.0
 11
783.839343185718
 21
2041.999999999993
 31
0.0
  0
LINE
  5
B2
330
87
100
AcDbEntity
  8
P-SANR-FIXT
100
AcDbLine
 10
759.86640744317
 20
1983.000000000016
 30
0.0
 11
759.8664074431701
 21
1966.000000000039
 31
0.0
  0
LINE
  5
B3
330
87
100
AcDbEntity
  8
P-SANR-FIXT
100
AcDbLine
 10
759.86640744317
 20
1999.999999999995
 30
0.0
 11
759.86640744317
 21
1983.000000000016
 31
0.0
  0
LINE
  5
B4
330
87
100
AcDbEntity
  8
P-SANR-FIXT
100
AcDbLine
 10
759.86640744317
 20
1999.999999999995
 30
0.0
 11
759.86640744317
 21
2016.999999999973
 31
0.0
  0
LINE
  5
B5
330
87
100
AcDbEntity
  8
P-SANR-FIXT
100
AcDbLine
 10
759.86640744317
 20
2016.999999999973
 30
0.0
 11
759.8664074431701
 21
2033.999999999951
 31
0.0
  0
SPLINE
  5
B6
330
87
100
AcDbEntity
  8
P-SANR-FIXT
100
AcDbSpline
210
0.0
220
0.0
230
1.0
 70
    24
 71
     3
 72
     9
 73
     5
 74
     0
 42
0.000000001
 43
0.0000000001
 40
-1.0
 40
-1.0
 40
-1.0
 40
-1.0
 40
-0.5
 40
0.0
 40
0.0
 40
0.0
 40
0.0
 10
759.8664074431701
 20
1965.999999999995
 30
0.0
 10
759.8756413364813
 20
1965.999999999995
 30
0.0
 10
760.1254378419571
 20
1965.999999999995
 30
0.0
 10
760.8378917851399
 20
1965.999999999995
 30
0.0
 10
761.3097831161581
 20
1965.999999999995
 30
0.0
  0
LINE
  5
B7
330
87
100
AcDbEntity
  8
P-SANR-FIXT
100
AcDbLine
 10
779.6664074431699
 20
1965.999999999995
 30
0.0
 11
761.3097831161581
 21
1965.999999999995
 31
0.0
  0
LINE
  5
B8
330
87
100
AcDbEntity
  8
P-SANR-FIXT
100
AcDbLine
 10
761.3097831161671
 20
1965.999999999994
 30
0.0
 11
761.3097831161671
 21
1971.502717712436
 31
0.0
  0
LINE
  5
B9
330
87
100
AcDbEntity
  8
P-SANR-FIXT
100
AcDbLine
 10
779.6664074431699
 20
1971.502717712437
 30
0.0
 11
761.3097831161515
 21
1971.502717712437
 31
0.0
  0
SPLINE
  5
BA
330
87
100
AcDbEntity
  8
P-SANR-FIXT
100
AcDbSpline
210
0.0
220
0.0
230
1.0
 70
     8
 71
     3
 72
     9
 73
     5
 74
     0
 42
0.000000001
 43
0.0000000001
 40
-1.0
 40
-1.0
 40
-1.0
 40
-1.0
 40
-0.5
 40
0.0
 40
0.0
 40
0.0
 40
0.0
 10
759.8664074431701
 20
1983.000000000014
 30
0.0
 10
759.8756413364704
 20
1984.937465603703
 30
0.0
 10
760.1254378419326
 20
1988.791144921983
 30
0.0
 10
760.8378917851183
 20
1992.602320462062
 30
0.0
 10
761.3097831161422
 20
1994.497282287552
 30
0.0
  0
SPLINE
  5
BB
330
87
100
AcDbEntity
  8
P-SANR-FIXT
100
AcDbSpline
210
0.0
220
0.0
230
1.0
 70
     8
 71
     3
 72
     9
 73
     5
 74
     0
 42
0.000000001
 43
0.0000000001
 40
-1.0
 40
-1.0
 40
-1.0
 40
-1.0
 40
-0.5
 40
0.0
 40
0.0
 40
0.0
 40
0.0
 10
761.3097831161515
 20
1971.502717712437
 30
0.0
 10
760.8378917851247
 20
1973.397679537933
 30
0.0
 10
760.1254378419343
 20
1977.208855078025
 30
0.0
 10
759.8756413364704
 20
1981.062534396317
 30
0.0
 10
759.8664074431701
 20
1983.000000000014
 30
0.0
  0
LINE
  5
BC
330
87
100
AcDbEntity
  8
P-SANR-FIXT
100
AcDbLine
 10
779.6664074431699
 20
1994.497282287552
 30
0.0
 11
761.3097831161422
 21
1994.497282287552
 31
0.0
  0
LINE
  5
BD
330
87
100
AcDbEntity
  8
P-SANR-FIXT
100
AcDbLine
 10
761.3097831161671
 20
2005.502717712437
 30
0.0
 11
761.3097831161671
 21
1999.999999999995
 31
0.0
  0
LINE
  5
BE
330
87
100
AcDbEntity
  8
P-SANR-FIXT
100
AcDbLine
 10
761.3097831161671
 20
1994.497282287551
 30
0.0
 11
761.3097831161671
 21
1999.999999999994
 31
0.0
  0
LINE
  5
BF
330
87
100
AcDbEntity
  8
P-SANR-FIXT
100
AcDbLine
 10
779.6664074431699
 20
2005.502717712437
 30
0.0
 11
761.3097831161422
 21
2005.502717712437
 31
0.0
  0
SPLINE
  5
C0
330
87
100
AcDbEntity
  8
P-SANR-FIXT
100
AcDbSpline
210
0.0
220
0.0
230
1.0
 70
     8
 71
     3
 72
     9
 73
     5
 74
     0
 42
0.000000001
 43
0.0000000001
 40
0.0
 40
0.0
 40
0.0
 40
0.0
 40
0.5
 40
1.0
 40
1.0
 40
1.0
 40
1.0
 10
761.3097831161512
 20
2028.497282287553
 30
0.0
 10
760.8378917851244
 20
2026.602320462056
 30
0.0
 10
760.1254378419342
 20
2022.791144921964
 30
0.0
 10
759.8756413364704
 20
2018.937465603672
 30
0.0
 10
759.8664074431701
 20
2016.999999999976
 30
0.0
  0
SPLINE
  5
C1
330
87
100
AcDbEntity
  8
P-SANR-FIXT
100
AcDbSpline
210
0.0
220
0.0
230
1.0
 70
     8
 71
     3
 72
     9
 73
     5
 74
     0
 42
0.000000001
 43
0.0000000001
 40
0.0
 40
0.0
 40
0.0
 40
0.0
 40
0.5
 40
1.0
 40
1.0
 40
1.0
 40
1.0
 10
759.8664074431701
 20
2016.999999999976
 30
0.0
 10
759.8756413364704
 20
2015.062534396286
 30
0.0
 10
760.1254378419325
 20
2011.208855078006
 30
0.0
 10
760.8378917851182
 20
2007.397679537927
 30
0.0
 10
761.3097831161422
 20
2005.502717712437
 30
0.0
  0
LINE
  5
C2
330
87
100
AcDbEntity
  8
P-SANR-FIXT
100
AcDbLine
 10
779.6664074431699
 20
2028.497282287553
 30
0.0
 11
761.3097831161512
 21
2028.497282287553
 31
0.0
  0
LINE
  5
C3
330
87
100
AcDbEntity
  8
P-SANR-FIXT
100
AcDbLine
 10
761.3097831161671
 20
2033.999999999995
 30
0.0
 11
761.3097831161671
 21
2028.497282287553
 31
0.0
  0
LINE
  5
C4
330
87
100
AcDbEntity
  8
P-SANR-FIXT
100
AcDbLine
 10
779.6664074431699
 20
2033.999999999995
 30
0.0
 11
761.3097831161578
 21
2033.999999999995
 31
0.0
  0
SPLINE
  5
C5
330
87
100
AcDbEntity
  8
P-SANR-FIXT
100
AcDbSpline
210
0.0
220
0.0
230
1.0
 70
    24
 71
     3
 72
     9
 73
     5
 74
     0
 42
0.000000001
 43
0.0000000001
 40
0.0
 40
0.0
 40
0.0
 40
0.0
 40
0.5
 40
1.0
 40
1.0
 40
1.0
 40
1.0
 10
759.8664074431701
 20
2033.999999999995
 30
0.0
 10
759.8756413364811
 20
2033.999999999995
 30
0.0
 10
760.1254378419568
 20
2033.999999999995
 30
0.0
 10
760.8378917851396
 20
2033.999999999995
 30
0.0
 10
761.3097831161578
 20
2033.999999999995
 30
0.0
  0
LINE
  5
C6
330
87
100
AcDbEntity
  8
P-SANR-FIXT
100
AcDbLine
 10
779.6664074431699
 20
1963.303936004263
 30
0.0
 11
779.6664074431699
 21
2036.696063995727
 31
0.0
  0
LINE
  5
C7
330
87
100
AcDbEntity
  8
P-SANR-FIXT
100
AcDbLine
 10
801.2541400872393
 20
2044.249999999996
 30
0.0
 11
786.1664074431708
 21
2044.249999999996
 31
0.0
  0
LINE
  5
C8
330
87
100
AcDbEntity
  8
P-SANR-FIXT
100
AcDbLine
 10
786.1664074431708
 20
1955.749999999996
 30
0.0
 11
815.6664074431709
 21
1955.749999999996
 31
0.0
  0
LINE
  5
C9
330
87
100
AcDbEntity
  8
P-SANR-FIXT
100
AcDbLine
 10
786.1664074431695
 20
1955.749999999995
 30
0.0
 11
786.1664074431695
 21
2044.249999999995
 31
0.0
  0
LINE
  5
CA
330
87
100
AcDbEntity
  8
P-SANR-FIXT
100
AcDbLine
 10
815.6664074431693
 20
2041.806568103145
 30
0.0
 11
815.6664074431693
 21
1955.749999999995
 31
0.0
  0
LINE
  5
CB
330
87
100
AcDbEntity
  8
P-SANR-FIXT
100
AcDbLine
 10
840.1909809626465
 20
1957.999999999996
 30
0.0
 11
843.3664074431892
 21
1963.499999999996
 31
0.0
  0
LINE
  5
CC
330
87
100
AcDbEntity
  8
P-SANR-FIXT
100
AcDbLine
 10
843.3664074431892
 20
2036.499999999996
 30
0.0
 11
840.1909809626465
 21
2041.999999999996
 31
0.0
  0
LINE
  5
CD
330
87
100
AcDbEntity
  8
P-SANR-FIXT
100
AcDbLine
 10
843.3664074431892
 20
1963.499999999996
 30
0.0
 11
869.923031770215
 21
1963.499999999996
 31
0.0
  0
LINE
  5
CE
330
87
100
AcDbEntity
  8
P-SANR-FIXT
100
AcDbLine
 10
869.923031770215
 20
2036.499999999996
 30
0.0
 11
843.3664074431892
 21
2036.499999999996
 31
0.0
  0
LINE
  5
CF
330
87
100
AcDbEntity
  8
P-SANR-FIXT
100
AcDbLine
 10
869.923031770215
 20
1963.499999999996
 30
0.0
 11
871.3664074431894
 21
1965.999999999996
 31
0.0
  0
LINE
  5
D0
330
87
100
AcDbEntity
  8
P-SANR-FIXT
100
AcDbLine
 10
871.3664074431894
 20
2033.999999999996
 30
0.0
 11
869.923031770215
 21
2036.499999999996
 31
0.0
  0
LINE
  5
D1
330
87
100
AcDbEntity
  8
P-SANR-FIXT
100
AcDbLine
 10
815.6664074431709
 20
1957.999999999996
 30
0.0
 11
840.1909809626465
 21
1957.999999999996
 31
0.0
  0
LINE
  5
D2
330
87
100
AcDbEntity
  8
P-SANR-FIXT
100
AcDbLine
 10
840.1909809626465
 20
2041.999999999996
 30
0.0
 11
830.1664074431894
 21
2041.999999999996
 31
0.0
  0
LINE
  5
D3
330
87
100
AcDbEntity
  8
P-SANR-FIXT
100
AcDbLine
 10
801.1664074431891
 20
2060.999999999996
 30
0.0
 11
801.1664074431891
 21
2044.212146634075
 31
0.0
  0
LINE
  5
D4
330
87
100
AcDbEntity
  8
P-SANR-FIXT
100
AcDbLine
 10
830.1664074431894
 20
2041.999999999996
 30
0.0
 11
830.1664074431894
 21
2050.669872981074
 31
0.0
  0
LINE
  5
D5
330
87
100
AcDbEntity
  8
P-SANR-FIXT
100
AcDbLine
 10
825.6664074431892
 20
2084.027323047546
 30
0.0
 11
825.6664074431892
 21
2088.999999999996
 31
0.0
  0
LINE
  5
D6
330
87
100
AcDbEntity
  8
P-SANR-FIXT
100
AcDbLine
 10
805.6664074431893
 20
2088.999999999996
 30
0.0
 11
805.6664074431893
 21
2084.027323047546
 31
0.0
  0
LINE
  5
D7
330
87
100
AcDbEntity
  8
P-SANR-FIXT
100
AcDbLine
 10
805.6664074431893
 20
2062.827323047529
 30
0.0
 11
805.6664074431893
 21
2060.999999999996
 31
0.0
  0
LINE
  5
D8
330
87
100
AcDbEntity
  8
P-SANR-FIXT
100
AcDbLine
 10
801.1664074431879
 20
2060.999999999995
 30
0.0
 11
818.9132919675945
 21
2060.999999999995
 31
0.0
  0
LINE
  5
D9
330
87
100
AcDbEntity
  8
P-SANR-FIXT
100
AcDbLine
 10
840.1909809626449
 20
2041.999999999994
 30
0.0
 11
840.1909809626449
 21
1957.999999999995
 31
0.0
  0
LINE
  5
DA
330
87
100
AcDbEntity
  8
P-SANR-FIXT
100
AcDbLine
 10
843.3664074431877
 20
1963.499999999995
 30
0.0
 11
843.3664074431877
 21
2036.499999999995
 31
0.0
  0
LINE
  5
DB
330
87
100
AcDbEntity
  8
P-SANR-FIXT
100
AcDbLine
 10
869.9230317702136
 20
1963.499999999995
 30
0.0
 11
869.9230317702136
 21
1963.917177247648
 31
0.0
  0
LINE
  5
DC
330
87
100
AcDbEntity
  8
P-SANR-FIXT
100
AcDbLine
 10
869.9230317702136
 20
1963.917177247648
 30
0.0
 11
851.3664074431877
 21
1963.917177247648
 31
0.0
  0
LINE
  5
DD
330
87
100
AcDbEntity
  8
P-SANR-FIXT
100
AcDbLine
 10
851.3664074431877
 20
1963.917177247648
 30
0.0
 11
851.3664074431877
 21
1977.193095295
 31
0.0
  0
LINE
  5
DE
330
87
100
AcDbEntity
  8
P-SANR-FIXT
100
AcDbLine
 10
851.3664074431877
 20
1977.193095295
 30
0.0
 11
869.9230317702136
 21
1977.193095295
 31
0.0
  0
LINE
  5
DF
330
87
100
AcDbEntity
  8
P-SANR-FIXT
100
AcDbLine
 10
869.9230317702136
 20
1977.193095295
 30
0.0
 11
869.9230317702136
 21
1986.724081952642
 31
0.0
  0
LINE
  5
E0
330
87
100
AcDbEntity
  8
P-SANR-FIXT
100
AcDbLine
 10
869.9230317702136
 20
1986.724081952642
 30
0.0
 11
851.3664074431877
 21
1986.724081952642
 31
0.0
  0
LINE
  5
E1
330
87
100
AcDbEntity
  8
P-SANR-FIXT
100
AcDbLine
 10
851.3664074431877
 20
1986.724081952642
 30
0.0
 11
851.3664074431877
 21
2013.275918047347
 31
0.0
  0
LINE
  5
E2
330
87
100
AcDbEntity
  8
P-SANR-FIXT
100
AcDbLine
 10
851.3664074431877
 20
2013.275918047347
 30
0.0
 11
869.9230317702136
 21
2013.275918047347
 31
0.0
  0
LINE
  5
E3
330
87
100
AcDbEntity
  8
P-SANR-FIXT
100
AcDbLine
 10
869.9230317702136
 20
2013.275918047347
 30
0.0
 11
869.9230317702136
 21
2022.80690470499
 31
0.0
  0
LINE
  5
E4
330
87
100
AcDbEntity
  8
P-SANR-FIXT
100
AcDbLine
 10
869.9230317702136
 20
2022.80690470499
 30
0.0
 11
851.3664074431877
 21
2022.80690470499
 31
0.0
  0
LINE
  5
E5
330
87
100
AcDbEntity
  8
P-SANR-FIXT
100
AcDbLine
 10
851.3664074431877
 20
2022.80690470499
 30
0.0
 11
851.3664074431877
 21
2036.082822752342
 31
0.0
  0
LINE
  5
E6
330
87
100
AcDbEntity
  8
P-SANR-FIXT
100
AcDbLine
 10
851.3664074431877
 20
2036.082822752342
 30
0.0
 11
869.9230317702136
 21
2036.082822752342
 31
0.0
  0
LINE
  5
E7
330
87
100
AcDbEntity
  8
P-SANR-FIXT
100
AcDbLine
 10
869.9230317702136
 20
2036.082822752342
 30
0.0
 11
869.9230317702136
 21
2036.499999999995
 31
0.0
  0
LINE
  5
E8
330
87
100
AcDbEntity
  8
P-SANR-FIXT
100
AcDbLine
 10
871.3664074431878
 20
2033.999999999995
 30
0.0
 11
871.3664074431878
 21
2029.444863728666
 31
0.0
  0
LINE
  5
E9
330
87
100
AcDbEntity
  8
P-SANR-FIXT
100
AcDbLine
 10
871.3664074431878
 20
2029.444863728666
 30
0.0
 11
871.3664074431878
 21
1999.999999999994
 31
0.0
  0
LINE
  5
EA
330
87
100
AcDbEntity
  8
P-SANR-FIXT
100
AcDbLine
 10
871.3664074431878
 20
1999.999999999994
 30
0.0
 11
871.3664074431878
 21
1970.555136271324
 31
0.0
  0
LINE
  5
EB
330
87
100
AcDbEntity
  8
P-SANR-FIXT
100
AcDbLine
 10
871.3664074431878
 20
1970.555136271324
 30
0.0
 11
871.3664074431878
 21
1965.999999999995
 31
0.0
  0
LINE
  5
EC
330
87
100
AcDbEntity
  8
P-SANR-FIXT
100
AcDbLine
 10
871.3664074431878
 20
2033.995224245571
 30
0.0
 11
871.3664074431878
 21
2033.999999999995
 31
0.0
  0
SPLINE
  5
ED
330
87
100
AcDbEntity
  8
P-SANR-FIXT
100
AcDbSpline
210
0.0
220
0.0
230
1.0
 70
     8
 71
     3
 72
     9
 73
     5
 74
     0
 42
0.000000001
 43
0.0000000001
 40
0.0
 40
0.0
 40
0.0
 40
0.0
 40
0.5
 40
1.0
 40
1.0
 40
1.0
 40
1.0
 10
869.9230317702136
 20
2022.80690470499
 30
0.0
 10
870.3949231012398
 20
2023.900961425043
 30
0.0
 10
871.1073770444283
 20
2026.101344649042
 30
0.0
 10
871.3571735498891
 20
2028.326267440827
 30
0.0
 10
871.3664074431878
 20
2029.444863728666
 30
0.0
  0
SPLINE
  5
EE
330
87
100
AcDbEntity
  8
P-SANR-FIXT
100
AcDbSpline
210
0.0
220
0.0
230
1.0
 70
     8
 71
     3
 72
     9
 73
     5
 74
     0
 42
0.000000001
 43
0.0000000001
 40
0.0
 40
0.0
 40
0.0
 40
0.0
 40
0.5
 40
1.0
 40
1.0
 40
1.0
 40
1.0
 10
871.3664074431878
 20
2029.444863728666
 30
0.0
 10
871.3571735498891
 20
2030.563460016505
 30
0.0
 10
871.1073770444283
 20
2032.788382808289
 30
0.0
 10
870.3949231012398
 20
2034.988766032289
 30
0.0
 10
869.9230317702136
 20
2036.082822752342
 30
0.0
  0
SPLINE
  5
EF
330
87
100
AcDbEntity
  8
P-SANR-FIXT
100
AcDbSpline
210
0.0
220
0.0
230
1.0
 70
     8
 71
     3
 72
     9
 73
     5
 74
     0
 42
0.000000001
 43
0.0000000001
 40
0.0
 40
0.0
 40
0.0
 40
0.0
 40
0.5
 40
1.0
 40
1.0
 40
1.0
 40
1.0
 10
869.9230317702136
 20
1986.724081952642
 30
0.0
 10
870.3949231012398
 20
1988.912195392749
 30
0.0
 10
871.1073770444281
 20
1993.312961840748
 30
0.0
 10
871.3571735498891
 20
1997.762807424317
 30
0.0
 10
871.3664074431878
 20
1999.999999999994
 30
0.0
  0
SPLINE
  5
F0
330
87
100
AcDbEntity
  8
P-SANR-FIXT
100
AcDbSpline
210
0.0
220
0.0
230
1.0
 70
     8
 71
     3
 72
     9
 73
     5
 74
     0
 42
0.000000001
 43
0.0000000001
 40
0.0
 40
0.0
 40
0.0
 40
0.0
 40
0.5
 40
1.0
 40
1.0
 40
1.0
 40
1.0
 10
871.3664074431878
 20
1999.999999999994
 30
0.0
 10
871.3571735498891
 20
2002.237192575672
 30
0.0
 10
871.1073770444281
 20
2006.687038159242
 30
0.0
 10
870.3949231012398
 20
2011.087804607241
 30
0.0
 10
869.9230317702136
 20
2013.275918047347
 30
0.0
  0
SPLINE
  5
F1
330
87
100
AcDbEntity
  8
P-SANR-FIXT
100
AcDbSpline
210
0.0
220
0.0
230
1.0
 70
     8
 71
     3
 72
     9
 73
     5
 74
     0
 42
0.000000001
 43
0.0000000001
 40
0.0
 40
0.0
 40
0.0
 40
0.0
 40
0.5
 40
1.0
 40
1.0
 40
1.0
 40
1.0
 10
869.9230317702136
 20
1963.917177247648
 30
0.0
 10
870.3949231012398
 20
1965.011233967701
 30
0.0
 10
871.1073770444281
 20
1967.2116171917
 30
0.0
 10
871.3571735498891
 20
1969.436539983485
 30
0.0
 10
871.3664074431878
 20
1970.555136271324
 30
0.0
  0
SPLINE
  5
F2
330
87
100
AcDbEntity
  8
P-SANR-FIXT
100
AcDbSpline
210
0.0
220
0.0
230
1.0
 70
     8
 71
     3
 72
     9
 73
     5
 74
     0
 42
0.000000001
 43
0.0000000001
 40
0.0
 40
0.0
 40
0.0
 40
0.0
 40
0.5
 40
1.0
 40
1.0
 40
1.0
 40
1.0
 10
871.3664074431878
 20
1970.555136271324
 30
0.0
 10
871.3571735498891
 20
1971.673732559162
 30
0.0
 10
871.1073770444281
 20
1973.898655350948
 30
0.0
 10
870.3949231012398
 20
1976.099038574946
 30
0.0
 10
869.9230317702136
 20
1977.193095295
 30
0.0
  0
SPLINE
  5
F3
330
87
100
AcDbEntity
  8
P-SANR-FIXT
100
AcDbSpline
210
0.0
220
0.0
230
1.0
 70
     8
 71
     3
 72
    13
 73
     9
 74
     0
 42
0.000000001
 43
0.0000000001
 40
0.0
 40
0.0
 40
0.0
 40
0.0
 40
0.1
 40
0.2
 40
0.4
 40
0.5
 40
0.6000000000000001
 40
0.6604092518684413
 40
0.6604092518684413
 40
0.6604092518684413
 40
0.6604092518684413
 10
830.1664074431878
 20
2041.999999999994
 30
0.0
 10
830.1614065281123
 20
2041.999999999994
 30
0.0
 10
829.8900308375905
 20
2041.902501045183
 30
0.0
 10
828.2559681631344
 20
2041.361749001896
 30
0.0
 10
825.1911098822429
 20
2040.47658638596
 30
0.0
 10
821.150027275676
 20
2039.754447543245
 30
0.0
 10
818.2282185783931
 20
2039.467282634324
 30
0.0
 10
816.3684600940145
 20
2039.418040256443
 30
0.0
 10
815.6681708637378
 20
2039.417922478127
 30
0.0
  0
LINE
  5
F4
330
87
100
AcDbEntity
  8
P-SANR-FIXT
100
AcDbLine
 10
829.8734479513303
 20
2050.500732739587
 30
0.0
 11
829.8734479513303
 21
2053.227323047545
 31
0.0
  0
ARC
  5
F5
330
87
100
AcDbEntity
  8
P-SANR-FIXT
100
AcDbCircle
 10
836.1664074431878
 20
2055.86602540378
 30
0.0
 40
1.500000000000024
100
AcDbArc
 50
299.9999999999996
 51
0.0
  0
LINE
  5
F6
330
87
100
AcDbEntity
  8
P-SANR-FIXT
100
AcDbLine
 10
837.6664074431879
 20
2055.86602540378
 30
0.0
 11
837.6664074431879
 21
2060.999999999995
 31
0.0
  0
LINE
  5
F7
330
87
100
AcDbEntity
  8
P-SANR-FIXT
100
AcDbLine
 10
835.400578315056
 20
2060.999999999995
 30
0.0
 11
837.6664074431879
 21
2060.999999999995
 31
0.0
  0
LINE
  5
F8
330
87
100
AcDbEntity
  8
P-SANR-FIXT
100
AcDbLine
 10
829.8734479513303
 20
2050.500732739587
 30
0.0
 11
834.6705380453043
 21
2053.27033399667
 31
0.0
  0
LINE
  5
F9
330
87
100
AcDbEntity
  8
P-SANR-FIXT
100
AcDbLine
 10
835.400578315056
 20
2053.69182294293
 30
0.0
 11
836.9164074431878
 21
2054.566987298103
 31
0.0
  0
LINE
  5
FA
330
87
100
AcDbEntity
  8
P-SANR-FIXT
100
AcDbLine
 10
825.6664074431878
 20
2088.999999999995
 30
0.0
 11
805.6664074431878
 21
2088.999999999995
 31
0.0
  0
ENDBLK
  5
FC
330
87
100
AcDbEntity
  8
0
100
AcDbBlockEnd
  0
BLOCK
  5
159
330
FE
100
AcDbEntity
  8
0
100
AcDbBlockBegin
  2
Automatic flow rate regulator valve_Caleffi_121 DN15 - 1_2__-V1-Est - Idraulica
 70
     0
 10
0.0
 20
0.0
 30
0.0
  3
Automatic flow rate regulator valve_Caleffi_121 DN15 - 1_2__-V1-Est - Idraulica
  1

  0
LWPOLYLINE
  5
FF
330
FE
100
AcDbEntity
  8
M-PIPE
100
AcDbPolyline
 90
       55
 70
   128
 43
0.0
 10
948.0465437528637
 20
1842.695878730053
 10
948.3915518038974
 20
1842.484694182491
 10
948.7460050785298
 20
1842.286762630835
 10
949.1080899793141
 20
1842.103163753762
 10
949.4772272476499
 20
1841.934191270308
 10
949.8528263426527
 20
1841.780115500403
 10
950.234286385894
 20
1841.641182932409
 10
950.6209971226786
 20
1841.5176158288
 10
951.0123398983212
 20
1841.409611870581
 10
951.4076886478633
 20
1841.317343841045
 10
951.8064108976416
 20
1841.240959349357
 10
952.2078687771131
 20
1841.180580594409
 10
952.6114200393104
 20
1841.136304169329
 10
953.0164190882999
 20
1841.108200906953
 10
953.4222180119991
 20
1841.096315766503
 10
953.8281676186954
 20
1841.100667761671
 10
954.2336184756161
 20
1841.121249930192
 10
954.6379219478819
 20
1841.158029344987
 10
955.0404312361838
 20
1841.210947166839
 10
955.4405024115245
 20
1841.27991873852
 10
955.8374954453679
 20
1841.36483372023
 10
956.2307752335465
 20
1841.465556266111
 10
956.6197126122951
 20
1841.581925241578
 10
957.003685364776
 20
1841.713754481093
 10
957.3820792164953
 20
1841.860833085994
 10
957.7542888180099
 20
1842.02292576189
 10
958.1197187133582
 20
1842.199773195076
 10
958.4777842926616
 20
1842.391092467386
 10
958.8279127273763
 20
1842.596577508795
 10
959.1695438866969
 20
1842.815899587073
 10
959.5021312336463
 20
1843.048707833679
 10
959.8251426994169
 20
1843.294629805084
 10
960.1380615345696
 20
1843.553272078592
 10
960.4403871357202
 20
1843.824220881741
 10
960.7316358463997
 20
1844.107042754244
 10
961.0113417308005
 20
1844.401285241438
 10
961.2790573191754
 20
1844.706477618112
 10
961.5343543236923
 20
1845.022131641568
 10
961.7768243236044
 20
1845.347742332703
 10
962.0060794186363
 20
1845.682788783872
 10
962.2217528495406
 20
1846.026734992225
 10
962.4234995848363
 20
1846.379030717201
 10
962.6109968727837
 20
1846.739112360792
 10
962.7839447577192
 20
1847.106403869181
 10
962.9420665599207
 20
1847.480317654308
 10
963.0851093182355
 20
1847.860255533878
 10
963.2128441947644
 20
1848.245609688335
 10
963.3250668409536
 20
1848.635763633234
 10
963.4215977245089
 20
1849.030093205495
 10
963.5022824166085
 20
1849.427967561918
 10
963.5669918389572
 20
1849.828750188411
 10
963.6156224702828
 20
1850.231799918265
 10
963.6480965119494
 20
1850.636471957893
 10
963.6643620124178
 20
1851.042118918357
 10
963.6664074431886
 20
1851.245878730052
1001
REVIT
1002
{
1070
     3
1000
856288
1002
}
  0
LWPOLYLINE
  5
100
330
FE
100
AcDbEntity
  8
M-PIPE
100
AcDbPolyline
 90
       55
 70
   128
 43
0.0
 10
963.6664074431886
 20
1851.245878730053
 10
963.6582885257976
 20
1851.651770472047
 10
963.6339447621603
 20
1852.05701287384
 10
963.5934150971054
 20
1852.460957634035
 10
963.5367643694515
 20
1852.862958527187
 10
963.4640832082773
 20
1853.262372437622
 10
963.3754878879367
 20
1853.658560388288
 10
963.2711201420431
 20
1854.050888562978
 10
963.1511469367255
 20
1854.438729320306
 10
963.0157602035197
 20
1854.821462197795
 10
962.8651765323182
 20
1855.198474904486
 10
962.6996368248713
 20
1855.569164300472
 10
962.5194059093985
 20
1855.932937361799
 10
962.3247721169169
 20
1856.289212129167
 10
962.1160468199748
 20
1856.63741863895
 10
961.8935639345219
 20
1856.976999835012
 10
961.6576793857143
 20
1857.307412459881
 10
961.4087705385106
 20
1857.62812792384
 10
961.1472355939689
 20
1857.938633150563
 10
960.8734929522089
 20
1858.238431397925
 10
960.5879805430625
 20
1858.527043052683
 10
960.2911551254779
 20
1858.804006397757
 10
959.9834915568044
 20
1859.068878350877
 10
959.6654820331197
 20
1859.321235173422
 10
959.3376353018241
 20
1859.560673148308
 10
959.0004758477503
 20
1859.786809225853
 10
958.6545430541015
 20
1859.999281636573
 10
958.3003903395521
 20
1860.197750469935
 10
957.9385842728974
 20
1860.381898218144
 10
957.5697036666623
 20
1860.551430284086
 10
957.194338651127
 20
1860.70607545262
 10
956.8130897302424
 20
1860.845586324465
 10
956.4265668209529
 20
1860.969739711988
 10
956.0353882774604
 20
1861.078336996253
 10
955.6401799019866
 20
1861.171204444771
 10
955.2415739436261
 20
1861.248193489435
 10
954.8402080868809
 20
1861.309180964198
 10
954.4367244315013
 20
1861.35406930211
 10
954.0317684652645
 20
1861.382786691405
 10
953.62598803133
 20
1861.395287190387
 10
953.2200322918304
 20
1861.391550800924
 10
952.8145506893499
 20
1861.371583500442
 10
952.4101919079539
 20
1861.335417232363
 10
952.0076028354342
 20
1861.283109855001
 10
951.607427528426
 20
1861.214745048999
 10
951.2103061820537
 20
1861.130432183466
 10
950.8168741057575
 20
1861.030306141
 10
950.4277607069312
 20
1860.914527101909
 10
950.043588484007
 20
1860.783280287959
 10
949.6649720305889
 20
1860.636775666053
 10
949.2925170522353
 20
1860.475247612333
 10
948.9268193974584
 20
1860.29895453723
 10
948.5684641044949
 20
1860.108178472054
 10
948.2180244653685
 20
1859.903224617814
 10
948.0465312203364
 20
1859.795878730117
1001
REVIT
1002
{
1070
     3
1000
856288
1002
}
  0
ARC
  5
101
330
FE
100
AcDbEntity
  8
M-PIPE
100
AcDbCircle
 10
953.516407443187
 20
1851.245878730052
 30
0.0
 40
9.527460312171342
100
AcDbArc
 50
180.0
 51
243.8191643584297
1001
REVIT
1002
{
1070
     3
1000
856288
1002
}
  0
ARC
  5
102
330
FE
100
AcDbEntity
  8
M-PIPE
100
AcDbCircle
 10
953.516407443187
 20
1851.245878730052
 30
0.0
 40
9.527460312171385
100
AcDbArc
 50
116.1808356406971
 51
180.0
1001
REVIT
1002
{
1070
     3
1000
856288
1002
}
  0
ARC
  5
103
330
FE
100
AcDbEntity
  8
M-PIPE
100
AcDbCircle
 10
815.6664074431875
 20
1851.245878730052
 30
0.0
 40
20.00000000000008
100
AcDbArc
 50
180.0
 51
334.6909918284626
1001
REVIT
1002
{
1070
     3
1000
856288
1002
}
  0
ARC
  5
104
330
FE
100
AcDbEntity
  8
M-PIPE
100
AcDbCircle
 10
815.6664074431875
 20
1851.245878730052
 30
0.0
 40
20.0
100
AcDbArc
 50
25.30900817174106
 51
180.0
1001
REVIT
1002
{
1070
     3
1000
856288
1002
}
  0
ARC
  5
105
330
FE
100
AcDbEntity
  8
M-PIPE
100
AcDbCircle
 10
815.6664074431875
 20
1851.245878730052
 30
0.0
 40
17.24999999999981
100
AcDbArc
 50
180.0
 51
330.2872353791646
1001
REVIT
1002
{
1070
     3
1000
856288
1002
}
  0
LWPOLYLINE
  5
106
330
FE
100
AcDbEntity
  8
M-PIPE
100
AcDbPolyline
 90
        4
 70
   128
 43
0.0
 10
827.2976531191453
 20
1842.695878730052
 10
828.3505014523381
 20
1845.346807094992
 10
829.0295414190762
 20
1848.224139375873
 10
829.2215997881942
 20
1849.911088921376
1001
REVIT
1002
{
1070
     3
1000
856288
1002
}
  0
LINE
  5
107
330
FE
100
AcDbEntity
  8
M-PIPE
100
AcDbLine
 10
829.2663910911798
 20
1851.245878730052
 30
0.0
 11
829.2459446183594
 21
1852.160653333567
 31
0.0
1001
REVIT
1002
{
1070
     3
1000
856288
1002
}
  0
LWPOLYLINE
  5
108
330
FE
100
AcDbEntity
  8
M-PIPE
100
AcDbPolyline
 90
        4
 70
   128
 43
0.0
 10
829.221601976182
 20
1852.580671439508
 10
829.0295269646241
 20
1854.267709823687
 10
828.3505022140333
 20
1857.144947960619
 10
827.2976531191146
 20
1859.795878730115
1001
REVIT
1002
{
1070
     3
1000
856288
1002
}
  0
ARC
  5
109
330
FE
100
AcDbEntity
  8
M-PIPE
100
AcDbCircle
 10
815.6664074431875
 20
1851.245878730052
 30
0.0
 40
17.24999999999977
100
AcDbArc
 50
29.71276462108129
 51
180.0
1001
REVIT
1002
{
1070
     3
1000
856288
1002
}
  0
ARC
  5
10A
330
FE
100
AcDbEntity
  8
M-PIPE
100
AcDbCircle
 10
815.6664074431873
 20
1851.245878730052
 30
0.0
 40
13.60000000000002
100
AcDbArc
 50
180.0000000000006
 51
0.0
1001
REVIT
1002
{
1070
     3
1000
856288
1002
}
  0
ARC
  5
10B
330
FE
100
AcDbEntity
  8
M-PIPE
100
AcDbCircle
 10
815.6664074431873
 20
1851.245878730052
 30
0.0
 40
13.60000000000002
100
AcDbArc
 50
0.0
 51
180.0
1001
REVIT
1002
{
1070
     3
1000
856288
1002
}
  0
LINE
  5
10C
330
FE
100
AcDbEntity
  8
M-PIPE
100
AcDbLine
 10
832.7663525682639
 20
1859.795878730116
 30
0.0
 11
949.3128375319203
 21
1859.795878730116
 31
0.0
1001
REVIT
1002
{
1070
     3
1000
856288
1002
}
  0
LINE
  5
10D
330
FE
100
AcDbEntity
  8
M-PIPE
100
AcDbLine
 10
827.2976531191146
 20
1859.795878730115
 30
0.0
 11
832.7663525682639
 21
1859.795878730116
 31
0.0
1001
REVIT
1002
{
1070
     3
1000
856288
1002
}
  0
LINE
  5
10E
330
FE
100
AcDbEntity
  8
M-PIPE
100
AcDbLine
 10
832.7663525682639
 20
1842.695878730052
 30
0.0
 11
827.2976531191453
 21
1842.695878730052
 31
0.0
1001
REVIT
1002
{
1070
     3
1000
856288
1002
}
  0
LINE
  5
10F
330
FE
100
AcDbEntity
  8
M-PIPE
100
AcDbLine
 10
949.3128375317899
 20
1842.695878730052
 30
0.0
 11
832.7663525682639
 21
1842.695878730052
 31
0.0
1001
REVIT
1002
{
1070
     3
1000
856288
1002
}
  0
LINE
  5
110
330
FE
100
AcDbEntity
  8
M-PIPE
100
AcDbLine
 10
832.7663525682639
 20
1859.795878730116
 30
0.0
 11
832.7663525682639
 21
1842.695878730052
 31
0.0
1001
REVIT
1002
{
1070
     3
1000
856288
1002
}
  0
LWPOLYLINE
  5
111
330
FE
100
AcDbEntity
  8
P-SANR-FIXT
100
AcDbPolyline
 90
       13
 70
   128
 43
0.0
 10
779.6664074431714
 20
1887.941942725784
 10
779.7323073859541
 20
1887.987289657912
 10
779.7963412221879
 20
1888.035235612166
 10
779.8584065113954
 20
1888.085703885247
 10
779.9184039623533
 20
1888.138613738684
 10
779.9762375919388
 20
1888.193880527999
 10
780.031814878682
 20
1888.251415838118
 10
780.08504691078
 20
1888.311127624817
 10
780.1358485283367
 20
1888.372920361978
 10
780.1841384596014
 20
1888.436695194401
 10
780.2298394509853
 20
1888.50235009596
 10
780.2728783906509
 20
1888.569780032818
 10
780.2978860793976
 20
1888.611895089076
  0
LWPOLYLINE
  5
112
330
FE
100
AcDbEntity
  8
P-SANR-FIXT
100
AcDbPolyline
 90
       28
 70
   128
 43
0.0
 10
782.5403050800412
 20
1892.49587873005
 10
782.5713361726092
 20
1892.547226478974
 10
782.6043958059042
 20
1892.597292242446
 10
782.6394310915656
 20
1892.645995925923
 10
782.6763859806101
 20
1892.693259613901
 10
782.7152013530985
 20
1892.739007694562
 10
782.7558151127149
 20
1892.783166980737
 10
782.7981622861076
 20
1892.825666826986
 10
782.842175126833
 20
1892.866439242623
 10
782.8877832237347
 20
1892.90541900048
 10
782.9349136135872
 20
1892.94254374126
 10
782.9834908978203
 20
1892.977754073297
 10
783.033437363142
 20
1893.01099366757
 10
783.0846731058624
 20
1893.042209347821
 10
783.1371161597228
 20
1893.071351175618
 10
783.1906826270246
 20
1893.098372530255
 10
783.2452868128465
 20
1893.123230183329
 10
783.3008413621397
 20
1893.145884367896
 10
783.3572573994764
 20
1893.166298842095
 10
783.4144446712318
 20
1893.184440947121
 10
783.47231168997
 20
1893.200281659478
 10
783.5307658808057
 20
1893.213795637403
 10
783.5897137295027
 20
1893.224961261415
 10
783.6490609320783
 20
1893.233760668897
 10
783.7087125456684
 20
1893.240179782676
 10
783.7685731404162
 20
1893.244208333537
 10
783.8285469521395
 20
1893.24583987666
 10
783.839343185718
 20
1893.245878730049
  0
LINE
  5
113
330
FE
100
AcDbEntity
  8
P-SANR-FIXT
100
AcDbLine
 10
779.6664074431714
 20
1887.745878730093
 30
0.0
 11
761.3097831161685
 21
1887.745878730093
 31
0.0
  0
LINE
  5
114
330
FE
100
AcDbEntity
  8
P-SANR-FIXT
100
AcDbLine
 10
761.3097831161685
 20
1814.7458787301
 30
0.0
 11
779.6664074431714
 21
1814.7458787301
 31
0.0
  0
LINE
  5
115
330
FE
100
AcDbEntity
  8
P-SANR-FIXT
100
AcDbLine
 10
761.3097831161877
 20
1887.745878730082
 30
0.0
 11
759.8664074431718
 21
1885.245878730009
 31
0.0
  0
LINE
  5
116
330
FE
100
AcDbEntity
  8
P-SANR-FIXT
100
AcDbLine
 10
759.8664074431714
 20
1817.245878730096
 30
0.0
 11
761.3097831161499
 21
1814.745878730089
 31
0.0
  0
LWPOLYLINE
  5
117
330
FE
100
AcDbEntity
  8
P-SANR-FIXT
100
AcDbPolyline
 90
       13
 70
   128
 43
0.0
 10
780.2978860793976
 20
1813.879862371029
 10
780.2565112893069
 20
1813.948326036262
 10
780.2124317782469
 20
1814.015080387557
 10
780.1657180640317
 20
1814.080018632193
 10
780.1164448786391
 20
1814.143036882831
 10
780.0646910486546
 20
1814.204034323713
 10
780.0105393691661
 20
1814.262913371945
 10
779.954076471309
 20
1814.319579833611
 10
779.8953926836751
 20
1814.37394305446
 10
779.834581887806
 20
1814.425916064936
 10
779.7717413680027
 20
1814.475415719309
 10
779.706971655692
 20
1814.522362828691
 10
779.6664074431714
 20
1814.549814734321
  0
LINE
  5
118
330
FE
100
AcDbEntity
  8
P-SANR-FIXT
100
AcDbLine
 10
780.2978860793976
 20
1813.879862371029
 30
0.0
 11
782.5403050800412
 21
1809.995878730056
 31
0.0
  0
LINE
  5
119
330
FE
100
AcDbEntity
  8
P-SANR-FIXT
100
AcDbLine
 10
782.5403050800412
 20
1892.49587873005
 30
0.0
 11
780.2978860793976
 21
1888.611895089076
 31
0.0
  0
LWPOLYLINE
  5
11A
330
FE
100
AcDbEntity
  8
P-SANR-FIXT
100
AcDbPolyline
 90
       28
 70
   128
 43
0.0
 10
783.839343185718
 20
1809.245878730056
 10
783.779359184438
 20
1809.247078570064
 10
783.7194711447643
 20
1809.250676170602
 10
783.6597748747846
 20
1809.256665776275
 10
783.6003658757966
 20
1809.265037804992
 10
783.5413391895254
 20
1809.275778863294
 10
783.4827892460772
 20
1809.288871767778
 10
783.4248097128719
 20
1809.304295572589
 10
783.3674933447937
 20
1809.322025602932
 10
783.3109318358054
 20
1809.342033494539
 10
783.2552156722551
 20
1809.364287239052
 10
783.2004339881189
 20
1809.388751235226
 10
783.1466744224058
 20
1809.415386345887
 10
783.0940229789523
 20
1809.444149960539
 10
783.0425638888367
 20
1809.474996063536
 10
782.9923794756255
 20
1809.507875307691
 10
782.9435500236743
 20
1809.542735093229
 10
782.8961536496903
 20
1809.579519651929
 10
782.8502661777608
 20
1809.618170136344
 10
782.8059610180521
 20
1809.658624713944
 10
782.7633090493685
 20
1809.700818666035
 10
782.7223785057618
 20
1809.744684491294
 10
782.6832348673696
 20
1809.790152013758
 10
782.6459407556634
 20
1809.83714849509
 10
782.6105558332665
 20
1809.885598750947
 10
782.5771367085061
 20
1809.935425271254
 10
782.5457368448529
 20
1809.986548344207
 10
782.5403050800412
 20
1809.995878730056
  0
LINE
  5
11B
330
FE
100
AcDbEntity
  8
P-SANR-FIXT
100
AcDbLine
 10
783.839343185718
 20
1809.245878730056
 30
0.0
 11
786.1664074431708
 21
1809.245878730056
 31
0.0
  0
LINE
  5
11C
330
FE
100
AcDbEntity
  8
P-SANR-FIXT
100
AcDbLine
 10
786.1664074431708
 20
1893.245878730049
 30
0.0
 11
783.839343185718
 21
1893.245878730049
 31
0.0
  0
LINE
  5
11D
330
FE
100
AcDbEntity
  8
P-SANR-FIXT
100
AcDbLine
 10
779.6664074431699
 20
1887.941942725783
 30
0.0
 11
779.6664074431699
 21
1851.245878730052
 31
0.0
  0
LINE
  5
11E
330
FE
100
AcDbEntity
  8
P-SANR-FIXT
100
AcDbLine
 10
759.86640744317
 20
1817.245878730096
 30
0.0
 11
759.86640744317
 21
1821.801015001419
 31
0.0
  0
LINE
  5
11F
330
FE
100
AcDbEntity
  8
P-SANR-FIXT
100
AcDbLine
 10
759.86640744317
 20
1821.801015001419
 30
0.0
 11
759.8664074431701
 21
1851.245878730051
 31
0.0
  0
LINE
  5
120
330
FE
100
AcDbEntity
  8
P-SANR-FIXT
100
AcDbLine
 10
759.8664074431701
 20
1851.245878730052
 30
0.0
 11
759.8664074431701
 21
1880.690742458685
 31
0.0
  0
LINE
  5
121
330
FE
100
AcDbEntity
  8
P-SANR-FIXT
100
AcDbLine
 10
759.8664074431701
 20
1880.690742458684
 30
0.0
 11
759.8664074431702
 21
1885.245878730008
 31
0.0
  0
LINE
  5
122
330
FE
100
AcDbEntity
  8
P-SANR-FIXT
100
AcDbLine
 10
761.3097831161829
 20
1874.052783435096
 30
0.0
 11
779.6664074431699
 21
1874.052783435096
 31
0.0
  0
SPLINE
  5
123
330
FE
100
AcDbEntity
  8
P-SANR-FIXT
100
AcDbSpline
210
0.0
220
0.0
230
1.0
 70
     8
 71
     3
 72
     9
 73
     5
 74
     0
 42
0.000000001
 43
0.0000000001
 40
0.0
 40
0.0
 40
0.0
 40
0.0
 40
0.5
 40
1.0
 40
1.0
 40
1.0
 40
1.0
 10
761.3097831161923
 20
1887.328701482437
 30
0.0
 10
760.8378917851738
 20
1886.234644762382
 30
0.0
 10
760.125437841985
 20
1884.034261538381
 30
0.0
 10
759.8756413364924
 20
1881.809338746595
 30
0.0
 10
759.8664074431701
 20
1880.690742458756
 30
0.0
  0
SPLINE
  5
124
330
FE
100
AcDbEntity
  8
P-SANR-FIXT
100
AcDbSpline
210
0.0
220
0.0
230
1.0
 70
     8
 71
     3
 72
     9
 73
     5
 74
     0
 42
0.000000001
 43
0.0000000001
 40
0.0
 40
0.0
 40
0.0
 40
0.0
 40
0.5
 40
1.0
 40
1.0
 40
1.0
 40
1.0
 10
759.8664074431701
 20
1880.690742458756
 30
0.0
 10
759.8756413364923
 20
1879.57214617092
 30
0.0
 10
760.125437841983
 20
1877.347223379141
 30
0.0
 10
760.8378917851674
 20
1875.146840155147
 30
0.0
 10
761.3097831161829
 20
1874.052783435096
 30
0.0
  0
LINE
  5
125
330
FE
100
AcDbEntity
  8
P-SANR-FIXT
100
AcDbLine
 10
779.6664074431699
 20
1887.328701482437
 30
0.0
 11
761.3097831161923
 21
1887.328701482437
 31
0.0
  0
LINE
  5
126
330
FE
100
AcDbEntity
  8
P-SANR-FIXT
100
AcDbLine
 10
761.3097831161671
 20
1887.745878730092
 30
0.0
 11
761.3097831161671
 21
1887.328701482437
 31
0.0
  0
LINE
  5
127
330
FE
100
AcDbEntity
  8
P-SANR-FIXT
100
AcDbLine
 10
761.3097831161671
 20
1815.163055977754
 30
0.0
 11
761.3097831161671
 21
1814.7458787301
 31
0.0
  0
LINE
  5
128
330
FE
100
AcDbEntity
  8
P-SANR-FIXT
100
AcDbLine
 10
779.6664074431699
 20
1815.163055977754
 30
0.0
 11
761.3097831161422
 21
1815.163055977754
 31
0.0
  0
SPLINE
  5
129
330
FE
100
AcDbEntity
  8
P-SANR-FIXT
100
AcDbSpline
210
0.0
220
0.0
230
1.0
 70
     8
 71
     3
 72
     9
 73
     5
 74
     0
 42
0.000000001
 43
0.0000000001
 40
0.0
 40
0.0
 40
0.0
 40
0.0
 40
0.5
 40
1.0
 40
1.0
 40
1.0
 40
1.0
 10
761.3097831161512
 20
1828.438974025095
 30
0.0
 10
760.8378917851244
 20
1827.344917305041
 30
0.0
 10
760.1254378419342
 20
1825.14453408104
 30
0.0
 10
759.8756413364704
 20
1822.919611289253
 30
0.0
 10
759.8664074431701
 20
1821.801015001414
 30
0.0
  0
SPLINE
  5
12A
330
FE
100
AcDbEntity
  8
P-SANR-FIXT
100
AcDbSpline
210
0.0
220
0.0
230
1.0
 70
     8
 71
     3
 72
     9
 73
     5
 74
     0
 42
0.000000001
 43
0.0000000001
 40
0.0
 40
0.0
 40
0.0
 40
0.0
 40
0.5
 40
1.0
 40
1.0
 40
1.0
 40
1.0
 10
759.8664074431701
 20
1821.801015001414
 30
0.0
 10
759.8756413364704
 20
1820.682418713578
 30
0.0
 10
760.1254378419325
 20
1818.457495921798
 30
0.0
 10
760.8378917851182
 20
1816.257112697805
 30
0.0
 10
761.3097831161422
 20
1815.163055977754
 30
0.0
  0
LINE
  5
12B
330
FE
100
AcDbEntity
  8
P-SANR-FIXT
100
AcDbLine
 10
779.6664074431699
 20
1828.438974025095
 30
0.0
 11
761.3097831161512
 21
1828.438974025095
 31
0.0
  0
LINE
  5
12C
330
FE
100
AcDbEntity
  8
P-SANR-FIXT
100
AcDbLine
 10
761.3097831161671
 20
1837.969960682755
 30
0.0
 11
761.3097831161671
 21
1828.438974025095
 31
0.0
  0
LINE
  5
12D
330
FE
100
AcDbEntity
  8
P-SANR-FIXT
100
AcDbLine
 10
779.6664074431699
 20
1837.969960682754
 30
0.0
 11
761.3097831161578
 21
1837.969960682754
 31
0.0
  0
SPLINE
  5
12E
330
FE
100
AcDbEntity
  8
P-SANR-FIXT
100
AcDbSpline
210
0.0
220
0.0
230
1.0
 70
     8
 71
     3
 72
     9
 73
     5
 74
     0
 42
0.000000001
 43
0.0000000001
 40
0.0
 40
0.0
 40
0.0
 40
0.0
 40
0.5
 40
1.0
 40
1.0
 40
1.0
 40
1.0
 10
761.3097831161764
 20
1864.521796777436
 30
0.0
 10
760.8378917851522
 20
1862.333683337324
 30
0.0
 10
760.1254378419604
 20
1857.932916889314
 30
0.0
 10
759.8756413364814
 20
1853.483071305734
 30
0.0
 10
759.8664074431701
 20
1851.245878730051
 30
0.0
  0
SPLINE
  5
12F
330
FE
100
AcDbEntity
  8
P-SANR-FIXT
100
AcDbSpline
210
0.0
220
0.0
230
1.0
 70
     8
 71
     3
 72
     9
 73
     5
 74
     0
 42
0.000000001
 43
0.0000000001
 40
0.0
 40
0.0
 40
0.0
 40
0.0
 40
0.5
 40
1.0
 40
1.0
 40
1.0
 40
1.0
 10
759.8664074431701
 20
1851.245878730051
 30
0.0
 10
759.8756413364811
 20
1849.008686154384
 30
0.0
 10
760.1254378419568
 20
1844.558840570833
 30
0.0
 10
760.8378917851396
 20
1840.158074122853
 30
0.0
 10
761.3097831161578
 20
1837.969960682754
 30
0.0
  0
LINE
  5
130
330
FE
100
AcDbEntity
  8
P-SANR-FIXT
100
AcDbLine
 10
761.3097831161671
 20
1874.052783435096
 30
0.0
 11
761.3097831161671
 21
1864.521796777436
 31
0.0
  0
LINE
  5
131
330
FE
100
AcDbEntity
  8
P-SANR-FIXT
100
AcDbLine
 10
779.6664074431699
 20
1864.521796777436
 30
0.0
 11
761.3097831161764
 21
1864.521796777436
 31
0.0
  0
LINE
  5
132
330
FE
100
AcDbEntity
  8
P-SANR-FIXT
100
AcDbLine
 10
779.6664074431699
 20
1814.54981473432
 30
0.0
 11
779.6664074431699
 21
1851.245878730052
 31
0.0
  0
LINE
  5
133
330
FE
100
AcDbEntity
  8
P-SANR-FIXT
100
AcDbLine
 10
786.1664074431708
 20
1806.995878730052
 30
0.0
 11
815.6664074431709
 21
1806.995878730052
 31
0.0
  0
LINE
  5
134
330
FE
100
AcDbEntity
  8
P-SANR-FIXT
100
AcDbLine
 10
815.6664074431709
 20
1895.495878730052
 30
0.0
 11
786.1664074431708
 21
1895.495878730052
 31
0.0
  0
LINE
  5
135
330
FE
100
AcDbEntity
  8
P-SANR-FIXT
100
AcDbLine
 10
786.1664074431695
 20
1806.995878730052
 30
0.0
 11
786.1664074431695
 21
1851.245878730052
 31
0.0
  0
LINE
  5
136
330
FE
100
AcDbEntity
  8
P-SANR-FIXT
100
AcDbLine
 10
786.1664074431695
 20
1851.245878730052
 30
0.0
 11
786.1664074431695
 21
1895.495878730052
 31
0.0
  0
LINE
  5
137
330
FE
100
AcDbEntity
  8
P-SANR-FIXT
100
AcDbLine
 10
815.6664074431693
 20
1831.244591965097
 30
0.0
 11
815.6664074431693
 21
1806.995878730052
 31
0.0
  0
LINE
  5
138
330
FE
100
AcDbEntity
  8
P-SANR-FIXT
100
AcDbLine
 10
815.6664074431693
 20
1895.495878730052
 30
0.0
 11
815.6664074431693
 21
1871.247165495007
 31
0.0
  0
LINE
  5
139
330
FE
100
AcDbEntity
  8
P-SANR-FIXT
100
AcDbLine
 10
840.1909809626465
 20
1809.245878730052
 30
0.0
 11
843.3664074431892
 21
1814.745878730052
 31
0.0
  0
LINE
  5
13A
330
FE
100
AcDbEntity
  8
P-SANR-FIXT
100
AcDbLine
 10
843.3664074431892
 20
1887.745878730052
 30
0.0
 11
840.1909809626465
 21
1893.245878730052
 31
0.0
  0
LINE
  5
13B
330
FE
100
AcDbEntity
  8
P-SANR-FIXT
100
AcDbLine
 10
843.3664074431892
 20
1814.745878730052
 30
0.0
 11
851.3664074431895
 21
1814.745878730052
 31
0.0
  0
LINE
  5
13C
330
FE
100
AcDbEntity
  8
P-SANR-FIXT
100
AcDbLine
 10
851.3664074431895
 20
1887.745878730053
 30
0.0
 11
843.3664074431892
 21
1887.745878730053
 31
0.0
  0
LINE
  5
13D
330
FE
100
AcDbEntity
  8
P-SANR-FIXT
100
AcDbLine
 10
815.6664074431709
 20
1809.245878730052
 30
0.0
 11
840.1909809626465
 21
1809.245878730052
 31
0.0
  0
LINE
  5
13E
330
FE
100
AcDbEntity
  8
P-SANR-FIXT
100
AcDbLine
 10
840.1909809626465
 20
1893.245878730052
 30
0.0
 11
815.6664074431709
 21
1893.245878730052
 31
0.0
  0
LINE
  5
13F
330
FE
100
AcDbEntity
  8
P-SANR-FIXT
100
AcDbLine
 10
840.1909809626449
 20
1842.68814551807
 30
0.0
 11
840.1909809626449
 21
1809.245878730052
 31
0.0
  0
LINE
  5
140
330
FE
100
AcDbEntity
  8
P-SANR-FIXT
100
AcDbLine
 10
840.1909809626449
 20
1893.245878730051
 30
0.0
 11
840.1909809626449
 21
1859.803611942098
 31
0.0
  0
LINE
  5
141
330
FE
100
AcDbEntity
  8
P-SANR-FIXT
100
AcDbLine
 10
843.3664074431877
 20
1814.745878730052
 30
0.0
 11
843.3664074431877
 21
1842.689533763216
 31
0.0
  0
LINE
  5
142
330
FE
100
AcDbEntity
  8
P-SANR-FIXT
100
AcDbLine
 10
851.3664074431877
 20
1814.777097387828
 30
0.0
 11
851.3664074431877
 21
1817.245878730052
 31
0.0
  0
LINE
  5
143
330
FE
100
AcDbEntity
  8
P-SANR-FIXT
100
AcDbLine
 10
851.3664074431877
 20
1817.245878730052
 30
0.0
 11
869.9230317702136
 21
1817.245878730052
 31
0.0
  0
LINE
  5
144
330
FE
100
AcDbEntity
  8
P-SANR-FIXT
100
AcDbLine
 10
869.9230317702136
 20
1817.245878730052
 30
0.0
 11
869.9230317702136
 21
1822.748596442484
 31
0.0
  0
LINE
  5
145
330
FE
100
AcDbEntity
  8
P-SANR-FIXT
100
AcDbLine
 10
869.9230317702136
 20
1822.748596442485
 30
0.0
 11
851.3664074431877
 21
1822.748596442485
 31
0.0
  0
LINE
  5
146
330
FE
100
AcDbEntity
  8
P-SANR-FIXT
100
AcDbLine
 10
851.3664074431877
 20
1822.748596442484
 30
0.0
 11
851.3664074431877
 21
1842.69496321318
 31
0.0
  0
LINE
  5
147
330
FE
100
AcDbEntity
  8
P-SANR-FIXT
100
AcDbLine
 10
843.3664074431877
 20
1859.80222369695
 30
0.0
 11
843.3664074431877
 21
1887.745878730052
 31
0.0
  0
LINE
  5
148
330
FE
100
AcDbEntity
  8
P-SANR-FIXT
100
AcDbLine
 10
851.3664074431877
 20
1859.796794246988
 30
0.0
 11
851.3664074431877
 21
1879.743161017619
 31
0.0
  0
LINE
  5
149
330
FE
100
AcDbEntity
  8
P-SANR-FIXT
100
AcDbLine
 10
851.3664074431877
 20
1879.743161017619
 30
0.0
 11
869.9230317702136
 21
1879.743161017619
 31
0.0
  0
LINE
  5
14A
330
FE
100
AcDbEntity
  8
P-SANR-FIXT
100
AcDbLine
 10
869.9230317702136
 20
1879.743161017619
 30
0.0
 11
869.9230317702136
 21
1885.245878730052
 31
0.0
  0
LINE
  5
14B
330
FE
100
AcDbEntity
  8
P-SANR-FIXT
100
AcDbLine
 10
869.9230317702136
 20
1885.245878730052
 30
0.0
 11
851.3664074431877
 21
1885.245878730052
 31
0.0
  0
LINE
  5
14C
330
FE
100
AcDbEntity
  8
P-SANR-FIXT
100
AcDbLine
 10
851.3664074431877
 20
1885.245878730052
 30
0.0
 11
851.3664074431877
 21
1887.714660072275
 31
0.0
  0
LINE
  5
14D
330
FE
100
AcDbEntity
  8
P-SANR-FIXT
100
AcDbLine
 10
871.3664074431878
 20
1842.693550406312
 30
0.0
 11
871.3664074431878
 21
1834.245878730052
 31
0.0
  0
LINE
  5
14E
330
FE
100
AcDbEntity
  8
P-SANR-FIXT
100
AcDbLine
 10
871.3664074431878
 20
1834.245878730052
 30
0.0
 11
871.3664074431878
 21
1817.245878730052
 31
0.0
  0
LINE
  5
14F
330
FE
100
AcDbEntity
  8
P-SANR-FIXT
100
AcDbLine
 10
871.3664074431878
 20
1868.245878730052
 30
0.0
 11
871.3664074431878
 21
1859.798207053855
 31
0.0
  0
LINE
  5
150
330
FE
100
AcDbEntity
  8
P-SANR-FIXT
100
AcDbLine
 10
871.3664074431878
 20
1885.245878730052
 30
0.0
 11
871.3664074431878
 21
1868.245878730052
 31
0.0
  0
SPLINE
  5
151
330
FE
100
AcDbEntity
  8
P-SANR-FIXT
100
AcDbSpline
210
0.0
220
0.0
230
1.0
 70
     8
 71
     3
 72
     9
 73
     5
 74
     0
 42
0.000000001
 43
0.0000000001
 40
0.0
 40
0.0
 40
0.0
 40
0.0
 40
0.5
 40
1.0
 40
1.0
 40
1.0
 40
1.0
 10
869.9230317702136
 20
1822.748596442485
 30
0.0
 10
870.3949231012398
 20
1824.643558267979
 30
0.0
 10
871.1073770444283
 20
1828.454733808068
 30
0.0
 10
871.3571735498891
 20
1832.308413126357
 30
0.0
 10
871.3664074431878
 20
1834.245878730052
 30
0.0
  0
SPLINE
  5
152
330
FE
100
AcDbEntity
  8
P-SANR-FIXT
100
AcDbSpline
210
0.0
220
0.0
230
1.0
 70
     8
 71
     3
 72
     9
 73
     5
 74
     0
 42
0.000000001
 43
0.0000000001
 40
0.0
 40
0.0
 40
0.0
 40
0.0
 40
0.5
 40
0.733478358097711
 40
0.733478358097711
 40
0.733478358097711
 40
0.733478358097711
 10
871.3664074431878
 20
1834.245878730052
 30
0.0
 10
871.3571735498891
 20
1836.183344333747
 30
0.0
 10
871.1739532192051
 20
1839.00993471276
 30
0.0
 10
870.7418275814376
 20
1841.813658462812
 30
0.0
 10
870.5790543565644
 20
1842.703813382378
 30
0.0
  0
SPLINE
  5
153
330
FE
100
AcDbEntity
  8
P-SANR-FIXT
100
AcDbSpline
210
0.0
220
0.0
230
1.0
 70
    24
 71
     3
 72
     9
 73
     5
 74
     0
 42
0.000000001
 43
0.0000000001
 40
0.0
 40
0.0
 40
0.0
 40
0.0
 40
0.5
 40
1.0
 40
1.0
 40
1.0
 40
1.0
 10
871.3664074431878
 20
1817.245878730052
 30
0.0
 10
871.3571735498891
 20
1817.245878730052
 30
0.0
 10
871.1073770444281
 20
1817.245878730052
 30
0.0
 10
870.3949231012398
 20
1817.245878730052
 30
0.0
 10
869.9230317702136
 20
1817.245878730052
 30
0.0
  0
SPLINE
  5
154
330
FE
100
AcDbEntity
  8
P-SANR-FIXT
100
AcDbSpline
210
0.0
220
0.0
230
1.0
 70
    24
 71
     3
 72
     9
 73
     5
 74
     0
 42
0.000000001
 43
0.0000000001
 40
0.0
 40
0.0
 40
0.0
 40
0.0
 40
0.5
 40
1.0
 40
1.0
 40
1.0
 40
1.0
 10
869.9230317702136
 20
1885.245878730051
 30
0.0
 10
870.3949231012398
 20
1885.245878730052
 30
0.0
 10
871.1073770444281
 20
1885.245878730052
 30
0.0
 10
871.3571735498891
 20
1885.245878730052
 30
0.0
 10
871.3664074431878
 20
1885.245878730052
 30
0.0
  0
SPLINE
  5
155
330
FE
100
AcDbEntity
  8
P-SANR-FIXT
100
AcDbSpline
210
0.0
220
0.0
230
1.0
 70
     8
 71
     3
 72
     9
 73
     5
 74
     0
 42
0.000000001
 43
0.0000000001
 40
0.2665216419079011
 40
0.2665216419079011
 40
0.2665216419079011
 40
0.2665216419079011
 40
0.5
 40
1.0
 40
1.0
 40
1.0
 40
1.0
 10
870.5790543565761
 20
1859.78794407779
 30
0.0
 10
870.7418275814443
 20
1860.678098997334
 30
0.0
 10
871.1739532192066
 20
1863.481822747365
 30
0.0
 10
871.3571735498891
 20
1866.308413126357
 30
0.0
 10
871.3664074431878
 20
1868.245878730052
 30
0.0
  0
SPLINE
  5
156
330
FE
100
AcDbEntity
  8
P-SANR-FIXT
100
AcDbSpline
210
0.0
220
0.0
230
1.0
 70
     8
 71
     3
 72
     9
 73
     5
 74
     0
 42
0.000000001
 43
0.0000000001
 40
0.0
 40
0.0
 40
0.0
 40
0.0
 40
0.5
 40
1.0
 40
1.0
 40
1.0
 40
1.0
 10
871.3664074431878
 20
1868.245878730052
 30
0.0
 10
871.3571735498891
 20
1870.183344333746
 30
0.0
 10
871.1073770444281
 20
1874.037023652036
 30
0.0
 10
870.3949231012396
 20
1877.848199192125
 30
0.0
 10
869.9230317702136
 20
1879.743161017619
 30
0.0
  0
ARC
  5
157
330
FE
100
AcDbEntity
  8
P-SANR-FIXT
100
AcDbCircle
 10
815.6664074431878
 20
1851.245878730052
 30
0.0
 40
10.0
100
AcDbArc
 50
180.0
 51
0.0
  0
ARC
  5
158
330
FE
100
AcDbEntity
  8
P-SANR-FIXT
100
AcDbCircle
 10
815.6664074431878
 20
1851.245878730052
 30
0.0
 40
10.0
100
AcDbArc
 50
0.0
 51
180.0
  0
ENDBLK
  5
15A
330
FE
100
AcDbEntity
  8
0
100
AcDbBlockEnd
  0
BLOCK
  5
1B4
330
15C
100
AcDbEntity
  8
0
100
AcDbBlockBegin
  2
Automatic flow rate regulator valve_Caleffi_121 DN15 - 1_2__-V2-Est - Idraulica
 70
     0
 10
0.0
 20
0.0
 30
0.0
  3
Automatic flow rate regulator valve_Caleffi_121 DN15 - 1_2__-V2-Est - Idraulica
  1

  0
LWPOLYLINE
  5
15D
330
15C
100
AcDbEntity
  8
M-PIPE
100
AcDbPolyline
 90
       28
 70
   128
 43
0.0
 10
1109.614353943098
 20
2094.159881897562
 10
1110.020245685093
 20
2094.151762980172
 10
1110.425488086885
 20
2094.127419216534
 10
1110.829432847081
 20
2094.086889551479
 10
1111.231433740233
 20
2094.030238823825
 10
1111.630847650669
 20
2093.957557662651
 10
1112.027035601334
 20
2093.86896234231
 10
1112.419363776024
 20
2093.764594596416
 10
1112.807204533352
 20
2093.644621391099
 10
1113.18993741084
 20
2093.509234657894
 10
1113.566950117531
 20
2093.358650986691
 10
1113.937639513518
 20
2093.193111279245
 10
1114.301412574845
 20
2093.012880363772
 10
1114.657687342212
 20
2092.81824657129
 10
1115.005893851995
 20
2092.609521274349
 10
1115.345475048058
 20
2092.387038388896
 10
1115.675887672927
 20
2092.151153840088
 10
1115.996603136886
 20
2091.902244992884
 10
1116.307108363609
 20
2091.640710048343
 10
1116.606906610971
 20
2091.366967406583
 10
1116.895518265728
 20
2091.081454997436
 10
1117.172481610803
 20
2090.784629579852
 10
1117.437353563923
 20
2090.476966011178
 10
1117.689710386468
 20
2090.158956487494
 10
1117.929148361354
 20
2089.831109756198
 10
1118.155284438899
 20
2089.493950302124
 10
1118.367756849618
 20
2089.148017508475
 10
1118.460480653689
 20
2088.982558850012
1001
REVIT
1002
{
1070
     3
1000
856288
1002
}
  0
LWPOLYLINE
  5
15E
330
15C
100
AcDbEntity
  8
M-PIPE
100
AcDbPolyline
 90
        7
 70
   128
 43
0.0
 10
1119.614353943098
 20
2085.747032919778
 10
1119.616668702481
 20
2085.735048398
 10
1119.677656177244
 20
2085.333682541255
 10
1119.722544515155
 20
2084.930198885875
 10
1119.751261904451
 20
2084.525242919638
 10
1119.763762403433
 20
2084.119462485704
 10
1119.762753831032
 20
2084.009881897562
1001
REVIT
1002
{
1070
     3
1000
856288
1002
}
  0
LINE
  5
15F
330
15C
100
AcDbEntity
  8
M-PIPE
100
AcDbLine
 10
1109.614353943098
 20
2094.159881897562
 30
0.0
 11
1109.614353943098
 21
2094.048653786735
 31
0.0
1001
REVIT
1002
{
1070
     3
1000
856288
1002
}
  0
LWPOLYLINE
  5
160
330
15C
100
AcDbEntity
  8
M-PIPE
100
AcDbPolyline
 90
        6
 70
   128
 43
0.0
 10
1099.465954055165
 20
2084.009881897561
 10
1099.468681872227
 20
2084.30625704892
 10
1099.488649172709
 20
2084.711738651401
 10
1099.524815440788
 20
2085.116097432797
 10
1099.577122818151
 20
2085.518686505317
 10
1099.614353943098
 20
2085.736619938139
1001
REVIT
1002
{
1070
     3
1000
856288
1002
}
  0
LWPOLYLINE
  5
161
330
15C
100
AcDbEntity
  8
M-PIPE
100
AcDbPolyline
 90
       28
 70
   128
 43
0.0
 10
1100.766519600848
 20
2088.982558850012
 10
1100.957008055337
 20
2089.308264875382
 10
1101.175811816195
 20
2089.650228232006
 10
1101.40811544433
 20
2089.983168237704
 10
1101.653547303492
 20
2090.306552259491
 10
1101.911714755062
 20
2090.619862951917
 10
1102.182204786191
 20
2090.92259908471
 10
1102.464584670531
 20
2091.214276344638
 10
1102.758402660504
 20
2091.494428110306
 10
1103.063188710005
 20
2091.762606198652
 10
1103.378455226371
 20
2092.018381581942
 10
1103.703697850429
 20
2092.261345074126
 10
1104.038396263363
 20
2092.491107985446
 10
1104.382015019111
 20
2092.707302744257
 10
1104.734004400964
 20
2092.909583485064
 10
1105.093801300998
 20
2093.097626601833
 10
1105.460830120928
 20
2093.271131265691
 10
1105.834503692934
 20
2093.429819906187
 10
1106.214224219016
 20
2093.573438655349
 10
1106.599384227334
 20
2093.701757753815
 10
1106.989367544038
 20
2093.814571918402
 10
1107.383550279013
 20
2093.911700670511
 10
1107.781301823972
 20
2093.992988624858
 10
1108.181985861291
 20
2094.058305738057
 10
1108.584961381985
 20
2094.107547516661
 10
1108.989583711185
 20
2094.140635184328
 10
1109.395205539478
 20
2094.157515807848
 10
1109.614353943098
 20
2094.159881897562
1001
REVIT
1002
{
1070
     3
1000
856288
1002
}
  0
LINE
  5
162
330
15C
100
AcDbEntity
  8
M-PIPE
100
AcDbLine
 10
1109.614353943098
 20
2094.159881897562
 30
0.0
 11
1109.614353943098
 21
2094.055753268806
 31
0.0
1001
REVIT
1002
{
1070
     3
1000
856288
1002
}
  0
LINE
  5
163
330
15C
100
AcDbEntity
  8
M-PIPE
100
AcDbLine
 10
1129.614353943098
 20
2062.809881897545
 30
0.0
 11
1129.614353943098
 21
2073.823307522034
 31
0.0
1001
REVIT
1002
{
1070
     3
1000
856288
1002
}
  0
LINE
  5
164
330
15C
100
AcDbEntity
  8
M-PIPE
100
AcDbLine
 10
1089.614353943098
 20
2073.823307522033
 30
0.0
 11
1089.614353943098
 21
2062.809881897544
 31
0.0
1001
REVIT
1002
{
1070
     3
1000
856288
1002
}
  0
LINE
  5
165
330
15C
100
AcDbEntity
  8
M-PIPE
100
AcDbLine
 10
1129.614353943098
 20
2073.823307522034
 30
0.0
 11
1126.864353943098
 21
2075.411020762305
 31
0.0
1001
REVIT
1002
{
1070
     3
1000
856288
1002
}
  0
LINE
  5
166
330
15C
100
AcDbEntity
  8
M-PIPE
100
AcDbLine
 10
1092.364353943098
 20
2075.411020762305
 30
0.0
 11
1089.614353943098
 21
2073.823307522033
 31
0.0
1001
REVIT
1002
{
1070
     3
1000
856288
1002
}
  0
LINE
  5
167
330
15C
100
AcDbEntity
  8
M-PIPE
100
AcDbLine
 10
1126.864353943098
 20
2075.411020762305
 30
0.0
 11
1123.214353943098
 21
2084.009881897562
 31
0.0
1001
REVIT
1002
{
1070
     3
1000
856288
1002
}
  0
LINE
  5
168
330
15C
100
AcDbEntity
  8
M-PIPE
100
AcDbLine
 10
1096.014353943098
 20
2084.009881897561
 30
0.0
 11
1092.364353943098
 21
2075.411020762305
 31
0.0
1001
REVIT
1002
{
1070
     3
1000
856288
1002
}
  0
LINE
  5
169
330
15C
100
AcDbEntity
  8
M-PIPE
100
AcDbLine
 10
1129.348524814962
 20
2053.209881897561
 30
0.0
 11
1125.791111961914
 21
2053.209881897561
 31
0.0
1001
REVIT
1002
{
1070
     3
1000
856288
1002
}
  0
LINE
  5
16A
330
15C
100
AcDbEntity
  8
M-PIPE
100
AcDbLine
 10
1125.791111961914
 20
2053.209881897561
 30
0.0
 11
1124.11889274405
 21
2053.209881897561
 31
0.0
1001
REVIT
1002
{
1070
     3
1000
856288
1002
}
  0
LINE
  5
16B
330
15C
100
AcDbEntity
  8
M-PIPE
100
AcDbLine
 10
1109.614353943097
 20
2062.809881897543
 30
0.0
 11
1129.614353943096
 21
2062.809881897544
 31
0.0
1001
REVIT
1002
{
1070
     3
1000
856288
1002
}
  0
LINE
  5
16C
330
15C
100
AcDbEntity
  8
M-PIPE
100
AcDbLine
 10
1129.348524814962
 20
2062.809881897544
 30
0.0
 11
1129.348524814962
 21
2053.209881897561
 31
0.0
1001
REVIT
1002
{
1070
     3
1000
856288
1002
}
  0
LINE
  5
16D
330
15C
100
AcDbEntity
  8
M-PIPE
100
AcDbLine
 10
1089.614390844373
 20
2062.809881897543
 30
0.0
 11
1089.880183071237
 21
2062.809881897543
 31
0.0
1001
REVIT
1002
{
1070
     3
1000
856288
1002
}
  0
LINE
  5
16E
330
15C
100
AcDbEntity
  8
M-PIPE
100
AcDbLine
 10
1089.880183071237
 20
2062.809881897544
 30
0.0
 11
1089.880183071237
 21
2053.20988189756
 31
0.0
1001
REVIT
1002
{
1070
     3
1000
856288
1002
}
  0
LINE
  5
16F
330
15C
100
AcDbEntity
  8
M-PIPE
100
AcDbLine
 10
1106.364353943104
 20
2053.20988189756
 30
0.0
 11
1089.880183071237
 21
2053.20988189756
 31
0.0
1001
REVIT
1002
{
1070
     3
1000
856288
1002
}
  0
LINE
  5
170
330
15C
100
AcDbEntity
  8
M-PIPE
100
AcDbLine
 10
1106.364353943104
 20
2053.20988189756
 30
0.0
 11
1106.364353943104
 21
2062.809881897543
 31
0.0
1001
REVIT
1002
{
1070
     3
1000
856288
1002
}
  0
LINE
  5
171
330
15C
100
AcDbEntity
  8
M-PIPE
100
AcDbLine
 10
1106.364353943104
 20
2062.809881897543
 30
0.0
 11
1109.614353943096
 21
2062.809881897544
 31
0.0
1001
REVIT
1002
{
1070
     3
1000
856288
1002
}
  0
LINE
  5
172
330
15C
100
AcDbEntity
  8
M-PIPE
100
AcDbLine
 10
1129.603954360099
 20
2073.823307522033
 30
0.0
 11
1109.614353943097
 21
2073.823307522033
 31
0.0
1001
REVIT
1002
{
1070
     3
1000
856288
1002
}
  0
LINE
  5
173
330
15C
100
AcDbEntity
  8
M-PIPE
100
AcDbLine
 10
1109.614353943096
 20
2073.823307522033
 30
0.0
 11
1089.624753526092
 21
2073.823307522033
 31
0.0
1001
REVIT
1002
{
1070
     3
1000
856288
1002
}
  0
LINE
  5
174
330
15C
100
AcDbEntity
  8
M-PIPE
100
AcDbLine
 10
1126.859315687968
 20
2075.411020762304
 30
0.0
 11
1109.614353943097
 21
2075.411020762304
 31
0.0
1001
REVIT
1002
{
1070
     3
1000
856288
1002
}
  0
LINE
  5
175
330
15C
100
AcDbEntity
  8
M-PIPE
100
AcDbLine
 10
1109.614353943096
 20
2075.411020762304
 30
0.0
 11
1092.369392198227
 21
2075.411020762304
 31
0.0
1001
REVIT
1002
{
1070
     3
1000
856288
1002
}
  0
LINE
  5
176
330
15C
100
AcDbEntity
  8
M-PIPE
100
AcDbLine
 10
1123.214353943096
 20
2084.009881897561
 30
0.0
 11
1109.614353943096
 21
2084.00988189756
 31
0.0
1001
REVIT
1002
{
1070
     3
1000
856288
1002
}
  0
LINE
  5
177
330
15C
100
AcDbEntity
  8
M-PIPE
100
AcDbLine
 10
1109.614353943096
 20
2084.00988189756
 30
0.0
 11
1096.014353943096
 21
2084.00988189756
 31
0.0
1001
REVIT
1002
{
1070
     3
1000
856288
1002
}
  0
LINE
  5
178
330
15C
100
AcDbEntity
  8
M-PIPE
100
AcDbLine
 10
1125.791111961914
 20
2062.809881897544
 30
0.0
 11
1125.791111961914
 21
2053.209881897544
 31
0.0
1001
REVIT
1002
{
1070
     3
1000
856288
1002
}
  0
LWPOLYLINE
  5
179
330
15C
100
AcDbEntity
  8
P-SANR-FIXT
100
AcDbPolyline
 90
       80
 70
   128
 43
0.0
 10
1109.614353943098
 20
2041.982558850008
 10
1107.934801907259
 20
2041.948963329769
 10
1106.257936796392
 20
2041.848230514718
 10
1104.586441236963
 20
2041.680521555871
 10
1102.9229892653
 20
2041.446104751785
 10
1101.270242049706
 20
2041.145355119341
 10
1099.630843633159
 20
2040.778753793794
 10
1098.007416703406
 20
2040.346887259061
 10
1096.402558397222
 20
2039.850446409471
 10
1094.818836145545
 20
2039.290225444482
 10
1093.258783566136
 20
2038.66712059813
 10
1091.724896410327
 20
2037.982128705247
 10
1090.219628570357
 20
2037.236345606739
 10
1088.745388153662
 20
2036.43096439647
 10
1087.304533630423
 20
2035.567273512572
 10
1085.899370060508
 20
2034.646654676215
 10
1084.532145405879
 20
2033.670580681149
 10
1083.205046934324
 20
2032.640613037548
 10
1081.920197720298
 20
2031.558399473927
 10
1080.679653248457
 20
2030.425671301127
 10
1079.48539812532
 20
2029.24424064259
 10
1078.339342904324
 20
2028.015997535344
 10
1077.243321029344
 20
2026.74290690635
 10
1076.199085901573
 20
2025.427005429035
 10
1075.208308074458
 20
2024.070398265052
 10
1074.272572581169
 20
2022.675255696471
 10
1073.39337639888
 20
2021.243809653787
 10
1072.572126053933
 20
2019.778350145307
 10
1071.810135371688
 20
2018.281221593632
 10
1071.108623374686
 20
2016.754819085074
 10
1070.468712332477
 20
2015.201584538031
 10
1069.89142596622
 20
2013.624002796439
 10
1069.377687810953
 20
2012.024597654552
 10
1068.928319738134
 20
2010.405927819411
 10
1068.544040640818
 20
2008.77058281745
 10
1068.225465283586
 20
2007.121178851821
 10
1067.97310331905
 20
2005.460354617013
 10
1067.78735847252
 20
2003.790767077512
 10
1067.668527896127
 20
2002.115087217221
 10
1067.616801693442
 20
2000.435995766459
 10
1067.632262615358
 20
1998.756178913357
 10
1067.714885927696
 20
1997.078324006541
 10
1067.864539450782
 20
1995.405115255937
 10
1068.080983770904
 20
1993.739229438614
 10
1068.363872623321
 20
1992.083331616511
 10
1068.712753446217
 20
1990.440070872902
 10
1069.127068104698
 20
1988.812076074435
 10
1069.606153783694
 20
1987.201951665499
 10
1070.149244048317
 20
1985.612273501675
 10
1070.755470069998
 20
1984.04558472891
 10
1071.423862016422
 20
1982.504391715032
 10
1072.153350603059
 20
1980.991160040094
 10
1072.942768803785
 20
1979.50831055197
 10
1073.79085371788
 20
1978.058215493516
 10
1074.696248590396
 20
1976.643194707487
 10
1075.657504982678
 20
1975.265511925288
 10
1076.673085089555
 20
1973.927371145481
 10
1077.741364199502
 20
1972.630913107856
 10
1078.86063329383
 20
1971.378211868713
 10
1080.029101780753
 20
1970.171271482804
 10
1081.244900359952
 20
1969.012022797281
 10
1082.506084013057
 20
1967.902320362747
 10
1083.81063511526
 20
1966.843939466374
 10
1085.156466663089
 20
1965.838573291819
 10
1086.541425613161
 20
1964.887830210495
 10
1087.963296326599
 20
1963.993231208518
 10
1089.419804113577
 20
1963.156207453454
 10
1090.908618872341
 20
1962.378098004755
 10
1092.427358816875
 20
1961.660147671552
 10
1093.973594287247
 20
1961.003505021222
 10
1095.544851636551
 20
1960.409220541931
 10
1097.138617188212
 20
1959.87824496207
 10
1098.752341257333
 20
1959.4114277293
 10
1100.383442229644
 20
1959.009515651609
 10
1102.029310691541
 20
1958.673151702586
 10
1103.687313604584
 20
1958.402873992796
 10
1105.354798517801
 20
1958.199114908917
 10
1107.029097811042
 20
1958.062200422018
 10
1108.707532962602
 20
1957.992349566072
 10
1109.614353943098
 20
1957.982558850015
  0
LWPOLYLINE
  5
17A
330
15C
100
AcDbEntity
  8
P-SANR-FIXT
100
AcDbPolyline
 90
       80
 70
   128
 43
0.0
 10
1109.614353943098
 20
1957.982558850015
 10
1111.293905978937
 20
1958.016154370254
 10
1112.970771089803
 20
1958.116887185305
 10
1114.642266649232
 20
1958.284596144152
 10
1116.305718620896
 20
1958.519012948238
 10
1117.95846583649
 20
1958.819762580683
 10
1119.597864253037
 20
1959.186363906229
 10
1121.22129118279
 20
1959.618230440962
 10
1122.826149488974
 20
1960.114671290552
 10
1124.409871740651
 20
1960.674892255541
 10
1125.96992432006
 20
1961.297997101893
 10
1127.503811475869
 20
1961.982988994776
 10
1129.009079315839
 20
1962.728772093284
 10
1130.483319732533
 20
1963.534153303553
 10
1131.924174255773
 20
1964.397844187451
 10
1133.329337825688
 20
1965.318463023808
 10
1134.696562480317
 20
1966.294537018874
 10
1136.023660951872
 20
1967.324504662475
 10
1137.308510165898
 20
1968.406718226096
 10
1138.549054637739
 20
1969.539446398896
 10
1139.743309760876
 20
1970.720877057433
 10
1140.889364981872
 20
1971.949120164679
 10
1141.985386856852
 20
1973.222210793673
 10
1143.029621984623
 20
1974.538112270988
 10
1144.020399811737
 20
1975.89471943497
 10
1144.956135305027
 20
1977.289862003551
 10
1145.835331487315
 20
1978.721308046237
 10
1146.656581832263
 20
1980.186767554716
 10
1147.418572514508
 20
1981.683896106391
 10
1148.120084511509
 20
1983.210298614949
 10
1148.759995553719
 20
1984.763533161993
 10
1149.337281919975
 20
1986.341114903584
 10
1149.851020075242
 20
1987.94052004547
 10
1150.300388148062
 20
1989.559189880613
 10
1150.684667245378
 20
1991.194534882573
 10
1151.00324260261
 20
1992.843938848202
 10
1151.255604567145
 20
1994.50476308301
 10
1151.441349413675
 20
1996.174350622511
 10
1151.560179990069
 20
1997.850030482801
 10
1151.611906192753
 20
1999.529121933564
 10
1151.596445270838
 20
2001.208938786666
 10
1151.5138219585
 20
2002.886793693482
 10
1151.364168435414
 20
2004.560002444086
 10
1151.147724115292
 20
2006.225888261409
 10
1150.864835262875
 20
2007.881786083512
 10
1150.515954439979
 20
2009.525046827121
 10
1150.101639781498
 20
2011.153041625588
 10
1149.622554102502
 20
2012.763166034524
 10
1149.079463837878
 20
2014.352844198349
 10
1148.473237816198
 20
2015.919532971113
 10
1147.804845869774
 20
2017.460725984991
 10
1147.075357283137
 20
2018.973957659929
 10
1146.285939082411
 20
2020.456807148053
 10
1145.437854168316
 20
2021.906902206508
 10
1144.5324592958
 20
2023.321922992536
 10
1143.571202903518
 20
2024.699605774734
 10
1142.555622796641
 20
2026.037746554542
 10
1141.487343686694
 20
2027.334204592166
 10
1140.368074592366
 20
2028.58690583131
 10
1139.199606105443
 20
2029.793846217219
 10
1137.983807526244
 20
2030.953094902741
 10
1136.722623873139
 20
2032.062797337276
 10
1135.418072770936
 20
2033.12117823365
 10
1134.072241223107
 20
2034.126544408204
 10
1132.687282273035
 20
2035.077287489528
 10
1131.265411559597
 20
2035.971886491505
 10
1129.808903772619
 20
2036.808910246568
 10
1128.320089013855
 20
2037.587019695267
 10
1126.801349069321
 20
2038.304970028471
 10
1125.255113598949
 20
2038.961612678801
 10
1123.683856249645
 20
2039.555897158092
 10
1122.090090697984
 20
2040.086872737953
 10
1120.476366628864
 20
2040.553689970724
 10
1118.845265656552
 20
2040.955602048414
 10
1117.199397194655
 20
2041.291965997437
 10
1115.541394281612
 20
2041.562243707227
 10
1113.873909368395
 20
2041.766002791106
 10
1112.199610075154
 20
2041.902917278004
 10
1110.521174923593
 20
2041.972768133951
 10
1109.614353943098
 20
2041.982558850008
  0
ARC
  5
17B
330
15C
100
AcDbEntity
  8
P-SANR-FIXT
100
AcDbCircle
 10
1109.614353943096
 20
1999.982558850011
 30
0.0
 40
36.69606399573154
100
AcDbArc
 50
90.00000000000055
 51
270.0000000000002
  0
ARC
  5
17C
330
15C
100
AcDbEntity
  8
P-SANR-FIXT
100
AcDbCircle
 10
1109.614353943096
 20
1999.982558850011
 30
0.0
 40
33.99999999995613
100
AcDbArc
 50
180.0
 51
209.9999999999996
  0
ARC
  5
17D
330
15C
100
AcDbEntity
  8
P-SANR-FIXT
100
AcDbCircle
 10
1109.614353943096
 20
1999.982558850011
 30
0.0
 40
33.99999999995612
100
AcDbArc
 50
209.9999999999989
 51
269.9999999999993
  0
ARC
  5
17E
330
15C
100
AcDbEntity
  8
P-SANR-FIXT
100
AcDbCircle
 10
1109.614353943096
 20
1999.982558850011
 30
0.0
 40
33.99999999995635
100
AcDbArc
 50
269.9999999999993
 51
329.9999999999988
  0
ARC
  5
17F
330
15C
100
AcDbEntity
  8
P-SANR-FIXT
100
AcDbCircle
 10
1109.614353943096
 20
1999.982558850011
 30
0.0
 40
33.99999999995623
100
AcDbArc
 50
329.999999999999
 51
0.0000000000001972
  0
ARC
  5
180
330
15C
100
AcDbEntity
  8
P-SANR-FIXT
100
AcDbCircle
 10
1109.614353943096
 20
1999.982558850011
 30
0.0
 40
33.99999999995639
100
AcDbArc
 50
0.0000000000005693
 51
29.99999999999965
  0
ARC
  5
181
330
15C
100
AcDbEntity
  8
P-SANR-FIXT
100
AcDbCircle
 10
1109.614353943096
 20
1999.982558850011
 30
0.0
 40
33.9999999999562
100
AcDbArc
 50
29.99999999999925
 51
89.99999999999884
  0
ARC
  5
182
330
15C
100
AcDbEntity
  8
P-SANR-FIXT
100
AcDbCircle
 10
1109.614353943096
 20
1999.982558850011
 30
0.0
 40
33.99999999995623
100
AcDbArc
 50
89.99999999999941
 51
150.0000000000001
  0
ARC
  5
183
330
15C
100
AcDbEntity
  8
P-SANR-FIXT
100
AcDbCircle
 10
1109.614353943096
 20
1999.982558850011
 30
0.0
 40
33.99999999995604
100
AcDbArc
 50
149.9999999999997
 51
180.0
  0
ARC
  5
184
330
15C
100
AcDbEntity
  8
P-SANR-FIXT
100
AcDbCircle
 10
1109.614353943096
 20
1999.982558850011
 30
0.0
 40
25.40000000000009
100
AcDbArc
 50
270.0000000000002
 51
90.0
  0
ARC
  5
185
330
15C
100
AcDbEntity
  8
P-SANR-FIXT
100
AcDbCircle
 10
1109.614353943096
 20
1999.982558850011
 30
0.0
 40
25.39999999999982
100
AcDbArc
 50
90.00000000000076
 51
269.9999999999999
  0
SPLINE
  5
186
330
15C
100
AcDbEntity
  8
P-SANR-FIXT
100
AcDbSpline
210
0.0
220
0.0
230
1.0
 70
    24
 71
     3
 72
     9
 73
     5
 74
     0
 42
0.000000001
 43
0.0000000001
 40
0.0
 40
0.0
 40
0.0
 40
0.0
 40
0.5
 40
1.0
 40
1.0
 40
1.0
 40
1.0
 10
1073.531531190711
 20
2005.485276562453
 30
0.0
 10
1074.625587910765
 20
2007.38023838795
 30
0.0
 10
1076.825971134767
 20
2011.191413928043
 30
0.0
 10
1079.050893926553
 20
2015.045093246334
 30
0.0
 10
1080.169490214392
 20
2016.98255885003
 30
0.0
  0
SPLINE
  5
187
330
15C
100
AcDbEntity
  8
P-SANR-FIXT
100
AcDbSpline
210
0.0
220
0.0
230
1.0
 70
    24
 71
     3
 72
     9
 73
     5
 74
     0
 42
0.000000001
 43
0.0000000001
 40
0.0
 40
0.0
 40
0.0
 40
0.0
 40
0.5
 40
1.0
 40
1.0
 40
1.0
 40
1.0
 10
1080.169490214392
 20
2016.98255885003
 30
0.0
 10
1081.288086502228
 20
2018.920024453719
 30
0.0
 10
1083.513009294006
 20
2022.773703771997
 30
0.0
 10
1085.713392518001
 20
2026.584879312078
 30
0.0
 10
1086.807449238052
 20
2028.479841137568
 30
0.0
  0
ARC
  5
188
330
15C
100
AcDbEntity
  8
P-SANR-FIXT
100
AcDbCircle
 10
1109.614353943052
 20
1999.98255885001
 30
0.0
 40
36.49999999999588
100
AcDbArc
 50
179.9999999999995
 51
188.670936837394
  0
ARC
  5
189
330
15C
100
AcDbEntity
  8
P-SANR-FIXT
100
AcDbCircle
 10
1109.614353943052
 20
1999.98255885001
 30
0.0
 40
36.49999999999613
100
AcDbArc
 50
171.3290631626048
 51
180.0000000000004
  0
SPLINE
  5
18A
330
15C
100
AcDbEntity
  8
P-SANR-FIXT
100
AcDbSpline
210
0.0
220
0.0
230
1.0
 70
    24
 71
     3
 72
     9
 73
     5
 74
     0
 42
0.000000001
 43
0.0000000001
 40
-1.0
 40
-1.0
 40
-1.0
 40
-1.0
 40
-0.5
 40
0.0
 40
0.0
 40
0.0
 40
0.0
 10
1080.169490214392
 20
1982.982558849992
 30
0.0
 10
1081.288086502227
 20
1981.045093246303
 30
0.0
 10
1083.513009294006
 20
1977.191413928024
 30
0.0
 10
1085.713392518
 20
1973.380238387944
 30
0.0
 10
1086.807449238051
 20
1971.485276562453
 30
0.0
  0
SPLINE
  5
18B
330
15C
100
AcDbEntity
  8
P-SANR-FIXT
100
AcDbSpline
210
0.0
220
0.0
230
1.0
 70
    24
 71
     3
 72
     9
 73
     5
 74
     0
 42
0.000000001
 43
0.0000000001
 40
-1.0
 40
-1.0
 40
-1.0
 40
-1.0
 40
-0.5
 40
0.0
 40
0.0
 40
0.0
 40
0.0
 10
1073.531531190711
 20
1994.479841137568
 30
0.0
 10
1074.625587910765
 20
1992.584879312071
 30
0.0
 10
1076.825971134767
 20
1988.773703771979
 30
0.0
 10
1079.050893926553
 20
1984.920024453687
 30
0.0
 10
1080.169490214392
 20
1982.982558849992
 30
0.0
  0
ARC
  5
18C
330
15C
100
AcDbEntity
  8
P-SANR-FIXT
100
AcDbCircle
 10
1109.614353943052
 20
1999.98255885001
 30
0.0
 40
36.4999999999961
100
AcDbArc
 50
231.3290631626023
 51
248.6709368373934
  0
SPLINE
  5
18D
330
15C
100
AcDbEntity
  8
P-SANR-FIXT
100
AcDbSpline
210
0.0
220
0.0
230
1.0
 70
    24
 71
     3
 72
     9
 73
     5
 74
     0
 42
0.000000001
 43
0.0000000001
 40
-1.0
 40
-1.0
 40
-1.0
 40
-1.0
 40
-0.5
 40
0.0
 40
0.0
 40
0.0
 40
0.0
 10
1109.614353943096
 20
1965.98255885001
 30
0.0
 10
1111.851546518763
 20
1965.98255885001
 30
0.0
 10
1116.301392102314
 20
1965.98255885001
 30
0.0
 10
1120.702158550294
 20
1965.98255885001
 30
0.0
 10
1122.890271990392
 20
1965.98255885001
 30
0.0
  0
SPLINE
  5
18E
330
15C
100
AcDbEntity
  8
P-SANR-FIXT
100
AcDbSpline
210
0.0
220
0.0
230
1.0
 70
    24
 71
     3
 72
     9
 73
     5
 74
     0
 42
0.000000001
 43
0.0000000001
 40
-1.0
 40
-1.0
 40
-1.0
 40
-1.0
 40
-0.5
 40
0.0
 40
0.0
 40
0.0
 40
0.0
 10
1096.338435895711
 20
1965.98255885001
 30
0.0
 10
1098.526549335823
 20
1965.98255885001
 30
0.0
 10
1102.927315783833
 20
1965.98255885001
 30
0.0
 10
1107.377161367413
 20
1965.98255885001
 30
0.0
 10
1109.614353943096
 20
1965.98255885001
 30
0.0
  0
ARC
  5
18F
330
15C
100
AcDbEntity
  8
P-SANR-FIXT
100
AcDbCircle
 10
1109.614353943052
 20
1999.98255885001
 30
0.0
 40
36.49999999999612
100
AcDbArc
 50
291.3290631626025
 51
308.6709368373937
  0
SPLINE
  5
190
330
15C
100
AcDbEntity
  8
P-SANR-FIXT
100
AcDbSpline
210
0.0
220
0.0
230
1.0
 70
    24
 71
     3
 72
     9
 73
     5
 74
     0
 42
0.000000001
 43
0.0000000001
 40
-1.0
 40
-1.0
 40
-1.0
 40
-1.0
 40
-0.5
 40
0.0
 40
0.0
 40
0.0
 40
0.0
 10
1139.059217671734
 20
1982.982558850029
 30
0.0
 10
1140.17781395957
 20
1984.920024453719
 30
0.0
 10
1142.402736751349
 20
1988.773703771998
 30
0.0
 10
1144.603119975343
 20
1992.584879312078
 30
0.0
 10
1145.697176695393
 20
1994.479841137567
 30
0.0
  0
SPLINE
  5
191
330
15C
100
AcDbEntity
  8
P-SANR-FIXT
100
AcDbSpline
210
0.0
220
0.0
230
1.0
 70
    24
 71
     3
 72
     9
 73
     5
 74
     0
 42
0.000000001
 43
0.0000000001
 40
-1.0
 40
-1.0
 40
-1.0
 40
-1.0
 40
-0.5
 40
0.0
 40
0.0
 40
0.0
 40
0.0
 10
1132.421258648052
 20
1971.485276562452
 30
0.0
 10
1133.515315368107
 20
1973.380238387948
 30
0.0
 10
1135.715698592107
 20
1977.191413928041
 30
0.0
 10
1137.940621383894
 20
1981.045093246333
 30
0.0
 10
1139.059217671734
 20
1982.982558850029
 30
0.0
  0
ARC
  5
192
330
15C
100
AcDbEntity
  8
P-SANR-FIXT
100
AcDbCircle
 10
1109.614353943052
 20
1999.98255885001
 30
0.0
 40
36.49999999999604
100
AcDbArc
 50
0.0000000000007138
 51
8.670936837395647
  0
ARC
  5
193
330
15C
100
AcDbEntity
  8
P-SANR-FIXT
100
AcDbCircle
 10
1109.614353943052
 20
1999.98255885001
 30
0.0
 40
36.49999999999598
100
AcDbArc
 50
351.3290631626027
 51
359.9999999999989
  0
SPLINE
  5
194
330
15C
100
AcDbEntity
  8
P-SANR-FIXT
100
AcDbSpline
210
0.0
220
0.0
230
1.0
 70
    24
 71
     3
 72
     9
 73
     5
 74
     0
 42
0.000000001
 43
0.0000000001
 40
0.0
 40
0.0
 40
0.0
 40
0.0
 40
0.5
 40
1.0
 40
1.0
 40
1.0
 40
1.0
 10
1132.421258648053
 20
2028.479841137568
 30
0.0
 10
1133.515315368107
 20
2026.584879312072
 30
0.0
 10
1135.715698592108
 20
2022.77370377198
 30
0.0
 10
1137.940621383894
 20
2018.920024453688
 30
0.0
 10
1139.059217671734
 20
2016.982558849992
 30
0.0
  0
SPLINE
  5
195
330
15C
100
AcDbEntity
  8
P-SANR-FIXT
100
AcDbSpline
210
0.0
220
0.0
230
1.0
 70
    24
 71
     3
 72
     9
 73
     5
 74
     0
 42
0.000000001
 43
0.0000000001
 40
0.0
 40
0.0
 40
0.0
 40
0.0
 40
0.5
 40
1.0
 40
1.0
 40
1.0
 40
1.0
 10
1139.059217671734
 20
2016.982558849992
 30
0.0
 10
1140.17781395957
 20
2015.045093246301
 30
0.0
 10
1142.402736751349
 20
2011.191413928022
 30
0.0
 10
1144.603119975343
 20
2007.380238387943
 30
0.0
 10
1145.697176695394
 20
2005.485276562453
 30
0.0
  0
ARC
  5
196
330
15C
100
AcDbEntity
  8
P-SANR-FIXT
100
AcDbCircle
 10
1109.614353943052
 20
1999.98255885001
 30
0.0
 40
36.49999999999603
100
AcDbArc
 50
51.32906316260467
 51
68.6709368373957
  0
SPLINE
  5
197
330
15C
100
AcDbEntity
  8
P-SANR-FIXT
100
AcDbSpline
210
0.0
220
0.0
230
1.0
 70
    24
 71
     3
 72
     9
 73
     5
 74
     0
 42
0.000000001
 43
0.0000000001
 40
0.0
 40
0.0
 40
0.0
 40
0.0
 40
0.5
 40
1.0
 40
1.0
 40
1.0
 40
1.0
 10
1096.338435895711
 20
2033.982558850011
 30
0.0
 10
1098.526549335824
 20
2033.982558850011
 30
0.0
 10
1102.927315783834
 20
2033.982558850011
 30
0.0
 10
1107.377161367414
 20
2033.982558850011
 30
0.0
 10
1109.614353943096
 20
2033.982558850011
 30
0.0
  0
SPLINE
  5
198
330
15C
100
AcDbEntity
  8
P-SANR-FIXT
100
AcDbSpline
210
0.0
220
0.0
230
1.0
 70
    24
 71
     3
 72
     9
 73
     5
 74
     0
 42
0.000000001
 43
0.0000000001
 40
0.0
 40
0.0
 40
0.0
 40
0.0
 40
0.5
 40
1.0
 40
1.0
 40
1.0
 40
1.0
 10
1109.614353943096
 20
2033.982558850011
 30
0.0
 10
1111.851546518764
 20
2033.982558850011
 30
0.0
 10
1116.301392102315
 20
2033.982558850011
 30
0.0
 10
1120.702158550295
 20
2033.982558850011
 30
0.0
 10
1122.890271990393
 20
2033.982558850011
 30
0.0
  0
ARC
  5
199
330
15C
100
AcDbEntity
  8
P-SANR-FIXT
100
AcDbCircle
 10
1109.614353943052
 20
1999.98255885001
 30
0.0
 40
36.49999999999599
100
AcDbArc
 50
111.3290631626049
 51
128.6709368373965
  0
ARC
  5
19A
330
15C
100
AcDbEntity
  8
P-SANR-FIXT
100
AcDbCircle
 10
1109.614353943096
 20
1999.982558850011
 30
0.0
 40
36.69606399573126
100
AcDbArc
 50
269.9999999999993
 51
89.99999999999893
  0
ARC
  5
19B
330
15C
100
AcDbEntity
  8
P-SANR-FIXT
100
AcDbCircle
 10
1109.614353943096
 20
1999.982558850011
 30
0.0
 40
44.24999999999999
100
AcDbArc
 50
269.9999999999997
 51
89.99999999999969
  0
ARC
  5
19C
330
15C
100
AcDbEntity
  8
P-SANR-FIXT
100
AcDbCircle
 10
1109.614353943096
 20
1999.982558850011
 30
0.0
 40
44.24999999999977
100
AcDbArc
 50
89.99999999999969
 51
269.9999999999993
  0
ARC
  5
19D
330
15C
100
AcDbEntity
  8
P-SANR-FIXT
100
AcDbCircle
 10
1109.614353943096
 20
1999.982558850011
 30
0.0
 40
42.51155299813456
100
AcDbArc
 50
270.0000000000004
 51
90.00000000000017
  0
ARC
  5
19E
330
15C
100
AcDbEntity
  8
P-SANR-FIXT
100
AcDbCircle
 10
1109.614353943096
 20
1999.982558850011
 30
0.0
 40
42.51155299813421
100
AcDbArc
 50
90.0
 51
269.9999999999997
  0
LINE
  5
19F
330
15C
100
AcDbEntity
  8
P-SANR-FIXT
100
AcDbLine
 10
1095.114353943098
 20
2053.209881897561
 30
0.0
 11
1095.114353943098
 21
2041.763980141647
 31
0.0
  0
LINE
  5
1A0
330
15C
100
AcDbEntity
  8
P-SANR-FIXT
100
AcDbLine
 10
1095.114353943098
 20
2039.930351500508
 30
0.0
 11
1095.114353943098
 21
2039.778541340295
 31
0.0
  0
LINE
  5
1A1
330
15C
100
AcDbEntity
  8
P-SANR-FIXT
100
AcDbLine
 10
1124.114353943098
 20
2039.778541340295
 30
0.0
 11
1124.114353943098
 21
2039.930351500508
 31
0.0
  0
LINE
  5
1A2
330
15C
100
AcDbEntity
  8
P-SANR-FIXT
100
AcDbLine
 10
1124.114353943098
 20
2041.763980141647
 30
0.0
 11
1124.114353943098
 21
2060.982558850012
 31
0.0
  0
LINE
  5
1A3
330
15C
100
AcDbEntity
  8
P-SANR-FIXT
100
AcDbLine
 10
1119.614353943098
 20
2060.982558850012
 30
0.0
 11
1119.614353943098
 21
2062.809881897544
 31
0.0
  0
LINE
  5
1A4
330
15C
100
AcDbEntity
  8
P-SANR-FIXT
100
AcDbLine
 10
1119.614353943098
 20
2084.009881897562
 30
0.0
 11
1119.614353943098
 21
2088.982558850012
 31
0.0
  0
LINE
  5
1A5
330
15C
100
AcDbEntity
  8
P-SANR-FIXT
100
AcDbLine
 10
1099.614353943098
 20
2088.982558850012
 30
0.0
 11
1099.614353943098
 21
2084.009881897561
 31
0.0
  0
LINE
  5
1A6
330
15C
100
AcDbEntity
  8
P-SANR-FIXT
100
AcDbLine
 10
1106.364158597513
 20
2060.982558850011
 30
0.0
 11
1109.614353943096
 21
2060.982558850011
 31
0.0
  0
LINE
  5
1A7
330
15C
100
AcDbEntity
  8
P-SANR-FIXT
100
AcDbLine
 10
1109.614353943096
 20
2060.982558850011
 30
0.0
 11
1124.114353943096
 21
2060.982558850011
 31
0.0
  0
ARC
  5
1A8
330
15C
100
AcDbEntity
  8
P-SANR-FIXT
100
AcDbCircle
 10
1109.614353943096
 20
1999.982558850011
 30
0.0
 40
42.34999999999991
100
AcDbArc
 50
269.9999999999993
 51
89.99999999999907
  0
SPLINE
  5
1A9
330
15C
100
AcDbEntity
  8
P-SANR-FIXT
100
AcDbSpline
210
0.0
220
0.0
230
1.0
 70
     8
 71
     3
 72
     9
 73
     5
 74
     0
 42
0.000000001
 43
0.0000000001
 40
0.0
 40
0.0
 40
0.0
 40
0.0
 40
0.3333333333333333
 40
0.4444444444444445
 40
0.4444444444444445
 40
0.4444444444444445
 40
0.4444444444444445
 10
1119.637926816
 20
2041.129253575852
 30
0.0
 10
1118.737252600065
 20
2041.348663025343
 30
0.0
 10
1117.440632738528
 20
2041.62464709175
 30
0.0
 10
1115.97920037538
 20
2041.852670592501
 30
0.0
 10
1115.605837386449
 20
2041.905870311322
 30
0.0
  0
SPLINE
  5
1AA
330
15C
100
AcDbEntity
  8
P-SANR-FIXT
100
AcDbSpline
210
0.0
220
0.0
230
1.0
 70
     8
 71
     3
 72
     9
 73
     5
 74
     0
 42
0.000000001
 43
0.0000000001
 40
0.5555555555555556
 40
0.5555555555555556
 40
0.5555555555555556
 40
0.5555555555555556
 40
0.6666666666666666
 40
0.7777777777777779
 40
0.7777777777777779
 40
0.7777777777777779
 40
0.7777777777777779
 10
1114.464029608431
 20
2042.053242377672
 30
0.0
 10
1114.07695270642
 20
2042.098021162746
 30
0.0
 10
1113.295954582243
 20
2042.184261514071
 30
0.0
 10
1112.483009092263
 20
2042.225158928079
 30
0.0
 10
1112.073305211501
 20
2042.240925157242
 30
0.0
  0
SPLINE
  5
1AB
330
15C
100
AcDbEntity
  8
P-SANR-FIXT
100
AcDbSpline
210
0.0
220
0.0
230
1.0
 70
     8
 71
     3
 72
     8
 73
     4
 74
     0
 42
0.000000001
 43
0.0000000001
 40
0.8888888888888891
 40
0.8888888888888891
 40
0.8888888888888891
 40
0.8888888888888891
 40
1.0
 40
1.0
 40
1.0
 40
1.0
 10
1110.865173555996
 20
2042.314332904661
 30
0.0
 10
1110.453000824415
 20
2042.326402045304
 30
0.0
 10
1110.036254383114
 20
2042.332558850011
 30
0.0
 10
1109.614353943096
 20
2042.332558850011
 30
0.0
  0
ARC
  5
1AC
330
15C
100
AcDbEntity
  8
P-SANR-FIXT
100
AcDbCircle
 10
1109.614353943096
 20
1999.982558850011
 30
0.0
 40
42.34999999999991
100
AcDbArc
 50
90.0
 51
269.9999999999997
  0
SPLINE
  5
1AD
330
15C
100
AcDbEntity
  8
P-SANR-FIXT
100
AcDbSpline
210
0.0
220
0.0
230
1.0
 70
     8
 71
     3
 72
     8
 73
     4
 74
     0
 42
0.000000001
 43
0.0000000001
 40
0.0
 40
0.0
 40
0.0
 40
0.0
 40
0.1111111111111111
 40
0.1111111111111111
 40
0.1111111111111111
 40
0.1111111111111111
 10
1109.614353943096
 20
2042.332558850011
 30
0.0
 10
1109.192993835698
 20
2042.332558850011
 30
0.0
 10
1108.776727057701
 20
2042.326418518564
 30
0.0
 10
1108.364970368064
 20
2042.314375989819
 30
0.0
  0
SPLINE
  5
1AE
330
15C
100
AcDbEntity
  8
P-SANR-FIXT
100
AcDbSpline
210
0.0
220
0.0
230
1.0
 70
     8
 71
     3
 72
     9
 73
     5
 74
     0
 42
0.000000001
 43
0.0000000001
 40
0.2222222222222222
 40
0.2222222222222222
 40
0.2222222222222222
 40
0.2222222222222222
 40
0.3333333333333333
 40
0.4444444444444445
 40
0.4444444444444445
 40
0.4444444444444445
 40
0.4444444444444445
 10
1107.142647323189
 20
2042.260779945847
 30
0.0
 10
1106.739327569227
 20
2042.23717115666
 30
0.0
 10
1105.946114408424
 20
2042.17678661069
 30
0.0
 10
1105.143985062766
 20
2042.102053713933
 30
0.0
 10
1104.749497757973
 20
2042.059759914351
 30
0.0
  0
SPLINE
  5
1AF
330
15C
100
AcDbEntity
  8
P-SANR-FIXT
100
AcDbSpline
210
0.0
220
0.0
230
1.0
 70
     8
 71
     3
 72
     9
 73
     5
 74
     0
 42
0.000000001
 43
0.0000000001
 40
0.5555555555555556
 40
0.5555555555555556
 40
0.5555555555555556
 40
0.5555555555555556
 40
0.6666666666666666
 40
1.0
 40
1.0
 40
1.0
 40
1.0
 10
1103.626152726048
 20
2041.906336097783
 30
0.0
 10
1103.252697796165
 20
2041.853153805835
 30
0.0
 10
1101.790692392514
 20
2041.625161332792
 30
0.0
 10
1100.492824033981
 20
2041.348996460239
 30
0.0
 10
1099.590781070192
 20
2041.129253575852
 30
0.0
  0
LINE
  5
1B0
330
15C
100
AcDbEntity
  8
P-SANR-FIXT
100
AcDbLine
 10
1119.637926816
 20
2041.097337204491
 30
0.0
 11
1119.637926816
 21
2041.129253575852
 31
0.0
  0
LINE
  5
1B1
330
15C
100
AcDbEntity
  8
P-SANR-FIXT
100
AcDbLine
 10
1099.590781070192
 20
2041.129253575852
 30
0.0
 11
1099.590781070192
 21
2041.097337204491
 31
0.0
  0
LINE
  5
1B2
330
15C
100
AcDbEntity
  8
P-SANR-FIXT
100
AcDbLine
 10
1119.614353943096
 20
2088.982558850011
 30
0.0
 11
1109.614353943096
 21
2088.982558850011
 31
0.0
  0
LINE
  5
1B3
330
15C
100
AcDbEntity
  8
P-SANR-FIXT
100
AcDbLine
 10
1109.614353943096
 20
2088.982558850011
 30
0.0
 11
1099.614353943096
 21
2088.982558850011
 31
0.0
  0
ENDBLK
  5
1B5
330
15C
100
AcDbEntity
  8
0
100
AcDbBlockEnd
  0
ENDSEC
  0
SECTION
  2
ENTITIES
  0
INSERT
  5
FD
330
71
100
AcDbEntity
  8
P-SANR-FIXT
100
AcDbBlockReference
  2
Automatic flow rate regulator valve_Caleffi_121 DN15 - 1_2__-859151-Est - Idraulica
 10
0.0
 20
0.0
 30
0.0
1001
REVIT
1002
{
1070
     1
1000
863131
1002
}
1002
{
1070
     5
1000
859151
1002
}
1002
{
1070
     2
1000
-2001160
1002
}
  0
INSERT
  5
15B
330
71
100
AcDbEntity
  8
P-SANR-FIXT
100
AcDbBlockReference
  2
Automatic flow rate regulator valve_Caleffi_121 DN15 - 1_2__-V1-Est - Idraulica
 10
0.0
 20
0.0
 30
0.0
1001
REVIT
1002
{
1070
     1
1000
863152
1002
}
1002
{
1070
     5
1000
859151
1002
}
1002
{
1070
     2
1000
-2001160
1002
}
  0
INSERT
  5
1B6
330
71
100
AcDbEntity
  8
P-SANR-FIXT
100
AcDbBlockReference
  2
Automatic flow rate regulator valve_Caleffi_121 DN15 - 1_2__-V2-Est - Idraulica
 10
0.0
 20
0.0
 30
0.0
1001
REVIT
1002
{
1070
     1
1000
863172
1002
}
1002
{
1070
     5
1000
859151
1002
}
1002
{
1070
     2
1000
-2001160
1002
}
  0
ENDSEC
  0
SECTION
  2
OBJECTS
  0
DICTIONARY
  5
C
330
0
100
AcDbDictionary
281
     1
  3
ACAD_CIP_PREVIOUS_PRODUCT_INFO
350
7A
  3
ACAD_COLOR
350
63
  3
ACAD_DETAILVIEWSTYLE
350
6B
  3
ACAD_GROUP
350
D
  3
ACAD_IMAGE_VARS
350
7B
  3
ACAD_LAYOUT
350
62
  3
ACAD_MATERIAL
350
10
  3
ACAD_MLEADERSTYLE
350
66
  3
ACAD_MLINESTYLE
350
5F
  3
ACAD_PLOTSETTINGS
350
61
  3
ACAD_PLOTSTYLENAME
350
E
  3
ACAD_SCALELIST
350
42
  3
ACAD_SECTIONVIEWSTYLE
350
68
  3
ACAD_TABLESTYLE
350
64
  3
ACAD_VISUALSTYLE
350
29
  3
ACDB_RECOMPOSE_DATA
350
1C1
  3
AcDbVariableDictionary
350
7C
  3
REVIT_DICTIONARY
350
1B8
  0
DICTIONARY
  5
1BD
330
71
100
AcDbDictionary
280
     1
281
     1
  3
ACAD_SORTENTS
360
1BE
  0
XRECORD
  5
7A
102
{ACAD_REACTORS
330
C
102
}
330
C
100
AcDbXrecord
280
     1
300
RVT
300
2013
300
RVT2013
  0
DICTIONARY
  5
63
102
{ACAD_REACTORS
330
C
102
}
330
C
100
AcDbDictionary
281
     1
  0
DICTIONARY
  5
6B
102
{ACAD_REACTORS
330
C
102
}
330
C
100
AcDbDictionary
281
     1
  3
Imperial24
350
6C
  0
DICTIONARY
  5
D
102
{ACAD_REACTORS
330
C
102
}
330
C
100
AcDbDictionary
281
     1
  0
RASTERVARIABLES
  5
7B
102
{ACAD_REACTORS
330
C
102
}
330
C
100
AcDbRasterVariables
 90
        0
 70
     0
 71
     1
 72
     1
  0
DICTIONARY
  5
62
102
{ACAD_REACTORS
330
C
102
}
330
C
100
AcDbDictionary
281
     1
  3
Layout1
350
70
  3
Layout2
350
78
  3
Model
350
74
  0
DICTIONARY
  5
10
102
{ACAD_REACTORS
330
C
102
}
330
C
100
AcDbDictionary
281
     1
  3
ByBlock
350
19
  3
ByLayer
350
11
  3
Global
350
21
  0
DICTIONARY
  5
66
102
{ACAD_REACTORS
330
C
102
}
330
C
100
AcDbDictionary
281
     1
  3
Standard
350
67
  0
DICTIONARY
  5
5F
102
{ACAD_REACTORS
330
C
102
}
330
C
100
AcDbDictionary
281
     1
  3
Standard
350
60
  0
DICTIONARY
  5
61
102
{ACAD_REACTORS
330
C
102
}
330
C
100
AcDbDictionary
281
     1
  0
ACDBDICTIONARYWDFLT
  5
E
102
{ACAD_REACTORS
330
C
102
}
330
C
100
AcDbDictionary
281
     1
  3
Normal
350
F
100
AcDbDictionaryWithDefault
340
F
  0
DICTIONARY
  5
42
102
{ACAD_REACTORS
330
C
102
}
330
C
100
AcDbDictionary
281
     1
  3
A0
350
43
  3
A1
350
44
  3
A2
350
45
  3
A3
350
46
  3
A4
350
47
  3
A5
350
48
  3
A6
350
49
  3
A7
350
4A
  3
A8
350
4B
  3
A9
350
4C
  3
B0
350
4D
  3
B1
350
4E
  3
B2
350
4F
  3
B3
350
50
  3
B4
350
51
  3
B5
350
52
  3
B6
350
53
  0
DICTIONARY
  5
68
102
{ACAD_REACTORS
330
C
102
}
330
C
100
AcDbDictionary
281
     1
  3
Imperial24
350
6A
  0
DICTIONARY
  5
64
102
{ACAD_REACTORS
330
C
102
}
330
C
100
AcDbDictionary
281
     1
  3
Standard
350
65
  0
DICTIONARY
  5
29
102
{ACAD_REACTORS
330
C
102
}
330
C
100
AcDbDictionary
281
     1
  3
2dWireframe
350
2F
  3
Basic
350
2E
  3
Brighten
350
35
  3
ColorChange
350
39
  3
Conceptual
350
32
  3
Dim
350
34
  3
EdgeColorOff
350
41
  3
Facepattern
350
38
  3
Flat
350
2A
  3
FlatWithEdges
350
2B
  3
Gouraud
350
2C
  3
GouraudWithEdges
350
2D
  3
Hidden
350
31
  3
JitterOff
350
3F
  3
Linepattern
350
37
  3
OverhangOff
350
40
  3
Realistic
350
33
  3
Shaded
350
3E
  3
Shaded with edges
350
3D
  3
Shades of Gray
350
3A
  3
Sketchy
350
3B
  3
Thicken
350
36
  3
Wireframe
350
30
  3
X-Ray
350
3C
  0
XRECORD
  5
1C1
102
{ACAD_REACTORS
330
C
102
}
330
C
100
AcDbXrecord
280
     1
 90
        1
330
65
  0
DICTIONARY
  5
7C
102
{ACAD_REACTORS
330
C
102
}
330
C
100
AcDbDictionary
281
     1
  3
CANNOSCALE
350
81
  3
CMLEADERSTYLE
350
7E
  3
CTABLESTYLE
350
7D
  3
CVIEWDETAILSTYLE
350
7F
  3
CVIEWSECTIONSTYLE
350
80
  0
DICTIONARY
  5
1B8
102
{ACAD_REACTORS
330
C
102
}
330
C
100
AcDbDictionary
281
     1
  3
DRAWING_TOOL
350
1BC
  3
REVIT_CATEGORY_MAPPING
350
1BA
  3
REVIT_SUB_CATEGORY_MAPPING
350
1BB
  3
REVIT_TYPE_MAPPING
350
1B9
  0
SORTENTSTABLE
  5
1BE
102
{ACAD_REACTORS
330
1BD
102
}
330
1BD
100
AcDbSortentsTable
330
71
  0
ACDBDETAILVIEWSTYLE
  5
6C
102
{ACAD_REACTORS
330
6B
102
}
330
6B
100
AcDbModelDocViewStyle
 70
     0
  3
Imperial24
290
     1
100
AcDbDetailViewStyle
 70
     0
 71
     0
 90
        3
 71
     1
340
55
 62
   256
 40
0.24
340
0
 62
   256
 40
0.24
300

 40
0.36
280
     3
 71
     2
340
5D
 90
       25
 62
   256
 71
     3
340
55
 62
   256
 40
0.24
 90
        1
 40
0.75
 90
        1
300
%<\AcVar ViewType \f "%tc1">% %<\AcVar ViewDetailId>%\PSCALA %<\AcVar ViewScale \f "%sn">%
 71
     4
340
5D
 90
       25
 62
   256
340
5D
 90
       25
 62
   256
280
     0
  0
LAYOUT
  5
70
102
{ACAD_REACTORS
330
62
102
}
330
62
100
AcDbPlotSettings
  1

  2

  4

  6

 40
0.0
 41
0.0
 42
0.0
 43
0.0
 44
0.0
 45
0.0
 46
0.0
 47
0.0
 48
0.0
 49
0.0
140
0.0
141
0.0
142
1.0
143
1.0
 70
   688
 72
     0
 73
     0
 74
     5
  7

 75
    16
147
1.0
 76
     0
 77
     2
 78
   300
148
0.0
149
0.0
100
AcDbLayout
  1
Layout1
 70
     1
 71
     1
 10
0.0
 20
0.0
 11
12.0
 21
9.0
 12
0.0
 22
0.0
 32
0.0
 14
0.0
 24
0.0
 34
0.0
 15
0.0
 25
0.0
 35
0.0
146
0.0
 13
0.0
 23
0.0
 33
0.0
 16
1.0
 26
0.0
 36
0.0
 17
0.0
 27
1.0
 37
0.0
 76
     0
330
6D
  0
LAYOUT
  5
78
102
{ACAD_REACTORS
330
62
102
}
330
62
100
AcDbPlotSettings
  1

  2

  4

  6

 40
0.0
 41
0.0
 42
0.0
 43
0.0
 44
0.0
 45
0.0
 46
0.0
 47
0.0
 48
0.0
 49
0.0
140
0.0
141
0.0
142
1.0
143
1.0
 70
   688
 72
     0
 73
     0
 74
     5
  7

 75
    16
147
1.0
 76
     0
 77
     2
 78
   300
148
0.0
149
0.0
100
AcDbLayout
  1
Layout2
 70
     1
 71
     2
 10
0.0
 20
0.0
 11
12.0
 21
9.0
 12
0.0
 22
0.0
 32
0.0
 14
0.0
 24
0.0
 34
0.0
 15
0.0
 25
0.0
 35
0.0
146
0.0
 13
0.0
 23
0.0
 33
0.0
 16
1.0
 26
0.0
 36
0.0
 17
0.0
 27
1.0
 37
0.0
 76
     0
330
75
  0
LAYOUT
  5
74
102
{ACAD_REACTORS
330
62
102
}
330
62
100
AcDbPlotSettings
  1

  2

  4

  6

 40
0.0
 41
0.0
 42
0.0
 43
0.0
 44
0.0
 45
0.0
 46
0.0
 47
0.0
 48
0.0
 49
0.0
140
0.0
141
0.0
142
1.0
143
1.0
 70
  1712
 72
     0
 73
     0
 74
     0
  7

 75
     0
147
1.0
 76
     0
 77
     2
 78
   300
148
0.0
149
0.0
100
AcDbLayout
  1
Model
 70
     1
 71
     0
 10
0.0
 20
0.0
 11
12.0
 21
9.0
 12
0.0
 22
0.0
 32
0.0
 14
0.0
 24
0.0
 34
0.0
 15
0.0
 25
0.0
 35
0.0
146
0.0
 13
0.0
 23
0.0
 33
0.0
 16
1.0
 26
0.0
 36
0.0
 17
0.0
 27
1.0
 37
0.0
 76
     0
330
71
  0
MATERIAL
  5
19
102
{ACAD_XDICTIONARY
360
1A
102
}
102
{ACAD_REACTORS
330
10
102
}
330
10
100
AcDbMaterial
  1
ByBlock
 72
     0
 43
0.0208333333333333
 43
0.0
 43
0.0
 43
0.0
 43
0.0
 43
0.0208333333333333
 43
0.0
 43
0.0
 43
0.0
 43
0.0
 43
1.0
 43
0.0
 43
0.0
 43
0.0
 43
0.0
 43
1.0
 77
     0
 47
0.0208333333333333
 47
0.0
 47
0.0
 47
0.0
 47
0.0
 47
0.0208333333333333
 47
0.0
 47
0.0
 47
0.0
 47
0.0
 47
1.0
 47
0.0
 47
0.0
 47
0.0
 47
0.0
 47
1.0
171
     0
 49
0.0208333333333333
 49
0.0
 49
0.0
 49
0.0
 49
0.0
 49
0.0208333333333333
 49
0.0
 49
0.0
 49
0.0
 49
0.0
 49
1.0
 49
0.0
 49
0.0
 49
0.0
 49
0.0
 49
1.0
175
     0
142
0.0208333333333333
142
0.0
142
0.0
142
0.0
142
0.0
142
0.0208333333333333
142
0.0
142
0.0
142
0.0
142
0.0
142
1.0
142
0.0
142
0.0
142
0.0
142
0.0
142
1.0
179
     0
144
0.0208333333333333
144
0.0
144
0.0
144
0.0
144
0.0
144
0.0208333333333333
144
0.0
144
0.0
144
0.0
144
0.0
144
1.0
144
0.0
144
0.0
144
0.0
144
0.0
144
1.0
147
0.0208333333333333
147
0.0
147
0.0
147
0.0
147
0.0
147
0.0208333333333333
147
0.0
147
0.0
147
0.0
147
0.0
147
1.0
147
0.0
147
0.0
147
0.0
147
0.0
147
1.0
  0
MATERIAL
  5
11
102
{ACAD_XDICTIONARY
360
12
102
}
102
{ACAD_REACTORS
330
10
102
}
330
10
100
AcDbMaterial
  1
ByLayer
 72
     0
 43
0.0208333333333333
 43
0.0
 43
0.0
 43
0.0
 43
0.0
 43
0.0208333333333333
 43
0.0
 43
0.0
 43
0.0
 43
0.0
 43
1.0
 43
0.0
 43
0.0
 43
0.0
 43
0.0
 43
1.0
 77
     0
 47
0.0208333333333333
 47
0.0
 47
0.0
 47
0.0
 47
0.0
 47
0.0208333333333333
 47
0.0
 47
0.0
 47
0.0
 47
0.0
 47
1.0
 47
0.0
 47
0.0
 47
0.0
 47
0.0
 47
1.0
171
     0
 49
0.0208333333333333
 49
0.0
 49
0.0
 49
0.0
 49
0.0
 49
0.0208333333333333
 49
0.0
 49
0.0
 49
0.0
 49
0.0
 49
1.0
 49
0.0
 49
0.0
 49
0.0
 49
0.0
 49
1.0
175
     0
142
0.0208333333333333
142
0.0
142
0.0
142
0.0
142
0.0
142
0.0208333333333333
142
0.0
142
0.0
142
0.0
142
0.0
142
1.0
142
0.0
142
0.0
142
0.0
142
0.0
142
1.0
179
     0
144
0.0208333333333333
144
0.0
144
0.0
144
0.0
144
0.0
144
0.0208333333333333
144
0.0
144
0.0
144
0.0
144
0.0
144
1.0
144
0.0
144
0.0
144
0.0
144
0.0
144
1.0
147
0.0208333333333333
147
0.0
147
0.0
147
0.0
147
0.0
147
0.0208333333333333
147
0.0
147
0.0
147
0.0
147
0.0
147
1.0
147
0.0
147
0.0
147
0.0
147
0.0
147
1.0
  0
MATERIAL
  5
21
102
{ACAD_XDICTIONARY
360
22
102
}
102
{ACAD_REACTORS
330
10
102
}
330
10
100
AcDbMaterial
  1
Global
 72
     0
 43
0.0208333333333333
 43
0.0
 43
0.0
 43
0.0
 43
0.0
 43
0.0208333333333333
 43
0.0
 43
0.0
 43
0.0
 43
0.0
 43
1.0
 43
0.0
 43
0.0
 43
0.0
 43
0.0
 43
1.0
 77
     0
 47
0.0208333333333333
 47
0.0
 47
0.0
 47
0.0
 47
0.0
 47
0.0208333333333333
 47
0.0
 47
0.0
 47
0.0
 47
0.0
 47
1.0
 47
0.0
 47
0.0
 47
0.0
 47
0.0
 47
1.0
171
     0
 49
0.0208333333333333
 49
0.0
 49
0.0
 49
0.0
 49
0.0
 49
0.0208333333333333
 49
0.0
 49
0.0
 49
0.0
 49
0.0
 49
1.0
 49
0.0
 49
0.0
 49
0.0
 49
0.0
 49
1.0
175
     0
142
0.0208333333333333
142
0.0
142
0.0
142
0.0
142
0.0
142
0.0208333333333333
142
0.0
142
0.0
142
0.0
142
0.0
142
1.0
142
0.0
142
0.0
142
0.0
142
0.0
142
1.0
179
     0
144
0.0208333333333333
144
0.0
144
0.0
144
0.0
144
0.0
144
0.0208333333333333
144
0.0
144
0.0
144
0.0
144
0.0
144
1.0
144
0.0
144
0.0
144
0.0
144
0.0
144
1.0
147
0.0208333333333333
147
0.0
147
0.0
147
0.0
147
0.0
147
0.0208333333333333
147
0.0
147
0.0
147
0.0
147
0.0
147
1.0
147
0.0
147
0.0
147
0.0
147
0.0
147
1.0
  0
MLEADERSTYLE
  5
67
102
{ACAD_REACTORS
330
66
102
}
330
66
100
AcDbMLeaderStyle
179
     2
170
     2
171
     1
172
     0
 90
        2
 40
0.0
 41
0.0
173
     1
 91
-1056964608
340
5B
 92
       -2
290
     1
 42
0.09
291
     1
 43
0.36
  3
Standard
 44
0.18
300

342
55
174
     1
178
     6
175
     1
176
     0
 93
-1056964608
 45
0.18
292
     0
297
     0
 46
0.18
 94
-1056964608
 47
1.0
 49
1.0
140
1.0
293
     1
141
0.0
294
     1
177
     0
142
1.0
295
     1
296
     0
143
0.125
271
     0
272
     9
273
     9
298
     1
  0
MLINESTYLE
  5
60
102
{ACAD_REACTORS
330
5F
102
}
330
5F
100
AcDbMlineStyle
  2
STANDARD
 70
     0
  3

 62
   256
 51
90.0
 52
90.0
 71
     2
 49
0.5
 62
   256
  6
BYLAYER
 49
-0.5
 62
   256
  6
BYLAYER
  0
ACDBPLACEHOLDER
  5
F
102
{ACAD_REACTORS
330
E
102
}
330
E
  0
SCALE
  5
43
102
{ACAD_REACTORS
330
42
102
}
330
42
100
AcDbScale
 70
     0
300
1:1
140
1.0
141
1.0
290
     1
  0
SCALE
  5
44
102
{ACAD_REACTORS
330
42
102
}
330
42
100
AcDbScale
 70
     0
300
1/128" = 1'-0"
140
0.0078125
141
12.0
290
     0
  0
SCALE
  5
45
102
{ACAD_REACTORS
330
42
102
}
330
42
100
AcDbScale
 70
     0
300
1/64" = 1'-0"
140
0.015625
141
12.0
290
     0
  0
SCALE
  5
46
102
{ACAD_REACTORS
330
42
102
}
330
42
100
AcDbScale
 70
     0
300
1/32" = 1'-0"
140
0.03125
141
12.0
290
     0
  0
SCALE
  5
47
102
{ACAD_REACTORS
330
42
102
}
330
42
100
AcDbScale
 70
     0
300
1/16" = 1'-0"
140
0.0625
141
12.0
290
     0
  0
SCALE
  5
48
102
{ACAD_REACTORS
330
42
102
}
330
42
100
AcDbScale
 70
     0
300
3/32" = 1'-0"
140
0.09375
141
12.0
290
     0
  0
SCALE
  5
49
102
{ACAD_REACTORS
330
42
102
}
330
42
100
AcDbScale
 70
     0
300
1/8" = 1'-0"
140
0.125
141
12.0
290
     0
  0
SCALE
  5
4A
102
{ACAD_REACTORS
330
42
102
}
330
42
100
AcDbScale
 70
     0
300
3/16" = 1'-0"
140
0.1875
141
12.0
290
     0
  0
SCALE
  5
4B
102
{ACAD_REACTORS
330
42
102
}
330
42
100
AcDbScale
 70
     0
300
1/4" = 1'-0"
140
0.25
141
12.0
290
     0
  0
SCALE
  5
4C
102
{ACAD_REACTORS
330
42
102
}
330
42
100
AcDbScale
 70
     0
300
3/8" = 1'-0"
140
0.375
141
12.0
290
     0
  0
SCALE
  5
4D
102
{ACAD_REACTORS
330
42
102
}
330
42
100
AcDbScale
 70
     0
300
1/2" = 1'-0"
140
0.5
141
12.0
290
     0
  0
SCALE
  5
4E
102
{ACAD_REACTORS
330
42
102
}
330
42
100
AcDbScale
 70
     0
300
3/4" = 1'-0"
140
0.75
141
12.0
290
     0
  0
SCALE
  5
4F
102
{ACAD_REACTORS
330
42
102
}
330
42
100
AcDbScale
 70
     0
300
1" = 1'-0"
140
1.0
141
12.0
290
     0
  0
SCALE
  5
50
102
{ACAD_REACTORS
330
42
102
}
330
42
100
AcDbScale
 70
     0
300
1-1/2" = 1'-0"
140
1.5
141
12.0
290
     0
  0
SCALE
  5
51
102
{ACAD_REACTORS
330
42
102
}
330
42
100
AcDbScale
 70
     0
300
3" = 1'-0"
140
3.0
141
12.0
290
     0
  0
SCALE
  5
52
102
{ACAD_REACTORS
330
42
102
}
330
42
100
AcDbScale
 70
     0
300
6" = 1'-0"
140
6.0
141
12.0
290
     0
  0
SCALE
  5
53
102
{ACAD_REACTORS
330
42
102
}
330
42
100
AcDbScale
 70
     0
300
1'-0" = 1'-0"
140
12.0
141
12.0
290
     0
  0
ACDBSECTIONVIEWSTYLE
  5
6A
102
{ACAD_REACTORS
330
68
102
}
330
68
100
AcDbModelDocViewStyle
 70
     0
  3
Imperial24
290
     1
100
AcDbSectionViewStyle
 70
     0
 71
     0
 90
       78
 71
     1
340
55
 62
   256
 40
0.24
340
0
340
0
 62
   256
 40
0.24
300
I, O, Q, S, X, Z
 40
0.48
 90
        3
 40
0.18
 90
        1
 71
     2
340
69
 90
       25
 62
   256
340
5D
 90
       50
 62
   256
 40
0.24
 40
0.0
 40
0.24
 71
     3
340
55
 62
   256
 40
0.24
 90
        1
 40
0.75
 90
        1
300
%<\AcVar ViewType \f "%tc1">% %<\AcVar ViewSectionStartId>%-%<\AcVar ViewSectionEndId>%\PSCALA %<\AcVar ViewScale \f "%sn">%
 71
     4
 62
   256
 62
   257
300
ANSI31
 40
1.0
 90
        0
290
     0
290
     0
 90
        6
 40
0.0
 40
1.570796326794896
 40
0.2617993877991494
 40
1.308996938995747
 40
-0.2617993877991494
 40
1.832595714594046
  0
TABLESTYLE
  5
65
102
{ACAD_XDICTIONARY
360
1BF
102
}
102
{ACAD_REACTORS
330
64
102
}
330
64
100
AcDbTableStyle
280
     0
  3
Standard
 70
     0
 71
     0
 40
0.06
 41
0.06
280
     0
281
     0
  7
Standard
140
0.18
170
     2
 62
     0
 63
     7
283
     0
 90
      512
 91
        0
  1

274
    -2
284
     1
 64
     0
275
    -2
285
     1
 65
     0
276
    -2
286
     1
 66
     0
277
    -2
287
     1
 67
     0
278
    -2
288
     1
 68
     0
279
    -2
289
     1
 69
     0
  7
Standard
140
0.25
170
     5
 62
     0
 63
     7
283
     0
 90
      512
 91
        0
  1

274
    -2
284
     1
 64
     0
275
    -2
285
     1
 65
     0
276
    -2
286
     1
 66
     0
277
    -2
287
     1
 67
     0
278
    -2
288
     1
 68
     0
279
    -2
289
     1
 69
     0
  7
Standard
140
0.18
170
     5
 62
     0
 63
     7
283
     0
 90
      512
 91
        0
  1

274
    -2
284
     1
 64
     0
275
    -2
285
     1
 65
     0
276
    -2
286
     1
 66
     0
277
    -2
287
     1
 67
     0
278
    -2
288
     1
 68
     0
279
    -2
289
     1
 69
     0
  0
VISUALSTYLE
  5
2F
102
{ACAD_REACTORS
330
29
102
}
330
29
100
AcDbVisualStyle
  2
2dWireframe
 70
     4
177
     3
291
     0
 70
    58
 90
        0
176
     1
 90
        2
176
     1
 90
        0
176
     1
 90
        0
176
     1
 40
0.6
176
     1
 40
30.0
176
     1
 62
     7
420
 16777215
176
     1
 90
        1
176
     1
 90
        4
176
     1
 62
     7
176
     1
 62
   257
176
     1
 90
        1
176
     1
 90
        1
176
     1
 40
1.0
176
     1
 90
        0
176
     1
 62
   257
176
     1
 40
1.0
176
     1
 90
        1
176
     1
 90
        6
176
     1
 90
        2
176
     1
 62
     7
176
     1
 90
        5
176
     1
 90
        0
176
     1
 90
        0
176
     1
290
     0
176
     1
 90
        1
176
     1
 40
0.0
176
     1
 90
        0
176
     1
290
     1
176
     1
290
     1
176
     1
290
     0
176
     1
290
     0
176
     1
290
     0
176
     1
290
     0
176
     1
290
     0
176
     1
290
     0
176
     1
290
     0
176
     1
 90
       50
176
     1
 40
0.0
176
     1
 40
1.0
176
     1
 90
        0
176
     1
 62
    18
420
        0
176
     1
 90
       50
176
     1
 90
        3
176
     1
 62
     5
420
      255
176
     1
290
     0
176
     1
 90
       50
176
     1
 90
       50
176
     1
 90
       50
176
     1
290
     0
176
     1
 90
       50
176
     1
 62
   256
176
     0
 40
1.0
176
     0
 90
        2
176
     1
  1
strokes_ogs.tif
176
     1
290
     0
176
     1
 40
1.0
176
     1
 40
1.0
176
     1
  0
VISUALSTYLE
  5
2E
102
{ACAD_REACTORS
330
29
102
}
330
29
100
AcDbVisualStyle
  2
Basic
 70
     7
177
     3
291
     1
 70
    58
 90
        1
176
     1
 90
        0
176
     1
 90
        1
176
     1
 90
        0
176
     1
 40
0.6
176
     1
 40
30.0
176
     1
 62
     7
420
 16777215
176
     1
 90
        0
176
     1
 90
        4
176
     1
 62
     7
176
     1
 62
   257
176
     1
 90
        1
176
     1
 90
        1
176
     1
 40
1.0
176
     1
 90
        8
176
     1
 62
     7
176
     1
 40
1.0
176
     1
 90
        1
176
     1
 90
        6
176
     1
 90
        2
176
     1
 62
     7
176
     1
 90
        5
176
     1
 90
        0
176
     1
 90
        0
176
     1
290
     0
176
     1
 90
        1
176
     1
 40
0.0
176
     1
 90
        0
176
     1
290
     0
176
     1
290
     1
176
     1
290
     1
176
     1
290
     0
176
     1
290
     0
176
     1
290
     0
176
     1
290
     0
176
     1
290
     0
176
     1
290
     0
176
     1
 90
       50
176
     1
 40
0.0
176
     1
 40
1.0
176
     1
 90
        0
176
     1
 62
    18
420
        0
176
     1
 90
       50
176
     1
 90
        3
176
     1
 62
     5
420
      255
176
     1
290
     0
176
     1
 90
       50
176
     1
 90
       50
176
     1
 90
       50
176
     1
290
     0
176
     1
 90
       50
176
     1
 62
   256
176
     0
 40
1.0
176
     0
 90
        2
176
     1
  1
strokes_ogs.tif
176
     1
290
     0
176
     1
 40
1.0
176
     1
 40
1.0
176
     1
  0
VISUALSTYLE
  5
35
102
{ACAD_REACTORS
330
29
102
}
330
29
100
AcDbVisualStyle
  2
Brighten
 70
    12
177
     3
291
     1
 70
    58
 90
        2
176
     1
 90
        2
176
     1
 90
        0
176
     1
 90
        0
176
     1
 40
0.6
176
     1
 40
30.0
176
     1
 62
     7
420
 16777215
176
     1
 90
        1
176
     1
 90
        4
176
     1
 62
     7
176
     1
 62
   257
176
     1
 90
        1
176
     1
 90
        1
176
     1
 40
1.0
176
     1
 90
        8
176
     1
 62
     7
176
     1
 40
1.0
176
     1
 90
        1
176
     1
 90
        6
176
     1
 90
        2
176
     1
 62
     7
176
     1
 90
        5
176
     1
 90
        0
176
     1
 90
        0
176
     1
290
     0
176
     1
 90
        1
176
     1
 40
50.0
176
     1
 90
        0
176
     1
290
     0
176
     1
290
     1
176
     1
290
     1
176
     1
290
     0
176
     1
290
     0
176
     1
290
     0
176
     1
290
     0
176
     1
290
     0
176
     1
290
     0
176
     1
 90
       50
176
     1
 40
0.0
176
     1
 40
1.0
176
     1
 90
        0
176
     1
 62
    18
420
        0
176
     1
 90
       50
176
     1
 90
        3
176
     1
 62
     5
420
      255
176
     1
290
     0
176
     1
 90
       50
176
     1
 90
       50
176
     1
 90
       50
176
     1
290
     0
176
     1
 90
       50
176
     1
 62
   256
176
     0
 40
1.0
176
     0
 90
        2
176
     1
  1
strokes_ogs.tif
176
     1
290
     0
176
     1
 40
1.0
176
     1
 40
1.0
176
     1
  0
VISUALSTYLE
  5
39
102
{ACAD_REACTORS
330
29
102
}
330
29
100
AcDbVisualStyle
  2
ColorChange
 70
    16
177
     3
291
     1
 70
    58
 90
        2
176
     1
 90
        2
176
     1
 90
        3
176
     1
 90
        0
176
     1
 40
0.6
176
     1
 40
30.0
176
     1
 62
     8
420
  8421504
176
     1
 90
        1
176
     1
 90
        4
176
     1
 62
     7
176
     1
 62
   257
176
     1
 90
        1
176
     1
 90
        1
176
     1
 40
1.0
176
     1
 90
        8
176
     1
 62
     8
420
  8421504
176
     1
 40
1.0
176
     1
 90
        1
176
     1
 90
        6
176
     1
 90
        2
176
     1
 62
     7
176
     1
 90
        5
176
     1
 90
        0
176
     1
 90
        0
176
     1
290
     0
176
     1
 90
        1
176
     1
 40
0.0
176
     1
 90
        0
176
     1
290
     0
176
     1
290
     1
176
     1
290
     1
176
     1
290
     0
176
     1
290
     0
176
     1
290
     0
176
     1
290
     0
176
     1
290
     0
176
     1
290
     0
176
     1
 90
       50
176
     1
 40
0.0
176
     1
 40
1.0
176
     1
 90
        0
176
     1
 62
    18
420
        0
176
     1
 90
       50
176
     1
 90
        3
176
     1
 62
     5
420
      255
176
     1
290
     0
176
     1
 90
       50
176
     1
 90
       50
176
     1
 90
       50
176
     1
290
     0
176
     1
 90
       50
176
     1
 62
   256
176
     0
 40
1.0
176
     0
 90
        2
176
     1
  1
strokes_ogs.tif
176
     1
290
     0
176
     1
 40
1.0
176
     1
 40
1.0
176
     1
  0
VISUALSTYLE
  5
32
102
{ACAD_REACTORS
330
29
102
}
330
29
100
AcDbVisualStyle
  2
Conceptual
 70
     9
177
     3
291
     0
 70
    58
 90
        3
176
     1
 90
        2
176
     1
 90
        0
176
     1
 90
        0
176
     1
 40
0.6
176
     1
 40
30.0
176
     1
 62
     7
420
 16777215
176
     1
 90
        2
176
     1
 90
        2
176
     1
 62
     7
176
     1
 62
   257
176
     1
 90
        1
176
     1
 90
        1
176
     1
 40
179.0
176
     1
 90
        8
176
     1
 62
     7
176
     1
 40
1.0
176
     1
 90
        1
176
     1
 90
        6
176
     1
 90
        2
176
     1
 62
     7
176
     1
 90
        3
176
     1
 90
        0
176
     1
 90
        0
176
     1
290
     0
176
     1
 90
        1
176
     1
 40
0.0
176
     1
 90
        0
176
     1
290
     0
176
     1
290
     1
176
     1
290
     1
176
     1
290
     0
176
     1
290
     0
176
     1
290
     0
176
     1
290
     0
176
     1
290
     0
176
     1
290
     0
176
     1
 90
       50
176
     1
 40
0.0
176
     1
 40
1.0
176
     1
 90
        0
176
     1
 62
    18
420
        0
176
     1
 90
       50
176
     1
 90
        3
176
     1
 62
     5
420
      255
176
     1
290
     0
176
     1
 90
       50
176
     1
 90
       50
176
     1
 90
       50
176
     1
290
     0
176
     1
 90
       50
176
     1
 62
   256
176
     0
 40
1.0
176
     0
 90
        2
176
     1
  1
strokes_ogs.tif
176
     1
290
     0
176
     1
 40
1.0
176
     1
 40
1.0
176
     1
  0
VISUALSTYLE
  5
34
102
{ACAD_REACTORS
330
29
102
}
330
29
100
AcDbVisualStyle
  2
Dim
 70
    11
177
     3
291
     1
 70
    58
 90
        2
176
     1
 90
        2
176
     1
 90
        0
176
     1
 90
        0
176
     1
 40
0.6
176
     1
 40
30.0
176
     1
 62
     7
420
 16777215
176
     1
 90
        1
176
     1
 90
        4
176
     1
 62
     7
176
     1
 62
   257
176
     1
 90
        1
176
     1
 90
        1
176
     1
 40
1.0
176
     1
 90
        8
176
     1
 62
     7
176
     1
 40
1.0
176
     1
 90
        1
176
     1
 90
        6
176
     1
 90
        2
176
     1
 62
     7
176
     1
 90
        5
176
     1
 90
        0
176
     1
 90
        0
176
     1
290
     0
176
     1
 90
        1
176
     1
 40
-50.0
176
     1
 90
        0
176
     1
290
     0
176
     1
290
     1
176
     1
290
     1
176
     1
290
     0
176
     1
290
     0
176
     1
290
     0
176
     1
290
     0
176
     1
290
     0
176
     1
290
     0
176
     1
 90
       50
176
     1
 40
0.0
176
     1
 40
1.0
176
     1
 90
        0
176
     1
 62
    18
420
        0
176
     1
 90
       50
176
     1
 90
        3
176
     1
 62
     5
420
      255
176
     1
290
     0
176
     1
 90
       50
176
     1
 90
       50
176
     1
 90
       50
176
     1
290
     0
176
     1
 90
       50
176
     1
 62
   256
176
     0
 40
1.0
176
     0
 90
        2
176
     1
  1
strokes_ogs.tif
176
     1
290
     0
176
     1
 40
1.0
176
     1
 40
1.0
176
     1
  0
VISUALSTYLE
  5
41
102
{ACAD_REACTORS
330
29
102
}
330
29
100
AcDbVisualStyle
  2
EdgeColorOff
 70
    22
177
     3
291
     1
 70
    58
 90
        2
176
     0
 90
        2
176
     0
 90
        0
176
     0
 90
        0
176
     0
 40
0.6
176
     0
 40
30.0
176
     0
 62
     7
420
 16777215
176
     0
 90
        1
176
     0
 90
        4
176
     0
 62
     7
176
     0
 62
   257
176
     0
 90
        1
176
     0
 90
        1
176
     0
 40
1.0
176
     0
 90
        8
176
     2
 62
     7
176
     0
 40
1.0
176
     0
 90
        1
176
     0
 90
        6
176
     0
 90
        2
176
     0
 62
     7
176
     0
 90
        5
176
     0
 90
        0
176
     0
 90
        0
176
     0
290
     0
176
     0
 90
        1
176
     0
 40
0.0
176
     0
 90
        0
176
     0
290
     0
176
     0
290
     1
176
     0
290
     1
176
     0
290
     0
176
     0
290
     0
176
     0
290
     0
176
     0
290
     0
176
     0
290
     0
176
     0
290
     0
176
     0
 90
       50
176
     0
 40
0.0
176
     0
 40
1.0
176
     0
 90
        0
176
     0
 62
    18
420
        0
176
     0
 90
       50
176
     0
 90
        3
176
     0
 62
     5
420
      255
176
     0
290
     0
176
     0
 90
       50
176
     0
 90
       50
176
     0
 90
       50
176
     0
290
     0
176
     0
 90
       50
176
     0
 62
   256
176
     0
 40
1.0
176
     0
 90
        2
176
     0
  1
strokes_ogs.tif
176
     0
290
     0
176
     0
 40
1.0
176
     0
 40
1.0
176
     0
  0
VISUALSTYLE
  5
38
102
{ACAD_REACTORS
330
29
102
}
330
29
100
AcDbVisualStyle
  2
Facepattern
 70
    15
177
     3
291
     1
 70
    58
 90
        2
176
     1
 90
        2
176
     1
 90
        0
176
     1
 90
        0
176
     1
 40
0.6
176
     1
 40
30.0
176
     1
 62
     7
420
 16777215
176
     1
 90
        1
176
     1
 90
        4
176
     1
 62
     7
176
     1
 62
   257
176
     1
 90
        1
176
     1
 90
        1
176
     1
 40
1.0
176
     1
 90
        8
176
     1
 62
     7
176
     1
 40
1.0
176
     1
 90
        1
176
     1
 90
        6
176
     1
 90
        2
176
     1
 62
     7
176
     1
 90
        5
176
     1
 90
        0
176
     1
 90
        0
176
     1
290
     0
176
     1
 90
        1
176
     1
 40
0.0
176
     1
 90
        0
176
     1
290
     0
176
     1
290
     1
176
     1
290
     1
176
     1
290
     0
176
     1
290
     0
176
     1
290
     0
176
     1
290
     0
176
     1
290
     0
176
     1
290
     0
176
     1
 90
       50
176
     1
 40
0.0
176
     1
 40
1.0
176
     1
 90
        0
176
     1
 62
    18
420
        0
176
     1
 90
       50
176
     1
 90
        3
176
     1
 62
     5
420
      255
176
     1
290
     0
176
     1
 90
       50
176
     1
 90
       50
176
     1
 90
       50
176
     1
290
     0
176
     1
 90
       50
176
     1
 62
   256
176
     0
 40
1.0
176
     0
 90
        2
176
     1
  1
strokes_ogs.tif
176
     1
290
     0
176
     1
 40
1.0
176
     1
 40
1.0
176
     1
  0
VISUALSTYLE
  5
2A
102
{ACAD_REACTORS
330
29
102
}
330
29
100
AcDbVisualStyle
  2
Flat
 70
     0
177
     3
291
     1
 70
    58
 90
        2
176
     1
 90
        1
176
     1
 90
        1
176
     1
 90
        2
176
     1
 40
0.6
176
     1
 40
30.0
176
     1
 62
     7
420
 16777215
176
     1
 90
        0
176
     1
 90
        0
176
     1
 62
     7
176
     1
 62
   257
176
     1
 90
        1
176
     1
 90
        1
176
     1
 40
1.0
176
     1
 90
        8
176
     1
 62
     7
176
     1
 40
1.0
176
     1
 90
        1
176
     1
 90
        6
176
     1
 90
        2
176
     1
 62
     7
176
     1
 90
        5
176
     1
 90
        0
176
     1
 90
        0
176
     1
290
     0
176
     1
 90
       13
176
     1
 40
0.0
176
     1
 90
        0
176
     1
290
     0
176
     1
290
     1
176
     1
290
     1
176
     1
290
     0
176
     1
290
     0
176
     1
290
     0
176
     1
290
     0
176
     1
290
     0
176
     1
290
     0
176
     1
 90
       50
176
     1
 40
0.0
176
     1
 40
1.0
176
     1
 90
        0
176
     1
 62
    18
420
        0
176
     1
 90
       50
176
     1
 90
        3
176
     1
 62
     5
420
      255
176
     1
290
     0
176
     1
 90
       50
176
     1
 90
       50
176
     1
 90
       50
176
     1
290
     0
176
     1
 90
       50
176
     1
 62
   256
176
     0
 40
1.0
176
     0
 90
        2
176
     1
  1
strokes_ogs.tif
176
     1
290
     0
176
     1
 40
1.0
176
     1
 40
1.0
176
     1
  0
VISUALSTYLE
  5
2B
102
{ACAD_REACTORS
330
29
102
}
330
29
100
AcDbVisualStyle
  2
FlatWithEdges
 70
     1
177
     3
291
     1
 70
    58
 90
        2
176
     1
 90
        1
176
     1
 90
        1
176
     1
 90
        2
176
     1
 40
0.6
176
     1
 40
30.0
176
     1
 62
     7
420
 16777215
176
     1
 90
        1
176
     1
 90
        0
176
     1
 62
     7
176
     1
 62
   257
176
     1
 90
        1
176
     1
 90
        1
176
     1
 40
1.0
176
     1
 90
        0
176
     1
 62
   257
176
     1
 40
1.0
176
     1
 90
        1
176
     1
 90
        6
176
     1
 90
        2
176
     1
 62
     7
176
     1
 90
        5
176
     1
 90
        0
176
     1
 90
        0
176
     1
290
     0
176
     1
 90
       13
176
     1
 40
0.0
176
     1
 90
        0
176
     1
290
     0
176
     1
290
     1
176
     1
290
     1
176
     1
290
     0
176
     1
290
     0
176
     1
290
     0
176
     1
290
     0
176
     1
290
     0
176
     1
290
     0
176
     1
 90
       50
176
     1
 40
0.0
176
     1
 40
1.0
176
     1
 90
        0
176
     1
 62
    18
420
        0
176
     1
 90
       50
176
     1
 90
        3
176
     1
 62
     5
420
      255
176
     1
290
     0
176
     1
 90
       50
176
     1
 90
       50
176
     1
 90
       50
176
     1
290
     0
176
     1
 90
       50
176
     1
 62
   256
176
     0
 40
1.0
176
     0
 90
        2
176
     1
  1
strokes_ogs.tif
176
     1
290
     0
176
     1
 40
1.0
176
     1
 40
1.0
176
     1
  0
VISUALSTYLE
  5
2C
102
{ACAD_REACTORS
330
29
102
}
330
29
100
AcDbVisualStyle
  2
Gouraud
 70
     2
177
     3
291
     1
 70
    58
 90
        2
176
     1
 90
        2
176
     1
 90
        1
176
     1
 90
        2
176
     1
 40
0.6
176
     1
 40
30.0
176
     1
 62
     7
420
 16777215
176
     1
 90
        0
176
     1
 90
        0
176
     1
 62
     7
176
     1
 62
   257
176
     1
 90
        1
176
     1
 90
        1
176
     1
 40
1.0
176
     1
 90
        0
176
     1
 62
     7
176
     1
 40
1.0
176
     1
 90
        1
176
     1
 90
        6
176
     1
 90
        2
176
     1
 62
     7
176
     1
 90
        5
176
     1
 90
        0
176
     1
 90
        0
176
     1
290
     0
176
     1
 90
       13
176
     1
 40
0.0
176
     1
 90
        0
176
     1
290
     0
176
     1
290
     1
176
     1
290
     1
176
     1
290
     0
176
     1
290
     0
176
     1
290
     0
176
     1
290
     0
176
     1
290
     0
176
     1
290
     0
176
     1
 90
       50
176
     1
 40
0.0
176
     1
 40
1.0
176
     1
 90
        0
176
     1
 62
    18
420
        0
176
     1
 90
       50
176
     1
 90
        3
176
     1
 62
     5
420
      255
176
     1
290
     0
176
     1
 90
       50
176
     1
 90
       50
176
     1
 90
       50
176
     1
290
     0
176
     1
 90
       50
176
     1
 62
   256
176
     0
 40
1.0
176
     0
 90
        2
176
     1
  1
strokes_ogs.tif
176
     1
290
     0
176
     1
 40
1.0
176
     1
 40
1.0
176
     1
  0
VISUALSTYLE
  5
2D
102
{ACAD_REACTORS
330
29
102
}
330
29
100
AcDbVisualStyle
  2
GouraudWithEdges
 70
     3
177
     3
291
     1
 70
    58
 90
        2
176
     1
 90
        2
176
     1
 90
        1
176
     1
 90
        2
176
     1
 40
0.6
176
     1
 40
30.0
176
     1
 62
     7
420
 16777215
176
     1
 90
        1
176
     1
 90
        0
176
     1
 62
     7
176
     1
 62
   257
176
     1
 90
        1
176
     1
 90
        1
176
     1
 40
1.0
176
     1
 90
        0
176
     1
 62
   257
176
     1
 40
1.0
176
     1
 90
        1
176
     1
 90
        6
176
     1
 90
        2
176
     1
 62
     7
176
     1
 90
        5
176
     1
 90
        0
176
     1
 90
        0
176
     1
290
     0
176
     1
 90
       13
176
     1
 40
0.0
176
     1
 90
        0
176
     1
290
     0
176
     1
290
     1
176
     1
290
     1
176
     1
290
     0
176
     1
290
     0
176
     1
290
     0
176
     1
290
     0
176
     1
290
     0
176
     1
290
     0
176
     1
 90
       50
176
     1
 40
0.0
176
     1
 40
1.0
176
     1
 90
        0
176
     1
 62
    18
420
        0
176
     1
 90
       50
176
     1
 90
        3
176
     1
 62
     5
420
      255
176
     1
290
     0
176
     1
 90
       50
176
     1
 90
       50
176
     1
 90
       50
176
     1
290
     0
176
     1
 90
       50
176
     1
 62
   256
176
     0
 40
1.0
176
     0
 90
        2
176
     1
  1
strokes_ogs.tif
176
     1
290
     0
176
     1
 40
1.0
176
     1
 40
1.0
176
     1
  0
VISUALSTYLE
  5
31
102
{ACAD_REACTORS
330
29
102
}
330
29
100
AcDbVisualStyle
  2
Hidden
 70
     6
177
     3
291
     0
 70
    58
 90
        1
176
     1
 90
        2
176
     1
 90
        2
176
     1
 90
        0
176
     1
 40
0.6
176
     1
 40
30.0
176
     1
 62
     7
420
 16777215
176
     1
 90
        2
176
     1
 90
        2
176
     1
 62
     7
176
     1
 62
   257
176
     1
 90
        2
176
     1
 90
        1
176
     1
 40
40.0
176
     1
 90
        0
176
     1
 62
   257
176
     1
 40
1.0
176
     1
 90
        1
176
     1
 90
        6
176
     1
 90
        2
176
     1
 62
     7
176
     1
 90
        3
176
     1
 90
        0
176
     1
 90
        0
176
     1
290
     0
176
     1
 90
        1
176
     1
 40
0.0
176
     1
 90
        0
176
     1
290
     0
176
     1
290
     1
176
     1
290
     1
176
     1
290
     0
176
     1
290
     0
176
     1
290
     0
176
     1
290
     0
176
     1
290
     0
176
     1
290
     0
176
     1
 90
       50
176
     1
 40
0.0
176
     1
 40
1.0
176
     1
 90
        0
176
     1
 62
    18
420
        0
176
     1
 90
       50
176
     1
 90
        3
176
     1
 62
     5
420
      255
176
     1
290
     0
176
     1
 90
       50
176
     1
 90
       50
176
     1
 90
       50
176
     1
290
     0
176
     1
 90
       50
176
     1
 62
   256
176
     0
 40
1.0
176
     0
 90
        2
176
     1
  1
strokes_ogs.tif
176
     1
290
     0
176
     1
 40
1.0
176
     1
 40
1.0
176
     1
  0
VISUALSTYLE
  5
3F
102
{ACAD_REACTORS
330
29
102
}
330
29
100
AcDbVisualStyle
  2
JitterOff
 70
    20
177
     3
291
     1
 70
    58
 90
        2
176
     0
 90
        2
176
     0
 90
        0
176
     0
 90
        0
176
     0
 40
0.6
176
     0
 40
30.0
176
     0
 62
     7
420
 16777215
176
     0
 90
        1
176
     0
 90
        4
176
     0
 62
     7
176
     0
 62
   257
176
     0
 90
        1
176
     0
 90
        1
176
     0
 40
1.0
176
     0
 90
       10
176
     2
 62
     7
176
     0
 40
1.0
176
     0
 90
        1
176
     0
 90
        6
176
     0
 90
        2
176
     0
 62
     7
176
     0
 90
        5
176
     0
 90
        0
176
     0
 90
        0
176
     0
290
     0
176
     0
 90
        1
176
     0
 40
0.0
176
     0
 90
        0
176
     0
290
     0
176
     0
290
     1
176
     0
290
     1
176
     0
290
     0
176
     0
290
     0
176
     0
290
     0
176
     0
290
     0
176
     0
290
     0
176
     0
290
     0
176
     0
 90
       50
176
     0
 40
0.0
176
     0
 40
1.0
176
     0
 90
        0
176
     0
 62
    18
420
        0
176
     0
 90
       50
176
     0
 90
        3
176
     0
 62
     5
420
      255
176
     0
290
     0
176
     0
 90
       50
176
     0
 90
       50
176
     0
 90
       50
176
     0
290
     0
176
     0
 90
       50
176
     0
 62
   256
176
     0
 40
1.0
176
     0
 90
        2
176
     0
  1
strokes_ogs.tif
176
     0
290
     0
176
     0
 40
1.0
176
     0
 40
1.0
176
     0
  0
VISUALSTYLE
  5
37
102
{ACAD_REACTORS
330
29
102
}
330
29
100
AcDbVisualStyle
  2
Linepattern
 70
    14
177
     3
291
     1
 70
    58
 90
        2
176
     1
 90
        2
176
     1
 90
        0
176
     1
 90
        0
176
     1
 40
0.6
176
     1
 40
30.0
176
     1
 62
     7
420
 16777215
176
     1
 90
        1
176
     1
 90
        4
176
     1
 62
     7
176
     1
 62
   257
176
     1
 90
        7
176
     1
 90
        7
176
     1
 40
1.0
176
     1
 90
        8
176
     1
 62
     7
176
     1
 40
1.0
176
     1
 90
        1
176
     1
 90
        6
176
     1
 90
        2
176
     1
 62
     7
176
     1
 90
        5
176
     1
 90
        0
176
     1
 90
        0
176
     1
290
     0
176
     1
 90
        1
176
     1
 40
0.0
176
     1
 90
        0
176
     1
290
     0
176
     1
290
     1
176
     1
290
     1
176
     1
290
     0
176
     1
290
     0
176
     1
290
     0
176
     1
290
     0
176
     1
290
     0
176
     1
290
     0
176
     1
 90
       50
176
     1
 40
0.0
176
     1
 40
1.0
176
     1
 90
        0
176
     1
 62
    18
420
        0
176
     1
 90
       50
176
     1
 90
        3
176
     1
 62
     5
420
      255
176
     1
290
     0
176
     1
 90
       50
176
     1
 90
       50
176
     1
 90
       50
176
     1
290
     0
176
     1
 90
       50
176
     1
 62
   256
176
     0
 40
1.0
176
     0
 90
        2
176
     1
  1
strokes_ogs.tif
176
     1
290
     0
176
     1
 40
1.0
176
     1
 40
1.0
176
     1
  0
VISUALSTYLE
  5
40
102
{ACAD_REACTORS
330
29
102
}
330
29
100
AcDbVisualStyle
  2
OverhangOff
 70
    21
177
     3
291
     1
 70
    58
 90
        2
176
     0
 90
        2
176
     0
 90
        0
176
     0
 90
        0
176
     0
 40
0.6
176
     0
 40
30.0
176
     0
 62
     7
420
 16777215
176
     0
 90
        1
176
     0
 90
        4
176
     0
 62
     7
176
     0
 62
   257
176
     0
 90
        1
176
     0
 90
        1
176
     0
 40
1.0
176
     0
 90
        9
176
     2
 62
     7
176
     0
 40
1.0
176
     0
 90
        1
176
     0
 90
        6
176
     0
 90
        2
176
     0
 62
     7
176
     0
 90
        5
176
     0
 90
        0
176
     0
 90
        0
176
     0
290
     0
176
     0
 90
        1
176
     0
 40
0.0
176
     0
 90
        0
176
     0
290
     0
176
     0
290
     1
176
     0
290
     1
176
     0
290
     0
176
     0
290
     0
176
     0
290
     0
176
     0
290
     0
176
     0
290
     0
176
     0
290
     0
176
     0
 90
       50
176
     0
 40
0.0
176
     0
 40
1.0
176
     0
 90
        0
176
     0
 62
    18
420
        0
176
     0
 90
       50
176
     0
 90
        3
176
     0
 62
     5
420
      255
176
     0
290
     0
176
     0
 90
       50
176
     0
 90
       50
176
     0
 90
       50
176
     0
290
     0
176
     0
 90
       50
176
     0
 62
   256
176
     0
 40
1.0
176
     0
 90
        2
176
     0
  1
strokes_ogs.tif
176
     0
290
     0
176
     0
 40
1.0
176
     0
 40
1.0
176
     0
  0
VISUALSTYLE
  5
33
102
{ACAD_REACTORS
330
29
102
}
330
29
100
AcDbVisualStyle
  2
Realistic
 70
     8
177
     3
291
     0
 70
    58
 90
        2
176
     1
 90
        3
176
     1
 90
        0
176
     1
 90
        2
176
     1
 40
0.6
176
     1
 40
30.0
176
     1
 62
     7
420
 16777215
176
     1
 90
        0
176
     1
 90
        0
176
     1
 62
     7
176
     1
 62
   257
176
     1
 90
        1
176
     1
 90
        1
176
     1
 40
1.0
176
     1
 90
        8
176
     1
 62
   257
176
     1
 40
1.0
176
     1
 90
        1
176
     1
 90
        6
176
     1
 90
        2
176
     1
 62
     7
176
     1
 90
        3
176
     1
 90
        0
176
     1
 90
        0
176
     1
290
     0
176
     1
 90
       13
176
     1
 40
0.0
176
     1
 90
        0
176
     1
290
     0
176
     1
290
     1
176
     1
290
     1
176
     1
290
     0
176
     1
290
     0
176
     1
290
     0
176
     1
290
     0
176
     1
290
     0
176
     1
290
     0
176
     1
 90
       50
176
     1
 40
0.0
176
     1
 40
1.0
176
     1
 90
        0
176
     1
 62
    18
420
        0
176
     1
 90
       50
176
     1
 90
        3
176
     1
 62
     5
420
      255
176
     1
290
     0
176
     1
 90
       50
176
     1
 90
       50
176
     1
 90
       50
176
     1
290
     0
176
     1
 90
       50
176
     1
 62
   256
176
     0
 40
1.0
176
     0
 90
        2
176
     1
  1
strokes_ogs.tif
176
     1
290
     0
176
     1
 40
1.0
176
     1
 40
1.0
176
     1
  0
VISUALSTYLE
  5
3E
102
{ACAD_REACTORS
330
29
102
}
330
29
100
AcDbVisualStyle
  2
Shaded
 70
    27
177
     3
291
     0
 70
    58
 90
        2
176
     1
 90
        2
176
     1
 90
        1
176
     1
 90
        2
176
     1
 40
0.6
176
     1
 40
30.0
176
     1
 62
     7
420
 16777215
176
     1
 90
        0
176
     1
 90
        4
176
     1
 62
     7
176
     1
 62
   257
176
     1
 90
        1
176
     1
 90
        1
176
     1
 40
1.0
176
     1
 90
        8
176
     1
 62
   257
176
     1
 40
1.0
176
     1
 90
        1
176
     1
 90
        6
176
     1
 90
        2
176
     1
 62
     8
420
  7895160
176
     1
 90
        3
176
     1
 90
        0
176
     1
 90
        0
176
     1
290
     0
176
     1
 90
        5
176
     1
 40
0.0
176
     1
 90
        0
176
     1
290
     0
176
     1
290
     1
176
     1
290
     1
176
     1
290
     0
176
     1
290
     0
176
     1
290
     0
176
     1
290
     0
176
     1
290
     0
176
     1
290
     0
176
     1
 90
       50
176
     1
 40
0.0
176
     1
 40
1.0
176
     1
 90
        0
176
     1
 62
    18
420
        0
176
     1
 90
       50
176
     1
 90
        3
176
     1
 62
     5
420
      255
176
     1
290
     0
176
     1
 90
       50
176
     1
 90
       50
176
     1
 90
       50
176
     1
290
     0
176
     1
 90
       50
176
     1
 62
   256
176
     0
 40
1.0
176
     0
 90
        2
176
     1
  1
strokes_ogs.tif
176
     1
290
     0
176
     1
 40
1.0
176
     1
 40
1.0
176
     1
  0
VISUALSTYLE
  5
3D
102
{ACAD_REACTORS
330
29
102
}
330
29
100
AcDbVisualStyle
  2
Shaded with edges
 70
    26
177
     3
291
     0
 70
    58
 90
        2
176
     1
 90
        2
176
     1
 90
        1
176
     1
 90
        2
176
     1
 40
0.6
176
     1
 40
30.0
176
     1
 62
     7
420
 16777215
176
     1
 90
        1
176
     1
 90
       10
176
     1
 62
     7
176
     1
 62
   257
176
     1
 90
        2
176
     1
 90
        1
176
     1
 40
1.0
176
     1
 90
        8
176
     1
 62
   257
176
     1
 40
1.0
176
     1
 90
        1
176
     1
 90
        6
176
     1
 90
        2
176
     1
 62
     7
176
     1
 90
        3
176
     1
 90
        0
176
     1
 90
        0
176
     1
290
     0
176
     1
 90
        5
176
     1
 40
0.0
176
     1
 90
        0
176
     1
290
     0
176
     1
290
     1
176
     1
290
     1
176
     1
290
     0
176
     1
290
     0
176
     1
290
     0
176
     1
290
     0
176
     1
290
     0
176
     1
290
     0
176
     1
 90
       50
176
     1
 40
0.0
176
     1
 40
1.0
176
     1
 90
        0
176
     1
 62
    18
420
        0
176
     1
 90
       50
176
     1
 90
        3
176
     1
 62
     5
420
      255
176
     1
290
     0
176
     1
 90
       50
176
     1
 90
       50
176
     1
 90
       50
176
     1
290
     0
176
     1
 90
       50
176
     1
 62
   256
176
     0
 40
1.0
176
     0
 90
        2
176
     1
  1
strokes_ogs.tif
176
     1
290
     0
176
     1
 40
1.0
176
     1
 40
1.0
176
     1
  0
VISUALSTYLE
  5
3A
102
{ACAD_REACTORS
330
29
102
}
330
29
100
AcDbVisualStyle
  2
Shades of Gray
 70
    23
177
     3
291
     0
 70
    58
 90
        2
176
     1
 90
        2
176
     1
 90
        3
176
     1
 90
        0
176
     1
 40
0.6
176
     1
 40
30.0
176
     1
 62
     7
420
 16777215
176
     1
 90
        2
176
     1
 90
        2
176
     1
 62
     7
176
     1
 62
     7
176
     1
 90
        1
176
     1
 90
        1
176
     1
 40
40.0
176
     1
 90
        8
176
     1
 62
     7
176
     1
 40
1.0
176
     1
 90
        1
176
     1
 90
        6
176
     1
 90
        2
176
     1
 62
     7
176
     1
 90
        3
176
     1
 90
        0
176
     1
 90
        0
176
     1
290
     0
176
     1
 90
        1
176
     1
 40
0.0
176
     1
 90
        0
176
     1
290
     0
176
     1
290
     1
176
     1
290
     1
176
     1
290
     0
176
     1
290
     0
176
     1
290
     0
176
     1
290
     0
176
     1
290
     0
176
     1
290
     0
176
     1
 90
       50
176
     1
 40
0.0
176
     1
 40
1.0
176
     1
 90
        0
176
     1
 62
    18
420
        0
176
     1
 90
       50
176
     1
 90
        3
176
     1
 62
     5
420
      255
176
     1
290
     0
176
     1
 90
       50
176
     1
 90
       50
176
     1
 90
       50
176
     1
290
     0
176
     1
 90
       50
176
     1
 62
   256
176
     0
 40
1.0
176
     0
 90
        2
176
     1
  1
strokes_ogs.tif
176
     1
290
     0
176
     1
 40
1.0
176
     1
 40
1.0
176
     1
  0
VISUALSTYLE
  5
3B
102
{ACAD_REACTORS
330
29
102
}
330
29
100
AcDbVisualStyle
  2
Sketchy
 70
    24
177
     3
291
     0
 70
    58
 90
        1
176
     1
 90
        2
176
     1
 90
        2
176
     1
 90
        0
176
     1
 40
0.6
176
     1
 40
30.0
176
     1
 62
     7
420
 16777215
176
     1
 90
        2
176
     1
 90
        2
176
     1
 62
     7
176
     1
 62
     7
176
     1
 90
        1
176
     1
 90
        1
176
     1
 40
40.0
176
     1
 90
       11
176
     1
 62
     7
176
     1
 40
1.0
176
     1
 90
        1
176
     1
 90
        6
176
     1
 90
        2
176
     1
 62
     7
176
     1
 90
        6
176
     1
 90
        0
176
     1
 90
        0
176
     1
290
     0
176
     1
 90
        1
176
     1
 40
0.0
176
     1
 90
        0
176
     1
290
     0
176
     1
290
     1
176
     1
290
     1
176
     1
290
     0
176
     1
290
     0
176
     1
290
     0
176
     1
290
     0
176
     1
290
     0
176
     1
290
     0
176
     1
 90
       50
176
     1
 40
0.0
176
     1
 40
1.0
176
     1
 90
        0
176
     1
 62
    18
420
        0
176
     1
 90
       50
176
     1
 90
        3
176
     1
 62
     5
420
      255
176
     1
290
     0
176
     1
 90
       50
176
     1
 90
       50
176
     1
 90
       50
176
     1
290
     0
176
     1
 90
       50
176
     1
 62
   256
176
     0
 40
1.0
176
     0
 90
        2
176
     1
  1
strokes_ogs.tif
176
     1
290
     0
176
     1
 40
1.0
176
     1
 40
1.0
176
     1
  0
VISUALSTYLE
  5
36
102
{ACAD_REACTORS
330
29
102
}
330
29
100
AcDbVisualStyle
  2
Thicken
 70
    13
177
     3
291
     1
 70
    58
 90
        2
176
     1
 90
        2
176
     1
 90
        0
176
     1
 90
        0
176
     1
 40
0.6
176
     1
 40
30.0
176
     1
 62
     7
420
 16777215
176
     1
 90
        1
176
     1
 90
        4
176
     1
 62
     7
176
     1
 62
   257
176
     1
 90
        1
176
     1
 90
        1
176
     1
 40
1.0
176
     1
 90
       12
176
     1
 62
     7
176
     1
 40
1.0
176
     1
 90
        1
176
     1
 90
        6
176
     1
 90
        2
176
     1
 62
     7
176
     1
 90
        5
176
     1
 90
        0
176
     1
 90
        0
176
     1
290
     0
176
     1
 90
        1
176
     1
 40
0.0
176
     1
 90
        0
176
     1
290
     0
176
     1
290
     1
176
     1
290
     1
176
     1
290
     0
176
     1
290
     0
176
     1
290
     0
176
     1
290
     0
176
     1
290
     0
176
     1
290
     0
176
     1
 90
       50
176
     1
 40
0.0
176
     1
 40
1.0
176
     1
 90
        0
176
     1
 62
    18
420
        0
176
     1
 90
       50
176
     1
 90
        3
176
     1
 62
     5
420
      255
176
     1
290
     0
176
     1
 90
       50
176
     1
 90
       50
176
     1
 90
       50
176
     1
290
     0
176
     1
 90
       50
176
     1
 62
   256
176
     0
 40
1.0
176
     0
 90
        2
176
     1
  1
strokes_ogs.tif
176
     1
290
     0
176
     1
 40
1.0
176
     1
 40
1.0
176
     1
  0
VISUALSTYLE
  5
30
102
{ACAD_REACTORS
330
29
102
}
330
29
100
AcDbVisualStyle
  2
Wireframe
 70
     5
177
     3
291
     0
 70
    58
 90
        0
176
     1
 90
        2
176
     1
 90
        0
176
     1
 90
        0
176
     1
 40
0.6
176
     1
 40
30.0
176
     1
 62
     7
420
 16777215
176
     1
 90
        1
176
     1
 90
        4
176
     1
 62
     7
176
     1
 62
   257
176
     1
 90
        1
176
     1
 90
        1
176
     1
 40
1.0
176
     1
 90
        0
176
     1
 62
   257
176
     1
 40
1.0
176
     1
 90
        1
176
     1
 90
        6
176
     1
 90
        2
176
     1
 62
     7
176
     1
 90
        3
176
     1
 90
        0
176
     1
 90
        0
176
     1
290
     0
176
     1
 90
        1
176
     1
 40
0.0
176
     1
 90
        0
176
     1
290
     0
176
     1
290
     1
176
     1
290
     1
176
     1
290
     0
176
     1
290
     0
176
     1
290
     0
176
     1
290
     0
176
     1
290
     0
176
     1
290
     0
176
     1
 90
       50
176
     1
 40
0.0
176
     1
 40
1.0
176
     1
 90
        0
176
     1
 62
    18
420
        0
176
     1
 90
       50
176
     1
 90
        3
176
     1
 62
     5
420
      255
176
     1
290
     0
176
     1
 90
       50
176
     1
 90
       50
176
     1
 90
       50
176
     1
290
     0
176
     1
 90
       50
176
     1
 62
   256
176
     0
 40
1.0
176
     0
 90
        2
176
     1
  1
strokes_ogs.tif
176
     1
290
     0
176
     1
 40
1.0
176
     1
 40
1.0
176
     1
  0
VISUALSTYLE
  5
3C
102
{ACAD_REACTORS
330
29
102
}
330
29
100
AcDbVisualStyle
  2
X-Ray
 70
    25
177
     3
291
     0
 70
    58
 90
        2
176
     1
 90
        2
176
     1
 90
        1
176
     1
 90
        1
176
     1
 40
0.5
176
     1
 40
30.0
176
     1
 62
     7
420
 16777215
176
     1
 90
        1
176
     1
 90
        0
176
     1
 62
     7
176
     1
 62
   257
176
     1
 90
        1
176
     1
 90
        1
176
     1
 40
1.0
176
     1
 90
        8
176
     1
 62
     7
176
     1
 40
1.0
176
     1
 90
        1
176
     1
 90
        6
176
     1
 90
        2
176
     1
 62
     7
176
     1
 90
        3
176
     1
 90
        0
176
     1
 90
        0
176
     1
290
     0
176
     1
 90
       13
176
     1
 40
0.0
176
     1
 90
        0
176
     1
290
     0
176
     1
290
     1
176
     1
290
     1
176
     1
290
     0
176
     1
290
     0
176
     1
290
     0
176
     1
290
     0
176
     1
290
     0
176
     1
290
     0
176
     1
 90
       50
176
     1
 40
0.0
176
     1
 40
1.0
176
     1
 90
        0
176
     1
 62
    18
420
        0
176
     1
 90
       50
176
     1
 90
        3
176
     1
 62
     5
420
      255
176
     1
290
     0
176
     1
 90
       50
176
     1
 90
       50
176
     1
 90
       50
176
     1
290
     0
176
     1
 90
       50
176
     1
 62
   256
176
     0
 40
1.0
176
     0
 90
        2
176
     1
  1
strokes_ogs.tif
176
     1
290
     0
176
     1
 40
1.0
176
     1
 40
1.0
176
     1
  0
DICTIONARYVAR
  5
81
102
{ACAD_REACTORS
330
7C
102
}
330
7C
100
DictionaryVariables
280
     0
  1
1:1
  0
DICTIONARYVAR
  5
7E
102
{ACAD_REACTORS
330
7C
102
}
330
7C
100
DictionaryVariables
280
     0
  1
STANDARD
  0
DICTIONARYVAR
  5
7D
102
{ACAD_REACTORS
330
7C
102
}
330
7C
100
DictionaryVariables
280
     0
  1
STANDARD
  0
DICTIONARYVAR
  5
7F
102
{ACAD_REACTORS
330
7C
102
}
330
7C
100
DictionaryVariables
280
     0
  1
Imperial24
  0
DICTIONARYVAR
  5
80
102
{ACAD_REACTORS
330
7C
102
}
330
7C
100
DictionaryVariables
280
     0
  1
Imperial24
  0
XRECORD
  5
1BC
102
{ACAD_REACTORS
330
1B8
102
}
330
1B8
100
AcDbXrecord
280
     1
  1
BUILDING_ID
  1
Progetto per messa in tavola DXF, DWG
  1
FLOOR_ID
  1
694395
  0
XRECORD
  5
1BA
102
{ACAD_REACTORS
330
1B8
102
}
330
1B8
100
AcDbXrecord
280
     1
  1
-2001160
  1
Apparecchi idraulici
  0
XRECORD
  5
1BB
102
{ACAD_REACTORS
330
1B8
102
}
330
1B8
100
AcDbXrecord
280
     1
  1
856288
  1
Lever
  0
XRECORD
  5
1B9
102
{ACAD_REACTORS
330
1B8
102
}
330
1B8
100
AcDbXrecord
280
     1
  1
859151
  1
Automatic flow rate regulator valve_Caleffi_121 DN15 : 1/2''
  0
DICTIONARY
  5
1A
330
19
100
AcDbDictionary
280
     1
281
     1
  3
BUMPTILE
360
1C
  3
DIFFUSETILE
360
1B
  3
OPACITYTILE
360
1F
  3
REFLECTIONTILE
360
1E
  3
REFRACTIONTILE
360
20
  3
SPECULARTILE
360
1D
  0
DICTIONARY
  5
12
330
11
100
AcDbDictionary
280
     1
281
     1
  3
BUMPTILE
360
14
  3
DIFFUSETILE
360
13
  3
OPACITYTILE
360
17
  3
REFLECTIONTILE
360
16
  3
REFRACTIONTILE
360
18
  3
SPECULARTILE
360
15
  0
DICTIONARY
  5
22
330
21
100
AcDbDictionary
280
     1
281
     1
  3
BUMPTILE
360
24
  3
DIFFUSETILE
360
23
  3
OPACITYTILE
360
27
  3
REFLECTIONTILE
360
26
  3
REFRACTIONTILE
360
28
  3
SPECULARTILE
360
25
  0
DICTIONARY
  5
1BF
330
65
100
AcDbDictionary
280
     1
281
     1
  3
ACAD_ROUNDTRIP_2008_TABLESTYLE_CELLSTYLEMAP
360
1C0
  0
XRECORD
  5
1C
102
{ACAD_REACTORS
330
1A
102
}
330
1A
100
AcDbXrecord
280
     1
270
     1
271
     1
  0
XRECORD
  5
1B
102
{ACAD_REACTORS
330
1A
102
}
330
1A
100
AcDbXrecord
280
     1
270
     1
271
     1
  0
XRECORD
  5
1F
102
{ACAD_REACTORS
330
1A
102
}
330
1A
100
AcDbXrecord
280
     1
270
     1
271
     1
  0
XRECORD
  5
1E
102
{ACAD_REACTORS
330
1A
102
}
330
1A
100
AcDbXrecord
280
     1
270
     1
271
     1
  0
XRECORD
  5
20
102
{ACAD_REACTORS
330
1A
102
}
330
1A
100
AcDbXrecord
280
     1
270
     1
271
     1
  0
XRECORD
  5
1D
102
{ACAD_REACTORS
330
1A
102
}
330
1A
100
AcDbXrecord
280
     1
270
     1
271
     1
  0
XRECORD
  5
14
102
{ACAD_REACTORS
330
12
102
}
330
12
100
AcDbXrecord
280
     1
270
     1
271
     1
  0
XRECORD
  5
13
102
{ACAD_REACTORS
330
12
102
}
330
12
100
AcDbXrecord
280
     1
270
     1
271
     1
  0
XRECORD
  5
17
102
{ACAD_REACTORS
330
12
102
}
330
12
100
AcDbXrecord
280
     1
270
     1
271
     1
  0
XRECORD
  5
16
102
{ACAD_REACTORS
330
12
102
}
330
12
100
AcDbXrecord
280
     1
270
     1
271
     1
  0
XRECORD
  5
18
102
{ACAD_REACTORS
330
12
102
}
330
12
100
AcDbXrecord
280
     1
270
     1
271
     1
  0
XRECORD
  5
15
102
{ACAD_REACTORS
330
12
102
}
330
12
100
AcDbXrecord
280
     1
270
     1
271
     1
  0
XRECORD
  5
24
102
{ACAD_REACTORS
330
22
102
}
330
22
100
AcDbXrecord
280
     1
270
     1
271
     1
  0
XRECORD
  5
23
102
{ACAD_REACTORS
330
22
102
}
330
22
100
AcDbXrecord
280
     1
270
     1
271
     1
  0
XRECORD
  5
27
102
{ACAD_REACTORS
330
22
102
}
330
22
100
AcDbXrecord
280
     1
270
     1
271
     1
  0
XRECORD
  5
26
102
{ACAD_REACTORS
330
22
102
}
330
22
100
AcDbXrecord
280
     1
270
     1
271
     1
  0
XRECORD
  5
28
102
{ACAD_REACTORS
330
22
102
}
330
22
100
AcDbXrecord
280
     1
270
     1
271
     1
  0
XRECORD
  5
25
102
{ACAD_REACTORS
330
22
102
}
330
22
100
AcDbXrecord
280
     1
270
     1
271
     1
  0
CELLSTYLEMAP
  5
1C0
102
{ACAD_REACTORS
330
1BF
102
}
330
1BF
100
AcDbCellStyleMap
 90
        3
300
CELLSTYLE
  1
TABLEFORMAT_BEGIN
 90
        5
170
     1
 91
        0
 92
    32768
 62
   257
 93
        1
300
CONTENTFORMAT
  1
CONTENTFORMAT_BEGIN
 90
        0
 91
        0
 92
      512
 93
        0
300

 40
0.0
140
1.0
 94
        5
 62
     0
340
55
144
0.25
309
CONTENTFORMAT_END
171
     0
 94
        0
309
TABLEFORMAT_END
  1
CELLSTYLE_BEGIN
 90
        1
 91
        1
300
_TITLE
309
CELLSTYLE_END
300
CELLSTYLE
  1
TABLEFORMAT_BEGIN
 90
        5
170
     1
 91
        0
 92
        0
 62
   257
 93
        1
300
CONTENTFORMAT
  1
CONTENTFORMAT_BEGIN
 90
        0
 91
        0
 92
      512
 93
        0
300

 40
0.0
140
1.0
 94
        5
 62
     0
340
55
144
0.18
309
CONTENTFORMAT_END
171
     0
 94
        0
309
TABLEFORMAT_END
  1
CELLSTYLE_BEGIN
 90
        2
 91
        1
300
_HEADER
309
CELLSTYLE_END
300
CELLSTYLE
  1
TABLEFORMAT_BEGIN
 90
        5
170
     1
 91
        0
 92
        0
 62
   257
 93
        1
300
CONTENTFORMAT
  1
CONTENTFORMAT_BEGIN
 90
        0
 91
        0
 92
      512
 93
        0
300

 40
0.0
140
1.0
 94
        2
 62
     0
340
55
144
0.18
309
CONTENTFORMAT_END
171
     0
 94
        0
309
TABLEFORMAT_END
  1
CELLSTYLE_BEGIN
 90
        3
 91
        2
300
_DATA
309
CELLSTYLE_END
  0
ENDSEC
  0
EOF
