  0
SECTION
  2
HEADER
  9
$ACADVER
  1
AC1027
  9
$ACADMAINTVER
 70
    20
  9
$DWGCODEPAGE
  3
ANSI_1252
  9
$REQUIREDVERSIONS
160
                 0
  9
$INSBASE
 10
0.0
 20
0.0
 30
0.0
  9
$EXTMIN
 10
770.1664074431605
 20
1814.995878730052
 30
-0.00000001
  9
$EXTMAX
 10
1093.364353953097
 20
2086.950000000012
 30
0.00000001
  9
$LIMMIN
 10
0.0
 20
0.0
  9
$LIMMAX
 10
12.0
 20
9.0
  9
$ORTHOMODE
 70
     0
  9
$REGENMODE
 70
     1
  9
$FILLMODE
 70
     1
  9
$QTEXTMODE
 70
     0
  9
$MIRRTEXT
 70
     0
  9
$LTSCALE
 40
1.0
  9
$ATTMODE
 70
     1
  9
$TEXTSIZE
 40
0.2
  9
$TRACEWID
 40
0.05
  9
$TEXTSTYLE
  7
Standard
  9
$CLAYER
  8
0
  9
$CELTYPE
  6
ByLayer
  9
$CECOLOR
 62
   256
  9
$CELTSCALE
 40
1.0
  9
$DISPSILH
 70
     0
  9
$DIMSCALE
 40
1.0
  9
$DIMASZ
 40
0.18
  9
$DIMEXO
 40
0.0625
  9
$DIMDLI
 40
0.38
  9
$DIMRND
 40
0.0
  9
$DIMDLE
 40
0.0
  9
$DIMEXE
 40
0.18
  9
$DIMTP
 40
0.0
  9
$DIMTM
 40
0.0
  9
$DIMTXT
 40
0.18
  9
$DIMCEN
 40
0.09
  9
$DIMTSZ
 40
0.0
  9
$DIMTOL
 70
     0
  9
$DIMLIM
 70
     0
  9
$DIMTIH
 70
     1
  9
$DIMTOH
 70
     1
  9
$DIMSE1
 70
     0
  9
$DIMSE2
 70
     0
  9
$DIMTAD
 70
     0
  9
$DIMZIN
 70
     0
  9
$DIMBLK
  1

  9
$DIMASO
 70
     1
  9
$DIMSHO
 70
     1
  9
$DIMPOST
  1

  9
$DIMAPOST
  1

  9
$DIMALT
 70
     0
  9
$DIMALTD
 70
     2
  9
$DIMALTF
 40
25.4
  9
$DIMLFAC
 40
1.0
  9
$DIMTOFL
 70
     0
  9
$DIMTVP
 40
0.0
  9
$DIMTIX
 70
     0
  9
$DIMSOXD
 70
     0
  9
$DIMSAH
 70
     0
  9
$DIMBLK1
  1

  9
$DIMBLK2
  1

  9
$DIMSTYLE
  2
Standard
  9
$DIMCLRD
 70
     0
  9
$DIMCLRE
 70
     0
  9
$DIMCLRT
 70
     0
  9
$DIMTFAC
 40
1.0
  9
$DIMGAP
 40
0.09
  9
$DIMJUST
 70
     0
  9
$DIMSD1
 70
     0
  9
$DIMSD2
 70
     0
  9
$DIMTOLJ
 70
     1
  9
$DIMTZIN
 70
     0
  9
$DIMALTZ
 70
     0
  9
$DIMALTTZ
 70
     0
  9
$DIMUPT
 70
     0
  9
$DIMDEC
 70
     4
  9
$DIMTDEC
 70
     4
  9
$DIMALTU
 70
     2
  9
$DIMALTTD
 70
     2
  9
$DIMTXSTY
  7
Standard
  9
$DIMAUNIT
 70
     0
  9
$DIMADEC
 70
     0
  9
$DIMALTRND
 40
0.0
  9
$DIMAZIN
 70
     0
  9
$DIMDSEP
 70
    46
  9
$DIMATFIT
 70
     3
  9
$DIMFRAC
 70
     0
  9
$DIMLDRBLK
  1

  9
$DIMLUNIT
 70
     2
  9
$DIMLWD
 70
    -2
  9
$DIMLWE
 70
    -2
  9
$DIMTMOVE
 70
     0
  9
$DIMFXL
 40
1.0
  9
$DIMFXLON
 70
     0
  9
$DIMJOGANG
 40
0.7853981633974483
  9
$DIMTFILL
 70
     0
  9
$DIMTFILLCLR
 70
     0
  9
$DIMARCSYM
 70
     0
  9
$DIMLTYPE
  6

  9
$DIMLTEX1
  6

  9
$DIMLTEX2
  6

  9
$DIMTXTDIRECTION
 70
     0
  9
$LUNITS
 70
     2
  9
$LUPREC
 70
     4
  9
$SKETCHINC
 40
0.1
  9
$FILLETRAD
 40
0.0
  9
$AUNITS
 70
     0
  9
$AUPREC
 70
     0
  9
$MENU
  1
.
  9
$ELEVATION
 40
0.0
  9
$PELEVATION
 40
0.0
  9
$THICKNESS
 40
0.0
  9
$LIMCHECK
 70
     0
  9
$CHAMFERA
 40
0.0
  9
$CHAMFERB
 40
0.0
  9
$CHAMFERC
 40
0.0
  9
$CHAMFERD
 40
0.0
  9
$SKPOLY
 70
     0
  9
$TDCREATE
 40
2457550.672783217
  9
$TDUCREATE
 40
2457550.589449885
  9
$TDUPDATE
 40
2457550.672783217
  9
$TDUUPDATE
 40
2457550.589449885
  9
$TDINDWG
 40
0.0000077315
  9
$TDUSRTIMER
 40
0.0000077315
  9
$USRTIMER
 70
     1
  9
$ANGBASE
 50
0.0
  9
$ANGDIR
 70
     0
  9
$PDMODE
 70
     0
  9
$PDSIZE
 40
0.0
  9
$PLINEWID
 40
0.0
  9
$SPLFRAME
 70
     0
  9
$SPLINETYPE
 70
     6
  9
$SPLINESEGS
 70
     8
  9
$HANDSEED
  5
1D3
  9
$SURFTAB1
 70
     6
  9
$SURFTAB2
 70
     6
  9
$SURFTYPE
 70
     6
  9
$SURFU
 70
     6
  9
$SURFV
 70
     6
  9
$UCSBASE
  2

  9
$UCSNAME
  2

  9
$UCSORG
 10
0.0
 20
0.0
 30
0.0
  9
$UCSXDIR
 10
1.0
 20
0.0
 30
0.0
  9
$UCSYDIR
 10
0.0
 20
1.0
 30
0.0
  9
$UCSORTHOREF
  2

  9
$UCSORTHOVIEW
 70
     0
  9
$UCSORGTOP
 10
0.0
 20
0.0
 30
0.0
  9
$UCSORGBOTTOM
 10
0.0
 20
0.0
 30
0.0
  9
$UCSORGLEFT
 10
0.0
 20
0.0
 30
0.0
  9
$UCSORGRIGHT
 10
0.0
 20
0.0
 30
0.0
  9
$UCSORGFRONT
 10
0.0
 20
0.0
 30
0.0
  9
$UCSORGBACK
 10
0.0
 20
0.0
 30
0.0
  9
$PUCSBASE
  2

  9
$PUCSNAME
  2

  9
$PUCSORG
 10
0.0
 20
0.0
 30
0.0
  9
$PUCSXDIR
 10
1.0
 20
0.0
 30
0.0
  9
$PUCSYDIR
 10
0.0
 20
1.0
 30
0.0
  9
$PUCSORTHOREF
  2

  9
$PUCSORTHOVIEW
 70
     0
  9
$PUCSORGTOP
 10
0.0
 20
0.0
 30
0.0
  9
$PUCSORGBOTTOM
 10
0.0
 20
0.0
 30
0.0
  9
$PUCSORGLEFT
 10
0.0
 20
0.0
 30
0.0
  9
$PUCSORGRIGHT
 10
0.0
 20
0.0
 30
0.0
  9
$PUCSORGFRONT
 10
0.0
 20
0.0
 30
0.0
  9
$PUCSORGBACK
 10
0.0
 20
0.0
 30
0.0
  9
$USERI1
 70
     0
  9
$USERI2
 70
     0
  9
$USERI3
 70
     0
  9
$USERI4
 70
     0
  9
$USERI5
 70
     0
  9
$USERR1
 40
0.0
  9
$USERR2
 40
0.0
  9
$USERR3
 40
0.0
  9
$USERR4
 40
0.0
  9
$USERR5
 40
0.0
  9
$WORLDVIEW
 70
     1
  9
$SHADEDGE
 70
     3
  9
$SHADEDIF
 70
    70
  9
$TILEMODE
 70
     1
  9
$MAXACTVP
 70
    64
  9
$PINSBASE
 10
0.0
 20
0.0
 30
0.0
  9
$PLIMCHECK
 70
     0
  9
$PEXTMIN
 10
1.000000000000000E+20
 20
1.000000000000000E+20
 30
1.000000000000000E+20
  9
$PEXTMAX
 10
-1.000000000000000E+20
 20
-1.000000000000000E+20
 30
-1.000000000000000E+20
  9
$PLIMMIN
 10
0.0
 20
0.0
  9
$PLIMMAX
 10
12.0
 20
9.0
  9
$UNITMODE
 70
     0
  9
$VISRETAIN
 70
     1
  9
$PLINEGEN
 70
     0
  9
$PSLTSCALE
 70
     1
  9
$TREEDEPTH
 70
  3020
  9
$CMLSTYLE
  2
Standard
  9
$CMLJUST
 70
     0
  9
$CMLSCALE
 40
1.0
  9
$PROXYGRAPHICS
 70
     1
  9
$MEASUREMENT
 70
     1
  9
$CELWEIGHT
370
    -1
  9
$ENDCAPS
280
     0
  9
$JOINSTYLE
280
     0
  9
$LWDISPLAY
290
     0
  9
$INSUNITS
 70
     4
  9
$HYPERLINKBASE
  1

  9
$STYLESHEET
  1

  9
$XEDIT
290
     1
  9
$CEPSNTYPE
380
     0
  9
$PSTYLEMODE
290
     1
  9
$FINGERPRINTGUID
  2
{70DFE0B5-4861-4C3F-8CEB-40AE64977210}
  9
$VERSIONGUID
  2
{053A445C-B6EA-4687-96D4-80B04BDA4F77}
  9
$EXTNAMES
290
     1
  9
$PSVPSCALE
 40
0.0
  9
$OLESTARTUP
290
     0
  9
$SORTENTS
280
   127
  9
$INDEXCTL
280
     0
  9
$HIDETEXT
280
     1
  9
$XCLIPFRAME
280
     2
  9
$HALOGAP
280
     0
  9
$OBSCOLOR
 70
   257
  9
$OBSLTYPE
280
     0
  9
$INTERSECTIONDISPLAY
280
     0
  9
$INTERSECTIONCOLOR
 70
   257
  9
$DIMASSOC
280
     2
  9
$PROJECTNAME
  1

  9
$CAMERADISPLAY
290
     0
  9
$LENSLENGTH
 40
50.0
  9
$CAMERAHEIGHT
 40
0.0
  9
$STEPSPERSEC
 40
2.0
  9
$STEPSIZE
 40
6.0
  9
$3DDWFPREC
 40
2.0
  9
$PSOLWIDTH
 40
0.25
  9
$PSOLHEIGHT
 40
4.0
  9
$LOFTANG1
 40
1.570796326794896
  9
$LOFTANG2
 40
1.570796326794896
  9
$LOFTMAG1
 40
0.0
  9
$LOFTMAG2
 40
0.0
  9
$LOFTPARAM
 70
     7
  9
$LOFTNORMALS
280
     1
  9
$LATITUDE
 40
37.795
  9
$LONGITUDE
 40
-122.394
  9
$NORTHDIRECTION
 40
0.0
  9
$TIMEZONE
 70
 -8000
  9
$LIGHTGLYPHDISPLAY
280
     1
  9
$TILEMODELIGHTSYNCH
280
     1
  9
$CMATERIAL
347
11
  9
$SOLIDHIST
280
     0
  9
$SHOWHIST
280
     1
  9
$DWFFRAME
280
     2
  9
$DGNFRAME
280
     0
  9
$REALWORLDSCALE
290
     1
  9
$INTERFERECOLOR
 62
     1
  9
$INTERFEREOBJVS
345
33
  9
$INTERFEREVPVS
346
30
  9
$CSHADOW
280
     0
  9
$SHADOWPLANELOCATION
 40
0.0
  0
ENDSEC
  0
SECTION
  2
CLASSES
  0
CLASS
  1
ACDBDICTIONARYWDFLT
  2
AcDbDictionaryWithDefault
  3
ObjectDBX Classes
 90
        0
 91
        1
280
     0
281
     0
  0
CLASS
  1
MATERIAL
  2
AcDbMaterial
  3
ObjectDBX Classes
 90
     1153
 91
        3
280
     0
281
     0
  0
CLASS
  1
VISUALSTYLE
  2
AcDbVisualStyle
  3
ObjectDBX Classes
 90
     4095
 91
       24
280
     0
281
     0
  0
CLASS
  1
SCALE
  2
AcDbScale
  3
ObjectDBX Classes
 90
     1153
 91
       17
280
     0
281
     0
  0
CLASS
  1
TABLESTYLE
  2
AcDbTableStyle
  3
ObjectDBX Classes
 90
     4095
 91
        1
280
     0
281
     0
  0
CLASS
  1
MLEADERSTYLE
  2
AcDbMLeaderStyle
  3
ACDB_MLEADERSTYLE_CLASS
 90
     4095
 91
        1
280
     0
281
     0
  0
CLASS
  1
ACDBSECTIONVIEWSTYLE
  2
AcDbSectionViewStyle
  3
ObjectDBX Classes
 90
     1025
 91
        1
280
     0
281
     0
  0
CLASS
  1
ACDBDETAILVIEWSTYLE
  2
AcDbDetailViewStyle
  3
ObjectDBX Classes
 90
     1025
 91
        1
280
     0
281
     0
  0
CLASS
  1
RASTERVARIABLES
  2
AcDbRasterVariables
  3
ISM
 90
        0
 91
        1
280
     0
281
     0
  0
CLASS
  1
DICTIONARYVAR
  2
AcDbDictionaryVar
  3
ObjectDBX Classes
 90
        0
 91
        5
280
     0
281
     0
  0
CLASS
  1
CELLSTYLEMAP
  2
AcDbCellStyleMap
  3
ObjectDBX Classes
 90
     1152
 91
        2
280
     0
281
     0
  0
CLASS
  1
SORTENTSTABLE
  2
AcDbSortentsTable
  3
ObjectDBX Classes
 90
        0
 91
        1
280
     0
281
     0
  0
ENDSEC
  0
SECTION
  2
TABLES
  0
TABLE
  2
VPORT
  5
8
330
0
100
AcDbSymbolTable
 70
     1
  0
VPORT
  5
57
330
8
100
AcDbSymbolTableRecord
100
AcDbViewportTableRecord
  2
*Active
 70
     0
 10
0.0
 20
0.0
 11
1.0
 21
1.0
 12
931.7653806981288
 22
1950.972939365032
 13
0.0
 23
0.0
 14
1.0
 24
1.0
 15
0.0
 25
0.0
 16
0.0
 26
0.0
 36
1.0
 17
0.0
 27
0.0
 37
0.0
 40
271.9541212699598
 41
1.188428198847219
 42
50.0
 43
0.0
 44
0.0
 50
0.0
 51
0.0
 71
     0
 72
  1000
 73
     1
 74
     1
 75
     0
 76
     0
 77
     0
 78
     0
281
     0
 65
     1
110
0.0
120
0.0
130
0.0
111
1.0
121
0.0
131
0.0
112
0.0
122
1.0
132
0.0
 79
     0
146
0.0
 60
     3
 61
     5
292
     1
282
     1
141
0.0
142
0.0
 63
   250
421
  3355443
  0
ENDTAB
  0
TABLE
  2
LTYPE
  5
5
330
0
100
AcDbSymbolTable
 70
     3
  0
LTYPE
  5
5B
330
5
100
AcDbSymbolTableRecord
100
AcDbLinetypeTableRecord
  2
ByBlock
 70
     0
  3

 72
    65
 73
     0
 40
0.0
  0
LTYPE
  5
5C
330
5
100
AcDbSymbolTableRecord
100
AcDbLinetypeTableRecord
  2
ByLayer
 70
     0
  3

 72
    65
 73
     0
 40
0.0
  0
LTYPE
  5
5D
330
5
100
AcDbSymbolTableRecord
100
AcDbLinetypeTableRecord
  2
Continuous
 70
     0
  3
Solid line
 72
    65
 73
     0
 40
0.0
  0
LTYPE
  5
69
330
5
100
AcDbSymbolTableRecord
100
AcDbLinetypeTableRecord
  2
PHANTOM2
 70
     0
  3
___ _ _ ___ _ _ ___ _ _ ___ _ _
 72
    65
 73
     6
 40
1.25
 49
0.625
 74
     0
 49
-0.125
 74
     0
 49
0.125
 74
     0
 49
-0.125
 74
     0
 49
0.125
 74
     0
 49
-0.125
 74
     0
  0
LTYPE
  5
86
330
5
100
AcDbSymbolTableRecord
100
AcDbLinetypeTableRecord
  2
Nascosto 1_5 mm
 70
     0
  3

 72
    65
 73
     2
 40
2.2
 49
1.5
 74
     0
 49
-0.7000000000000001
 74
     0
  0
ENDTAB
  0
TABLE
  2
LAYER
  5
2
330
0
100
AcDbSymbolTable
 70
     4
  0
LAYER
  5
54
330
2
100
AcDbSymbolTableRecord
100
AcDbLayerTableRecord
  2
0
 70
     0
 62
     7
  6
Continuous
370
    -3
390
F
347
21
348
0
  0
LAYER
  5
85
330
2
100
AcDbSymbolTableRecord
100
AcDbLayerTableRecord
  2
P-SANR-FIXT
 70
     0
 62
     6
  6
Continuous
370
    18
390
F
347
21
348
0
  0
LAYER
  5
88
330
2
100
AcDbSymbolTableRecord
100
AcDbLayerTableRecord
  2
M-PIPE
 70
     0
 62
     3
  6
Continuous
370
    18
390
F
347
21
348
0
  0
ENDTAB
  0
TABLE
  2
STYLE
  5
3
330
0
100
AcDbSymbolTable
 70
     2
  0
STYLE
  5
55
330
3
100
AcDbSymbolTableRecord
100
AcDbTextStyleTableRecord
  2
Standard
 70
     0
 40
0.0
 41
1.0
 50
0.0
 71
     0
 42
0.2
  3
txt
  4

  0
STYLE
  5
5A
330
3
100
AcDbSymbolTableRecord
100
AcDbTextStyleTableRecord
  2
Annotative
 70
     0
 40
0.0
 41
1.0
 50
0.0
 71
     0
 42
0.2
  3
txt
  4

1001
AcadAnnotative
1000
AnnotativeData
1002
{
1070
     1
1070
     1
1002
}
  0
ENDTAB
  0
TABLE
  2
VIEW
  5
6
330
0
100
AcDbSymbolTable
 70
     0
  0
ENDTAB
  0
TABLE
  2
UCS
  5
7
330
0
100
AcDbSymbolTable
 70
     0
  0
ENDTAB
  0
TABLE
  2
APPID
  5
9
330
0
100
AcDbSymbolTable
 70
     3
  0
APPID
  5
56
330
9
100
AcDbSymbolTableRecord
100
AcDbRegAppTableRecord
  2
ACAD
 70
     0
  0
APPID
  5
5E
330
9
100
AcDbSymbolTableRecord
100
AcDbRegAppTableRecord
  2
AcadAnnotative
 70
     0
  0
APPID
  5
79
330
9
100
AcDbSymbolTableRecord
100
AcDbRegAppTableRecord
  2
REVIT
 70
     0
  0
ENDTAB
  0
TABLE
  2
DIMSTYLE
  5
A
330
0
100
AcDbSymbolTable
 70
     2
100
AcDbDimStyleTable
 71
     0
  0
DIMSTYLE
105
58
330
A
100
AcDbSymbolTableRecord
100
AcDbDimStyleTableRecord
  2
Standard
 70
     0
340
55
  0
DIMSTYLE
105
59
330
A
100
AcDbSymbolTableRecord
100
AcDbDimStyleTableRecord
  2
Annotative
 70
     0
340
55
1001
AcadAnnotative
1000
AnnotativeData
1002
{
1070
     1
1070
     1
1002
}
  0
ENDTAB
  0
TABLE
  2
BLOCK_RECORD
  5
1
330
0
100
AcDbSymbolTable
 70
     4
  0
BLOCK_RECORD
  5
71
102
{ACAD_XDICTIONARY
360
1CE
102
}
330
1
100
AcDbSymbolTableRecord
100
AcDbBlockTableRecord
  2
*Model_Space
340
74
 70
     0
280
     1
281
     0
  0
BLOCK_RECORD
  5
6D
330
1
100
AcDbSymbolTableRecord
100
AcDbBlockTableRecord
  2
*Paper_Space
340
70
 70
     0
280
     1
281
     0
  0
BLOCK_RECORD
  5
75
330
1
100
AcDbSymbolTableRecord
100
AcDbBlockTableRecord
  2
*Paper_Space0
340
78
 70
     0
280
     1
281
     0
  0
BLOCK_RECORD
  5
87
330
1
100
AcDbSymbolTableRecord
100
AcDbBlockTableRecord
  2
Automatic flow rate regulator valve_Caleffi_121 DN15 - 1_2__-859151-Est - Idraulica
340
0
102
{BLKREFS
331
103
102
}
 70
     0
280
     1
281
     0
  0
BLOCK_RECORD
  5
104
330
1
100
AcDbSymbolTableRecord
100
AcDbBlockTableRecord
  2
Automatic flow rate regulator valve_Caleffi_121 DN15 - 1_2__-V1-Est - Idraulica
340
0
102
{BLKREFS
331
168
102
}
 70
     0
280
     1
281
     0
  0
BLOCK_RECORD
  5
169
330
1
100
AcDbSymbolTableRecord
100
AcDbBlockTableRecord
  2
Automatic flow rate regulator valve_Caleffi_121 DN15 - 1_2__-V2-Est - Idraulica
340
0
102
{BLKREFS
331
1C7
102
}
 70
     0
280
     1
281
     0
  0
ENDTAB
  0
ENDSEC
  0
SECTION
  2
BLOCKS
  0
BLOCK
  5
72
330
71
100
AcDbEntity
  8
0
100
AcDbBlockBegin
  2
*Model_Space
 70
     0
 10
0.0
 20
0.0
 30
0.0
  3
*Model_Space
  1

  0
ENDBLK
  5
73
330
71
100
AcDbEntity
  8
0
100
AcDbBlockEnd
  0
BLOCK
  5
6E
330
6D
100
AcDbEntity
 67
     1
  8
0
100
AcDbBlockBegin
  2
*Paper_Space
 70
     0
 10
0.0
 20
0.0
 30
0.0
  3
*Paper_Space
  1

  0
ENDBLK
  5
6F
330
6D
100
AcDbEntity
 67
     1
  8
0
100
AcDbBlockEnd
  0
BLOCK
  5
76
330
75
100
AcDbEntity
 67
     1
  8
0
100
AcDbBlockBegin
  2
*Paper_Space0
 70
     0
 10
0.0
 20
0.0
 30
0.0
  3
*Paper_Space0
  1

  0
ENDBLK
  5
77
330
75
100
AcDbEntity
 67
     1
  8
0
100
AcDbBlockEnd
  0
BLOCK
  5
101
330
87
100
AcDbEntity
  8
0
100
AcDbBlockBegin
  2
Automatic flow rate regulator valve_Caleffi_121 DN15 - 1_2__-859151-Est - Idraulica
 70
     0
 10
0.0
 20
0.0
 30
0.0
  3
Automatic flow rate regulator valve_Caleffi_121 DN15 - 1_2__-859151-Est - Idraulica
  1

  0
LINE
  5
89
330
87
100
AcDbEntity
  8
M-PIPE
100
AcDbLine
 10
953.5164074431886
 20
2086.950000000012
 30
0.0
 11
953.5164074431888
 21
2066.650000000012
 31
0.0
1001
REVIT
1002
{
1070
     3
1000
856288
1002
}
  0
LWPOLYLINE
  5
8A
330
87
100
AcDbEntity
  8
M-PIPE
100
AcDbPolyline
 90
       80
 70
   128
 43
0.0
 10
953.5164074431886
 20
2086.950000000012
 10
953.9222991851831
 20
2086.941881082621
 10
954.3275415869757
 20
2086.917537318983
 10
954.731486347171
 20
2086.877007653928
 10
955.1334872403231
 20
2086.820356926274
 10
955.5329011507584
 20
2086.7476757651
 10
955.929089101424
 20
2086.65908044476
 10
956.3214172761144
 20
2086.554712698866
 10
956.7092580334422
 20
2086.434739493549
 10
957.0919909109308
 20
2086.299352760343
 10
957.4690036176214
 20
2086.148769089141
 10
957.8396930136085
 20
2085.983229381694
 10
958.2034660749346
 20
2085.802998466221
 10
958.5597408423026
 20
2085.60836467374
 10
958.9079473520856
 20
2085.399639376798
 10
959.2475285481484
 20
2085.177156491345
 10
959.577941173017
 20
2084.941271942537
 10
959.8986566369763
 20
2084.692363095333
 10
960.2091618636992
 20
2084.430828150792
 10
960.5089601110606
 20
2084.157085509032
 10
960.7975717658188
 20
2083.871573099886
 10
961.0745351108928
 20
2083.574747682301
 10
961.3394070640133
 20
2083.267084113627
 10
961.5917638865578
 20
2082.949074589943
 10
961.8312018614437
 20
2082.621227858647
 10
962.0573379389888
 20
2082.284068404574
 10
962.2698103497086
 20
2081.938135610924
 10
962.4682791830709
 20
2081.583982896375
 10
962.6524269312803
 20
2081.22217682972
 10
962.821958997222
 20
2080.853296223486
 10
962.9766041657559
 20
2080.47793120795
 10
963.1161150376016
 20
2080.096682287065
 10
963.2402684251243
 20
2079.710159377776
 10
963.348865709389
 20
2079.318980834283
 10
963.441733157907
 20
2078.923772458809
 10
963.5187222025715
 20
2078.525166500449
 10
963.5797096773343
 20
2078.123800643704
 10
963.6245980152455
 20
2077.720316988325
 10
963.6533154045409
 20
2077.315361022087
 10
963.6658159035226
 20
2076.909580588153
 10
963.6620795140599
 20
2076.503624848653
 10
963.6421122135784
 20
2076.098143246173
 10
963.605945945499
 20
2075.693784464777
 10
963.5536385681364
 20
2075.291195392257
 10
963.4852737621354
 20
2074.891020085249
 10
963.4009608966024
 20
2074.493898738877
 10
963.3008348541361
 20
2074.100466662581
 10
963.1850558150453
 20
2073.711353263755
 10
963.0538090010947
 20
2073.32718104083
 10
962.9073043791887
 20
2072.948564587412
 10
962.7457763254694
 20
2072.576109609058
 10
962.5694832503656
 20
2072.210411954282
 10
962.3787071851898
 20
2071.852056661318
 10
962.1737533309504
 20
2071.501617022191
 10
961.9549495700923
 20
2071.159653665568
 10
961.7226459419576
 20
2070.826713659871
 10
961.4772140827955
 20
2070.503329638083
 10
961.2190466312251
 20
2070.190018945657
 10
960.9485566000957
 20
2069.887282812864
 10
960.6661767157559
 20
2069.595605552936
 10
960.3723587257828
 20
2069.315453787268
 10
960.0675726762824
 20
2069.047275698922
 10
959.7523061599167
 20
2068.791500315632
 10
959.4270635358579
 20
2068.548536823448
 10
959.0923651229239
 20
2068.318773912128
 10
958.7487463671765
 20
2068.102579153317
 10
958.3967569853234
 20
2067.90029841251
 10
958.0369600852886
 20
2067.712255295741
 10
957.6699312653596
 20
2067.538750631883
 10
957.296257693353
 20
2067.380061991387
 10
956.9165371672712
 20
2067.236443242224
 10
956.5313771589531
 20
2067.108124143758
 10
956.1413938422489
 20
2066.995309979172
 10
955.7472111072737
 20
2066.898181227064
 10
955.3494595623151
 20
2066.816893272716
 10
954.9487755249964
 20
2066.751576159517
 10
954.5458000043023
 20
2066.702334380913
 10
954.1411776751024
 20
2066.669246713246
 10
953.7355558468087
 20
2066.652366089726
 10
953.5164074431888
 20
2066.650000000012
1001
REVIT
1002
{
1070
     3
1000
856288
1002
}
  0
LWPOLYLINE
  5
8B
330
87
100
AcDbEntity
  8
M-PIPE
100
AcDbPolyline
 90
       32
 70
   128
 43
0.0
 10
943.9889471310173
 20
2080.300000000011
 10
944.1365307527119
 20
2080.678197167698
 10
944.2991201761776
 20
2081.050190047221
 10
944.4764552930211
 20
2081.415383529327
 10
944.6682524048844
 20
2081.77319338235
 10
944.8742046773032
 20
2082.123047186851
 10
945.0939826305759
 20
2082.464385251377
 10
945.3272346668606
 20
2082.796661507838
 10
945.5735876326571
 20
2083.119344385107
 10
945.8326474157725
 20
2083.431917659413
 10
946.1039995758172
 20
2083.733881280199
 10
946.3872100072203
 20
2084.024752170085
 10
946.6818256337065
 20
2084.304064997698
 10
946.9873751331217
 20
2084.571372922096
 10
947.303369691447
 20
2084.826248307623
 10
947.6293037847977
 20
2085.068283408033
 10
947.9646559881532
 20
2085.297091018796
 10
948.3088898095264
 20
2085.512305096546
 10
948.6614545482359
 20
2085.713581344667
 10
949.021786175909
 20
2085.900597764099
 10
949.3893082388082
 20
2086.073055168466
 10
949.7634327800337
 20
2086.23067766271
 10
950.1435612801282
 20
2086.373213084464
 10
950.5290856145817
 20
2086.50043340746
 10
950.9193890266995
 20
2086.612135106319
 10
951.3138471142827
 20
2086.708139482151
 10
951.7118288285377
 20
2086.788292948436
 10
952.1126974836198
 20
2086.852467276726
 10
952.5158117751951
 20
2086.900559801785
 10
952.9205268063902
 20
2086.932493585832
 10
953.3261951194898
 20
2086.948217541625
 10
953.5164074431886
 20
2086.950000000012
1001
REVIT
1002
{
1070
     3
1000
856288
1002
}
  0
LWPOLYLINE
  5
8C
330
87
100
AcDbEntity
  8
M-PIPE
100
AcDbPolyline
 90
        8
 70
   128
 43
0.0
 10
953.5164074431886
 20
2066.650000000012
 10
953.1105157011943
 20
2066.658118917402
 10
952.7052732994016
 20
2066.68246268104
 10
952.301328539206
 20
2066.722992346095
 10
951.8993276460541
 20
2066.779643073749
 10
951.4999137356188
 20
2066.852324234923
 10
951.1037257849533
 20
2066.940919555264
 10
950.8405173135896
 20
2067.009080124213
1001
REVIT
1002
{
1070
     3
1000
856288
1002
}
  0
LINE
  5
8D
330
87
100
AcDbEntity
  8
M-PIPE
100
AcDbLine
 10
795.6664074431889
 20
2066.613425624483
 30
0.0
 11
795.6664074431889
 21
2055.599999999994
 31
0.0
1001
REVIT
1002
{
1070
     3
1000
856288
1002
}
  0
LINE
  5
8E
330
87
100
AcDbEntity
  8
M-PIPE
100
AcDbLine
 10
835.666407443189
 20
2055.599999999994
 30
0.0
 11
835.666407443189
 21
2066.613207984166
 31
0.0
1001
REVIT
1002
{
1070
     3
1000
856288
1002
}
  0
LINE
  5
8F
330
87
100
AcDbEntity
  8
M-PIPE
100
AcDbLine
 10
798.4164074431892
 20
2068.201138864754
 30
0.0
 11
795.737549626021
 21
2066.654499582892
 31
0.0
1001
REVIT
1002
{
1070
     3
1000
856288
1002
}
  0
LINE
  5
90
330
87
100
AcDbEntity
  8
M-PIPE
100
AcDbLine
 10
795.7270988959654
 20
2066.648465851081
 30
0.0
 11
795.6664074431889
 21
2066.613425624483
 31
0.0
1001
REVIT
1002
{
1070
     3
1000
856288
1002
}
  0
LINE
  5
91
330
87
100
AcDbEntity
  8
M-PIPE
100
AcDbLine
 10
802.0664074431888
 20
2076.800000000011
 30
0.0
 11
798.4164074431892
 21
2068.201138864754
 31
0.0
1001
REVIT
1002
{
1070
     3
1000
856288
1002
}
  0
SPLINE
  5
92
330
87
100
AcDbEntity
  8
M-PIPE
100
AcDbSpline
210
0.0
220
0.0
230
1.0
 70
     8
 71
     3
 72
    16
 73
    12
 74
     0
 42
0.000000001
 43
0.0000000001
 40
-1.0
 40
-1.0
 40
-1.0
 40
-1.0
 40
-0.875
 40
-0.75
 40
-0.625
 40
-0.5
 40
-0.375
 40
-0.25
 40
-0.1875
 40
-0.125
 40
0.0
 40
0.0
 40
0.0
 40
0.0
 10
949.3128375317899
 20
2080.300000000011
 30
0.0
 10
949.063838644159
 20
2079.991553147185
 30
0.0
 10
948.6394315379959
 20
2079.350159317063
 30
0.0
 10
948.2250576734539
 20
2078.33819091578
 30
0.0
 10
948.0285262413977
 20
2077.205476706475
 30
0.0
 10
948.0535488114686
 20
2076.067499418825
 30
0.0
 10
948.326876742777
 20
2074.966297768144
 30
0.0
 10
948.734577371543
 20
2074.095134495181
 30
0.0
 10
949.1522213478502
 20
2073.49049433556
 30
0.0
 10
949.638916028174
 20
2072.919167924017
 30
0.0
 10
950.0793517211731
 20
2072.536086051317
 30
0.0
 10
950.4067450820935
 20
2072.30000000001
 30
0.0
1001
REVIT
1002
{
1070
     3
1000
856288
1002
}
  0
SPLINE
  5
93
330
87
100
AcDbEntity
  8
M-PIPE
100
AcDbSpline
210
0.0
220
0.0
230
1.0
 70
     8
 71
     3
 72
     9
 73
     5
 74
     0
 42
0.000000001
 43
0.0000000001
 40
-1.0
 40
-1.0
 40
-1.0
 40
-1.0
 40
-0.5
 40
0.0
 40
0.0
 40
0.0
 40
0.0
 10
948.2463185769191
 20
2072.30000000001
 30
0.0
 10
948.4312506247645
 20
2072.0836235541
 30
0.0
 10
948.8245250434177
 20
2071.67645609733
 30
0.0
 10
949.2646201079956
 20
2071.32045951066
 30
0.0
 10
949.4963728017658
 20
2071.155253934851
 30
0.0
1001
REVIT
1002
{
1070
     3
1000
856288
1002
}
  0
SPLINE
  5
94
330
87
100
AcDbEntity
  8
M-PIPE
100
AcDbSpline
210
0.0
220
0.0
230
1.0
 70
    24
 71
     3
 72
    11
 73
     7
 74
     0
 42
0.000000001
 43
0.0000000001
 40
-1.0
 40
-1.0
 40
-1.0
 40
-1.0
 40
-0.75
 40
-0.5
 40
-0.25
 40
0.0
 40
0.0
 40
0.0
 40
0.0
 10
949.4963728017658
 20
2071.155253934851
 30
0.0
 10
949.702412167011
 20
2070.519700977095
 30
0.0
 10
950.0704753411101
 20
2069.384366286749
 30
0.0
 10
950.5096410960586
 20
2068.029707218708
 30
0.0
 10
950.7785248558869
 20
2067.2003032422
 30
0.0
 10
950.8393219810001
 20
2067.012767269922
 30
0.0
 10
950.8405173135882
 20
2067.009080124212
 30
0.0
1001
REVIT
1002
{
1070
     3
1000
856288
1002
}
  0
SPLINE
  5
95
330
87
100
AcDbEntity
  8
M-PIPE
100
AcDbSpline
210
0.0
220
0.0
230
1.0
 70
     8
 71
     3
 72
     9
 73
     5
 74
     0
 42
0.000000001
 43
0.0000000001
 40
-1.0
 40
-1.0
 40
-1.0
 40
-1.0
 40
-0.5
 40
0.0
 40
0.0
 40
0.0
 40
0.0
 10
949.5854951113743
 20
2070.880345557967
 30
0.0
 10
949.2886699260791
 20
2071.07779783693
 30
0.0
 10
948.7304152777134
 20
2071.511859189568
 30
0.0
 10
948.2429520737969
 20
2072.024234131626
 30
0.0
 10
948.0169183329509
 20
2072.30000000001
 30
0.0
1001
REVIT
1002
{
1070
     3
1000
856288
1002
}
  0
LINE
  5
96
330
87
100
AcDbEntity
  8
M-PIPE
100
AcDbLine
 10
801.1595355371559
 20
2046.00000000001
 30
0.0
 11
799.4896494243335
 21
2046.00000000001
 31
0.0
1001
REVIT
1002
{
1070
     3
1000
856288
1002
}
  0
LINE
  5
97
330
87
100
AcDbEntity
  8
M-PIPE
100
AcDbLine
 10
799.4896494243334
 20
2046.00000000001
 30
0.0
 11
795.9322365713209
 21
2046.00000000001
 31
0.0
1001
REVIT
1002
{
1070
     3
1000
856288
1002
}
  0
LINE
  5
98
330
87
100
AcDbEntity
  8
M-PIPE
100
AcDbLine
 10
795.6664074431877
 20
2055.599999999993
 30
0.0
 11
818.9164074431895
 21
2055.599999999994
 31
0.0
1001
REVIT
1002
{
1070
     3
1000
856288
1002
}
  0
LINE
  5
99
330
87
100
AcDbEntity
  8
M-PIPE
100
AcDbLine
 10
818.9164074431898
 20
2055.599999999993
 30
0.0
 11
818.91640744319
 21
2046.00000000001
 31
0.0
1001
REVIT
1002
{
1070
     3
1000
856288
1002
}
  0
LINE
  5
9A
330
87
100
AcDbEntity
  8
M-PIPE
100
AcDbLine
 10
835.4005783150562
 20
2046.00000000001
 30
0.0
 11
818.9164074431896
 21
2046.00000000001
 31
0.0
1001
REVIT
1002
{
1070
     3
1000
856288
1002
}
  0
LINE
  5
9B
330
87
100
AcDbEntity
  8
M-PIPE
100
AcDbLine
 10
835.400578315056
 20
2046.00000000001
 30
0.0
 11
835.4005783150558
 21
2055.599999999993
 31
0.0
1001
REVIT
1002
{
1070
     3
1000
856288
1002
}
  0
LINE
  5
9C
330
87
100
AcDbEntity
  8
M-PIPE
100
AcDbLine
 10
835.400578315056
 20
2055.599999999993
 30
0.0
 11
835.6664074431877
 21
2055.599999999993
 31
0.0
1001
REVIT
1002
{
1070
     3
1000
856288
1002
}
  0
LINE
  5
9D
330
87
100
AcDbEntity
  8
M-PIPE
100
AcDbLine
 10
833.7467144096082
 20
2066.170011925986
 30
0.0
 11
833.7467144096082
 21
2066.613425624483
 31
0.0
1001
REVIT
1002
{
1070
     3
1000
856288
1002
}
  0
LINE
  5
9E
330
87
100
AcDbEntity
  8
M-PIPE
100
AcDbLine
 10
795.9322365713206
 20
2046.00000000001
 30
0.0
 11
795.9322365713205
 21
2055.599999999993
 31
0.0
1001
REVIT
1002
{
1070
     3
1000
856288
1002
}
  0
LINE
  5
9F
330
87
100
AcDbEntity
  8
M-PIPE
100
AcDbLine
 10
833.7467144096084
 20
2066.613425624483
 30
0.0
 11
795.6664074431876
 21
2066.613425624482
 31
0.0
1001
REVIT
1002
{
1070
     3
1000
856288
1002
}
  0
ARC
  5
A0
330
87
100
AcDbEntity
  8
M-PIPE
100
AcDbCircle
 10
733.8610108756182
 20
1875.509994429534
 30
0.0
 40
215.6331959253082
100
AcDbArc
 50
62.40488745566749
 51
63.32994834697163
1001
REVIT
1002
{
1070
     3
1000
856288
1002
}
  0
LINE
  5
A1
330
87
100
AcDbEntity
  8
M-PIPE
100
AcDbLine
 10
830.648396630208
 20
2068.201138864754
 30
0.0
 11
798.4164074431877
 21
2068.201138864754
 31
0.0
1001
REVIT
1002
{
1070
     3
1000
856288
1002
}
  0
SPLINE
  5
A2
330
87
100
AcDbEntity
  8
M-PIPE
100
AcDbSpline
210
0.0
220
0.0
230
1.0
 70
     8
 71
     3
 72
     9
 73
     5
 74
     0
 42
0.000000001
 43
0.0000000001
 40
-1.0
 40
-1.0
 40
-1.0
 40
-1.0
 40
-0.5
 40
0.0
 40
0.0
 40
0.0
 40
0.0
 10
830.648396630208
 20
2068.201138864754
 30
0.0
 10
830.1064226427358
 20
2069.314500786142
 30
0.0
 10
829.0059914034198
 20
2071.532889655219
 30
0.0
 10
827.8725936353607
 20
2073.7346085769
 30
0.0
 10
827.2976531191453
 20
2074.831300550892
 30
0.0
1001
REVIT
1002
{
1070
     3
1000
856288
1002
}
  0
LINE
  5
A3
330
87
100
AcDbEntity
  8
M-PIPE
100
AcDbLine
 10
829.2664073971684
 20
2076.800000000011
 30
0.0
 11
802.0664074431874
 21
2076.80000000001
 31
0.0
1001
REVIT
1002
{
1070
     3
1000
856288
1002
}
  0
LINE
  5
A4
330
87
100
AcDbEntity
  8
M-PIPE
100
AcDbLine
 10
829.1482351370946
 20
2076.800000000011
 30
0.0
 11
829.2664073971684
 21
2076.800000000011
 31
0.0
1001
REVIT
1002
{
1070
     3
1000
856288
1002
}
  0
LINE
  5
A5
330
87
100
AcDbEntity
  8
M-PIPE
100
AcDbLine
 10
799.4896494243334
 20
2055.599999999993
 30
0.0
 11
799.4896494243334
 21
2045.999999999993
 31
0.0
1001
REVIT
1002
{
1070
     3
1000
856288
1002
}
  0
LINE
  5
A6
330
87
100
AcDbEntity
  8
M-PIPE
100
AcDbLine
 10
832.7663525682639
 20
2080.30000000001
 30
0.0
 11
827.2976531191453
 21
2074.831300550892
 31
0.0
1001
REVIT
1002
{
1070
     3
1000
856288
1002
}
  0
LINE
  5
A7
330
87
100
AcDbEntity
  8
M-PIPE
100
AcDbLine
 10
833.7467144096082
 20
2066.170011925986
 30
0.0
 11
860.2986098618927
 21
2072.30000000001
 31
0.0
1001
REVIT
1002
{
1070
     3
1000
856288
1002
}
  0
LINE
  5
A8
330
87
100
AcDbEntity
  8
M-PIPE
100
AcDbLine
 10
860.2986098618927
 20
2072.30000000001
 30
0.0
 11
950.4067450820935
 21
2072.30000000001
 31
0.0
1001
REVIT
1002
{
1070
     3
1000
856288
1002
}
  0
LINE
  5
A9
330
87
100
AcDbEntity
  8
M-PIPE
100
AcDbLine
 10
949.3128375317899
 20
2080.300000000011
 30
0.0
 11
832.7663525682639
 21
2080.30000000001
 31
0.0
1001
REVIT
1002
{
1070
     3
1000
856288
1002
}
  0
LINE
  5
AA
330
87
100
AcDbEntity
  8
P-SANR-FIXT
100
AcDbLine
 10
786.1664074431615
 20
1966.000000000008
 30
0.0
 11
789.16640744316
 21
1966.000000000008
 31
0.0
  0
LINE
  5
AB
330
87
100
AcDbEntity
  8
P-SANR-FIXT
100
AcDbLine
 10
789.16640744316
 20
2033.999999999983
 30
0.0
 11
786.1664074431613
 21
2033.999999999983
 31
0.0
  0
LINE
  5
AC
330
87
100
AcDbEntity
  8
P-SANR-FIXT
100
AcDbLine
 10
783.966407443162
 20
1969.749999999996
 30
0.0
 11
786.1664074431615
 21
1966.000000000008
 31
0.0
  0
LINE
  5
AD
330
87
100
AcDbEntity
  8
P-SANR-FIXT
100
AcDbLine
 10
786.1664074431613
 20
2033.999999999983
 30
0.0
 11
783.9664074431354
 21
2030.24999999995
 31
0.0
  0
LINE
  5
AE
330
87
100
AcDbEntity
  8
P-SANR-FIXT
100
AcDbLine
 10
770.1664074431605
 20
1982.752404735857
 30
0.0
 11
770.1664074431605
 21
1971.999999999994
 31
0.0
  0
LINE
  5
AF
330
87
100
AcDbEntity
  8
P-SANR-FIXT
100
AcDbLine
 10
770.1664074431605
 20
1982.752404735857
 30
0.0
 11
770.1664074431605
 21
1989.24759526417
 31
0.0
  0
LINE
  5
B0
330
87
100
AcDbEntity
  8
P-SANR-FIXT
100
AcDbLine
 10
770.1664074431605
 20
1999.999999999994
 30
0.0
 11
770.1664074431605
 21
1989.24759526417
 31
0.0
  0
LINE
  5
B1
330
87
100
AcDbEntity
  8
P-SANR-FIXT
100
AcDbLine
 10
770.1664074431605
 20
1999.999999999995
 30
0.0
 11
770.1664074431605
 21
2010.752404735819
 31
0.0
  0
LINE
  5
B2
330
87
100
AcDbEntity
  8
P-SANR-FIXT
100
AcDbLine
 10
770.1664074431605
 20
2010.752404735818
 30
0.0
 11
770.1664074431605
 21
2017.247595264134
 31
0.0
  0
LINE
  5
B3
330
87
100
AcDbEntity
  8
P-SANR-FIXT
100
AcDbLine
 10
770.1664074431605
 20
2017.247595264134
 30
0.0
 11
770.1664074431605
 21
2027.999999999995
 31
0.0
  0
SPLINE
  5
B4
330
87
100
AcDbEntity
  8
P-SANR-FIXT
100
AcDbSpline
210
0.0
220
0.0
230
1.0
 70
    24
 71
     3
 72
     9
 73
     5
 74
     0
 42
0.000000001
 43
0.0000000001
 40
-1.0
 40
-1.0
 40
-1.0
 40
-1.0
 40
-0.5
 40
0.0
 40
0.0
 40
0.0
 40
0.0
 10
770.1664074431605
 20
1971.999999999994
 30
0.0
 10
770.3516973067381
 20
1971.999999999994
 30
0.0
 10
770.8703205036465
 20
1971.999999999994
 30
0.0
 10
771.6850306400597
 20
1971.999999999994
 30
0.0
 10
772.1664074431426
 20
1971.999999999994
 30
0.0
  0
LINE
  5
B5
330
87
100
AcDbEntity
  8
P-SANR-FIXT
100
AcDbLine
 10
772.1664074431592
 20
1971.999999999994
 30
0.0
 11
772.1664074431592
 21
1976.085521950294
 31
0.0
  0
LINE
  5
B6
330
87
100
AcDbEntity
  8
P-SANR-FIXT
100
AcDbLine
 10
783.9664074431606
 20
1971.999999999994
 30
0.0
 11
772.1664074431426
 21
1971.999999999994
 31
0.0
  0
LINE
  5
B7
330
87
100
AcDbEntity
  8
P-SANR-FIXT
100
AcDbLine
 10
783.9664074431347
 20
1971.999999999994
 30
0.0
 11
783.9664074431347
 21
1976.085521950294
 31
0.0
  0
SPLINE
  5
B8
330
87
100
AcDbEntity
  8
P-SANR-FIXT
100
AcDbSpline
210
0.0
220
0.0
230
1.0
 70
     8
 71
     3
 72
     9
 73
     5
 74
     0
 42
0.000000001
 43
0.0000000001
 40
-1.0
 40
-1.0
 40
-1.0
 40
-1.0
 40
-0.5
 40
0.0
 40
0.0
 40
0.0
 40
0.0
 10
772.1664074431324
 20
1976.085521950294
 30
0.0
 10
771.6850306400605
 20
1977.163581984857
 30
0.0
 10
770.87032050366
 20
1979.352789150349
 30
0.0
 10
770.3516973067459
 20
1981.608170508567
 30
0.0
 10
770.1664074431605
 20
1982.752404735857
 30
0.0
  0
LINE
  5
B9
330
87
100
AcDbEntity
  8
P-SANR-FIXT
100
AcDbLine
 10
783.9664074431606
 20
1976.085521950294
 30
0.0
 11
772.1664074431324
 21
1976.085521950294
 31
0.0
  0
SPLINE
  5
BA
330
87
100
AcDbEntity
  8
P-SANR-FIXT
100
AcDbSpline
210
0.0
220
0.0
230
1.0
 70
     8
 71
     3
 72
     9
 73
     5
 74
     0
 42
0.000000001
 43
0.0000000001
 40
-1.0
 40
-1.0
 40
-1.0
 40
-1.0
 40
-0.5
 40
0.0
 40
0.0
 40
0.0
 40
0.0
 10
770.1664074431605
 20
1989.24759526417
 30
0.0
 10
770.3516973067446
 20
1990.391829491454
 30
0.0
 10
770.8703205036546
 20
1992.647210849658
 30
0.0
 10
771.6850306400482
 20
1994.836418015137
 30
0.0
 10
772.1664074431157
 20
1995.914478049695
 30
0.0
  0
LINE
  5
BB
330
87
100
AcDbEntity
  8
P-SANR-FIXT
100
AcDbLine
 10
772.1664074431592
 20
1995.914478049695
 30
0.0
 11
772.1664074431592
 21
1999.999999999994
 31
0.0
  0
LINE
  5
BC
330
87
100
AcDbEntity
  8
P-SANR-FIXT
100
AcDbLine
 10
783.9664074431604
 20
1995.914478049695
 30
0.0
 11
772.1664074431157
 21
1995.914478049695
 31
0.0
  0
LINE
  5
BD
330
87
100
AcDbEntity
  8
P-SANR-FIXT
100
AcDbLine
 10
783.9664074431347
 20
1995.914478049695
 30
0.0
 11
783.9664074431347
 21
2004.085521950293
 31
0.0
  0
LINE
  5
BE
330
87
100
AcDbEntity
  8
P-SANR-FIXT
100
AcDbLine
 10
772.1664074431592
 20
2004.085521950294
 30
0.0
 11
772.1664074431592
 21
1999.999999999995
 31
0.0
  0
SPLINE
  5
BF
330
87
100
AcDbEntity
  8
P-SANR-FIXT
100
AcDbSpline
210
0.0
220
0.0
230
1.0
 70
     8
 71
     3
 72
     9
 73
     5
 74
     0
 42
0.000000001
 43
0.0000000001
 40
0.0
 40
0.0
 40
0.0
 40
0.0
 40
0.5
 40
1.0
 40
1.0
 40
1.0
 40
1.0
 10
770.1664074431605
 20
2010.752404735818
 30
0.0
 10
770.3516973067446
 20
2009.608170508535
 30
0.0
 10
770.8703205036548
 20
2007.35278915033
 30
0.0
 10
771.6850306400482
 20
2005.163581984852
 30
0.0
 10
772.1664074431157
 20
2004.085521950294
 30
0.0
  0
LINE
  5
C0
330
87
100
AcDbEntity
  8
P-SANR-FIXT
100
AcDbLine
 10
783.9664074431604
 20
2004.085521950294
 30
0.0
 11
772.1664074431157
 21
2004.085521950294
 31
0.0
  0
SPLINE
  5
C1
330
87
100
AcDbEntity
  8
P-SANR-FIXT
100
AcDbSpline
210
0.0
220
0.0
230
1.0
 70
     8
 71
     3
 72
     9
 73
     5
 74
     0
 42
0.000000001
 43
0.0000000001
 40
0.0
 40
0.0
 40
0.0
 40
0.0
 40
0.5
 40
1.0
 40
1.0
 40
1.0
 40
1.0
 10
772.1664074431322
 20
2023.914478049695
 30
0.0
 10
771.6850306400604
 20
2022.836418015132
 30
0.0
 10
770.87032050366
 20
2020.647210849642
 30
0.0
 10
770.3516973067459
 20
2018.391829491424
 30
0.0
 10
770.1664074431605
 20
2017.247595264134
 30
0.0
  0
LINE
  5
C2
330
87
100
AcDbEntity
  8
P-SANR-FIXT
100
AcDbLine
 10
772.1664074431592
 20
2027.999999999995
 30
0.0
 11
772.1664074431592
 21
2023.914478049695
 31
0.0
  0
LINE
  5
C3
330
87
100
AcDbEntity
  8
P-SANR-FIXT
100
AcDbLine
 10
783.9664074431604
 20
2023.914478049695
 30
0.0
 11
772.1664074431322
 21
2023.914478049695
 31
0.0
  0
LINE
  5
C4
330
87
100
AcDbEntity
  8
P-SANR-FIXT
100
AcDbLine
 10
783.9664074431347
 20
2023.914478049695
 30
0.0
 11
783.9664074431347
 21
2027.999999999995
 31
0.0
  0
SPLINE
  5
C5
330
87
100
AcDbEntity
  8
P-SANR-FIXT
100
AcDbSpline
210
0.0
220
0.0
230
1.0
 70
    24
 71
     3
 72
     9
 73
     5
 74
     0
 42
0.000000001
 43
0.0000000001
 40
0.0
 40
0.0
 40
0.0
 40
0.0
 40
0.5
 40
1.0
 40
1.0
 40
1.0
 40
1.0
 10
770.1664074431605
 20
2027.999999999995
 30
0.0
 10
770.3516973067382
 20
2027.999999999995
 30
0.0
 10
770.8703205036465
 20
2027.999999999995
 30
0.0
 10
771.6850306400596
 20
2027.999999999995
 30
0.0
 10
772.1664074431425
 20
2027.999999999995
 30
0.0
  0
LINE
  5
C6
330
87
100
AcDbEntity
  8
P-SANR-FIXT
100
AcDbLine
 10
783.9664074431604
 20
2027.999999999995
 30
0.0
 11
772.1664074431425
 21
2027.999999999995
 31
0.0
  0
LINE
  5
C7
330
87
100
AcDbEntity
  8
P-SANR-FIXT
100
AcDbLine
 10
786.1664074431599
 20
2033.999999999982
 30
0.0
 11
786.1664074431603
 21
1966.000000000007
 31
0.0
  0
LINE
  5
C8
330
87
100
AcDbEntity
  8
P-SANR-FIXT
100
AcDbLine
 10
783.9664074431604
 20
2028.000000000051
 30
0.0
 11
783.9664074431604
 21
2030.249999999995
 31
0.0
  0
LINE
  5
C9
330
87
100
AcDbEntity
  8
P-SANR-FIXT
100
AcDbLine
 10
783.9664074431294
 20
2004.085521950298
 30
0.0
 11
783.9664074431294
 21
2023.91447804971
 31
0.0
  0
LINE
  5
CA
330
87
100
AcDbEntity
  8
P-SANR-FIXT
100
AcDbLine
 10
783.9664074431224
 20
1976.08552195029
 30
0.0
 11
783.9664074431224
 21
1995.914478049692
 31
0.0
  0
LINE
  5
CB
330
87
100
AcDbEntity
  8
P-SANR-FIXT
100
AcDbLine
 10
783.9664074431342
 20
1969.75000000004
 30
0.0
 11
783.9664074431342
 21
1971.99999999998
 31
0.0
  0
LINE
  5
CC
330
87
100
AcDbEntity
  8
P-SANR-FIXT
100
AcDbLine
 10
801.2291491797611
 20
2036.249999999996
 30
0.0
 11
789.1664074432221
 21
2036.249999999996
 31
0.0
  0
LINE
  5
CD
330
87
100
AcDbEntity
  8
P-SANR-FIXT
100
AcDbLine
 10
789.1664074432221
 20
1963.749999999995
 30
0.0
 11
815.1664074432222
 21
1963.749999999995
 31
0.0
  0
LINE
  5
CE
330
87
100
AcDbEntity
  8
P-SANR-FIXT
100
AcDbLine
 10
789.1664074432208
 20
1963.749999999995
 30
0.0
 11
789.1664074432208
 21
2036.249999999995
 31
0.0
  0
LINE
  5
CF
330
87
100
AcDbEntity
  8
P-SANR-FIXT
100
AcDbLine
 10
815.1664074432208
 20
2033.228624245677
 30
0.0
 11
815.1664074432208
 21
1963.749999999995
 31
0.0
  0
LINE
  5
D0
330
87
100
AcDbEntity
  8
P-SANR-FIXT
100
AcDbLine
 10
801.1664074431891
 20
2053.499999999996
 30
0.0
 11
801.1664074431891
 21
2036.212146634075
 31
0.0
  0
LINE
  5
D1
330
87
100
AcDbEntity
  8
P-SANR-FIXT
100
AcDbLine
 10
830.166407443189
 20
2034.499999999996
 30
0.0
 11
830.166407443189
 21
2043.169872981074
 31
0.0
  0
LINE
  5
D2
330
87
100
AcDbEntity
  8
P-SANR-FIXT
100
AcDbLine
 10
836.2126687991338
 20
1965.499999999996
 30
0.0
 11
838.6664074431896
 21
1969.749999999996
 31
0.0
  0
LINE
  5
D3
330
87
100
AcDbEntity
  8
P-SANR-FIXT
100
AcDbLine
 10
838.6664074431896
 20
2030.249999999996
 30
0.0
 11
836.2126687991338
 21
2034.499999999996
 31
0.0
  0
LINE
  5
D4
330
87
100
AcDbEntity
  8
P-SANR-FIXT
100
AcDbLine
 10
838.6664074431896
 20
1969.749999999996
 30
0.0
 11
858.8673693375126
 21
1969.749999999996
 31
0.0
  0
LINE
  5
D5
330
87
100
AcDbEntity
  8
P-SANR-FIXT
100
AcDbLine
 10
858.8673693375126
 20
2030.249999999996
 30
0.0
 11
838.6664074431896
 21
2030.249999999996
 31
0.0
  0
LINE
  5
D6
330
87
100
AcDbEntity
  8
P-SANR-FIXT
100
AcDbLine
 10
815.1664074432222
 20
1965.499999999996
 30
0.0
 11
836.2126687991338
 21
1965.499999999996
 31
0.0
  0
LINE
  5
D7
330
87
100
AcDbEntity
  8
P-SANR-FIXT
100
AcDbLine
 10
836.2126687991338
 20
2034.499999999996
 30
0.0
 11
830.166407443189
 21
2034.499999999996
 31
0.0
  0
LINE
  5
D8
330
87
100
AcDbEntity
  8
P-SANR-FIXT
100
AcDbLine
 10
858.8673693375126
 20
1969.749999999996
 30
0.0
 11
858.9010975287315
 21
1969.808418940834
 31
0.0
  0
LINE
  5
D9
330
87
100
AcDbEntity
  8
P-SANR-FIXT
100
AcDbLine
 10
858.9074201669008
 20
1969.819370071381
 30
0.0
 11
860.1664074431893
 21
1971.999999999995
 31
0.0
  0
LINE
  5
DA
330
87
100
AcDbEntity
  8
P-SANR-FIXT
100
AcDbLine
 10
860.1664074431893
 20
2027.999999999996
 30
0.0
 11
858.9074201669008
 21
2030.18062992861
 31
0.0
  0
LINE
  5
DB
330
87
100
AcDbEntity
  8
P-SANR-FIXT
100
AcDbLine
 10
858.9010975287315
 20
2030.191581059157
 30
0.0
 11
858.8673693375126
 21
2030.249999999996
 31
0.0
  0
LINE
  5
DC
330
87
100
AcDbEntity
  8
P-SANR-FIXT
100
AcDbLine
 10
823.6664074431894
 20
2076.800000000011
 30
0.0
 11
823.6664074431894
 21
2081.999999999996
 31
0.0
  0
LINE
  5
DD
330
87
100
AcDbEntity
  8
P-SANR-FIXT
100
AcDbLine
 10
807.6664074431889
 20
2081.999999999996
 30
0.0
 11
807.6664074431889
 21
2076.800000000011
 31
0.0
  0
LINE
  5
DE
330
87
100
AcDbEntity
  8
P-SANR-FIXT
100
AcDbLine
 10
807.6664074431889
 20
2055.599999999994
 30
0.0
 11
807.6664074431889
 21
2053.499999999996
 31
0.0
  0
LINE
  5
DF
330
87
100
AcDbEntity
  8
P-SANR-FIXT
100
AcDbLine
 10
829.8734479513303
 20
2043.000732739587
 30
0.0
 11
829.8734479513303
 21
2046.00000000001
 31
0.0
  0
LINE
  5
E0
330
87
100
AcDbEntity
  8
P-SANR-FIXT
100
AcDbLine
 10
836.2126687991324
 20
2034.499999999995
 30
0.0
 11
836.2126687991324
 21
1965.499999999995
 31
0.0
  0
LINE
  5
E1
330
87
100
AcDbEntity
  8
P-SANR-FIXT
100
AcDbLine
 10
838.6664074431882
 20
1969.749999999995
 30
0.0
 11
838.6664074431882
 21
2030.249999999995
 31
0.0
  0
LINE
  5
E2
330
87
100
AcDbEntity
  8
P-SANR-FIXT
100
AcDbLine
 10
858.8673693375111
 20
1969.749999999995
 30
0.0
 11
858.8673693375111
 21
1970.027162123103
 31
0.0
  0
LINE
  5
E3
330
87
100
AcDbEntity
  8
P-SANR-FIXT
100
AcDbLine
 10
858.8673693375111
 20
1970.027162123103
 30
0.0
 11
844.1664074431878
 21
1970.027162123103
 31
0.0
  0
LINE
  5
E4
330
87
100
AcDbEntity
  8
P-SANR-FIXT
100
AcDbLine
 10
844.1664074431878
 20
1970.027162123103
 30
0.0
 11
844.1664074431878
 21
1981.475415264958
 31
0.0
  0
LINE
  5
E5
330
87
100
AcDbEntity
  8
P-SANR-FIXT
100
AcDbLine
 10
844.1664074431878
 20
1981.475415264958
 30
0.0
 11
858.8673693375111
 21
1981.475415264958
 31
0.0
  0
LINE
  5
E6
330
87
100
AcDbEntity
  8
P-SANR-FIXT
100
AcDbLine
 10
858.8673693375111
 20
1981.475415264958
 30
0.0
 11
858.8673693375111
 21
1988.55174685814
 31
0.0
  0
LINE
  5
E7
330
87
100
AcDbEntity
  8
P-SANR-FIXT
100
AcDbLine
 10
858.8673693375111
 20
1988.55174685814
 30
0.0
 11
844.1664074431878
 21
1988.55174685814
 31
0.0
  0
LINE
  5
E8
330
87
100
AcDbEntity
  8
P-SANR-FIXT
100
AcDbLine
 10
844.1664074431878
 20
1988.55174685814
 30
0.0
 11
844.1664074431878
 21
2011.448253141849
 31
0.0
  0
LINE
  5
E9
330
87
100
AcDbEntity
  8
P-SANR-FIXT
100
AcDbLine
 10
844.1664074431878
 20
2011.44825314185
 30
0.0
 11
858.8673693375111
 21
2011.44825314185
 31
0.0
  0
LINE
  5
EA
330
87
100
AcDbEntity
  8
P-SANR-FIXT
100
AcDbLine
 10
858.8673693375111
 20
2011.448253141849
 30
0.0
 11
858.8673693375111
 21
2018.524584735032
 31
0.0
  0
LINE
  5
EB
330
87
100
AcDbEntity
  8
P-SANR-FIXT
100
AcDbLine
 10
858.8673693375111
 20
2018.524584735032
 30
0.0
 11
844.1664074431878
 21
2018.524584735032
 31
0.0
  0
LINE
  5
EC
330
87
100
AcDbEntity
  8
P-SANR-FIXT
100
AcDbLine
 10
844.1664074431878
 20
2018.524584735032
 30
0.0
 11
844.1664074431878
 21
2029.972837876886
 31
0.0
  0
LINE
  5
ED
330
87
100
AcDbEntity
  8
P-SANR-FIXT
100
AcDbLine
 10
844.1664074431878
 20
2029.972837876886
 30
0.0
 11
858.8673693375111
 21
2029.972837876886
 31
0.0
  0
LINE
  5
EE
330
87
100
AcDbEntity
  8
P-SANR-FIXT
100
AcDbLine
 10
858.8673693375111
 20
2029.972837876886
 30
0.0
 11
858.8673693375111
 21
2030.249999999995
 31
0.0
  0
SPLINE
  5
EF
330
87
100
AcDbEntity
  8
P-SANR-FIXT
100
AcDbSpline
210
0.0
220
0.0
230
1.0
 70
     8
 71
     3
 72
    16
 73
    12
 74
     0
 42
0.000000001
 43
0.0000000001
 40
-0.5108162043341973
 40
-0.5108162043341973
 40
-0.5108162043341973
 40
-0.5108162043341973
 40
-0.4791666666666666
 40
-0.4444444444444445
 40
-0.3888888888888888
 40
-0.3611111111111111
 40
-0.3333333333333333
 40
-0.2777777777777778
 40
-0.2222222222222222
 40
-0.1111111111111111
 40
0.0
 40
0.0
 40
0.0
 40
0.0
 10
815.1648814338297
 20
2031.313792199462
 30
0.0
 10
815.6557314831431
 20
2031.30666776722
 30
0.0
 10
816.6934414301959
 20
2031.313988956349
 30
0.0
 10
818.5321446790037
 20
2031.411115050377
 30
0.0
 10
820.2692585941079
 20
2031.627575833094
 30
0.0
 10
821.8504666269764
 20
2031.906525976634
 30
0.0
 10
823.3248554473613
 20
2032.212692796727
 30
0.0
 10
825.0422910994243
 20
2032.662553553207
 30
0.0
 10
827.4088955707496
 20
2033.406362768404
 30
0.0
 10
829.5639240217827
 20
2034.235454924349
 30
0.0
 10
830.1406551314084
 20
2034.499999999995
 30
0.0
 10
830.1664074431878
 20
2034.499999999995
 30
0.0
  0
LINE
  5
F0
330
87
100
AcDbEntity
  8
P-SANR-FIXT
100
AcDbLine
 10
860.1664074431878
 20
2027.999999999995
 30
0.0
 11
860.1664074431878
 21
2024.248711305959
 31
0.0
  0
LINE
  5
F1
330
87
100
AcDbEntity
  8
P-SANR-FIXT
100
AcDbLine
 10
860.1664074431878
 20
2024.248711305959
 30
0.0
 11
860.1664074431878
 21
1999.999999999994
 31
0.0
  0
LINE
  5
F2
330
87
100
AcDbEntity
  8
P-SANR-FIXT
100
AcDbLine
 10
860.1664074431878
 20
1999.999999999994
 30
0.0
 11
860.1664074431878
 21
1975.75128869403
 31
0.0
  0
LINE
  5
F3
330
87
100
AcDbEntity
  8
P-SANR-FIXT
100
AcDbLine
 10
860.1664074431878
 20
1975.75128869403
 30
0.0
 11
860.1664074431878
 21
1971.999999999995
 31
0.0
  0
SPLINE
  5
F4
330
87
100
AcDbEntity
  8
P-SANR-FIXT
100
AcDbSpline
210
0.0
220
0.0
230
1.0
 70
     8
 71
     3
 72
     9
 73
     5
 74
     0
 42
0.000000001
 43
0.0000000001
 40
0.0
 40
0.0
 40
0.0
 40
0.0
 40
0.5
 40
1.0
 40
1.0
 40
1.0
 40
1.0
 10
858.8673693375111
 20
2018.524584735032
 30
0.0
 10
859.2913298813485
 20
2019.467144718688
 30
0.0
 10
859.9317967761319
 20
2021.363725797499
 30
0.0
 10
860.1573552851329
 20
2023.283229099307
 30
0.0
 10
860.1664074431878
 20
2024.248711305959
 30
0.0
  0
SPLINE
  5
F5
330
87
100
AcDbEntity
  8
P-SANR-FIXT
100
AcDbSpline
210
0.0
220
0.0
230
1.0
 70
     8
 71
     3
 72
     9
 73
     5
 74
     0
 42
0.000000001
 43
0.0000000001
 40
0.0
 40
0.0
 40
0.0
 40
0.0
 40
0.5
 40
1.0
 40
1.0
 40
1.0
 40
1.0
 10
860.1664074431878
 20
2024.248711305959
 30
0.0
 10
860.1573552851329
 20
2025.214193512612
 30
0.0
 10
859.9317967761319
 20
2027.13369681442
 30
0.0
 10
859.2913298813485
 20
2029.03027789323
 30
0.0
 10
858.8673693375111
 20
2029.972837876886
 30
0.0
  0
SPLINE
  5
F6
330
87
100
AcDbEntity
  8
P-SANR-FIXT
100
AcDbSpline
210
0.0
220
0.0
230
1.0
 70
     8
 71
     3
 72
     9
 73
     5
 74
     0
 42
0.000000001
 43
0.0000000001
 40
0.0
 40
0.0
 40
0.0
 40
0.0
 40
0.5
 40
1.0
 40
1.0
 40
1.0
 40
1.0
 10
858.8673693375111
 20
1988.55174685814
 30
0.0
 10
859.2913298813485
 20
1990.436866825453
 30
0.0
 10
859.9317967761319
 20
1994.230028983074
 30
0.0
 10
860.1573552851329
 20
1998.069035586689
 30
0.0
 10
860.1664074431878
 20
1999.999999999994
 30
0.0
  0
SPLINE
  5
F7
330
87
100
AcDbEntity
  8
P-SANR-FIXT
100
AcDbSpline
210
0.0
220
0.0
230
1.0
 70
     8
 71
     3
 72
     9
 73
     5
 74
     0
 42
0.000000001
 43
0.0000000001
 40
0.0
 40
0.0
 40
0.0
 40
0.0
 40
0.5
 40
1.0
 40
1.0
 40
1.0
 40
1.0
 10
860.1664074431878
 20
1999.999999999994
 30
0.0
 10
860.1573552851329
 20
2001.930964413301
 30
0.0
 10
859.9317967761319
 20
2005.769971016916
 30
0.0
 10
859.2913298813485
 20
2009.563133174538
 30
0.0
 10
858.8673693375111
 20
2011.44825314185
 30
0.0
  0
SPLINE
  5
F8
330
87
100
AcDbEntity
  8
P-SANR-FIXT
100
AcDbSpline
210
0.0
220
0.0
230
1.0
 70
     8
 71
     3
 72
     9
 73
     5
 74
     0
 42
0.000000001
 43
0.0000000001
 40
0.0
 40
0.0
 40
0.0
 40
0.0
 40
0.5
 40
1.0
 40
1.0
 40
1.0
 40
1.0
 10
858.8673693375111
 20
1970.027162123103
 30
0.0
 10
859.2913298813485
 20
1970.96972210676
 30
0.0
 10
859.9317967761319
 20
1972.86630318557
 30
0.0
 10
860.1573552851329
 20
1974.785806487378
 30
0.0
 10
860.1664074431878
 20
1975.75128869403
 30
0.0
  0
SPLINE
  5
F9
330
87
100
AcDbEntity
  8
P-SANR-FIXT
100
AcDbSpline
210
0.0
220
0.0
230
1.0
 70
     8
 71
     3
 72
     9
 73
     5
 74
     0
 42
0.000000001
 43
0.0000000001
 40
0.0
 40
0.0
 40
0.0
 40
0.0
 40
0.5
 40
1.0
 40
1.0
 40
1.0
 40
1.0
 10
860.1664074431878
 20
1975.75128869403
 30
0.0
 10
860.1573552851329
 20
1976.716770900683
 30
0.0
 10
859.9317967761319
 20
1978.636274202491
 30
0.0
 10
859.2913298813485
 20
1980.532855281301
 30
0.0
 10
858.8673693375111
 20
1981.475415264958
 30
0.0
  0
LINE
  5
FA
330
87
100
AcDbEntity
  8
P-SANR-FIXT
100
AcDbLine
 10
818.7562179033605
 20
2053.499999999995
 30
0.0
 11
801.1664074431879
 21
2053.499999999995
 31
0.0
  0
ARC
  5
FB
330
87
100
AcDbEntity
  8
P-SANR-FIXT
100
AcDbCircle
 10
836.1664074431878
 20
2048.36602540378
 30
0.0
 40
1.500000000000024
100
AcDbArc
 50
299.9999999999996
 51
0.0
  0
LINE
  5
FC
330
87
100
AcDbEntity
  8
P-SANR-FIXT
100
AcDbLine
 10
837.6664074431879
 20
2048.36602540378
 30
0.0
 11
837.6664074431879
 21
2053.499999999995
 31
0.0
  0
LINE
  5
FD
330
87
100
AcDbEntity
  8
P-SANR-FIXT
100
AcDbLine
 10
835.4005783150558
 20
2053.499999999995
 30
0.0
 11
837.6664074431879
 21
2053.499999999995
 31
0.0
  0
LINE
  5
FE
330
87
100
AcDbEntity
  8
P-SANR-FIXT
100
AcDbLine
 10
829.8734479513303
 20
2043.000732739587
 30
0.0
 11
835.093193952059
 21
2046.014354498209
 31
0.0
  0
LINE
  5
FF
330
87
100
AcDbEntity
  8
P-SANR-FIXT
100
AcDbLine
 10
835.4005783150562
 20
2046.191822942931
 30
0.0
 11
836.9164074431878
 21
2047.066987298103
 31
0.0
  0
LINE
  5
100
330
87
100
AcDbEntity
  8
P-SANR-FIXT
100
AcDbLine
 10
807.6664074431876
 20
2081.999999999995
 30
0.0
 11
823.666407443188
 21
2081.999999999995
 31
0.0
  0
ENDBLK
  5
102
330
87
100
AcDbEntity
  8
0
100
AcDbBlockEnd
  0
BLOCK
  5
166
330
104
100
AcDbEntity
  8
0
100
AcDbBlockBegin
  2
Automatic flow rate regulator valve_Caleffi_121 DN15 - 1_2__-V1-Est - Idraulica
 70
     0
 10
0.0
 20
0.0
 30
0.0
  3
Automatic flow rate regulator valve_Caleffi_121 DN15 - 1_2__-V1-Est - Idraulica
  1

  0
LWPOLYLINE
  5
105
330
104
100
AcDbEntity
  8
M-PIPE
100
AcDbPolyline
 90
       55
 70
   128
 43
0.0
 10
948.0465437528637
 20
1842.695878730052
 10
948.3915518038973
 20
1842.484694182491
 10
948.7460050785298
 20
1842.286762630835
 10
949.1080899793141
 20
1842.103163753761
 10
949.4772272476497
 20
1841.934191270307
 10
949.8528263426527
 20
1841.780115500402
 10
950.234286385894
 20
1841.641182932409
 10
950.6209971226786
 20
1841.5176158288
 10
951.0123398983212
 20
1841.409611870581
 10
951.4076886478633
 20
1841.317343841044
 10
951.8064108976416
 20
1841.240959349357
 10
952.2078687771129
 20
1841.180580594409
 10
952.6114200393104
 20
1841.136304169329
 10
953.0164190882999
 20
1841.108200906952
 10
953.4222180119991
 20
1841.096315766503
 10
953.8281676186953
 20
1841.10066776167
 10
954.2336184756161
 20
1841.121249930192
 10
954.6379219478817
 20
1841.158029344987
 10
955.0404312361836
 20
1841.210947166839
 10
955.4405024115245
 20
1841.27991873852
 10
955.8374954453677
 20
1841.36483372023
 10
956.2307752335465
 20
1841.465556266111
 10
956.6197126122949
 20
1841.581925241577
 10
957.003685364776
 20
1841.713754481092
 10
957.3820792164951
 20
1841.860833085994
 10
957.7542888180099
 20
1842.022925761889
 10
958.1197187133582
 20
1842.199773195076
 10
958.4777842926614
 20
1842.391092467385
 10
958.8279127273761
 20
1842.596577508795
 10
959.1695438866969
 20
1842.815899587072
 10
959.5021312336461
 20
1843.048707833679
 10
959.8251426994169
 20
1843.294629805083
 10
960.1380615345696
 20
1843.553272078591
 10
960.4403871357202
 20
1843.82422088174
 10
960.7316358463997
 20
1844.107042754244
 10
961.0113417308006
 20
1844.401285241438
 10
961.2790573191754
 20
1844.706477618112
 10
961.5343543236921
 20
1845.022131641567
 10
961.7768243236042
 20
1845.347742332702
 10
962.0060794186361
 20
1845.682788783871
 10
962.2217528495408
 20
1846.026734992225
 10
962.4234995848363
 20
1846.3790307172
 10
962.6109968727835
 20
1846.739112360791
 10
962.7839447577191
 20
1847.106403869181
 10
962.9420665599207
 20
1847.480317654307
 10
963.0851093182355
 20
1847.860255533877
 10
963.2128441947644
 20
1848.245609688334
 10
963.3250668409536
 20
1848.635763633234
 10
963.4215977245089
 20
1849.030093205495
 10
963.5022824166085
 20
1849.427967561918
 10
963.5669918389572
 20
1849.828750188411
 10
963.6156224702828
 20
1850.231799918265
 10
963.6480965119494
 20
1850.636471957893
 10
963.6643620124178
 20
1851.042118918356
 10
963.6664074431886
 20
1851.245878730052
1001
REVIT
1002
{
1070
     3
1000
856288
1002
}
  0
LWPOLYLINE
  5
106
330
104
100
AcDbEntity
  8
M-PIPE
100
AcDbPolyline
 90
       55
 70
   128
 43
0.0
 10
963.6664074431886
 20
1851.245878730052
 10
963.6582885257976
 20
1851.651770472047
 10
963.6339447621603
 20
1852.057012873839
 10
963.5934150971053
 20
1852.460957634035
 10
963.5367643694513
 20
1852.862958527187
 10
963.4640832082773
 20
1853.262372437622
 10
963.3754878879368
 20
1853.658560388288
 10
963.2711201420431
 20
1854.050888562978
 10
963.1511469367254
 20
1854.438729320306
 10
963.0157602035197
 20
1854.821462197794
 10
962.8651765323178
 20
1855.198474904485
 10
962.6996368248713
 20
1855.569164300472
 10
962.5194059093985
 20
1855.932937361798
 10
962.3247721169168
 20
1856.289212129166
 10
962.1160468199748
 20
1856.637418638949
 10
961.8935639345219
 20
1856.976999835012
 10
961.6576793857142
 20
1857.307412459881
 10
961.4087705385106
 20
1857.62812792384
 10
961.1472355939685
 20
1857.938633150563
 10
960.8734929522089
 20
1858.238431397925
 10
960.5879805430625
 20
1858.527043052682
 10
960.2911551254779
 20
1858.804006397756
 10
959.9834915568044
 20
1859.068878350877
 10
959.6654820331197
 20
1859.321235173421
 10
959.3376353018241
 20
1859.560673148307
 10
959.0004758477503
 20
1859.786809225852
 10
958.6545430541013
 20
1859.999281636572
 10
958.3003903395519
 20
1860.197750469934
 10
957.9385842728971
 20
1860.381898218144
 10
957.5697036666623
 20
1860.551430284085
 10
957.194338651127
 20
1860.70607545262
 10
956.8130897302422
 20
1860.845586324465
 10
956.4265668209529
 20
1860.969739711988
 10
956.0353882774602
 20
1861.078336996252
 10
955.6401799019866
 20
1861.171204444771
 10
955.2415739436261
 20
1861.248193489435
 10
954.8402080868809
 20
1861.309180964198
 10
954.4367244315013
 20
1861.35406930211
 10
954.0317684652645
 20
1861.382786691405
 10
953.62598803133
 20
1861.395287190386
 10
953.2200322918304
 20
1861.391550800923
 10
952.8145506893498
 20
1861.371583500442
 10
952.4101919079539
 20
1861.335417232363
 10
952.0076028354342
 20
1861.283109855
 10
951.6074275284259
 20
1861.214745048999
 10
951.2103061820537
 20
1861.130432183466
 10
950.8168741057575
 20
1861.030306141
 10
950.4277607069312
 20
1860.914527101909
 10
950.0435884840069
 20
1860.783280287958
 10
949.6649720305889
 20
1860.636775666052
 10
949.2925170522353
 20
1860.475247612333
 10
948.9268193974584
 20
1860.298954537229
 10
948.5684641044949
 20
1860.108178472054
 10
948.2180244653683
 20
1859.903224617814
 10
948.0465312203364
 20
1859.795878730117
1001
REVIT
1002
{
1070
     3
1000
856288
1002
}
  0
ARC
  5
107
330
104
100
AcDbEntity
  8
M-PIPE
100
AcDbCircle
 10
953.516407443187
 20
1851.245878730052
 30
0.0
 40
9.527460312171342
100
AcDbArc
 50
180.0
 51
243.8191643584303
1001
REVIT
1002
{
1070
     3
1000
856288
1002
}
  0
ARC
  5
108
330
104
100
AcDbEntity
  8
M-PIPE
100
AcDbCircle
 10
953.516407443187
 20
1851.245878730052
 30
0.0
 40
9.527460312171385
100
AcDbArc
 50
116.1808356406974
 51
180.0
1001
REVIT
1002
{
1070
     3
1000
856288
1002
}
  0
ARC
  5
109
330
104
100
AcDbEntity
  8
M-PIPE
100
AcDbCircle
 10
815.6664074431875
 20
1851.245878730052
 30
0.0
 40
20.00000000000008
100
AcDbArc
 50
180.0
 51
334.6909918284626
1001
REVIT
1002
{
1070
     3
1000
856288
1002
}
  0
ARC
  5
10A
330
104
100
AcDbEntity
  8
M-PIPE
100
AcDbCircle
 10
815.6664074431875
 20
1851.245878730052
 30
0.0
 40
19.99999999999988
100
AcDbArc
 50
25.30900817174094
 51
180.0
1001
REVIT
1002
{
1070
     3
1000
856288
1002
}
  0
ARC
  5
10B
330
104
100
AcDbEntity
  8
M-PIPE
100
AcDbCircle
 10
815.6664074431875
 20
1851.245878730052
 30
0.0
 40
17.24999999999981
100
AcDbArc
 50
180.0
 51
330.2872353791646
1001
REVIT
1002
{
1070
     3
1000
856288
1002
}
  0
LWPOLYLINE
  5
10C
330
104
100
AcDbEntity
  8
M-PIPE
100
AcDbPolyline
 90
        4
 70
   128
 43
0.0
 10
827.2976531191453
 20
1842.695878730052
 10
828.3505014523381
 20
1845.346807094992
 10
829.0295414190762
 20
1848.224139375873
 10
829.2215997881942
 20
1849.911088921376
1001
REVIT
1002
{
1070
     3
1000
856288
1002
}
  0
LINE
  5
10D
330
104
100
AcDbEntity
  8
M-PIPE
100
AcDbLine
 10
829.2553292098656
 20
1850.562137544765
 30
0.0
 11
829.2663910911798
 21
1851.245878730052
 31
0.0
1001
REVIT
1002
{
1070
     3
1000
856288
1002
}
  0
LWPOLYLINE
  5
10E
330
104
100
AcDbEntity
  8
M-PIPE
100
AcDbPolyline
 90
        4
 70
   128
 43
0.0
 10
829.221601976182
 20
1852.580671439508
 10
829.0295269646241
 20
1854.267709823687
 10
828.3505022140333
 20
1857.144947960619
 10
827.2976531191146
 20
1859.795878730115
1001
REVIT
1002
{
1070
     3
1000
856288
1002
}
  0
ARC
  5
10F
330
104
100
AcDbEntity
  8
M-PIPE
100
AcDbCircle
 10
815.6664074431875
 20
1851.245878730052
 30
0.0
 40
17.24999999999977
100
AcDbArc
 50
29.71276462108129
 51
180.0
1001
REVIT
1002
{
1070
     3
1000
856288
1002
}
  0
ARC
  5
110
330
104
100
AcDbEntity
  8
M-PIPE
100
AcDbCircle
 10
815.6664074431873
 20
1851.245878730052
 30
0.0
 40
13.6
100
AcDbArc
 50
180.0000000000011
 51
0.0000000000002036
1001
REVIT
1002
{
1070
     3
1000
856288
1002
}
  0
ARC
  5
111
330
104
100
AcDbEntity
  8
M-PIPE
100
AcDbCircle
 10
815.6664074431873
 20
1851.245878730052
 30
0.0
 40
13.59999999999991
100
AcDbArc
 50
0.0
 51
180.0
1001
REVIT
1002
{
1070
     3
1000
856288
1002
}
  0
LINE
  5
112
330
104
100
AcDbEntity
  8
M-PIPE
100
AcDbLine
 10
832.7663525682639
 20
1859.795878730115
 30
0.0
 11
949.3128375319203
 21
1859.795878730115
 31
0.0
1001
REVIT
1002
{
1070
     3
1000
856288
1002
}
  0
LINE
  5
113
330
104
100
AcDbEntity
  8
M-PIPE
100
AcDbLine
 10
827.2976531191146
 20
1859.795878730115
 30
0.0
 11
832.7663525682639
 21
1859.795878730115
 31
0.0
1001
REVIT
1002
{
1070
     3
1000
856288
1002
}
  0
LINE
  5
114
330
104
100
AcDbEntity
  8
M-PIPE
100
AcDbLine
 10
832.7663525682639
 20
1842.695878730052
 30
0.0
 11
827.2976531191453
 21
1842.695878730052
 31
0.0
1001
REVIT
1002
{
1070
     3
1000
856288
1002
}
  0
LINE
  5
115
330
104
100
AcDbEntity
  8
M-PIPE
100
AcDbLine
 10
949.3128375317899
 20
1842.695878730052
 30
0.0
 11
832.7663525682639
 21
1842.695878730052
 31
0.0
1001
REVIT
1002
{
1070
     3
1000
856288
1002
}
  0
LINE
  5
116
330
104
100
AcDbEntity
  8
M-PIPE
100
AcDbLine
 10
832.7663525682639
 20
1859.795878730115
 30
0.0
 11
832.7663525682639
 21
1842.695878730052
 31
0.0
1001
REVIT
1002
{
1070
     3
1000
856288
1002
}
  0
LINE
  5
117
330
104
100
AcDbEntity
  8
P-SANR-FIXT
100
AcDbLine
 10
783.9664074431359
 20
1881.495878730052
 30
0.0
 11
772.1664074431607
 21
1881.495878730052
 31
0.0
  0
LINE
  5
118
330
104
100
AcDbEntity
  8
P-SANR-FIXT
100
AcDbLine
 10
772.1664074431607
 20
1820.99587873014
 30
0.0
 11
783.9664074431359
 21
1820.99587873014
 31
0.0
  0
LINE
  5
119
330
104
100
AcDbEntity
  8
P-SANR-FIXT
100
AcDbLine
 10
772.1664074431824
 20
1881.49587873003
 30
0.0
 11
770.1664074431619
 21
1879.49587873001
 31
0.0
  0
LINE
  5
11A
330
104
100
AcDbEntity
  8
P-SANR-FIXT
100
AcDbLine
 10
770.1664074431619
 20
1822.995878730095
 30
0.0
 11
772.1664074431388
 21
1820.995878730118
 31
0.0
  0
LINE
  5
11B
330
104
100
AcDbEntity
  8
P-SANR-FIXT
100
AcDbLine
 10
786.1664074431613
 20
1817.245878730065
 30
0.0
 11
789.16640744316
 21
1817.245878730065
 31
0.0
  0
LINE
  5
11C
330
104
100
AcDbEntity
  8
P-SANR-FIXT
100
AcDbLine
 10
789.16640744316
 20
1885.24587873004
 30
0.0
 11
786.1664074431613
 21
1885.24587873004
 31
0.0
  0
LINE
  5
11D
330
104
100
AcDbEntity
  8
P-SANR-FIXT
100
AcDbLine
 10
783.9664074431172
 20
1820.995878730129
 30
0.0
 11
786.1664074431613
 21
1817.245878730065
 31
0.0
  0
LINE
  5
11E
330
104
100
AcDbEntity
  8
P-SANR-FIXT
100
AcDbLine
 10
786.1664074431613
 20
1885.24587873004
 30
0.0
 11
783.9664074431549
 21
1881.495878730041
 31
0.0
  0
LINE
  5
11F
330
104
100
AcDbEntity
  8
P-SANR-FIXT
100
AcDbLine
 10
770.1664074431605
 20
1873.619590036352
 30
0.0
 11
770.1664074431605
 21
1877.369590035746
 31
0.0
  0
LINE
  5
120
330
104
100
AcDbEntity
  8
P-SANR-FIXT
100
AcDbLine
 10
770.1664074431605
 20
1877.369590035746
 30
0.0
 11
770.1664074431605
 21
1879.495878730009
 31
0.0
  0
LINE
  5
121
330
104
100
AcDbEntity
  8
P-SANR-FIXT
100
AcDbLine
 10
770.1664074431605
 20
1822.995878730094
 30
0.0
 11
770.1664074431605
 21
1825.12216742414
 31
0.0
  0
LINE
  5
122
330
104
100
AcDbEntity
  8
P-SANR-FIXT
100
AcDbLine
 10
770.1664074431605
 20
1825.12216742414
 30
0.0
 11
770.1664074431605
 21
1828.872167424101
 31
0.0
  0
LINE
  5
123
330
104
100
AcDbEntity
  8
P-SANR-FIXT
100
AcDbLine
 10
770.1664074431605
 20
1828.872167424101
 30
0.0
 11
770.1664074431605
 21
1847.495878730374
 31
0.0
  0
LINE
  5
124
330
104
100
AcDbEntity
  8
P-SANR-FIXT
100
AcDbLine
 10
770.1664074431605
 20
1847.495878730374
 30
0.0
 11
770.1664074431605
 21
1854.995878729729
 31
0.0
  0
LINE
  5
125
330
104
100
AcDbEntity
  8
P-SANR-FIXT
100
AcDbLine
 10
770.1664074431605
 20
1854.995878729729
 30
0.0
 11
770.1664074431605
 21
1873.619590036352
 31
0.0
  0
SPLINE
  5
126
330
104
100
AcDbEntity
  8
P-SANR-FIXT
100
AcDbSpline
210
0.0
220
0.0
230
1.0
 70
     8
 71
     3
 72
     9
 73
     5
 74
     0
 42
0.000000001
 43
0.0000000001
 40
0.0
 40
0.0
 40
0.0
 40
0.0
 40
0.5
 40
1.0
 40
1.0
 40
1.0
 40
1.0
 10
770.1664074431605
 20
1873.619590036352
 30
0.0
 10
770.3516973067332
 20
1872.958966097164
 30
0.0
 10
770.8703205036433
 20
1871.656821062783
 30
0.0
 10
771.6850306400833
 20
1870.39288171639
 30
0.0
 10
772.1664074431859
 20
1869.77046346519
 30
0.0
  0
LINE
  5
127
330
104
100
AcDbEntity
  8
P-SANR-FIXT
100
AcDbLine
 10
772.1664074431859
 20
1869.77046346519
 30
0.0
 11
783.9664074431604
 21
1869.77046346519
 31
0.0
  0
SPLINE
  5
128
330
104
100
AcDbEntity
  8
P-SANR-FIXT
100
AcDbSpline
210
0.0
220
0.0
230
1.0
 70
     8
 71
     3
 72
     9
 73
     5
 74
     0
 42
0.000000001
 43
0.0000000001
 40
0.0
 40
0.0
 40
0.0
 40
0.0
 40
0.5
 40
1.0
 40
1.0
 40
1.0
 40
1.0
 10
772.1664074432026
 20
1881.218716606929
 30
0.0
 10
771.6850306400958
 20
1880.596298355726
 30
0.0
 10
770.8703205036486
 20
1879.332359009326
 30
0.0
 10
770.3516973067344
 20
1878.030213974938
 30
0.0
 10
770.1664074431605
 20
1877.369590035746
 30
0.0
  0
LINE
  5
129
330
104
100
AcDbEntity
  8
P-SANR-FIXT
100
AcDbLine
 10
772.1664074431592
 20
1881.495878730051
 30
0.0
 11
772.1664074431592
 21
1881.218716606929
 31
0.0
  0
LINE
  5
12A
330
104
100
AcDbEntity
  8
P-SANR-FIXT
100
AcDbLine
 10
783.9664074431604
 20
1881.218716606929
 30
0.0
 11
772.1664074432026
 21
1881.218716606929
 31
0.0
  0
LINE
  5
12B
330
104
100
AcDbEntity
  8
P-SANR-FIXT
100
AcDbLine
 10
783.9664074431347
 20
1881.218716606929
 30
0.0
 11
783.9664074431347
 21
1881.495878730051
 31
0.0
  0
LINE
  5
12C
330
104
100
AcDbEntity
  8
P-SANR-FIXT
100
AcDbLine
 10
783.9664074431347
 20
1820.995878730139
 30
0.0
 11
783.9664074431347
 21
1821.273040853261
 31
0.0
  0
LINE
  5
12D
330
104
100
AcDbEntity
  8
P-SANR-FIXT
100
AcDbLine
 10
772.1664074431592
 20
1821.273040853262
 30
0.0
 11
772.1664074431592
 21
1820.995878730139
 31
0.0
  0
SPLINE
  5
12E
330
104
100
AcDbEntity
  8
P-SANR-FIXT
100
AcDbSpline
210
0.0
220
0.0
230
1.0
 70
     8
 71
     3
 72
     9
 73
     5
 74
     0
 42
0.000000001
 43
0.0000000001
 40
0.0
 40
0.0
 40
0.0
 40
0.0
 40
0.5
 40
1.0
 40
1.0
 40
1.0
 40
1.0
 10
770.1664074431605
 20
1825.12216742414
 30
0.0
 10
770.3516973067446
 20
1824.461543485002
 30
0.0
 10
770.8703205036548
 20
1823.159398450717
 30
0.0
 10
771.6850306400482
 20
1821.895459104416
 30
0.0
 10
772.1664074431157
 20
1821.273040853262
 30
0.0
  0
LINE
  5
12F
330
104
100
AcDbEntity
  8
P-SANR-FIXT
100
AcDbLine
 10
783.9664074431604
 20
1821.273040853262
 30
0.0
 11
772.1664074431157
 21
1821.273040853262
 31
0.0
  0
SPLINE
  5
130
330
104
100
AcDbEntity
  8
P-SANR-FIXT
100
AcDbSpline
210
0.0
220
0.0
230
1.0
 70
     8
 71
     3
 72
     9
 73
     5
 74
     0
 42
0.000000001
 43
0.0000000001
 40
0.0
 40
0.0
 40
0.0
 40
0.0
 40
0.5
 40
1.0
 40
1.0
 40
1.0
 40
1.0
 10
772.1664074431322
 20
1832.721293995
 30
0.0
 10
771.6850306400604
 20
1832.098875743843
 30
0.0
 10
770.87032050366
 20
1830.834936397534
 30
0.0
 10
770.3516973067459
 20
1829.532791363243
 30
0.0
 10
770.1664074431605
 20
1828.872167424101
 30
0.0
  0
LINE
  5
131
330
104
100
AcDbEntity
  8
P-SANR-FIXT
100
AcDbLine
 10
772.1664074431592
 20
1839.797625588357
 30
0.0
 11
772.1664074431592
 21
1832.721293995001
 31
0.0
  0
LINE
  5
132
330
104
100
AcDbEntity
  8
P-SANR-FIXT
100
AcDbLine
 10
783.9664074431604
 20
1832.721293995
 30
0.0
 11
772.1664074431322
 21
1832.721293995
 31
0.0
  0
LINE
  5
133
330
104
100
AcDbEntity
  8
P-SANR-FIXT
100
AcDbLine
 10
783.9664074431347
 20
1832.721293995
 30
0.0
 11
783.9664074431347
 21
1839.797625588357
 31
0.0
  0
SPLINE
  5
134
330
104
100
AcDbEntity
  8
P-SANR-FIXT
100
AcDbSpline
210
0.0
220
0.0
230
1.0
 70
     8
 71
     3
 72
     9
 73
     5
 74
     0
 42
0.000000001
 43
0.0000000001
 40
0.0
 40
0.0
 40
0.0
 40
0.0
 40
0.5
 40
1.0
 40
1.0
 40
1.0
 40
1.0
 10
770.1664074431605
 20
1847.495878730374
 30
0.0
 10
770.3516973067382
 20
1846.174630852052
 30
0.0
 10
770.8703205036465
 20
1843.570340783394
 30
0.0
 10
771.6850306400596
 20
1841.042462090707
 30
0.0
 10
772.1664074431425
 20
1839.797625588357
 30
0.0
  0
LINE
  5
135
330
104
100
AcDbEntity
  8
P-SANR-FIXT
100
AcDbLine
 10
783.9664074431604
 20
1839.797625588357
 30
0.0
 11
772.1664074431425
 21
1839.797625588357
 31
0.0
  0
SPLINE
  5
136
330
104
100
AcDbEntity
  8
P-SANR-FIXT
100
AcDbSpline
210
0.0
220
0.0
230
1.0
 70
     8
 71
     3
 72
     9
 73
     5
 74
     0
 42
0.000000001
 43
0.0000000001
 40
0.0
 40
0.0
 40
0.0
 40
0.0
 40
0.5
 40
1.0
 40
1.0
 40
1.0
 40
1.0
 10
772.1664074431757
 20
1862.694131871834
 30
0.0
 10
771.6850306400843
 20
1861.44929536947
 30
0.0
 10
770.8703205036568
 20
1858.921416676755
 30
0.0
 10
770.3516973067408
 20
1856.317126608067
 30
0.0
 10
770.1664074431605
 20
1854.995878729729
 30
0.0
  0
LINE
  5
137
330
104
100
AcDbEntity
  8
P-SANR-FIXT
100
AcDbLine
 10
772.1664074431592
 20
1869.770463465191
 30
0.0
 11
772.1664074431592
 21
1862.694131871834
 31
0.0
  0
LINE
  5
138
330
104
100
AcDbEntity
  8
P-SANR-FIXT
100
AcDbLine
 10
783.9664074431604
 20
1862.694131871834
 30
0.0
 11
772.1664074431757
 21
1862.694131871834
 31
0.0
  0
LINE
  5
139
330
104
100
AcDbEntity
  8
P-SANR-FIXT
100
AcDbLine
 10
783.9664074431347
 20
1862.694131871834
 30
0.0
 11
783.9664074431347
 21
1869.770463465191
 31
0.0
  0
LINE
  5
13A
330
104
100
AcDbEntity
  8
P-SANR-FIXT
100
AcDbLine
 10
786.1664074431599
 20
1851.245878730052
 30
0.0
 11
786.1664074431601
 21
1817.245878730064
 31
0.0
  0
LINE
  5
13B
330
104
100
AcDbEntity
  8
P-SANR-FIXT
100
AcDbLine
 10
786.1664074431601
 20
1885.245878730039
 30
0.0
 11
786.1664074431599
 21
1851.245878730052
 31
0.0
  0
LINE
  5
13C
330
104
100
AcDbEntity
  8
P-SANR-FIXT
100
AcDbLine
 10
783.9664074431604
 20
1839.797625588334
 30
0.0
 11
783.9664074431604
 21
1851.245878730052
 31
0.0
  0
LINE
  5
13D
330
104
100
AcDbEntity
  8
P-SANR-FIXT
100
AcDbLine
 10
783.9664074431294
 20
1821.273040853228
 30
0.0
 11
783.9664074431294
 21
1832.721293994989
 31
0.0
  0
LINE
  5
13E
330
104
100
AcDbEntity
  8
P-SANR-FIXT
100
AcDbLine
 10
783.9664074431603
 20
1869.770463465201
 30
0.0
 11
783.9664074431603
 21
1881.21871660693
 31
0.0
  0
LINE
  5
13F
330
104
100
AcDbEntity
  8
P-SANR-FIXT
100
AcDbLine
 10
783.9664074431484
 20
1851.245878730052
 30
0.0
 11
783.9664074431484
 21
1862.694131871836
 31
0.0
  0
LINE
  5
140
330
104
100
AcDbEntity
  8
P-SANR-FIXT
100
AcDbLine
 10
789.1664074432221
 20
1814.995878730052
 30
0.0
 11
815.1664074432222
 21
1814.995878730052
 31
0.0
  0
LINE
  5
141
330
104
100
AcDbEntity
  8
P-SANR-FIXT
100
AcDbLine
 10
815.1664074432222
 20
1887.495878730052
 30
0.0
 11
789.1664074432221
 21
1887.495878730052
 31
0.0
  0
LINE
  5
142
330
104
100
AcDbEntity
  8
P-SANR-FIXT
100
AcDbLine
 10
789.1664074432208
 20
1814.995878730052
 30
0.0
 11
789.1664074432208
 21
1851.245878730052
 31
0.0
  0
LINE
  5
143
330
104
100
AcDbEntity
  8
P-SANR-FIXT
100
AcDbLine
 10
789.1664074432208
 20
1851.245878730052
 30
0.0
 11
789.1664074432208
 21
1887.495878730052
 31
0.0
  0
LINE
  5
144
330
104
100
AcDbEntity
  8
P-SANR-FIXT
100
AcDbLine
 10
815.1664074432208
 20
1831.251791275031
 30
0.0
 11
815.1664074432208
 21
1814.995878730052
 31
0.0
  0
LINE
  5
145
330
104
100
AcDbEntity
  8
P-SANR-FIXT
100
AcDbLine
 10
815.1664074432208
 20
1887.495878730052
 30
0.0
 11
815.1664074432208
 21
1871.239966185072
 31
0.0
  0
LINE
  5
146
330
104
100
AcDbEntity
  8
P-SANR-FIXT
100
AcDbLine
 10
836.2126687991338
 20
1816.745878730052
 30
0.0
 11
838.6664074431896
 21
1820.995878730052
 31
0.0
  0
LINE
  5
147
330
104
100
AcDbEntity
  8
P-SANR-FIXT
100
AcDbLine
 10
838.6664074431896
 20
1881.495878730052
 30
0.0
 11
836.2126687991338
 21
1885.745878730052
 31
0.0
  0
LINE
  5
148
330
104
100
AcDbEntity
  8
P-SANR-FIXT
100
AcDbLine
 10
838.6664074431896
 20
1820.995878730052
 30
0.0
 11
844.1664074431892
 21
1820.995878730052
 31
0.0
  0
LINE
  5
149
330
104
100
AcDbEntity
  8
P-SANR-FIXT
100
AcDbLine
 10
844.1664074431892
 20
1881.495878730052
 30
0.0
 11
838.6664074431896
 21
1881.495878730052
 31
0.0
  0
LINE
  5
14A
330
104
100
AcDbEntity
  8
P-SANR-FIXT
100
AcDbLine
 10
815.1664074432222
 20
1816.745878730052
 30
0.0
 11
836.2126687991338
 21
1816.745878730052
 31
0.0
  0
LINE
  5
14B
330
104
100
AcDbEntity
  8
P-SANR-FIXT
100
AcDbLine
 10
836.2126687991338
 20
1885.745878730052
 30
0.0
 11
815.1664074432222
 21
1885.745878730052
 31
0.0
  0
LINE
  5
14C
330
104
100
AcDbEntity
  8
P-SANR-FIXT
100
AcDbLine
 10
836.2126687991324
 20
1842.69252782816
 30
0.0
 11
836.2126687991324
 21
1816.745878730052
 31
0.0
  0
LINE
  5
14D
330
104
100
AcDbEntity
  8
P-SANR-FIXT
100
AcDbLine
 10
836.2126687991324
 20
1885.745878730052
 30
0.0
 11
836.2126687991324
 21
1859.799229632007
 31
0.0
  0
LINE
  5
14E
330
104
100
AcDbEntity
  8
P-SANR-FIXT
100
AcDbLine
 10
838.6664074431882
 20
1820.995878730052
 30
0.0
 11
838.6664074431882
 21
1842.690045278762
 31
0.0
  0
LINE
  5
14F
330
104
100
AcDbEntity
  8
P-SANR-FIXT
100
AcDbLine
 10
844.1664074431878
 20
1821.024003499097
 30
0.0
 11
844.1664074431878
 21
1823.245878730052
 31
0.0
  0
LINE
  5
150
330
104
100
AcDbEntity
  8
P-SANR-FIXT
100
AcDbLine
 10
844.1664074431878
 20
1823.245878730052
 30
0.0
 11
858.8673693375111
 21
1823.245878730052
 31
0.0
  0
LINE
  5
151
330
104
100
AcDbEntity
  8
P-SANR-FIXT
100
AcDbLine
 10
858.8673693375111
 20
1823.245878730052
 30
0.0
 11
858.8673693375111
 21
1827.33140068025
 31
0.0
  0
LINE
  5
152
330
104
100
AcDbEntity
  8
P-SANR-FIXT
100
AcDbLine
 10
858.8673693375111
 20
1827.33140068025
 30
0.0
 11
844.1664074431878
 21
1827.33140068025
 31
0.0
  0
LINE
  5
153
330
104
100
AcDbEntity
  8
P-SANR-FIXT
100
AcDbLine
 10
844.1664074431878
 20
1827.33140068025
 30
0.0
 11
844.1664074431878
 21
1842.690267657026
 31
0.0
  0
LINE
  5
154
330
104
100
AcDbEntity
  8
P-SANR-FIXT
100
AcDbLine
 10
838.6664074431882
 20
1859.801712181405
 30
0.0
 11
838.6664074431882
 21
1881.495878730051
 31
0.0
  0
LINE
  5
155
330
104
100
AcDbEntity
  8
P-SANR-FIXT
100
AcDbLine
 10
844.1664074431878
 20
1859.801489803141
 30
0.0
 11
844.1664074431878
 21
1875.160356779853
 31
0.0
  0
LINE
  5
156
330
104
100
AcDbEntity
  8
P-SANR-FIXT
100
AcDbLine
 10
844.1664074431878
 20
1875.160356779853
 30
0.0
 11
858.8673693375111
 21
1875.160356779853
 31
0.0
  0
LINE
  5
157
330
104
100
AcDbEntity
  8
P-SANR-FIXT
100
AcDbLine
 10
858.8673693375111
 20
1875.160356779853
 30
0.0
 11
858.8673693375111
 21
1879.245878730052
 31
0.0
  0
LINE
  5
158
330
104
100
AcDbEntity
  8
P-SANR-FIXT
100
AcDbLine
 10
858.8673693375111
 20
1879.245878730052
 30
0.0
 11
844.1664074431878
 21
1879.245878730052
 31
0.0
  0
LINE
  5
159
330
104
100
AcDbEntity
  8
P-SANR-FIXT
100
AcDbLine
 10
844.1664074431878
 20
1879.245878730052
 30
0.0
 11
844.1664074431878
 21
1881.467753961006
 31
0.0
  0
LINE
  5
15A
330
104
100
AcDbEntity
  8
P-SANR-FIXT
100
AcDbLine
 10
860.1664074431878
 20
1842.687934630772
 30
0.0
 11
860.1664074431878
 21
1837.245878730052
 31
0.0
  0
LINE
  5
15B
330
104
100
AcDbEntity
  8
P-SANR-FIXT
100
AcDbLine
 10
860.1664074431878
 20
1837.245878730052
 30
0.0
 11
860.1664074431878
 21
1823.245878730052
 31
0.0
  0
LINE
  5
15C
330
104
100
AcDbEntity
  8
P-SANR-FIXT
100
AcDbLine
 10
860.1664074431878
 20
1865.245878730052
 30
0.0
 11
860.1664074431878
 21
1859.803822829396
 31
0.0
  0
LINE
  5
15D
330
104
100
AcDbEntity
  8
P-SANR-FIXT
100
AcDbLine
 10
860.1664074431878
 20
1879.245878730052
 30
0.0
 11
860.1664074431878
 21
1865.245878730052
 31
0.0
  0
SPLINE
  5
15E
330
104
100
AcDbEntity
  8
P-SANR-FIXT
100
AcDbSpline
210
0.0
220
0.0
230
1.0
 70
     8
 71
     3
 72
     9
 73
     5
 74
     0
 42
0.000000001
 43
0.0000000001
 40
0.0
 40
0.0
 40
0.0
 40
0.0
 40
0.5
 40
1.0
 40
1.0
 40
1.0
 40
1.0
 10
858.8673693375111
 20
1827.33140068025
 30
0.0
 10
859.2913298813485
 20
1828.963962461125
 30
0.0
 10
859.9317967761319
 20
1832.248937250298
 30
0.0
 10
860.1573552851329
 20
1835.573614494325
 30
0.0
 10
860.1664074431878
 20
1837.245878730052
 30
0.0
  0
SPLINE
  5
15F
330
104
100
AcDbEntity
  8
P-SANR-FIXT
100
AcDbSpline
210
0.0
220
0.0
230
1.0
 70
     8
 71
     3
 72
     9
 73
     5
 74
     0
 42
0.000000001
 43
0.0000000001
 40
0.0
 40
0.0
 40
0.0
 40
0.0
 40
0.5
 40
0.5469799784040824
 40
0.5469799784040824
 40
0.5469799784040824
 40
0.5469799784040824
 10
860.1664074431878
 20
1837.245878730052
 30
0.0
 10
860.1573552851329
 20
1838.918142965778
 30
0.0
 10
860.0339792967506
 20
1840.736674852917
 30
0.0
 10
859.7864680729985
 20
1842.543328277853
 30
0.0
 10
859.764293641774
 20
1842.698413676707
 30
0.0
  0
SPLINE
  5
160
330
104
100
AcDbEntity
  8
P-SANR-FIXT
100
AcDbSpline
210
0.0
220
0.0
230
1.0
 70
    24
 71
     3
 72
     9
 73
     5
 74
     0
 42
0.000000001
 43
0.0000000001
 40
0.0
 40
0.0
 40
0.0
 40
0.0
 40
0.5
 40
1.0
 40
1.0
 40
1.0
 40
1.0
 10
860.1664074431878
 20
1823.245878730052
 30
0.0
 10
860.1573552851329
 20
1823.245878730052
 30
0.0
 10
859.9317967761319
 20
1823.245878730052
 30
0.0
 10
859.2913298813485
 20
1823.245878730052
 30
0.0
 10
858.8673693375111
 20
1823.245878730052
 30
0.0
  0
SPLINE
  5
161
330
104
100
AcDbEntity
  8
P-SANR-FIXT
100
AcDbSpline
210
0.0
220
0.0
230
1.0
 70
    24
 71
     3
 72
     9
 73
     5
 74
     0
 42
0.000000001
 43
0.0000000001
 40
0.0
 40
0.0
 40
0.0
 40
0.0
 40
0.5
 40
1.0
 40
1.0
 40
1.0
 40
1.0
 10
858.8673693375111
 20
1879.245878730052
 30
0.0
 10
859.2913298813485
 20
1879.245878730052
 30
0.0
 10
859.9317967761319
 20
1879.245878730052
 30
0.0
 10
860.1573552851329
 20
1879.245878730052
 30
0.0
 10
860.1664074431878
 20
1879.245878730052
 30
0.0
  0
SPLINE
  5
162
330
104
100
AcDbEntity
  8
P-SANR-FIXT
100
AcDbSpline
210
0.0
220
0.0
230
1.0
 70
     8
 71
     3
 72
     9
 73
     5
 74
     0
 42
0.000000001
 43
0.0000000001
 40
0.4530200216024331
 40
0.4530200216024331
 40
0.4530200216024331
 40
0.4530200216024331
 40
0.5
 40
1.0
 40
1.0
 40
1.0
 40
1.0
 10
859.7642936417832
 20
1859.793343783461
 30
0.0
 10
859.7864680730046
 20
1859.948429182294
 30
0.0
 10
860.033979296752
 20
1861.755082607208
 30
0.0
 10
860.1573552851327
 20
1863.573614494325
 30
0.0
 10
860.1664074431878
 20
1865.245878730052
 30
0.0
  0
SPLINE
  5
163
330
104
100
AcDbEntity
  8
P-SANR-FIXT
100
AcDbSpline
210
0.0
220
0.0
230
1.0
 70
     8
 71
     3
 72
     9
 73
     5
 74
     0
 42
0.000000001
 43
0.0000000001
 40
0.0
 40
0.0
 40
0.0
 40
0.0
 40
0.5
 40
1.0
 40
1.0
 40
1.0
 40
1.0
 10
860.1664074431878
 20
1865.245878730052
 30
0.0
 10
860.1573552851329
 20
1866.918142965778
 30
0.0
 10
859.9317967761319
 20
1870.242820209805
 30
0.0
 10
859.2913298813485
 20
1873.527794998979
 30
0.0
 10
858.8673693375111
 20
1875.160356779853
 30
0.0
  0
ARC
  5
164
330
104
100
AcDbEntity
  8
P-SANR-FIXT
100
AcDbCircle
 10
815.6664074431878
 20
1851.245878730052
 30
0.0
 40
8.000000000000227
100
AcDbArc
 50
180.0
 51
0.0
  0
ARC
  5
165
330
104
100
AcDbEntity
  8
P-SANR-FIXT
100
AcDbCircle
 10
815.6664074431878
 20
1851.245878730052
 30
0.0
 40
8.000000000000227
100
AcDbArc
 50
0.0
 51
180.0
  0
ENDBLK
  5
167
330
104
100
AcDbEntity
  8
0
100
AcDbBlockEnd
  0
BLOCK
  5
1C5
330
169
100
AcDbEntity
  8
0
100
AcDbBlockBegin
  2
Automatic flow rate regulator valve_Caleffi_121 DN15 - 1_2__-V2-Est - Idraulica
 70
     0
 10
0.0
 20
0.0
 30
0.0
  3
Automatic flow rate regulator valve_Caleffi_121 DN15 - 1_2__-V2-Est - Idraulica
  1

  0
LWPOLYLINE
  5
16A
330
169
100
AcDbEntity
  8
M-PIPE
100
AcDbPolyline
 90
       41
 70
   128
 43
0.0
 10
1057.114353943099
 20
2086.932558850028
 10
1057.520245685093
 20
2086.924439932636
 10
1057.925488086886
 20
2086.900096168999
 10
1058.329432847081
 20
2086.859566503944
 10
1058.731433740233
 20
2086.80291577629
 10
1059.130847650669
 20
2086.730234615116
 10
1059.527035601334
 20
2086.641639294775
 10
1059.919363776025
 20
2086.537271548882
 10
1060.307204533352
 20
2086.417298343564
 10
1060.689937410841
 20
2086.281911610358
 10
1061.066950117532
 20
2086.131327939157
 10
1061.437639513519
 20
2085.96578823171
 10
1061.801412574845
 20
2085.785557316237
 10
1062.157687342213
 20
2085.590923523755
 10
1062.505893851996
 20
2085.382198226814
 10
1062.845475048058
 20
2085.15971534136
 10
1063.175887672927
 20
2084.923830792553
 10
1063.496603136886
 20
2084.674921945349
 10
1063.807108363609
 20
2084.413387000807
 10
1064.106906610971
 20
2084.139644359048
 10
1064.395518265729
 20
2083.854131949901
 10
1064.672481610803
 20
2083.557306532316
 10
1064.937353563923
 20
2083.249642963643
 10
1065.189710386468
 20
2082.931633439959
 10
1065.429148361354
 20
2082.603786708663
 10
1065.655284438899
 20
2082.266627254589
 10
1065.867756849619
 20
2081.92069446094
 10
1066.066225682981
 20
2081.566541746391
 10
1066.250373431191
 20
2081.204735679736
 10
1066.419905497132
 20
2080.835855073501
 10
1066.574550665666
 20
2080.460490057966
 10
1066.714061537512
 20
2080.079241137081
 10
1066.838214925034
 20
2079.692718227792
 10
1066.946812209299
 20
2079.301539684299
 10
1067.039679657817
 20
2078.906331308826
 10
1067.116668702482
 20
2078.507725350465
 10
1067.177656177245
 20
2078.10635949372
 10
1067.222544515156
 20
2077.70287583834
 10
1067.251261904451
 20
2077.297919872103
 10
1067.263762403433
 20
2076.892139438169
 10
1067.262753831032
 20
2076.782558850027
1001
REVIT
1002
{
1070
     3
1000
856288
1002
}
  0
LINE
  5
16B
330
169
100
AcDbEntity
  8
M-PIPE
100
AcDbLine
 10
1057.114353943099
 20
2086.932558850028
 30
0.0
 11
1057.114353943099
 21
2086.821330739201
 31
0.0
1001
REVIT
1002
{
1070
     3
1000
856288
1002
}
  0
LWPOLYLINE
  5
16C
330
169
100
AcDbEntity
  8
M-PIPE
100
AcDbPolyline
 90
       41
 70
   128
 43
0.0
 10
1046.965954055165
 20
2076.782558850027
 10
1046.968681872228
 20
2077.078934001385
 10
1046.988649172709
 20
2077.484415603866
 10
1047.024815440789
 20
2077.888774385262
 10
1047.077122818151
 20
2078.291363457781
 10
1047.145487624152
 20
2078.69153876479
 10
1047.229800489685
 20
2079.088660111162
 10
1047.329926532151
 20
2079.482092187459
 10
1047.445705571242
 20
2079.871205586285
 10
1047.576952385193
 20
2080.255377809208
 10
1047.723457007099
 20
2080.633994262627
 10
1047.884985060818
 20
2081.006449240981
 10
1048.061278135922
 20
2081.372146895757
 10
1048.252054201097
 20
2081.730502188721
 10
1048.457008055337
 20
2082.080941827847
 10
1048.675811816195
 20
2082.422905184471
 10
1048.90811544433
 20
2082.755845190169
 10
1049.153547303492
 20
2083.079229211956
 10
1049.411714755063
 20
2083.392539904382
 10
1049.682204786192
 20
2083.695276037175
 10
1049.964584670531
 20
2083.986953297102
 10
1050.258402660505
 20
2084.267105062771
 10
1050.563188710005
 20
2084.535283151117
 10
1050.878455226371
 20
2084.791058534407
 10
1051.203697850429
 20
2085.034022026591
 10
1051.538396263363
 20
2085.263784937911
 10
1051.882015019111
 20
2085.479979696723
 10
1052.234004400964
 20
2085.682260437529
 10
1052.593801300999
 20
2085.870303554298
 10
1052.960830120928
 20
2086.043808218156
 10
1053.334503692934
 20
2086.202496858652
 10
1053.714224219016
 20
2086.346115607814
 10
1054.099384227334
 20
2086.474434706281
 10
1054.489367544038
 20
2086.587248870867
 10
1054.883550279014
 20
2086.684377622975
 10
1055.281301823972
 20
2086.765665577322
 10
1055.681985861291
 20
2086.830982690522
 10
1056.084961381985
 20
2086.880224469126
 10
1056.489583711185
 20
2086.913312136793
 10
1056.895205539479
 20
2086.930192760313
 10
1057.114353943099
 20
2086.932558850028
1001
REVIT
1002
{
1070
     3
1000
856288
1002
}
  0
LINE
  5
16D
330
169
100
AcDbEntity
  8
M-PIPE
100
AcDbLine
 10
1057.114353943099
 20
2086.932558850028
 30
0.0
 11
1057.114353943099
 21
2086.828430221271
 31
0.0
1001
REVIT
1002
{
1070
     3
1000
856288
1002
}
  0
LINE
  5
16E
330
169
100
AcDbEntity
  8
M-PIPE
100
AcDbLine
 10
1077.114353943099
 20
2055.58255885001
 30
0.0
 11
1077.114353943098
 21
2066.595984474499
 31
0.0
1001
REVIT
1002
{
1070
     3
1000
856288
1002
}
  0
LINE
  5
16F
330
169
100
AcDbEntity
  8
M-PIPE
100
AcDbLine
 10
1037.114353943099
 20
2066.595984474499
 30
0.0
 11
1037.114353943099
 21
2055.582558850009
 31
0.0
1001
REVIT
1002
{
1070
     3
1000
856288
1002
}
  0
LINE
  5
170
330
169
100
AcDbEntity
  8
M-PIPE
100
AcDbLine
 10
1077.114353943098
 20
2066.595984474499
 30
0.0
 11
1074.364353943098
 21
2068.18369771477
 31
0.0
1001
REVIT
1002
{
1070
     3
1000
856288
1002
}
  0
LINE
  5
171
330
169
100
AcDbEntity
  8
M-PIPE
100
AcDbLine
 10
1039.864353943099
 20
2068.18369771477
 30
0.0
 11
1037.114353943099
 21
2066.595984474499
 31
0.0
1001
REVIT
1002
{
1070
     3
1000
856288
1002
}
  0
LINE
  5
172
330
169
100
AcDbEntity
  8
M-PIPE
100
AcDbLine
 10
1074.364353943098
 20
2068.18369771477
 30
0.0
 11
1070.714353943098
 21
2076.782558850027
 31
0.0
1001
REVIT
1002
{
1070
     3
1000
856288
1002
}
  0
LINE
  5
173
330
169
100
AcDbEntity
  8
M-PIPE
100
AcDbLine
 10
1043.514353943098
 20
2076.782558850027
 30
0.0
 11
1039.864353943099
 21
2068.18369771477
 31
0.0
1001
REVIT
1002
{
1070
     3
1000
856288
1002
}
  0
LINE
  5
174
330
169
100
AcDbEntity
  8
M-PIPE
100
AcDbLine
 10
1076.848524814963
 20
2045.982558850026
 30
0.0
 11
1073.291111961914
 21
2045.982558850026
 31
0.0
1001
REVIT
1002
{
1070
     3
1000
856288
1002
}
  0
LINE
  5
175
330
169
100
AcDbEntity
  8
M-PIPE
100
AcDbLine
 10
1073.291111961914
 20
2045.982558850026
 30
0.0
 11
1071.621221298608
 21
2045.982558850026
 31
0.0
1001
REVIT
1002
{
1070
     3
1000
856288
1002
}
  0
LINE
  5
176
330
169
100
AcDbEntity
  8
M-PIPE
100
AcDbLine
 10
1057.114353943097
 20
2055.582558850009
 30
0.0
 11
1077.114353943097
 21
2055.582558850009
 31
0.0
1001
REVIT
1002
{
1070
     3
1000
856288
1002
}
  0
LINE
  5
177
330
169
100
AcDbEntity
  8
M-PIPE
100
AcDbLine
 10
1076.848524814963
 20
2055.582558850009
 30
0.0
 11
1076.848524814963
 21
2045.982558850026
 31
0.0
1001
REVIT
1002
{
1070
     3
1000
856288
1002
}
  0
LINE
  5
178
330
169
100
AcDbEntity
  8
M-PIPE
100
AcDbLine
 10
1037.114390844374
 20
2055.582558850009
 30
0.0
 11
1037.380183071237
 21
2055.582558850008
 31
0.0
1001
REVIT
1002
{
1070
     3
1000
856288
1002
}
  0
LINE
  5
179
330
169
100
AcDbEntity
  8
M-PIPE
100
AcDbLine
 10
1037.380183071237
 20
2055.582558850009
 30
0.0
 11
1037.380183071237
 21
2045.982558850025
 31
0.0
1001
REVIT
1002
{
1070
     3
1000
856288
1002
}
  0
LINE
  5
17A
330
169
100
AcDbEntity
  8
M-PIPE
100
AcDbLine
 10
1053.864353943104
 20
2045.982558850025
 30
0.0
 11
1037.380183071237
 21
2045.982558850025
 31
0.0
1001
REVIT
1002
{
1070
     3
1000
856288
1002
}
  0
LINE
  5
17B
330
169
100
AcDbEntity
  8
M-PIPE
100
AcDbLine
 10
1053.864353943104
 20
2045.982558850025
 30
0.0
 11
1053.864353943104
 21
2055.582558850009
 31
0.0
1001
REVIT
1002
{
1070
     3
1000
856288
1002
}
  0
LINE
  5
17C
330
169
100
AcDbEntity
  8
M-PIPE
100
AcDbLine
 10
1053.864353943104
 20
2055.582558850009
 30
0.0
 11
1057.114353943097
 21
2055.582558850009
 31
0.0
1001
REVIT
1002
{
1070
     3
1000
856288
1002
}
  0
LINE
  5
17D
330
169
100
AcDbEntity
  8
M-PIPE
100
AcDbLine
 10
1077.1039543601
 20
2066.595984474498
 30
0.0
 11
1057.114353943097
 21
2066.595984474497
 31
0.0
1001
REVIT
1002
{
1070
     3
1000
856288
1002
}
  0
LINE
  5
17E
330
169
100
AcDbEntity
  8
M-PIPE
100
AcDbLine
 10
1057.114353943097
 20
2066.595984474497
 30
0.0
 11
1037.124753526093
 21
2066.595984474497
 31
0.0
1001
REVIT
1002
{
1070
     3
1000
856288
1002
}
  0
LINE
  5
17F
330
169
100
AcDbEntity
  8
M-PIPE
100
AcDbLine
 10
1074.359315687968
 20
2068.18369771477
 30
0.0
 11
1057.114353943097
 21
2068.183697714769
 31
0.0
1001
REVIT
1002
{
1070
     3
1000
856288
1002
}
  0
LINE
  5
180
330
169
100
AcDbEntity
  8
M-PIPE
100
AcDbLine
 10
1057.114353943097
 20
2068.183697714769
 30
0.0
 11
1039.869392198227
 21
2068.183697714769
 31
0.0
1001
REVIT
1002
{
1070
     3
1000
856288
1002
}
  0
LINE
  5
181
330
169
100
AcDbEntity
  8
M-PIPE
100
AcDbLine
 10
1070.714353943097
 20
2076.782558850025
 30
0.0
 11
1057.114353943097
 21
2076.782558850025
 31
0.0
1001
REVIT
1002
{
1070
     3
1000
856288
1002
}
  0
LINE
  5
182
330
169
100
AcDbEntity
  8
M-PIPE
100
AcDbLine
 10
1057.114353943097
 20
2076.782558850025
 30
0.0
 11
1043.514353943097
 21
2076.782558850025
 31
0.0
1001
REVIT
1002
{
1070
     3
1000
856288
1002
}
  0
LINE
  5
183
330
169
100
AcDbEntity
  8
M-PIPE
100
AcDbLine
 10
1073.291111961914
 20
2055.582558850009
 30
0.0
 11
1073.291111961914
 21
2045.982558850009
 31
0.0
1001
REVIT
1002
{
1070
     3
1000
856288
1002
}
  0
LINE
  5
184
330
169
100
AcDbEntity
  8
M-PIPE
100
AcDbLine
 10
1048.564353943033
 20
2076.782558850025
 30
0.0
 11
1048.564353943033
 21
2080.282558850026
 31
0.0
1001
REVIT
1002
{
1070
     3
1000
856288
1002
}
  0
LINE
  5
185
330
169
100
AcDbEntity
  8
M-PIPE
100
AcDbLine
 10
1065.664353943096
 20
2080.282558850026
 30
0.0
 11
1065.664353943096
 21
2076.782558850025
 31
0.0
1001
REVIT
1002
{
1070
     3
1000
856288
1002
}
  0
LINE
  5
186
330
169
100
AcDbEntity
  8
M-PIPE
100
AcDbLine
 10
1048.564353943033
 20
2080.282558850026
 30
0.0
 11
1049.114353943097
 21
2080.282558850026
 31
0.0
1001
REVIT
1002
{
1070
     3
1000
856288
1002
}
  0
LINE
  5
187
330
169
100
AcDbEntity
  8
M-PIPE
100
AcDbLine
 10
1065.114353943097
 20
2080.282558850026
 30
0.0
 11
1065.664353943096
 21
2080.282558850026
 31
0.0
1001
REVIT
1002
{
1070
     3
1000
856288
1002
}
  0
LINE
  5
188
330
169
100
AcDbEntity
  8
P-SANR-FIXT
100
AcDbLine
 10
1034.740642636796
 20
2017.230154113696
 30
0.0
 11
1030.990642637402
 21
2010.734963586363
 31
0.0
  0
ARC
  5
189
330
169
100
AcDbEntity
  8
P-SANR-FIXT
100
AcDbCircle
 10
1057.114353943097
 20
1999.982558850011
 30
0.0
 40
28.24999999995732
100
AcDbArc
 50
157.6281496673516
 51
180.0
  0
ARC
  5
18A
330
169
100
AcDbEntity
  8
P-SANR-FIXT
100
AcDbCircle
 10
1057.114353943097
 20
1999.982558850011
 30
0.0
 40
28.24999999995712
100
AcDbArc
 50
180.0
 51
202.3718503326511
  0
LINE
  5
18B
330
169
100
AcDbEntity
  8
P-SANR-FIXT
100
AcDbLine
 10
1030.990642637403
 20
1989.230154113657
 30
0.0
 11
1034.740642636795
 21
1982.734963586326
 31
0.0
  0
ARC
  5
18C
330
169
100
AcDbEntity
  8
P-SANR-FIXT
100
AcDbCircle
 10
1057.114353943097
 20
1999.982558850011
 30
0.0
 40
28.24999999995713
100
AcDbArc
 50
217.6281496673481
 51
262.3718503320717
  0
LINE
  5
18D
330
169
100
AcDbEntity
  8
P-SANR-FIXT
100
AcDbLine
 10
1053.364353943422
 20
1971.98255885001
 30
0.0
 11
1060.864353942772
 21
1971.98255885001
 31
0.0
  0
ARC
  5
18E
330
169
100
AcDbEntity
  8
P-SANR-FIXT
100
AcDbCircle
 10
1057.114353943097
 20
1999.982558850011
 30
0.0
 40
28.24999999995715
100
AcDbArc
 50
277.6281496679262
 51
322.3718503314901
  0
LINE
  5
18F
330
169
100
AcDbEntity
  8
P-SANR-FIXT
100
AcDbLine
 10
1079.488065249049
 20
1982.734963585873
 30
0.0
 11
1083.238065249008
 21
1989.230154114186
 31
0.0
  0
ARC
  5
190
330
169
100
AcDbEntity
  8
P-SANR-FIXT
100
AcDbCircle
 10
1057.114353943097
 20
1999.982558850011
 30
0.0
 40
28.24999999995698
100
AcDbArc
 50
337.6281496685077
 51
359.999999999999
  0
ARC
  5
191
330
169
100
AcDbEntity
  8
P-SANR-FIXT
100
AcDbCircle
 10
1057.114353943097
 20
1999.982558850011
 30
0.0
 40
28.24999999995725
100
AcDbArc
 50
0.0000000000004612
 51
22.37185033148818
  0
LINE
  5
192
330
169
100
AcDbEntity
  8
P-SANR-FIXT
100
AcDbLine
 10
1083.238065249008
 20
2010.734963585834
 30
0.0
 11
1079.488065249048
 21
2017.230154114149
 31
0.0
  0
ARC
  5
193
330
169
100
AcDbEntity
  8
P-SANR-FIXT
100
AcDbCircle
 10
1057.114353943097
 20
1999.982558850011
 30
0.0
 40
28.2499999999572
100
AcDbArc
 50
37.62814966851141
 51
82.37185033206644
  0
LINE
  5
194
330
169
100
AcDbEntity
  8
P-SANR-FIXT
100
AcDbLine
 10
1060.864353942775
 20
2027.982558850011
 30
0.0
 11
1053.364353943419
 21
2027.982558850011
 31
0.0
  0
ARC
  5
195
330
169
100
AcDbEntity
  8
P-SANR-FIXT
100
AcDbCircle
 10
1057.114353943097
 20
1999.982558850011
 30
0.0
 40
28.24999999995723
100
AcDbArc
 50
97.62814966793305
 51
142.3718503326483
  0
ARC
  5
196
330
169
100
AcDbEntity
  8
P-SANR-FIXT
100
AcDbCircle
 10
1057.114353943097
 20
1999.982558850011
 30
0.0
 40
19.05000000000018
100
AcDbArc
 50
270.0000000000003
 51
90.0
  0
ARC
  5
197
330
169
100
AcDbEntity
  8
P-SANR-FIXT
100
AcDbCircle
 10
1057.114353943097
 20
1999.982558850011
 30
0.0
 40
19.05000000000007
100
AcDbArc
 50
90.00000000000104
 51
270.0
  0
SPLINE
  5
198
330
169
100
AcDbEntity
  8
P-SANR-FIXT
100
AcDbSpline
210
0.0
220
0.0
230
1.0
 70
    24
 71
     3
 72
     9
 73
     5
 74
     0
 42
0.000000001
 43
0.0000000001
 40
0.0
 40
0.0
 40
0.0
 40
0.0
 40
0.5
 40
1.0
 40
1.0
 40
1.0
 40
1.0
 10
1034.740642636796
 20
2017.230154113696
 30
0.0
 10
1035.401266575984
 20
2018.374388341066
 30
0.0
 10
1036.703411610365
 20
2020.629769699437
 30
0.0
 10
1037.967350956758
 20
2022.818976865075
 30
0.0
 10
1038.589769207958
 20
2023.897036899711
 30
0.0
  0
SPLINE
  5
199
330
169
100
AcDbEntity
  8
P-SANR-FIXT
100
AcDbSpline
210
0.0
220
0.0
230
1.0
 70
    24
 71
     3
 72
     9
 73
     5
 74
     0
 42
0.000000001
 43
0.0000000001
 40
0.0
 40
0.0
 40
0.0
 40
0.0
 40
0.5
 40
1.0
 40
1.0
 40
1.0
 40
1.0
 10
1027.141516066219
 20
2004.06808080031
 30
0.0
 10
1027.763934317422
 20
2005.146140834952
 30
0.0
 10
1029.027873663822
 20
2007.335348000602
 30
0.0
 10
1030.330018698211
 20
2009.590729358987
 30
0.0
 10
1030.990642637402
 20
2010.734963586363
 30
0.0
  0
ARC
  5
19A
330
169
100
AcDbEntity
  8
P-SANR-FIXT
100
AcDbCircle
 10
1057.114353943053
 20
1999.98255885001
 30
0.0
 40
30.24999999995561
100
AcDbArc
 50
179.9999999999994
 51
187.762007117564
  0
ARC
  5
19B
330
169
100
AcDbEntity
  8
P-SANR-FIXT
100
AcDbCircle
 10
1057.114353943053
 20
1999.98255885001
 30
0.0
 40
30.24999999995584
100
AcDbArc
 50
172.2379928824356
 51
180.0000000000002
  0
SPLINE
  5
19C
330
169
100
AcDbEntity
  8
P-SANR-FIXT
100
AcDbSpline
210
0.0
220
0.0
230
1.0
 70
    24
 71
     3
 72
     9
 73
     5
 74
     0
 42
0.000000001
 43
0.0000000001
 40
-1.0
 40
-1.0
 40
-1.0
 40
-1.0
 40
-0.5
 40
0.0
 40
0.0
 40
0.0
 40
0.0
 10
1027.141516066219
 20
1995.897036899711
 30
0.0
 10
1027.763934317422
 20
1994.818976865069
 30
0.0
 10
1029.027873663822
 20
1992.629769699419
 30
0.0
 10
1030.330018698212
 20
1990.374388341033
 30
0.0
 10
1030.990642637403
 20
1989.230154113657
 30
0.0
  0
SPLINE
  5
19D
330
169
100
AcDbEntity
  8
P-SANR-FIXT
100
AcDbSpline
210
0.0
220
0.0
230
1.0
 70
    24
 71
     3
 72
     9
 73
     5
 74
     0
 42
0.000000001
 43
0.0000000001
 40
-1.0
 40
-1.0
 40
-1.0
 40
-1.0
 40
-0.5
 40
0.0
 40
0.0
 40
0.0
 40
0.0
 10
1034.740642636795
 20
1982.734963586326
 30
0.0
 10
1035.401266575983
 20
1981.590729358957
 30
0.0
 10
1036.703411610365
 20
1979.335348000584
 30
0.0
 10
1037.967350956758
 20
1977.146140834946
 30
0.0
 10
1038.589769207957
 20
1976.06808080031
 30
0.0
  0
ARC
  5
19E
330
169
100
AcDbEntity
  8
P-SANR-FIXT
100
AcDbCircle
 10
1057.114353943053
 20
1999.98255885001
 30
0.0
 40
30.24999999995589
100
AcDbArc
 50
232.2379928824334
 51
247.7620071175635
  0
SPLINE
  5
19F
330
169
100
AcDbEntity
  8
P-SANR-FIXT
100
AcDbSpline
210
0.0
220
0.0
230
1.0
 70
    24
 71
     3
 72
     9
 73
     5
 74
     0
 42
0.000000001
 43
0.0000000001
 40
-1.0
 40
-1.0
 40
-1.0
 40
-1.0
 40
-0.5
 40
0.0
 40
0.0
 40
0.0
 40
0.0
 10
1045.666100801314
 20
1971.98255885001
 30
0.0
 10
1046.910937303679
 20
1971.98255885001
 30
0.0
 10
1049.438815996394
 20
1971.98255885001
 30
0.0
 10
1052.043106065084
 20
1971.98255885001
 30
0.0
 10
1053.364353943422
 20
1971.98255885001
 30
0.0
  0
SPLINE
  5
1A0
330
169
100
AcDbEntity
  8
P-SANR-FIXT
100
AcDbSpline
210
0.0
220
0.0
230
1.0
 70
    24
 71
     3
 72
     9
 73
     5
 74
     0
 42
0.000000001
 43
0.0000000001
 40
-1.0
 40
-1.0
 40
-1.0
 40
-1.0
 40
-0.5
 40
0.0
 40
0.0
 40
0.0
 40
0.0
 10
1060.864353942772
 20
1971.98255885001
 30
0.0
 10
1062.185601821094
 20
1971.98255885001
 30
0.0
 10
1064.789891889753
 20
1971.98255885001
 30
0.0
 10
1067.31777058244
 20
1971.98255885001
 30
0.0
 10
1068.562607084791
 20
1971.98255885001
 30
0.0
  0
ARC
  5
1A1
330
169
100
AcDbEntity
  8
P-SANR-FIXT
100
AcDbCircle
 10
1057.114353943053
 20
1999.98255885001
 30
0.0
 40
30.24999999995601
100
AcDbArc
 50
292.2379928824336
 51
307.7620071175633
  0
SPLINE
  5
1A2
330
169
100
AcDbEntity
  8
P-SANR-FIXT
100
AcDbSpline
210
0.0
220
0.0
230
1.0
 70
    24
 71
     3
 72
     9
 73
     5
 74
     0
 42
0.000000001
 43
0.0000000001
 40
-1.0
 40
-1.0
 40
-1.0
 40
-1.0
 40
-0.5
 40
0.0
 40
0.0
 40
0.0
 40
0.0
 10
1075.638938678148
 20
1976.06808080031
 30
0.0
 10
1076.261356929306
 20
1977.146140834873
 30
0.0
 10
1077.525296275614
 20
1979.335348000364
 30
0.0
 10
1078.827441309906
 20
1981.590729358582
 30
0.0
 10
1079.488065249049
 20
1982.734963585873
 30
0.0
  0
SPLINE
  5
1A3
330
169
100
AcDbEntity
  8
P-SANR-FIXT
100
AcDbSpline
210
0.0
220
0.0
230
1.0
 70
    24
 71
     3
 72
     9
 73
     5
 74
     0
 42
0.000000001
 43
0.0000000001
 40
-1.0
 40
-1.0
 40
-1.0
 40
-1.0
 40
-0.5
 40
0.0
 40
0.0
 40
0.0
 40
0.0
 10
1083.238065249008
 20
1989.230154114186
 30
0.0
 10
1083.898689188146
 20
1990.374388341469
 30
0.0
 10
1085.200834222431
 20
1992.629769699674
 30
0.0
 10
1086.464773568732
 20
1994.818976865152
 30
0.0
 10
1087.087191819886
 20
1995.897036899711
 30
0.0
  0
ARC
  5
1A4
330
169
100
AcDbEntity
  8
P-SANR-FIXT
100
AcDbCircle
 10
1057.114353943053
 20
1999.98255885001
 30
0.0
 40
30.24999999995579
100
AcDbArc
 50
352.2379928824337
 51
359.9999999999992
  0
ARC
  5
1A5
330
169
100
AcDbEntity
  8
P-SANR-FIXT
100
AcDbCircle
 10
1057.114353943053
 20
1999.98255885001
 30
0.0
 40
30.24999999995589
100
AcDbArc
 50
0.0000000000008613
 51
7.762007117564715
  0
SPLINE
  5
1A6
330
169
100
AcDbEntity
  8
P-SANR-FIXT
100
AcDbSpline
210
0.0
220
0.0
230
1.0
 70
    24
 71
     3
 72
     9
 73
     5
 74
     0
 42
0.000000001
 43
0.0000000001
 40
0.0
 40
0.0
 40
0.0
 40
0.0
 40
0.5
 40
1.0
 40
1.0
 40
1.0
 40
1.0
 10
1083.238065249008
 20
2010.734963585834
 30
0.0
 10
1083.898689188147
 20
2009.590729358551
 30
0.0
 10
1085.200834222431
 20
2007.335348000346
 30
0.0
 10
1086.464773568732
 20
2005.146140834867
 30
0.0
 10
1087.087191819886
 20
2004.06808080031
 30
0.0
  0
SPLINE
  5
1A7
330
169
100
AcDbEntity
  8
P-SANR-FIXT
100
AcDbSpline
210
0.0
220
0.0
230
1.0
 70
    24
 71
     3
 72
     9
 73
     5
 74
     0
 42
0.000000001
 43
0.0000000001
 40
0.0
 40
0.0
 40
0.0
 40
0.0
 40
0.5
 40
1.0
 40
1.0
 40
1.0
 40
1.0
 10
1075.638938678148
 20
2023.897036899711
 30
0.0
 10
1076.261356929306
 20
2022.818976865147
 30
0.0
 10
1077.525296275614
 20
2020.629769699657
 30
0.0
 10
1078.827441309906
 20
2018.37438834144
 30
0.0
 10
1079.488065249048
 20
2017.230154114149
 30
0.0
  0
ARC
  5
1A8
330
169
100
AcDbEntity
  8
P-SANR-FIXT
100
AcDbCircle
 10
1057.114353943053
 20
1999.98255885001
 30
0.0
 40
30.24999999995606
100
AcDbArc
 50
52.23799288243512
 51
67.76200711756486
  0
SPLINE
  5
1A9
330
169
100
AcDbEntity
  8
P-SANR-FIXT
100
AcDbSpline
210
0.0
220
0.0
230
1.0
 70
    24
 71
     3
 72
     9
 73
     5
 74
     0
 42
0.000000001
 43
0.0000000001
 40
0.0
 40
0.0
 40
0.0
 40
0.0
 40
0.5
 40
1.0
 40
1.0
 40
1.0
 40
1.0
 10
1060.864353942775
 20
2027.982558850011
 30
0.0
 10
1062.185601821097
 20
2027.982558850011
 30
0.0
 10
1064.789891889755
 20
2027.982558850011
 30
0.0
 10
1067.317770582441
 20
2027.982558850011
 30
0.0
 10
1068.562607084791
 20
2027.982558850011
 30
0.0
  0
SPLINE
  5
1AA
330
169
100
AcDbEntity
  8
P-SANR-FIXT
100
AcDbSpline
210
0.0
220
0.0
230
1.0
 70
    24
 71
     3
 72
     9
 73
     5
 74
     0
 42
0.000000001
 43
0.0000000001
 40
0.0
 40
0.0
 40
0.0
 40
0.0
 40
0.5
 40
1.0
 40
1.0
 40
1.0
 40
1.0
 10
1045.666100801315
 20
2027.982558850011
 30
0.0
 10
1046.910937303679
 20
2027.982558850011
 30
0.0
 10
1049.438815996393
 20
2027.982558850011
 30
0.0
 10
1052.043106065082
 20
2027.982558850011
 30
0.0
 10
1053.364353943419
 20
2027.982558850011
 30
0.0
  0
ARC
  5
1AB
330
169
100
AcDbEntity
  8
P-SANR-FIXT
100
AcDbCircle
 10
1057.114353943053
 20
1999.98255885001
 30
0.0
 40
30.24999999995593
100
AcDbArc
 50
112.2379928824354
 51
127.7620071175656
  0
ARC
  5
1AC
330
169
100
AcDbEntity
  8
P-SANR-FIXT
100
AcDbCircle
 10
1057.114353943097
 20
1999.982558850011
 30
0.0
 40
33.99999999998727
100
AcDbArc
 50
270.0
 51
90.0
  0
ARC
  5
1AD
330
169
100
AcDbEntity
  8
P-SANR-FIXT
100
AcDbCircle
 10
1057.114353943097
 20
1999.982558850011
 30
0.0
 40
33.99999999998732
100
AcDbArc
 50
90.00000000000019
 51
269.9999999999998
  0
ARC
  5
1AE
330
169
100
AcDbEntity
  8
P-SANR-FIXT
100
AcDbCircle
 10
1057.114353943097
 20
1999.982558850011
 30
0.0
 40
30.25000000000008
100
AcDbArc
 50
67.76200711764072
 51
89.99999999999957
  0
ARC
  5
1AF
330
169
100
AcDbEntity
  8
P-SANR-FIXT
100
AcDbCircle
 10
1057.114353943097
 20
1999.982558850011
 30
0.0
 40
30.24999999994698
100
AcDbArc
 50
7.762007117574781
 51
52.23799288249974
  0
ARC
  5
1B0
330
169
100
AcDbEntity
  8
P-SANR-FIXT
100
AcDbCircle
 10
1057.114353943097
 20
1999.982558850011
 30
0.0
 40
30.24999999993468
100
AcDbArc
 50
307.7620071174977
 51
352.2379928824217
  0
ARC
  5
1B1
330
169
100
AcDbEntity
  8
P-SANR-FIXT
100
AcDbCircle
 10
1057.114353943097
 20
1999.982558850011
 30
0.0
 40
30.24999999995509
100
AcDbArc
 50
269.9999999999994
 51
292.2379928823568
  0
ARC
  5
1B2
330
169
100
AcDbEntity
  8
P-SANR-FIXT
100
AcDbCircle
 10
1057.114353943097
 20
1999.982558850011
 30
0.0
 40
30.2499999999999
100
AcDbArc
 50
247.7620071174876
 51
269.9999999999992
  0
ARC
  5
1B3
330
169
100
AcDbEntity
  8
P-SANR-FIXT
100
AcDbCircle
 10
1057.114353943097
 20
1999.982558850011
 30
0.0
 40
30.24999999998724
100
AcDbArc
 50
187.7620071175535
 51
232.2379928823688
  0
ARC
  5
1B4
330
169
100
AcDbEntity
  8
P-SANR-FIXT
100
AcDbCircle
 10
1057.114353943097
 20
1999.982558850011
 30
0.0
 40
30.2499999999994
100
AcDbArc
 50
127.7620071176305
 51
172.237992882447
  0
ARC
  5
1B5
330
169
100
AcDbEntity
  8
P-SANR-FIXT
100
AcDbCircle
 10
1057.114353943097
 20
1999.982558850011
 30
0.0
 40
30.24999999997931
100
AcDbArc
 50
90.0
 51
112.2379928825116
  0
ARC
  5
1B6
330
169
100
AcDbEntity
  8
P-SANR-FIXT
100
AcDbCircle
 10
1057.114353943097
 20
1999.982558850011
 30
0.0
 40
36.25000000000023
100
AcDbArc
 50
269.9999999999997
 51
89.99999999999964
  0
ARC
  5
1B7
330
169
100
AcDbEntity
  8
P-SANR-FIXT
100
AcDbCircle
 10
1057.114353943097
 20
1999.982558850011
 30
0.0
 40
36.25000000000023
100
AcDbArc
 50
89.99999999999964
 51
269.9999999999993
  0
ARC
  5
1B8
330
169
100
AcDbEntity
  8
P-SANR-FIXT
100
AcDbCircle
 10
1057.114353943097
 20
1999.982558850011
 30
0.0
 40
34.5
100
AcDbArc
 50
270.0
 51
90.00000000000039
  0
ARC
  5
1B9
330
169
100
AcDbEntity
  8
P-SANR-FIXT
100
AcDbCircle
 10
1057.114353943097
 20
1999.982558850011
 30
0.0
 40
34.5
100
AcDbArc
 50
90.00000000000039
 51
269.9999999999997
  0
LINE
  5
1BA
330
169
100
AcDbEntity
  8
P-SANR-FIXT
100
AcDbLine
 10
1071.614353943098
 20
2033.175834795514
 30
0.0
 11
1071.614353943098
 21
2053.482558850012
 31
0.0
  0
LINE
  5
1BB
330
169
100
AcDbEntity
  8
P-SANR-FIXT
100
AcDbLine
 10
1042.614353943098
 20
2045.982558850026
 30
0.0
 11
1042.614353943098
 21
2033.175834795514
 31
0.0
  0
LINE
  5
1BC
330
169
100
AcDbEntity
  8
P-SANR-FIXT
100
AcDbLine
 10
1065.114353943099
 20
2053.482558850012
 30
0.0
 11
1065.114353943099
 21
2055.582558850009
 31
0.0
  0
LINE
  5
1BD
330
169
100
AcDbEntity
  8
P-SANR-FIXT
100
AcDbLine
 10
1065.114353943099
 20
2076.782558850027
 30
0.0
 11
1065.114353943099
 21
2081.982558850012
 31
0.0
  0
LINE
  5
1BE
330
169
100
AcDbEntity
  8
P-SANR-FIXT
100
AcDbLine
 10
1049.114353943098
 20
2081.982558850012
 30
0.0
 11
1049.114353943098
 21
2076.782558850027
 31
0.0
  0
ARC
  5
1BF
330
169
100
AcDbEntity
  8
P-SANR-FIXT
100
AcDbCircle
 10
1057.114353943097
 20
1999.982558850011
 30
0.0
 40
34.5
100
AcDbArc
 50
270.0
 51
90.0
  0
ARC
  5
1C0
330
169
100
AcDbEntity
  8
P-SANR-FIXT
100
AcDbCircle
 10
1057.114353943097
 20
1999.982558850011
 30
0.0
 40
34.50000000000012
100
AcDbArc
 50
90.00000000000058
 51
270.0000000000002
  0
LINE
  5
1C1
330
169
100
AcDbEntity
  8
P-SANR-FIXT
100
AcDbLine
 10
1057.114353943097
 20
2053.482558850011
 30
0.0
 11
1053.885914847818
 21
2053.482558850011
 31
0.0
  0
LINE
  5
1C2
330
169
100
AcDbEntity
  8
P-SANR-FIXT
100
AcDbLine
 10
1071.613792937282
 20
2053.482558850011
 30
0.0
 11
1057.114353943097
 21
2053.482558850011
 31
0.0
  0
LINE
  5
1C3
330
169
100
AcDbEntity
  8
P-SANR-FIXT
100
AcDbLine
 10
1057.114353943097
 20
2081.982558850011
 30
0.0
 11
1065.114353943097
 21
2081.982558850011
 31
0.0
  0
LINE
  5
1C4
330
169
100
AcDbEntity
  8
P-SANR-FIXT
100
AcDbLine
 10
1049.114353943097
 20
2081.982558850011
 30
0.0
 11
1057.114353943097
 21
2081.982558850011
 31
0.0
  0
ENDBLK
  5
1C6
330
169
100
AcDbEntity
  8
0
100
AcDbBlockEnd
  0
ENDSEC
  0
SECTION
  2
ENTITIES
  0
INSERT
  5
103
330
71
100
AcDbEntity
  8
P-SANR-FIXT
100
AcDbBlockReference
  2
Automatic flow rate regulator valve_Caleffi_121 DN15 - 1_2__-859151-Est - Idraulica
 10
0.0
 20
0.0
 30
0.0
1001
REVIT
1002
{
1070
     1
1000
863131
1002
}
1002
{
1070
     5
1000
859151
1002
}
1002
{
1070
     2
1000
-2001160
1002
}
  0
INSERT
  5
168
330
71
100
AcDbEntity
  8
P-SANR-FIXT
100
AcDbBlockReference
  2
Automatic flow rate regulator valve_Caleffi_121 DN15 - 1_2__-V1-Est - Idraulica
 10
0.0
 20
0.0
 30
0.0
1001
REVIT
1002
{
1070
     1
1000
863152
1002
}
1002
{
1070
     5
1000
859151
1002
}
1002
{
1070
     2
1000
-2001160
1002
}
  0
INSERT
  5
1C7
330
71
100
AcDbEntity
  8
P-SANR-FIXT
100
AcDbBlockReference
  2
Automatic flow rate regulator valve_Caleffi_121 DN15 - 1_2__-V2-Est - Idraulica
 10
0.0
 20
0.0
 30
0.0
1001
REVIT
1002
{
1070
     1
1000
863172
1002
}
1002
{
1070
     5
1000
859151
1002
}
1002
{
1070
     2
1000
-2001160
1002
}
  0
ENDSEC
  0
SECTION
  2
OBJECTS
  0
DICTIONARY
  5
C
330
0
100
AcDbDictionary
281
     1
  3
ACAD_CIP_PREVIOUS_PRODUCT_INFO
350
7A
  3
ACAD_COLOR
350
63
  3
ACAD_DETAILVIEWSTYLE
350
6B
  3
ACAD_GROUP
350
D
  3
ACAD_IMAGE_VARS
350
7B
  3
ACAD_LAYOUT
350
62
  3
ACAD_MATERIAL
350
10
  3
ACAD_MLEADERSTYLE
350
66
  3
ACAD_MLINESTYLE
350
5F
  3
ACAD_PLOTSETTINGS
350
61
  3
ACAD_PLOTSTYLENAME
350
E
  3
ACAD_SCALELIST
350
42
  3
ACAD_SECTIONVIEWSTYLE
350
68
  3
ACAD_TABLESTYLE
350
64
  3
ACAD_VISUALSTYLE
350
29
  3
ACDB_RECOMPOSE_DATA
350
1D2
  3
AcDbVariableDictionary
350
7C
  3
REVIT_DICTIONARY
350
1C9
  0
DICTIONARY
  5
1CE
330
71
100
AcDbDictionary
280
     1
281
     1
  3
ACAD_SORTENTS
360
1CF
  0
XRECORD
  5
7A
102
{ACAD_REACTORS
330
C
102
}
330
C
100
AcDbXrecord
280
     1
300
RVT
300
2013
300
RVT2013
  0
DICTIONARY
  5
63
102
{ACAD_REACTORS
330
C
102
}
330
C
100
AcDbDictionary
281
     1
  0
DICTIONARY
  5
6B
102
{ACAD_REACTORS
330
C
102
}
330
C
100
AcDbDictionary
281
     1
  3
Imperial24
350
6C
  0
DICTIONARY
  5
D
102
{ACAD_REACTORS
330
C
102
}
330
C
100
AcDbDictionary
281
     1
  0
RASTERVARIABLES
  5
7B
102
{ACAD_REACTORS
330
C
102
}
330
C
100
AcDbRasterVariables
 90
        0
 70
     0
 71
     1
 72
     1
  0
DICTIONARY
  5
62
102
{ACAD_REACTORS
330
C
102
}
330
C
100
AcDbDictionary
281
     1
  3
Layout1
350
70
  3
Layout2
350
78
  3
Model
350
74
  0
DICTIONARY
  5
10
102
{ACAD_REACTORS
330
C
102
}
330
C
100
AcDbDictionary
281
     1
  3
ByBlock
350
19
  3
ByLayer
350
11
  3
Global
350
21
  0
DICTIONARY
  5
66
102
{ACAD_REACTORS
330
C
102
}
330
C
100
AcDbDictionary
281
     1
  3
Standard
350
67
  0
DICTIONARY
  5
5F
102
{ACAD_REACTORS
330
C
102
}
330
C
100
AcDbDictionary
281
     1
  3
Standard
350
60
  0
DICTIONARY
  5
61
102
{ACAD_REACTORS
330
C
102
}
330
C
100
AcDbDictionary
281
     1
  0
ACDBDICTIONARYWDFLT
  5
E
102
{ACAD_REACTORS
330
C
102
}
330
C
100
AcDbDictionary
281
     1
  3
Normal
350
F
100
AcDbDictionaryWithDefault
340
F
  0
DICTIONARY
  5
42
102
{ACAD_REACTORS
330
C
102
}
330
C
100
AcDbDictionary
281
     1
  3
A0
350
43
  3
A1
350
44
  3
A2
350
45
  3
A3
350
46
  3
A4
350
47
  3
A5
350
48
  3
A6
350
49
  3
A7
350
4A
  3
A8
350
4B
  3
A9
350
4C
  3
B0
350
4D
  3
B1
350
4E
  3
B2
350
4F
  3
B3
350
50
  3
B4
350
51
  3
B5
350
52
  3
B6
350
53
  0
DICTIONARY
  5
68
102
{ACAD_REACTORS
330
C
102
}
330
C
100
AcDbDictionary
281
     1
  3
Imperial24
350
6A
  0
DICTIONARY
  5
64
102
{ACAD_REACTORS
330
C
102
}
330
C
100
AcDbDictionary
281
     1
  3
Standard
350
65
  0
DICTIONARY
  5
29
102
{ACAD_REACTORS
330
C
102
}
330
C
100
AcDbDictionary
281
     1
  3
2dWireframe
350
2F
  3
Basic
350
2E
  3
Brighten
350
35
  3
ColorChange
350
39
  3
Conceptual
350
32
  3
Dim
350
34
  3
EdgeColorOff
350
41
  3
Facepattern
350
38
  3
Flat
350
2A
  3
FlatWithEdges
350
2B
  3
Gouraud
350
2C
  3
GouraudWithEdges
350
2D
  3
Hidden
350
31
  3
JitterOff
350
3F
  3
Linepattern
350
37
  3
OverhangOff
350
40
  3
Realistic
350
33
  3
Shaded
350
3E
  3
Shaded with edges
350
3D
  3
Shades of Gray
350
3A
  3
Sketchy
350
3B
  3
Thicken
350
36
  3
Wireframe
350
30
  3
X-Ray
350
3C
  0
XRECORD
  5
1D2
102
{ACAD_REACTORS
330
C
102
}
330
C
100
AcDbXrecord
280
     1
 90
        1
330
65
  0
DICTIONARY
  5
7C
102
{ACAD_REACTORS
330
C
102
}
330
C
100
AcDbDictionary
281
     1
  3
CANNOSCALE
350
81
  3
CMLEADERSTYLE
350
7E
  3
CTABLESTYLE
350
7D
  3
CVIEWDETAILSTYLE
350
7F
  3
CVIEWSECTIONSTYLE
350
80
  0
DICTIONARY
  5
1C9
102
{ACAD_REACTORS
330
C
102
}
330
C
100
AcDbDictionary
281
     1
  3
DRAWING_TOOL
350
1CD
  3
REVIT_CATEGORY_MAPPING
350
1CB
  3
REVIT_SUB_CATEGORY_MAPPING
350
1CC
  3
REVIT_TYPE_MAPPING
350
1CA
  0
SORTENTSTABLE
  5
1CF
102
{ACAD_REACTORS
330
1CE
102
}
330
1CE
100
AcDbSortentsTable
330
71
  0
ACDBDETAILVIEWSTYLE
  5
6C
102
{ACAD_REACTORS
330
6B
102
}
330
6B
100
AcDbModelDocViewStyle
 70
     0
  3
Imperial24
290
     1
100
AcDbDetailViewStyle
 70
     0
 71
     0
 90
        3
 71
     1
340
55
 62
   256
 40
0.24
340
0
 62
   256
 40
0.24
300

 40
0.36
280
     3
 71
     2
340
5D
 90
       25
 62
   256
 71
     3
340
55
 62
   256
 40
0.24
 90
        1
 40
0.75
 90
        1
300
%<\AcVar ViewType \f "%tc1">% %<\AcVar ViewDetailId>%\PSCALA %<\AcVar ViewScale \f "%sn">%
 71
     4
340
5D
 90
       25
 62
   256
340
5D
 90
       25
 62
   256
280
     0
  0
LAYOUT
  5
70
102
{ACAD_REACTORS
330
62
102
}
330
62
100
AcDbPlotSettings
  1

  2

  4

  6

 40
0.0
 41
0.0
 42
0.0
 43
0.0
 44
0.0
 45
0.0
 46
0.0
 47
0.0
 48
0.0
 49
0.0
140
0.0
141
0.0
142
1.0
143
1.0
 70
   688
 72
     0
 73
     0
 74
     5
  7

 75
    16
147
1.0
 76
     0
 77
     2
 78
   300
148
0.0
149
0.0
100
AcDbLayout
  1
Layout1
 70
     1
 71
     1
 10
0.0
 20
0.0
 11
12.0
 21
9.0
 12
0.0
 22
0.0
 32
0.0
 14
0.0
 24
0.0
 34
0.0
 15
0.0
 25
0.0
 35
0.0
146
0.0
 13
0.0
 23
0.0
 33
0.0
 16
1.0
 26
0.0
 36
0.0
 17
0.0
 27
1.0
 37
0.0
 76
     0
330
6D
  0
LAYOUT
  5
78
102
{ACAD_REACTORS
330
62
102
}
330
62
100
AcDbPlotSettings
  1

  2

  4

  6

 40
0.0
 41
0.0
 42
0.0
 43
0.0
 44
0.0
 45
0.0
 46
0.0
 47
0.0
 48
0.0
 49
0.0
140
0.0
141
0.0
142
1.0
143
1.0
 70
   688
 72
     0
 73
     0
 74
     5
  7

 75
    16
147
1.0
 76
     0
 77
     2
 78
   300
148
0.0
149
0.0
100
AcDbLayout
  1
Layout2
 70
     1
 71
     2
 10
0.0
 20
0.0
 11
12.0
 21
9.0
 12
0.0
 22
0.0
 32
0.0
 14
0.0
 24
0.0
 34
0.0
 15
0.0
 25
0.0
 35
0.0
146
0.0
 13
0.0
 23
0.0
 33
0.0
 16
1.0
 26
0.0
 36
0.0
 17
0.0
 27
1.0
 37
0.0
 76
     0
330
75
  0
LAYOUT
  5
74
102
{ACAD_REACTORS
330
62
102
}
330
62
100
AcDbPlotSettings
  1

  2

  4

  6

 40
0.0
 41
0.0
 42
0.0
 43
0.0
 44
0.0
 45
0.0
 46
0.0
 47
0.0
 48
0.0
 49
0.0
140
0.0
141
0.0
142
1.0
143
1.0
 70
  1712
 72
     0
 73
     0
 74
     0
  7

 75
     0
147
1.0
 76
     0
 77
     2
 78
   300
148
0.0
149
0.0
100
AcDbLayout
  1
Model
 70
     1
 71
     0
 10
0.0
 20
0.0
 11
12.0
 21
9.0
 12
0.0
 22
0.0
 32
0.0
 14
0.0
 24
0.0
 34
0.0
 15
0.0
 25
0.0
 35
0.0
146
0.0
 13
0.0
 23
0.0
 33
0.0
 16
1.0
 26
0.0
 36
0.0
 17
0.0
 27
1.0
 37
0.0
 76
     0
330
71
  0
MATERIAL
  5
19
102
{ACAD_XDICTIONARY
360
1A
102
}
102
{ACAD_REACTORS
330
10
102
}
330
10
100
AcDbMaterial
  1
ByBlock
 72
     0
 43
0.0208333333333333
 43
0.0
 43
0.0
 43
0.0
 43
0.0
 43
0.0208333333333333
 43
0.0
 43
0.0
 43
0.0
 43
0.0
 43
1.0
 43
0.0
 43
0.0
 43
0.0
 43
0.0
 43
1.0
 77
     0
 47
0.0208333333333333
 47
0.0
 47
0.0
 47
0.0
 47
0.0
 47
0.0208333333333333
 47
0.0
 47
0.0
 47
0.0
 47
0.0
 47
1.0
 47
0.0
 47
0.0
 47
0.0
 47
0.0
 47
1.0
171
     0
 49
0.0208333333333333
 49
0.0
 49
0.0
 49
0.0
 49
0.0
 49
0.0208333333333333
 49
0.0
 49
0.0
 49
0.0
 49
0.0
 49
1.0
 49
0.0
 49
0.0
 49
0.0
 49
0.0
 49
1.0
175
     0
142
0.0208333333333333
142
0.0
142
0.0
142
0.0
142
0.0
142
0.0208333333333333
142
0.0
142
0.0
142
0.0
142
0.0
142
1.0
142
0.0
142
0.0
142
0.0
142
0.0
142
1.0
179
     0
144
0.0208333333333333
144
0.0
144
0.0
144
0.0
144
0.0
144
0.0208333333333333
144
0.0
144
0.0
144
0.0
144
0.0
144
1.0
144
0.0
144
0.0
144
0.0
144
0.0
144
1.0
147
0.0208333333333333
147
0.0
147
0.0
147
0.0
147
0.0
147
0.0208333333333333
147
0.0
147
0.0
147
0.0
147
0.0
147
1.0
147
0.0
147
0.0
147
0.0
147
0.0
147
1.0
  0
MATERIAL
  5
11
102
{ACAD_XDICTIONARY
360
12
102
}
102
{ACAD_REACTORS
330
10
102
}
330
10
100
AcDbMaterial
  1
ByLayer
 72
     0
 43
0.0208333333333333
 43
0.0
 43
0.0
 43
0.0
 43
0.0
 43
0.0208333333333333
 43
0.0
 43
0.0
 43
0.0
 43
0.0
 43
1.0
 43
0.0
 43
0.0
 43
0.0
 43
0.0
 43
1.0
 77
     0
 47
0.0208333333333333
 47
0.0
 47
0.0
 47
0.0
 47
0.0
 47
0.0208333333333333
 47
0.0
 47
0.0
 47
0.0
 47
0.0
 47
1.0
 47
0.0
 47
0.0
 47
0.0
 47
0.0
 47
1.0
171
     0
 49
0.0208333333333333
 49
0.0
 49
0.0
 49
0.0
 49
0.0
 49
0.0208333333333333
 49
0.0
 49
0.0
 49
0.0
 49
0.0
 49
1.0
 49
0.0
 49
0.0
 49
0.0
 49
0.0
 49
1.0
175
     0
142
0.0208333333333333
142
0.0
142
0.0
142
0.0
142
0.0
142
0.0208333333333333
142
0.0
142
0.0
142
0.0
142
0.0
142
1.0
142
0.0
142
0.0
142
0.0
142
0.0
142
1.0
179
     0
144
0.0208333333333333
144
0.0
144
0.0
144
0.0
144
0.0
144
0.0208333333333333
144
0.0
144
0.0
144
0.0
144
0.0
144
1.0
144
0.0
144
0.0
144
0.0
144
0.0
144
1.0
147
0.0208333333333333
147
0.0
147
0.0
147
0.0
147
0.0
147
0.0208333333333333
147
0.0
147
0.0
147
0.0
147
0.0
147
1.0
147
0.0
147
0.0
147
0.0
147
0.0
147
1.0
  0
MATERIAL
  5
21
102
{ACAD_XDICTIONARY
360
22
102
}
102
{ACAD_REACTORS
330
10
102
}
330
10
100
AcDbMaterial
  1
Global
 72
     0
 43
0.0208333333333333
 43
0.0
 43
0.0
 43
0.0
 43
0.0
 43
0.0208333333333333
 43
0.0
 43
0.0
 43
0.0
 43
0.0
 43
1.0
 43
0.0
 43
0.0
 43
0.0
 43
0.0
 43
1.0
 77
     0
 47
0.0208333333333333
 47
0.0
 47
0.0
 47
0.0
 47
0.0
 47
0.0208333333333333
 47
0.0
 47
0.0
 47
0.0
 47
0.0
 47
1.0
 47
0.0
 47
0.0
 47
0.0
 47
0.0
 47
1.0
171
     0
 49
0.0208333333333333
 49
0.0
 49
0.0
 49
0.0
 49
0.0
 49
0.0208333333333333
 49
0.0
 49
0.0
 49
0.0
 49
0.0
 49
1.0
 49
0.0
 49
0.0
 49
0.0
 49
0.0
 49
1.0
175
     0
142
0.0208333333333333
142
0.0
142
0.0
142
0.0
142
0.0
142
0.0208333333333333
142
0.0
142
0.0
142
0.0
142
0.0
142
1.0
142
0.0
142
0.0
142
0.0
142
0.0
142
1.0
179
     0
144
0.0208333333333333
144
0.0
144
0.0
144
0.0
144
0.0
144
0.0208333333333333
144
0.0
144
0.0
144
0.0
144
0.0
144
1.0
144
0.0
144
0.0
144
0.0
144
0.0
144
1.0
147
0.0208333333333333
147
0.0
147
0.0
147
0.0
147
0.0
147
0.0208333333333333
147
0.0
147
0.0
147
0.0
147
0.0
147
1.0
147
0.0
147
0.0
147
0.0
147
0.0
147
1.0
  0
MLEADERSTYLE
  5
67
102
{ACAD_REACTORS
330
66
102
}
330
66
100
AcDbMLeaderStyle
179
     2
170
     2
171
     1
172
     0
 90
        2
 40
0.0
 41
0.0
173
     1
 91
-1056964608
340
5B
 92
       -2
290
     1
 42
0.09
291
     1
 43
0.36
  3
Standard
 44
0.18
300

342
55
174
     1
178
     6
175
     1
176
     0
 93
-1056964608
 45
0.18
292
     0
297
     0
 46
0.18
 94
-1056964608
 47
1.0
 49
1.0
140
1.0
293
     1
141
0.0
294
     1
177
     0
142
1.0
295
     1
296
     0
143
0.125
271
     0
272
     9
273
     9
298
     1
  0
MLINESTYLE
  5
60
102
{ACAD_REACTORS
330
5F
102
}
330
5F
100
AcDbMlineStyle
  2
STANDARD
 70
     0
  3

 62
   256
 51
90.0
 52
90.0
 71
     2
 49
0.5
 62
   256
  6
BYLAYER
 49
-0.5
 62
   256
  6
BYLAYER
  0
ACDBPLACEHOLDER
  5
F
102
{ACAD_REACTORS
330
E
102
}
330
E
  0
SCALE
  5
43
102
{ACAD_REACTORS
330
42
102
}
330
42
100
AcDbScale
 70
     0
300
1:1
140
1.0
141
1.0
290
     1
  0
SCALE
  5
44
102
{ACAD_REACTORS
330
42
102
}
330
42
100
AcDbScale
 70
     0
300
1/128" = 1'-0"
140
0.0078125
141
12.0
290
     0
  0
SCALE
  5
45
102
{ACAD_REACTORS
330
42
102
}
330
42
100
AcDbScale
 70
     0
300
1/64" = 1'-0"
140
0.015625
141
12.0
290
     0
  0
SCALE
  5
46
102
{ACAD_REACTORS
330
42
102
}
330
42
100
AcDbScale
 70
     0
300
1/32" = 1'-0"
140
0.03125
141
12.0
290
     0
  0
SCALE
  5
47
102
{ACAD_REACTORS
330
42
102
}
330
42
100
AcDbScale
 70
     0
300
1/16" = 1'-0"
140
0.0625
141
12.0
290
     0
  0
SCALE
  5
48
102
{ACAD_REACTORS
330
42
102
}
330
42
100
AcDbScale
 70
     0
300
3/32" = 1'-0"
140
0.09375
141
12.0
290
     0
  0
SCALE
  5
49
102
{ACAD_REACTORS
330
42
102
}
330
42
100
AcDbScale
 70
     0
300
1/8" = 1'-0"
140
0.125
141
12.0
290
     0
  0
SCALE
  5
4A
102
{ACAD_REACTORS
330
42
102
}
330
42
100
AcDbScale
 70
     0
300
3/16" = 1'-0"
140
0.1875
141
12.0
290
     0
  0
SCALE
  5
4B
102
{ACAD_REACTORS
330
42
102
}
330
42
100
AcDbScale
 70
     0
300
1/4" = 1'-0"
140
0.25
141
12.0
290
     0
  0
SCALE
  5
4C
102
{ACAD_REACTORS
330
42
102
}
330
42
100
AcDbScale
 70
     0
300
3/8" = 1'-0"
140
0.375
141
12.0
290
     0
  0
SCALE
  5
4D
102
{ACAD_REACTORS
330
42
102
}
330
42
100
AcDbScale
 70
     0
300
1/2" = 1'-0"
140
0.5
141
12.0
290
     0
  0
SCALE
  5
4E
102
{ACAD_REACTORS
330
42
102
}
330
42
100
AcDbScale
 70
     0
300
3/4" = 1'-0"
140
0.75
141
12.0
290
     0
  0
SCALE
  5
4F
102
{ACAD_REACTORS
330
42
102
}
330
42
100
AcDbScale
 70
     0
300
1" = 1'-0"
140
1.0
141
12.0
290
     0
  0
SCALE
  5
50
102
{ACAD_REACTORS
330
42
102
}
330
42
100
AcDbScale
 70
     0
300
1-1/2" = 1'-0"
140
1.5
141
12.0
290
     0
  0
SCALE
  5
51
102
{ACAD_REACTORS
330
42
102
}
330
42
100
AcDbScale
 70
     0
300
3" = 1'-0"
140
3.0
141
12.0
290
     0
  0
SCALE
  5
52
102
{ACAD_REACTORS
330
42
102
}
330
42
100
AcDbScale
 70
     0
300
6" = 1'-0"
140
6.0
141
12.0
290
     0
  0
SCALE
  5
53
102
{ACAD_REACTORS
330
42
102
}
330
42
100
AcDbScale
 70
     0
300
1'-0" = 1'-0"
140
12.0
141
12.0
290
     0
  0
ACDBSECTIONVIEWSTYLE
  5
6A
102
{ACAD_REACTORS
330
68
102
}
330
68
100
AcDbModelDocViewStyle
 70
     0
  3
Imperial24
290
     1
100
AcDbSectionViewStyle
 70
     0
 71
     0
 90
       78
 71
     1
340
55
 62
   256
 40
0.24
340
0
340
0
 62
   256
 40
0.24
300
I, O, Q, S, X, Z
 40
0.48
 90
        3
 40
0.18
 90
        1
 71
     2
340
69
 90
       25
 62
   256
340
5D
 90
       50
 62
   256
 40
0.24
 40
0.0
 40
0.24
 71
     3
340
55
 62
   256
 40
0.24
 90
        1
 40
0.75
 90
        1
300
%<\AcVar ViewType \f "%tc1">% %<\AcVar ViewSectionStartId>%-%<\AcVar ViewSectionEndId>%\PSCALA %<\AcVar ViewScale \f "%sn">%
 71
     4
 62
   256
 62
   257
300
ANSI31
 40
1.0
 90
        0
290
     0
290
     0
 90
        6
 40
0.0
 40
1.570796326794896
 40
0.2617993877991494
 40
1.308996938995747
 40
-0.2617993877991494
 40
1.832595714594046
  0
TABLESTYLE
  5
65
102
{ACAD_XDICTIONARY
360
1D0
102
}
102
{ACAD_REACTORS
330
64
102
}
330
64
100
AcDbTableStyle
280
     0
  3
Standard
 70
     0
 71
     0
 40
0.06
 41
0.06
280
     0
281
     0
  7
Standard
140
0.18
170
     2
 62
     0
 63
     7
283
     0
 90
      512
 91
        0
  1

274
    -2
284
     1
 64
     0
275
    -2
285
     1
 65
     0
276
    -2
286
     1
 66
     0
277
    -2
287
     1
 67
     0
278
    -2
288
     1
 68
     0
279
    -2
289
     1
 69
     0
  7
Standard
140
0.25
170
     5
 62
     0
 63
     7
283
     0
 90
      512
 91
        0
  1

274
    -2
284
     1
 64
     0
275
    -2
285
     1
 65
     0
276
    -2
286
     1
 66
     0
277
    -2
287
     1
 67
     0
278
    -2
288
     1
 68
     0
279
    -2
289
     1
 69
     0
  7
Standard
140
0.18
170
     5
 62
     0
 63
     7
283
     0
 90
      512
 91
        0
  1

274
    -2
284
     1
 64
     0
275
    -2
285
     1
 65
     0
276
    -2
286
     1
 66
     0
277
    -2
287
     1
 67
     0
278
    -2
288
     1
 68
     0
279
    -2
289
     1
 69
     0
  0
VISUALSTYLE
  5
2F
102
{ACAD_REACTORS
330
29
102
}
330
29
100
AcDbVisualStyle
  2
2dWireframe
 70
     4
177
     3
291
     0
 70
    58
 90
        0
176
     1
 90
        2
176
     1
 90
        0
176
     1
 90
        0
176
     1
 40
0.6
176
     1
 40
30.0
176
     1
 62
     7
420
 16777215
176
     1
 90
        1
176
     1
 90
        4
176
     1
 62
     7
176
     1
 62
   257
176
     1
 90
        1
176
     1
 90
        1
176
     1
 40
1.0
176
     1
 90
        0
176
     1
 62
   257
176
     1
 40
1.0
176
     1
 90
        1
176
     1
 90
        6
176
     1
 90
        2
176
     1
 62
     7
176
     1
 90
        5
176
     1
 90
        0
176
     1
 90
        0
176
     1
290
     0
176
     1
 90
        1
176
     1
 40
0.0
176
     1
 90
        0
176
     1
290
     1
176
     1
290
     1
176
     1
290
     0
176
     1
290
     0
176
     1
290
     0
176
     1
290
     0
176
     1
290
     0
176
     1
290
     0
176
     1
290
     0
176
     1
 90
       50
176
     1
 40
0.0
176
     1
 40
1.0
176
     1
 90
        0
176
     1
 62
    18
420
        0
176
     1
 90
       50
176
     1
 90
        3
176
     1
 62
     5
420
      255
176
     1
290
     0
176
     1
 90
       50
176
     1
 90
       50
176
     1
 90
       50
176
     1
290
     0
176
     1
 90
       50
176
     1
 62
   256
176
     0
 40
1.0
176
     0
 90
        2
176
     1
  1
strokes_ogs.tif
176
     1
290
     0
176
     1
 40
1.0
176
     1
 40
1.0
176
     1
  0
VISUALSTYLE
  5
2E
102
{ACAD_REACTORS
330
29
102
}
330
29
100
AcDbVisualStyle
  2
Basic
 70
     7
177
     3
291
     1
 70
    58
 90
        1
176
     1
 90
        0
176
     1
 90
        1
176
     1
 90
        0
176
     1
 40
0.6
176
     1
 40
30.0
176
     1
 62
     7
420
 16777215
176
     1
 90
        0
176
     1
 90
        4
176
     1
 62
     7
176
     1
 62
   257
176
     1
 90
        1
176
     1
 90
        1
176
     1
 40
1.0
176
     1
 90
        8
176
     1
 62
     7
176
     1
 40
1.0
176
     1
 90
        1
176
     1
 90
        6
176
     1
 90
        2
176
     1
 62
     7
176
     1
 90
        5
176
     1
 90
        0
176
     1
 90
        0
176
     1
290
     0
176
     1
 90
        1
176
     1
 40
0.0
176
     1
 90
        0
176
     1
290
     0
176
     1
290
     1
176
     1
290
     1
176
     1
290
     0
176
     1
290
     0
176
     1
290
     0
176
     1
290
     0
176
     1
290
     0
176
     1
290
     0
176
     1
 90
       50
176
     1
 40
0.0
176
     1
 40
1.0
176
     1
 90
        0
176
     1
 62
    18
420
        0
176
     1
 90
       50
176
     1
 90
        3
176
     1
 62
     5
420
      255
176
     1
290
     0
176
     1
 90
       50
176
     1
 90
       50
176
     1
 90
       50
176
     1
290
     0
176
     1
 90
       50
176
     1
 62
   256
176
     0
 40
1.0
176
     0
 90
        2
176
     1
  1
strokes_ogs.tif
176
     1
290
     0
176
     1
 40
1.0
176
     1
 40
1.0
176
     1
  0
VISUALSTYLE
  5
35
102
{ACAD_REACTORS
330
29
102
}
330
29
100
AcDbVisualStyle
  2
Brighten
 70
    12
177
     3
291
     1
 70
    58
 90
        2
176
     1
 90
        2
176
     1
 90
        0
176
     1
 90
        0
176
     1
 40
0.6
176
     1
 40
30.0
176
     1
 62
     7
420
 16777215
176
     1
 90
        1
176
     1
 90
        4
176
     1
 62
     7
176
     1
 62
   257
176
     1
 90
        1
176
     1
 90
        1
176
     1
 40
1.0
176
     1
 90
        8
176
     1
 62
     7
176
     1
 40
1.0
176
     1
 90
        1
176
     1
 90
        6
176
     1
 90
        2
176
     1
 62
     7
176
     1
 90
        5
176
     1
 90
        0
176
     1
 90
        0
176
     1
290
     0
176
     1
 90
        1
176
     1
 40
50.0
176
     1
 90
        0
176
     1
290
     0
176
     1
290
     1
176
     1
290
     1
176
     1
290
     0
176
     1
290
     0
176
     1
290
     0
176
     1
290
     0
176
     1
290
     0
176
     1
290
     0
176
     1
 90
       50
176
     1
 40
0.0
176
     1
 40
1.0
176
     1
 90
        0
176
     1
 62
    18
420
        0
176
     1
 90
       50
176
     1
 90
        3
176
     1
 62
     5
420
      255
176
     1
290
     0
176
     1
 90
       50
176
     1
 90
       50
176
     1
 90
       50
176
     1
290
     0
176
     1
 90
       50
176
     1
 62
   256
176
     0
 40
1.0
176
     0
 90
        2
176
     1
  1
strokes_ogs.tif
176
     1
290
     0
176
     1
 40
1.0
176
     1
 40
1.0
176
     1
  0
VISUALSTYLE
  5
39
102
{ACAD_REACTORS
330
29
102
}
330
29
100
AcDbVisualStyle
  2
ColorChange
 70
    16
177
     3
291
     1
 70
    58
 90
        2
176
     1
 90
        2
176
     1
 90
        3
176
     1
 90
        0
176
     1
 40
0.6
176
     1
 40
30.0
176
     1
 62
     8
420
  8421504
176
     1
 90
        1
176
     1
 90
        4
176
     1
 62
     7
176
     1
 62
   257
176
     1
 90
        1
176
     1
 90
        1
176
     1
 40
1.0
176
     1
 90
        8
176
     1
 62
     8
420
  8421504
176
     1
 40
1.0
176
     1
 90
        1
176
     1
 90
        6
176
     1
 90
        2
176
     1
 62
     7
176
     1
 90
        5
176
     1
 90
        0
176
     1
 90
        0
176
     1
290
     0
176
     1
 90
        1
176
     1
 40
0.0
176
     1
 90
        0
176
     1
290
     0
176
     1
290
     1
176
     1
290
     1
176
     1
290
     0
176
     1
290
     0
176
     1
290
     0
176
     1
290
     0
176
     1
290
     0
176
     1
290
     0
176
     1
 90
       50
176
     1
 40
0.0
176
     1
 40
1.0
176
     1
 90
        0
176
     1
 62
    18
420
        0
176
     1
 90
       50
176
     1
 90
        3
176
     1
 62
     5
420
      255
176
     1
290
     0
176
     1
 90
       50
176
     1
 90
       50
176
     1
 90
       50
176
     1
290
     0
176
     1
 90
       50
176
     1
 62
   256
176
     0
 40
1.0
176
     0
 90
        2
176
     1
  1
strokes_ogs.tif
176
     1
290
     0
176
     1
 40
1.0
176
     1
 40
1.0
176
     1
  0
VISUALSTYLE
  5
32
102
{ACAD_REACTORS
330
29
102
}
330
29
100
AcDbVisualStyle
  2
Conceptual
 70
     9
177
     3
291
     0
 70
    58
 90
        3
176
     1
 90
        2
176
     1
 90
        0
176
     1
 90
        0
176
     1
 40
0.6
176
     1
 40
30.0
176
     1
 62
     7
420
 16777215
176
     1
 90
        2
176
     1
 90
        2
176
     1
 62
     7
176
     1
 62
   257
176
     1
 90
        1
176
     1
 90
        1
176
     1
 40
179.0
176
     1
 90
        8
176
     1
 62
     7
176
     1
 40
1.0
176
     1
 90
        1
176
     1
 90
        6
176
     1
 90
        2
176
     1
 62
     7
176
     1
 90
        3
176
     1
 90
        0
176
     1
 90
        0
176
     1
290
     0
176
     1
 90
        1
176
     1
 40
0.0
176
     1
 90
        0
176
     1
290
     0
176
     1
290
     1
176
     1
290
     1
176
     1
290
     0
176
     1
290
     0
176
     1
290
     0
176
     1
290
     0
176
     1
290
     0
176
     1
290
     0
176
     1
 90
       50
176
     1
 40
0.0
176
     1
 40
1.0
176
     1
 90
        0
176
     1
 62
    18
420
        0
176
     1
 90
       50
176
     1
 90
        3
176
     1
 62
     5
420
      255
176
     1
290
     0
176
     1
 90
       50
176
     1
 90
       50
176
     1
 90
       50
176
     1
290
     0
176
     1
 90
       50
176
     1
 62
   256
176
     0
 40
1.0
176
     0
 90
        2
176
     1
  1
strokes_ogs.tif
176
     1
290
     0
176
     1
 40
1.0
176
     1
 40
1.0
176
     1
  0
VISUALSTYLE
  5
34
102
{ACAD_REACTORS
330
29
102
}
330
29
100
AcDbVisualStyle
  2
Dim
 70
    11
177
     3
291
     1
 70
    58
 90
        2
176
     1
 90
        2
176
     1
 90
        0
176
     1
 90
        0
176
     1
 40
0.6
176
     1
 40
30.0
176
     1
 62
     7
420
 16777215
176
     1
 90
        1
176
     1
 90
        4
176
     1
 62
     7
176
     1
 62
   257
176
     1
 90
        1
176
     1
 90
        1
176
     1
 40
1.0
176
     1
 90
        8
176
     1
 62
     7
176
     1
 40
1.0
176
     1
 90
        1
176
     1
 90
        6
176
     1
 90
        2
176
     1
 62
     7
176
     1
 90
        5
176
     1
 90
        0
176
     1
 90
        0
176
     1
290
     0
176
     1
 90
        1
176
     1
 40
-50.0
176
     1
 90
        0
176
     1
290
     0
176
     1
290
     1
176
     1
290
     1
176
     1
290
     0
176
     1
290
     0
176
     1
290
     0
176
     1
290
     0
176
     1
290
     0
176
     1
290
     0
176
     1
 90
       50
176
     1
 40
0.0
176
     1
 40
1.0
176
     1
 90
        0
176
     1
 62
    18
420
        0
176
     1
 90
       50
176
     1
 90
        3
176
     1
 62
     5
420
      255
176
     1
290
     0
176
     1
 90
       50
176
     1
 90
       50
176
     1
 90
       50
176
     1
290
     0
176
     1
 90
       50
176
     1
 62
   256
176
     0
 40
1.0
176
     0
 90
        2
176
     1
  1
strokes_ogs.tif
176
     1
290
     0
176
     1
 40
1.0
176
     1
 40
1.0
176
     1
  0
VISUALSTYLE
  5
41
102
{ACAD_REACTORS
330
29
102
}
330
29
100
AcDbVisualStyle
  2
EdgeColorOff
 70
    22
177
     3
291
     1
 70
    58
 90
        2
176
     0
 90
        2
176
     0
 90
        0
176
     0
 90
        0
176
     0
 40
0.6
176
     0
 40
30.0
176
     0
 62
     7
420
 16777215
176
     0
 90
        1
176
     0
 90
        4
176
     0
 62
     7
176
     0
 62
   257
176
     0
 90
        1
176
     0
 90
        1
176
     0
 40
1.0
176
     0
 90
        8
176
     2
 62
     7
176
     0
 40
1.0
176
     0
 90
        1
176
     0
 90
        6
176
     0
 90
        2
176
     0
 62
     7
176
     0
 90
        5
176
     0
 90
        0
176
     0
 90
        0
176
     0
290
     0
176
     0
 90
        1
176
     0
 40
0.0
176
     0
 90
        0
176
     0
290
     0
176
     0
290
     1
176
     0
290
     1
176
     0
290
     0
176
     0
290
     0
176
     0
290
     0
176
     0
290
     0
176
     0
290
     0
176
     0
290
     0
176
     0
 90
       50
176
     0
 40
0.0
176
     0
 40
1.0
176
     0
 90
        0
176
     0
 62
    18
420
        0
176
     0
 90
       50
176
     0
 90
        3
176
     0
 62
     5
420
      255
176
     0
290
     0
176
     0
 90
       50
176
     0
 90
       50
176
     0
 90
       50
176
     0
290
     0
176
     0
 90
       50
176
     0
 62
   256
176
     0
 40
1.0
176
     0
 90
        2
176
     0
  1
strokes_ogs.tif
176
     0
290
     0
176
     0
 40
1.0
176
     0
 40
1.0
176
     0
  0
VISUALSTYLE
  5
38
102
{ACAD_REACTORS
330
29
102
}
330
29
100
AcDbVisualStyle
  2
Facepattern
 70
    15
177
     3
291
     1
 70
    58
 90
        2
176
     1
 90
        2
176
     1
 90
        0
176
     1
 90
        0
176
     1
 40
0.6
176
     1
 40
30.0
176
     1
 62
     7
420
 16777215
176
     1
 90
        1
176
     1
 90
        4
176
     1
 62
     7
176
     1
 62
   257
176
     1
 90
        1
176
     1
 90
        1
176
     1
 40
1.0
176
     1
 90
        8
176
     1
 62
     7
176
     1
 40
1.0
176
     1
 90
        1
176
     1
 90
        6
176
     1
 90
        2
176
     1
 62
     7
176
     1
 90
        5
176
     1
 90
        0
176
     1
 90
        0
176
     1
290
     0
176
     1
 90
        1
176
     1
 40
0.0
176
     1
 90
        0
176
     1
290
     0
176
     1
290
     1
176
     1
290
     1
176
     1
290
     0
176
     1
290
     0
176
     1
290
     0
176
     1
290
     0
176
     1
290
     0
176
     1
290
     0
176
     1
 90
       50
176
     1
 40
0.0
176
     1
 40
1.0
176
     1
 90
        0
176
     1
 62
    18
420
        0
176
     1
 90
       50
176
     1
 90
        3
176
     1
 62
     5
420
      255
176
     1
290
     0
176
     1
 90
       50
176
     1
 90
       50
176
     1
 90
       50
176
     1
290
     0
176
     1
 90
       50
176
     1
 62
   256
176
     0
 40
1.0
176
     0
 90
        2
176
     1
  1
strokes_ogs.tif
176
     1
290
     0
176
     1
 40
1.0
176
     1
 40
1.0
176
     1
  0
VISUALSTYLE
  5
2A
102
{ACAD_REACTORS
330
29
102
}
330
29
100
AcDbVisualStyle
  2
Flat
 70
     0
177
     3
291
     1
 70
    58
 90
        2
176
     1
 90
        1
176
     1
 90
        1
176
     1
 90
        2
176
     1
 40
0.6
176
     1
 40
30.0
176
     1
 62
     7
420
 16777215
176
     1
 90
        0
176
     1
 90
        0
176
     1
 62
     7
176
     1
 62
   257
176
     1
 90
        1
176
     1
 90
        1
176
     1
 40
1.0
176
     1
 90
        8
176
     1
 62
     7
176
     1
 40
1.0
176
     1
 90
        1
176
     1
 90
        6
176
     1
 90
        2
176
     1
 62
     7
176
     1
 90
        5
176
     1
 90
        0
176
     1
 90
        0
176
     1
290
     0
176
     1
 90
       13
176
     1
 40
0.0
176
     1
 90
        0
176
     1
290
     0
176
     1
290
     1
176
     1
290
     1
176
     1
290
     0
176
     1
290
     0
176
     1
290
     0
176
     1
290
     0
176
     1
290
     0
176
     1
290
     0
176
     1
 90
       50
176
     1
 40
0.0
176
     1
 40
1.0
176
     1
 90
        0
176
     1
 62
    18
420
        0
176
     1
 90
       50
176
     1
 90
        3
176
     1
 62
     5
420
      255
176
     1
290
     0
176
     1
 90
       50
176
     1
 90
       50
176
     1
 90
       50
176
     1
290
     0
176
     1
 90
       50
176
     1
 62
   256
176
     0
 40
1.0
176
     0
 90
        2
176
     1
  1
strokes_ogs.tif
176
     1
290
     0
176
     1
 40
1.0
176
     1
 40
1.0
176
     1
  0
VISUALSTYLE
  5
2B
102
{ACAD_REACTORS
330
29
102
}
330
29
100
AcDbVisualStyle
  2
FlatWithEdges
 70
     1
177
     3
291
     1
 70
    58
 90
        2
176
     1
 90
        1
176
     1
 90
        1
176
     1
 90
        2
176
     1
 40
0.6
176
     1
 40
30.0
176
     1
 62
     7
420
 16777215
176
     1
 90
        1
176
     1
 90
        0
176
     1
 62
     7
176
     1
 62
   257
176
     1
 90
        1
176
     1
 90
        1
176
     1
 40
1.0
176
     1
 90
        0
176
     1
 62
   257
176
     1
 40
1.0
176
     1
 90
        1
176
     1
 90
        6
176
     1
 90
        2
176
     1
 62
     7
176
     1
 90
        5
176
     1
 90
        0
176
     1
 90
        0
176
     1
290
     0
176
     1
 90
       13
176
     1
 40
0.0
176
     1
 90
        0
176
     1
290
     0
176
     1
290
     1
176
     1
290
     1
176
     1
290
     0
176
     1
290
     0
176
     1
290
     0
176
     1
290
     0
176
     1
290
     0
176
     1
290
     0
176
     1
 90
       50
176
     1
 40
0.0
176
     1
 40
1.0
176
     1
 90
        0
176
     1
 62
    18
420
        0
176
     1
 90
       50
176
     1
 90
        3
176
     1
 62
     5
420
      255
176
     1
290
     0
176
     1
 90
       50
176
     1
 90
       50
176
     1
 90
       50
176
     1
290
     0
176
     1
 90
       50
176
     1
 62
   256
176
     0
 40
1.0
176
     0
 90
        2
176
     1
  1
strokes_ogs.tif
176
     1
290
     0
176
     1
 40
1.0
176
     1
 40
1.0
176
     1
  0
VISUALSTYLE
  5
2C
102
{ACAD_REACTORS
330
29
102
}
330
29
100
AcDbVisualStyle
  2
Gouraud
 70
     2
177
     3
291
     1
 70
    58
 90
        2
176
     1
 90
        2
176
     1
 90
        1
176
     1
 90
        2
176
     1
 40
0.6
176
     1
 40
30.0
176
     1
 62
     7
420
 16777215
176
     1
 90
        0
176
     1
 90
        0
176
     1
 62
     7
176
     1
 62
   257
176
     1
 90
        1
176
     1
 90
        1
176
     1
 40
1.0
176
     1
 90
        0
176
     1
 62
     7
176
     1
 40
1.0
176
     1
 90
        1
176
     1
 90
        6
176
     1
 90
        2
176
     1
 62
     7
176
     1
 90
        5
176
     1
 90
        0
176
     1
 90
        0
176
     1
290
     0
176
     1
 90
       13
176
     1
 40
0.0
176
     1
 90
        0
176
     1
290
     0
176
     1
290
     1
176
     1
290
     1
176
     1
290
     0
176
     1
290
     0
176
     1
290
     0
176
     1
290
     0
176
     1
290
     0
176
     1
290
     0
176
     1
 90
       50
176
     1
 40
0.0
176
     1
 40
1.0
176
     1
 90
        0
176
     1
 62
    18
420
        0
176
     1
 90
       50
176
     1
 90
        3
176
     1
 62
     5
420
      255
176
     1
290
     0
176
     1
 90
       50
176
     1
 90
       50
176
     1
 90
       50
176
     1
290
     0
176
     1
 90
       50
176
     1
 62
   256
176
     0
 40
1.0
176
     0
 90
        2
176
     1
  1
strokes_ogs.tif
176
     1
290
     0
176
     1
 40
1.0
176
     1
 40
1.0
176
     1
  0
VISUALSTYLE
  5
2D
102
{ACAD_REACTORS
330
29
102
}
330
29
100
AcDbVisualStyle
  2
GouraudWithEdges
 70
     3
177
     3
291
     1
 70
    58
 90
        2
176
     1
 90
        2
176
     1
 90
        1
176
     1
 90
        2
176
     1
 40
0.6
176
     1
 40
30.0
176
     1
 62
     7
420
 16777215
176
     1
 90
        1
176
     1
 90
        0
176
     1
 62
     7
176
     1
 62
   257
176
     1
 90
        1
176
     1
 90
        1
176
     1
 40
1.0
176
     1
 90
        0
176
     1
 62
   257
176
     1
 40
1.0
176
     1
 90
        1
176
     1
 90
        6
176
     1
 90
        2
176
     1
 62
     7
176
     1
 90
        5
176
     1
 90
        0
176
     1
 90
        0
176
     1
290
     0
176
     1
 90
       13
176
     1
 40
0.0
176
     1
 90
        0
176
     1
290
     0
176
     1
290
     1
176
     1
290
     1
176
     1
290
     0
176
     1
290
     0
176
     1
290
     0
176
     1
290
     0
176
     1
290
     0
176
     1
290
     0
176
     1
 90
       50
176
     1
 40
0.0
176
     1
 40
1.0
176
     1
 90
        0
176
     1
 62
    18
420
        0
176
     1
 90
       50
176
     1
 90
        3
176
     1
 62
     5
420
      255
176
     1
290
     0
176
     1
 90
       50
176
     1
 90
       50
176
     1
 90
       50
176
     1
290
     0
176
     1
 90
       50
176
     1
 62
   256
176
     0
 40
1.0
176
     0
 90
        2
176
     1
  1
strokes_ogs.tif
176
     1
290
     0
176
     1
 40
1.0
176
     1
 40
1.0
176
     1
  0
VISUALSTYLE
  5
31
102
{ACAD_REACTORS
330
29
102
}
330
29
100
AcDbVisualStyle
  2
Hidden
 70
     6
177
     3
291
     0
 70
    58
 90
        1
176
     1
 90
        2
176
     1
 90
        2
176
     1
 90
        0
176
     1
 40
0.6
176
     1
 40
30.0
176
     1
 62
     7
420
 16777215
176
     1
 90
        2
176
     1
 90
        2
176
     1
 62
     7
176
     1
 62
   257
176
     1
 90
        2
176
     1
 90
        1
176
     1
 40
40.0
176
     1
 90
        0
176
     1
 62
   257
176
     1
 40
1.0
176
     1
 90
        1
176
     1
 90
        6
176
     1
 90
        2
176
     1
 62
     7
176
     1
 90
        3
176
     1
 90
        0
176
     1
 90
        0
176
     1
290
     0
176
     1
 90
        1
176
     1
 40
0.0
176
     1
 90
        0
176
     1
290
     0
176
     1
290
     1
176
     1
290
     1
176
     1
290
     0
176
     1
290
     0
176
     1
290
     0
176
     1
290
     0
176
     1
290
     0
176
     1
290
     0
176
     1
 90
       50
176
     1
 40
0.0
176
     1
 40
1.0
176
     1
 90
        0
176
     1
 62
    18
420
        0
176
     1
 90
       50
176
     1
 90
        3
176
     1
 62
     5
420
      255
176
     1
290
     0
176
     1
 90
       50
176
     1
 90
       50
176
     1
 90
       50
176
     1
290
     0
176
     1
 90
       50
176
     1
 62
   256
176
     0
 40
1.0
176
     0
 90
        2
176
     1
  1
strokes_ogs.tif
176
     1
290
     0
176
     1
 40
1.0
176
     1
 40
1.0
176
     1
  0
VISUALSTYLE
  5
3F
102
{ACAD_REACTORS
330
29
102
}
330
29
100
AcDbVisualStyle
  2
JitterOff
 70
    20
177
     3
291
     1
 70
    58
 90
        2
176
     0
 90
        2
176
     0
 90
        0
176
     0
 90
        0
176
     0
 40
0.6
176
     0
 40
30.0
176
     0
 62
     7
420
 16777215
176
     0
 90
        1
176
     0
 90
        4
176
     0
 62
     7
176
     0
 62
   257
176
     0
 90
        1
176
     0
 90
        1
176
     0
 40
1.0
176
     0
 90
       10
176
     2
 62
     7
176
     0
 40
1.0
176
     0
 90
        1
176
     0
 90
        6
176
     0
 90
        2
176
     0
 62
     7
176
     0
 90
        5
176
     0
 90
        0
176
     0
 90
        0
176
     0
290
     0
176
     0
 90
        1
176
     0
 40
0.0
176
     0
 90
        0
176
     0
290
     0
176
     0
290
     1
176
     0
290
     1
176
     0
290
     0
176
     0
290
     0
176
     0
290
     0
176
     0
290
     0
176
     0
290
     0
176
     0
290
     0
176
     0
 90
       50
176
     0
 40
0.0
176
     0
 40
1.0
176
     0
 90
        0
176
     0
 62
    18
420
        0
176
     0
 90
       50
176
     0
 90
        3
176
     0
 62
     5
420
      255
176
     0
290
     0
176
     0
 90
       50
176
     0
 90
       50
176
     0
 90
       50
176
     0
290
     0
176
     0
 90
       50
176
     0
 62
   256
176
     0
 40
1.0
176
     0
 90
        2
176
     0
  1
strokes_ogs.tif
176
     0
290
     0
176
     0
 40
1.0
176
     0
 40
1.0
176
     0
  0
VISUALSTYLE
  5
37
102
{ACAD_REACTORS
330
29
102
}
330
29
100
AcDbVisualStyle
  2
Linepattern
 70
    14
177
     3
291
     1
 70
    58
 90
        2
176
     1
 90
        2
176
     1
 90
        0
176
     1
 90
        0
176
     1
 40
0.6
176
     1
 40
30.0
176
     1
 62
     7
420
 16777215
176
     1
 90
        1
176
     1
 90
        4
176
     1
 62
     7
176
     1
 62
   257
176
     1
 90
        7
176
     1
 90
        7
176
     1
 40
1.0
176
     1
 90
        8
176
     1
 62
     7
176
     1
 40
1.0
176
     1
 90
        1
176
     1
 90
        6
176
     1
 90
        2
176
     1
 62
     7
176
     1
 90
        5
176
     1
 90
        0
176
     1
 90
        0
176
     1
290
     0
176
     1
 90
        1
176
     1
 40
0.0
176
     1
 90
        0
176
     1
290
     0
176
     1
290
     1
176
     1
290
     1
176
     1
290
     0
176
     1
290
     0
176
     1
290
     0
176
     1
290
     0
176
     1
290
     0
176
     1
290
     0
176
     1
 90
       50
176
     1
 40
0.0
176
     1
 40
1.0
176
     1
 90
        0
176
     1
 62
    18
420
        0
176
     1
 90
       50
176
     1
 90
        3
176
     1
 62
     5
420
      255
176
     1
290
     0
176
     1
 90
       50
176
     1
 90
       50
176
     1
 90
       50
176
     1
290
     0
176
     1
 90
       50
176
     1
 62
   256
176
     0
 40
1.0
176
     0
 90
        2
176
     1
  1
strokes_ogs.tif
176
     1
290
     0
176
     1
 40
1.0
176
     1
 40
1.0
176
     1
  0
VISUALSTYLE
  5
40
102
{ACAD_REACTORS
330
29
102
}
330
29
100
AcDbVisualStyle
  2
OverhangOff
 70
    21
177
     3
291
     1
 70
    58
 90
        2
176
     0
 90
        2
176
     0
 90
        0
176
     0
 90
        0
176
     0
 40
0.6
176
     0
 40
30.0
176
     0
 62
     7
420
 16777215
176
     0
 90
        1
176
     0
 90
        4
176
     0
 62
     7
176
     0
 62
   257
176
     0
 90
        1
176
     0
 90
        1
176
     0
 40
1.0
176
     0
 90
        9
176
     2
 62
     7
176
     0
 40
1.0
176
     0
 90
        1
176
     0
 90
        6
176
     0
 90
        2
176
     0
 62
     7
176
     0
 90
        5
176
     0
 90
        0
176
     0
 90
        0
176
     0
290
     0
176
     0
 90
        1
176
     0
 40
0.0
176
     0
 90
        0
176
     0
290
     0
176
     0
290
     1
176
     0
290
     1
176
     0
290
     0
176
     0
290
     0
176
     0
290
     0
176
     0
290
     0
176
     0
290
     0
176
     0
290
     0
176
     0
 90
       50
176
     0
 40
0.0
176
     0
 40
1.0
176
     0
 90
        0
176
     0
 62
    18
420
        0
176
     0
 90
       50
176
     0
 90
        3
176
     0
 62
     5
420
      255
176
     0
290
     0
176
     0
 90
       50
176
     0
 90
       50
176
     0
 90
       50
176
     0
290
     0
176
     0
 90
       50
176
     0
 62
   256
176
     0
 40
1.0
176
     0
 90
        2
176
     0
  1
strokes_ogs.tif
176
     0
290
     0
176
     0
 40
1.0
176
     0
 40
1.0
176
     0
  0
VISUALSTYLE
  5
33
102
{ACAD_REACTORS
330
29
102
}
330
29
100
AcDbVisualStyle
  2
Realistic
 70
     8
177
     3
291
     0
 70
    58
 90
        2
176
     1
 90
        3
176
     1
 90
        0
176
     1
 90
        2
176
     1
 40
0.6
176
     1
 40
30.0
176
     1
 62
     7
420
 16777215
176
     1
 90
        0
176
     1
 90
        0
176
     1
 62
     7
176
     1
 62
   257
176
     1
 90
        1
176
     1
 90
        1
176
     1
 40
1.0
176
     1
 90
        8
176
     1
 62
   257
176
     1
 40
1.0
176
     1
 90
        1
176
     1
 90
        6
176
     1
 90
        2
176
     1
 62
     7
176
     1
 90
        3
176
     1
 90
        0
176
     1
 90
        0
176
     1
290
     0
176
     1
 90
       13
176
     1
 40
0.0
176
     1
 90
        0
176
     1
290
     0
176
     1
290
     1
176
     1
290
     1
176
     1
290
     0
176
     1
290
     0
176
     1
290
     0
176
     1
290
     0
176
     1
290
     0
176
     1
290
     0
176
     1
 90
       50
176
     1
 40
0.0
176
     1
 40
1.0
176
     1
 90
        0
176
     1
 62
    18
420
        0
176
     1
 90
       50
176
     1
 90
        3
176
     1
 62
     5
420
      255
176
     1
290
     0
176
     1
 90
       50
176
     1
 90
       50
176
     1
 90
       50
176
     1
290
     0
176
     1
 90
       50
176
     1
 62
   256
176
     0
 40
1.0
176
     0
 90
        2
176
     1
  1
strokes_ogs.tif
176
     1
290
     0
176
     1
 40
1.0
176
     1
 40
1.0
176
     1
  0
VISUALSTYLE
  5
3E
102
{ACAD_REACTORS
330
29
102
}
330
29
100
AcDbVisualStyle
  2
Shaded
 70
    27
177
     3
291
     0
 70
    58
 90
        2
176
     1
 90
        2
176
     1
 90
        1
176
     1
 90
        2
176
     1
 40
0.6
176
     1
 40
30.0
176
     1
 62
     7
420
 16777215
176
     1
 90
        0
176
     1
 90
        4
176
     1
 62
     7
176
     1
 62
   257
176
     1
 90
        1
176
     1
 90
        1
176
     1
 40
1.0
176
     1
 90
        8
176
     1
 62
   257
176
     1
 40
1.0
176
     1
 90
        1
176
     1
 90
        6
176
     1
 90
        2
176
     1
 62
     8
420
  7895160
176
     1
 90
        3
176
     1
 90
        0
176
     1
 90
        0
176
     1
290
     0
176
     1
 90
        5
176
     1
 40
0.0
176
     1
 90
        0
176
     1
290
     0
176
     1
290
     1
176
     1
290
     1
176
     1
290
     0
176
     1
290
     0
176
     1
290
     0
176
     1
290
     0
176
     1
290
     0
176
     1
290
     0
176
     1
 90
       50
176
     1
 40
0.0
176
     1
 40
1.0
176
     1
 90
        0
176
     1
 62
    18
420
        0
176
     1
 90
       50
176
     1
 90
        3
176
     1
 62
     5
420
      255
176
     1
290
     0
176
     1
 90
       50
176
     1
 90
       50
176
     1
 90
       50
176
     1
290
     0
176
     1
 90
       50
176
     1
 62
   256
176
     0
 40
1.0
176
     0
 90
        2
176
     1
  1
strokes_ogs.tif
176
     1
290
     0
176
     1
 40
1.0
176
     1
 40
1.0
176
     1
  0
VISUALSTYLE
  5
3D
102
{ACAD_REACTORS
330
29
102
}
330
29
100
AcDbVisualStyle
  2
Shaded with edges
 70
    26
177
     3
291
     0
 70
    58
 90
        2
176
     1
 90
        2
176
     1
 90
        1
176
     1
 90
        2
176
     1
 40
0.6
176
     1
 40
30.0
176
     1
 62
     7
420
 16777215
176
     1
 90
        1
176
     1
 90
       10
176
     1
 62
     7
176
     1
 62
   257
176
     1
 90
        2
176
     1
 90
        1
176
     1
 40
1.0
176
     1
 90
        8
176
     1
 62
   257
176
     1
 40
1.0
176
     1
 90
        1
176
     1
 90
        6
176
     1
 90
        2
176
     1
 62
     7
176
     1
 90
        3
176
     1
 90
        0
176
     1
 90
        0
176
     1
290
     0
176
     1
 90
        5
176
     1
 40
0.0
176
     1
 90
        0
176
     1
290
     0
176
     1
290
     1
176
     1
290
     1
176
     1
290
     0
176
     1
290
     0
176
     1
290
     0
176
     1
290
     0
176
     1
290
     0
176
     1
290
     0
176
     1
 90
       50
176
     1
 40
0.0
176
     1
 40
1.0
176
     1
 90
        0
176
     1
 62
    18
420
        0
176
     1
 90
       50
176
     1
 90
        3
176
     1
 62
     5
420
      255
176
     1
290
     0
176
     1
 90
       50
176
     1
 90
       50
176
     1
 90
       50
176
     1
290
     0
176
     1
 90
       50
176
     1
 62
   256
176
     0
 40
1.0
176
     0
 90
        2
176
     1
  1
strokes_ogs.tif
176
     1
290
     0
176
     1
 40
1.0
176
     1
 40
1.0
176
     1
  0
VISUALSTYLE
  5
3A
102
{ACAD_REACTORS
330
29
102
}
330
29
100
AcDbVisualStyle
  2
Shades of Gray
 70
    23
177
     3
291
     0
 70
    58
 90
        2
176
     1
 90
        2
176
     1
 90
        3
176
     1
 90
        0
176
     1
 40
0.6
176
     1
 40
30.0
176
     1
 62
     7
420
 16777215
176
     1
 90
        2
176
     1
 90
        2
176
     1
 62
     7
176
     1
 62
     7
176
     1
 90
        1
176
     1
 90
        1
176
     1
 40
40.0
176
     1
 90
        8
176
     1
 62
     7
176
     1
 40
1.0
176
     1
 90
        1
176
     1
 90
        6
176
     1
 90
        2
176
     1
 62
     7
176
     1
 90
        3
176
     1
 90
        0
176
     1
 90
        0
176
     1
290
     0
176
     1
 90
        1
176
     1
 40
0.0
176
     1
 90
        0
176
     1
290
     0
176
     1
290
     1
176
     1
290
     1
176
     1
290
     0
176
     1
290
     0
176
     1
290
     0
176
     1
290
     0
176
     1
290
     0
176
     1
290
     0
176
     1
 90
       50
176
     1
 40
0.0
176
     1
 40
1.0
176
     1
 90
        0
176
     1
 62
    18
420
        0
176
     1
 90
       50
176
     1
 90
        3
176
     1
 62
     5
420
      255
176
     1
290
     0
176
     1
 90
       50
176
     1
 90
       50
176
     1
 90
       50
176
     1
290
     0
176
     1
 90
       50
176
     1
 62
   256
176
     0
 40
1.0
176
     0
 90
        2
176
     1
  1
strokes_ogs.tif
176
     1
290
     0
176
     1
 40
1.0
176
     1
 40
1.0
176
     1
  0
VISUALSTYLE
  5
3B
102
{ACAD_REACTORS
330
29
102
}
330
29
100
AcDbVisualStyle
  2
Sketchy
 70
    24
177
     3
291
     0
 70
    58
 90
        1
176
     1
 90
        2
176
     1
 90
        2
176
     1
 90
        0
176
     1
 40
0.6
176
     1
 40
30.0
176
     1
 62
     7
420
 16777215
176
     1
 90
        2
176
     1
 90
        2
176
     1
 62
     7
176
     1
 62
     7
176
     1
 90
        1
176
     1
 90
        1
176
     1
 40
40.0
176
     1
 90
       11
176
     1
 62
     7
176
     1
 40
1.0
176
     1
 90
        1
176
     1
 90
        6
176
     1
 90
        2
176
     1
 62
     7
176
     1
 90
        6
176
     1
 90
        0
176
     1
 90
        0
176
     1
290
     0
176
     1
 90
        1
176
     1
 40
0.0
176
     1
 90
        0
176
     1
290
     0
176
     1
290
     1
176
     1
290
     1
176
     1
290
     0
176
     1
290
     0
176
     1
290
     0
176
     1
290
     0
176
     1
290
     0
176
     1
290
     0
176
     1
 90
       50
176
     1
 40
0.0
176
     1
 40
1.0
176
     1
 90
        0
176
     1
 62
    18
420
        0
176
     1
 90
       50
176
     1
 90
        3
176
     1
 62
     5
420
      255
176
     1
290
     0
176
     1
 90
       50
176
     1
 90
       50
176
     1
 90
       50
176
     1
290
     0
176
     1
 90
       50
176
     1
 62
   256
176
     0
 40
1.0
176
     0
 90
        2
176
     1
  1
strokes_ogs.tif
176
     1
290
     0
176
     1
 40
1.0
176
     1
 40
1.0
176
     1
  0
VISUALSTYLE
  5
36
102
{ACAD_REACTORS
330
29
102
}
330
29
100
AcDbVisualStyle
  2
Thicken
 70
    13
177
     3
291
     1
 70
    58
 90
        2
176
     1
 90
        2
176
     1
 90
        0
176
     1
 90
        0
176
     1
 40
0.6
176
     1
 40
30.0
176
     1
 62
     7
420
 16777215
176
     1
 90
        1
176
     1
 90
        4
176
     1
 62
     7
176
     1
 62
   257
176
     1
 90
        1
176
     1
 90
        1
176
     1
 40
1.0
176
     1
 90
       12
176
     1
 62
     7
176
     1
 40
1.0
176
     1
 90
        1
176
     1
 90
        6
176
     1
 90
        2
176
     1
 62
     7
176
     1
 90
        5
176
     1
 90
        0
176
     1
 90
        0
176
     1
290
     0
176
     1
 90
        1
176
     1
 40
0.0
176
     1
 90
        0
176
     1
290
     0
176
     1
290
     1
176
     1
290
     1
176
     1
290
     0
176
     1
290
     0
176
     1
290
     0
176
     1
290
     0
176
     1
290
     0
176
     1
290
     0
176
     1
 90
       50
176
     1
 40
0.0
176
     1
 40
1.0
176
     1
 90
        0
176
     1
 62
    18
420
        0
176
     1
 90
       50
176
     1
 90
        3
176
     1
 62
     5
420
      255
176
     1
290
     0
176
     1
 90
       50
176
     1
 90
       50
176
     1
 90
       50
176
     1
290
     0
176
     1
 90
       50
176
     1
 62
   256
176
     0
 40
1.0
176
     0
 90
        2
176
     1
  1
strokes_ogs.tif
176
     1
290
     0
176
     1
 40
1.0
176
     1
 40
1.0
176
     1
  0
VISUALSTYLE
  5
30
102
{ACAD_REACTORS
330
29
102
}
330
29
100
AcDbVisualStyle
  2
Wireframe
 70
     5
177
     3
291
     0
 70
    58
 90
        0
176
     1
 90
        2
176
     1
 90
        0
176
     1
 90
        0
176
     1
 40
0.6
176
     1
 40
30.0
176
     1
 62
     7
420
 16777215
176
     1
 90
        1
176
     1
 90
        4
176
     1
 62
     7
176
     1
 62
   257
176
     1
 90
        1
176
     1
 90
        1
176
     1
 40
1.0
176
     1
 90
        0
176
     1
 62
   257
176
     1
 40
1.0
176
     1
 90
        1
176
     1
 90
        6
176
     1
 90
        2
176
     1
 62
     7
176
     1
 90
        3
176
     1
 90
        0
176
     1
 90
        0
176
     1
290
     0
176
     1
 90
        1
176
     1
 40
0.0
176
     1
 90
        0
176
     1
290
     0
176
     1
290
     1
176
     1
290
     1
176
     1
290
     0
176
     1
290
     0
176
     1
290
     0
176
     1
290
     0
176
     1
290
     0
176
     1
290
     0
176
     1
 90
       50
176
     1
 40
0.0
176
     1
 40
1.0
176
     1
 90
        0
176
     1
 62
    18
420
        0
176
     1
 90
       50
176
     1
 90
        3
176
     1
 62
     5
420
      255
176
     1
290
     0
176
     1
 90
       50
176
     1
 90
       50
176
     1
 90
       50
176
     1
290
     0
176
     1
 90
       50
176
     1
 62
   256
176
     0
 40
1.0
176
     0
 90
        2
176
     1
  1
strokes_ogs.tif
176
     1
290
     0
176
     1
 40
1.0
176
     1
 40
1.0
176
     1
  0
VISUALSTYLE
  5
3C
102
{ACAD_REACTORS
330
29
102
}
330
29
100
AcDbVisualStyle
  2
X-Ray
 70
    25
177
     3
291
     0
 70
    58
 90
        2
176
     1
 90
        2
176
     1
 90
        1
176
     1
 90
        1
176
     1
 40
0.5
176
     1
 40
30.0
176
     1
 62
     7
420
 16777215
176
     1
 90
        1
176
     1
 90
        0
176
     1
 62
     7
176
     1
 62
   257
176
     1
 90
        1
176
     1
 90
        1
176
     1
 40
1.0
176
     1
 90
        8
176
     1
 62
     7
176
     1
 40
1.0
176
     1
 90
        1
176
     1
 90
        6
176
     1
 90
        2
176
     1
 62
     7
176
     1
 90
        3
176
     1
 90
        0
176
     1
 90
        0
176
     1
290
     0
176
     1
 90
       13
176
     1
 40
0.0
176
     1
 90
        0
176
     1
290
     0
176
     1
290
     1
176
     1
290
     1
176
     1
290
     0
176
     1
290
     0
176
     1
290
     0
176
     1
290
     0
176
     1
290
     0
176
     1
290
     0
176
     1
 90
       50
176
     1
 40
0.0
176
     1
 40
1.0
176
     1
 90
        0
176
     1
 62
    18
420
        0
176
     1
 90
       50
176
     1
 90
        3
176
     1
 62
     5
420
      255
176
     1
290
     0
176
     1
 90
       50
176
     1
 90
       50
176
     1
 90
       50
176
     1
290
     0
176
     1
 90
       50
176
     1
 62
   256
176
     0
 40
1.0
176
     0
 90
        2
176
     1
  1
strokes_ogs.tif
176
     1
290
     0
176
     1
 40
1.0
176
     1
 40
1.0
176
     1
  0
DICTIONARYVAR
  5
81
102
{ACAD_REACTORS
330
7C
102
}
330
7C
100
DictionaryVariables
280
     0
  1
1:1
  0
DICTIONARYVAR
  5
7E
102
{ACAD_REACTORS
330
7C
102
}
330
7C
100
DictionaryVariables
280
     0
  1
STANDARD
  0
DICTIONARYVAR
  5
7D
102
{ACAD_REACTORS
330
7C
102
}
330
7C
100
DictionaryVariables
280
     0
  1
STANDARD
  0
DICTIONARYVAR
  5
7F
102
{ACAD_REACTORS
330
7C
102
}
330
7C
100
DictionaryVariables
280
     0
  1
Imperial24
  0
DICTIONARYVAR
  5
80
102
{ACAD_REACTORS
330
7C
102
}
330
7C
100
DictionaryVariables
280
     0
  1
Imperial24
  0
XRECORD
  5
1CD
102
{ACAD_REACTORS
330
1C9
102
}
330
1C9
100
AcDbXrecord
280
     1
  1
BUILDING_ID
  1
Progetto per messa in tavola DXF, DWG
  1
FLOOR_ID
  1
694395
  0
XRECORD
  5
1CB
102
{ACAD_REACTORS
330
1C9
102
}
330
1C9
100
AcDbXrecord
280
     1
  1
-2001160
  1
Apparecchi idraulici
  0
XRECORD
  5
1CC
102
{ACAD_REACTORS
330
1C9
102
}
330
1C9
100
AcDbXrecord
280
     1
  1
856288
  1
Lever
  0
XRECORD
  5
1CA
102
{ACAD_REACTORS
330
1C9
102
}
330
1C9
100
AcDbXrecord
280
     1
  1
859151
  1
Automatic flow rate regulator valve_Caleffi_121 DN15 : 1/2''
  0
DICTIONARY
  5
1A
330
19
100
AcDbDictionary
280
     1
281
     1
  3
BUMPTILE
360
1C
  3
DIFFUSETILE
360
1B
  3
OPACITYTILE
360
1F
  3
REFLECTIONTILE
360
1E
  3
REFRACTIONTILE
360
20
  3
SPECULARTILE
360
1D
  0
DICTIONARY
  5
12
330
11
100
AcDbDictionary
280
     1
281
     1
  3
BUMPTILE
360
14
  3
DIFFUSETILE
360
13
  3
OPACITYTILE
360
17
  3
REFLECTIONTILE
360
16
  3
REFRACTIONTILE
360
18
  3
SPECULARTILE
360
15
  0
DICTIONARY
  5
22
330
21
100
AcDbDictionary
280
     1
281
     1
  3
BUMPTILE
360
24
  3
DIFFUSETILE
360
23
  3
OPACITYTILE
360
27
  3
REFLECTIONTILE
360
26
  3
REFRACTIONTILE
360
28
  3
SPECULARTILE
360
25
  0
DICTIONARY
  5
1D0
330
65
100
AcDbDictionary
280
     1
281
     1
  3
ACAD_ROUNDTRIP_2008_TABLESTYLE_CELLSTYLEMAP
360
1D1
  0
XRECORD
  5
1C
102
{ACAD_REACTORS
330
1A
102
}
330
1A
100
AcDbXrecord
280
     1
270
     1
271
     1
  0
XRECORD
  5
1B
102
{ACAD_REACTORS
330
1A
102
}
330
1A
100
AcDbXrecord
280
     1
270
     1
271
     1
  0
XRECORD
  5
1F
102
{ACAD_REACTORS
330
1A
102
}
330
1A
100
AcDbXrecord
280
     1
270
     1
271
     1
  0
XRECORD
  5
1E
102
{ACAD_REACTORS
330
1A
102
}
330
1A
100
AcDbXrecord
280
     1
270
     1
271
     1
  0
XRECORD
  5
20
102
{ACAD_REACTORS
330
1A
102
}
330
1A
100
AcDbXrecord
280
     1
270
     1
271
     1
  0
XRECORD
  5
1D
102
{ACAD_REACTORS
330
1A
102
}
330
1A
100
AcDbXrecord
280
     1
270
     1
271
     1
  0
XRECORD
  5
14
102
{ACAD_REACTORS
330
12
102
}
330
12
100
AcDbXrecord
280
     1
270
     1
271
     1
  0
XRECORD
  5
13
102
{ACAD_REACTORS
330
12
102
}
330
12
100
AcDbXrecord
280
     1
270
     1
271
     1
  0
XRECORD
  5
17
102
{ACAD_REACTORS
330
12
102
}
330
12
100
AcDbXrecord
280
     1
270
     1
271
     1
  0
XRECORD
  5
16
102
{ACAD_REACTORS
330
12
102
}
330
12
100
AcDbXrecord
280
     1
270
     1
271
     1
  0
XRECORD
  5
18
102
{ACAD_REACTORS
330
12
102
}
330
12
100
AcDbXrecord
280
     1
270
     1
271
     1
  0
XRECORD
  5
15
102
{ACAD_REACTORS
330
12
102
}
330
12
100
AcDbXrecord
280
     1
270
     1
271
     1
  0
XRECORD
  5
24
102
{ACAD_REACTORS
330
22
102
}
330
22
100
AcDbXrecord
280
     1
270
     1
271
     1
  0
XRECORD
  5
23
102
{ACAD_REACTORS
330
22
102
}
330
22
100
AcDbXrecord
280
     1
270
     1
271
     1
  0
XRECORD
  5
27
102
{ACAD_REACTORS
330
22
102
}
330
22
100
AcDbXrecord
280
     1
270
     1
271
     1
  0
XRECORD
  5
26
102
{ACAD_REACTORS
330
22
102
}
330
22
100
AcDbXrecord
280
     1
270
     1
271
     1
  0
XRECORD
  5
28
102
{ACAD_REACTORS
330
22
102
}
330
22
100
AcDbXrecord
280
     1
270
     1
271
     1
  0
XRECORD
  5
25
102
{ACAD_REACTORS
330
22
102
}
330
22
100
AcDbXrecord
280
     1
270
     1
271
     1
  0
CELLSTYLEMAP
  5
1D1
102
{ACAD_REACTORS
330
1D0
102
}
330
1D0
100
AcDbCellStyleMap
 90
        3
300
CELLSTYLE
  1
TABLEFORMAT_BEGIN
 90
        5
170
     1
 91
        0
 92
    32768
 62
   257
 93
        1
300
CONTENTFORMAT
  1
CONTENTFORMAT_BEGIN
 90
        0
 91
        0
 92
      512
 93
        0
300

 40
0.0
140
1.0
 94
        5
 62
     0
340
55
144
0.25
309
CONTENTFORMAT_END
171
     0
 94
        0
309
TABLEFORMAT_END
  1
CELLSTYLE_BEGIN
 90
        1
 91
        1
300
_TITLE
309
CELLSTYLE_END
300
CELLSTYLE
  1
TABLEFORMAT_BEGIN
 90
        5
170
     1
 91
        0
 92
        0
 62
   257
 93
        1
300
CONTENTFORMAT
  1
CONTENTFORMAT_BEGIN
 90
        0
 91
        0
 92
      512
 93
        0
300

 40
0.0
140
1.0
 94
        5
 62
     0
340
55
144
0.18
309
CONTENTFORMAT_END
171
     0
 94
        0
309
TABLEFORMAT_END
  1
CELLSTYLE_BEGIN
 90
        2
 91
        1
300
_HEADER
309
CELLSTYLE_END
300
CELLSTYLE
  1
TABLEFORMAT_BEGIN
 90
        5
170
     1
 91
        0
 92
        0
 62
   257
 93
        1
300
CONTENTFORMAT
  1
CONTENTFORMAT_BEGIN
 90
        0
 91
        0
 92
      512
 93
        0
300

 40
0.0
140
1.0
 94
        2
 62
     0
340
55
144
0.18
309
CONTENTFORMAT_END
171
     0
 94
        0
309
TABLEFORMAT_END
  1
CELLSTYLE_BEGIN
 90
        3
 91
        2
300
_DATA
309
CELLSTYLE_END
  0
ENDSEC
  0
EOF
