  0
SECTION
  2
HEADER
  9
$ACADVER
  1
AC1027
  9
$ACADMAINTVER
 70
    20
  9
$DWGCODEPAGE
  3
ANSI_1252
  9
$REQUIREDVERSIONS
160
                 0
  9
$INSBASE
 10
0.0
 20
0.0
 30
0.0
  9
$EXTMIN
 10
774.1720189638544
 20
1821.245878730051
 30
-0.00000001
  9
$EXTMAX
 10
1044.614353953097
 20
2069.270000000042
 30
0.00000001
  9
$LIMMIN
 10
0.0
 20
0.0
  9
$LIMMAX
 10
12.0
 20
9.0
  9
$ORTHOMODE
 70
     0
  9
$REGENMODE
 70
     1
  9
$FILLMODE
 70
     1
  9
$QTEXTMODE
 70
     0
  9
$MIRRTEXT
 70
     0
  9
$LTSCALE
 40
1.0
  9
$ATTMODE
 70
     1
  9
$TEXTSIZE
 40
0.2
  9
$TRACEWID
 40
0.05
  9
$TEXTSTYLE
  7
Standard
  9
$CLAYER
  8
0
  9
$CELTYPE
  6
ByLayer
  9
$CECOLOR
 62
   256
  9
$CELTSCALE
 40
1.0
  9
$DISPSILH
 70
     0
  9
$DIMSCALE
 40
1.0
  9
$DIMASZ
 40
0.18
  9
$DIMEXO
 40
0.0625
  9
$DIMDLI
 40
0.38
  9
$DIMRND
 40
0.0
  9
$DIMDLE
 40
0.0
  9
$DIMEXE
 40
0.18
  9
$DIMTP
 40
0.0
  9
$DIMTM
 40
0.0
  9
$DIMTXT
 40
0.18
  9
$DIMCEN
 40
0.09
  9
$DIMTSZ
 40
0.0
  9
$DIMTOL
 70
     0
  9
$DIMLIM
 70
     0
  9
$DIMTIH
 70
     1
  9
$DIMTOH
 70
     1
  9
$DIMSE1
 70
     0
  9
$DIMSE2
 70
     0
  9
$DIMTAD
 70
     0
  9
$DIMZIN
 70
     0
  9
$DIMBLK
  1

  9
$DIMASO
 70
     1
  9
$DIMSHO
 70
     1
  9
$DIMPOST
  1

  9
$DIMAPOST
  1

  9
$DIMALT
 70
     0
  9
$DIMALTD
 70
     2
  9
$DIMALTF
 40
25.4
  9
$DIMLFAC
 40
1.0
  9
$DIMTOFL
 70
     0
  9
$DIMTVP
 40
0.0
  9
$DIMTIX
 70
     0
  9
$DIMSOXD
 70
     0
  9
$DIMSAH
 70
     0
  9
$DIMBLK1
  1

  9
$DIMBLK2
  1

  9
$DIMSTYLE
  2
Standard
  9
$DIMCLRD
 70
     0
  9
$DIMCLRE
 70
     0
  9
$DIMCLRT
 70
     0
  9
$DIMTFAC
 40
1.0
  9
$DIMGAP
 40
0.09
  9
$DIMJUST
 70
     0
  9
$DIMSD1
 70
     0
  9
$DIMSD2
 70
     0
  9
$DIMTOLJ
 70
     1
  9
$DIMTZIN
 70
     0
  9
$DIMALTZ
 70
     0
  9
$DIMALTTZ
 70
     0
  9
$DIMUPT
 70
     0
  9
$DIMDEC
 70
     4
  9
$DIMTDEC
 70
     4
  9
$DIMALTU
 70
     2
  9
$DIMALTTD
 70
     2
  9
$DIMTXSTY
  7
Standard
  9
$DIMAUNIT
 70
     0
  9
$DIMADEC
 70
     0
  9
$DIMALTRND
 40
0.0
  9
$DIMAZIN
 70
     0
  9
$DIMDSEP
 70
    46
  9
$DIMATFIT
 70
     3
  9
$DIMFRAC
 70
     0
  9
$DIMLDRBLK
  1

  9
$DIMLUNIT
 70
     2
  9
$DIMLWD
 70
    -2
  9
$DIMLWE
 70
    -2
  9
$DIMTMOVE
 70
     0
  9
$DIMFXL
 40
1.0
  9
$DIMFXLON
 70
     0
  9
$DIMJOGANG
 40
0.7853981633974483
  9
$DIMTFILL
 70
     0
  9
$DIMTFILLCLR
 70
     0
  9
$DIMARCSYM
 70
     0
  9
$DIMLTYPE
  6

  9
$DIMLTEX1
  6

  9
$DIMLTEX2
  6

  9
$DIMTXTDIRECTION
 70
     0
  9
$LUNITS
 70
     2
  9
$LUPREC
 70
     4
  9
$SKETCHINC
 40
0.1
  9
$FILLETRAD
 40
0.0
  9
$AUNITS
 70
     0
  9
$AUPREC
 70
     0
  9
$MENU
  1
.
  9
$ELEVATION
 40
0.0
  9
$PELEVATION
 40
0.0
  9
$THICKNESS
 40
0.0
  9
$LIMCHECK
 70
     0
  9
$CHAMFERA
 40
0.0
  9
$CHAMFERB
 40
0.0
  9
$CHAMFERC
 40
0.0
  9
$CHAMFERD
 40
0.0
  9
$SKPOLY
 70
     0
  9
$TDCREATE
 40
2457550.670490903
  9
$TDUCREATE
 40
2457550.587157570
  9
$TDUPDATE
 40
2457550.670490903
  9
$TDUUPDATE
 40
2457550.587157570
  9
$TDINDWG
 40
0.0000116782
  9
$TDUSRTIMER
 40
0.0000116782
  9
$USRTIMER
 70
     1
  9
$ANGBASE
 50
0.0
  9
$ANGDIR
 70
     0
  9
$PDMODE
 70
     0
  9
$PDSIZE
 40
0.0
  9
$PLINEWID
 40
0.0
  9
$SPLFRAME
 70
     0
  9
$SPLINETYPE
 70
     6
  9
$SPLINESEGS
 70
     8
  9
$HANDSEED
  5
20E
  9
$SURFTAB1
 70
     6
  9
$SURFTAB2
 70
     6
  9
$SURFTYPE
 70
     6
  9
$SURFU
 70
     6
  9
$SURFV
 70
     6
  9
$UCSBASE
  2

  9
$UCSNAME
  2

  9
$UCSORG
 10
0.0
 20
0.0
 30
0.0
  9
$UCSXDIR
 10
1.0
 20
0.0
 30
0.0
  9
$UCSYDIR
 10
0.0
 20
1.0
 30
0.0
  9
$UCSORTHOREF
  2

  9
$UCSORTHOVIEW
 70
     0
  9
$UCSORGTOP
 10
0.0
 20
0.0
 30
0.0
  9
$UCSORGBOTTOM
 10
0.0
 20
0.0
 30
0.0
  9
$UCSORGLEFT
 10
0.0
 20
0.0
 30
0.0
  9
$UCSORGRIGHT
 10
0.0
 20
0.0
 30
0.0
  9
$UCSORGFRONT
 10
0.0
 20
0.0
 30
0.0
  9
$UCSORGBACK
 10
0.0
 20
0.0
 30
0.0
  9
$PUCSBASE
  2

  9
$PUCSNAME
  2

  9
$PUCSORG
 10
0.0
 20
0.0
 30
0.0
  9
$PUCSXDIR
 10
1.0
 20
0.0
 30
0.0
  9
$PUCSYDIR
 10
0.0
 20
1.0
 30
0.0
  9
$PUCSORTHOREF
  2

  9
$PUCSORTHOVIEW
 70
     0
  9
$PUCSORGTOP
 10
0.0
 20
0.0
 30
0.0
  9
$PUCSORGBOTTOM
 10
0.0
 20
0.0
 30
0.0
  9
$PUCSORGLEFT
 10
0.0
 20
0.0
 30
0.0
  9
$PUCSORGRIGHT
 10
0.0
 20
0.0
 30
0.0
  9
$PUCSORGFRONT
 10
0.0
 20
0.0
 30
0.0
  9
$PUCSORGBACK
 10
0.0
 20
0.0
 30
0.0
  9
$USERI1
 70
     0
  9
$USERI2
 70
     0
  9
$USERI3
 70
     0
  9
$USERI4
 70
     0
  9
$USERI5
 70
     0
  9
$USERR1
 40
0.0
  9
$USERR2
 40
0.0
  9
$USERR3
 40
0.0
  9
$USERR4
 40
0.0
  9
$USERR5
 40
0.0
  9
$WORLDVIEW
 70
     1
  9
$SHADEDGE
 70
     3
  9
$SHADEDIF
 70
    70
  9
$TILEMODE
 70
     1
  9
$MAXACTVP
 70
    64
  9
$PINSBASE
 10
0.0
 20
0.0
 30
0.0
  9
$PLIMCHECK
 70
     0
  9
$PEXTMIN
 10
1.000000000000000E+20
 20
1.000000000000000E+20
 30
1.000000000000000E+20
  9
$PEXTMAX
 10
-1.000000000000000E+20
 20
-1.000000000000000E+20
 30
-1.000000000000000E+20
  9
$PLIMMIN
 10
0.0
 20
0.0
  9
$PLIMMAX
 10
12.0
 20
9.0
  9
$UNITMODE
 70
     0
  9
$VISRETAIN
 70
     1
  9
$PLINEGEN
 70
     0
  9
$PSLTSCALE
 70
     1
  9
$TREEDEPTH
 70
  3020
  9
$CMLSTYLE
  2
Standard
  9
$CMLJUST
 70
     0
  9
$CMLSCALE
 40
1.0
  9
$PROXYGRAPHICS
 70
     1
  9
$MEASUREMENT
 70
     1
  9
$CELWEIGHT
370
    -1
  9
$ENDCAPS
280
     0
  9
$JOINSTYLE
280
     0
  9
$LWDISPLAY
290
     0
  9
$INSUNITS
 70
     4
  9
$HYPERLINKBASE
  1

  9
$STYLESHEET
  1

  9
$XEDIT
290
     1
  9
$CEPSNTYPE
380
     0
  9
$PSTYLEMODE
290
     1
  9
$FINGERPRINTGUID
  2
{A595279D-CF29-4226-BD0C-831560C74109}
  9
$VERSIONGUID
  2
{A0B3B7DC-2B1D-474C-8C62-63364F758227}
  9
$EXTNAMES
290
     1
  9
$PSVPSCALE
 40
0.0
  9
$OLESTARTUP
290
     0
  9
$SORTENTS
280
   127
  9
$INDEXCTL
280
     0
  9
$HIDETEXT
280
     1
  9
$XCLIPFRAME
280
     2
  9
$HALOGAP
280
     0
  9
$OBSCOLOR
 70
   257
  9
$OBSLTYPE
280
     0
  9
$INTERSECTIONDISPLAY
280
     0
  9
$INTERSECTIONCOLOR
 70
   257
  9
$DIMASSOC
280
     2
  9
$PROJECTNAME
  1

  9
$CAMERADISPLAY
290
     0
  9
$LENSLENGTH
 40
50.0
  9
$CAMERAHEIGHT
 40
0.0
  9
$STEPSPERSEC
 40
2.0
  9
$STEPSIZE
 40
6.0
  9
$3DDWFPREC
 40
2.0
  9
$PSOLWIDTH
 40
0.25
  9
$PSOLHEIGHT
 40
4.0
  9
$LOFTANG1
 40
1.570796326794896
  9
$LOFTANG2
 40
1.570796326794896
  9
$LOFTMAG1
 40
0.0
  9
$LOFTMAG2
 40
0.0
  9
$LOFTPARAM
 70
     7
  9
$LOFTNORMALS
280
     1
  9
$LATITUDE
 40
37.795
  9
$LONGITUDE
 40
-122.394
  9
$NORTHDIRECTION
 40
0.0
  9
$TIMEZONE
 70
 -8000
  9
$LIGHTGLYPHDISPLAY
280
     1
  9
$TILEMODELIGHTSYNCH
280
     1
  9
$CMATERIAL
347
11
  9
$SOLIDHIST
280
     0
  9
$SHOWHIST
280
     1
  9
$DWFFRAME
280
     2
  9
$DGNFRAME
280
     0
  9
$REALWORLDSCALE
290
     1
  9
$INTERFERECOLOR
 62
     1
  9
$INTERFEREOBJVS
345
33
  9
$INTERFEREVPVS
346
30
  9
$CSHADOW
280
     0
  9
$SHADOWPLANELOCATION
 40
0.0
  0
ENDSEC
  0
SECTION
  2
CLASSES
  0
CLASS
  1
ACDBDICTIONARYWDFLT
  2
AcDbDictionaryWithDefault
  3
ObjectDBX Classes
 90
        0
 91
        1
280
     0
281
     0
  0
CLASS
  1
MATERIAL
  2
AcDbMaterial
  3
ObjectDBX Classes
 90
     1153
 91
        3
280
     0
281
     0
  0
CLASS
  1
VISUALSTYLE
  2
AcDbVisualStyle
  3
ObjectDBX Classes
 90
     4095
 91
       24
280
     0
281
     0
  0
CLASS
  1
SCALE
  2
AcDbScale
  3
ObjectDBX Classes
 90
     1153
 91
       17
280
     0
281
     0
  0
CLASS
  1
TABLESTYLE
  2
AcDbTableStyle
  3
ObjectDBX Classes
 90
     4095
 91
        1
280
     0
281
     0
  0
CLASS
  1
MLEADERSTYLE
  2
AcDbMLeaderStyle
  3
ACDB_MLEADERSTYLE_CLASS
 90
     4095
 91
        1
280
     0
281
     0
  0
CLASS
  1
ACDBSECTIONVIEWSTYLE
  2
AcDbSectionViewStyle
  3
ObjectDBX Classes
 90
     1025
 91
        1
280
     0
281
     0
  0
CLASS
  1
ACDBDETAILVIEWSTYLE
  2
AcDbDetailViewStyle
  3
ObjectDBX Classes
 90
     1025
 91
        1
280
     0
281
     0
  0
CLASS
  1
RASTERVARIABLES
  2
AcDbRasterVariables
  3
ISM
 90
        0
 91
        1
280
     0
281
     0
  0
CLASS
  1
DICTIONARYVAR
  2
AcDbDictionaryVar
  3
ObjectDBX Classes
 90
        0
 91
        5
280
     0
281
     0
  0
CLASS
  1
CELLSTYLEMAP
  2
AcDbCellStyleMap
  3
ObjectDBX Classes
 90
     1152
 91
        2
280
     0
281
     0
  0
CLASS
  1
SORTENTSTABLE
  2
AcDbSortentsTable
  3
ObjectDBX Classes
 90
        0
 91
        1
280
     0
281
     0
  0
ENDSEC
  0
SECTION
  2
TABLES
  0
TABLE
  2
VPORT
  5
8
330
0
100
AcDbSymbolTable
 70
     1
  0
VPORT
  5
57
330
8
100
AcDbSymbolTableRecord
100
AcDbViewportTableRecord
  2
*Active
 70
     0
 10
0.0
 20
0.0
 11
1.0
 21
1.0
 12
909.3931864584758
 22
1945.257939365047
 13
0.0
 23
0.0
 14
1.0
 24
1.0
 15
0.0
 25
0.0
 16
0.0
 26
0.0
 36
1.0
 17
0.0
 27
0.0
 37
0.0
 40
248.0241212699902
 41
1.090387231711422
 42
50.0
 43
0.0
 44
0.0
 50
0.0
 51
0.0
 71
     0
 72
  1000
 73
     1
 74
     1
 75
     0
 76
     0
 77
     0
 78
     0
281
     0
 65
     1
110
0.0
120
0.0
130
0.0
111
1.0
121
0.0
131
0.0
112
0.0
122
1.0
132
0.0
 79
     0
146
0.0
 60
     3
 61
     5
292
     1
282
     1
141
0.0
142
0.0
 63
   250
421
  3355443
  0
ENDTAB
  0
TABLE
  2
LTYPE
  5
5
330
0
100
AcDbSymbolTable
 70
     3
  0
LTYPE
  5
5B
330
5
100
AcDbSymbolTableRecord
100
AcDbLinetypeTableRecord
  2
ByBlock
 70
     0
  3

 72
    65
 73
     0
 40
0.0
  0
LTYPE
  5
5C
330
5
100
AcDbSymbolTableRecord
100
AcDbLinetypeTableRecord
  2
ByLayer
 70
     0
  3

 72
    65
 73
     0
 40
0.0
  0
LTYPE
  5
5D
330
5
100
AcDbSymbolTableRecord
100
AcDbLinetypeTableRecord
  2
Continuous
 70
     0
  3
Solid line
 72
    65
 73
     0
 40
0.0
  0
LTYPE
  5
69
330
5
100
AcDbSymbolTableRecord
100
AcDbLinetypeTableRecord
  2
PHANTOM2
 70
     0
  3
___ _ _ ___ _ _ ___ _ _ ___ _ _
 72
    65
 73
     6
 40
1.25
 49
0.625
 74
     0
 49
-0.125
 74
     0
 49
0.125
 74
     0
 49
-0.125
 74
     0
 49
0.125
 74
     0
 49
-0.125
 74
     0
  0
LTYPE
  5
86
330
5
100
AcDbSymbolTableRecord
100
AcDbLinetypeTableRecord
  2
Nascosto 1_5 mm
 70
     0
  3

 72
    65
 73
     2
 40
2.2
 49
1.5
 74
     0
 49
-0.7000000000000001
 74
     0
  0
ENDTAB
  0
TABLE
  2
LAYER
  5
2
330
0
100
AcDbSymbolTable
 70
     4
  0
LAYER
  5
54
330
2
100
AcDbSymbolTableRecord
100
AcDbLayerTableRecord
  2
0
 70
     0
 62
     7
  6
Continuous
370
    -3
390
F
347
21
348
0
  0
LAYER
  5
85
330
2
100
AcDbSymbolTableRecord
100
AcDbLayerTableRecord
  2
P-SANR-FIXT
 70
     0
 62
     6
  6
Continuous
370
    18
390
F
347
21
348
0
  0
LAYER
  5
88
330
2
100
AcDbSymbolTableRecord
100
AcDbLayerTableRecord
  2
M-PIPE
 70
     0
 62
     3
  6
Continuous
370
    18
390
F
347
21
348
0
  0
ENDTAB
  0
TABLE
  2
STYLE
  5
3
330
0
100
AcDbSymbolTable
 70
     2
  0
STYLE
  5
55
330
3
100
AcDbSymbolTableRecord
100
AcDbTextStyleTableRecord
  2
Standard
 70
     0
 40
0.0
 41
1.0
 50
0.0
 71
     0
 42
0.2
  3
txt
  4

  0
STYLE
  5
5A
330
3
100
AcDbSymbolTableRecord
100
AcDbTextStyleTableRecord
  2
Annotative
 70
     0
 40
0.0
 41
1.0
 50
0.0
 71
     0
 42
0.2
  3
txt
  4

1001
AcadAnnotative
1000
AnnotativeData
1002
{
1070
     1
1070
     1
1002
}
  0
ENDTAB
  0
TABLE
  2
VIEW
  5
6
330
0
100
AcDbSymbolTable
 70
     0
  0
ENDTAB
  0
TABLE
  2
UCS
  5
7
330
0
100
AcDbSymbolTable
 70
     0
  0
ENDTAB
  0
TABLE
  2
APPID
  5
9
330
0
100
AcDbSymbolTable
 70
     3
  0
APPID
  5
56
330
9
100
AcDbSymbolTableRecord
100
AcDbRegAppTableRecord
  2
ACAD
 70
     0
  0
APPID
  5
5E
330
9
100
AcDbSymbolTableRecord
100
AcDbRegAppTableRecord
  2
AcadAnnotative
 70
     0
  0
APPID
  5
79
330
9
100
AcDbSymbolTableRecord
100
AcDbRegAppTableRecord
  2
REVIT
 70
     0
  0
ENDTAB
  0
TABLE
  2
DIMSTYLE
  5
A
330
0
100
AcDbSymbolTable
 70
     2
100
AcDbDimStyleTable
 71
     0
  0
DIMSTYLE
105
58
330
A
100
AcDbSymbolTableRecord
100
AcDbDimStyleTableRecord
  2
Standard
 70
     0
340
55
  0
DIMSTYLE
105
59
330
A
100
AcDbSymbolTableRecord
100
AcDbDimStyleTableRecord
  2
Annotative
 70
     0
340
55
1001
AcadAnnotative
1000
AnnotativeData
1002
{
1070
     1
1070
     1
1002
}
  0
ENDTAB
  0
TABLE
  2
BLOCK_RECORD
  5
1
330
0
100
AcDbSymbolTable
 70
     4
  0
BLOCK_RECORD
  5
71
102
{ACAD_XDICTIONARY
360
209
102
}
330
1
100
AcDbSymbolTableRecord
100
AcDbBlockTableRecord
  2
*Model_Space
340
74
 70
     0
280
     1
281
     0
  0
BLOCK_RECORD
  5
6D
330
1
100
AcDbSymbolTableRecord
100
AcDbBlockTableRecord
  2
*Paper_Space
340
70
 70
     0
280
     1
281
     0
  0
BLOCK_RECORD
  5
75
330
1
100
AcDbSymbolTableRecord
100
AcDbBlockTableRecord
  2
*Paper_Space0
340
78
 70
     0
280
     1
281
     0
  0
BLOCK_RECORD
  5
87
330
1
100
AcDbSymbolTableRecord
100
AcDbBlockTableRecord
  2
Automatic flow rate regulator valve_Caleffi_121 DN15 - 1_2__-859151-Est - Idraulica
340
0
102
{BLKREFS
331
10B
102
}
 70
     0
280
     1
281
     0
  0
BLOCK_RECORD
  5
10C
330
1
100
AcDbSymbolTableRecord
100
AcDbBlockTableRecord
  2
Automatic flow rate regulator valve_Caleffi_121 DN15 - 1_2__-V1-Est - Idraulica
340
0
102
{BLKREFS
331
17D
102
}
 70
     0
280
     1
281
     0
  0
BLOCK_RECORD
  5
17E
330
1
100
AcDbSymbolTableRecord
100
AcDbBlockTableRecord
  2
Automatic flow rate regulator valve_Caleffi_121 DN15 - 1_2__-V2-Est - Idraulica
340
0
102
{BLKREFS
331
202
102
}
 70
     0
280
     1
281
     0
  0
ENDTAB
  0
ENDSEC
  0
SECTION
  2
BLOCKS
  0
BLOCK
  5
72
330
71
100
AcDbEntity
  8
0
100
AcDbBlockBegin
  2
*Model_Space
 70
     0
 10
0.0
 20
0.0
 30
0.0
  3
*Model_Space
  1

  0
ENDBLK
  5
73
330
71
100
AcDbEntity
  8
0
100
AcDbBlockEnd
  0
BLOCK
  5
6E
330
6D
100
AcDbEntity
 67
     1
  8
0
100
AcDbBlockBegin
  2
*Paper_Space
 70
     0
 10
0.0
 20
0.0
 30
0.0
  3
*Paper_Space
  1

  0
ENDBLK
  5
6F
330
6D
100
AcDbEntity
 67
     1
  8
0
100
AcDbBlockEnd
  0
BLOCK
  5
76
330
75
100
AcDbEntity
 67
     1
  8
0
100
AcDbBlockBegin
  2
*Paper_Space0
 70
     0
 10
0.0
 20
0.0
 30
0.0
  3
*Paper_Space0
  1

  0
ENDBLK
  5
77
330
75
100
AcDbEntity
 67
     1
  8
0
100
AcDbBlockEnd
  0
BLOCK
  5
109
330
87
100
AcDbEntity
  8
0
100
AcDbBlockBegin
  2
Automatic flow rate regulator valve_Caleffi_121 DN15 - 1_2__-859151-Est - Idraulica
 70
     0
 10
0.0
 20
0.0
 30
0.0
  3
Automatic flow rate regulator valve_Caleffi_121 DN15 - 1_2__-859151-Est - Idraulica
  1

  0
LINE
  5
89
330
87
100
AcDbEntity
  8
M-PIPE
100
AcDbLine
 10
831.6258267482849
 20
2044.770000000024
 30
0.0
 11
831.6258267482847
 21
2053.077002519893
 31
0.0
1001
REVIT
1002
{
1070
     3
1000
856288
1002
}
  0
LINE
  5
8A
330
87
100
AcDbEntity
  8
M-PIPE
100
AcDbLine
 10
799.7069881380928
 20
2053.077002519893
 30
0.0
 11
799.706988138093
 21
2044.770000000024
 31
0.0
1001
REVIT
1002
{
1070
     3
1000
856288
1002
}
  0
LINE
  5
8B
330
87
100
AcDbEntity
  8
M-PIPE
100
AcDbLine
 10
802.8934185861038
 20
2055.39677095051
 30
0.0
 11
800.1227513058989
 21
2053.797125450449
 31
0.0
1001
REVIT
1002
{
1070
     3
1000
856288
1002
}
  0
LINE
  5
8C
330
87
100
AcDbEntity
  8
M-PIPE
100
AcDbLine
 10
804.7868177196288
 20
2061.286364567577
 30
0.0
 11
803.3778783300734
 21
2056.028131180971
 31
0.0
1001
REVIT
1002
{
1070
     3
1000
856288
1002
}
  0
LINE
  5
8D
330
87
100
AcDbEntity
  8
M-PIPE
100
AcDbLine
 10
919.1664074431891
 20
2054.270000000042
 30
0.0
 11
919.1664074431887
 21
2069.270000000042
 31
0.0
1001
REVIT
1002
{
1070
     3
1000
856288
1002
}
  0
LWPOLYLINE
  5
8E
330
87
100
AcDbEntity
  8
M-PIPE
100
AcDbPolyline
 90
        9
 70
   128
 43
0.0
 10
919.1664074431887
 20
2054.270000000042
 10
918.8664874367891
 20
2054.275999200084
 10
918.5670472384201
 20
2054.293987202772
 10
918.2685658885221
 20
2054.323935231138
 10
917.9715208935819
 20
2054.365795374724
 10
917.676387462226
 20
2054.419500666233
 10
917.3836377449854
 20
2054.484965188652
 10
917.0937400789581
 20
2054.562084212711
 10
916.9335001459826
 20
2054.610103003431
1001
REVIT
1002
{
1070
     3
1000
856288
1002
}
  0
LWPOLYLINE
  5
8F
330
87
100
AcDbEntity
  8
M-PIPE
100
AcDbPolyline
 90
       32
 70
   128
 43
0.0
 10
912.0953396313236
 20
2064.270000000043
 10
912.2009690668322
 20
2064.550767560479
 10
912.3177417178625
 20
2064.827086486019
 10
912.4454707730826
 20
2065.098514725324
 10
912.5839518932517
 20
2065.364618051115
 10
912.7329635381181
 20
2065.624970754835
 10
912.8922673208379
 20
2065.879156327697
 10
913.0616083893412
 20
2066.126768127008
 10
913.2407158340438
 20
2066.36741002671
 10
913.4293031212404
 20
2066.600697051098
 10
913.6270685515018
 20
2066.826255990698
 10
913.8336957423273
 20
2067.043725999323
 10
914.0488541342897
 20
2067.252759171351
 10
914.2721995198598
 20
2067.453021098298
 10
914.5033745940654
 20
2067.644191403801
 10
914.7420095261024
 20
2067.825964256152
 10
914.9877225509852
 20
2067.998048857563
 10
915.2401205802904
 20
2068.160169909382
 10
915.4987998310131
 20
2068.312068052509
 10
915.7633464715342
 20
2068.453500282319
 10
916.0333372836621
 20
2068.584240337415
 10
916.3083403396926
 20
2068.704079061598
 10
916.5879156934003
 20
2068.812824738474
 10
916.8716160838588
 20
2068.910303398158
 10
917.1589876509628
 20
2068.996359095588
 10
917.4495706615076
 20
2069.070854160006
 10
917.7429002446642
 20
2069.133669415201
 10
918.0385071356729
 20
2069.184704370164
 10
918.3359184265681
 20
2069.223877379854
 10
918.634658322728
 20
2069.251125775812
 10
918.934248904047
 20
2069.266405966417
 10
919.1664074431885
 20
2069.270000000042
1001
REVIT
1002
{
1070
     3
1000
856288
1002
}
  0
LWPOLYLINE
  5
90
330
87
100
AcDbEntity
  8
M-PIPE
100
AcDbPolyline
 90
       80
 70
   128
 43
0.0
 10
919.1664074431887
 20
2069.270000000042
 10
919.4663274495885
 20
2069.2640008
 10
919.7657676479577
 20
2069.246012797311
 10
920.0642489978557
 20
2069.216064768946
 10
920.3612939927955
 20
2069.17420462536
 10
920.6564274241516
 20
2069.120499333852
 10
920.9491771413922
 20
2069.055034811432
 10
921.2390748074197
 20
2068.977915787373
 10
921.5256566478098
 20
2068.889265635661
 10
921.808464192752
 20
2068.789226177627
 10
922.0870450105037
 20
2068.677957455063
 10
922.3609534311838
 20
2068.555637474192
 10
922.6297512597499
 20
2068.422461920887
 10
922.8930084770169
 20
2068.278643847624
 10
923.1503039275953
 20
2068.124413332643
 10
923.4012259936516
 20
2067.960017111865
 10
923.6453732534068
 20
2067.785718184174
 10
923.8823551233274
 20
2067.601795390674
 10
924.1117924829749
 20
2067.408542968598
 10
924.3333182815179
 20
2067.206270080599
 10
924.5465781249352
 20
2066.995300320146
 10
924.7512308429703
 20
2066.775971193852
 10
924.9469490349312
 20
2066.548633581531
 10
925.1334195934616
 20
2066.313651174868
 10
925.3103442054463
 20
2066.071399895585
 10
925.4774398292481
 20
2065.822267294053
 10
925.6344391475138
 20
2065.566651929287
 10
925.7810909948259
 20
2065.304962731345
 10
925.9171607595128
 20
2065.037618347117
 10
926.042430758977
 20
2064.765046470589
 10
926.1567005879431
 20
2064.487683158617
 10
926.2597874390605
 20
2064.205972133333
 10
926.351526395358
 20
2063.920364072282
 10
926.4317706940758
 20
2063.631315887434
 10
926.5003919614539
 20
2063.339289994227
 10
926.5572804181022
 20
2063.044753571793
 10
926.6023450546265
 20
2062.748177815578
 10
926.635513777221
 20
2062.450037183524
 10
926.6567335230059
 20
2062.150808637044
 10
926.6659703449136
 20
2061.850970877979
 10
926.6632094660002
 20
2061.551003582783
 10
926.6484553030826
 20
2061.251386635136
 10
926.6217314596744
 20
2060.952599358243
 10
926.583080688224
 20
2060.655119748007
 10
926.532564821721
 20
2060.359423708345
 10
926.4702646747753
 20
2060.065984289844
 10
926.3962799143323
 20
2059.775270932975
 10
926.3107289002258
 20
2059.487748717093
 10
926.2137484958287
 20
2059.203877616411
 10
926.1054938491001
 20
2058.924111764131
 10
925.9861381443814
 20
2058.648898725938
 10
925.8558723253392
 20
2058.378678783986
 10
925.7149047894952
 20
2058.113884232534
 10
925.5634610548353
 20
2057.854938686382
 10
925.4017833990289
 20
2057.602256403162
 10
925.2301304718356
 20
2057.356241620627
 10
925.048776881322
 20
2057.117287909947
 10
924.8580127545457
 20
2056.885777546085
 10
924.6581432734156
 20
2056.662080896238
 10
924.4494881864651
 20
2056.446555827326
 10
924.2323812973225
 20
2056.239547133483
 10
924.0071699306966
 20
2056.041385984459
 10
923.7742143767317
 20
2055.852389395821
 10
923.5338873146195
 20
2055.672859721793
 10
923.2865732163922
 20
2055.503084171556
 10
923.0326677318497
 20
2055.343334349775
 10
922.7725770556038
 20
2055.193865822085
 10
922.5067172772527
 20
2055.054917706246
 10
922.235513715729
 20
2054.926712289602
 10
921.9594002388769
 20
2054.809454673472
 10
921.6788185693582
 20
2054.703332445027
 10
921.3942175779902
 20
2054.608515377195
 10
921.1060525656471
 20
2054.525155157057
 10
920.8147845348772
 20
2054.453385143184
 10
920.5208794523956
 20
2054.393320152287
 10
920.2248075036377
 20
2054.345056275538
 10
919.9270423405632
 20
2054.308670724846
 10
919.6280603239133
 20
2054.284221709329
 10
919.3283397611345
 20
2054.271748342195
 10
919.1664074431887
 20
2054.270000000042
1001
REVIT
1002
{
1070
     3
1000
856288
1002
}
  0
LWPOLYLINE
  5
91
330
87
100
AcDbEntity
  8
M-PIPE
100
AcDbPolyline
 90
       28
 70
   128
 43
0.0
 10
799.7069881380927
 20
2053.077002519893
 10
799.7076532704697
 20
2053.110254704412
 10
799.7096476035311
 20
2053.143453692531
 10
799.7129679467692
 20
2053.176546372947
 10
799.717608988343
 20
2053.209479804435
 10
799.7235633035765
 20
2053.242201300527
 10
799.7308213668351
 20
2053.274658513811
 10
799.7393715667661
 20
2053.306799519669
 10
799.7492002248734
 20
2053.338572899348
 10
799.760291617401
 20
2053.369927822219
 10
799.7726280004863
 20
2053.400814127093
 10
799.7861896385485
 20
2053.431182402471
 10
799.8009548358595
 20
2053.460984065592
 10
799.8168999712535
 20
2053.490171440152
 10
799.8339995359153
 20
2053.518697832578
 10
799.8522261741888
 20
2053.546517606726
 10
799.8715507273414
 20
2053.573586256893
 10
799.8919422802098
 20
2053.599860479013
 10
799.9133682106601
 20
2053.625298239936
 10
799.9357942417739
 20
2053.64985884467
 10
799.9591844966851
 20
2053.673503001487
 10
799.9835015559757
 20
2053.696192884781
 10
800.0087065175385
 20
2053.717892195578
 10
800.0347590588111
 20
2053.738566219609
 10
800.0616175012856
 20
2053.758181882846
 10
800.0892388771836
 20
2053.776707804414
 10
800.1175789981955
 20
2053.794114346789
 10
800.1227513058989
 20
2053.797125450449
1001
REVIT
1002
{
1070
     3
1000
856288
1002
}
  0
LWPOLYLINE
  5
92
330
87
100
AcDbEntity
  8
M-PIPE
100
AcDbPolyline
 90
       17
 70
   128
 43
0.0
 10
831.4732388226516
 20
2053.557084473597
 10
831.4918939020234
 20
2053.529550164272
 10
831.5094329806244
 20
2053.501291875253
 10
831.5258279996701
 20
2053.472354813776
 10
831.5410527306275
 20
2053.442785272967
 10
831.5550828171749
 20
2053.412630557781
 10
831.5678958141665
 20
2053.381938909332
 10
831.5794712235407
 20
2053.35075942771
 10
831.5897905271118
 20
2053.319141993434
 10
831.598837216195
 20
2053.287137187654
 10
831.6065968180183
 20
2053.254796211231
 10
831.6130569188736
 20
2053.222170802829
 10
831.6182071839774
 20
2053.189313156143
 10
831.6220393740049
 20
2053.156275836397
 10
831.6245473582691
 20
2053.123111696255
 10
831.6257271245302
 20
2053.089873791267
 10
831.6258267482851
 20
2053.077002519893
1001
REVIT
1002
{
1070
     3
1000
856288
1002
}
  0
LWPOLYLINE
  5
93
330
87
100
AcDbEntity
  8
M-PIPE
100
AcDbPolyline
 90
       63
 70
   128
 43
0.0
 10
823.6222120125471
 20
2061.770000000041
 10
823.3574496495993
 20
2061.770000000041
 10
823.0803832597894
 20
2061.770000000041
 10
822.7914560902364
 20
2061.770000000041
 10
822.4911303627775
 20
2061.770000000041
 10
822.1798865345109
 20
2061.770000000041
 10
821.8582225291662
 20
2061.770000000041
 10
821.5266529405337
 20
2061.770000000041
 10
821.1857082092246
 20
2061.770000000041
 10
820.8359337740782
 20
2061.770000000041
 10
820.4778891995752
 20
2061.770000000041
 10
820.1121472806573
 20
2061.770000000041
 10
819.7392931263731
 20
2061.770000000041
 10
819.3599232238318
 20
2061.770000000041
 10
818.9746444839494
 20
2061.770000000041
 10
818.5840732705216
 20
2061.770000000041
 10
818.188834414172
 20
2061.770000000041
 10
817.7895602127579
 20
2061.770000000041
 10
817.3868894198276
 20
2061.770000000041
 10
816.9814662227514
 20
2061.770000000041
 10
816.5739392121587
 20
2061.770000000041
 10
816.164960344332
 20
2061.770000000041
 10
815.7551838982159
 20
2061.770000000041
 10
815.3452654287098
 20
2061.770000000041
 10
814.9358607179202
 20
2061.770000000041
 10
814.5276247260492
 20
2061.770000000041
 10
814.1212105435984
 20
2061.770000000041
 10
813.7172683465625
 20
2061.770000000041
 10
813.3164443562868
 20
2061.770000000041
 10
812.9193798056517
 20
2061.770000000041
 10
812.5267099132353
 20
2061.770000000041
 10
812.1390628671004
 20
2061.770000000041
 10
811.7570588198272
 20
2061.770000000041
 10
811.3813088964016
 20
2061.770000000041
 10
811.0124142165449
 20
2061.770000000041
 10
810.6509649330524
 20
2061.770000000041
 10
810.2975392876716
 20
2061.770000000041
 10
809.9527026860425
 20
2061.770000000041
 10
809.6170067931662
 20
2061.770000000041
 10
809.2909886508596
 20
2061.770000000041
 10
808.9751698186043
 20
2061.770000000041
 10
808.6700555391601
 20
2061.770000000041
 10
808.3761339302872
 20
2061.770000000041
 10
808.0938752038592
 20
2061.770000000041
 10
807.8237309136271
 20
2061.770000000041
 10
807.5661332328271
 20
2061.770000000041
 10
807.3214942627972
 20
2061.770000000041
 10
807.0902053737027
 20
2061.770000000041
 10
806.8726365784273
 20
2061.770000000041
 10
806.6691359406313
 20
2061.770000000041
 10
806.4800290179235
 20
2061.770000000041
 10
806.3056183410401
 20
2061.770000000041
 10
806.1461829298583
 20
2061.770000000041
 10
806.0019778470248
 20
2061.770000000041
 10
805.8732337899101
 20
2061.770000000041
 10
805.7601567215419
 20
2061.770000000041
 10
805.6629275411074
 20
2061.770000000041
 10
805.5817017945544
 20
2061.770000000041
 10
805.5166094257501
 20
2061.770000000041
 10
805.4677545685988
 20
2061.770000000041
 10
805.4352153804504
 20
2061.770000000041
 10
805.4190439170644
 20
2061.770000000041
 10
805.4171036864209
 20
2061.770000000041
1001
REVIT
1002
{
1070
     3
1000
856288
1002
}
  0
LWPOLYLINE
  5
94
330
87
100
AcDbEntity
  8
M-PIPE
100
AcDbPolyline
 90
       34
 70
   128
 43
0.0
 10
804.7868177196288
 20
2061.286364567577
 10
804.7940754645157
 20
2061.311434194057
 10
804.8023299216518
 20
2061.336193535124
 10
804.8115678856671
 20
2061.360602981114
 10
804.8217745777895
 20
2061.38462348212
 10
804.8329336694887
 20
2061.408216610466
 10
804.845027308599
 20
2061.431344622179
 10
804.8580361478771
 20
2061.453970517373
 10
804.8719393759554
 20
2061.476058099442
 10
804.8867147506353
 20
2061.497572032968
 10
804.9023386344687
 20
2061.518477900246
 10
804.9187860325744
 20
2061.538742256348
 10
804.9360306326244
 20
2061.558332682628
 10
804.9540448469368
 20
2061.577217838581
 10
804.9727998566119
 20
2061.595367511988
 10
804.9922656576349
 20
2061.612752667242
 10
805.0124111088765
 20
2061.629345491805
 10
805.0332039819126
 20
2061.645119440695
 10
805.0546110125816
 20
2061.660049278961
 10
805.0765979542012
 20
2061.674111122044
 10
805.0991296323548
 20
2061.687282473997
 10
805.1221700011641
 20
2061.699542263465
 10
805.1456822009541
 20
2061.710870877402
 10
805.1696286172205
 20
2061.721250192441
 10
805.1939709408062
 20
2061.730663603892
 10
805.2186702291852
 20
2061.739096052305
 10
805.2436869687658
 20
2061.746534047562
 10
805.2689811381011
 20
2061.752965690457
 10
805.294512271916
 20
2061.758380691733
 10
805.3202395258425
 20
2061.762770388543
 10
805.3461217417627
 20
2061.766127758309
 10
805.3721175136523
 20
2061.768447429956
 10
805.3981852538219
 20
2061.769725692503
 10
805.4171036864209
 20
2061.770000000041
1001
REVIT
1002
{
1070
     3
1000
856288
1002
}
  0
LWPOLYLINE
  5
95
330
87
100
AcDbEntity
  8
M-PIPE
100
AcDbPolyline
 90
        4
 70
   128
 43
0.0
 10
805.4171036864209
 20
2061.770000000041
 10
805.4253020362256
 20
2061.770000000041
 10
805.4498839700288
 20
2061.770000000041
 10
805.4783783659225
 20
2061.770000000041
1001
REVIT
1002
{
1070
     3
1000
856288
1002
}
  0
LWPOLYLINE
  5
96
330
87
100
AcDbEntity
  8
M-PIPE
100
AcDbPolyline
 90
       31
 70
   128
 43
0.0
 10
818.6664074431764
 20
2038.270000000057
 10
819.2685495327058
 20
2038.270000000057
 10
819.8649289633083
 20
2038.270000000057
 10
820.4545916551154
 20
2038.270000000057
 10
821.0365942736084
 20
2038.270000000057
 10
821.6100057387512
 20
2038.270000000057
 10
822.1739087145211
 20
2038.270000000057
 10
822.7274010764499
 20
2038.270000000057
 10
823.2695973548306
 20
2038.270000000057
 10
823.7996301512799
 20
2038.270000000057
 10
824.3166515263913
 20
2038.270000000057
 10
824.8198343562565
 20
2038.270000000057
 10
825.3083736556874
 20
2038.270000000057
 10
825.7814878660219
 20
2038.270000000057
 10
826.2384201054484
 20
2038.270000000057
 10
826.6784393798577
 20
2038.270000000057
 10
827.1008417522764
 20
2038.270000000057
 10
827.5049514690165
 20
2038.270000000057
 10
827.8901220407368
 20
2038.270000000057
 10
828.2557372766877
 20
2038.270000000057
 10
828.6012122704853
 20
2038.270000000057
 10
828.9259943358374
 20
2038.270000000057
 10
829.2295638907219
 20
2038.270000000057
 10
829.5114352886097
 20
2038.270000000057
 10
829.7711575953929
 20
2038.270000000057
 10
830.0083153107857
 20
2038.270000000057
 10
830.2225290330342
 20
2038.270000000057
 10
830.4134560658795
 20
2038.270000000057
 10
830.5807909667974
 20
2038.270000000057
 10
830.7242660356431
 20
2038.270000000057
 10
830.7839827127677
 20
2038.270000000057
1001
REVIT
1002
{
1070
     3
1000
856288
1002
}
  0
LWPOLYLINE
  5
97
330
87
100
AcDbEntity
  8
M-PIPE
100
AcDbPolyline
 90
        3
 70
   128
 43
0.0
 10
800.7086058823791
 20
2038.270000000057
 10
800.6085488507297
 20
2038.270000000057
 10
800.5488321736169
 20
2038.270000000057
1001
REVIT
1002
{
1070
     3
1000
856288
1002
}
  0
LWPOLYLINE
  5
98
330
87
100
AcDbEntity
  8
M-PIPE
100
AcDbPolyline
 90
       21
 70
   128
 43
0.0
 10
802.8934185861038
 20
2055.39677095051
 10
802.9290121160808
 20
2055.418281262971
 10
802.9637169919567
 20
2055.441197731041
 10
802.9974776933334
 20
2055.46548369326
 10
803.0302402102909
 20
2055.49110029727
 10
803.0619521297907
 20
2055.518006561968
 10
803.0925627195266
 20
2055.546159443071
 10
803.1220230090852
 20
2055.575513901974
 10
803.1502858682872
 20
2055.606022977806
 10
803.1773060825873
 20
2055.637637862553
 10
803.2030404254065
 20
2055.670307979143
 10
803.227447727286
 20
2055.70398106236
 10
803.2504889417495
 20
2055.738603242454
 10
803.272127207769
 20
2055.774119131321
 10
803.2923279087349
 20
2055.810471911117
 10
803.3110587278345
 20
2055.847603425148
 10
803.3282896997535
 20
2055.885454270912
 10
803.3439932586123
 20
2055.923963895132
 10
803.3581442820665
 20
2055.963070690623
 10
803.3707201314976
 20
2056.002712094854
 10
803.3778783300734
 20
2056.028131180971
1001
REVIT
1002
{
1070
     3
1000
856288
1002
}
  0
LINE
  5
99
330
87
100
AcDbEntity
  8
M-PIPE
100
AcDbLine
 10
803.6565581020484
 20
2038.270000000055
 30
0.0
 11
803.171508484
 21
2038.270000000055
 31
0.0
1001
REVIT
1002
{
1070
     3
1000
856288
1002
}
  0
LINE
  5
9A
330
87
100
AcDbEntity
  8
M-PIPE
100
AcDbLine
 10
803.1715084840001
 20
2038.270000000055
 30
0.0
 11
800.5488321736159
 21
2038.270000000055
 31
0.0
1001
REVIT
1002
{
1070
     3
1000
856288
1002
}
  0
LINE
  5
9B
330
87
100
AcDbEntity
  8
M-PIPE
100
AcDbLine
 10
799.7069881380918
 20
2044.770000000024
 30
0.0
 11
818.666407443175
 21
2044.770000000024
 31
0.0
1001
REVIT
1002
{
1070
     3
1000
856288
1002
}
  0
LINE
  5
9C
330
87
100
AcDbEntity
  8
M-PIPE
100
AcDbLine
 10
818.6664074431751
 20
2044.770000000024
 30
0.0
 11
818.6664074431753
 21
2038.817051478265
 31
0.0
1001
REVIT
1002
{
1070
     3
1000
856288
1002
}
  0
LINE
  5
9D
330
87
100
AcDbEntity
  8
M-PIPE
100
AcDbLine
 10
831.341325770119
 20
2038.817051478265
 30
0.0
 11
831.3413257701188
 21
2044.770000000024
 31
0.0
1001
REVIT
1002
{
1070
     3
1000
856288
1002
}
  0
LINE
  5
9E
330
87
100
AcDbEntity
  8
M-PIPE
100
AcDbLine
 10
831.341325770119
 20
2044.770000000024
 30
0.0
 11
831.6258267482837
 21
2044.770000000024
 31
0.0
1001
REVIT
1002
{
1070
     3
1000
856288
1002
}
  0
LINE
  5
9F
330
87
100
AcDbEntity
  8
M-PIPE
100
AcDbLine
 10
799.9914891162628
 20
2038.817051478265
 30
0.0
 11
799.9914891162627
 21
2044.770000000024
 31
0.0
1001
REVIT
1002
{
1070
     3
1000
856288
1002
}
  0
ARC
  5
A0
330
87
100
AcDbEntity
  8
M-PIPE
100
AcDbCircle
 10
752.9305141011567
 20
1907.754330243163
 30
0.0
 40
165.0391585733966
100
AcDbArc
 50
62.23895227915452
 51
63.45586155127668
1001
REVIT
1002
{
1070
     3
1000
856288
1002
}
  0
ARC
  5
A1
330
87
100
AcDbEntity
  8
M-PIPE
100
AcDbCircle
 10
500.6288481718869
 20
1953.7213815388
 30
0.0
 40
341.1897465907226
100
AcDbArc
 50
17.44877075755989
 51
18.3767765177632
1001
REVIT
1002
{
1070
     3
1000
856288
1002
}
  0
LINE
  5
A2
330
87
100
AcDbEntity
  8
M-PIPE
100
AcDbLine
 10
803.1715084840001
 20
2038.270000000024
 30
0.0
 11
803.171508484
 21
2044.770000000024
 31
0.0
1001
REVIT
1002
{
1070
     3
1000
856288
1002
}
  0
LINE
  5
A3
330
87
100
AcDbEntity
  8
M-PIPE
100
AcDbLine
 10
831.6258267482837
 20
2053.557084473596
 30
0.0
 11
845.4413257701128
 21
2056.970000000041
 31
0.0
1001
REVIT
1002
{
1070
     3
1000
856288
1002
}
  0
LINE
  5
A4
330
87
100
AcDbEntity
  8
M-PIPE
100
AcDbLine
 10
845.4413257701128
 20
2056.970000000041
 30
0.0
 11
917.1807011152017
 21
2058.13767928178
 31
0.0
1001
REVIT
1002
{
1070
     3
1000
856288
1002
}
  0
LINE
  5
A5
330
87
100
AcDbEntity
  8
M-PIPE
100
AcDbLine
 10
917.1807011152017
 20
2058.13767928178
 30
0.0
 11
917.1807011152017
 21
2058.521374255771
 31
0.0
1001
REVIT
1002
{
1070
     3
1000
856288
1002
}
  0
SPLINE
  5
A6
330
87
100
AcDbEntity
  8
M-PIPE
100
AcDbSpline
210
0.0
220
0.0
230
1.0
 70
     8
 71
     3
 72
    17
 73
    13
 74
     0
 42
0.000000001
 43
0.0000000001
 40
0.0
 40
0.0
 40
0.0
 40
0.0
 40
0.125
 40
0.1875
 40
0.25
 40
0.375
 40
0.5
 40
0.625
 40
0.75
 40
0.8125
 40
0.875
 40
1.0
 40
1.0
 40
1.0
 40
1.0
 10
917.1807011152017
 20
2058.521374255771
 30
0.0
 10
916.9322476756741
 20
2058.680832292466
 30
0.0
 10
916.5972535078832
 20
2058.943631016045
 30
0.0
 10
916.225290913592
 20
2059.343376596942
 30
0.0
 10
915.9049276817757
 20
2059.770356511122
 30
0.0
 10
915.5877087085672
 20
2060.397624693084
 30
0.0
 10
915.3697931937918
 20
2061.196907511672
 30
0.0
 10
915.3427659486292
 20
2062.025376058953
 30
0.0
 10
915.4605055727152
 20
2062.716853100856
 30
0.0
 10
915.6371731861096
 20
2063.215721063914
 30
0.0
 10
915.8702382054343
 20
2063.702821308984
 30
0.0
 10
916.1080865150804
 20
2064.048033667521
 30
0.0
 10
916.2947182456363
 20
2064.270000000042
 30
0.0
1001
REVIT
1002
{
1070
     3
1000
856288
1002
}
  0
LINE
  5
A7
330
87
100
AcDbEntity
  8
M-PIPE
100
AcDbLine
 10
916.2947182456363
 20
2064.270000000042
 30
0.0
 11
828.9169262887117
 21
2064.270000000041
 31
0.0
1001
REVIT
1002
{
1070
     3
1000
856288
1002
}
  0
LINE
  5
A8
330
87
100
AcDbEntity
  8
M-PIPE
100
AcDbLine
 10
828.9169262887117
 20
2064.270000000041
 30
0.0
 11
827.1664074431875
 21
2061.770000000041
 31
0.0
1001
REVIT
1002
{
1070
     3
1000
856288
1002
}
  0
LINE
  5
A9
330
87
100
AcDbEntity
  8
M-PIPE
100
AcDbLine
 10
823.7544088740744
 20
2061.770000000041
 30
0.0
 11
827.1664074431875
 21
2061.770000000041
 31
0.0
1001
REVIT
1002
{
1070
     3
1000
856288
1002
}
  0
LINE
  5
AA
330
87
100
AcDbEntity
  8
M-PIPE
100
AcDbLine
 10
830.0921662483977
 20
2053.557084473596
 30
0.0
 11
831.6258267482837
 21
2053.557084473596
 31
0.0
1001
REVIT
1002
{
1070
     3
1000
856288
1002
}
  0
SPLINE
  5
AB
330
87
100
AcDbEntity
  8
M-PIPE
100
AcDbSpline
210
0.0
220
0.0
230
1.0
 70
    24
 71
     3
 72
    15
 73
    11
 74
     0
 42
0.000000001
 43
0.0000000001
 40
-1.0
 40
-1.0
 40
-1.0
 40
-1.0
 40
-0.875
 40
-0.75
 40
-0.625
 40
-0.5
 40
-0.375
 40
-0.25
 40
-0.125
 40
0.0
 40
0.0
 40
0.0
 40
0.0
 10
914.4940841738836
 20
2058.093950061596
 30
0.0
 10
914.6656256298468
 20
2057.848963473189
 30
0.0
 10
914.9960601256811
 20
2057.377054106604
 30
0.0
 10
915.4473723416941
 20
2056.732513464887
 30
0.0
 10
915.8735278683595
 20
2056.123900298917
 30
0.0
 10
916.2435850660711
 20
2055.595403849626
 30
0.0
 10
916.5439413513778
 20
2055.166450619452
 30
0.0
 10
916.7717481076929
 20
2054.841108854498
 30
0.0
 10
916.9014406788413
 20
2054.655888667523
 30
0.0
 10
916.9325930033741
 20
2054.611398537336
 30
0.0
 10
916.9335001459812
 20
2054.61010300343
 30
0.0
1001
REVIT
1002
{
1070
     3
1000
856288
1002
}
  0
SPLINE
  5
AC
330
87
100
AcDbEntity
  8
M-PIPE
100
AcDbSpline
210
0.0
220
0.0
230
1.0
 70
     8
 71
     3
 72
     9
 73
     5
 74
     0
 42
0.000000001
 43
0.0000000001
 40
0.0
 40
0.0
 40
0.0
 40
0.0
 40
0.5
 40
1.0
 40
1.0
 40
1.0
 40
1.0
 10
829.8033040248864
 20
2053.797125450449
 30
0.0
 10
829.8602039244713
 20
2053.767321643201
 30
0.0
 10
829.9652475279749
 20
2053.697511006478
 30
0.0
 10
830.0527787401454
 20
2053.607294325299
 30
0.0
 10
830.0921662483977
 20
2053.557084473596
 30
0.0
1001
REVIT
1002
{
1070
     3
1000
856288
1002
}
  0
SPLINE
  5
AD
330
87
100
AcDbEntity
  8
M-PIPE
100
AcDbSpline
210
0.0
220
0.0
230
1.0
 70
     8
 71
     3
 72
    12
 73
     8
 74
     0
 42
0.000000001
 43
0.0000000001
 40
0.0
 40
0.0
 40
0.0
 40
0.0
 40
0.25
 40
0.4375
 40
0.625
 40
0.8125
 40
1.0
 40
1.0
 40
1.0
 40
1.0
 10
823.6222120125461
 20
2061.770000000041
 30
0.0
 10
823.7066533883815
 20
2061.770412181042
 30
0.0
 10
823.8488459970747
 20
2061.753279726419
 30
0.0
 10
824.0470415310733
 20
2061.686335366101
 30
0.0
 10
824.2074698015501
 20
2061.589199833223
 30
0.0
 10
824.3385428118559
 20
2061.457227263996
 30
0.0
 10
824.3962785403764
 20
2061.3471160871
 30
0.0
 10
824.4192396362736
 20
2061.286364567576
 30
0.0
1001
REVIT
1002
{
1070
     3
1000
856288
1002
}
  0
SPLINE
  5
AE
330
87
100
AcDbEntity
  8
M-PIPE
100
AcDbSpline
210
0.0
220
0.0
230
1.0
 70
     8
 71
     3
 72
     8
 73
     4
 74
     0
 42
0.000000001
 43
0.0000000001
 40
0.983553185609572
 40
0.983553185609572
 40
0.983553185609572
 40
0.983553185609572
 40
1.0
 40
1.0
 40
1.0
 40
1.0
 10
823.6226633364182
 20
2061.769950286146
 30
0.0
 10
823.6171285761626
 20
2061.770010901087
 30
0.0
 10
823.6115806446898
 20
2061.770027520331
 30
0.0
 10
823.6060189563083
 20
2061.77000000004
 30
0.0
1001
REVIT
1002
{
1070
     3
1000
856288
1002
}
  0
SPLINE
  5
AF
330
87
100
AcDbEntity
  8
M-PIPE
100
AcDbSpline
210
0.0
220
0.0
230
1.0
 70
    24
 71
     3
 72
    10
 73
     6
 74
     0
 42
0.000000001
 43
0.0000000001
 40
0.0
 40
0.0
 40
0.0
 40
0.0
 40
0.25
 40
0.6666666666666666
 40
1.0
 40
1.0
 40
1.0
 40
1.0
 10
818.666407443175
 20
2038.270000000057
 30
0.0
 10
818.666407443175
 20
2038.271940017212
 30
0.0
 10
818.666407443175
 20
2038.306273541264
 30
0.0
 10
818.666407443175
 20
2038.507754520091
 30
0.0
 10
818.666407443175
 20
2038.712271591097
 30
0.0
 10
818.666407443175
 20
2038.817051478265
 30
0.0
1001
REVIT
1002
{
1070
     3
1000
856288
1002
}
  0
SPLINE
  5
B0
330
87
100
AcDbEntity
  8
M-PIPE
100
AcDbSpline
210
0.0
220
0.0
230
1.0
 70
     8
 71
     3
 72
    10
 73
     6
 74
     0
 42
0.000000001
 43
0.0000000001
 40
0.0
 40
0.0
 40
0.0
 40
0.0
 40
0.25
 40
0.6666666666666666
 40
1.0
 40
1.0
 40
1.0
 40
1.0
 10
831.3413257701196
 20
2038.817051478265
 30
0.0
 10
831.3384630868513
 20
2038.738466562888
 30
0.0
 10
831.3017030850055
 20
2038.550843242397
 30
0.0
 10
831.0916470162206
 20
2038.323813964163
 30
0.0
 10
830.8876594260256
 20
2038.272586689598
 30
0.0
 10
830.7839827127665
 20
2038.270000000057
 30
0.0
1001
REVIT
1002
{
1070
     3
1000
856288
1002
}
  0
SPLINE
  5
B1
330
87
100
AcDbEntity
  8
M-PIPE
100
AcDbSpline
210
0.0
220
0.0
230
1.0
 70
     8
 71
     3
 72
    10
 73
     6
 74
     0
 42
0.000000001
 43
0.0000000001
 40
0.0
 40
0.0
 40
0.0
 40
0.0
 40
0.25
 40
0.6666666666666666
 40
1.0
 40
1.0
 40
1.0
 40
1.0
 10
799.9914891162626
 20
2038.817051478265
 30
0.0
 10
799.9943517995306
 20
2038.738466562888
 30
0.0
 10
800.0311118013767
 20
2038.550843242396
 30
0.0
 10
800.2411678701617
 20
2038.323813964162
 30
0.0
 10
800.4451554603567
 20
2038.272586689597
 30
0.0
 10
800.5488321736159
 20
2038.270000000056
 30
0.0
1001
REVIT
1002
{
1070
     3
1000
856288
1002
}
  0
SPLINE
  5
B2
330
87
100
AcDbEntity
  8
M-PIPE
100
AcDbSpline
210
0.0
220
0.0
230
1.0
 70
     8
 71
     3
 72
    10
 73
     6
 74
     0
 42
0.000000001
 43
0.0000000001
 40
0.0
 40
0.0
 40
0.0
 40
0.0
 40
0.3333333333333333
 40
0.6666666666666666
 40
1.0
 40
1.0
 40
1.0
 40
1.0
 10
826.1188974150181
 20
2056.028131180971
 30
0.0
 10
826.1503646611719
 20
2055.933828067253
 30
0.0
 10
826.2343636763269
 20
2055.761255190498
 30
0.0
 10
826.4360841572598
 20
2055.544990574475
 30
0.0
 10
826.5959890040297
 20
2055.440221335723
 30
0.0
 10
826.6843856238951
 20
2055.39677095051
 30
0.0
1001
REVIT
1002
{
1070
     3
1000
856288
1002
}
  0
LINE
  5
B3
330
87
100
AcDbEntity
  8
P-SANR-FIXT
100
AcDbLine
 10
789.1664074431603
 20
1973.749999999996
 30
0.0
 11
789.8866140522544
 21
1972.502565561098
 31
0.0
  0
LINE
  5
B4
330
87
100
AcDbEntity
  8
P-SANR-FIXT
100
AcDbLine
 10
789.8866140522544
 20
2027.497434438893
 30
0.0
 11
789.1664074431494
 21
2026.249999999976
 31
0.0
  0
LWPOLYLINE
  5
B5
330
87
100
AcDbEntity
  8
P-SANR-FIXT
100
AcDbPolyline
 90
       28
 70
   128
 43
0.0
 10
789.8866140522544
 20
2027.497434438893
 10
789.9073014472997
 20
2027.531666271509
 10
789.9293412028296
 20
2027.565043447157
 10
789.9526980599373
 20
2027.597512569475
 10
789.9773346526335
 20
2027.629021694794
 10
790.0032115676258
 20
2027.659520415235
 10
790.03028740737
 20
2027.688959939351
 10
790.0585188562985
 20
2027.717293170184
 10
790.0878607501156
 20
2027.744474780609
 10
790.11826614805
 20
2027.770461285847
 10
790.1496864079517
 20
2027.795211113033
 10
790.1820712641072
 20
2027.818684667724
 10
790.2153689076548
 20
2027.84084439724
 10
790.2495260694684
 20
2027.86165485074
 10
790.2844881053755
 20
2027.881082735939
 10
790.3201990835765
 20
2027.899096972364
 10
790.3566018741245
 20
2027.915668741079
 10
790.39363824032
 20
2027.930771530791
 10
790.4312489318779
 20
2027.944381180256
 10
790.4693737797146
 20
2027.956475916941
 10
790.507951792207
 20
2027.967036391845
 10
790.546921252764
 20
2027.976045710461
 10
790.586219818562
 20
2027.983489459803
 10
790.6257846202792
 20
2027.989355731458
 10
790.6655523626724
 20
2027.993635140644
 10
790.7054594258377
 20
2027.996320841218
 10
790.7454419669866
 20
2027.997408536633
 10
790.7526394560409
 20
2027.997434438893
  0
LWPOLYLINE
  5
B6
330
87
100
AcDbEntity
  8
P-SANR-FIXT
100
AcDbPolyline
 90
       28
 70
   128
 43
0.0
 10
790.7526394560409
 20
1972.002565561098
 10
790.7126501218542
 20
1972.003365454438
 10
790.6727247620716
 20
1972.005763854796
 10
790.6329272487519
 20
1972.009756925244
 10
790.5933212494265
 20
1972.015338277723
 10
790.5539701252457
 20
1972.022498983257
 10
790.5149368296137
 20
1972.031227586246
 10
790.4762838074766
 20
1972.041510122787
 10
790.4380728954247
 20
1972.053330143015
 10
790.4003652227657
 20
1972.06666873742
 10
790.3632211137321
 20
1972.081504567095
 10
790.3266999909746
 20
1972.097813897878
 10
790.2908602804992
 20
1972.115570638318
 10
790.2557593181968
 20
1972.13474638142
 10
790.2214532581197
 20
1972.155310450084
 10
790.1879969826453
 20
1972.177229946188
 10
790.1554440146782
 20
1972.200469803213
 10
790.1238464320219
 20
1972.224992842346
 10
790.093254784069
 20
1972.250759831956
 10
790.0637180109297
 20
1972.277729550356
 10
790.0352833651405
 20
1972.30585885175
 10
790.0079963360694
 20
1972.335102735256
 10
789.9819005771411
 20
1972.365414416898
 10
789.9570378360038
 20
1972.396745404454
 10
789.933447887739
 20
1972.429045575024
 10
789.9111684712321
 20
1972.462263255229
 10
789.8902352287965
 20
1972.496345303864
 10
789.8866140522544
 20
1972.502565561098
  0
LINE
  5
B7
330
87
100
AcDbEntity
  8
P-SANR-FIXT
100
AcDbLine
 10
790.7526394560409
 20
1972.002565561089
 30
0.0
 11
793.8664074432213
 21
1972.002565561089
 31
0.0
  0
LINE
  5
B8
330
87
100
AcDbEntity
  8
P-SANR-FIXT
100
AcDbLine
 10
793.8664074432213
 20
2027.997434438903
 30
0.0
 11
790.7526394560409
 21
2027.997434438903
 31
0.0
  0
LINE
  5
B9
330
87
100
AcDbEntity
  8
P-SANR-FIXT
100
AcDbLine
 10
774.1720189638544
 20
1975.499999999995
 30
0.0
 11
774.1720189638544
 21
1987.152287500915
 31
0.0
  0
LINE
  5
BA
330
87
100
AcDbEntity
  8
P-SANR-FIXT
100
AcDbLine
 10
774.1720189638544
 20
1987.152287500915
 30
0.0
 11
774.1720189638544
 21
1988.347712499112
 31
0.0
  0
LINE
  5
BB
330
87
100
AcDbEntity
  8
P-SANR-FIXT
100
AcDbLine
 10
774.1720189638544
 20
1988.347712499112
 30
0.0
 11
774.1720189638544
 21
1999.999999999994
 31
0.0
  0
LINE
  5
BC
330
87
100
AcDbEntity
  8
P-SANR-FIXT
100
AcDbLine
 10
774.1720189638544
 20
1999.999999999995
 30
0.0
 11
774.1720189638544
 21
2011.652287500883
 31
0.0
  0
LINE
  5
BD
330
87
100
AcDbEntity
  8
P-SANR-FIXT
100
AcDbLine
 10
774.1720189638544
 20
2011.652287500883
 30
0.0
 11
774.1720189638544
 21
2012.847712499069
 31
0.0
  0
LINE
  5
BE
330
87
100
AcDbEntity
  8
P-SANR-FIXT
100
AcDbLine
 10
774.1720189638544
 20
2012.847712499069
 30
0.0
 11
774.1720189638544
 21
2024.499999999995
 31
0.0
  0
SPLINE
  5
BF
330
87
100
AcDbEntity
  8
P-SANR-FIXT
100
AcDbSpline
210
0.0
220
0.0
230
1.0
 70
    24
 71
     3
 72
     9
 73
     5
 74
     0
 42
0.000000001
 43
0.0000000001
 40
0.0
 40
0.0
 40
0.0
 40
0.0
 40
0.5
 40
1.0
 40
1.0
 40
1.0
 40
1.0
 10
775.176770414256
 20
1975.499999999995
 30
0.0
 10
774.8712647260214
 20
1975.499999999995
 30
0.0
 10
774.39830046272
 20
1975.499999999995
 30
0.0
 10
774.2014304257537
 20
1975.499999999995
 30
0.0
 10
774.1720189638544
 20
1975.499999999995
 30
0.0
  0
LINE
  5
C0
330
87
100
AcDbEntity
  8
P-SANR-FIXT
100
AcDbLine
 10
789.1664074431592
 20
1975.499999999995
 30
0.0
 11
775.176770414256
 21
1975.499999999995
 31
0.0
  0
LINE
  5
C1
330
87
100
AcDbEntity
  8
P-SANR-FIXT
100
AcDbLine
 10
789.1664074431535
 20
1975.499999999995
 30
0.0
 11
789.1664074431535
 21
1979.588543328568
 31
0.0
  0
LINE
  5
C2
330
87
100
AcDbEntity
  8
P-SANR-FIXT
100
AcDbLine
 10
775.176770414265
 20
1979.588543328568
 30
0.0
 11
775.176770414265
 21
1975.499999999995
 31
0.0
  0
SPLINE
  5
C3
330
87
100
AcDbEntity
  8
P-SANR-FIXT
100
AcDbSpline
210
0.0
220
0.0
230
1.0
 70
     8
 71
     3
 72
     9
 73
     5
 74
     0
 42
0.000000001
 43
0.0000000001
 40
0.0
 40
0.0
 40
0.0
 40
0.0
 40
0.5
 40
1.0
 40
1.0
 40
1.0
 40
1.0
 10
774.1720189638544
 20
1987.152287500915
 30
0.0
 10
774.2014304257952
 20
1985.878209099511
 30
0.0
 10
774.3983004628018
 20
1983.343506669382
 30
0.0
 10
774.8712647260584
 20
1980.835712984612
 30
0.0
 10
775.1767704142491
 20
1979.588543328568
 30
0.0
  0
LINE
  5
C4
330
87
100
AcDbEntity
  8
P-SANR-FIXT
100
AcDbLine
 10
789.1664074431592
 20
1979.588543328568
 30
0.0
 11
775.1767704142491
 21
1979.588543328568
 31
0.0
  0
SPLINE
  5
C5
330
87
100
AcDbEntity
  8
P-SANR-FIXT
100
AcDbSpline
210
0.0
220
0.0
230
1.0
 70
     8
 71
     3
 72
     9
 73
     5
 74
     0
 42
0.000000001
 43
0.0000000001
 40
0.0
 40
0.0
 40
0.0
 40
0.0
 40
0.5
 40
1.0
 40
1.0
 40
1.0
 40
1.0
 10
775.1767704142402
 20
1995.911456671422
 30
0.0
 10
774.8712647260522
 20
1994.664287015383
 30
0.0
 10
774.3983004628
 20
1992.156493330626
 30
0.0
 10
774.2014304257951
 20
1989.62179090051
 30
0.0
 10
774.1720189638544
 20
1988.347712499112
 30
0.0
  0
LINE
  5
C6
330
87
100
AcDbEntity
  8
P-SANR-FIXT
100
AcDbLine
 10
789.1664074431592
 20
1995.911456671422
 30
0.0
 11
775.1767704142402
 21
1995.911456671422
 31
0.0
  0
LINE
  5
C7
330
87
100
AcDbEntity
  8
P-SANR-FIXT
100
AcDbLine
 10
789.1664074431535
 20
1995.911456671422
 30
0.0
 11
789.1664074431535
 21
2004.088543328568
 31
0.0
  0
LINE
  5
C8
330
87
100
AcDbEntity
  8
P-SANR-FIXT
100
AcDbLine
 10
775.176770414265
 20
2004.088543328568
 30
0.0
 11
775.176770414265
 21
1999.999999999995
 31
0.0
  0
LINE
  5
C9
330
87
100
AcDbEntity
  8
P-SANR-FIXT
100
AcDbLine
 10
775.176770414265
 20
1999.999999999994
 30
0.0
 11
775.176770414265
 21
1995.911456671422
 31
0.0
  0
SPLINE
  5
CA
330
87
100
AcDbEntity
  8
P-SANR-FIXT
100
AcDbSpline
210
0.0
220
0.0
230
1.0
 70
     8
 71
     3
 72
     9
 73
     5
 74
     0
 42
0.000000001
 43
0.0000000001
 40
0.0
 40
0.0
 40
0.0
 40
0.0
 40
0.5
 40
1.0
 40
1.0
 40
1.0
 40
1.0
 10
774.1720189638544
 20
2011.652287500883
 30
0.0
 10
774.2014304257949
 20
2010.378209099484
 30
0.0
 10
774.3983004627996
 20
2007.843506669366
 30
0.0
 10
774.871264726052
 20
2005.335712984607
 30
0.0
 10
775.1767704142402
 20
2004.088543328568
 30
0.0
  0
LINE
  5
CB
330
87
100
AcDbEntity
  8
P-SANR-FIXT
100
AcDbLine
 10
789.1664074431592
 20
2004.088543328568
 30
0.0
 11
775.1767704142402
 21
2004.088543328568
 31
0.0
  0
SPLINE
  5
CC
330
87
100
AcDbEntity
  8
P-SANR-FIXT
100
AcDbSpline
210
0.0
220
0.0
230
1.0
 70
     8
 71
     3
 72
     9
 73
     5
 74
     0
 42
0.000000001
 43
0.0000000001
 40
0.0
 40
0.0
 40
0.0
 40
0.0
 40
0.5
 40
1.0
 40
1.0
 40
1.0
 40
1.0
 10
775.1767704142491
 20
2020.411456671422
 30
0.0
 10
774.8712647260583
 20
2019.164287015376
 30
0.0
 10
774.3983004628015
 20
2016.656493330605
 30
0.0
 10
774.2014304257951
 20
2014.121790900475
 30
0.0
 10
774.1720189638544
 20
2012.847712499069
 30
0.0
  0
LINE
  5
CD
330
87
100
AcDbEntity
  8
P-SANR-FIXT
100
AcDbLine
 10
789.1664074431592
 20
2020.411456671422
 30
0.0
 11
775.1767704142491
 21
2020.411456671422
 31
0.0
  0
LINE
  5
CE
330
87
100
AcDbEntity
  8
P-SANR-FIXT
100
AcDbLine
 10
789.1664074431535
 20
2020.411456671422
 30
0.0
 11
789.1664074431535
 21
2024.499999999995
 31
0.0
  0
LINE
  5
CF
330
87
100
AcDbEntity
  8
P-SANR-FIXT
100
AcDbLine
 10
775.176770414265
 20
2024.499999999995
 30
0.0
 11
775.176770414265
 21
2020.411456671422
 31
0.0
  0
SPLINE
  5
D0
330
87
100
AcDbEntity
  8
P-SANR-FIXT
100
AcDbSpline
210
0.0
220
0.0
230
1.0
 70
    24
 71
     3
 72
     9
 73
     5
 74
     0
 42
0.000000001
 43
0.0000000001
 40
0.0
 40
0.0
 40
0.0
 40
0.0
 40
0.5
 40
1.0
 40
1.0
 40
1.0
 40
1.0
 10
774.1720189638544
 20
2024.499999999995
 30
0.0
 10
774.2014304257535
 20
2024.499999999995
 30
0.0
 10
774.3983004627193
 20
2024.499999999995
 30
0.0
 10
774.8712647260211
 20
2024.499999999995
 30
0.0
 10
775.1767704142561
 20
2024.499999999995
 30
0.0
  0
LINE
  5
D1
330
87
100
AcDbEntity
  8
P-SANR-FIXT
100
AcDbLine
 10
789.1664074431592
 20
2024.499999999995
 30
0.0
 11
775.1767704142561
 21
2024.499999999995
 31
0.0
  0
LINE
  5
D2
330
87
100
AcDbEntity
  8
P-SANR-FIXT
100
AcDbLine
 10
789.1664074431591
 20
2024.500000000019
 30
0.0
 11
789.1664074431591
 21
2026.249999999994
 31
0.0
  0
LINE
  5
D3
330
87
100
AcDbEntity
  8
P-SANR-FIXT
100
AcDbLine
 10
789.166407443143
 20
2004.088543328571
 30
0.0
 11
789.166407443143
 21
2020.411456671429
 31
0.0
  0
LINE
  5
D4
330
87
100
AcDbEntity
  8
P-SANR-FIXT
100
AcDbLine
 10
789.1664074431361
 20
1979.58854332857
 30
0.0
 11
789.1664074431361
 21
1995.91145667142
 31
0.0
  0
LINE
  5
D5
330
87
100
AcDbEntity
  8
P-SANR-FIXT
100
AcDbLine
 10
789.166407443148
 20
1973.750000000015
 30
0.0
 11
789.166407443148
 21
1975.499999999989
 31
0.0
  0
LINE
  5
D6
330
87
100
AcDbEntity
  8
P-SANR-FIXT
100
AcDbLine
 10
803.7432461241243
 20
2029.999999999996
 30
0.0
 11
793.8664074432213
 21
2029.999999999996
 31
0.0
  0
LINE
  5
D7
330
87
100
AcDbEntity
  8
P-SANR-FIXT
100
AcDbLine
 10
793.8664074432213
 20
1969.999999999996
 30
0.0
 11
815.3664074432214
 21
1969.999999999996
 31
0.0
  0
LINE
  5
D8
330
87
100
AcDbEntity
  8
P-SANR-FIXT
100
AcDbLine
 10
793.8664074432201
 20
1969.999999999995
 30
0.0
 11
793.8664074432201
 21
2029.999999999995
 31
0.0
  0
LINE
  5
D9
330
87
100
AcDbEntity
  8
P-SANR-FIXT
100
AcDbLine
 10
815.3664074432203
 20
2027.491163752424
 30
0.0
 11
815.3664074432203
 21
1969.999999999995
 31
0.0
  0
LINE
  5
DA
330
87
100
AcDbEntity
  8
P-SANR-FIXT
100
AcDbLine
 10
834.4447196067021
 20
2027.499999999996
 30
0.0
 11
827.666407443189
 21
2027.499999999996
 31
0.0
  0
LINE
  5
DB
330
87
100
AcDbEntity
  8
P-SANR-FIXT
100
AcDbLine
 10
815.3664074432214
 20
1972.499999999995
 30
0.0
 11
834.4447196067021
 21
1972.499999999995
 31
0.0
  0
LINE
  5
DC
330
87
100
AcDbEntity
  8
P-SANR-FIXT
100
AcDbLine
 10
835.1664074431891
 20
2026.249999999996
 30
0.0
 11
834.4447196067021
 21
2027.499999999996
 31
0.0
  0
LINE
  5
DD
330
87
100
AcDbEntity
  8
P-SANR-FIXT
100
AcDbLine
 10
834.4447196067021
 20
1972.499999999995
 30
0.0
 11
835.1664074431891
 21
1973.749999999996
 31
0.0
  0
LINE
  5
DE
330
87
100
AcDbEntity
  8
P-SANR-FIXT
100
AcDbLine
 10
842.1664074431891
 20
2026.249999999996
 30
0.0
 11
835.1664074431891
 21
2026.249999999996
 31
0.0
  0
LINE
  5
DF
330
87
100
AcDbEntity
  8
P-SANR-FIXT
100
AcDbLine
 10
835.1664074431891
 20
1973.749999999996
 30
0.0
 11
842.1664074431891
 21
1973.749999999996
 31
0.0
  0
LINE
  5
E0
330
87
100
AcDbEntity
  8
P-SANR-FIXT
100
AcDbLine
 10
803.6664074431891
 20
2042.499999999996
 30
0.0
 11
803.6664074431891
 21
2029.969011453753
 31
0.0
  0
LINE
  5
E1
330
87
100
AcDbEntity
  8
P-SANR-FIXT
100
AcDbLine
 10
827.666407443189
 20
2027.499999999996
 30
0.0
 11
827.666407443189
 21
2035.901923788642
 31
0.0
  0
LINE
  5
E2
330
87
100
AcDbEntity
  8
P-SANR-FIXT
100
AcDbLine
 10
821.6664074431895
 20
2061.770000000041
 30
0.0
 11
821.6664074431895
 21
2066.997776269073
 31
0.0
  0
LINE
  5
E3
330
87
100
AcDbEntity
  8
P-SANR-FIXT
100
AcDbLine
 10
809.6664074431886
 20
2066.997776269073
 30
0.0
 11
809.6664074431886
 21
2061.770000000041
 31
0.0
  0
LINE
  5
E4
330
87
100
AcDbEntity
  8
P-SANR-FIXT
100
AcDbLine
 10
809.6664074431886
 20
2044.770000000024
 30
0.0
 11
809.6664074431886
 21
2042.499999999996
 31
0.0
  0
LINE
  5
E5
330
87
100
AcDbEntity
  8
P-SANR-FIXT
100
AcDbLine
 10
803.6664074431879
 20
2042.499999999995
 30
0.0
 11
818.670026643768
 21
2042.499999999995
 31
0.0
  0
SPLINE
  5
E6
330
87
100
AcDbEntity
  8
P-SANR-FIXT
100
AcDbSpline
210
0.0
220
0.0
230
1.0
 70
     8
 71
     3
 72
    17
 73
    13
 74
     0
 42
0.000000001
 43
0.0000000001
 40
0.0
 40
0.0
 40
0.0
 40
0.0
 40
0.1111111111111111
 40
0.2222222222222222
 40
0.3333333333333333
 40
0.4444444444444445
 40
0.5138888888888889
 40
0.5486111111111111
 40
0.5833333333333333
 40
0.6527777777777777
 40
0.7222222222222223
 40
0.7549825480187499
 40
0.7549825480187499
 40
0.7549825480187499
 40
0.7549825480187499
 10
827.6664074431877
 20
2027.499999999995
 30
0.0
 10
827.6616772860997
 20
2027.499999999995
 30
0.0
 10
827.4411971131618
 20
2027.399633964446
 30
0.0
 10
826.4451084845815
 20
2026.981327208803
 30
0.0
 10
824.8805778654958
 20
2026.385578169195
 30
0.0
 10
823.0901365359805
 20
2025.812475117294
 30
0.0
 10
821.5561958738128
 20
2025.426348011945
 30
0.0
 10
820.5035693309518
 20
2025.207424138439
 30
0.0
 10
819.4177782042341
 20
2025.017710336153
 30
0.0
 10
817.9807770448769
 20
2024.829863466386
 30
0.0
 10
816.5217503026884
 20
2024.747948193984
 30
0.0
 10
815.6482513829434
 20
2024.742985183169
 30
0.0
 10
815.3682574311968
 20
2024.746113391235
 30
0.0
  0
LINE
  5
E7
330
87
100
AcDbEntity
  8
P-SANR-FIXT
100
AcDbLine
 10
834.4447196067008
 20
1976.184301395923
 30
0.0
 11
834.4447196067008
 21
2027.499999999995
 31
0.0
  0
LINE
  5
E8
330
87
100
AcDbEntity
  8
P-SANR-FIXT
100
AcDbLine
 10
834.4447196067008
 20
1972.509423563167
 30
0.0
 11
834.4447196067008
 21
1976.184301395923
 31
0.0
  0
LINE
  5
E9
330
87
100
AcDbEntity
  8
P-SANR-FIXT
100
AcDbLine
 10
835.1664074431878
 20
1977.266833150653
 30
0.0
 11
835.1664074431878
 21
2026.249999999995
 31
0.0
  0
LINE
  5
EA
330
87
100
AcDbEntity
  8
P-SANR-FIXT
100
AcDbLine
 10
856.156044472106
 20
1977.266833150653
 30
0.0
 11
856.156044472106
 21
1979.588543328542
 31
0.0
  0
LINE
  5
EB
330
87
100
AcDbEntity
  8
P-SANR-FIXT
100
AcDbLine
 10
856.156044472106
 20
1979.588543328542
 30
0.0
 11
842.1664074431879
 21
1979.588543328542
 31
0.0
  0
LINE
  5
EC
330
87
100
AcDbEntity
  8
P-SANR-FIXT
100
AcDbLine
 10
842.1664074431879
 20
1979.588543328542
 30
0.0
 11
842.1664074431879
 21
1995.911456671447
 31
0.0
  0
LINE
  5
ED
330
87
100
AcDbEntity
  8
P-SANR-FIXT
100
AcDbLine
 10
842.1664074431879
 20
1995.911456671447
 30
0.0
 11
856.156044472106
 21
1995.911456671447
 31
0.0
  0
LINE
  5
EE
330
87
100
AcDbEntity
  8
P-SANR-FIXT
100
AcDbLine
 10
856.156044472106
 20
1995.911456671447
 30
0.0
 11
856.156044472106
 21
2004.088543328542
 31
0.0
  0
LINE
  5
EF
330
87
100
AcDbEntity
  8
P-SANR-FIXT
100
AcDbLine
 10
856.156044472106
 20
2004.088543328542
 30
0.0
 11
842.1664074431879
 21
2004.088543328542
 31
0.0
  0
LINE
  5
F0
330
87
100
AcDbEntity
  8
P-SANR-FIXT
100
AcDbLine
 10
842.1664074431879
 20
2004.088543328542
 30
0.0
 11
842.1664074431879
 21
2020.411456671448
 31
0.0
  0
LINE
  5
F1
330
87
100
AcDbEntity
  8
P-SANR-FIXT
100
AcDbLine
 10
842.1664074431879
 20
2020.411456671448
 30
0.0
 11
856.156044472106
 21
2020.411456671448
 31
0.0
  0
LINE
  5
F2
330
87
100
AcDbEntity
  8
P-SANR-FIXT
100
AcDbLine
 10
856.156044472106
 20
2020.411456671448
 30
0.0
 11
856.156044472106
 21
2024.499999999995
 31
0.0
  0
LINE
  5
F3
330
87
100
AcDbEntity
  8
P-SANR-FIXT
100
AcDbLine
 10
856.156044472106
 20
2024.499999999995
 30
0.0
 11
842.1664074431879
 21
2024.499999999995
 31
0.0
  0
LINE
  5
F4
330
87
100
AcDbEntity
  8
P-SANR-FIXT
100
AcDbLine
 10
842.1664074431879
 20
2024.499999999995
 30
0.0
 11
842.1664074431879
 21
2026.228153676445
 31
0.0
  0
LINE
  5
F5
330
87
100
AcDbEntity
  8
P-SANR-FIXT
100
AcDbLine
 10
835.1664074431878
 20
1973.758995219387
 30
0.0
 11
835.1664074431878
 21
1977.266833150653
 31
0.0
  0
LINE
  5
F6
330
87
100
AcDbEntity
  8
P-SANR-FIXT
100
AcDbLine
 10
842.1664074431879
 20
1973.771846323545
 30
0.0
 11
842.1664074431879
 21
1975.499999999995
 31
0.0
  0
LINE
  5
F7
330
87
100
AcDbEntity
  8
P-SANR-FIXT
100
AcDbLine
 10
842.1664074431879
 20
1975.499999999995
 30
0.0
 11
856.156044472106
 21
1975.499999999995
 31
0.0
  0
LINE
  5
F8
330
87
100
AcDbEntity
  8
P-SANR-FIXT
100
AcDbLine
 10
856.156044472106
 20
1975.499999999995
 30
0.0
 11
856.156044472106
 21
1977.266833150653
 31
0.0
  0
LINE
  5
F9
330
87
100
AcDbEntity
  8
P-SANR-FIXT
100
AcDbLine
 10
857.1664074431877
 20
2024.499999999995
 30
0.0
 11
857.1664074431877
 21
2012.249999999995
 31
0.0
  0
LINE
  5
FA
330
87
100
AcDbEntity
  8
P-SANR-FIXT
100
AcDbLine
 10
857.1664074431877
 20
2012.249999999995
 30
0.0
 11
857.1664074431877
 21
1987.749999999994
 31
0.0
  0
LINE
  5
FB
330
87
100
AcDbEntity
  8
P-SANR-FIXT
100
AcDbLine
 10
857.1664074431877
 20
1987.749999999994
 30
0.0
 11
857.1664074431877
 21
1978.782377607276
 31
0.0
  0
LINE
  5
FC
330
87
100
AcDbEntity
  8
P-SANR-FIXT
100
AcDbLine
 10
857.1664074431877
 20
1978.782377607276
 30
0.0
 11
857.1664074431877
 21
1975.499999999995
 31
0.0
  0
SPLINE
  5
FD
330
87
100
AcDbEntity
  8
P-SANR-FIXT
100
AcDbSpline
210
0.0
220
0.0
230
1.0
 70
    24
 71
     3
 72
     9
 73
     5
 74
     0
 42
0.000000001
 43
0.0000000001
 40
0.0
 40
0.0
 40
0.0
 40
0.0
 40
0.5
 40
1.0
 40
1.0
 40
1.0
 40
1.0
 10
856.156044472106
 20
2024.499999999995
 30
0.0
 10
856.4865466554616
 20
2024.499999999995
 30
0.0
 10
856.9854426673312
 20
2024.499999999995
 30
0.0
 10
857.1601219695164
 20
2024.499999999995
 30
0.0
 10
857.1664074431877
 20
2024.499999999995
 30
0.0
  0
SPLINE
  5
FE
330
87
100
AcDbEntity
  8
P-SANR-FIXT
100
AcDbSpline
210
0.0
220
0.0
230
1.0
 70
     8
 71
     3
 72
     9
 73
     5
 74
     0
 42
0.000000001
 43
0.0000000001
 40
0.0
 40
0.0
 40
0.0
 40
0.0
 40
0.5
 40
1.0
 40
1.0
 40
1.0
 40
1.0
 10
856.156044472106
 20
2004.088543328542
 30
0.0
 10
856.4865466554616
 20
2005.434091070769
 30
0.0
 10
856.9854426673312
 20
2008.139881591572
 30
0.0
 10
857.1601219695162
 20
2010.875062185071
 30
0.0
 10
857.1664074431877
 20
2012.249999999995
 30
0.0
  0
SPLINE
  5
FF
330
87
100
AcDbEntity
  8
P-SANR-FIXT
100
AcDbSpline
210
0.0
220
0.0
230
1.0
 70
     8
 71
     3
 72
     9
 73
     5
 74
     0
 42
0.000000001
 43
0.0000000001
 40
0.0
 40
0.0
 40
0.0
 40
0.0
 40
0.5
 40
1.0
 40
1.0
 40
1.0
 40
1.0
 10
857.1664074431877
 20
2012.249999999995
 30
0.0
 10
857.1601219695162
 20
2013.624937814919
 30
0.0
 10
856.9854426673312
 20
2016.360118408417
 30
0.0
 10
856.4865466554616
 20
2019.06590892922
 30
0.0
 10
856.156044472106
 20
2020.411456671448
 30
0.0
  0
SPLINE
  5
100
330
87
100
AcDbEntity
  8
P-SANR-FIXT
100
AcDbSpline
210
0.0
220
0.0
230
1.0
 70
     8
 71
     3
 72
     9
 73
     5
 74
     0
 42
0.000000001
 43
0.0000000001
 40
0.0
 40
0.0
 40
0.0
 40
0.0
 40
0.5
 40
1.0
 40
1.0
 40
1.0
 40
1.0
 10
856.156044472106
 20
1979.588543328542
 30
0.0
 10
856.4865466554616
 20
1980.93409107077
 30
0.0
 10
856.9854426673312
 20
1983.639881591572
 30
0.0
 10
857.1601219695162
 20
1986.375062185071
 30
0.0
 10
857.1664074431877
 20
1987.749999999994
 30
0.0
  0
SPLINE
  5
101
330
87
100
AcDbEntity
  8
P-SANR-FIXT
100
AcDbSpline
210
0.0
220
0.0
230
1.0
 70
     8
 71
     3
 72
     9
 73
     5
 74
     0
 42
0.000000001
 43
0.0000000001
 40
0.0
 40
0.0
 40
0.0
 40
0.0
 40
0.5
 40
1.0
 40
1.0
 40
1.0
 40
1.0
 10
857.1664074431877
 20
1987.749999999994
 30
0.0
 10
857.1601219695162
 20
1989.124937814918
 30
0.0
 10
856.9854426673312
 20
1991.860118408417
 30
0.0
 10
856.4865466554616
 20
1994.56590892922
 30
0.0
 10
856.156044472106
 20
1995.911456671447
 30
0.0
  0
SPLINE
  5
102
330
87
100
AcDbEntity
  8
P-SANR-FIXT
100
AcDbSpline
210
0.0
220
0.0
230
1.0
 70
    24
 71
     3
 72
     9
 73
     5
 74
     0
 42
0.000000001
 43
0.0000000001
 40
0.0
 40
0.0
 40
0.0
 40
0.0
 40
0.5
 40
1.0
 40
1.0
 40
1.0
 40
1.0
 10
857.1664074431877
 20
1975.499999999995
 30
0.0
 10
857.1601219695162
 20
1975.499999999995
 30
0.0
 10
856.9854426673312
 20
1975.499999999995
 30
0.0
 10
856.4865466554616
 20
1975.499999999995
 30
0.0
 10
856.156044472106
 20
1975.499999999995
 30
0.0
  0
LINE
  5
103
330
87
100
AcDbEntity
  8
P-SANR-FIXT
100
AcDbLine
 10
827.2853574818102
 20
2035.681924490865
 30
0.0
 11
827.2853574818102
 21
2038.270000000057
 31
0.0
  0
ARC
  5
104
330
87
100
AcDbEntity
  8
P-SANR-FIXT
100
AcDbCircle
 10
830.1664074431878
 20
2039.654700538374
 30
0.0
 40
2.000000000000122
100
AcDbArc
 50
300.0000000000003
 51
0.0
  0
LINE
  5
105
330
87
100
AcDbEntity
  8
P-SANR-FIXT
100
AcDbLine
 10
832.1664074431877
 20
2039.654700538374
 30
0.0
 11
832.1664074431877
 21
2042.499999999995
 31
0.0
  0
LINE
  5
106
330
87
100
AcDbEntity
  8
P-SANR-FIXT
100
AcDbLine
 10
831.3421375129959
 20
2042.499999999995
 30
0.0
 11
832.1664074431877
 21
2042.499999999995
 31
0.0
  0
LINE
  5
107
330
87
100
AcDbEntity
  8
P-SANR-FIXT
100
AcDbLine
 10
827.2853574818102
 20
2035.681924490865
 30
0.0
 11
831.1664074431877
 21
2037.922649730806
 31
0.0
  0
LINE
  5
108
330
87
100
AcDbEntity
  8
P-SANR-FIXT
100
AcDbLine
 10
821.666407443188
 20
2066.997776269073
 30
0.0
 11
809.6664074431876
 21
2066.997776269073
 31
0.0
  0
ENDBLK
  5
10A
330
87
100
AcDbEntity
  8
0
100
AcDbBlockEnd
  0
BLOCK
  5
17B
330
10C
100
AcDbEntity
  8
0
100
AcDbBlockBegin
  2
Automatic flow rate regulator valve_Caleffi_121 DN15 - 1_2__-V1-Est - Idraulica
 70
     0
 10
0.0
 20
0.0
 30
0.0
  3
Automatic flow rate regulator valve_Caleffi_121 DN15 - 1_2__-V1-Est - Idraulica
  1

  0
LWPOLYLINE
  5
10D
330
10C
100
AcDbEntity
  8
M-PIPE
100
AcDbPolyline
 90
       54
 70
   128
 43
0.0
 10
915.3590041660912
 20
1844.784191554657
 10
915.6196171479622
 20
1844.637529571474
 10
915.8867176848186
 20
1844.500981763541
 10
916.1590650256586
 20
1844.375224351921
 10
916.4362234728343
 20
1844.260458521645
 10
916.7177496319547
 20
1844.156867873558
 10
917.0031931212204
 20
1844.064618130601
 10
917.2920972919401
 20
1843.983856872682
 10
917.5839999590705
 20
1843.914713300585
 10
917.8784341406132
 20
1843.857298029278
 10
918.1749288046869
 20
1843.811702910945
 10
918.4730096230781
 20
1843.77800088805
 10
918.7721997300643
 20
1843.75624587664
 10
919.0720204852986
 20
1843.746472680092
 10
919.3719922395306
 20
1843.748696933436
 10
919.6716351019444
 20
1843.762915078341
 10
919.9704697078798
 20
1843.789104368809
 10
920.2680179857164
 20
1843.82722290756
 10
920.5638039216825
 20
1843.877209713066
 10
920.8573543213784
 20
1843.9389848171
 10
921.1481995667851
 20
1844.012449392673
 10
921.4358743675539
 20
1844.097485912137
 10
921.7199185053711
 20
1844.193958335201
 10
921.9998775702084
 20
1844.301712326567
 10
922.2753036872843
 20
1844.420575502836
 10
922.545756233565
 20
1844.55035770828
 10
922.8108025426708
 20
1844.690851319059
 10
923.0700185970466
 20
1844.841831575363
 10
923.3229897063022
 20
1845.003056940991
 10
923.5693111706273
 20
1845.174269489751
 10
923.8085889282244
 20
1845.355195318087
 10
924.0404401857247
 20
1845.545544983271
 10
924.2644940305751
 20
1845.745013966443
 10
924.4803920244194
 20
1845.953283159782
 10
924.6877887765235
 20
1846.170019377006
 10
924.8863524963262
 20
1846.394875886403
 10
925.0757655242336
 20
1846.627492965524
 10
925.2557248398071
 20
1846.867498476666
 10
925.4259425465312
 20
1847.114508462208
 10
925.5861463323862
 20
1847.368127758867
 10
925.7360799054898
 20
1847.62795062987
 10
925.875503404109
 20
1847.89356141405
 10
926.0041937803883
 20
1848.164535190813
 10
926.1219451571779
 20
1848.44043845992
 10
926.2285691573941
 20
1848.720829834998
 10
926.3238952053816
 20
1849.005260749659
 10
926.4077707997993
 20
1849.293276175116
 10
926.4800617575875
 20
1849.584415348128
 10
926.5406524286364
 20
1849.878212508124
 10
926.5894458807967
 20
1850.174197642322
 10
926.6263640549537
 20
1850.471897237648
 10
926.6513478899048
 20
1850.770835038253
 10
926.664357416843
 20
1851.070532807429
 10
926.666407443189
 20
1851.245878730052
1001
REVIT
1002
{
1070
     3
1000
856288
1002
}
  0
LWPOLYLINE
  5
10E
330
10C
100
AcDbEntity
  8
M-PIPE
100
AcDbPolyline
 90
       54
 70
   128
 43
0.0
 10
926.666407443189
 20
1851.245878730052
 10
926.6604082431461
 20
1851.545798736452
 10
926.6424202404584
 20
1851.845238934821
 10
926.6124722120929
 20
1852.143720284719
 10
926.5706120685061
 20
1852.440765279659
 10
926.5169067769981
 20
1852.735898711015
 10
926.4514422545792
 20
1853.028648428255
 10
926.3743232305197
 20
1853.318546094283
 10
926.2856730788072
 20
1853.605127934673
 10
926.1856336207733
 20
1853.887935479615
 10
926.0743648982105
 20
1854.166516297367
 10
925.9520449173388
 20
1854.440424718047
 10
925.8188693640335
 20
1854.709222546613
 10
925.6750512907714
 20
1854.97247976388
 10
925.5208207757895
 20
1855.229775214459
 10
925.3564245550116
 20
1855.480697280515
 10
925.1821256273212
 20
1855.72484454027
 10
924.9982028338207
 20
1855.96182641019
 10
924.8049504117457
 20
1856.191263769838
 10
924.6026775237456
 20
1856.412789568381
 10
924.3917077632927
 20
1856.626049411798
 10
924.1723786369986
 20
1856.830702129833
 10
923.9450410246783
 20
1857.026420321794
 10
923.7100586180149
 20
1857.212890880325
 10
923.4678073387323
 20
1857.389815492309
 10
923.2186747371999
 20
1857.556911116111
 10
922.9630593724348
 20
1857.713910434377
 10
922.7013701744919
 20
1857.860562281689
 10
922.4340257902643
 20
1857.996632046376
 10
922.1614539137359
 20
1858.12190204584
 10
921.8840906017639
 20
1858.236171874806
 10
921.6023795764797
 20
1858.339258725924
 10
921.3167715154284
 20
1858.430997682221
 10
921.0277233305815
 20
1858.511241980939
 10
920.7356974373743
 20
1858.579863248317
 10
920.4411610149405
 20
1858.636751704966
 10
920.144585258725
 20
1858.68181634149
 10
919.8464446266712
 20
1858.714985064084
 10
919.5472160801907
 20
1858.736204809869
 10
919.2473783211259
 20
1858.745441631777
 10
918.9474110259292
 20
1858.742680752863
 10
918.6477940782834
 20
1858.727926589946
 10
918.3490068013897
 20
1858.701202746537
 10
918.0515271911536
 20
1858.662551975087
 10
917.7558311514923
 20
1858.612036108584
 10
917.4623917329906
 20
1858.549735961639
 10
917.1716783761214
 20
1858.475751201195
 10
916.88415616024
 20
1858.390200187089
 10
916.6002850595573
 20
1858.293219782692
 10
916.3205192072776
 20
1858.184965135963
 10
916.0453061690851
 20
1858.065609431245
 10
915.7750862271321
 20
1857.935343612203
 10
915.510291675681
 20
1857.794376076359
 10
915.3929481121551
 20
1857.727452344477
1001
REVIT
1002
{
1070
     3
1000
856288
1002
}
  0
LWPOLYLINE
  5
10F
330
10C
100
AcDbEntity
  8
M-PIPE
100
AcDbPolyline
 90
       70
 70
   128
 43
0.0
 10
799.7069881380927
 20
1851.245878730052
 10
799.7197539712894
 20
1850.607672178036
 10
799.7580310482701
 20
1849.970486620359
 10
799.8217581338765
 20
1849.335341417989
 10
799.9108332783663
 20
1848.703252667759
 10
800.0251139805097
 20
1848.075231576831
 10
800.1644174155623
 20
1847.452282844979
 10
800.3285207277443
 20
1846.835403057285
 10
800.5171613867629
 20
1846.225579089817
 10
800.7300376078051
 20
1845.623786530833
 10
800.9668088343282
 20
1845.030988120053
 10
801.2270962828782
 20
1844.448132208475
 10
801.5104835490628
 20
1843.876151241224
 10
801.8165172737088
 20
1843.31596026583
 10
802.1447078681401
 20
1842.768455468353
 10
802.494530297416
 20
1842.234512739674
 10
802.8654249202746
 20
1841.714986274257
 10
803.2567983844392
 20
1841.210707203622
 10
803.6680245758558
 20
1840.722482266706
 10
804.0984456203416
 20
1840.25109251926
 10
804.5473729360436
 20
1839.797292084321
 10
805.0140883350231
 20
1839.361806945782
 10
805.4978451722019
 20
1838.945333786963
 10
805.9978695398367
 20
1838.548538876078
 10
806.5133615056057
 20
1838.172057000337
 10
807.0434963923288
 20
1837.81649045043
 10
807.5874260972772
 20
1837.482408056988
 10
808.1442804489549
 20
1837.170344280572
 10
808.7131685991888
 20
1836.880798356655
 10
809.2931804482944
 20
1836.614233496947
 10
809.8833881010426
 20
1836.371076148362
 10
810.4828473510931
 20
1836.151715310785
 10
811.090599191524
 20
1835.956501914763
 10
811.7056713490368
 20
1835.785748260086
 10
812.3270798393887
 20
1835.639727516175
 10
812.9538305415545
 20
1835.518673285072
 10
813.5849207881109
 20
1835.422779227723
 10
814.2193409692888
 20
1835.352198754162
 10
814.8560761481334
 20
1835.307044778092
 10
815.494107684189
 20
1835.287389536243
 10
816.1324148631035
 20
1835.293264472807
 10
816.769976529556
 20
1835.324660189139
 10
817.4057727208856
 20
1835.381526458792
 10
818.0387862988157
 20
1835.463772307864
 10
818.6680045766573
 20
1835.571266160542
 10
819.2924209393918
 20
1835.703836049592
 10
819.9110364540411
 20
1835.861269891472
 10
820.5228614677452
 20
1836.043315825619
 10
821.1269171909984
 20
1836.249682617372
 10
821.7222372635017
 20
1836.480040123888
 10
822.307869300134
 20
1836.734019822296
 10
822.8828764145648
 20
1837.011215399258
 10
823.4463387180728
 20
1837.311183400984
 10
823.9973547911709
 20
1837.633443942659
 10
824.5350431256865
 20
1837.977481476163
 10
825.0585435349846
 20
1838.342745614832
 10
825.5670185300846
 20
1838.728652013965
 10
826.0596546594634
 20
1839.134583305644
 10
826.5356638104039
 20
1839.559890086397
 10
826.994284469808
 20
1840.003891956102
 10
827.4347829424545
 20
1840.465878606482
 10
827.8564545247549
 20
1840.94511095745
 10
828.2586246321294
 20
1841.440822339473
 10
828.6406498781982
 20
1841.952219720088
 10
829.0019191040615
 20
1842.478484972577
 10
829.341854356025
 20
1843.018776184801
 10
829.6599118102012
 20
1843.572229006075
 10
829.9555826425116
 20
1844.13795802995
 10
830.2283938426981
 20
1844.715058210669
 10
830.2577528265604
 20
1844.784191554657
1001
REVIT
1002
{
1070
     3
1000
856288
1002
}
  0
LWPOLYLINE
  5
110
330
10C
100
AcDbEntity
  8
M-PIPE
100
AcDbPolyline
 90
       70
 70
   128
 43
0.0
 10
830.2469127437122
 20
1857.727452344477
 10
830.1057186034993
 20
1858.043625251628
 10
829.8223313373149
 20
1858.61560621888
 10
829.516297612669
 20
1859.175797194274
 10
829.1881070182379
 20
1859.723301991751
 10
828.8382845889618
 20
1860.25724472043
 10
828.4673899661031
 20
1860.776771185846
 10
828.0760165019385
 20
1861.281050256482
 10
827.6647903105219
 20
1861.769275193398
 10
827.2343692660362
 20
1862.240664940844
 10
826.785441950334
 20
1862.694465375782
 10
826.3187265513547
 20
1863.129950514322
 10
825.8349697141758
 20
1863.54642367314
 10
825.3349453465409
 20
1863.943218584026
 10
824.8194533807721
 20
1864.319700459767
 10
824.2893184940488
 20
1864.675267009673
 10
823.7453887891005
 20
1865.009349403116
 10
823.1885344374227
 20
1865.321413179532
 10
822.6196462871889
 20
1865.610959103449
 10
822.0396344380834
 20
1865.877523963156
 10
821.4494267853352
 20
1866.120681311741
 10
820.8499675352847
 20
1866.340042149318
 10
820.2422156948538
 20
1866.53525554534
 10
819.6271435373406
 20
1866.706009200018
 10
819.005735046989
 20
1866.852029943928
 10
818.3789843448231
 20
1866.973084175031
 10
817.7478940982668
 20
1867.068978232381
 10
817.113473917089
 20
1867.139558705941
 10
816.4767387382443
 20
1867.184712682011
 10
815.8387072021888
 20
1867.204367923861
 10
815.2004000232739
 20
1867.198492987297
 10
814.5628383568219
 20
1867.167097270964
 10
813.9270421654922
 20
1867.110231001311
 10
813.2940285875621
 20
1867.027985152239
 10
812.6648103097203
 20
1866.920491299562
 10
812.0403939469857
 20
1866.787921410511
 10
811.4217784323367
 20
1866.630487568632
 10
810.8099534186324
 20
1866.448441634485
 10
810.2058976953795
 20
1866.242074842731
 10
809.610577622876
 20
1866.011717336216
 10
809.0249455862437
 20
1865.757737637808
 10
808.449938471813
 20
1865.480542060845
 10
807.886476168305
 20
1865.18057405912
 10
807.3354600952068
 20
1864.858313517444
 10
806.7977717606913
 20
1864.514275983941
 10
806.2742713513932
 20
1864.149011845271
 10
805.7657963562931
 20
1863.763105446139
 10
805.2731602269142
 20
1863.357174154459
 10
804.7971510759738
 20
1862.931867373706
 10
804.3385304165697
 20
1862.487865504002
 10
803.8980319439232
 20
1862.025878853621
 10
803.4763603616228
 20
1861.546646502654
 10
803.0741902542482
 20
1861.050935120631
 10
802.6921650081797
 20
1860.539537740016
 10
802.3308957823161
 20
1860.013272487527
 10
801.9909605303526
 20
1859.472981275303
 10
801.6729030761766
 20
1858.919528454029
 10
801.3772322438661
 20
1858.353799430154
 10
801.1044210436796
 20
1857.776699249434
 10
800.8549059153411
 20
1857.189151149052
 10
800.6290860298285
 20
1856.592095080628
 10
800.4273226507866
 20
1855.98648620651
 10
800.249938556581
 20
1855.373293371705
 10
800.097217523923
 20
1854.753497553941
 10
799.9694038738852
 20
1854.128090294311
 10
799.8667020810432
 20
1853.498072111018
 10
799.7892764463565
 20
1852.864450898757
 10
799.7372508343243
 20
1852.228240316303
 10
799.7107084748271
 20
1851.590458164871
 10
799.7069881380927
 20
1851.245878730052
1001
REVIT
1002
{
1070
     3
1000
856288
1002
}
  0
LINE
  5
111
330
10C
100
AcDbEntity
  8
M-PIPE
100
AcDbLine
 10
827.1664074431875
 20
1857.727452344477
 30
0.0
 11
828.9169262887117
 21
1857.727452344477
 31
0.0
1001
REVIT
1002
{
1070
     3
1000
856288
1002
}
  0
LINE
  5
112
330
10C
100
AcDbEntity
  8
M-PIPE
100
AcDbLine
 10
828.9169262887117
 20
1857.727452344477
 30
0.0
 11
916.3398895357994
 21
1857.727452344477
 31
0.0
1001
REVIT
1002
{
1070
     3
1000
856288
1002
}
  0
LINE
  5
113
330
10C
100
AcDbEntity
  8
M-PIPE
100
AcDbLine
 10
827.1664074431875
 20
1857.727452344477
 30
0.0
 11
823.6060189563083
 21
1857.727452344477
 31
0.0
1001
REVIT
1002
{
1070
     3
1000
856288
1002
}
  0
LINE
  5
114
330
10C
100
AcDbEntity
  8
M-PIPE
100
AcDbLine
 10
916.2947182456363
 20
1844.784191554656
 30
0.0
 11
828.9169262887117
 21
1844.784191554656
 31
0.0
1001
REVIT
1002
{
1070
     3
1000
856288
1002
}
  0
LINE
  5
115
330
10C
100
AcDbEntity
  8
M-PIPE
100
AcDbLine
 10
828.9169262887117
 20
1844.784191554656
 30
0.0
 11
827.1664074431875
 21
1844.784191554656
 31
0.0
1001
REVIT
1002
{
1070
     3
1000
856288
1002
}
  0
LINE
  5
116
330
10C
100
AcDbEntity
  8
M-PIPE
100
AcDbLine
 10
823.6222120125461
 20
1844.784191554656
 30
0.0
 11
827.1664074431875
 21
1844.784191554656
 31
0.0
1001
REVIT
1002
{
1070
     3
1000
856288
1002
}
  0
LINE
  5
117
330
10C
100
AcDbEntity
  8
M-PIPE
100
AcDbLine
 10
827.1664074431875
 20
1844.784191554656
 30
0.0
 11
827.1664074431875
 21
1857.727452344477
 31
0.0
1001
REVIT
1002
{
1070
     3
1000
856288
1002
}
  0
LINE
  5
118
330
10C
100
AcDbEntity
  8
M-PIPE
100
AcDbLine
 10
828.9169262887117
 20
1844.784191554656
 30
0.0
 11
828.9169262887117
 21
1857.727452344477
 31
0.0
1001
REVIT
1002
{
1070
     3
1000
856288
1002
}
  0
ARC
  5
119
330
10C
100
AcDbEntity
  8
M-PIPE
100
AcDbCircle
 10
919.1664074431873
 20
1851.245878730052
 30
0.0
 40
7.071067811865297
100
AcDbArc
 50
180.0
 51
246.0387828868499
1001
REVIT
1002
{
1070
     3
1000
856288
1002
}
  0
ARC
  5
11A
330
10C
100
AcDbEntity
  8
M-PIPE
100
AcDbCircle
 10
919.1664074431873
 20
1851.245878730052
 30
0.0
 40
7.071067811865532
100
AcDbArc
 50
113.5613003045417
 51
179.9999999999982
1001
REVIT
1002
{
1070
     3
1000
856288
1002
}
  0
SPLINE
  5
11B
330
10C
100
AcDbEntity
  8
M-PIPE
100
AcDbSpline
210
0.0
220
0.0
230
1.0
 70
     8
 71
     3
 72
     8
 73
     4
 74
     0
 42
0.000000001
 43
0.0000000001
 40
-0.6618870268957915
 40
-0.6618870268957915
 40
-0.6618870268957915
 40
-0.6618870268957915
 40
-0.6481094877275739
 40
-0.6481094877275739
 40
-0.6481094877275739
 40
-0.6481094877275739
 10
915.7443884155652
 20
1847.412429737265
 30
0.0
 10
915.7595735982049
 20
1847.429820454133
 30
0.0
 10
915.7746668098257
 20
1847.447474795629
 30
0.0
 10
915.7896576416868
 20
1847.465386154144
 30
0.0
1001
REVIT
1002
{
1070
     3
1000
856288
1002
}
  0
SPLINE
  5
11C
330
10C
100
AcDbEntity
  8
M-PIPE
100
AcDbSpline
210
0.0
220
0.0
230
1.0
 70
    24
 71
     3
 72
     8
 73
     4
 74
     0
 42
0.000000001
 43
0.0000000001
 40
0.0
 40
0.0
 40
0.0
 40
0.0
 40
0.25
 40
0.25
 40
0.25
 40
0.25
 10
823.6222120125461
 20
1844.784191554656
 30
0.0
 10
823.7066533883815
 20
1844.784191554656
 30
0.0
 10
823.7879063076348
 20
1844.784191554656
 30
0.0
 10
823.8680308236574
 20
1844.784191554656
 30
0.0
1001
REVIT
1002
{
1070
     3
1000
856288
1002
}
  0
SPLINE
  5
11D
330
10C
100
AcDbEntity
  8
M-PIPE
100
AcDbSpline
210
0.0
220
0.0
230
1.0
 70
    24
 71
     3
 72
     8
 73
     4
 74
     0
 42
0.000000001
 43
0.0000000001
 40
0.75
 40
0.75
 40
0.75
 40
0.75
 40
1.0
 40
1.0
 40
1.0
 40
1.0
 10
823.852161702457
 20
1857.727452344477
 30
0.0
 10
823.7719213683034
 20
1857.727452344477
 30
0.0
 10
823.6905594674588
 20
1857.727452344477
 30
0.0
 10
823.6060189563083
 20
1857.727452344477
 30
0.0
1001
REVIT
1002
{
1070
     3
1000
856288
1002
}
  0
LINE
  5
11E
330
10C
100
AcDbEntity
  8
P-SANR-FIXT
100
AcDbLine
 10
789.1664074431547
 20
1877.495878730085
 30
0.0
 11
775.1767704142662
 21
1877.495878730085
 31
0.0
  0
LINE
  5
11F
330
10C
100
AcDbEntity
  8
P-SANR-FIXT
100
AcDbLine
 10
775.1767704142662
 20
1824.995878730106
 30
0.0
 11
789.1664074431547
 21
1824.995878730106
 31
0.0
  0
LINE
  5
120
330
10C
100
AcDbEntity
  8
P-SANR-FIXT
100
AcDbLine
 10
775.176770414285
 20
1877.495878730074
 30
0.0
 11
775.1395589965734
 21
1877.431426663976
 31
0.0
  0
LINE
  5
121
330
10C
100
AcDbEntity
  8
P-SANR-FIXT
100
AcDbLine
 10
775.1304599064878
 20
1877.415666577645
 30
0.0
 11
774.1720189638556
 21
1875.755598168952
 31
0.0
  0
LINE
  5
122
330
10C
100
AcDbEntity
  8
P-SANR-FIXT
100
AcDbLine
 10
774.1720189638556
 20
1826.736159291152
 30
0.0
 11
775.1304599064377
 21
1825.076090882546
 31
0.0
  0
LINE
  5
123
330
10C
100
AcDbEntity
  8
P-SANR-FIXT
100
AcDbLine
 10
775.139558996523
 20
1825.060330796216
 30
0.0
 11
775.1767704142475
 21
1824.995878730095
 31
0.0
  0
LINE
  5
124
330
10C
100
AcDbEntity
  8
P-SANR-FIXT
100
AcDbLine
 10
789.166407443136
 20
1824.995878730095
 30
0.0
 11
789.8866140522544
 21
1823.748444291155
 31
0.0
  0
LINE
  5
125
330
10C
100
AcDbEntity
  8
P-SANR-FIXT
100
AcDbLine
 10
789.8866140522544
 20
1878.743313168949
 30
0.0
 11
789.1664074431734
 21
1877.495878730074
 31
0.0
  0
LWPOLYLINE
  5
126
330
10C
100
AcDbEntity
  8
P-SANR-FIXT
100
AcDbPolyline
 90
       28
 70
   128
 43
0.0
 10
790.7526394560409
 20
1823.248444291155
 10
790.7126501218542
 20
1823.249244184494
 10
790.6727247620716
 20
1823.251642584853
 10
790.6329272487519
 20
1823.255635655301
 10
790.5933212494265
 20
1823.261217007779
 10
790.5539701252457
 20
1823.268377713314
 10
790.5149368296137
 20
1823.277106316303
 10
790.4762838074766
 20
1823.287388852844
 10
790.4380728954247
 20
1823.299208873072
 10
790.4003652227657
 20
1823.312547467477
 10
790.3632211137321
 20
1823.327383297151
 10
790.3266999909746
 20
1823.343692627934
 10
790.2908602804992
 20
1823.361449368375
 10
790.2557593181968
 20
1823.380625111477
 10
790.2214532581197
 20
1823.401189180141
 10
790.1879969826453
 20
1823.423108676245
 10
790.1554440146782
 20
1823.44634853327
 10
790.1238464320219
 20
1823.470871572403
 10
790.093254784069
 20
1823.496638562013
 10
790.0637180109297
 20
1823.523608280413
 10
790.0352833651405
 20
1823.551737581806
 10
790.0079963360694
 20
1823.580981465313
 10
789.9819005771411
 20
1823.611293146955
 10
789.9570378360038
 20
1823.64262413451
 10
789.933447887739
 20
1823.674924305081
 10
789.9111684712321
 20
1823.708141985285
 10
789.8902352287965
 20
1823.742224033921
 10
789.8866140522544
 20
1823.748444291155
  0
LWPOLYLINE
  5
127
330
10C
100
AcDbEntity
  8
P-SANR-FIXT
100
AcDbPolyline
 90
       28
 70
   128
 43
0.0
 10
789.8866140522544
 20
1878.743313168949
 10
789.9073014472997
 20
1878.777545001566
 10
789.9293412028296
 20
1878.810922177213
 10
789.9526980599373
 20
1878.843391299531
 10
789.9773346526335
 20
1878.87490042485
 10
790.0032115676258
 20
1878.905399145291
 10
790.03028740737
 20
1878.934838669407
 10
790.0585188562985
 20
1878.96317190024
 10
790.0878607501156
 20
1878.990353510665
 10
790.11826614805
 20
1879.016340015903
 10
790.1496864079517
 20
1879.04108984309
 10
790.1820712641072
 20
1879.064563397781
 10
790.2153689076548
 20
1879.086723127296
 10
790.2495260694684
 20
1879.107533580796
 10
790.2844881053755
 20
1879.126961465995
 10
790.3201990835765
 20
1879.14497570242
 10
790.3566018741245
 20
1879.161547471136
 10
790.39363824032
 20
1879.176650260847
 10
790.4312489318779
 20
1879.190259910313
 10
790.4693737797146
 20
1879.202354646997
 10
790.507951792207
 20
1879.212915121901
 10
790.546921252764
 20
1879.221924440518
 10
790.586219818562
 20
1879.229368189859
 10
790.6257846202792
 20
1879.235234461514
 10
790.6655523626724
 20
1879.2395138707
 10
790.7054594258377
 20
1879.242199571274
 10
790.7454419669866
 20
1879.24328726669
 10
790.7526394560409
 20
1879.243313168949
  0
LINE
  5
128
330
10C
100
AcDbEntity
  8
P-SANR-FIXT
100
AcDbLine
 10
790.7526394560409
 20
1823.248444291145
 30
0.0
 11
793.8664074432213
 21
1823.248444291145
 31
0.0
  0
LINE
  5
129
330
10C
100
AcDbEntity
  8
P-SANR-FIXT
100
AcDbLine
 10
793.8664074432213
 20
1879.243313168959
 30
0.0
 11
790.7526394560409
 21
1879.243313168959
 31
0.0
  0
LINE
  5
12A
330
10C
100
AcDbEntity
  8
P-SANR-FIXT
100
AcDbLine
 10
774.1720189638544
 20
1872.118411651895
 30
0.0
 11
774.1720189638544
 21
1872.808590593711
 31
0.0
  0
LINE
  5
12B
330
10C
100
AcDbEntity
  8
P-SANR-FIXT
100
AcDbLine
 10
774.1720189638544
 20
1872.808590593711
 30
0.0
 11
774.1720189638544
 21
1875.755598168952
 31
0.0
  0
LINE
  5
12C
330
10C
100
AcDbEntity
  8
P-SANR-FIXT
100
AcDbLine
 10
774.1720189638544
 20
1826.736159291152
 30
0.0
 11
774.1720189638544
 21
1829.683166865116
 31
0.0
  0
LINE
  5
12D
330
10C
100
AcDbEntity
  8
P-SANR-FIXT
100
AcDbLine
 10
774.1720189638544
 20
1829.683166865116
 30
0.0
 11
774.1720189638544
 21
1830.373345809615
 31
0.0
  0
LINE
  5
12E
330
10C
100
AcDbEntity
  8
P-SANR-FIXT
100
AcDbLine
 10
774.1720189638544
 20
1830.373345809615
 30
0.0
 11
774.1720189638544
 21
1850.555699786897
 31
0.0
  0
LINE
  5
12F
330
10C
100
AcDbEntity
  8
P-SANR-FIXT
100
AcDbLine
 10
774.1720189638544
 20
1850.555699786897
 30
0.0
 11
774.1720189638544
 21
1851.936057673207
 31
0.0
  0
LINE
  5
130
330
10C
100
AcDbEntity
  8
P-SANR-FIXT
100
AcDbLine
 10
774.1720189638544
 20
1851.936057673207
 30
0.0
 11
774.1720189638544
 21
1872.118411651895
 31
0.0
  0
SPLINE
  5
131
330
10C
100
AcDbEntity
  8
P-SANR-FIXT
100
AcDbSpline
210
0.0
220
0.0
230
1.0
 70
     8
 71
     3
 72
     9
 73
     5
 74
     0
 42
0.000000001
 43
0.0000000001
 40
0.0
 40
0.0
 40
0.0
 40
0.0
 40
0.5
 40
1.0
 40
1.0
 40
1.0
 40
1.0
 10
774.1720189638544
 20
1872.118411651895
 30
0.0
 10
774.2014304257125
 20
1871.382822143652
 30
0.0
 10
774.3983004626415
 20
1869.919411012858
 30
0.0
 10
774.8712647259968
 20
1868.471535653446
 30
0.0
 10
775.1767704142809
 20
1867.751481916586
 30
0.0
  0
LINE
  5
132
330
10C
100
AcDbEntity
  8
P-SANR-FIXT
100
AcDbLine
 10
775.1767704142809
 20
1867.751481916586
 30
0.0
 11
789.1664074431592
 21
1867.751481916586
 31
0.0
  0
SPLINE
  5
133
330
10C
100
AcDbEntity
  8
P-SANR-FIXT
100
AcDbSpline
210
0.0
220
0.0
230
1.0
 70
     8
 71
     3
 72
     9
 73
     5
 74
     0
 42
0.000000001
 43
0.0000000001
 40
0.0
 40
0.0
 40
0.0
 40
0.0
 40
0.5
 40
1.0
 40
1.0
 40
1.0
 40
1.0
 10
775.17677041429
 20
1877.175520329042
 30
0.0
 10
774.8712647260029
 20
1876.455466592178
 30
0.0
 10
774.3983004626434
 20
1875.007591232759
 30
0.0
 10
774.2014304257127
 20
1873.544180101958
 30
0.0
 10
774.1720189638544
 20
1872.808590593711
 30
0.0
  0
LINE
  5
134
330
10C
100
AcDbEntity
  8
P-SANR-FIXT
100
AcDbLine
 10
789.1664074431592
 20
1877.175520329042
 30
0.0
 11
775.17677041429
 21
1877.175520329042
 31
0.0
  0
LINE
  5
135
330
10C
100
AcDbEntity
  8
P-SANR-FIXT
100
AcDbLine
 10
789.1664074431535
 20
1877.175520329042
 30
0.0
 11
789.1664074431535
 21
1877.495878730085
 31
0.0
  0
LINE
  5
136
330
10C
100
AcDbEntity
  8
P-SANR-FIXT
100
AcDbLine
 10
775.176770414265
 20
1877.495878730085
 30
0.0
 11
775.176770414265
 21
1877.175520329042
 31
0.0
  0
LINE
  5
137
330
10C
100
AcDbEntity
  8
P-SANR-FIXT
100
AcDbLine
 10
789.1664074431535
 20
1824.995878730106
 30
0.0
 11
789.1664074431535
 21
1825.316237131148
 31
0.0
  0
LINE
  5
138
330
10C
100
AcDbEntity
  8
P-SANR-FIXT
100
AcDbLine
 10
775.176770414265
 20
1825.316237131148
 30
0.0
 11
775.176770414265
 21
1824.995878730106
 31
0.0
  0
SPLINE
  5
139
330
10C
100
AcDbEntity
  8
P-SANR-FIXT
100
AcDbSpline
210
0.0
220
0.0
230
1.0
 70
     8
 71
     3
 72
     9
 73
     5
 74
     0
 42
0.000000001
 43
0.0000000001
 40
0.0
 40
0.0
 40
0.0
 40
0.0
 40
0.5
 40
1.0
 40
1.0
 40
1.0
 40
1.0
 10
774.1720189638544
 20
1829.683166865116
 30
0.0
 10
774.2014304257949
 20
1828.9475773571
 30
0.0
 10
774.3983004627996
 20
1827.484166226756
 30
0.0
 10
774.871264726052
 20
1826.036290867788
 30
0.0
 10
775.1767704142402
 20
1825.316237131148
 30
0.0
  0
LINE
  5
13A
330
10C
100
AcDbEntity
  8
P-SANR-FIXT
100
AcDbLine
 10
789.1664074431592
 20
1825.316237131148
 30
0.0
 11
775.1767704142402
 21
1825.316237131148
 31
0.0
  0
SPLINE
  5
13B
330
10C
100
AcDbEntity
  8
P-SANR-FIXT
100
AcDbSpline
210
0.0
220
0.0
230
1.0
 70
     8
 71
     3
 72
     9
 73
     5
 74
     0
 42
0.000000001
 43
0.0000000001
 40
0.0
 40
0.0
 40
0.0
 40
0.0
 40
0.5
 40
1.0
 40
1.0
 40
1.0
 40
1.0
 10
775.1767704142491
 20
1834.740275543605
 30
0.0
 10
774.8712647260583
 20
1834.020221806962
 30
0.0
 10
774.3983004628015
 20
1832.572346447987
 30
0.0
 10
774.2014304257951
 20
1831.108935317635
 30
0.0
 10
774.1720189638544
 20
1830.373345809615
 30
0.0
  0
LINE
  5
13C
330
10C
100
AcDbEntity
  8
P-SANR-FIXT
100
AcDbLine
 10
789.1664074431592
 20
1834.740275543605
 30
0.0
 11
775.1767704142491
 21
1834.740275543605
 31
0.0
  0
LINE
  5
13D
330
10C
100
AcDbEntity
  8
P-SANR-FIXT
100
AcDbLine
 10
789.1664074431535
 20
1834.740275543605
 30
0.0
 11
789.1664074431535
 21
1841.82184031764
 31
0.0
  0
LINE
  5
13E
330
10C
100
AcDbEntity
  8
P-SANR-FIXT
100
AcDbLine
 10
775.176770414265
 20
1841.82184031764
 30
0.0
 11
775.176770414265
 21
1834.740275543605
 31
0.0
  0
SPLINE
  5
13F
330
10C
100
AcDbEntity
  8
P-SANR-FIXT
100
AcDbSpline
210
0.0
220
0.0
230
1.0
 70
     8
 71
     3
 72
     9
 73
     5
 74
     0
 42
0.000000001
 43
0.0000000001
 40
0.0
 40
0.0
 40
0.0
 40
0.0
 40
0.5
 40
1.0
 40
1.0
 40
1.0
 40
1.0
 10
774.1720189638544
 20
1850.555699786897
 30
0.0
 10
774.2014304257535
 20
1849.084520770641
 30
0.0
 10
774.3983004627193
 20
1846.157698509509
 30
0.0
 10
774.8712647260211
 20
1843.261947791136
 30
0.0
 10
775.1767704142561
 20
1841.821840317639
 30
0.0
  0
LINE
  5
140
330
10C
100
AcDbEntity
  8
P-SANR-FIXT
100
AcDbLine
 10
789.1664074431592
 20
1841.821840317639
 30
0.0
 11
775.1767704142561
 21
1841.821840317639
 31
0.0
  0
SPLINE
  5
141
330
10C
100
AcDbEntity
  8
P-SANR-FIXT
100
AcDbSpline
210
0.0
220
0.0
230
1.0
 70
     8
 71
     3
 72
     9
 73
     5
 74
     0
 42
0.000000001
 43
0.0000000001
 40
0.0
 40
0.0
 40
0.0
 40
0.0
 40
0.5
 40
1.0
 40
1.0
 40
1.0
 40
1.0
 10
775.1767704142742
 20
1860.669917142551
 30
0.0
 10
774.8712647260338
 20
1859.22980966904
 30
0.0
 10
774.3983004627233
 20
1856.334058950639
 30
0.0
 10
774.201430425754
 20
1853.407236689477
 30
0.0
 10
774.1720189638544
 20
1851.936057673207
 30
0.0
  0
LINE
  5
142
330
10C
100
AcDbEntity
  8
P-SANR-FIXT
100
AcDbLine
 10
775.176770414265
 20
1867.751481916586
 30
0.0
 11
775.176770414265
 21
1860.669917142551
 31
0.0
  0
LINE
  5
143
330
10C
100
AcDbEntity
  8
P-SANR-FIXT
100
AcDbLine
 10
789.1664074431592
 20
1860.669917142551
 30
0.0
 11
775.1767704142742
 21
1860.669917142551
 31
0.0
  0
LINE
  5
144
330
10C
100
AcDbEntity
  8
P-SANR-FIXT
100
AcDbLine
 10
789.1664074431535
 20
1860.669917142551
 30
0.0
 11
789.1664074431535
 21
1867.751481916586
 31
0.0
  0
LINE
  5
145
330
10C
100
AcDbEntity
  8
P-SANR-FIXT
100
AcDbLine
 10
789.1664074431591
 20
1841.82184031763
 30
0.0
 11
789.1664074431591
 21
1851.245878730052
 31
0.0
  0
LINE
  5
146
330
10C
100
AcDbEntity
  8
P-SANR-FIXT
100
AcDbLine
 10
789.166407443143
 20
1825.316237131124
 30
0.0
 11
789.166407443143
 21
1834.740275543598
 31
0.0
  0
LINE
  5
147
330
10C
100
AcDbEntity
  8
P-SANR-FIXT
100
AcDbLine
 10
789.1664074431735
 20
1867.751481916591
 30
0.0
 11
789.1664074431735
 21
1877.175520329034
 31
0.0
  0
LINE
  5
148
330
10C
100
AcDbEntity
  8
P-SANR-FIXT
100
AcDbLine
 10
789.1664074431617
 20
1851.245878730052
 30
0.0
 11
789.1664074431617
 21
1860.669917142551
 31
0.0
  0
LINE
  5
149
330
10C
100
AcDbEntity
  8
P-SANR-FIXT
100
AcDbLine
 10
793.8664074432213
 20
1821.245878730052
 30
0.0
 11
815.3664074432214
 21
1821.245878730052
 31
0.0
  0
LINE
  5
14A
330
10C
100
AcDbEntity
  8
P-SANR-FIXT
100
AcDbLine
 10
815.3664074432214
 20
1881.245878730053
 30
0.0
 11
793.8664074432213
 21
1881.245878730053
 31
0.0
  0
LINE
  5
14B
330
10C
100
AcDbEntity
  8
P-SANR-FIXT
100
AcDbLine
 10
793.8664074432201
 20
1821.245878730051
 30
0.0
 11
793.8664074432201
 21
1851.245878730052
 31
0.0
  0
LINE
  5
14C
330
10C
100
AcDbEntity
  8
P-SANR-FIXT
100
AcDbLine
 10
793.8664074432201
 20
1851.245878730052
 30
0.0
 11
793.8664074432201
 21
1881.245878730052
 31
0.0
  0
LINE
  5
14D
330
10C
100
AcDbEntity
  8
P-SANR-FIXT
100
AcDbLine
 10
815.3664074432203
 20
1835.295181011375
 30
0.0
 11
815.3664074432203
 21
1821.245878730051
 31
0.0
  0
LINE
  5
14E
330
10C
100
AcDbEntity
  8
P-SANR-FIXT
100
AcDbLine
 10
815.3664074432203
 20
1881.245878730052
 30
0.0
 11
815.3664074432203
 21
1867.196576448728
 31
0.0
  0
LINE
  5
14F
330
10C
100
AcDbEntity
  8
P-SANR-FIXT
100
AcDbLine
 10
815.3664074432214
 20
1823.745878730052
 30
0.0
 11
834.4447196067021
 21
1823.745878730052
 31
0.0
  0
LINE
  5
150
330
10C
100
AcDbEntity
  8
P-SANR-FIXT
100
AcDbLine
 10
834.4447196067021
 20
1878.745878730052
 30
0.0
 11
815.3664074432214
 21
1878.745878730052
 31
0.0
  0
LINE
  5
151
330
10C
100
AcDbEntity
  8
P-SANR-FIXT
100
AcDbLine
 10
834.4447196067021
 20
1823.745878730052
 30
0.0
 11
835.1664074431891
 21
1824.995878730052
 31
0.0
  0
LINE
  5
152
330
10C
100
AcDbEntity
  8
P-SANR-FIXT
100
AcDbLine
 10
835.1664074431891
 20
1877.495878730053
 30
0.0
 11
834.4447196067021
 21
1878.745878730052
 31
0.0
  0
LINE
  5
153
330
10C
100
AcDbEntity
  8
P-SANR-FIXT
100
AcDbLine
 10
835.1664074431891
 20
1824.995878730052
 30
0.0
 11
856.1560444721072
 21
1824.995878730052
 31
0.0
  0
LINE
  5
154
330
10C
100
AcDbEntity
  8
P-SANR-FIXT
100
AcDbLine
 10
856.1560444721072
 20
1877.495878730053
 30
0.0
 11
835.1664074431891
 21
1877.495878730053
 31
0.0
  0
LINE
  5
155
330
10C
100
AcDbEntity
  8
P-SANR-FIXT
100
AcDbLine
 10
856.1560444721072
 20
1824.995878730052
 30
0.0
 11
856.1932740557336
 21
1825.060362260438
 31
0.0
  0
LINE
  5
156
330
10C
100
AcDbEntity
  8
P-SANR-FIXT
100
AcDbLine
 10
856.20235497991
 20
1825.076090882491
 30
0.0
 11
857.1664074431891
 21
1826.745878730052
 31
0.0
  0
LINE
  5
157
330
10C
100
AcDbEntity
  8
P-SANR-FIXT
100
AcDbLine
 10
857.1664074431891
 20
1875.745878730052
 30
0.0
 11
856.20235497991
 21
1877.415666577614
 31
0.0
  0
LINE
  5
158
330
10C
100
AcDbEntity
  8
P-SANR-FIXT
100
AcDbLine
 10
856.1871063892935
 20
1877.442077911305
 30
0.0
 11
856.1560444721072
 21
1877.495878730053
 31
0.0
  0
LINE
  5
159
330
10C
100
AcDbEntity
  8
P-SANR-FIXT
100
AcDbLine
 10
834.4447196067008
 20
1823.755302293224
 30
0.0
 11
834.4447196067008
 21
1844.780090632691
 31
0.0
  0
LINE
  5
15A
330
10C
100
AcDbEntity
  8
P-SANR-FIXT
100
AcDbLine
 10
834.4447196067008
 20
1857.732223654962
 30
0.0
 11
834.4447196067008
 21
1864.995878730052
 31
0.0
  0
LINE
  5
15B
330
10C
100
AcDbEntity
  8
P-SANR-FIXT
100
AcDbLine
 10
834.4447196067008
 20
1864.995878730052
 30
0.0
 11
834.4447196067008
 21
1878.745878730052
 31
0.0
  0
LINE
  5
15C
330
10C
100
AcDbEntity
  8
P-SANR-FIXT
100
AcDbLine
 10
835.1664074431878
 20
1825.004873949443
 30
0.0
 11
835.1664074431878
 21
1844.781631154815
 31
0.0
  0
LINE
  5
15D
330
10C
100
AcDbEntity
  8
P-SANR-FIXT
100
AcDbLine
 10
835.1664074431878
 20
1857.732437247121
 30
0.0
 11
835.1664074431878
 21
1864.370878730051
 31
0.0
  0
LINE
  5
15E
330
10C
100
AcDbEntity
  8
P-SANR-FIXT
100
AcDbLine
 10
856.156044472106
 20
1824.995878730051
 30
0.0
 11
856.156044472106
 21
1825.31623713109
 31
0.0
  0
LINE
  5
15F
330
10C
100
AcDbEntity
  8
P-SANR-FIXT
100
AcDbLine
 10
856.156044472106
 20
1825.31623713109
 30
0.0
 11
842.1664074431879
 21
1825.31623713109
 31
0.0
  0
LINE
  5
160
330
10C
100
AcDbEntity
  8
P-SANR-FIXT
100
AcDbLine
 10
842.1664074431879
 20
1825.31623713109
 30
0.0
 11
842.1664074431879
 21
1834.740275543575
 31
0.0
  0
LINE
  5
161
330
10C
100
AcDbEntity
  8
P-SANR-FIXT
100
AcDbLine
 10
842.1664074431879
 20
1834.740275543575
 30
0.0
 11
856.156044472106
 21
1834.740275543575
 31
0.0
  0
LINE
  5
162
330
10C
100
AcDbEntity
  8
P-SANR-FIXT
100
AcDbLine
 10
856.156044472106
 20
1834.740275543575
 30
0.0
 11
856.156044472106
 21
1841.821840317566
 31
0.0
  0
LINE
  5
163
330
10C
100
AcDbEntity
  8
P-SANR-FIXT
100
AcDbLine
 10
856.156044472106
 20
1841.821840317566
 30
0.0
 11
842.1664074431879
 21
1841.821840317566
 31
0.0
  0
LINE
  5
164
330
10C
100
AcDbEntity
  8
P-SANR-FIXT
100
AcDbLine
 10
842.1664074431879
 20
1841.821840317566
 30
0.0
 11
842.1664074431879
 21
1844.778921854341
 31
0.0
  0
LINE
  5
165
330
10C
100
AcDbEntity
  8
P-SANR-FIXT
100
AcDbLine
 10
842.1664074431879
 20
1857.732704958339
 30
0.0
 11
842.1664074431879
 21
1860.669917142537
 31
0.0
  0
LINE
  5
166
330
10C
100
AcDbEntity
  8
P-SANR-FIXT
100
AcDbLine
 10
842.1664074431879
 20
1860.669917142537
 30
0.0
 11
856.156044472106
 21
1860.669917142537
 31
0.0
  0
LINE
  5
167
330
10C
100
AcDbEntity
  8
P-SANR-FIXT
100
AcDbLine
 10
856.156044472106
 20
1860.669917142537
 30
0.0
 11
856.156044472106
 21
1864.370878730051
 31
0.0
  0
LINE
  5
168
330
10C
100
AcDbEntity
  8
P-SANR-FIXT
100
AcDbLine
 10
835.1664074431878
 20
1864.370878730052
 30
0.0
 11
835.1664074431878
 21
1877.495878730052
 31
0.0
  0
LINE
  5
169
330
10C
100
AcDbEntity
  8
P-SANR-FIXT
100
AcDbLine
 10
856.156044472106
 20
1864.370878730052
 30
0.0
 11
856.156044472106
 21
1867.751481916528
 31
0.0
  0
LINE
  5
16A
330
10C
100
AcDbEntity
  8
P-SANR-FIXT
100
AcDbLine
 10
856.156044472106
 20
1867.751481916528
 30
0.0
 11
842.1664074431879
 21
1867.751481916528
 31
0.0
  0
LINE
  5
16B
330
10C
100
AcDbEntity
  8
P-SANR-FIXT
100
AcDbLine
 10
842.1664074431879
 20
1867.751481916528
 30
0.0
 11
842.1664074431879
 21
1877.175520329013
 31
0.0
  0
LINE
  5
16C
330
10C
100
AcDbEntity
  8
P-SANR-FIXT
100
AcDbLine
 10
842.1664074431879
 20
1877.175520329013
 30
0.0
 11
856.156044472106
 21
1877.175520329013
 31
0.0
  0
LINE
  5
16D
330
10C
100
AcDbEntity
  8
P-SANR-FIXT
100
AcDbLine
 10
856.156044472106
 20
1877.175520329013
 30
0.0
 11
856.156044472106
 21
1877.495878730052
 31
0.0
  0
LINE
  5
16E
330
10C
100
AcDbEntity
  8
P-SANR-FIXT
100
AcDbLine
 10
857.1664074431877
 20
1863.495878730052
 30
0.0
 11
857.1664074431877
 21
1857.729180614128
 31
0.0
  0
LINE
  5
16F
330
10C
100
AcDbEntity
  8
P-SANR-FIXT
100
AcDbLine
 10
857.1664074431877
 20
1844.782693760733
 30
0.0
 11
857.1664074431877
 21
1830.028256337333
 31
0.0
  0
LINE
  5
170
330
10C
100
AcDbEntity
  8
P-SANR-FIXT
100
AcDbLine
 10
857.1664074431877
 20
1830.028256337333
 30
0.0
 11
857.1664074431877
 21
1826.745878730052
 31
0.0
  0
LINE
  5
171
330
10C
100
AcDbEntity
  8
P-SANR-FIXT
100
AcDbLine
 10
857.1664074431877
 20
1872.463501122771
 30
0.0
 11
857.1664074431877
 21
1863.495878730052
 31
0.0
  0
LINE
  5
172
330
10C
100
AcDbEntity
  8
P-SANR-FIXT
100
AcDbLine
 10
857.1664074431877
 20
1875.745878730052
 30
0.0
 11
857.1664074431877
 21
1872.463501122771
 31
0.0
  0
SPLINE
  5
173
330
10C
100
AcDbEntity
  8
P-SANR-FIXT
100
AcDbSpline
210
0.0
220
0.0
230
1.0
 70
     8
 71
     3
 72
     8
 73
     4
 74
     0
 42
0.000000001
 43
0.0000000001
 40
0.0
 40
0.0
 40
0.0
 40
0.0
 40
0.3160470611118613
 40
0.3160470611118613
 40
0.3160470611118613
 40
0.3160470611118613
 10
856.156044472106
 20
1841.821840317566
 30
0.0
 10
856.3649529595872
 20
1842.803927927603
 30
0.0
 10
856.541476819533
 20
1843.789405333469
 30
0.0
 10
856.6856160519431
 20
1844.778272535164
 30
0.0
  0
SPLINE
  5
174
330
10C
100
AcDbEntity
  8
P-SANR-FIXT
100
AcDbSpline
210
0.0
220
0.0
230
1.0
 70
     8
 71
     3
 72
     8
 73
     4
 74
     0
 42
0.000000001
 43
0.0000000001
 40
0.6860745814984569
 40
0.6860745814984569
 40
0.6860745814984569
 40
0.6860745814984569
 40
1.0
 40
1.0
 40
1.0
 40
1.0
 10
856.6827088281156
 20
1857.733399438656
 30
0.0
 10
856.5391053298936
 20
1858.715583110074
 30
0.0
 10
856.3635505445573
 20
1859.694422344701
 30
0.0
 10
856.156044472106
 20
1860.669917142537
 30
0.0
  0
SPLINE
  5
175
330
10C
100
AcDbEntity
  8
P-SANR-FIXT
100
AcDbSpline
210
0.0
220
0.0
230
1.0
 70
     8
 71
     3
 72
     9
 73
     5
 74
     0
 42
0.000000001
 43
0.0000000001
 40
0.0
 40
0.0
 40
0.0
 40
0.0
 40
0.5
 40
1.0
 40
1.0
 40
1.0
 40
1.0
 10
856.156044472106
 20
1825.31623713109
 30
0.0
 10
856.4865466554616
 20
1826.093089482273
 30
0.0
 10
856.9854426673312
 20
1827.655278367829
 30
0.0
 10
857.1601219695162
 20
1829.234435619768
 30
0.0
 10
857.1664074431877
 20
1830.028256337333
 30
0.0
  0
SPLINE
  5
176
330
10C
100
AcDbEntity
  8
P-SANR-FIXT
100
AcDbSpline
210
0.0
220
0.0
230
1.0
 70
     8
 71
     3
 72
     9
 73
     5
 74
     0
 42
0.000000001
 43
0.0000000001
 40
0.0
 40
0.0
 40
0.0
 40
0.0
 40
0.5
 40
1.0
 40
1.0
 40
1.0
 40
1.0
 10
857.1664074431877
 20
1830.028256337333
 30
0.0
 10
857.1601219695162
 20
1830.822077054898
 30
0.0
 10
856.9854426673312
 20
1832.401234306837
 30
0.0
 10
856.4865466554616
 20
1833.963423192393
 30
0.0
 10
856.156044472106
 20
1834.740275543575
 30
0.0
  0
SPLINE
  5
177
330
10C
100
AcDbEntity
  8
P-SANR-FIXT
100
AcDbSpline
210
0.0
220
0.0
230
1.0
 70
     8
 71
     3
 72
     9
 73
     5
 74
     0
 42
0.000000001
 43
0.0000000001
 40
0.0
 40
0.0
 40
0.0
 40
0.0
 40
0.5
 40
1.0
 40
1.0
 40
1.0
 40
1.0
 10
856.156044472106
 20
1867.751481916528
 30
0.0
 10
856.4865466554616
 20
1868.52833426771
 30
0.0
 10
856.9854426673312
 20
1870.090523153267
 30
0.0
 10
857.1601219695164
 20
1871.669680405205
 30
0.0
 10
857.1664074431877
 20
1872.463501122771
 30
0.0
  0
SPLINE
  5
178
330
10C
100
AcDbEntity
  8
P-SANR-FIXT
100
AcDbSpline
210
0.0
220
0.0
230
1.0
 70
     8
 71
     3
 72
     9
 73
     5
 74
     0
 42
0.000000001
 43
0.0000000001
 40
0.0
 40
0.0
 40
0.0
 40
0.0
 40
0.5
 40
1.0
 40
1.0
 40
1.0
 40
1.0
 10
857.1664074431877
 20
1872.463501122771
 30
0.0
 10
857.1601219695162
 20
1873.257321840335
 30
0.0
 10
856.9854426673312
 20
1874.836479092274
 30
0.0
 10
856.4865466554616
 20
1876.39866797783
 30
0.0
 10
856.156044472106
 20
1877.175520329013
 30
0.0
  0
ARC
  5
179
330
10C
100
AcDbEntity
  8
P-SANR-FIXT
100
AcDbCircle
 10
815.6664074431878
 20
1851.245878730052
 30
0.0
 40
6.000000000000227
100
AcDbArc
 50
180.0
 51
0.0
  0
ARC
  5
17A
330
10C
100
AcDbEntity
  8
P-SANR-FIXT
100
AcDbCircle
 10
815.6664074431878
 20
1851.245878730052
 30
0.0
 40
6.000000000000227
100
AcDbArc
 50
0.0
 51
180.0
  0
ENDBLK
  5
17C
330
10C
100
AcDbEntity
  8
0
100
AcDbBlockEnd
  0
BLOCK
  5
200
330
17E
100
AcDbEntity
  8
0
100
AcDbBlockBegin
  2
Automatic flow rate regulator valve_Caleffi_121 DN15 - 1_2__-V2-Est - Idraulica
 70
     0
 10
0.0
 20
0.0
 30
0.0
  3
Automatic flow rate regulator valve_Caleffi_121 DN15 - 1_2__-V2-Est - Idraulica
  1

  0
LINE
  5
17F
330
17E
100
AcDbEntity
  8
M-PIPE
100
AcDbLine
 10
1030.573773248195
 20
2044.75255885004
 30
0.0
 11
1030.573773248195
 21
2053.059561369908
 31
0.0
1001
REVIT
1002
{
1070
     3
1000
856288
1002
}
  0
LINE
  5
180
330
17E
100
AcDbEntity
  8
M-PIPE
100
AcDbLine
 10
998.654934638003
 20
2053.059561369908
 30
0.0
 11
998.6549346380032
 21
2044.75255885004
 31
0.0
1001
REVIT
1002
{
1070
     3
1000
856288
1002
}
  0
LINE
  5
181
330
17E
100
AcDbEntity
  8
M-PIPE
100
AcDbLine
 10
1030.158010080389
 20
2053.779684300465
 30
0.0
 11
1027.387342800184
 21
2055.379329800526
 31
0.0
1001
REVIT
1002
{
1070
     3
1000
856288
1002
}
  0
LINE
  5
182
330
17E
100
AcDbEntity
  8
M-PIPE
100
AcDbLine
 10
1001.841365086014
 20
2055.379329800526
 30
0.0
 11
999.070697805809
 21
2053.779684300465
 31
0.0
1001
REVIT
1002
{
1070
     3
1000
856288
1002
}
  0
LINE
  5
183
330
17E
100
AcDbEntity
  8
M-PIPE
100
AcDbLine
 10
1026.902883056214
 20
2056.010690030987
 30
0.0
 11
1025.493943666659
 21
2061.268923417593
 31
0.0
1001
REVIT
1002
{
1070
     3
1000
856288
1002
}
  0
LINE
  5
184
330
17E
100
AcDbEntity
  8
M-PIPE
100
AcDbLine
 10
1003.734764219539
 20
2061.268923417593
 30
0.0
 11
1002.325824829984
 21
2056.010690030987
 31
0.0
1001
REVIT
1002
{
1070
     3
1000
856288
1002
}
  0
LWPOLYLINE
  5
185
330
17E
100
AcDbEntity
  8
M-PIPE
100
AcDbPolyline
 90
       21
 70
   128
 43
0.0
 10
1014.614353943099
 20
2069.252558850058
 10
1014.914273949499
 20
2069.246559650015
 10
1015.213714147868
 20
2069.228571647327
 10
1015.512195497766
 20
2069.198623618962
 10
1015.809240492706
 20
2069.156763475375
 10
1016.104373924062
 20
2069.103058183867
 10
1016.397123641303
 20
2069.037593661448
 10
1016.68702130733
 20
2068.960474637389
 10
1016.97360314772
 20
2068.871824485676
 10
1017.256410692662
 20
2068.771785027642
 10
1017.534991510414
 20
2068.660516305079
 10
1017.808899931094
 20
2068.538196324208
 10
1018.07769775966
 20
2068.405020770903
 10
1018.340954976927
 20
2068.26120269764
 10
1018.598250427506
 20
2068.106972182658
 10
1018.849172493562
 20
2067.94257596188
 10
1019.093319753317
 20
2067.76827703419
 10
1019.330301623238
 20
2067.58435424069
 10
1019.559738982885
 20
2067.391101818614
 10
1019.781264781428
 20
2067.188828930614
 10
1019.99202179942
 20
2066.980335119089
1001
REVIT
1002
{
1070
     3
1000
856288
1002
}
  0
LWPOLYLINE
  5
186
330
17E
100
AcDbEntity
  8
M-PIPE
100
AcDbPolyline
 90
       18
 70
   128
 43
0.0
 10
1020.612830207566
 20
2066.253128274812
 10
1020.758290705357
 20
2066.053958745601
 10
1020.925386329159
 20
2065.804826144069
 10
1021.082385647424
 20
2065.549210779304
 10
1021.229037494737
 20
2065.28752158136
 10
1021.365107259423
 20
2065.020177197133
 10
1021.490377258888
 20
2064.747605320604
 10
1021.604647087854
 20
2064.470242008633
 10
1021.707733938971
 20
2064.188530983348
 10
1021.799472895269
 20
2063.902922922297
 10
1021.879717193987
 20
2063.61387473745
 10
1021.948338461364
 20
2063.321848844243
 10
1022.005226918013
 20
2063.027312421809
 10
1022.050291554537
 20
2062.730736665594
 10
1022.083460277132
 20
2062.43259603354
 10
1022.104680022916
 20
2062.13336748706
 10
1022.113916844824
 20
2061.833529727994
 10
1022.113171594281
 20
2061.752558850057
1001
REVIT
1002
{
1070
     3
1000
856288
1002
}
  0
LINE
  5
187
330
17E
100
AcDbEntity
  8
M-PIPE
100
AcDbLine
 10
1014.614353943099
 20
2069.054377490667
 30
0.0
 11
1014.614353943099
 21
2069.252558850058
 31
0.0
1001
REVIT
1002
{
1070
     3
1000
856288
1002
}
  0
LWPOLYLINE
  5
188
330
17E
100
AcDbEntity
  8
M-PIPE
100
AcDbPolyline
 90
       18
 70
   128
 43
0.0
 10
1007.115536291917
 20
2061.752558850057
 10
1007.117551920288
 20
2061.971555267317
 10
1007.132306083206
 20
2062.271172214963
 10
1007.159029926614
 20
2062.569959491856
 10
1007.197680698064
 20
2062.867439102093
 10
1007.248196564567
 20
2063.163135141754
 10
1007.310496711513
 20
2063.456574560255
 10
1007.384481471956
 20
2063.747287917125
 10
1007.470032486062
 20
2064.034810133006
 10
1007.567012890459
 20
2064.31868123369
 10
1007.675267537188
 20
2064.598447085968
 10
1007.794623241907
 20
2064.873660124161
 10
1007.924889060949
 20
2065.143880066115
 10
1008.065856596793
 20
2065.408674617565
 10
1008.217300331453
 20
2065.667620163718
 10
1008.378977987259
 20
2065.920302446937
 10
1008.550630914452
 20
2066.166317229473
 10
1008.615879436179
 20
2066.25228948036
1001
REVIT
1002
{
1070
     3
1000
856288
1002
}
  0
LWPOLYLINE
  5
189
330
17E
100
AcDbEntity
  8
M-PIPE
100
AcDbPolyline
 90
       22
 70
   128
 43
0.0
 10
1009.238654764007
 20
2066.980335119089
 10
1009.331273199823
 20
2067.076003022774
 10
1009.548380088966
 20
2067.283011716617
 10
1009.773591455591
 20
2067.481172865641
 10
1010.006547009556
 20
2067.670169454279
 10
1010.246874071669
 20
2067.849699128307
 10
1010.494188169896
 20
2068.019474678543
 10
1010.748093654438
 20
2068.179224500325
 10
1011.008184330684
 20
2068.328693028015
 10
1011.274044109035
 20
2068.467641143854
 10
1011.545247670559
 20
2068.595846560497
 10
1011.821361147411
 20
2068.713104176628
 10
1012.10194281693
 20
2068.819226405073
 10
1012.386543808298
 20
2068.914043472905
 10
1012.674708820641
 20
2068.997403693042
 10
1012.965976851411
 20
2069.069173706916
 10
1013.259881933892
 20
2069.129238697813
 10
1013.55595388265
 20
2069.177502574561
 10
1013.853719045725
 20
2069.213888125254
 10
1014.152701062375
 20
2069.238337140772
 10
1014.452421625154
 20
2069.250810507905
 10
1014.614353943099
 20
2069.252558850058
1001
REVIT
1002
{
1070
     3
1000
856288
1002
}
  0
LINE
  5
18A
330
17E
100
AcDbEntity
  8
M-PIPE
100
AcDbLine
 10
1014.614353943099
 20
2069.054377490667
 30
0.0
 11
1014.614353943099
 21
2069.252558850058
 31
0.0
1001
REVIT
1002
{
1070
     3
1000
856288
1002
}
  0
LWPOLYLINE
  5
18B
330
17E
100
AcDbEntity
  8
M-PIPE
100
AcDbPolyline
 90
       28
 70
   128
 43
0.0
 10
1030.158010080389
 20
2053.779684300465
 10
1030.186474750726
 20
2053.76248218667
 10
1030.214228751285
 20
2053.744155549516
 10
1030.241227681587
 20
2053.724733707714
 10
1030.267428349102
 20
2053.704247732067
 10
1030.292788838351
 20
2053.682730395767
 10
1030.317268577961
 20
2053.66021612196
 10
1030.340828405572
 20
2053.636740928684
 10
1030.363430630484
 20
2053.612342371238
 10
1030.38503909396
 20
2053.587059482111
 10
1030.405619227068
 20
2053.560932708531
 10
1030.425138105984
 20
2053.534003847762
 10
1030.443564504666
 20
2053.506315980238
 10
1030.460868944808
 20
2053.477913400641
 10
1030.477023742995
 20
2053.448841547038
 10
1030.492003054999
 20
2053.419146928193
 10
1030.505782917114
 20
2053.388877049163
 10
1030.5183412845
 20
2053.358080335296
 10
1030.529658066449
 20
2053.326806054765
 10
1030.539715158524
 20
2053.295104239747
 10
1030.548496471523
 20
2053.263025606384
 10
1030.555987957219
 20
2053.230621473646
 10
1030.562177630832
 20
2053.197943681233
 10
1030.567055590206
 20
2053.165044506643
 10
1030.570614031644
 20
2053.131976581535
 10
1030.572847262401
 20
2053.098792807535
 10
1030.573751709784
 20
2053.065546271606
 10
1030.573773248195
 20
2053.059561369908
1001
REVIT
1002
{
1070
     3
1000
856288
1002
}
  0
LWPOLYLINE
  5
18C
330
17E
100
AcDbEntity
  8
M-PIPE
100
AcDbPolyline
 90
       28
 70
   128
 43
0.0
 10
998.6549346380028
 20
2053.059561369908
 10
998.6555997703801
 20
2053.092813554428
 10
998.6575941034415
 20
2053.126012542546
 10
998.6609144466795
 20
2053.159105222963
 10
998.6655554882533
 20
2053.19203865445
 10
998.6715098034869
 20
2053.224760150543
 10
998.6787678667456
 20
2053.257217363826
 10
998.6873180666764
 20
2053.289358369685
 10
998.6971467247839
 20
2053.321131749363
 10
998.7082381173111
 20
2053.352486672234
 10
998.7205745003967
 20
2053.383372977108
 10
998.7341361384588
 20
2053.413741252487
 10
998.74890133577
 20
2053.443542915609
 10
998.7648464711638
 20
2053.472730290168
 10
998.7819460358256
 20
2053.501256682593
 10
998.8001726740991
 20
2053.529076456741
 10
998.8194972272516
 20
2053.556145106909
 10
998.8398887801203
 20
2053.582419329029
 10
998.8613147105704
 20
2053.607857089952
 10
998.8837407416841
 20
2053.632417694686
 10
998.9071309965954
 20
2053.656061851503
 10
998.9314480558862
 20
2053.678751734797
 10
998.9566530174487
 20
2053.700451045593
 10
998.9827055587214
 20
2053.721125069625
 10
999.009564001196
 20
2053.740740732862
 10
999.0371853770939
 20
2053.759266654429
 10
999.0655254981058
 20
2053.776673196805
 10
999.070697805809
 20
2053.779684300465
1001
REVIT
1002
{
1070
     3
1000
856288
1002
}
  0
LWPOLYLINE
  5
18D
330
17E
100
AcDbEntity
  8
M-PIPE
100
AcDbPolyline
 90
       34
 70
   128
 43
0.0
 10
1024.863657699866
 20
2061.752558850057
 10
1024.88975154214
 20
2061.752036903616
 10
1024.915803639832
 20
2061.750471899299
 10
1024.941772315145
 20
2061.747866340777
 10
1024.967616023736
 20
2061.744224396389
 10
1024.993293421186
 20
2061.739551892468
 10
1025.018763429136
 20
2061.733856304024
 10
1025.043985301006
 20
2061.727146742784
 10
1025.068918687183
 20
2061.719433942614
 10
1025.093523699566
 20
2061.710730242349
 10
1025.117760975386
 20
2061.701049566054
 10
1025.14159174017
 20
2061.690407400744
 10
1025.16497786978
 20
2061.678820771614
 10
1025.187881951395
 20
2061.6663082148
 10
1025.210267343372
 20
2061.652889747723
 10
1025.23209823386
 20
2061.638586837068
 10
1025.253339698089
 20
2061.62342236444
 10
1025.273957754249
 20
2061.607420589761
 10
1025.293919417848
 20
2061.590607112457
 10
1025.313192754482
 20
2061.573008830505
 10
1025.331746930925
 20
2061.554653897401
 10
1025.349552264452
 20
2061.535571677125
 10
1025.366580270327
 20
2061.515792697156
 10
1025.382803707374
 20
2061.495348599645
 10
1025.398196621554
 20
2061.474272090785
 10
1025.412734387488
 20
2061.452596888494
 10
1025.426393747853
 20
2061.430357668474
 10
1025.439152850585
 20
2061.40759000873
 10
1025.45099128384
 20
2061.384330332664
 10
1025.461890108654
 20
2061.360615850793
 10
1025.471831889228
 20
2061.336484501231
 10
1025.480800720838
 20
2061.311974888989
 10
1025.488782255263
 20
2061.287126224218
 10
1025.493943666659
 20
2061.268923417593
1001
REVIT
1002
{
1070
     3
1000
856288
1002
}
  0
LWPOLYLINE
  5
18E
330
17E
100
AcDbEntity
  8
M-PIPE
100
AcDbPolyline
 90
       24
 70
   128
 43
0.0
 10
1021.076041118494
 20
2061.752558850057
 10
1021.389019785611
 20
2061.752558850057
 10
1021.691160432565
 20
2061.752558850057
 10
1021.981979698775
 20
2061.752558850057
 10
1022.261012335451
 20
2061.752558850057
 10
1022.5278119499
 20
2061.752558850057
 10
1022.781951719652
 20
2061.752558850057
 10
1023.02302507529
 20
2061.752558850057
 10
1023.25064635087
 20
2061.752558850057
 10
1023.464451400909
 20
2061.752558850057
 10
1023.664098182935
 20
2061.752558850057
 10
1023.849267304687
 20
2061.752558850057
 10
1024.01966253507
 20
2061.752558850057
 10
1024.175011278065
 20
2061.752558850057
 10
1024.315065008821
 20
2061.752558850057
 10
1024.439599671248
 20
2061.752558850057
 10
1024.548416036449
 20
2061.752558850057
 10
1024.641340021456
 20
2061.752558850057
 10
1024.718222967713
 20
2061.752558850057
 10
1024.778941878907
 20
2061.752558850057
 10
1024.823399617735
 20
2061.752558850057
 10
1024.851525061296
 20
2061.752558850057
 10
1024.863273214882
 20
2061.752558850057
 10
1024.863657699866
 20
2061.752558850057
1001
REVIT
1002
{
1070
     3
1000
856288
1002
}
  0
LWPOLYLINE
  5
18F
330
17E
100
AcDbEntity
  8
M-PIPE
100
AcDbPolyline
 90
       41
 70
   128
 43
0.0
 10
1024.863657699866
 20
2061.752558850057
 10
1024.855459350062
 20
2061.752558850057
 10
1024.830877416259
 20
2061.752558850057
 10
1024.789951224307
 20
2061.752558850057
 10
1024.732746247384
 20
2061.752558850057
 10
1024.65935400125
 20
2061.752558850057
 10
1024.569891897841
 20
2061.752558850057
 10
1024.46450305744
 20
2061.752558850057
 10
1024.343356079708
 20
2061.752558850057
 10
1024.206644773968
 20
2061.752558850057
 10
1024.054587849145
 20
2061.752558850057
 10
1023.887428563881
 20
2061.752558850057
 10
1023.705434337374
 20
2061.752558850057
 10
1023.508896321564
 20
2061.752558850057
 10
1023.298128935349
 20
2061.752558850057
 10
1023.073469361587
 20
2061.752558850057
 10
1022.83527700767
 20
2061.752558850057
 10
1022.583932930553
 20
2061.752558850057
 10
1022.319839227142
 20
2061.752558850057
 10
1022.043418391026
 20
2061.752558850057
 10
1021.755112636576
 20
2061.752558850057
 10
1021.455383191497
 20
2061.752558850057
 10
1021.144709558962
 20
2061.752558850057
 10
1020.82358875051
 20
2061.752558850057
 10
1020.492534490933
 20
2061.752558850057
 10
1020.152076396424
 20
2061.752558850057
 10
1019.802759127307
 20
2061.752558850057
 10
1019.445141516696
 20
2061.752558850057
 10
1019.07979567648
 20
2061.752558850057
 10
1018.707306082068
 20
2061.752558850057
 10
1018.32826863735
 20
2061.752558850057
 10
1017.943289721381
 20
2061.752558850057
 10
1017.552985218302
 20
2061.752558850057
 10
1017.157979532057
 20
2061.752558850057
 10
1016.758904587481
 20
2061.752558850057
 10
1016.356398819354
 20
2061.752558850057
 10
1015.95110615104
 20
2061.752558850057
 10
1015.543674964353
 20
2061.752558850057
 10
1015.134757062276
 20
2061.752558850057
 10
1014.725006626223
 20
2061.752558850057
 10
1014.614353943099
 20
2061.752558850057
1001
REVIT
1002
{
1070
     3
1000
856288
1002
}
  0
LWPOLYLINE
  5
190
330
17E
100
AcDbEntity
  8
M-PIPE
100
AcDbPolyline
 90
       34
 70
   128
 43
0.0
 10
1003.734764219539
 20
2061.268923417593
 10
1003.742021964426
 20
2061.293993044072
 10
1003.750276421562
 20
2061.31875238514
 10
1003.759514385577
 20
2061.34316183113
 10
1003.7697210777
 20
2061.367182332136
 10
1003.780880169399
 20
2061.390775460482
 10
1003.792973808509
 20
2061.413903472194
 10
1003.805982647787
 20
2061.436529367388
 10
1003.819885875866
 20
2061.458616949458
 10
1003.834661250545
 20
2061.480130882983
 10
1003.850285134379
 20
2061.501036750262
 10
1003.866732532485
 20
2061.521301106364
 10
1003.883977132534
 20
2061.540891532644
 10
1003.901991346847
 20
2061.559776688596
 10
1003.920746356522
 20
2061.577926362003
 10
1003.940212157545
 20
2061.595311517258
 10
1003.960357608787
 20
2061.61190434182
 10
1003.981150481823
 20
2061.627678290711
 10
1004.002557512492
 20
2061.642608128976
 10
1004.024544454111
 20
2061.656669972059
 10
1004.047076132265
 20
2061.669841324012
 10
1004.070116501074
 20
2061.682101113481
 10
1004.093628700864
 20
2061.693429727418
 10
1004.117575117131
 20
2061.703809042456
 10
1004.141917440716
 20
2061.713222453908
 10
1004.166616729095
 20
2061.721654902321
 10
1004.191633468676
 20
2061.729092897578
 10
1004.216927638011
 20
2061.735524540473
 10
1004.242458771826
 20
2061.740939541749
 10
1004.268186025753
 20
2061.745329238559
 10
1004.294068241673
 20
2061.748686608325
 10
1004.320064013562
 20
2061.751006279971
 10
1004.346131753732
 20
2061.752284542518
 10
1004.365050186331
 20
2061.752558850057
1001
REVIT
1002
{
1070
     3
1000
856288
1002
}
  0
LWPOLYLINE
  5
191
330
17E
100
AcDbEntity
  8
M-PIPE
100
AcDbPolyline
 90
       41
 70
   128
 43
0.0
 10
1014.614353943099
 20
2061.752558850057
 10
1014.204491109989
 20
2061.752558850057
 10
1013.79528396998
 20
2061.752558850057
 10
1013.387387167202
 20
2061.752558850057
 10
1012.981453249526
 20
2061.752558850057
 10
1012.578131624626
 20
2061.752558850057
 10
1012.178067521066
 20
2061.752558850057
 10
1011.781900956067
 20
2061.752558850057
 10
1011.390265711622
 20
2061.752558850057
 10
1011.00378832058
 20
2061.752558850057
 10
1010.62308706432
 20
2061.752558850057
 10
1010.248770983642
 20
2061.752558850057
 10
1009.881438904424
 20
2061.752558850057
 10
1009.521678479634
 20
2061.752558850057
 10
1009.170065249205
 20
2061.752558850057
 10
1008.8271617193
 20
2061.752558850057
 10
1008.493516462419
 20
2061.752558850057
 10
1008.169663239797
 20
2061.752558850057
 10
1007.856120147507
 20
2061.752558850057
 10
1007.553388787609
 20
2061.752558850057
 10
1007.261953465702
 20
2061.752558850057
 10
1006.98228041613
 20
2061.752558850057
 10
1006.714817056113
 20
2061.752558850057
 10
1006.45999126997
 20
2061.752558850057
 10
1006.218210724599
 20
2061.752558850057
 10
1005.989862217296
 20
2061.752558850057
 10
1005.775311056961
 20
2061.752558850057
 10
1005.574900479682
 20
2061.752558850057
 10
1005.388951099631
 20
2061.752558850057
 10
1005.217760396148
 20
2061.752558850057
 10
1005.061602237841
 20
2061.752558850057
 10
1004.92072644445
 20
2061.752558850057
 10
1004.795358387194
 20
2061.752558850057
 10
1004.685698628219
 20
2061.752558850057
 10
1004.591922599749
 20
2061.752558850057
 10
1004.514180323422
 20
2061.752558850057
 10
1004.452596170299
 20
2061.752558850057
 10
1004.407268661886
 20
2061.752558850057
 10
1004.378270312528
 20
2061.752558850057
 10
1004.365647513397
 20
2061.752558850057
 10
1004.365050186331
 20
2061.752558850057
1001
REVIT
1002
{
1070
     3
1000
856288
1002
}
  0
LWPOLYLINE
  5
192
330
17E
100
AcDbEntity
  8
M-PIPE
100
AcDbPolyline
 90
       24
 70
   128
 43
0.0
 10
1004.365050186331
 20
2061.752558850057
 10
1004.373248536136
 20
2061.752558850057
 10
1004.397830469939
 20
2061.752558850057
 10
1004.43875666189
 20
2061.752558850057
 10
1004.495961638814
 20
2061.752558850057
 10
1004.569353884948
 20
2061.752558850057
 10
1004.658815988357
 20
2061.752558850057
 10
1004.764204828758
 20
2061.752558850057
 10
1004.88535180649
 20
2061.752558850057
 10
1005.02206311223
 20
2061.752558850057
 10
1005.174120037053
 20
2061.752558850057
 10
1005.341279322317
 20
2061.752558850057
 10
1005.523273548823
 20
2061.752558850057
 10
1005.719811564634
 20
2061.752558850057
 10
1005.930578950849
 20
2061.752558850057
 10
1006.155238524611
 20
2061.752558850057
 10
1006.393430878528
 20
2061.752558850057
 10
1006.644774955645
 20
2061.752558850057
 10
1006.908868659056
 20
2061.752558850057
 10
1007.185289495172
 20
2061.752558850057
 10
1007.473595249622
 20
2061.752558850057
 10
1007.773324694701
 20
2061.752558850057
 10
1008.083998327236
 20
2061.752558850057
 10
1008.132780328674
 20
2061.752558850057
1001
REVIT
1002
{
1070
     3
1000
856288
1002
}
  0
LWPOLYLINE
  5
193
330
17E
100
AcDbEntity
  8
M-PIPE
100
AcDbPolyline
 90
        3
 70
   128
 43
0.0
 10
1029.731929212677
 20
2038.252558850073
 10
1029.599868762358
 20
2038.252558850073
 10
1029.573432081957
 20
2038.252558850073
1001
REVIT
1002
{
1070
     3
1000
856288
1002
}
  0
LWPOLYLINE
  5
194
330
17E
100
AcDbEntity
  8
M-PIPE
100
AcDbPolyline
 90
       31
 70
   128
 43
0.0
 10
999.4967786735262
 20
2038.252558850072
 10
999.6288391238469
 20
2038.252558850072
 10
999.7848732011391
 20
2038.252558850072
 10
999.9646312841646
 20
2038.252558850072
 10
1000.167825798337
 20
2038.252558850072
 10
1000.394131675779
 20
2038.252558850072
 10
1000.643186875363
 20
2038.252558850072
 10
1000.914592961899
 20
2038.252558850072
 10
1001.207915743545
 20
2038.252558850072
 10
1001.522685966423
 20
2038.252558850072
 10
1001.858400065323
 20
2038.252558850072
 10
1002.214520969303
 20
2038.252558850072
 10
1002.590478960884
 20
2038.252558850072
 10
1002.98567258748
 20
2038.252558850072
 10
1003.399469623592
 20
2038.252558850072
 10
1003.831208082235
 20
2038.252558850072
 10
1004.280197273972
 20
2038.252558850072
 10
1004.745718911878
 20
2038.252558850072
 10
1005.227028260638
 20
2038.252558850072
 10
1005.723355327966
 20
2038.252558850072
 10
1006.233906096434
 20
2038.252558850072
 10
1006.757863793723
 20
2038.252558850072
 10
1007.294390199289
 20
2038.252558850072
 10
1007.842626985336
 20
2038.252558850072
 10
1008.401697089957
 20
2038.252558850072
 10
1008.970706120247
 20
2038.252558850072
 10
1009.54874378314
 20
2038.252558850072
 10
1010.134885341683
 20
2038.252558850072
 10
1010.728193094419
 20
2038.252558850072
 10
1011.32771787551
 20
2038.252558850072
 10
1011.614353943082
 20
2038.252558850072
1001
REVIT
1002
{
1070
     3
1000
856288
1002
}
  0
LWPOLYLINE
  5
195
330
17E
100
AcDbEntity
  8
M-PIPE
100
AcDbPolyline
 90
       21
 70
   128
 43
0.0
 10
1026.902883056214
 20
2056.010690030987
 10
1026.914448139111
 20
2055.970742042603
 10
1026.927601464633
 20
2055.931288488313
 10
1026.942321990264
 20
2055.892392485389
 10
1026.958586166305
 20
2055.854116259137
 10
1026.976367973543
 20
2055.816521043354
 10
1026.995638964879
 20
2055.779666982366
 10
1027.016368310839
 20
2055.743613034809
 10
1027.03852284889
 20
2055.708416879308
 10
1027.062067136498
 20
2055.674134822202
 10
1027.086963507827
 20
2055.640821707471
 10
1027.11317213399
 20
2055.608530828992
 10
1027.140651086779
 20
2055.577313845281
 10
1027.169356405731
 20
2055.547220696854
 10
1027.199242168459
 20
2055.518299526329
 10
1027.230260564117
 20
2055.490596601408
 10
1027.26236196989
 20
2055.464156240862
 10
1027.295495030376
 20
2055.439020743628
 10
1027.329606739746
 20
2055.415230321139
 10
1027.364642526543
 20
2055.392823032996
 10
1027.387342800184
 20
2055.379329800526
1001
REVIT
1002
{
1070
     3
1000
856288
1002
}
  0
LWPOLYLINE
  5
196
330
17E
100
AcDbEntity
  8
M-PIPE
100
AcDbPolyline
 90
       21
 70
   128
 43
0.0
 10
1001.841365086014
 20
2055.379329800526
 10
1001.876958615991
 20
2055.400840112986
 10
1001.911663491867
 20
2055.423756581057
 10
1001.945424193244
 20
2055.448042543276
 10
1001.978186710201
 20
2055.473659147286
 10
1002.009898629701
 20
2055.500565411984
 10
1002.040509219437
 20
2055.528718293087
 10
1002.069969508995
 20
2055.55807275199
 10
1002.098232368197
 20
2055.588581827822
 10
1002.125252582497
 20
2055.620196712569
 10
1002.150986925317
 20
2055.652866829159
 10
1002.175394227196
 20
2055.686539912376
 10
1002.198435441659
 20
2055.721162092469
 10
1002.220073707679
 20
2055.756677981336
 10
1002.240274408645
 20
2055.793030761132
 10
1002.259005227745
 20
2055.830162275163
 10
1002.276236199664
 20
2055.868013120928
 10
1002.291939758523
 20
2055.906522745147
 10
1002.306090781977
 20
2055.945629540639
 10
1002.318666631408
 20
2055.98527094487
 10
1002.325824829984
 20
2056.010690030987
1001
REVIT
1002
{
1070
     3
1000
856288
1002
}
  0
LINE
  5
197
330
17E
100
AcDbEntity
  8
M-PIPE
100
AcDbLine
 10
1029.731929212676
 20
2038.252558850071
 30
0.0
 11
1027.109252902256
 21
2038.252558850071
 31
0.0
1001
REVIT
1002
{
1070
     3
1000
856288
1002
}
  0
LINE
  5
198
330
17E
100
AcDbEntity
  8
M-PIPE
100
AcDbLine
 10
1027.109252902256
 20
2038.252558850071
 30
0.0
 11
1026.621395256474
 21
2038.252558850071
 31
0.0
1001
REVIT
1002
{
1070
     3
1000
856288
1002
}
  0
LINE
  5
199
330
17E
100
AcDbEntity
  8
M-PIPE
100
AcDbLine
 10
1014.614353943098
 20
2044.752558850039
 30
0.0
 11
1030.570087363715
 21
2044.75255885004
 31
0.0
1001
REVIT
1002
{
1070
     3
1000
856288
1002
}
  0
LINE
  5
19A
330
17E
100
AcDbEntity
  8
M-PIPE
100
AcDbLine
 10
1030.289272270028
 20
2044.752558850039
 30
0.0
 11
1030.289272270028
 21
2038.799610328281
 31
0.0
1001
REVIT
1002
{
1070
     3
1000
856288
1002
}
  0
LINE
  5
19B
330
17E
100
AcDbEntity
  8
M-PIPE
100
AcDbLine
 10
998.6549346380019
 20
2044.752558850039
 30
0.0
 11
998.9394356161719
 21
2044.752558850039
 31
0.0
1001
REVIT
1002
{
1070
     3
1000
856288
1002
}
  0
LINE
  5
19C
330
17E
100
AcDbEntity
  8
M-PIPE
100
AcDbLine
 10
998.9394356161719
 20
2044.752558850039
 30
0.0
 11
998.9394356161719
 21
2038.79961032828
 31
0.0
1001
REVIT
1002
{
1070
     3
1000
856288
1002
}
  0
LINE
  5
19D
330
17E
100
AcDbEntity
  8
M-PIPE
100
AcDbLine
 10
1011.614353943081
 20
2038.79961032828
 30
0.0
 11
1011.614353943081
 21
2044.752558850039
 31
0.0
1001
REVIT
1002
{
1070
     3
1000
856288
1002
}
  0
LINE
  5
19E
330
17E
100
AcDbEntity
  8
M-PIPE
100
AcDbLine
 10
1011.61435394308
 20
2044.752558850039
 30
0.0
 11
1014.614353943098
 21
2044.752558850039
 31
0.0
1001
REVIT
1002
{
1070
     3
1000
856288
1002
}
  0
LINE
  5
19F
330
17E
100
AcDbEntity
  8
M-PIPE
100
AcDbLine
 10
1027.109252902256
 20
2044.752558850039
 30
0.0
 11
1027.109252902256
 21
2038.252558850039
 31
0.0
1001
REVIT
1002
{
1070
     3
1000
856288
1002
}
  0
LINE
  5
1A0
330
17E
100
AcDbEntity
  8
M-PIPE
100
AcDbLine
 10
1008.132780328672
 20
2061.752558850056
 30
0.0
 11
1008.132780328672
 21
2064.252558850056
 31
0.0
1001
REVIT
1002
{
1070
     3
1000
856288
1002
}
  0
LINE
  5
1A1
330
17E
100
AcDbEntity
  8
M-PIPE
100
AcDbLine
 10
1021.076041118492
 20
2064.252558850056
 30
0.0
 11
1021.076041118492
 21
2061.752558850056
 31
0.0
1001
REVIT
1002
{
1070
     3
1000
856288
1002
}
  0
LINE
  5
1A2
330
17E
100
AcDbEntity
  8
M-PIPE
100
AcDbLine
 10
1021.076041118492
 20
2064.252558850056
 30
0.0
 11
1020.614353943098
 21
2064.252558850056
 31
0.0
1001
REVIT
1002
{
1070
     3
1000
856288
1002
}
  0
LINE
  5
1A3
330
17E
100
AcDbEntity
  8
M-PIPE
100
AcDbLine
 10
1008.614353943097
 20
2064.252558850056
 30
0.0
 11
1008.132780328672
 21
2064.252558850056
 31
0.0
1001
REVIT
1002
{
1070
     3
1000
856288
1002
}
  0
SPLINE
  5
1A4
330
17E
100
AcDbEntity
  8
M-PIPE
100
AcDbSpline
210
0.0
220
0.0
230
1.0
 70
     8
 71
     3
 72
    10
 73
     6
 74
     0
 42
0.000000001
 43
0.0000000001
 40
0.0
 40
0.0
 40
0.0
 40
0.0
 40
0.25
 40
0.6666666666666666
 40
1.0
 40
1.0
 40
1.0
 40
1.0
 10
1029.731929212676
 20
2038.252558850072
 30
0.0
 10
1029.80968674762
 20
2038.254498867228
 30
0.0
 10
1029.996236452819
 20
2038.28883239128
 30
0.0
 10
1030.231257472163
 20
2038.490313370107
 30
0.0
 10
1030.285455359005
 20
2038.694830441112
 30
0.0
 10
1030.289272270029
 20
2038.799610328281
 30
0.0
1001
REVIT
1002
{
1070
     3
1000
856288
1002
}
  0
SPLINE
  5
1A5
330
17E
100
AcDbEntity
  8
M-PIPE
100
AcDbSpline
210
0.0
220
0.0
230
1.0
 70
     8
 71
     3
 72
    10
 73
     6
 74
     0
 42
0.000000001
 43
0.0000000001
 40
0.0
 40
0.0
 40
0.0
 40
0.0
 40
0.25
 40
0.6666666666666666
 40
1.0
 40
1.0
 40
1.0
 40
1.0
 10
999.4967786735248
 20
2038.252558850071
 30
0.0
 10
999.4190211385806
 20
2038.254498867228
 30
0.0
 10
999.2324714333816
 20
2038.288832391279
 30
0.0
 10
998.9974504140379
 20
2038.490313370107
 30
0.0
 10
998.9432525271956
 20
2038.694830441112
 30
0.0
 10
998.9394356161716
 20
2038.79961032828
 30
0.0
1001
REVIT
1002
{
1070
     3
1000
856288
1002
}
  0
SPLINE
  5
1A6
330
17E
100
AcDbEntity
  8
M-PIPE
100
AcDbSpline
210
0.0
220
0.0
230
1.0
 70
    24
 71
     3
 72
    10
 73
     6
 74
     0
 42
0.000000001
 43
0.0000000001
 40
0.0
 40
0.0
 40
0.0
 40
0.0
 40
0.25
 40
0.6666666666666666
 40
1.0
 40
1.0
 40
1.0
 40
1.0
 10
1011.61435394308
 20
2038.79961032828
 30
0.0
 10
1011.61435394308
 20
2038.721025412904
 30
0.0
 10
1011.61435394308
 20
2038.533402092411
 30
0.0
 10
1011.61435394308
 20
2038.306372814178
 30
0.0
 10
1011.61435394308
 20
2038.255145539613
 30
0.0
 10
1011.61435394308
 20
2038.252558850071
 30
0.0
1001
REVIT
1002
{
1070
     3
1000
856288
1002
}
  0
LWPOLYLINE
  5
1A7
330
17E
100
AcDbEntity
  8
P-SANR-FIXT
100
AcDbPolyline
 90
       80
 70
   128
 43
0.0
 10
1014.614353943099
 20
1971.985124411114
 10
1015.733952705244
 20
1972.007519372431
 10
1016.851760348205
 20
1972.074668429223
 10
1017.965988618206
 20
1972.186464157322
 10
1019.074854987704
 20
1972.342727707412
 10
1020.176585507053
 20
1972.543209091147
 10
1021.269417642446
 20
1972.78758758108
 10
1022.351603095591
 20
1973.07547222376
 10
1023.421410600618
 20
1973.406402465169
 10
1024.477128693731
 20
1973.779848887517
 10
1025.517068451189
 20
1974.195214056191
 10
1026.539566191223
 20
1974.651833475527
 10
1027.542986135569
 20
1975.148976651864
 10
1028.525723026369
 20
1975.685848262169
 10
1029.486204694236
 20
1976.261589426393
 10
1030.422894573393
 20
1976.875279081491
 10
1031.334294159851
 20
1977.525935454929
 10
1032.218945408691
 20
1978.212517635307
 10
1033.075433066633
 20
1978.933927237602
 10
1033.902386936132
 20
1979.689010160341
 10
1034.698484067401
 20
1980.476558431924
 10
1035.462450874858
 20
1981.295312143118
 10
1036.193065174582
 20
1982.143961462643
 10
1036.889158139547
 20
1983.021148732624
 10
1037.549616169503
 20
1983.925470640551
 10
1038.173382672492
 20
1984.855480464283
 10
1038.759459755172
 20
1985.809690386495
 10
1039.306909819233
 20
1986.786573874865
 10
1039.814857061358
 20
1987.784568124201
 10
1040.282488874313
 20
1988.8020765566
 10
1040.709057146956
 20
1989.837471375625
 10
1041.093879461045
 20
1990.889096170439
 10
1041.43634018297
 20
1991.955268565706
 10
1041.735891448629
 20
1993.034282913031
 10
1041.992054039899
 20
1994.124413019634
 10
1042.204418151279
 20
1995.223914909895
 10
1042.372644045492
 20
1996.331029615337
 10
1042.496462596995
 20
1997.443985988604
 10
1042.575675722516
 20
1998.561003536915
 10
1042.610156697955
 20
1999.680295270478
 10
1042.599850361105
 20
2000.800070561289
 10
1042.544773199908
 20
2001.918538007755
 10
1042.44501332607
 20
2003.033908300555
 10
1042.300730334111
 20
2004.144397085156
 10
1042.112155046039
 20
2005.24822781639
 10
1041.879589142086
 20
2006.343634600561
 10
1041.603404678088
 20
2007.428865020489
 10
1041.284043490271
 20
2008.502182939004
 10
1040.92201648841
 20
2009.5618712764
 10
1040.517902838477
 20
2010.606234757392
 10
1040.072349036108
 20
2011.633602623195
 10
1039.58606787234
 20
2012.642331304384
 10
1039.059837293299
 20
2013.630807050253
 10
1038.494499155656
 20
2014.597448510473
 10
1037.890957879833
 20
2015.540709264914
 10
1037.250179003121
 20
2016.459080297586
 10
1036.573187635032
 20
2017.351092410745
 10
1035.861066817338
 20
2018.215318575297
 10
1035.114955791434
 20
2019.050376213736
 10
1034.336048175802
 20
2019.854929411977
 10
1033.525590056468
 20
2020.627691056532
 10
1032.684877993535
 20
2021.367424893617
 10
1031.81525694696
 20
2022.072947506893
 10
1030.918118124909
 20
2022.743130210683
 10
1029.994896758118
 20
2023.376900855626
 10
1029.047069803831
 20
2023.973245543887
 10
1028.076153582982
 20
2024.531210251177
 10
1027.083701354406
 20
2025.049902352992
 10
1026.071300829958
 20
2025.528492052618
 10
1025.04057163451
 20
2025.966213708627
 10
1023.993162714896
 20
2026.362367059746
 10
1022.930749701953
 20
2026.716318345123
 10
1021.855032229866
 20
2027.027501318205
 10
1020.767731217115
 20
2027.295418152617
 10
1019.670586113377
 20
2027.519640238579
 10
1018.565352116771
 20
2027.699808868582
 10
1017.453797365923
 20
2027.835635811254
 10
1016.337700111313
 20
2027.926903772461
 10
1015.218845870462
 20
2027.973466742934
 10
1014.614353943099
 20
2027.979993288909
  0
LWPOLYLINE
  5
1A8
330
17E
100
AcDbEntity
  8
P-SANR-FIXT
100
AcDbPolyline
 90
       80
 70
   128
 43
0.0
 10
1014.614353943098
 20
2027.979993288909
 10
1013.494755180953
 20
2027.957598327591
 10
1012.376947537992
 20
2027.890449270799
 10
1011.262719267991
 20
2027.778653542701
 10
1010.153852898493
 20
2027.622389992611
 10
1009.052122379144
 20
2027.421908608876
 10
1007.959290243751
 20
2027.177530118942
 10
1006.877104790606
 20
2026.889645476262
 10
1005.807297285579
 20
2026.558715234854
 10
1004.751579192466
 20
2026.185268812506
 10
1003.711639435008
 20
2025.769903643833
 10
1002.689141694974
 20
2025.313284224495
 10
1001.685721750628
 20
2024.816141048159
 10
1000.702984859828
 20
2024.279269437854
 10
999.7425031919616
 20
2023.70352827363
 10
998.8058133128046
 20
2023.089838618532
 10
997.8944137263468
 20
2022.439182245094
 10
997.0097624775057
 20
2021.752600064715
 10
996.1532748195637
 20
2021.031190462421
 10
995.326320950066
 20
2020.276107539682
 10
994.5302238187958
 20
2019.488559268098
 10
993.7662570113388
 20
2018.669805556904
 10
993.0356427116157
 20
2017.82115623738
 10
992.3395497466502
 20
2016.943968967399
 10
991.6790917166942
 20
2016.039647059472
 10
991.0553252137056
 20
2015.109637235739
 10
990.4692481310258
 20
2014.155427313527
 10
989.9217980669639
 20
2013.178543825158
 10
989.4138508248399
 20
2012.180549575822
 10
988.9462190118843
 20
2011.163041143424
 10
988.519650739242
 20
2010.127646324398
 10
988.1348284251524
 20
2009.076021529583
 10
987.7923677032276
 20
2008.009849134317
 10
987.4928164375681
 20
2006.930834786992
 10
987.236653846298
 20
2005.840704680389
 10
987.024289734918
 20
2004.741202790127
 10
986.856063840705
 20
2003.634088084686
 10
986.7322452892027
 20
2002.521131711419
 10
986.6530321636812
 20
2001.404114163108
 10
986.6185511882424
 20
2000.284822429545
 10
986.6288575250923
 20
1999.165047138734
 10
986.6839346862901
 20
1998.046579692267
 10
986.7836945601268
 20
1996.931209399467
 10
986.927977552086
 20
1995.820720614867
 10
987.1165528401588
 20
1994.716889883633
 10
987.3491187441114
 20
1993.621483099461
 10
987.6253032081093
 20
1992.536252679534
 10
987.9446643959258
 20
1991.462934761018
 10
988.3066913977877
 20
1990.403246423622
 10
988.71080504772
 20
1989.358882942631
 10
989.156358850089
 20
1988.331515076828
 10
989.6426400138578
 20
1987.322786395639
 10
990.1688705928986
 20
1986.334310649769
 10
990.734208730541
 20
1985.367669189549
 10
991.3377500063644
 20
1984.424408435108
 10
991.9785288830759
 20
1983.506037402437
 10
992.655520251165
 20
1982.614025289278
 10
993.3676410688597
 20
1981.749799124726
 10
994.1137520947632
 20
1980.914741486287
 10
994.8926597103952
 20
1980.110188288045
 10
995.7031178297292
 20
1979.33742664349
 10
996.5438298926628
 20
1978.597692806406
 10
997.4134509392376
 20
1977.892170193129
 10
998.3105897612881
 20
1977.221987489339
 10
999.2338111280789
 20
1976.588216844396
 10
1000.181638082366
 20
1975.991872156136
 10
1001.152554303215
 20
1975.433907448845
 10
1002.145006531791
 20
1974.91521534703
 10
1003.157407056239
 20
1974.436625647405
 10
1004.188136251688
 20
1973.998903991396
 10
1005.235545171301
 20
1973.602750640276
 10
1006.297958184244
 20
1973.2487993549
 10
1007.373675656332
 20
1972.937616381818
 10
1008.460976669082
 20
1972.669699547405
 10
1009.558121772821
 20
1972.445477461444
 10
1010.663355769426
 20
1972.26530883144
 10
1011.774910520275
 20
1972.129481888768
 10
1012.891007774884
 20
1972.038213927562
 10
1014.009862015736
 20
1971.991650957088
 10
1014.614353943099
 20
1971.985124411114
  0
LINE
  5
1A9
330
17E
100
AcDbEntity
  8
P-SANR-FIXT
100
AcDbLine
 10
993.7418210212543
 20
2012.8302713468
 30
0.0
 11
993.0516420794374
 21
2011.634846353259
 31
0.0
  0
ARC
  5
1AA
330
17E
100
AcDbEntity
  8
P-SANR-FIXT
100
AcDbCircle
 10
1014.614353943097
 20
1999.982558850011
 30
0.0
 40
24.50971943889962
100
AcDbArc
 50
151.613627955411
 51
180.0
  0
ARC
  5
1AB
330
17E
100
AcDbEntity
  8
P-SANR-FIXT
100
AcDbCircle
 10
1014.614353943097
 20
1999.982558850011
 30
0.0
 40
24.50971943889979
100
AcDbArc
 50
179.9999999999998
 51
208.3863720445743
  0
LINE
  5
1AC
330
17E
100
AcDbEntity
  8
P-SANR-FIXT
100
AcDbLine
 10
993.0516420794345
 20
1988.330271346768
 30
0.0
 11
993.7418210212575
 21
1987.134846353216
 31
0.0
  0
ARC
  5
1AD
330
17E
100
AcDbEntity
  8
P-SANR-FIXT
100
AcDbCircle
 10
1014.614353943097
 20
1999.982558850011
 30
0.0
 40
24.50971943889969
100
AcDbArc
 50
211.6136279554237
 51
268.3863720414306
  0
LINE
  5
1AE
330
17E
100
AcDbEntity
  8
P-SANR-FIXT
100
AcDbLine
 10
1013.92417499993
 20
1975.482558850011
 30
0.0
 11
1015.304532886264
 21
1975.482558850011
 31
0.0
  0
ARC
  5
1AF
330
17E
100
AcDbEntity
  8
P-SANR-FIXT
100
AcDbCircle
 10
1014.614353943097
 20
1999.982558850011
 30
0.0
 40
24.50971943889972
100
AcDbArc
 50
271.6136279585663
 51
328.3863720383011
  0
LINE
  5
1B0
330
17E
100
AcDbEntity
  8
P-SANR-FIXT
100
AcDbLine
 10
1035.48688686353
 20
1987.134846350931
 30
0.0
 11
1036.177065808035
 21
1988.330271349128
 31
0.0
  0
ARC
  5
1B1
330
17E
100
AcDbEntity
  8
P-SANR-FIXT
100
AcDbCircle
 10
1014.614353943097
 20
1999.982558850011
 30
0.0
 40
24.50971943889968
100
AcDbArc
 50
331.6136279616956
 51
359.9999999999986
  0
ARC
  5
1B2
330
17E
100
AcDbEntity
  8
P-SANR-FIXT
100
AcDbCircle
 10
1014.614353943097
 20
1999.982558850011
 30
0.0
 40
24.50971943889959
100
AcDbArc
 50
0.0000000000004071
 51
28.38637203831695
  0
LINE
  5
1B3
330
17E
100
AcDbEntity
  8
P-SANR-FIXT
100
AcDbLine
 10
1036.177065808033
 20
2011.634846350899
 30
0.0
 11
1035.486886863534
 21
2012.830271349085
 31
0.0
  0
ARC
  5
1B4
330
17E
100
AcDbEntity
  8
P-SANR-FIXT
100
AcDbCircle
 10
1014.614353943097
 20
1999.982558850011
 30
0.0
 40
24.50971943889951
100
AcDbArc
 50
31.61362796168248
 51
88.38637204145912
  0
LINE
  5
1B5
330
17E
100
AcDbEntity
  8
P-SANR-FIXT
100
AcDbLine
 10
1015.304532886252
 20
2024.482558850011
 30
0.0
 11
1013.924174999942
 21
2024.482558850011
 31
0.0
  0
ARC
  5
1B6
330
17E
100
AcDbEntity
  8
P-SANR-FIXT
100
AcDbCircle
 10
1014.614353943097
 20
1999.982558850011
 30
0.0
 40
24.50971943889964
100
AcDbArc
 50
91.61362795854037
 51
148.3863720445889
  0
ARC
  5
1B7
330
17E
100
AcDbEntity
  8
P-SANR-FIXT
100
AcDbCircle
 10
1014.614353943053
 20
1999.982558850011
 30
0.0
 40
15.9
100
AcDbArc
 50
359.9999999999994
 51
180.0000000000006
  0
ARC
  5
1B8
330
17E
100
AcDbEntity
  8
P-SANR-FIXT
100
AcDbCircle
 10
1014.614353943053
 20
1999.982558850011
 30
0.0
 40
15.89999999999986
100
AcDbArc
 50
180.0000000000004
 51
0.0
  0
SPLINE
  5
1B9
330
17E
100
AcDbEntity
  8
P-SANR-FIXT
100
AcDbSpline
210
0.0
220
0.0
230
1.0
 70
    24
 71
     3
 72
     9
 73
     5
 74
     0
 42
0.000000001
 43
0.0000000001
 40
0.0
 40
0.0
 40
0.0
 40
0.0
 40
0.5
 40
1.0
 40
1.0
 40
1.0
 40
1.0
 10
993.7418210212543
 20
2012.8302713468
 30
0.0
 10
994.4774105294971
 20
2014.104349748591
 30
0.0
 10
995.9408216602913
 20
2016.639052179488
 30
0.0
 10
997.3886970197028
 20
2019.146845865016
 30
0.0
 10
998.108750756563
 20
2020.394015521438
 30
0.0
  0
SPLINE
  5
1BA
330
17E
100
AcDbEntity
  8
P-SANR-FIXT
100
AcDbSpline
210
0.0
220
0.0
230
1.0
 70
    24
 71
     3
 72
     9
 73
     5
 74
     0
 42
0.000000001
 43
0.0000000001
 40
0.0
 40
0.0
 40
0.0
 40
0.0
 40
0.5
 40
1.0
 40
1.0
 40
1.0
 40
1.0
 10
988.684712344107
 20
2004.071102178584
 30
0.0
 10
989.4047660809707
 20
2005.318271835011
 30
0.0
 10
990.8526414403896
 20
2007.826065520552
 30
0.0
 10
992.316052571191
 20
2010.360767951462
 30
0.0
 10
993.0516420794374
 20
2011.634846353259
 30
0.0
  0
ARC
  5
1BB
330
17E
100
AcDbEntity
  8
P-SANR-FIXT
100
AcDbCircle
 10
1014.614353943053
 20
1999.982558850011
 30
0.0
 40
26.2499999999893
100
AcDbArc
 50
180.0000000000001
 51
188.9605302187419
  0
ARC
  5
1BC
330
17E
100
AcDbEntity
  8
P-SANR-FIXT
100
AcDbCircle
 10
1014.614353943053
 20
1999.982558850011
 30
0.0
 40
26.24999999998922
100
AcDbArc
 50
171.0394697812576
 51
180.0000000000004
  0
SPLINE
  5
1BD
330
17E
100
AcDbEntity
  8
P-SANR-FIXT
100
AcDbSpline
210
0.0
220
0.0
230
1.0
 70
    24
 71
     3
 72
     9
 73
     5
 74
     0
 42
0.000000001
 43
0.0000000001
 40
0.0
 40
0.0
 40
0.0
 40
0.0
 40
0.5
 40
1.0
 40
1.0
 40
1.0
 40
1.0
 10
993.0516420794345
 20
1988.330271346768
 30
0.0
 10
992.3160525711885
 20
1989.604349748564
 30
0.0
 10
990.852641440388
 20
1992.139052179473
 30
0.0
 10
989.4047660809704
 20
1994.646845865011
 30
0.0
 10
988.684712344107
 20
1995.894015521438
 30
0.0
  0
SPLINE
  5
1BE
330
17E
100
AcDbEntity
  8
P-SANR-FIXT
100
AcDbSpline
210
0.0
220
0.0
230
1.0
 70
    24
 71
     3
 72
     9
 73
     5
 74
     0
 42
0.000000001
 43
0.0000000001
 40
0.0
 40
0.0
 40
0.0
 40
0.0
 40
0.5
 40
1.0
 40
1.0
 40
1.0
 40
1.0
 10
998.1087507565627
 20
1979.571102178584
 30
0.0
 10
997.3886970197032
 20
1980.818271835005
 30
0.0
 10
995.9408216602925
 20
1983.326065520531
 30
0.0
 10
994.4774105294994
 20
1985.860767951426
 30
0.0
 10
993.7418210212575
 20
1987.134846353216
 30
0.0
  0
ARC
  5
1BF
330
17E
100
AcDbEntity
  8
P-SANR-FIXT
100
AcDbCircle
 10
1014.614353943053
 20
1999.982558850011
 30
0.0
 40
26.24999999998932
100
AcDbArc
 50
231.0394697812558
 51
248.9605302187409
  0
SPLINE
  5
1C0
330
17E
100
AcDbEntity
  8
P-SANR-FIXT
100
AcDbSpline
210
0.0
220
0.0
230
1.0
 70
    24
 71
     3
 72
     9
 73
     5
 74
     0
 42
0.000000001
 43
0.0000000001
 40
0.0
 40
0.0
 40
0.0
 40
0.0
 40
0.5
 40
1.0
 40
1.0
 40
1.0
 40
1.0
 10
1013.92417499993
 20
1975.482558850011
 30
0.0
 10
1012.452995983661
 20
1975.482558850011
 30
0.0
 10
1009.526173722504
 20
1975.482558850011
 30
0.0
 10
1006.630423004106
 20
1975.482558850011
 30
0.0
 10
1005.190315530597
 20
1975.482558850011
 30
0.0
  0
SPLINE
  5
1C1
330
17E
100
AcDbEntity
  8
P-SANR-FIXT
100
AcDbSpline
210
0.0
220
0.0
230
1.0
 70
    24
 71
     3
 72
     9
 73
     5
 74
     0
 42
0.000000001
 43
0.0000000001
 40
0.0
 40
0.0
 40
0.0
 40
0.0
 40
0.5
 40
1.0
 40
1.0
 40
1.0
 40
1.0
 10
1024.038392355509
 20
1975.482558850011
 30
0.0
 10
1022.598284882014
 20
1975.482558850011
 30
0.0
 10
1019.702534163645
 20
1975.482558850011
 30
0.0
 10
1016.775711902518
 20
1975.482558850011
 30
0.0
 10
1015.304532886264
 20
1975.482558850011
 30
0.0
  0
ARC
  5
1C2
330
17E
100
AcDbEntity
  8
P-SANR-FIXT
100
AcDbCircle
 10
1014.614353943053
 20
1999.982558850011
 30
0.0
 40
26.24999999998931
100
AcDbArc
 50
291.0394697812555
 51
308.9605302187409
  0
SPLINE
  5
1C3
330
17E
100
AcDbEntity
  8
P-SANR-FIXT
100
AcDbSpline
210
0.0
220
0.0
230
1.0
 70
    24
 71
     3
 72
     9
 73
     5
 74
     0
 42
0.000000001
 43
0.0000000001
 40
0.0
 40
0.0
 40
0.0
 40
0.0
 40
0.5
 40
1.0
 40
1.0
 40
1.0
 40
1.0
 10
1035.48688686353
 20
1987.134846350931
 30
0.0
 10
1034.751297355511
 20
1985.860767949526
 30
0.0
 10
1033.28788622516
 20
1983.326065519398
 30
0.0
 10
1031.840010866186
 20
1980.818271834628
 30
0.0
 10
1031.119957129544
 20
1979.571102178583
 30
0.0
  0
SPLINE
  5
1C4
330
17E
100
AcDbEntity
  8
P-SANR-FIXT
100
AcDbSpline
210
0.0
220
0.0
230
1.0
 70
    24
 71
     3
 72
     9
 73
     5
 74
     0
 42
0.000000001
 43
0.0000000001
 40
0.0
 40
0.0
 40
0.0
 40
0.0
 40
0.5
 40
1.0
 40
1.0
 40
1.0
 40
1.0
 10
1040.543995542
 20
1995.894015521438
 30
0.0
 10
1039.823941805361
 20
1994.646845865399
 30
0.0
 10
1038.376066446394
 20
1992.139052180642
 30
0.0
 10
1036.912655316051
 20
1989.604349750526
 30
0.0
 10
1036.177065808035
 20
1988.330271349128
 30
0.0
  0
ARC
  5
1C5
330
17E
100
AcDbEntity
  8
P-SANR-FIXT
100
AcDbCircle
 10
1014.614353943053
 20
1999.982558850011
 30
0.0
 40
26.24999999998922
100
AcDbArc
 50
359.9999999999992
 51
8.960530218742199
  0
ARC
  5
1C6
330
17E
100
AcDbEntity
  8
P-SANR-FIXT
100
AcDbCircle
 10
1014.614353943053
 20
1999.982558850011
 30
0.0
 40
26.24999999998922
100
AcDbArc
 50
351.0394697812558
 51
359.9999999999985
  0
SPLINE
  5
1C7
330
17E
100
AcDbEntity
  8
P-SANR-FIXT
100
AcDbSpline
210
0.0
220
0.0
230
1.0
 70
    24
 71
     3
 72
     9
 73
     5
 74
     0
 42
0.000000001
 43
0.0000000001
 40
0.0
 40
0.0
 40
0.0
 40
0.0
 40
0.5
 40
1.0
 40
1.0
 40
1.0
 40
1.0
 10
1036.177065808033
 20
2011.634846350899
 30
0.0
 10
1036.912655316049
 20
2010.360767949499
 30
0.0
 10
1038.376066446393
 20
2007.826065519382
 30
0.0
 10
1039.82394180536
 20
2005.318271834623
 30
0.0
 10
1040.543995542
 20
2004.071102178583
 30
0.0
  0
SPLINE
  5
1C8
330
17E
100
AcDbEntity
  8
P-SANR-FIXT
100
AcDbSpline
210
0.0
220
0.0
230
1.0
 70
    24
 71
     3
 72
     9
 73
     5
 74
     0
 42
0.000000001
 43
0.0000000001
 40
0.0
 40
0.0
 40
0.0
 40
0.0
 40
0.5
 40
1.0
 40
1.0
 40
1.0
 40
1.0
 10
1031.119957129544
 20
2020.394015521438
 30
0.0
 10
1031.840010866187
 20
2019.146845865392
 30
0.0
 10
1033.287886225162
 20
2016.639052180621
 30
0.0
 10
1034.751297355514
 20
2014.10434975049
 30
0.0
 10
1035.486886863534
 20
2012.830271349085
 30
0.0
  0
ARC
  5
1C9
330
17E
100
AcDbEntity
  8
P-SANR-FIXT
100
AcDbCircle
 10
1014.614353943053
 20
1999.982558850011
 30
0.0
 40
26.24999999998944
100
AcDbArc
 50
51.03946978125743
 51
68.96053021874263
  0
SPLINE
  5
1CA
330
17E
100
AcDbEntity
  8
P-SANR-FIXT
100
AcDbSpline
210
0.0
220
0.0
230
1.0
 70
    24
 71
     3
 72
     9
 73
     5
 74
     0
 42
0.000000001
 43
0.0000000001
 40
0.0
 40
0.0
 40
0.0
 40
0.0
 40
0.5
 40
1.0
 40
1.0
 40
1.0
 40
1.0
 10
1015.304532886252
 20
2024.482558850011
 30
0.0
 10
1016.775711902508
 20
2024.482558850011
 30
0.0
 10
1019.70253416364
 20
2024.482558850011
 30
0.0
 10
1022.598284882013
 20
2024.482558850011
 30
0.0
 10
1024.03839235551
 20
2024.482558850011
 30
0.0
  0
SPLINE
  5
1CB
330
17E
100
AcDbEntity
  8
P-SANR-FIXT
100
AcDbSpline
210
0.0
220
0.0
230
1.0
 70
    24
 71
     3
 72
     9
 73
     5
 74
     0
 42
0.000000001
 43
0.0000000001
 40
0.0
 40
0.0
 40
0.0
 40
0.0
 40
0.5
 40
1.0
 40
1.0
 40
1.0
 40
1.0
 10
1005.190315530598
 20
2024.482558850011
 30
0.0
 10
1006.630423004109
 20
2024.482558850011
 30
0.0
 10
1009.52617372251
 20
2024.482558850011
 30
0.0
 10
1012.452995983672
 20
2024.482558850011
 30
0.0
 10
1013.924174999942
 20
2024.482558850011
 30
0.0
  0
ARC
  5
1CC
330
17E
100
AcDbEntity
  8
P-SANR-FIXT
100
AcDbCircle
 10
1014.614353943053
 20
1999.982558850011
 30
0.0
 40
26.24999999998929
100
AcDbArc
 50
111.0394697812577
 51
128.9605302187432
  0
ARC
  5
1CD
330
17E
100
AcDbEntity
  8
P-SANR-FIXT
100
AcDbCircle
 10
1014.614353943097
 20
1999.982558850011
 30
0.0
 40
26.24999999999905
100
AcDbArc
 50
68.9605302188306
 51
89.99999999999976
  0
ARC
  5
1CE
330
17E
100
AcDbEntity
  8
P-SANR-FIXT
100
AcDbCircle
 10
1014.614353943097
 20
1999.982558850011
 30
0.0
 40
26.24999999997119
100
AcDbArc
 50
8.960530218756545
 51
51.03946978133098
  0
ARC
  5
1CF
330
17E
100
AcDbEntity
  8
P-SANR-FIXT
100
AcDbCircle
 10
1014.614353943097
 20
1999.982558850011
 30
0.0
 40
26.24999999995949
100
AcDbArc
 50
308.9605302186672
 51
351.0394697812416
  0
ARC
  5
1D0
330
17E
100
AcDbEntity
  8
P-SANR-FIXT
100
AcDbCircle
 10
1014.614353943097
 20
1999.982558850011
 30
0.0
 40
26.24999999998005
100
AcDbArc
 50
269.9999999999995
 51
291.0394697811672
  0
ARC
  5
1D1
330
17E
100
AcDbEntity
  8
P-SANR-FIXT
100
AcDbCircle
 10
1014.614353943097
 20
1999.982558850011
 30
0.0
 40
26.2499999999989
100
AcDbArc
 50
248.9605302186527
 51
269.9999999999994
  0
ARC
  5
1D2
330
17E
100
AcDbEntity
  8
P-SANR-FIXT
100
AcDbCircle
 10
1014.614353943097
 20
1999.982558850011
 30
0.0
 40
26.25000000001227
100
AcDbArc
 50
188.9605302187269
 51
231.0394697811824
  0
ARC
  5
1D3
330
17E
100
AcDbEntity
  8
P-SANR-FIXT
100
AcDbCircle
 10
1014.614353943097
 20
1999.982558850011
 30
0.0
 40
26.25000000002414
100
AcDbArc
 50
128.9605302188163
 51
171.0394697812717
  0
ARC
  5
1D4
330
17E
100
AcDbEntity
  8
P-SANR-FIXT
100
AcDbCircle
 10
1014.614353943097
 20
1999.982558850011
 30
0.0
 40
26.25000000000364
100
AcDbArc
 50
90.0
 51
111.0394697813455
  0
ARC
  5
1D5
330
17E
100
AcDbEntity
  8
P-SANR-FIXT
100
AcDbCircle
 10
1014.614353943097
 20
1999.982558850011
 30
0.0
 40
30.00000000000023
100
AcDbArc
 50
269.9999999999997
 51
89.99999999999978
  0
ARC
  5
1D6
330
17E
100
AcDbEntity
  8
P-SANR-FIXT
100
AcDbCircle
 10
1014.614353943097
 20
1999.982558850011
 30
0.0
 40
30.00000000000018
100
AcDbArc
 50
89.99999999999969
 51
269.9999999999989
  0
ARC
  5
1D7
330
17E
100
AcDbEntity
  8
P-SANR-FIXT
100
AcDbCircle
 10
1014.614353943097
 20
1999.982558850011
 30
0.0
 40
28.54594476871461
100
AcDbArc
 50
269.9999999999998
 51
90.00000000000012
  0
ARC
  5
1D8
330
17E
100
AcDbEntity
  8
P-SANR-FIXT
100
AcDbCircle
 10
1014.614353943097
 20
1999.982558850011
 30
0.0
 40
28.54594476871478
100
AcDbArc
 50
90.00000000000021
 51
269.9999999999997
  0
LINE
  5
1D9
330
17E
100
AcDbEntity
  8
P-SANR-FIXT
100
AcDbLine
 10
1002.614353943099
 20
2038.252558850072
 30
0.0
 11
1002.614353943099
 21
2027.459453414633
 31
0.0
  0
LINE
  5
1DA
330
17E
100
AcDbEntity
  8
P-SANR-FIXT
100
AcDbLine
 10
1002.614353943099
 20
2025.859557881335
 30
0.0
 11
1002.614353943099
 21
2025.822054258769
 31
0.0
  0
LINE
  5
1DB
330
17E
100
AcDbEntity
  8
P-SANR-FIXT
100
AcDbLine
 10
1026.614353943099
 20
2025.817398261716
 30
0.0
 11
1026.614353943099
 21
2025.859557881335
 31
0.0
  0
LINE
  5
1DC
330
17E
100
AcDbEntity
  8
P-SANR-FIXT
100
AcDbLine
 10
1026.614353943099
 20
2027.459453414633
 30
0.0
 11
1026.614353943099
 21
2042.482558850011
 31
0.0
  0
LINE
  5
1DD
330
17E
100
AcDbEntity
  8
P-SANR-FIXT
100
AcDbLine
 10
1020.614353943099
 20
2042.482558850011
 30
0.0
 11
1020.614353943099
 21
2044.75255885004
 31
0.0
  0
LINE
  5
1DE
330
17E
100
AcDbEntity
  8
P-SANR-FIXT
100
AcDbLine
 10
1020.614353943099
 20
2061.752558850057
 30
0.0
 11
1020.614353943099
 21
2066.980335119089
 31
0.0
  0
LINE
  5
1DF
330
17E
100
AcDbEntity
  8
P-SANR-FIXT
100
AcDbLine
 10
1008.614353943098
 20
2066.980335119089
 30
0.0
 11
1008.614353943098
 21
2061.752558850057
 31
0.0
  0
ARC
  5
1E0
330
17E
100
AcDbEntity
  8
P-SANR-FIXT
100
AcDbCircle
 10
1014.614353943097
 20
1999.982558850011
 30
0.0
 40
28.49999999999998
100
AcDbArc
 50
299.9999999999999
 51
120.0000000000001
  0
SPLINE
  5
1E1
330
17E
100
AcDbEntity
  8
P-SANR-FIXT
100
AcDbSpline
210
0.0
220
0.0
230
1.0
 70
     8
 71
     3
 72
     8
 73
     4
 74
     0
 42
0.000000001
 43
0.0000000001
 40
0.125
 40
0.125
 40
0.125
 40
0.125
 40
0.126210420524105
 40
0.126210420524105
 40
0.126210420524105
 40
0.126210420524105
 10
1013.138306265133
 20
2028.444529602235
 30
0.0
 10
1013.133613108179
 20
2028.444286692544
 30
0.0
 10
1013.128920391479
 20
2028.444042729102
 30
0.0
 10
1013.124228120845
 20
2028.443797710176
 30
0.0
  0
SPLINE
  5
1E2
330
17E
100
AcDbEntity
  8
P-SANR-FIXT
100
AcDbSpline
210
0.0
220
0.0
230
1.0
 70
     8
 71
     3
 72
     8
 73
     4
 74
     0
 42
0.000000001
 43
0.0000000001
 40
0.5
 40
0.5
 40
0.5
 40
0.5
 40
0.625
 40
0.625
 40
0.625
 40
0.625
 10
1008.98863180808
 20
2027.921800973941
 30
0.0
 10
1008.560478454509
 20
2027.835682333174
 30
0.0
 10
1008.133031544095
 20
2027.742751873052
 30
0.0
 10
1007.730885653087
 20
2027.645067806286
 30
0.0
  0
ARC
  5
1E3
330
17E
100
AcDbEntity
  8
P-SANR-FIXT
100
AcDbCircle
 10
1014.614353943097
 20
1999.982558850011
 30
0.0
 40
28.49999999999998
100
AcDbArc
 50
120.0000000000004
 51
299.9999999999996
  0
LINE
  5
1E4
330
17E
100
AcDbEntity
  8
P-SANR-FIXT
100
AcDbLine
 10
1011.613614643802
 20
2042.482558850011
 30
0.0
 11
1014.614353943097
 21
2042.482558850011
 31
0.0
  0
LINE
  5
1E5
330
17E
100
AcDbEntity
  8
P-SANR-FIXT
100
AcDbLine
 10
1014.614353943097
 20
2042.482558850011
 30
0.0
 11
1026.614353943097
 21
2042.482558850011
 31
0.0
  0
ARC
  5
1E6
330
17E
100
AcDbEntity
  8
P-SANR-FIXT
100
AcDbCircle
 10
1014.614353943097
 20
1999.982558850011
 30
0.0
 40
28.50000000000006
100
AcDbArc
 50
110.2993561017017
 51
111.0103723914383
  0
ARC
  5
1E7
330
17E
100
AcDbEntity
  8
P-SANR-FIXT
100
AcDbCircle
 10
1014.614353943097
 20
1999.982558850011
 30
0.0
 40
28.50000000000001
100
AcDbArc
 50
115.1496780508507
 51
115.507018555691
  0
SPLINE
  5
1E8
330
17E
100
AcDbEntity
  8
P-SANR-FIXT
100
AcDbSpline
210
0.0
220
0.0
230
1.0
 70
     8
 71
     3
 72
     8
 73
     4
 74
     0
 42
0.000000001
 43
0.0000000001
 40
-1.0
 40
-1.0
 40
-1.0
 40
-1.0
 40
-0.9887269006517618
 40
-0.9887269006517618
 40
-0.9887269006517618
 40
-0.9887269006517618
 10
1004.726988267651
 20
2026.71250460379
 30
0.0
 10
1004.725501157792
 20
2026.707958972313
 30
0.0
 10
1004.724015017483
 20
2026.703413081563
 30
0.0
 10
1004.722529846283
 20
2026.698866931537
 30
0.0
  0
SPLINE
  5
1E9
330
17E
100
AcDbEntity
  8
P-SANR-FIXT
100
AcDbSpline
210
0.0
220
0.0
230
1.0
 70
     8
 71
     3
 72
     8
 73
     4
 74
     0
 42
0.000000001
 43
0.0000000001
 40
-0.0130474295609835
 40
-0.0130474295609835
 40
-0.0130474295609835
 40
-0.0130474295609835
 40
0.0
 40
0.0
 40
0.0
 40
0.0
 10
1024.506879243746
 20
2026.696720287522
 30
0.0
 10
1024.505160666996
 20
2026.701982073592
 30
0.0
 10
1024.503440792156
 20
2026.707243512348
 30
0.0
 10
1024.501719618544
 20
2026.71250460379
 30
0.0
  0
ARC
  5
1EA
330
17E
100
AcDbEntity
  8
P-SANR-FIXT
100
AcDbCircle
 10
1014.614353943097
 20
1999.982558850011
 30
0.0
 40
28.50000000000017
100
AcDbArc
 50
304.0531451218212
 51
304.5101183731206
  0
ARC
  5
1EB
330
17E
100
AcDbEntity
  8
P-SANR-FIXT
100
AcDbCircle
 10
1014.614353943097
 20
1999.982558850011
 30
0.0
 40
28.49999999999994
100
AcDbArc
 50
308.1062902436429
 51
309.0206126453724
  0
ARC
  5
1EC
330
17E
100
AcDbEntity
  8
P-SANR-FIXT
100
AcDbCircle
 10
1014.614353943097
 20
1999.982558850011
 30
0.0
 40
28.49999999999992
100
AcDbArc
 50
312.1594353654647
 51
313.5307205713866
  0
ARC
  5
1ED
330
17E
100
AcDbEntity
  8
P-SANR-FIXT
100
AcDbCircle
 10
1014.614353943097
 20
1999.982558850011
 30
0.0
 40
28.50000000000008
100
AcDbArc
 50
316.2125804872863
 51
324.3188707309301
  0
LINE
  5
1EE
330
17E
100
AcDbEntity
  8
P-SANR-FIXT
100
AcDbLine
 10
1039.871295426059
 20
1986.778888643351
 30
0.0
 11
1039.876951916982
 21
1986.78971444064
 31
0.0
  0
ARC
  5
1EF
330
17E
100
AcDbEntity
  8
P-SANR-FIXT
100
AcDbCircle
 10
1014.614353943097
 20
1999.982558850011
 30
0.0
 40
28.50000000000007
100
AcDbArc
 50
335.9930015269626
 51
336.4783060963958
  0
LINE
  5
1F0
330
17E
100
AcDbEntity
  8
P-SANR-FIXT
100
AcDbLine
 10
1041.479566388521
 20
1990.468865547078
 30
0.0
 11
1041.484854608926
 21
1990.483811881714
 31
0.0
  0
ARC
  5
1F1
330
17E
100
AcDbEntity
  8
P-SANR-FIXT
100
AcDbCircle
 10
1014.614353943097
 20
1999.982558850011
 30
0.0
 40
28.50000000000002
100
AcDbArc
 50
344.5845963400389
 51
344.9892749903091
  0
ARC
  5
1F2
330
17E
100
AcDbEntity
  8
P-SANR-FIXT
100
AcDbCircle
 10
1014.614353943097
 20
1999.982558850011
 30
0.0
 40
28.49999999999996
100
AcDbArc
 50
348.6377414618609
 51
349.4958898834128
  0
ARC
  5
1F3
330
17E
100
AcDbEntity
  8
P-SANR-FIXT
100
AcDbCircle
 10
1014.614353943097
 20
1999.982558850011
 30
0.0
 40
28.49999999999993
100
AcDbArc
 50
352.6908865836825
 51
353.9969704115966
  0
ARC
  5
1F4
330
17E
100
AcDbEntity
  8
P-SANR-FIXT
100
AcDbCircle
 10
1014.614353943097
 20
1999.982558850011
 30
0.0
 40
28.5
100
AcDbArc
 50
356.7440317055043
 51
4.850321949148402
  0
ARC
  5
1F5
330
17E
100
AcDbEntity
  8
P-SANR-FIXT
100
AcDbCircle
 10
1014.614353943097
 20
1999.982558850011
 30
0.0
 40
28.50000000000005
100
AcDbArc
 50
16.50435794044665
 51
17.00975731461395
  0
LINE
  5
1F6
330
17E
100
AcDbEntity
  8
P-SANR-FIXT
100
AcDbLine
 10
1041.221256914242
 20
2010.196407991451
 30
0.0
 11
1041.210167142548
 21
2010.225249915348
 31
0.0
  0
ARC
  5
1F7
330
17E
100
AcDbEntity
  8
P-SANR-FIXT
100
AcDbCircle
 10
1014.614353943097
 20
1999.982558850011
 30
0.0
 40
28.49999999999996
100
AcDbArc
 50
25.11604755825769
 51
25.50618545895369
  0
ARC
  5
1F8
330
17E
100
AcDbEntity
  8
P-SANR-FIXT
100
AcDbCircle
 10
1014.614353943097
 20
1999.982558850011
 30
0.0
 40
28.49999999999995
100
AcDbArc
 50
29.16919268007963
 51
30.01398487072655
  0
ARC
  5
1F9
330
17E
100
AcDbEntity
  8
P-SANR-FIXT
100
AcDbCircle
 10
1014.614353943097
 20
1999.982558850011
 30
0.0
 40
28.49999999999992
100
AcDbArc
 50
33.22233780190138
 51
34.52173657985549
  0
ARC
  5
1FA
330
17E
100
AcDbEntity
  8
P-SANR-FIXT
100
AcDbCircle
 10
1014.614353943097
 20
1999.982558850011
 30
0.0
 40
28.49999999999984
100
AcDbArc
 50
37.27548292372299
 51
45.38177316736645
  0
ARC
  5
1FB
330
17E
100
AcDbEntity
  8
P-SANR-FIXT
100
AcDbCircle
 10
1014.614353943097
 20
1999.982558850011
 30
0.0
 40
28.49999999999996
100
AcDbArc
 50
56.98874934857709
 51
57.54120853283241
  0
LINE
  5
1FC
330
17E
100
AcDbEntity
  8
P-SANR-FIXT
100
AcDbLine
 10
1028.214199662989
 20
2025.028400748321
 30
0.0
 11
1028.172114415467
 21
2025.051207217521
 31
0.0
  0
ARC
  5
1FD
330
17E
100
AcDbEntity
  8
P-SANR-FIXT
100
AcDbCircle
 10
1014.614353943097
 20
1999.982558850011
 30
0.0
 40
28.50000000000006
100
AcDbArc
 50
65.64749877647596
 51
65.99521412857029
  0
LINE
  5
1FE
330
17E
100
AcDbEntity
  8
P-SANR-FIXT
100
AcDbLine
 10
1020.614353943098
 20
2066.980335119088
 30
0.0
 11
1014.614353943097
 21
2066.980335119088
 31
0.0
  0
LINE
  5
1FF
330
17E
100
AcDbEntity
  8
P-SANR-FIXT
100
AcDbLine
 10
1014.614353943097
 20
2066.980335119088
 30
0.0
 11
1008.614353943097
 21
2066.980335119088
 31
0.0
  0
ENDBLK
  5
201
330
17E
100
AcDbEntity
  8
0
100
AcDbBlockEnd
  0
ENDSEC
  0
SECTION
  2
ENTITIES
  0
INSERT
  5
10B
330
71
100
AcDbEntity
  8
P-SANR-FIXT
100
AcDbBlockReference
  2
Automatic flow rate regulator valve_Caleffi_121 DN15 - 1_2__-859151-Est - Idraulica
 10
0.0
 20
0.0
 30
0.0
1001
REVIT
1002
{
1070
     1
1000
863131
1002
}
1002
{
1070
     5
1000
859151
1002
}
1002
{
1070
     2
1000
-2001160
1002
}
  0
INSERT
  5
17D
330
71
100
AcDbEntity
  8
P-SANR-FIXT
100
AcDbBlockReference
  2
Automatic flow rate regulator valve_Caleffi_121 DN15 - 1_2__-V1-Est - Idraulica
 10
0.0
 20
0.0
 30
0.0
1001
REVIT
1002
{
1070
     1
1000
863152
1002
}
1002
{
1070
     5
1000
859151
1002
}
1002
{
1070
     2
1000
-2001160
1002
}
  0
INSERT
  5
202
330
71
100
AcDbEntity
  8
P-SANR-FIXT
100
AcDbBlockReference
  2
Automatic flow rate regulator valve_Caleffi_121 DN15 - 1_2__-V2-Est - Idraulica
 10
0.0
 20
0.0
 30
0.0
1001
REVIT
1002
{
1070
     1
1000
863172
1002
}
1002
{
1070
     5
1000
859151
1002
}
1002
{
1070
     2
1000
-2001160
1002
}
  0
ENDSEC
  0
SECTION
  2
OBJECTS
  0
DICTIONARY
  5
C
330
0
100
AcDbDictionary
281
     1
  3
ACAD_CIP_PREVIOUS_PRODUCT_INFO
350
7A
  3
ACAD_COLOR
350
63
  3
ACAD_DETAILVIEWSTYLE
350
6B
  3
ACAD_GROUP
350
D
  3
ACAD_IMAGE_VARS
350
7B
  3
ACAD_LAYOUT
350
62
  3
ACAD_MATERIAL
350
10
  3
ACAD_MLEADERSTYLE
350
66
  3
ACAD_MLINESTYLE
350
5F
  3
ACAD_PLOTSETTINGS
350
61
  3
ACAD_PLOTSTYLENAME
350
E
  3
ACAD_SCALELIST
350
42
  3
ACAD_SECTIONVIEWSTYLE
350
68
  3
ACAD_TABLESTYLE
350
64
  3
ACAD_VISUALSTYLE
350
29
  3
ACDB_RECOMPOSE_DATA
350
20D
  3
AcDbVariableDictionary
350
7C
  3
REVIT_DICTIONARY
350
204
  0
DICTIONARY
  5
209
330
71
100
AcDbDictionary
280
     1
281
     1
  3
ACAD_SORTENTS
360
20A
  0
XRECORD
  5
7A
102
{ACAD_REACTORS
330
C
102
}
330
C
100
AcDbXrecord
280
     1
300
RVT
300
2013
300
RVT2013
  0
DICTIONARY
  5
63
102
{ACAD_REACTORS
330
C
102
}
330
C
100
AcDbDictionary
281
     1
  0
DICTIONARY
  5
6B
102
{ACAD_REACTORS
330
C
102
}
330
C
100
AcDbDictionary
281
     1
  3
Imperial24
350
6C
  0
DICTIONARY
  5
D
102
{ACAD_REACTORS
330
C
102
}
330
C
100
AcDbDictionary
281
     1
  0
RASTERVARIABLES
  5
7B
102
{ACAD_REACTORS
330
C
102
}
330
C
100
AcDbRasterVariables
 90
        0
 70
     0
 71
     1
 72
     1
  0
DICTIONARY
  5
62
102
{ACAD_REACTORS
330
C
102
}
330
C
100
AcDbDictionary
281
     1
  3
Layout1
350
70
  3
Layout2
350
78
  3
Model
350
74
  0
DICTIONARY
  5
10
102
{ACAD_REACTORS
330
C
102
}
330
C
100
AcDbDictionary
281
     1
  3
ByBlock
350
19
  3
ByLayer
350
11
  3
Global
350
21
  0
DICTIONARY
  5
66
102
{ACAD_REACTORS
330
C
102
}
330
C
100
AcDbDictionary
281
     1
  3
Standard
350
67
  0
DICTIONARY
  5
5F
102
{ACAD_REACTORS
330
C
102
}
330
C
100
AcDbDictionary
281
     1
  3
Standard
350
60
  0
DICTIONARY
  5
61
102
{ACAD_REACTORS
330
C
102
}
330
C
100
AcDbDictionary
281
     1
  0
ACDBDICTIONARYWDFLT
  5
E
102
{ACAD_REACTORS
330
C
102
}
330
C
100
AcDbDictionary
281
     1
  3
Normal
350
F
100
AcDbDictionaryWithDefault
340
F
  0
DICTIONARY
  5
42
102
{ACAD_REACTORS
330
C
102
}
330
C
100
AcDbDictionary
281
     1
  3
A0
350
43
  3
A1
350
44
  3
A2
350
45
  3
A3
350
46
  3
A4
350
47
  3
A5
350
48
  3
A6
350
49
  3
A7
350
4A
  3
A8
350
4B
  3
A9
350
4C
  3
B0
350
4D
  3
B1
350
4E
  3
B2
350
4F
  3
B3
350
50
  3
B4
350
51
  3
B5
350
52
  3
B6
350
53
  0
DICTIONARY
  5
68
102
{ACAD_REACTORS
330
C
102
}
330
C
100
AcDbDictionary
281
     1
  3
Imperial24
350
6A
  0
DICTIONARY
  5
64
102
{ACAD_REACTORS
330
C
102
}
330
C
100
AcDbDictionary
281
     1
  3
Standard
350
65
  0
DICTIONARY
  5
29
102
{ACAD_REACTORS
330
C
102
}
330
C
100
AcDbDictionary
281
     1
  3
2dWireframe
350
2F
  3
Basic
350
2E
  3
Brighten
350
35
  3
ColorChange
350
39
  3
Conceptual
350
32
  3
Dim
350
34
  3
EdgeColorOff
350
41
  3
Facepattern
350
38
  3
Flat
350
2A
  3
FlatWithEdges
350
2B
  3
Gouraud
350
2C
  3
GouraudWithEdges
350
2D
  3
Hidden
350
31
  3
JitterOff
350
3F
  3
Linepattern
350
37
  3
OverhangOff
350
40
  3
Realistic
350
33
  3
Shaded
350
3E
  3
Shaded with edges
350
3D
  3
Shades of Gray
350
3A
  3
Sketchy
350
3B
  3
Thicken
350
36
  3
Wireframe
350
30
  3
X-Ray
350
3C
  0
XRECORD
  5
20D
102
{ACAD_REACTORS
330
C
102
}
330
C
100
AcDbXrecord
280
     1
 90
        1
330
65
  0
DICTIONARY
  5
7C
102
{ACAD_REACTORS
330
C
102
}
330
C
100
AcDbDictionary
281
     1
  3
CANNOSCALE
350
81
  3
CMLEADERSTYLE
350
7E
  3
CTABLESTYLE
350
7D
  3
CVIEWDETAILSTYLE
350
7F
  3
CVIEWSECTIONSTYLE
350
80
  0
DICTIONARY
  5
204
102
{ACAD_REACTORS
330
C
102
}
330
C
100
AcDbDictionary
281
     1
  3
DRAWING_TOOL
350
208
  3
REVIT_CATEGORY_MAPPING
350
206
  3
REVIT_SUB_CATEGORY_MAPPING
350
207
  3
REVIT_TYPE_MAPPING
350
205
  0
SORTENTSTABLE
  5
20A
102
{ACAD_REACTORS
330
209
102
}
330
209
100
AcDbSortentsTable
330
71
  0
ACDBDETAILVIEWSTYLE
  5
6C
102
{ACAD_REACTORS
330
6B
102
}
330
6B
100
AcDbModelDocViewStyle
 70
     0
  3
Imperial24
290
     1
100
AcDbDetailViewStyle
 70
     0
 71
     0
 90
        3
 71
     1
340
55
 62
   256
 40
0.24
340
0
 62
   256
 40
0.24
300

 40
0.36
280
     3
 71
     2
340
5D
 90
       25
 62
   256
 71
     3
340
55
 62
   256
 40
0.24
 90
        1
 40
0.75
 90
        1
300
%<\AcVar ViewType \f "%tc1">% %<\AcVar ViewDetailId>%\PSCALA %<\AcVar ViewScale \f "%sn">%
 71
     4
340
5D
 90
       25
 62
   256
340
5D
 90
       25
 62
   256
280
     0
  0
LAYOUT
  5
70
102
{ACAD_REACTORS
330
62
102
}
330
62
100
AcDbPlotSettings
  1

  2

  4

  6

 40
0.0
 41
0.0
 42
0.0
 43
0.0
 44
0.0
 45
0.0
 46
0.0
 47
0.0
 48
0.0
 49
0.0
140
0.0
141
0.0
142
1.0
143
1.0
 70
   688
 72
     0
 73
     0
 74
     5
  7

 75
    16
147
1.0
 76
     0
 77
     2
 78
   300
148
0.0
149
0.0
100
AcDbLayout
  1
Layout1
 70
     1
 71
     1
 10
0.0
 20
0.0
 11
12.0
 21
9.0
 12
0.0
 22
0.0
 32
0.0
 14
0.0
 24
0.0
 34
0.0
 15
0.0
 25
0.0
 35
0.0
146
0.0
 13
0.0
 23
0.0
 33
0.0
 16
1.0
 26
0.0
 36
0.0
 17
0.0
 27
1.0
 37
0.0
 76
     0
330
6D
  0
LAYOUT
  5
78
102
{ACAD_REACTORS
330
62
102
}
330
62
100
AcDbPlotSettings
  1

  2

  4

  6

 40
0.0
 41
0.0
 42
0.0
 43
0.0
 44
0.0
 45
0.0
 46
0.0
 47
0.0
 48
0.0
 49
0.0
140
0.0
141
0.0
142
1.0
143
1.0
 70
   688
 72
     0
 73
     0
 74
     5
  7

 75
    16
147
1.0
 76
     0
 77
     2
 78
   300
148
0.0
149
0.0
100
AcDbLayout
  1
Layout2
 70
     1
 71
     2
 10
0.0
 20
0.0
 11
12.0
 21
9.0
 12
0.0
 22
0.0
 32
0.0
 14
0.0
 24
0.0
 34
0.0
 15
0.0
 25
0.0
 35
0.0
146
0.0
 13
0.0
 23
0.0
 33
0.0
 16
1.0
 26
0.0
 36
0.0
 17
0.0
 27
1.0
 37
0.0
 76
     0
330
75
  0
LAYOUT
  5
74
102
{ACAD_REACTORS
330
62
102
}
330
62
100
AcDbPlotSettings
  1

  2

  4

  6

 40
0.0
 41
0.0
 42
0.0
 43
0.0
 44
0.0
 45
0.0
 46
0.0
 47
0.0
 48
0.0
 49
0.0
140
0.0
141
0.0
142
1.0
143
1.0
 70
  1712
 72
     0
 73
     0
 74
     0
  7

 75
     0
147
1.0
 76
     0
 77
     2
 78
   300
148
0.0
149
0.0
100
AcDbLayout
  1
Model
 70
     1
 71
     0
 10
0.0
 20
0.0
 11
12.0
 21
9.0
 12
0.0
 22
0.0
 32
0.0
 14
0.0
 24
0.0
 34
0.0
 15
0.0
 25
0.0
 35
0.0
146
0.0
 13
0.0
 23
0.0
 33
0.0
 16
1.0
 26
0.0
 36
0.0
 17
0.0
 27
1.0
 37
0.0
 76
     0
330
71
  0
MATERIAL
  5
19
102
{ACAD_XDICTIONARY
360
1A
102
}
102
{ACAD_REACTORS
330
10
102
}
330
10
100
AcDbMaterial
  1
ByBlock
 72
     0
 43
0.0208333333333333
 43
0.0
 43
0.0
 43
0.0
 43
0.0
 43
0.0208333333333333
 43
0.0
 43
0.0
 43
0.0
 43
0.0
 43
1.0
 43
0.0
 43
0.0
 43
0.0
 43
0.0
 43
1.0
 77
     0
 47
0.0208333333333333
 47
0.0
 47
0.0
 47
0.0
 47
0.0
 47
0.0208333333333333
 47
0.0
 47
0.0
 47
0.0
 47
0.0
 47
1.0
 47
0.0
 47
0.0
 47
0.0
 47
0.0
 47
1.0
171
     0
 49
0.0208333333333333
 49
0.0
 49
0.0
 49
0.0
 49
0.0
 49
0.0208333333333333
 49
0.0
 49
0.0
 49
0.0
 49
0.0
 49
1.0
 49
0.0
 49
0.0
 49
0.0
 49
0.0
 49
1.0
175
     0
142
0.0208333333333333
142
0.0
142
0.0
142
0.0
142
0.0
142
0.0208333333333333
142
0.0
142
0.0
142
0.0
142
0.0
142
1.0
142
0.0
142
0.0
142
0.0
142
0.0
142
1.0
179
     0
144
0.0208333333333333
144
0.0
144
0.0
144
0.0
144
0.0
144
0.0208333333333333
144
0.0
144
0.0
144
0.0
144
0.0
144
1.0
144
0.0
144
0.0
144
0.0
144
0.0
144
1.0
147
0.0208333333333333
147
0.0
147
0.0
147
0.0
147
0.0
147
0.0208333333333333
147
0.0
147
0.0
147
0.0
147
0.0
147
1.0
147
0.0
147
0.0
147
0.0
147
0.0
147
1.0
  0
MATERIAL
  5
11
102
{ACAD_XDICTIONARY
360
12
102
}
102
{ACAD_REACTORS
330
10
102
}
330
10
100
AcDbMaterial
  1
ByLayer
 72
     0
 43
0.0208333333333333
 43
0.0
 43
0.0
 43
0.0
 43
0.0
 43
0.0208333333333333
 43
0.0
 43
0.0
 43
0.0
 43
0.0
 43
1.0
 43
0.0
 43
0.0
 43
0.0
 43
0.0
 43
1.0
 77
     0
 47
0.0208333333333333
 47
0.0
 47
0.0
 47
0.0
 47
0.0
 47
0.0208333333333333
 47
0.0
 47
0.0
 47
0.0
 47
0.0
 47
1.0
 47
0.0
 47
0.0
 47
0.0
 47
0.0
 47
1.0
171
     0
 49
0.0208333333333333
 49
0.0
 49
0.0
 49
0.0
 49
0.0
 49
0.0208333333333333
 49
0.0
 49
0.0
 49
0.0
 49
0.0
 49
1.0
 49
0.0
 49
0.0
 49
0.0
 49
0.0
 49
1.0
175
     0
142
0.0208333333333333
142
0.0
142
0.0
142
0.0
142
0.0
142
0.0208333333333333
142
0.0
142
0.0
142
0.0
142
0.0
142
1.0
142
0.0
142
0.0
142
0.0
142
0.0
142
1.0
179
     0
144
0.0208333333333333
144
0.0
144
0.0
144
0.0
144
0.0
144
0.0208333333333333
144
0.0
144
0.0
144
0.0
144
0.0
144
1.0
144
0.0
144
0.0
144
0.0
144
0.0
144
1.0
147
0.0208333333333333
147
0.0
147
0.0
147
0.0
147
0.0
147
0.0208333333333333
147
0.0
147
0.0
147
0.0
147
0.0
147
1.0
147
0.0
147
0.0
147
0.0
147
0.0
147
1.0
  0
MATERIAL
  5
21
102
{ACAD_XDICTIONARY
360
22
102
}
102
{ACAD_REACTORS
330
10
102
}
330
10
100
AcDbMaterial
  1
Global
 72
     0
 43
0.0208333333333333
 43
0.0
 43
0.0
 43
0.0
 43
0.0
 43
0.0208333333333333
 43
0.0
 43
0.0
 43
0.0
 43
0.0
 43
1.0
 43
0.0
 43
0.0
 43
0.0
 43
0.0
 43
1.0
 77
     0
 47
0.0208333333333333
 47
0.0
 47
0.0
 47
0.0
 47
0.0
 47
0.0208333333333333
 47
0.0
 47
0.0
 47
0.0
 47
0.0
 47
1.0
 47
0.0
 47
0.0
 47
0.0
 47
0.0
 47
1.0
171
     0
 49
0.0208333333333333
 49
0.0
 49
0.0
 49
0.0
 49
0.0
 49
0.0208333333333333
 49
0.0
 49
0.0
 49
0.0
 49
0.0
 49
1.0
 49
0.0
 49
0.0
 49
0.0
 49
0.0
 49
1.0
175
     0
142
0.0208333333333333
142
0.0
142
0.0
142
0.0
142
0.0
142
0.0208333333333333
142
0.0
142
0.0
142
0.0
142
0.0
142
1.0
142
0.0
142
0.0
142
0.0
142
0.0
142
1.0
179
     0
144
0.0208333333333333
144
0.0
144
0.0
144
0.0
144
0.0
144
0.0208333333333333
144
0.0
144
0.0
144
0.0
144
0.0
144
1.0
144
0.0
144
0.0
144
0.0
144
0.0
144
1.0
147
0.0208333333333333
147
0.0
147
0.0
147
0.0
147
0.0
147
0.0208333333333333
147
0.0
147
0.0
147
0.0
147
0.0
147
1.0
147
0.0
147
0.0
147
0.0
147
0.0
147
1.0
  0
MLEADERSTYLE
  5
67
102
{ACAD_REACTORS
330
66
102
}
330
66
100
AcDbMLeaderStyle
179
     2
170
     2
171
     1
172
     0
 90
        2
 40
0.0
 41
0.0
173
     1
 91
-1056964608
340
5B
 92
       -2
290
     1
 42
0.09
291
     1
 43
0.36
  3
Standard
 44
0.18
300

342
55
174
     1
178
     6
175
     1
176
     0
 93
-1056964608
 45
0.18
292
     0
297
     0
 46
0.18
 94
-1056964608
 47
1.0
 49
1.0
140
1.0
293
     1
141
0.0
294
     1
177
     0
142
1.0
295
     1
296
     0
143
0.125
271
     0
272
     9
273
     9
298
     1
  0
MLINESTYLE
  5
60
102
{ACAD_REACTORS
330
5F
102
}
330
5F
100
AcDbMlineStyle
  2
STANDARD
 70
     0
  3

 62
   256
 51
90.0
 52
90.0
 71
     2
 49
0.5
 62
   256
  6
BYLAYER
 49
-0.5
 62
   256
  6
BYLAYER
  0
ACDBPLACEHOLDER
  5
F
102
{ACAD_REACTORS
330
E
102
}
330
E
  0
SCALE
  5
43
102
{ACAD_REACTORS
330
42
102
}
330
42
100
AcDbScale
 70
     0
300
1:1
140
1.0
141
1.0
290
     1
  0
SCALE
  5
44
102
{ACAD_REACTORS
330
42
102
}
330
42
100
AcDbScale
 70
     0
300
1/128" = 1'-0"
140
0.0078125
141
12.0
290
     0
  0
SCALE
  5
45
102
{ACAD_REACTORS
330
42
102
}
330
42
100
AcDbScale
 70
     0
300
1/64" = 1'-0"
140
0.015625
141
12.0
290
     0
  0
SCALE
  5
46
102
{ACAD_REACTORS
330
42
102
}
330
42
100
AcDbScale
 70
     0
300
1/32" = 1'-0"
140
0.03125
141
12.0
290
     0
  0
SCALE
  5
47
102
{ACAD_REACTORS
330
42
102
}
330
42
100
AcDbScale
 70
     0
300
1/16" = 1'-0"
140
0.0625
141
12.0
290
     0
  0
SCALE
  5
48
102
{ACAD_REACTORS
330
42
102
}
330
42
100
AcDbScale
 70
     0
300
3/32" = 1'-0"
140
0.09375
141
12.0
290
     0
  0
SCALE
  5
49
102
{ACAD_REACTORS
330
42
102
}
330
42
100
AcDbScale
 70
     0
300
1/8" = 1'-0"
140
0.125
141
12.0
290
     0
  0
SCALE
  5
4A
102
{ACAD_REACTORS
330
42
102
}
330
42
100
AcDbScale
 70
     0
300
3/16" = 1'-0"
140
0.1875
141
12.0
290
     0
  0
SCALE
  5
4B
102
{ACAD_REACTORS
330
42
102
}
330
42
100
AcDbScale
 70
     0
300
1/4" = 1'-0"
140
0.25
141
12.0
290
     0
  0
SCALE
  5
4C
102
{ACAD_REACTORS
330
42
102
}
330
42
100
AcDbScale
 70
     0
300
3/8" = 1'-0"
140
0.375
141
12.0
290
     0
  0
SCALE
  5
4D
102
{ACAD_REACTORS
330
42
102
}
330
42
100
AcDbScale
 70
     0
300
1/2" = 1'-0"
140
0.5
141
12.0
290
     0
  0
SCALE
  5
4E
102
{ACAD_REACTORS
330
42
102
}
330
42
100
AcDbScale
 70
     0
300
3/4" = 1'-0"
140
0.75
141
12.0
290
     0
  0
SCALE
  5
4F
102
{ACAD_REACTORS
330
42
102
}
330
42
100
AcDbScale
 70
     0
300
1" = 1'-0"
140
1.0
141
12.0
290
     0
  0
SCALE
  5
50
102
{ACAD_REACTORS
330
42
102
}
330
42
100
AcDbScale
 70
     0
300
1-1/2" = 1'-0"
140
1.5
141
12.0
290
     0
  0
SCALE
  5
51
102
{ACAD_REACTORS
330
42
102
}
330
42
100
AcDbScale
 70
     0
300
3" = 1'-0"
140
3.0
141
12.0
290
     0
  0
SCALE
  5
52
102
{ACAD_REACTORS
330
42
102
}
330
42
100
AcDbScale
 70
     0
300
6" = 1'-0"
140
6.0
141
12.0
290
     0
  0
SCALE
  5
53
102
{ACAD_REACTORS
330
42
102
}
330
42
100
AcDbScale
 70
     0
300
1'-0" = 1'-0"
140
12.0
141
12.0
290
     0
  0
ACDBSECTIONVIEWSTYLE
  5
6A
102
{ACAD_REACTORS
330
68
102
}
330
68
100
AcDbModelDocViewStyle
 70
     0
  3
Imperial24
290
     1
100
AcDbSectionViewStyle
 70
     0
 71
     0
 90
       78
 71
     1
340
55
 62
   256
 40
0.24
340
0
340
0
 62
   256
 40
0.24
300
I, O, Q, S, X, Z
 40
0.48
 90
        3
 40
0.18
 90
        1
 71
     2
340
69
 90
       25
 62
   256
340
5D
 90
       50
 62
   256
 40
0.24
 40
0.0
 40
0.24
 71
     3
340
55
 62
   256
 40
0.24
 90
        1
 40
0.75
 90
        1
300
%<\AcVar ViewType \f "%tc1">% %<\AcVar ViewSectionStartId>%-%<\AcVar ViewSectionEndId>%\PSCALA %<\AcVar ViewScale \f "%sn">%
 71
     4
 62
   256
 62
   257
300
ANSI31
 40
1.0
 90
        0
290
     0
290
     0
 90
        6
 40
0.0
 40
1.570796326794896
 40
0.2617993877991494
 40
1.308996938995747
 40
-0.2617993877991494
 40
1.832595714594046
  0
TABLESTYLE
  5
65
102
{ACAD_XDICTIONARY
360
20B
102
}
102
{ACAD_REACTORS
330
64
102
}
330
64
100
AcDbTableStyle
280
     0
  3
Standard
 70
     0
 71
     0
 40
0.06
 41
0.06
280
     0
281
     0
  7
Standard
140
0.18
170
     2
 62
     0
 63
     7
283
     0
 90
      512
 91
        0
  1

274
    -2
284
     1
 64
     0
275
    -2
285
     1
 65
     0
276
    -2
286
     1
 66
     0
277
    -2
287
     1
 67
     0
278
    -2
288
     1
 68
     0
279
    -2
289
     1
 69
     0
  7
Standard
140
0.25
170
     5
 62
     0
 63
     7
283
     0
 90
      512
 91
        0
  1

274
    -2
284
     1
 64
     0
275
    -2
285
     1
 65
     0
276
    -2
286
     1
 66
     0
277
    -2
287
     1
 67
     0
278
    -2
288
     1
 68
     0
279
    -2
289
     1
 69
     0
  7
Standard
140
0.18
170
     5
 62
     0
 63
     7
283
     0
 90
      512
 91
        0
  1

274
    -2
284
     1
 64
     0
275
    -2
285
     1
 65
     0
276
    -2
286
     1
 66
     0
277
    -2
287
     1
 67
     0
278
    -2
288
     1
 68
     0
279
    -2
289
     1
 69
     0
  0
VISUALSTYLE
  5
2F
102
{ACAD_REACTORS
330
29
102
}
330
29
100
AcDbVisualStyle
  2
2dWireframe
 70
     4
177
     3
291
     0
 70
    58
 90
        0
176
     1
 90
        2
176
     1
 90
        0
176
     1
 90
        0
176
     1
 40
0.6
176
     1
 40
30.0
176
     1
 62
     7
420
 16777215
176
     1
 90
        1
176
     1
 90
        4
176
     1
 62
     7
176
     1
 62
   257
176
     1
 90
        1
176
     1
 90
        1
176
     1
 40
1.0
176
     1
 90
        0
176
     1
 62
   257
176
     1
 40
1.0
176
     1
 90
        1
176
     1
 90
        6
176
     1
 90
        2
176
     1
 62
     7
176
     1
 90
        5
176
     1
 90
        0
176
     1
 90
        0
176
     1
290
     0
176
     1
 90
        1
176
     1
 40
0.0
176
     1
 90
        0
176
     1
290
     1
176
     1
290
     1
176
     1
290
     0
176
     1
290
     0
176
     1
290
     0
176
     1
290
     0
176
     1
290
     0
176
     1
290
     0
176
     1
290
     0
176
     1
 90
       50
176
     1
 40
0.0
176
     1
 40
1.0
176
     1
 90
        0
176
     1
 62
    18
420
        0
176
     1
 90
       50
176
     1
 90
        3
176
     1
 62
     5
420
      255
176
     1
290
     0
176
     1
 90
       50
176
     1
 90
       50
176
     1
 90
       50
176
     1
290
     0
176
     1
 90
       50
176
     1
 62
   256
176
     0
 40
1.0
176
     0
 90
        2
176
     1
  1
strokes_ogs.tif
176
     1
290
     0
176
     1
 40
1.0
176
     1
 40
1.0
176
     1
  0
VISUALSTYLE
  5
2E
102
{ACAD_REACTORS
330
29
102
}
330
29
100
AcDbVisualStyle
  2
Basic
 70
     7
177
     3
291
     1
 70
    58
 90
        1
176
     1
 90
        0
176
     1
 90
        1
176
     1
 90
        0
176
     1
 40
0.6
176
     1
 40
30.0
176
     1
 62
     7
420
 16777215
176
     1
 90
        0
176
     1
 90
        4
176
     1
 62
     7
176
     1
 62
   257
176
     1
 90
        1
176
     1
 90
        1
176
     1
 40
1.0
176
     1
 90
        8
176
     1
 62
     7
176
     1
 40
1.0
176
     1
 90
        1
176
     1
 90
        6
176
     1
 90
        2
176
     1
 62
     7
176
     1
 90
        5
176
     1
 90
        0
176
     1
 90
        0
176
     1
290
     0
176
     1
 90
        1
176
     1
 40
0.0
176
     1
 90
        0
176
     1
290
     0
176
     1
290
     1
176
     1
290
     1
176
     1
290
     0
176
     1
290
     0
176
     1
290
     0
176
     1
290
     0
176
     1
290
     0
176
     1
290
     0
176
     1
 90
       50
176
     1
 40
0.0
176
     1
 40
1.0
176
     1
 90
        0
176
     1
 62
    18
420
        0
176
     1
 90
       50
176
     1
 90
        3
176
     1
 62
     5
420
      255
176
     1
290
     0
176
     1
 90
       50
176
     1
 90
       50
176
     1
 90
       50
176
     1
290
     0
176
     1
 90
       50
176
     1
 62
   256
176
     0
 40
1.0
176
     0
 90
        2
176
     1
  1
strokes_ogs.tif
176
     1
290
     0
176
     1
 40
1.0
176
     1
 40
1.0
176
     1
  0
VISUALSTYLE
  5
35
102
{ACAD_REACTORS
330
29
102
}
330
29
100
AcDbVisualStyle
  2
Brighten
 70
    12
177
     3
291
     1
 70
    58
 90
        2
176
     1
 90
        2
176
     1
 90
        0
176
     1
 90
        0
176
     1
 40
0.6
176
     1
 40
30.0
176
     1
 62
     7
420
 16777215
176
     1
 90
        1
176
     1
 90
        4
176
     1
 62
     7
176
     1
 62
   257
176
     1
 90
        1
176
     1
 90
        1
176
     1
 40
1.0
176
     1
 90
        8
176
     1
 62
     7
176
     1
 40
1.0
176
     1
 90
        1
176
     1
 90
        6
176
     1
 90
        2
176
     1
 62
     7
176
     1
 90
        5
176
     1
 90
        0
176
     1
 90
        0
176
     1
290
     0
176
     1
 90
        1
176
     1
 40
50.0
176
     1
 90
        0
176
     1
290
     0
176
     1
290
     1
176
     1
290
     1
176
     1
290
     0
176
     1
290
     0
176
     1
290
     0
176
     1
290
     0
176
     1
290
     0
176
     1
290
     0
176
     1
 90
       50
176
     1
 40
0.0
176
     1
 40
1.0
176
     1
 90
        0
176
     1
 62
    18
420
        0
176
     1
 90
       50
176
     1
 90
        3
176
     1
 62
     5
420
      255
176
     1
290
     0
176
     1
 90
       50
176
     1
 90
       50
176
     1
 90
       50
176
     1
290
     0
176
     1
 90
       50
176
     1
 62
   256
176
     0
 40
1.0
176
     0
 90
        2
176
     1
  1
strokes_ogs.tif
176
     1
290
     0
176
     1
 40
1.0
176
     1
 40
1.0
176
     1
  0
VISUALSTYLE
  5
39
102
{ACAD_REACTORS
330
29
102
}
330
29
100
AcDbVisualStyle
  2
ColorChange
 70
    16
177
     3
291
     1
 70
    58
 90
        2
176
     1
 90
        2
176
     1
 90
        3
176
     1
 90
        0
176
     1
 40
0.6
176
     1
 40
30.0
176
     1
 62
     8
420
  8421504
176
     1
 90
        1
176
     1
 90
        4
176
     1
 62
     7
176
     1
 62
   257
176
     1
 90
        1
176
     1
 90
        1
176
     1
 40
1.0
176
     1
 90
        8
176
     1
 62
     8
420
  8421504
176
     1
 40
1.0
176
     1
 90
        1
176
     1
 90
        6
176
     1
 90
        2
176
     1
 62
     7
176
     1
 90
        5
176
     1
 90
        0
176
     1
 90
        0
176
     1
290
     0
176
     1
 90
        1
176
     1
 40
0.0
176
     1
 90
        0
176
     1
290
     0
176
     1
290
     1
176
     1
290
     1
176
     1
290
     0
176
     1
290
     0
176
     1
290
     0
176
     1
290
     0
176
     1
290
     0
176
     1
290
     0
176
     1
 90
       50
176
     1
 40
0.0
176
     1
 40
1.0
176
     1
 90
        0
176
     1
 62
    18
420
        0
176
     1
 90
       50
176
     1
 90
        3
176
     1
 62
     5
420
      255
176
     1
290
     0
176
     1
 90
       50
176
     1
 90
       50
176
     1
 90
       50
176
     1
290
     0
176
     1
 90
       50
176
     1
 62
   256
176
     0
 40
1.0
176
     0
 90
        2
176
     1
  1
strokes_ogs.tif
176
     1
290
     0
176
     1
 40
1.0
176
     1
 40
1.0
176
     1
  0
VISUALSTYLE
  5
32
102
{ACAD_REACTORS
330
29
102
}
330
29
100
AcDbVisualStyle
  2
Conceptual
 70
     9
177
     3
291
     0
 70
    58
 90
        3
176
     1
 90
        2
176
     1
 90
        0
176
     1
 90
        0
176
     1
 40
0.6
176
     1
 40
30.0
176
     1
 62
     7
420
 16777215
176
     1
 90
        2
176
     1
 90
        2
176
     1
 62
     7
176
     1
 62
   257
176
     1
 90
        1
176
     1
 90
        1
176
     1
 40
179.0
176
     1
 90
        8
176
     1
 62
     7
176
     1
 40
1.0
176
     1
 90
        1
176
     1
 90
        6
176
     1
 90
        2
176
     1
 62
     7
176
     1
 90
        3
176
     1
 90
        0
176
     1
 90
        0
176
     1
290
     0
176
     1
 90
        1
176
     1
 40
0.0
176
     1
 90
        0
176
     1
290
     0
176
     1
290
     1
176
     1
290
     1
176
     1
290
     0
176
     1
290
     0
176
     1
290
     0
176
     1
290
     0
176
     1
290
     0
176
     1
290
     0
176
     1
 90
       50
176
     1
 40
0.0
176
     1
 40
1.0
176
     1
 90
        0
176
     1
 62
    18
420
        0
176
     1
 90
       50
176
     1
 90
        3
176
     1
 62
     5
420
      255
176
     1
290
     0
176
     1
 90
       50
176
     1
 90
       50
176
     1
 90
       50
176
     1
290
     0
176
     1
 90
       50
176
     1
 62
   256
176
     0
 40
1.0
176
     0
 90
        2
176
     1
  1
strokes_ogs.tif
176
     1
290
     0
176
     1
 40
1.0
176
     1
 40
1.0
176
     1
  0
VISUALSTYLE
  5
34
102
{ACAD_REACTORS
330
29
102
}
330
29
100
AcDbVisualStyle
  2
Dim
 70
    11
177
     3
291
     1
 70
    58
 90
        2
176
     1
 90
        2
176
     1
 90
        0
176
     1
 90
        0
176
     1
 40
0.6
176
     1
 40
30.0
176
     1
 62
     7
420
 16777215
176
     1
 90
        1
176
     1
 90
        4
176
     1
 62
     7
176
     1
 62
   257
176
     1
 90
        1
176
     1
 90
        1
176
     1
 40
1.0
176
     1
 90
        8
176
     1
 62
     7
176
     1
 40
1.0
176
     1
 90
        1
176
     1
 90
        6
176
     1
 90
        2
176
     1
 62
     7
176
     1
 90
        5
176
     1
 90
        0
176
     1
 90
        0
176
     1
290
     0
176
     1
 90
        1
176
     1
 40
-50.0
176
     1
 90
        0
176
     1
290
     0
176
     1
290
     1
176
     1
290
     1
176
     1
290
     0
176
     1
290
     0
176
     1
290
     0
176
     1
290
     0
176
     1
290
     0
176
     1
290
     0
176
     1
 90
       50
176
     1
 40
0.0
176
     1
 40
1.0
176
     1
 90
        0
176
     1
 62
    18
420
        0
176
     1
 90
       50
176
     1
 90
        3
176
     1
 62
     5
420
      255
176
     1
290
     0
176
     1
 90
       50
176
     1
 90
       50
176
     1
 90
       50
176
     1
290
     0
176
     1
 90
       50
176
     1
 62
   256
176
     0
 40
1.0
176
     0
 90
        2
176
     1
  1
strokes_ogs.tif
176
     1
290
     0
176
     1
 40
1.0
176
     1
 40
1.0
176
     1
  0
VISUALSTYLE
  5
41
102
{ACAD_REACTORS
330
29
102
}
330
29
100
AcDbVisualStyle
  2
EdgeColorOff
 70
    22
177
     3
291
     1
 70
    58
 90
        2
176
     0
 90
        2
176
     0
 90
        0
176
     0
 90
        0
176
     0
 40
0.6
176
     0
 40
30.0
176
     0
 62
     7
420
 16777215
176
     0
 90
        1
176
     0
 90
        4
176
     0
 62
     7
176
     0
 62
   257
176
     0
 90
        1
176
     0
 90
        1
176
     0
 40
1.0
176
     0
 90
        8
176
     2
 62
     7
176
     0
 40
1.0
176
     0
 90
        1
176
     0
 90
        6
176
     0
 90
        2
176
     0
 62
     7
176
     0
 90
        5
176
     0
 90
        0
176
     0
 90
        0
176
     0
290
     0
176
     0
 90
        1
176
     0
 40
0.0
176
     0
 90
        0
176
     0
290
     0
176
     0
290
     1
176
     0
290
     1
176
     0
290
     0
176
     0
290
     0
176
     0
290
     0
176
     0
290
     0
176
     0
290
     0
176
     0
290
     0
176
     0
 90
       50
176
     0
 40
0.0
176
     0
 40
1.0
176
     0
 90
        0
176
     0
 62
    18
420
        0
176
     0
 90
       50
176
     0
 90
        3
176
     0
 62
     5
420
      255
176
     0
290
     0
176
     0
 90
       50
176
     0
 90
       50
176
     0
 90
       50
176
     0
290
     0
176
     0
 90
       50
176
     0
 62
   256
176
     0
 40
1.0
176
     0
 90
        2
176
     0
  1
strokes_ogs.tif
176
     0
290
     0
176
     0
 40
1.0
176
     0
 40
1.0
176
     0
  0
VISUALSTYLE
  5
38
102
{ACAD_REACTORS
330
29
102
}
330
29
100
AcDbVisualStyle
  2
Facepattern
 70
    15
177
     3
291
     1
 70
    58
 90
        2
176
     1
 90
        2
176
     1
 90
        0
176
     1
 90
        0
176
     1
 40
0.6
176
     1
 40
30.0
176
     1
 62
     7
420
 16777215
176
     1
 90
        1
176
     1
 90
        4
176
     1
 62
     7
176
     1
 62
   257
176
     1
 90
        1
176
     1
 90
        1
176
     1
 40
1.0
176
     1
 90
        8
176
     1
 62
     7
176
     1
 40
1.0
176
     1
 90
        1
176
     1
 90
        6
176
     1
 90
        2
176
     1
 62
     7
176
     1
 90
        5
176
     1
 90
        0
176
     1
 90
        0
176
     1
290
     0
176
     1
 90
        1
176
     1
 40
0.0
176
     1
 90
        0
176
     1
290
     0
176
     1
290
     1
176
     1
290
     1
176
     1
290
     0
176
     1
290
     0
176
     1
290
     0
176
     1
290
     0
176
     1
290
     0
176
     1
290
     0
176
     1
 90
       50
176
     1
 40
0.0
176
     1
 40
1.0
176
     1
 90
        0
176
     1
 62
    18
420
        0
176
     1
 90
       50
176
     1
 90
        3
176
     1
 62
     5
420
      255
176
     1
290
     0
176
     1
 90
       50
176
     1
 90
       50
176
     1
 90
       50
176
     1
290
     0
176
     1
 90
       50
176
     1
 62
   256
176
     0
 40
1.0
176
     0
 90
        2
176
     1
  1
strokes_ogs.tif
176
     1
290
     0
176
     1
 40
1.0
176
     1
 40
1.0
176
     1
  0
VISUALSTYLE
  5
2A
102
{ACAD_REACTORS
330
29
102
}
330
29
100
AcDbVisualStyle
  2
Flat
 70
     0
177
     3
291
     1
 70
    58
 90
        2
176
     1
 90
        1
176
     1
 90
        1
176
     1
 90
        2
176
     1
 40
0.6
176
     1
 40
30.0
176
     1
 62
     7
420
 16777215
176
     1
 90
        0
176
     1
 90
        0
176
     1
 62
     7
176
     1
 62
   257
176
     1
 90
        1
176
     1
 90
        1
176
     1
 40
1.0
176
     1
 90
        8
176
     1
 62
     7
176
     1
 40
1.0
176
     1
 90
        1
176
     1
 90
        6
176
     1
 90
        2
176
     1
 62
     7
176
     1
 90
        5
176
     1
 90
        0
176
     1
 90
        0
176
     1
290
     0
176
     1
 90
       13
176
     1
 40
0.0
176
     1
 90
        0
176
     1
290
     0
176
     1
290
     1
176
     1
290
     1
176
     1
290
     0
176
     1
290
     0
176
     1
290
     0
176
     1
290
     0
176
     1
290
     0
176
     1
290
     0
176
     1
 90
       50
176
     1
 40
0.0
176
     1
 40
1.0
176
     1
 90
        0
176
     1
 62
    18
420
        0
176
     1
 90
       50
176
     1
 90
        3
176
     1
 62
     5
420
      255
176
     1
290
     0
176
     1
 90
       50
176
     1
 90
       50
176
     1
 90
       50
176
     1
290
     0
176
     1
 90
       50
176
     1
 62
   256
176
     0
 40
1.0
176
     0
 90
        2
176
     1
  1
strokes_ogs.tif
176
     1
290
     0
176
     1
 40
1.0
176
     1
 40
1.0
176
     1
  0
VISUALSTYLE
  5
2B
102
{ACAD_REACTORS
330
29
102
}
330
29
100
AcDbVisualStyle
  2
FlatWithEdges
 70
     1
177
     3
291
     1
 70
    58
 90
        2
176
     1
 90
        1
176
     1
 90
        1
176
     1
 90
        2
176
     1
 40
0.6
176
     1
 40
30.0
176
     1
 62
     7
420
 16777215
176
     1
 90
        1
176
     1
 90
        0
176
     1
 62
     7
176
     1
 62
   257
176
     1
 90
        1
176
     1
 90
        1
176
     1
 40
1.0
176
     1
 90
        0
176
     1
 62
   257
176
     1
 40
1.0
176
     1
 90
        1
176
     1
 90
        6
176
     1
 90
        2
176
     1
 62
     7
176
     1
 90
        5
176
     1
 90
        0
176
     1
 90
        0
176
     1
290
     0
176
     1
 90
       13
176
     1
 40
0.0
176
     1
 90
        0
176
     1
290
     0
176
     1
290
     1
176
     1
290
     1
176
     1
290
     0
176
     1
290
     0
176
     1
290
     0
176
     1
290
     0
176
     1
290
     0
176
     1
290
     0
176
     1
 90
       50
176
     1
 40
0.0
176
     1
 40
1.0
176
     1
 90
        0
176
     1
 62
    18
420
        0
176
     1
 90
       50
176
     1
 90
        3
176
     1
 62
     5
420
      255
176
     1
290
     0
176
     1
 90
       50
176
     1
 90
       50
176
     1
 90
       50
176
     1
290
     0
176
     1
 90
       50
176
     1
 62
   256
176
     0
 40
1.0
176
     0
 90
        2
176
     1
  1
strokes_ogs.tif
176
     1
290
     0
176
     1
 40
1.0
176
     1
 40
1.0
176
     1
  0
VISUALSTYLE
  5
2C
102
{ACAD_REACTORS
330
29
102
}
330
29
100
AcDbVisualStyle
  2
Gouraud
 70
     2
177
     3
291
     1
 70
    58
 90
        2
176
     1
 90
        2
176
     1
 90
        1
176
     1
 90
        2
176
     1
 40
0.6
176
     1
 40
30.0
176
     1
 62
     7
420
 16777215
176
     1
 90
        0
176
     1
 90
        0
176
     1
 62
     7
176
     1
 62
   257
176
     1
 90
        1
176
     1
 90
        1
176
     1
 40
1.0
176
     1
 90
        0
176
     1
 62
     7
176
     1
 40
1.0
176
     1
 90
        1
176
     1
 90
        6
176
     1
 90
        2
176
     1
 62
     7
176
     1
 90
        5
176
     1
 90
        0
176
     1
 90
        0
176
     1
290
     0
176
     1
 90
       13
176
     1
 40
0.0
176
     1
 90
        0
176
     1
290
     0
176
     1
290
     1
176
     1
290
     1
176
     1
290
     0
176
     1
290
     0
176
     1
290
     0
176
     1
290
     0
176
     1
290
     0
176
     1
290
     0
176
     1
 90
       50
176
     1
 40
0.0
176
     1
 40
1.0
176
     1
 90
        0
176
     1
 62
    18
420
        0
176
     1
 90
       50
176
     1
 90
        3
176
     1
 62
     5
420
      255
176
     1
290
     0
176
     1
 90
       50
176
     1
 90
       50
176
     1
 90
       50
176
     1
290
     0
176
     1
 90
       50
176
     1
 62
   256
176
     0
 40
1.0
176
     0
 90
        2
176
     1
  1
strokes_ogs.tif
176
     1
290
     0
176
     1
 40
1.0
176
     1
 40
1.0
176
     1
  0
VISUALSTYLE
  5
2D
102
{ACAD_REACTORS
330
29
102
}
330
29
100
AcDbVisualStyle
  2
GouraudWithEdges
 70
     3
177
     3
291
     1
 70
    58
 90
        2
176
     1
 90
        2
176
     1
 90
        1
176
     1
 90
        2
176
     1
 40
0.6
176
     1
 40
30.0
176
     1
 62
     7
420
 16777215
176
     1
 90
        1
176
     1
 90
        0
176
     1
 62
     7
176
     1
 62
   257
176
     1
 90
        1
176
     1
 90
        1
176
     1
 40
1.0
176
     1
 90
        0
176
     1
 62
   257
176
     1
 40
1.0
176
     1
 90
        1
176
     1
 90
        6
176
     1
 90
        2
176
     1
 62
     7
176
     1
 90
        5
176
     1
 90
        0
176
     1
 90
        0
176
     1
290
     0
176
     1
 90
       13
176
     1
 40
0.0
176
     1
 90
        0
176
     1
290
     0
176
     1
290
     1
176
     1
290
     1
176
     1
290
     0
176
     1
290
     0
176
     1
290
     0
176
     1
290
     0
176
     1
290
     0
176
     1
290
     0
176
     1
 90
       50
176
     1
 40
0.0
176
     1
 40
1.0
176
     1
 90
        0
176
     1
 62
    18
420
        0
176
     1
 90
       50
176
     1
 90
        3
176
     1
 62
     5
420
      255
176
     1
290
     0
176
     1
 90
       50
176
     1
 90
       50
176
     1
 90
       50
176
     1
290
     0
176
     1
 90
       50
176
     1
 62
   256
176
     0
 40
1.0
176
     0
 90
        2
176
     1
  1
strokes_ogs.tif
176
     1
290
     0
176
     1
 40
1.0
176
     1
 40
1.0
176
     1
  0
VISUALSTYLE
  5
31
102
{ACAD_REACTORS
330
29
102
}
330
29
100
AcDbVisualStyle
  2
Hidden
 70
     6
177
     3
291
     0
 70
    58
 90
        1
176
     1
 90
        2
176
     1
 90
        2
176
     1
 90
        0
176
     1
 40
0.6
176
     1
 40
30.0
176
     1
 62
     7
420
 16777215
176
     1
 90
        2
176
     1
 90
        2
176
     1
 62
     7
176
     1
 62
   257
176
     1
 90
        2
176
     1
 90
        1
176
     1
 40
40.0
176
     1
 90
        0
176
     1
 62
   257
176
     1
 40
1.0
176
     1
 90
        1
176
     1
 90
        6
176
     1
 90
        2
176
     1
 62
     7
176
     1
 90
        3
176
     1
 90
        0
176
     1
 90
        0
176
     1
290
     0
176
     1
 90
        1
176
     1
 40
0.0
176
     1
 90
        0
176
     1
290
     0
176
     1
290
     1
176
     1
290
     1
176
     1
290
     0
176
     1
290
     0
176
     1
290
     0
176
     1
290
     0
176
     1
290
     0
176
     1
290
     0
176
     1
 90
       50
176
     1
 40
0.0
176
     1
 40
1.0
176
     1
 90
        0
176
     1
 62
    18
420
        0
176
     1
 90
       50
176
     1
 90
        3
176
     1
 62
     5
420
      255
176
     1
290
     0
176
     1
 90
       50
176
     1
 90
       50
176
     1
 90
       50
176
     1
290
     0
176
     1
 90
       50
176
     1
 62
   256
176
     0
 40
1.0
176
     0
 90
        2
176
     1
  1
strokes_ogs.tif
176
     1
290
     0
176
     1
 40
1.0
176
     1
 40
1.0
176
     1
  0
VISUALSTYLE
  5
3F
102
{ACAD_REACTORS
330
29
102
}
330
29
100
AcDbVisualStyle
  2
JitterOff
 70
    20
177
     3
291
     1
 70
    58
 90
        2
176
     0
 90
        2
176
     0
 90
        0
176
     0
 90
        0
176
     0
 40
0.6
176
     0
 40
30.0
176
     0
 62
     7
420
 16777215
176
     0
 90
        1
176
     0
 90
        4
176
     0
 62
     7
176
     0
 62
   257
176
     0
 90
        1
176
     0
 90
        1
176
     0
 40
1.0
176
     0
 90
       10
176
     2
 62
     7
176
     0
 40
1.0
176
     0
 90
        1
176
     0
 90
        6
176
     0
 90
        2
176
     0
 62
     7
176
     0
 90
        5
176
     0
 90
        0
176
     0
 90
        0
176
     0
290
     0
176
     0
 90
        1
176
     0
 40
0.0
176
     0
 90
        0
176
     0
290
     0
176
     0
290
     1
176
     0
290
     1
176
     0
290
     0
176
     0
290
     0
176
     0
290
     0
176
     0
290
     0
176
     0
290
     0
176
     0
290
     0
176
     0
 90
       50
176
     0
 40
0.0
176
     0
 40
1.0
176
     0
 90
        0
176
     0
 62
    18
420
        0
176
     0
 90
       50
176
     0
 90
        3
176
     0
 62
     5
420
      255
176
     0
290
     0
176
     0
 90
       50
176
     0
 90
       50
176
     0
 90
       50
176
     0
290
     0
176
     0
 90
       50
176
     0
 62
   256
176
     0
 40
1.0
176
     0
 90
        2
176
     0
  1
strokes_ogs.tif
176
     0
290
     0
176
     0
 40
1.0
176
     0
 40
1.0
176
     0
  0
VISUALSTYLE
  5
37
102
{ACAD_REACTORS
330
29
102
}
330
29
100
AcDbVisualStyle
  2
Linepattern
 70
    14
177
     3
291
     1
 70
    58
 90
        2
176
     1
 90
        2
176
     1
 90
        0
176
     1
 90
        0
176
     1
 40
0.6
176
     1
 40
30.0
176
     1
 62
     7
420
 16777215
176
     1
 90
        1
176
     1
 90
        4
176
     1
 62
     7
176
     1
 62
   257
176
     1
 90
        7
176
     1
 90
        7
176
     1
 40
1.0
176
     1
 90
        8
176
     1
 62
     7
176
     1
 40
1.0
176
     1
 90
        1
176
     1
 90
        6
176
     1
 90
        2
176
     1
 62
     7
176
     1
 90
        5
176
     1
 90
        0
176
     1
 90
        0
176
     1
290
     0
176
     1
 90
        1
176
     1
 40
0.0
176
     1
 90
        0
176
     1
290
     0
176
     1
290
     1
176
     1
290
     1
176
     1
290
     0
176
     1
290
     0
176
     1
290
     0
176
     1
290
     0
176
     1
290
     0
176
     1
290
     0
176
     1
 90
       50
176
     1
 40
0.0
176
     1
 40
1.0
176
     1
 90
        0
176
     1
 62
    18
420
        0
176
     1
 90
       50
176
     1
 90
        3
176
     1
 62
     5
420
      255
176
     1
290
     0
176
     1
 90
       50
176
     1
 90
       50
176
     1
 90
       50
176
     1
290
     0
176
     1
 90
       50
176
     1
 62
   256
176
     0
 40
1.0
176
     0
 90
        2
176
     1
  1
strokes_ogs.tif
176
     1
290
     0
176
     1
 40
1.0
176
     1
 40
1.0
176
     1
  0
VISUALSTYLE
  5
40
102
{ACAD_REACTORS
330
29
102
}
330
29
100
AcDbVisualStyle
  2
OverhangOff
 70
    21
177
     3
291
     1
 70
    58
 90
        2
176
     0
 90
        2
176
     0
 90
        0
176
     0
 90
        0
176
     0
 40
0.6
176
     0
 40
30.0
176
     0
 62
     7
420
 16777215
176
     0
 90
        1
176
     0
 90
        4
176
     0
 62
     7
176
     0
 62
   257
176
     0
 90
        1
176
     0
 90
        1
176
     0
 40
1.0
176
     0
 90
        9
176
     2
 62
     7
176
     0
 40
1.0
176
     0
 90
        1
176
     0
 90
        6
176
     0
 90
        2
176
     0
 62
     7
176
     0
 90
        5
176
     0
 90
        0
176
     0
 90
        0
176
     0
290
     0
176
     0
 90
        1
176
     0
 40
0.0
176
     0
 90
        0
176
     0
290
     0
176
     0
290
     1
176
     0
290
     1
176
     0
290
     0
176
     0
290
     0
176
     0
290
     0
176
     0
290
     0
176
     0
290
     0
176
     0
290
     0
176
     0
 90
       50
176
     0
 40
0.0
176
     0
 40
1.0
176
     0
 90
        0
176
     0
 62
    18
420
        0
176
     0
 90
       50
176
     0
 90
        3
176
     0
 62
     5
420
      255
176
     0
290
     0
176
     0
 90
       50
176
     0
 90
       50
176
     0
 90
       50
176
     0
290
     0
176
     0
 90
       50
176
     0
 62
   256
176
     0
 40
1.0
176
     0
 90
        2
176
     0
  1
strokes_ogs.tif
176
     0
290
     0
176
     0
 40
1.0
176
     0
 40
1.0
176
     0
  0
VISUALSTYLE
  5
33
102
{ACAD_REACTORS
330
29
102
}
330
29
100
AcDbVisualStyle
  2
Realistic
 70
     8
177
     3
291
     0
 70
    58
 90
        2
176
     1
 90
        3
176
     1
 90
        0
176
     1
 90
        2
176
     1
 40
0.6
176
     1
 40
30.0
176
     1
 62
     7
420
 16777215
176
     1
 90
        0
176
     1
 90
        0
176
     1
 62
     7
176
     1
 62
   257
176
     1
 90
        1
176
     1
 90
        1
176
     1
 40
1.0
176
     1
 90
        8
176
     1
 62
   257
176
     1
 40
1.0
176
     1
 90
        1
176
     1
 90
        6
176
     1
 90
        2
176
     1
 62
     7
176
     1
 90
        3
176
     1
 90
        0
176
     1
 90
        0
176
     1
290
     0
176
     1
 90
       13
176
     1
 40
0.0
176
     1
 90
        0
176
     1
290
     0
176
     1
290
     1
176
     1
290
     1
176
     1
290
     0
176
     1
290
     0
176
     1
290
     0
176
     1
290
     0
176
     1
290
     0
176
     1
290
     0
176
     1
 90
       50
176
     1
 40
0.0
176
     1
 40
1.0
176
     1
 90
        0
176
     1
 62
    18
420
        0
176
     1
 90
       50
176
     1
 90
        3
176
     1
 62
     5
420
      255
176
     1
290
     0
176
     1
 90
       50
176
     1
 90
       50
176
     1
 90
       50
176
     1
290
     0
176
     1
 90
       50
176
     1
 62
   256
176
     0
 40
1.0
176
     0
 90
        2
176
     1
  1
strokes_ogs.tif
176
     1
290
     0
176
     1
 40
1.0
176
     1
 40
1.0
176
     1
  0
VISUALSTYLE
  5
3E
102
{ACAD_REACTORS
330
29
102
}
330
29
100
AcDbVisualStyle
  2
Shaded
 70
    27
177
     3
291
     0
 70
    58
 90
        2
176
     1
 90
        2
176
     1
 90
        1
176
     1
 90
        2
176
     1
 40
0.6
176
     1
 40
30.0
176
     1
 62
     7
420
 16777215
176
     1
 90
        0
176
     1
 90
        4
176
     1
 62
     7
176
     1
 62
   257
176
     1
 90
        1
176
     1
 90
        1
176
     1
 40
1.0
176
     1
 90
        8
176
     1
 62
   257
176
     1
 40
1.0
176
     1
 90
        1
176
     1
 90
        6
176
     1
 90
        2
176
     1
 62
     8
420
  7895160
176
     1
 90
        3
176
     1
 90
        0
176
     1
 90
        0
176
     1
290
     0
176
     1
 90
        5
176
     1
 40
0.0
176
     1
 90
        0
176
     1
290
     0
176
     1
290
     1
176
     1
290
     1
176
     1
290
     0
176
     1
290
     0
176
     1
290
     0
176
     1
290
     0
176
     1
290
     0
176
     1
290
     0
176
     1
 90
       50
176
     1
 40
0.0
176
     1
 40
1.0
176
     1
 90
        0
176
     1
 62
    18
420
        0
176
     1
 90
       50
176
     1
 90
        3
176
     1
 62
     5
420
      255
176
     1
290
     0
176
     1
 90
       50
176
     1
 90
       50
176
     1
 90
       50
176
     1
290
     0
176
     1
 90
       50
176
     1
 62
   256
176
     0
 40
1.0
176
     0
 90
        2
176
     1
  1
strokes_ogs.tif
176
     1
290
     0
176
     1
 40
1.0
176
     1
 40
1.0
176
     1
  0
VISUALSTYLE
  5
3D
102
{ACAD_REACTORS
330
29
102
}
330
29
100
AcDbVisualStyle
  2
Shaded with edges
 70
    26
177
     3
291
     0
 70
    58
 90
        2
176
     1
 90
        2
176
     1
 90
        1
176
     1
 90
        2
176
     1
 40
0.6
176
     1
 40
30.0
176
     1
 62
     7
420
 16777215
176
     1
 90
        1
176
     1
 90
       10
176
     1
 62
     7
176
     1
 62
   257
176
     1
 90
        2
176
     1
 90
        1
176
     1
 40
1.0
176
     1
 90
        8
176
     1
 62
   257
176
     1
 40
1.0
176
     1
 90
        1
176
     1
 90
        6
176
     1
 90
        2
176
     1
 62
     7
176
     1
 90
        3
176
     1
 90
        0
176
     1
 90
        0
176
     1
290
     0
176
     1
 90
        5
176
     1
 40
0.0
176
     1
 90
        0
176
     1
290
     0
176
     1
290
     1
176
     1
290
     1
176
     1
290
     0
176
     1
290
     0
176
     1
290
     0
176
     1
290
     0
176
     1
290
     0
176
     1
290
     0
176
     1
 90
       50
176
     1
 40
0.0
176
     1
 40
1.0
176
     1
 90
        0
176
     1
 62
    18
420
        0
176
     1
 90
       50
176
     1
 90
        3
176
     1
 62
     5
420
      255
176
     1
290
     0
176
     1
 90
       50
176
     1
 90
       50
176
     1
 90
       50
176
     1
290
     0
176
     1
 90
       50
176
     1
 62
   256
176
     0
 40
1.0
176
     0
 90
        2
176
     1
  1
strokes_ogs.tif
176
     1
290
     0
176
     1
 40
1.0
176
     1
 40
1.0
176
     1
  0
VISUALSTYLE
  5
3A
102
{ACAD_REACTORS
330
29
102
}
330
29
100
AcDbVisualStyle
  2
Shades of Gray
 70
    23
177
     3
291
     0
 70
    58
 90
        2
176
     1
 90
        2
176
     1
 90
        3
176
     1
 90
        0
176
     1
 40
0.6
176
     1
 40
30.0
176
     1
 62
     7
420
 16777215
176
     1
 90
        2
176
     1
 90
        2
176
     1
 62
     7
176
     1
 62
     7
176
     1
 90
        1
176
     1
 90
        1
176
     1
 40
40.0
176
     1
 90
        8
176
     1
 62
     7
176
     1
 40
1.0
176
     1
 90
        1
176
     1
 90
        6
176
     1
 90
        2
176
     1
 62
     7
176
     1
 90
        3
176
     1
 90
        0
176
     1
 90
        0
176
     1
290
     0
176
     1
 90
        1
176
     1
 40
0.0
176
     1
 90
        0
176
     1
290
     0
176
     1
290
     1
176
     1
290
     1
176
     1
290
     0
176
     1
290
     0
176
     1
290
     0
176
     1
290
     0
176
     1
290
     0
176
     1
290
     0
176
     1
 90
       50
176
     1
 40
0.0
176
     1
 40
1.0
176
     1
 90
        0
176
     1
 62
    18
420
        0
176
     1
 90
       50
176
     1
 90
        3
176
     1
 62
     5
420
      255
176
     1
290
     0
176
     1
 90
       50
176
     1
 90
       50
176
     1
 90
       50
176
     1
290
     0
176
     1
 90
       50
176
     1
 62
   256
176
     0
 40
1.0
176
     0
 90
        2
176
     1
  1
strokes_ogs.tif
176
     1
290
     0
176
     1
 40
1.0
176
     1
 40
1.0
176
     1
  0
VISUALSTYLE
  5
3B
102
{ACAD_REACTORS
330
29
102
}
330
29
100
AcDbVisualStyle
  2
Sketchy
 70
    24
177
     3
291
     0
 70
    58
 90
        1
176
     1
 90
        2
176
     1
 90
        2
176
     1
 90
        0
176
     1
 40
0.6
176
     1
 40
30.0
176
     1
 62
     7
420
 16777215
176
     1
 90
        2
176
     1
 90
        2
176
     1
 62
     7
176
     1
 62
     7
176
     1
 90
        1
176
     1
 90
        1
176
     1
 40
40.0
176
     1
 90
       11
176
     1
 62
     7
176
     1
 40
1.0
176
     1
 90
        1
176
     1
 90
        6
176
     1
 90
        2
176
     1
 62
     7
176
     1
 90
        6
176
     1
 90
        0
176
     1
 90
        0
176
     1
290
     0
176
     1
 90
        1
176
     1
 40
0.0
176
     1
 90
        0
176
     1
290
     0
176
     1
290
     1
176
     1
290
     1
176
     1
290
     0
176
     1
290
     0
176
     1
290
     0
176
     1
290
     0
176
     1
290
     0
176
     1
290
     0
176
     1
 90
       50
176
     1
 40
0.0
176
     1
 40
1.0
176
     1
 90
        0
176
     1
 62
    18
420
        0
176
     1
 90
       50
176
     1
 90
        3
176
     1
 62
     5
420
      255
176
     1
290
     0
176
     1
 90
       50
176
     1
 90
       50
176
     1
 90
       50
176
     1
290
     0
176
     1
 90
       50
176
     1
 62
   256
176
     0
 40
1.0
176
     0
 90
        2
176
     1
  1
strokes_ogs.tif
176
     1
290
     0
176
     1
 40
1.0
176
     1
 40
1.0
176
     1
  0
VISUALSTYLE
  5
36
102
{ACAD_REACTORS
330
29
102
}
330
29
100
AcDbVisualStyle
  2
Thicken
 70
    13
177
     3
291
     1
 70
    58
 90
        2
176
     1
 90
        2
176
     1
 90
        0
176
     1
 90
        0
176
     1
 40
0.6
176
     1
 40
30.0
176
     1
 62
     7
420
 16777215
176
     1
 90
        1
176
     1
 90
        4
176
     1
 62
     7
176
     1
 62
   257
176
     1
 90
        1
176
     1
 90
        1
176
     1
 40
1.0
176
     1
 90
       12
176
     1
 62
     7
176
     1
 40
1.0
176
     1
 90
        1
176
     1
 90
        6
176
     1
 90
        2
176
     1
 62
     7
176
     1
 90
        5
176
     1
 90
        0
176
     1
 90
        0
176
     1
290
     0
176
     1
 90
        1
176
     1
 40
0.0
176
     1
 90
        0
176
     1
290
     0
176
     1
290
     1
176
     1
290
     1
176
     1
290
     0
176
     1
290
     0
176
     1
290
     0
176
     1
290
     0
176
     1
290
     0
176
     1
290
     0
176
     1
 90
       50
176
     1
 40
0.0
176
     1
 40
1.0
176
     1
 90
        0
176
     1
 62
    18
420
        0
176
     1
 90
       50
176
     1
 90
        3
176
     1
 62
     5
420
      255
176
     1
290
     0
176
     1
 90
       50
176
     1
 90
       50
176
     1
 90
       50
176
     1
290
     0
176
     1
 90
       50
176
     1
 62
   256
176
     0
 40
1.0
176
     0
 90
        2
176
     1
  1
strokes_ogs.tif
176
     1
290
     0
176
     1
 40
1.0
176
     1
 40
1.0
176
     1
  0
VISUALSTYLE
  5
30
102
{ACAD_REACTORS
330
29
102
}
330
29
100
AcDbVisualStyle
  2
Wireframe
 70
     5
177
     3
291
     0
 70
    58
 90
        0
176
     1
 90
        2
176
     1
 90
        0
176
     1
 90
        0
176
     1
 40
0.6
176
     1
 40
30.0
176
     1
 62
     7
420
 16777215
176
     1
 90
        1
176
     1
 90
        4
176
     1
 62
     7
176
     1
 62
   257
176
     1
 90
        1
176
     1
 90
        1
176
     1
 40
1.0
176
     1
 90
        0
176
     1
 62
   257
176
     1
 40
1.0
176
     1
 90
        1
176
     1
 90
        6
176
     1
 90
        2
176
     1
 62
     7
176
     1
 90
        3
176
     1
 90
        0
176
     1
 90
        0
176
     1
290
     0
176
     1
 90
        1
176
     1
 40
0.0
176
     1
 90
        0
176
     1
290
     0
176
     1
290
     1
176
     1
290
     1
176
     1
290
     0
176
     1
290
     0
176
     1
290
     0
176
     1
290
     0
176
     1
290
     0
176
     1
290
     0
176
     1
 90
       50
176
     1
 40
0.0
176
     1
 40
1.0
176
     1
 90
        0
176
     1
 62
    18
420
        0
176
     1
 90
       50
176
     1
 90
        3
176
     1
 62
     5
420
      255
176
     1
290
     0
176
     1
 90
       50
176
     1
 90
       50
176
     1
 90
       50
176
     1
290
     0
176
     1
 90
       50
176
     1
 62
   256
176
     0
 40
1.0
176
     0
 90
        2
176
     1
  1
strokes_ogs.tif
176
     1
290
     0
176
     1
 40
1.0
176
     1
 40
1.0
176
     1
  0
VISUALSTYLE
  5
3C
102
{ACAD_REACTORS
330
29
102
}
330
29
100
AcDbVisualStyle
  2
X-Ray
 70
    25
177
     3
291
     0
 70
    58
 90
        2
176
     1
 90
        2
176
     1
 90
        1
176
     1
 90
        1
176
     1
 40
0.5
176
     1
 40
30.0
176
     1
 62
     7
420
 16777215
176
     1
 90
        1
176
     1
 90
        0
176
     1
 62
     7
176
     1
 62
   257
176
     1
 90
        1
176
     1
 90
        1
176
     1
 40
1.0
176
     1
 90
        8
176
     1
 62
     7
176
     1
 40
1.0
176
     1
 90
        1
176
     1
 90
        6
176
     1
 90
        2
176
     1
 62
     7
176
     1
 90
        3
176
     1
 90
        0
176
     1
 90
        0
176
     1
290
     0
176
     1
 90
       13
176
     1
 40
0.0
176
     1
 90
        0
176
     1
290
     0
176
     1
290
     1
176
     1
290
     1
176
     1
290
     0
176
     1
290
     0
176
     1
290
     0
176
     1
290
     0
176
     1
290
     0
176
     1
290
     0
176
     1
 90
       50
176
     1
 40
0.0
176
     1
 40
1.0
176
     1
 90
        0
176
     1
 62
    18
420
        0
176
     1
 90
       50
176
     1
 90
        3
176
     1
 62
     5
420
      255
176
     1
290
     0
176
     1
 90
       50
176
     1
 90
       50
176
     1
 90
       50
176
     1
290
     0
176
     1
 90
       50
176
     1
 62
   256
176
     0
 40
1.0
176
     0
 90
        2
176
     1
  1
strokes_ogs.tif
176
     1
290
     0
176
     1
 40
1.0
176
     1
 40
1.0
176
     1
  0
DICTIONARYVAR
  5
81
102
{ACAD_REACTORS
330
7C
102
}
330
7C
100
DictionaryVariables
280
     0
  1
1:1
  0
DICTIONARYVAR
  5
7E
102
{ACAD_REACTORS
330
7C
102
}
330
7C
100
DictionaryVariables
280
     0
  1
STANDARD
  0
DICTIONARYVAR
  5
7D
102
{ACAD_REACTORS
330
7C
102
}
330
7C
100
DictionaryVariables
280
     0
  1
STANDARD
  0
DICTIONARYVAR
  5
7F
102
{ACAD_REACTORS
330
7C
102
}
330
7C
100
DictionaryVariables
280
     0
  1
Imperial24
  0
DICTIONARYVAR
  5
80
102
{ACAD_REACTORS
330
7C
102
}
330
7C
100
DictionaryVariables
280
     0
  1
Imperial24
  0
XRECORD
  5
208
102
{ACAD_REACTORS
330
204
102
}
330
204
100
AcDbXrecord
280
     1
  1
BUILDING_ID
  1
Progetto per messa in tavola DXF, DWG
  1
FLOOR_ID
  1
694395
  0
XRECORD
  5
206
102
{ACAD_REACTORS
330
204
102
}
330
204
100
AcDbXrecord
280
     1
  1
-2001160
  1
Apparecchi idraulici
  0
XRECORD
  5
207
102
{ACAD_REACTORS
330
204
102
}
330
204
100
AcDbXrecord
280
     1
  1
856288
  1
Lever
  0
XRECORD
  5
205
102
{ACAD_REACTORS
330
204
102
}
330
204
100
AcDbXrecord
280
     1
  1
859151
  1
Automatic flow rate regulator valve_Caleffi_121 DN15 : 1/2''
  0
DICTIONARY
  5
1A
330
19
100
AcDbDictionary
280
     1
281
     1
  3
BUMPTILE
360
1C
  3
DIFFUSETILE
360
1B
  3
OPACITYTILE
360
1F
  3
REFLECTIONTILE
360
1E
  3
REFRACTIONTILE
360
20
  3
SPECULARTILE
360
1D
  0
DICTIONARY
  5
12
330
11
100
AcDbDictionary
280
     1
281
     1
  3
BUMPTILE
360
14
  3
DIFFUSETILE
360
13
  3
OPACITYTILE
360
17
  3
REFLECTIONTILE
360
16
  3
REFRACTIONTILE
360
18
  3
SPECULARTILE
360
15
  0
DICTIONARY
  5
22
330
21
100
AcDbDictionary
280
     1
281
     1
  3
BUMPTILE
360
24
  3
DIFFUSETILE
360
23
  3
OPACITYTILE
360
27
  3
REFLECTIONTILE
360
26
  3
REFRACTIONTILE
360
28
  3
SPECULARTILE
360
25
  0
DICTIONARY
  5
20B
330
65
100
AcDbDictionary
280
     1
281
     1
  3
ACAD_ROUNDTRIP_2008_TABLESTYLE_CELLSTYLEMAP
360
20C
  0
XRECORD
  5
1C
102
{ACAD_REACTORS
330
1A
102
}
330
1A
100
AcDbXrecord
280
     1
270
     1
271
     1
  0
XRECORD
  5
1B
102
{ACAD_REACTORS
330
1A
102
}
330
1A
100
AcDbXrecord
280
     1
270
     1
271
     1
  0
XRECORD
  5
1F
102
{ACAD_REACTORS
330
1A
102
}
330
1A
100
AcDbXrecord
280
     1
270
     1
271
     1
  0
XRECORD
  5
1E
102
{ACAD_REACTORS
330
1A
102
}
330
1A
100
AcDbXrecord
280
     1
270
     1
271
     1
  0
XRECORD
  5
20
102
{ACAD_REACTORS
330
1A
102
}
330
1A
100
AcDbXrecord
280
     1
270
     1
271
     1
  0
XRECORD
  5
1D
102
{ACAD_REACTORS
330
1A
102
}
330
1A
100
AcDbXrecord
280
     1
270
     1
271
     1
  0
XRECORD
  5
14
102
{ACAD_REACTORS
330
12
102
}
330
12
100
AcDbXrecord
280
     1
270
     1
271
     1
  0
XRECORD
  5
13
102
{ACAD_REACTORS
330
12
102
}
330
12
100
AcDbXrecord
280
     1
270
     1
271
     1
  0
XRECORD
  5
17
102
{ACAD_REACTORS
330
12
102
}
330
12
100
AcDbXrecord
280
     1
270
     1
271
     1
  0
XRECORD
  5
16
102
{ACAD_REACTORS
330
12
102
}
330
12
100
AcDbXrecord
280
     1
270
     1
271
     1
  0
XRECORD
  5
18
102
{ACAD_REACTORS
330
12
102
}
330
12
100
AcDbXrecord
280
     1
270
     1
271
     1
  0
XRECORD
  5
15
102
{ACAD_REACTORS
330
12
102
}
330
12
100
AcDbXrecord
280
     1
270
     1
271
     1
  0
XRECORD
  5
24
102
{ACAD_REACTORS
330
22
102
}
330
22
100
AcDbXrecord
280
     1
270
     1
271
     1
  0
XRECORD
  5
23
102
{ACAD_REACTORS
330
22
102
}
330
22
100
AcDbXrecord
280
     1
270
     1
271
     1
  0
XRECORD
  5
27
102
{ACAD_REACTORS
330
22
102
}
330
22
100
AcDbXrecord
280
     1
270
     1
271
     1
  0
XRECORD
  5
26
102
{ACAD_REACTORS
330
22
102
}
330
22
100
AcDbXrecord
280
     1
270
     1
271
     1
  0
XRECORD
  5
28
102
{ACAD_REACTORS
330
22
102
}
330
22
100
AcDbXrecord
280
     1
270
     1
271
     1
  0
XRECORD
  5
25
102
{ACAD_REACTORS
330
22
102
}
330
22
100
AcDbXrecord
280
     1
270
     1
271
     1
  0
CELLSTYLEMAP
  5
20C
102
{ACAD_REACTORS
330
20B
102
}
330
20B
100
AcDbCellStyleMap
 90
        3
300
CELLSTYLE
  1
TABLEFORMAT_BEGIN
 90
        5
170
     1
 91
        0
 92
    32768
 62
   257
 93
        1
300
CONTENTFORMAT
  1
CONTENTFORMAT_BEGIN
 90
        0
 91
        0
 92
      512
 93
        0
300

 40
0.0
140
1.0
 94
        5
 62
     0
340
55
144
0.25
309
CONTENTFORMAT_END
171
     0
 94
        0
309
TABLEFORMAT_END
  1
CELLSTYLE_BEGIN
 90
        1
 91
        1
300
_TITLE
309
CELLSTYLE_END
300
CELLSTYLE
  1
TABLEFORMAT_BEGIN
 90
        5
170
     1
 91
        0
 92
        0
 62
   257
 93
        1
300
CONTENTFORMAT
  1
CONTENTFORMAT_BEGIN
 90
        0
 91
        0
 92
      512
 93
        0
300

 40
0.0
140
1.0
 94
        5
 62
     0
340
55
144
0.18
309
CONTENTFORMAT_END
171
     0
 94
        0
309
TABLEFORMAT_END
  1
CELLSTYLE_BEGIN
 90
        2
 91
        1
300
_HEADER
309
CELLSTYLE_END
300
CELLSTYLE
  1
TABLEFORMAT_BEGIN
 90
        5
170
     1
 91
        0
 92
        0
 62
   257
 93
        1
300
CONTENTFORMAT
  1
CONTENTFORMAT_BEGIN
 90
        0
 91
        0
 92
      512
 93
        0
300

 40
0.0
140
1.0
 94
        2
 62
     0
340
55
144
0.18
309
CONTENTFORMAT_END
171
     0
 94
        0
309
TABLEFORMAT_END
  1
CELLSTYLE_BEGIN
 90
        3
 91
        2
300
_DATA
309
CELLSTYLE_END
  0
ENDSEC
  0
EOF
