  0
SECTION
  2
HEADER
  9
$ACADVER
  1
AC1027
  9
$ACADMAINTVER
 70
    20
  9
$DWGCODEPAGE
  3
ANSI_1252
  9
$REQUIREDVERSIONS
160
                 0
  9
$INSBASE
 10
0.0
 20
0.0
 30
0.0
  9
$EXTMIN
 10
786.6664074431886
 20
1833.845878730052
 30
-0.00000001
  9
$EXTMAX
 10
1032.014353953097
 20
2049.999999999996
 30
0.00000001
  9
$LIMMIN
 10
0.0
 20
0.0
  9
$LIMMAX
 10
12.0
 20
9.0
  9
$ORTHOMODE
 70
     0
  9
$REGENMODE
 70
     1
  9
$FILLMODE
 70
     1
  9
$QTEXTMODE
 70
     0
  9
$MIRRTEXT
 70
     0
  9
$LTSCALE
 40
1.0
  9
$ATTMODE
 70
     1
  9
$TEXTSIZE
 40
0.2
  9
$TRACEWID
 40
0.05
  9
$TEXTSTYLE
  7
Standard
  9
$CLAYER
  8
0
  9
$CELTYPE
  6
ByLayer
  9
$CECOLOR
 62
   256
  9
$CELTSCALE
 40
1.0
  9
$DISPSILH
 70
     0
  9
$DIMSCALE
 40
1.0
  9
$DIMASZ
 40
0.18
  9
$DIMEXO
 40
0.0625
  9
$DIMDLI
 40
0.38
  9
$DIMRND
 40
0.0
  9
$DIMDLE
 40
0.0
  9
$DIMEXE
 40
0.18
  9
$DIMTP
 40
0.0
  9
$DIMTM
 40
0.0
  9
$DIMTXT
 40
0.18
  9
$DIMCEN
 40
0.09
  9
$DIMTSZ
 40
0.0
  9
$DIMTOL
 70
     0
  9
$DIMLIM
 70
     0
  9
$DIMTIH
 70
     1
  9
$DIMTOH
 70
     1
  9
$DIMSE1
 70
     0
  9
$DIMSE2
 70
     0
  9
$DIMTAD
 70
     0
  9
$DIMZIN
 70
     0
  9
$DIMBLK
  1

  9
$DIMASO
 70
     1
  9
$DIMSHO
 70
     1
  9
$DIMPOST
  1

  9
$DIMAPOST
  1

  9
$DIMALT
 70
     0
  9
$DIMALTD
 70
     2
  9
$DIMALTF
 40
25.4
  9
$DIMLFAC
 40
1.0
  9
$DIMTOFL
 70
     0
  9
$DIMTVP
 40
0.0
  9
$DIMTIX
 70
     0
  9
$DIMSOXD
 70
     0
  9
$DIMSAH
 70
     0
  9
$DIMBLK1
  1

  9
$DIMBLK2
  1

  9
$DIMSTYLE
  2
Standard
  9
$DIMCLRD
 70
     0
  9
$DIMCLRE
 70
     0
  9
$DIMCLRT
 70
     0
  9
$DIMTFAC
 40
1.0
  9
$DIMGAP
 40
0.09
  9
$DIMJUST
 70
     0
  9
$DIMSD1
 70
     0
  9
$DIMSD2
 70
     0
  9
$DIMTOLJ
 70
     1
  9
$DIMTZIN
 70
     0
  9
$DIMALTZ
 70
     0
  9
$DIMALTTZ
 70
     0
  9
$DIMUPT
 70
     0
  9
$DIMDEC
 70
     4
  9
$DIMTDEC
 70
     4
  9
$DIMALTU
 70
     2
  9
$DIMALTTD
 70
     2
  9
$DIMTXSTY
  7
Standard
  9
$DIMAUNIT
 70
     0
  9
$DIMADEC
 70
     0
  9
$DIMALTRND
 40
0.0
  9
$DIMAZIN
 70
     0
  9
$DIMDSEP
 70
    46
  9
$DIMATFIT
 70
     3
  9
$DIMFRAC
 70
     0
  9
$DIMLDRBLK
  1

  9
$DIMLUNIT
 70
     2
  9
$DIMLWD
 70
    -2
  9
$DIMLWE
 70
    -2
  9
$DIMTMOVE
 70
     0
  9
$DIMFXL
 40
1.0
  9
$DIMFXLON
 70
     0
  9
$DIMJOGANG
 40
0.7853981633974483
  9
$DIMTFILL
 70
     0
  9
$DIMTFILLCLR
 70
     0
  9
$DIMARCSYM
 70
     0
  9
$DIMLTYPE
  6

  9
$DIMLTEX1
  6

  9
$DIMLTEX2
  6

  9
$DIMTXTDIRECTION
 70
     0
  9
$LUNITS
 70
     2
  9
$LUPREC
 70
     4
  9
$SKETCHINC
 40
0.1
  9
$FILLETRAD
 40
0.0
  9
$AUNITS
 70
     0
  9
$AUPREC
 70
     0
  9
$MENU
  1
.
  9
$ELEVATION
 40
0.0
  9
$PELEVATION
 40
0.0
  9
$THICKNESS
 40
0.0
  9
$LIMCHECK
 70
     0
  9
$CHAMFERA
 40
0.0
  9
$CHAMFERB
 40
0.0
  9
$CHAMFERC
 40
0.0
  9
$CHAMFERD
 40
0.0
  9
$SKPOLY
 70
     0
  9
$TDCREATE
 40
2457550.645154479
  9
$TDUCREATE
 40
2457550.561821146
  9
$TDUPDATE
 40
2457550.645154479
  9
$TDUUPDATE
 40
2457550.561821146
  9
$TDINDWG
 40
0.0000081250
  9
$TDUSRTIMER
 40
0.0000081250
  9
$USRTIMER
 70
     1
  9
$ANGBASE
 50
0.0
  9
$ANGDIR
 70
     0
  9
$PDMODE
 70
     0
  9
$PDSIZE
 40
0.0
  9
$PLINEWID
 40
0.0
  9
$SPLFRAME
 70
     0
  9
$SPLINETYPE
 70
     6
  9
$SPLINESEGS
 70
     8
  9
$HANDSEED
  5
236
  9
$SURFTAB1
 70
     6
  9
$SURFTAB2
 70
     6
  9
$SURFTYPE
 70
     6
  9
$SURFU
 70
     6
  9
$SURFV
 70
     6
  9
$UCSBASE
  2

  9
$UCSNAME
  2

  9
$UCSORG
 10
0.0
 20
0.0
 30
0.0
  9
$UCSXDIR
 10
1.0
 20
0.0
 30
0.0
  9
$UCSYDIR
 10
0.0
 20
1.0
 30
0.0
  9
$UCSORTHOREF
  2

  9
$UCSORTHOVIEW
 70
     0
  9
$UCSORGTOP
 10
0.0
 20
0.0
 30
0.0
  9
$UCSORGBOTTOM
 10
0.0
 20
0.0
 30
0.0
  9
$UCSORGLEFT
 10
0.0
 20
0.0
 30
0.0
  9
$UCSORGRIGHT
 10
0.0
 20
0.0
 30
0.0
  9
$UCSORGFRONT
 10
0.0
 20
0.0
 30
0.0
  9
$UCSORGBACK
 10
0.0
 20
0.0
 30
0.0
  9
$PUCSBASE
  2

  9
$PUCSNAME
  2

  9
$PUCSORG
 10
0.0
 20
0.0
 30
0.0
  9
$PUCSXDIR
 10
1.0
 20
0.0
 30
0.0
  9
$PUCSYDIR
 10
0.0
 20
1.0
 30
0.0
  9
$PUCSORTHOREF
  2

  9
$PUCSORTHOVIEW
 70
     0
  9
$PUCSORGTOP
 10
0.0
 20
0.0
 30
0.0
  9
$PUCSORGBOTTOM
 10
0.0
 20
0.0
 30
0.0
  9
$PUCSORGLEFT
 10
0.0
 20
0.0
 30
0.0
  9
$PUCSORGRIGHT
 10
0.0
 20
0.0
 30
0.0
  9
$PUCSORGFRONT
 10
0.0
 20
0.0
 30
0.0
  9
$PUCSORGBACK
 10
0.0
 20
0.0
 30
0.0
  9
$USERI1
 70
     0
  9
$USERI2
 70
     0
  9
$USERI3
 70
     0
  9
$USERI4
 70
     0
  9
$USERI5
 70
     0
  9
$USERR1
 40
0.0
  9
$USERR2
 40
0.0
  9
$USERR3
 40
0.0
  9
$USERR4
 40
0.0
  9
$USERR5
 40
0.0
  9
$WORLDVIEW
 70
     1
  9
$SHADEDGE
 70
     3
  9
$SHADEDIF
 70
    70
  9
$TILEMODE
 70
     1
  9
$MAXACTVP
 70
    64
  9
$PINSBASE
 10
0.0
 20
0.0
 30
0.0
  9
$PLIMCHECK
 70
     0
  9
$PEXTMIN
 10
1.000000000000000E+20
 20
1.000000000000000E+20
 30
1.000000000000000E+20
  9
$PEXTMAX
 10
-1.000000000000000E+20
 20
-1.000000000000000E+20
 30
-1.000000000000000E+20
  9
$PLIMMIN
 10
0.0
 20
0.0
  9
$PLIMMAX
 10
12.0
 20
9.0
  9
$UNITMODE
 70
     0
  9
$VISRETAIN
 70
     1
  9
$PLINEGEN
 70
     0
  9
$PSLTSCALE
 70
     1
  9
$TREEDEPTH
 70
  3020
  9
$CMLSTYLE
  2
Standard
  9
$CMLJUST
 70
     0
  9
$CMLSCALE
 40
1.0
  9
$PROXYGRAPHICS
 70
     1
  9
$MEASUREMENT
 70
     1
  9
$CELWEIGHT
370
    -1
  9
$ENDCAPS
280
     0
  9
$JOINSTYLE
280
     0
  9
$LWDISPLAY
290
     0
  9
$INSUNITS
 70
     4
  9
$HYPERLINKBASE
  1

  9
$STYLESHEET
  1

  9
$XEDIT
290
     1
  9
$CEPSNTYPE
380
     0
  9
$PSTYLEMODE
290
     1
  9
$FINGERPRINTGUID
  2
{A9B0B0BD-AB4C-4447-A683-81BB262F96ED}
  9
$VERSIONGUID
  2
{E4BB563E-76BB-4A9A-870F-3594DFCE84A8}
  9
$EXTNAMES
290
     1
  9
$PSVPSCALE
 40
0.0
  9
$OLESTARTUP
290
     0
  9
$SORTENTS
280
   127
  9
$INDEXCTL
280
     0
  9
$HIDETEXT
280
     1
  9
$XCLIPFRAME
280
     2
  9
$HALOGAP
280
     0
  9
$OBSCOLOR
 70
   257
  9
$OBSLTYPE
280
     0
  9
$INTERSECTIONDISPLAY
280
     0
  9
$INTERSECTIONCOLOR
 70
   257
  9
$DIMASSOC
280
     2
  9
$PROJECTNAME
  1

  9
$CAMERADISPLAY
290
     0
  9
$LENSLENGTH
 40
50.0
  9
$CAMERAHEIGHT
 40
0.0
  9
$STEPSPERSEC
 40
2.0
  9
$STEPSIZE
 40
6.0
  9
$3DDWFPREC
 40
2.0
  9
$PSOLWIDTH
 40
0.25
  9
$PSOLHEIGHT
 40
4.0
  9
$LOFTANG1
 40
1.570796326794896
  9
$LOFTANG2
 40
1.570796326794896
  9
$LOFTMAG1
 40
0.0
  9
$LOFTMAG2
 40
0.0
  9
$LOFTPARAM
 70
     7
  9
$LOFTNORMALS
280
     1
  9
$LATITUDE
 40
37.795
  9
$LONGITUDE
 40
-122.394
  9
$NORTHDIRECTION
 40
0.0
  9
$TIMEZONE
 70
 -8000
  9
$LIGHTGLYPHDISPLAY
280
     1
  9
$TILEMODELIGHTSYNCH
280
     1
  9
$CMATERIAL
347
11
  9
$SOLIDHIST
280
     0
  9
$SHOWHIST
280
     1
  9
$DWFFRAME
280
     2
  9
$DGNFRAME
280
     0
  9
$REALWORLDSCALE
290
     1
  9
$INTERFERECOLOR
 62
     1
  9
$INTERFEREOBJVS
345
33
  9
$INTERFEREVPVS
346
30
  9
$CSHADOW
280
     0
  9
$SHADOWPLANELOCATION
 40
0.0
  0
ENDSEC
  0
SECTION
  2
CLASSES
  0
CLASS
  1
ACDBDICTIONARYWDFLT
  2
AcDbDictionaryWithDefault
  3
ObjectDBX Classes
 90
        0
 91
        1
280
     0
281
     0
  0
CLASS
  1
MATERIAL
  2
AcDbMaterial
  3
ObjectDBX Classes
 90
     1153
 91
        3
280
     0
281
     0
  0
CLASS
  1
VISUALSTYLE
  2
AcDbVisualStyle
  3
ObjectDBX Classes
 90
     4095
 91
       24
280
     0
281
     0
  0
CLASS
  1
SCALE
  2
AcDbScale
  3
ObjectDBX Classes
 90
     1153
 91
       17
280
     0
281
     0
  0
CLASS
  1
TABLESTYLE
  2
AcDbTableStyle
  3
ObjectDBX Classes
 90
     4095
 91
        1
280
     0
281
     0
  0
CLASS
  1
MLEADERSTYLE
  2
AcDbMLeaderStyle
  3
ACDB_MLEADERSTYLE_CLASS
 90
     4095
 91
        1
280
     0
281
     0
  0
CLASS
  1
ACDBSECTIONVIEWSTYLE
  2
AcDbSectionViewStyle
  3
ObjectDBX Classes
 90
     1025
 91
        1
280
     0
281
     0
  0
CLASS
  1
ACDBDETAILVIEWSTYLE
  2
AcDbDetailViewStyle
  3
ObjectDBX Classes
 90
     1025
 91
        1
280
     0
281
     0
  0
CLASS
  1
RASTERVARIABLES
  2
AcDbRasterVariables
  3
ISM
 90
        0
 91
        1
280
     0
281
     0
  0
CLASS
  1
DICTIONARYVAR
  2
AcDbDictionaryVar
  3
ObjectDBX Classes
 90
        0
 91
        5
280
     0
281
     0
  0
CLASS
  1
CELLSTYLEMAP
  2
AcDbCellStyleMap
  3
ObjectDBX Classes
 90
     1152
 91
        2
280
     0
281
     0
  0
CLASS
  1
SORTENTSTABLE
  2
AcDbSortentsTable
  3
ObjectDBX Classes
 90
        0
 91
        1
280
     0
281
     0
  0
ENDSEC
  0
SECTION
  2
TABLES
  0
TABLE
  2
VPORT
  5
8
330
0
100
AcDbSymbolTable
 70
     1
  0
VPORT
  5
57
330
8
100
AcDbSymbolTableRecord
100
AcDbViewportTableRecord
  2
*Active
 70
     0
 10
0.0
 20
0.0
 11
1.0
 21
1.0
 12
909.3403806981429
 22
1941.922939365024
 13
0.0
 23
0.0
 14
1.0
 24
1.0
 15
0.0
 25
0.0
 16
0.0
 26
0.0
 36
1.0
 17
0.0
 27
0.0
 37
0.0
 40
216.1541212699439
 41
1.135060229564191
 42
50.0
 43
0.0
 44
0.0
 50
0.0
 51
0.0
 71
     0
 72
  1000
 73
     1
 74
     1
 75
     0
 76
     0
 77
     0
 78
     0
281
     0
 65
     1
110
0.0
120
0.0
130
0.0
111
1.0
121
0.0
131
0.0
112
0.0
122
1.0
132
0.0
 79
     0
146
0.0
 60
     3
 61
     5
292
     1
282
     1
141
0.0
142
0.0
 63
   250
421
  3355443
  0
ENDTAB
  0
TABLE
  2
LTYPE
  5
5
330
0
100
AcDbSymbolTable
 70
     3
  0
LTYPE
  5
5B
330
5
100
AcDbSymbolTableRecord
100
AcDbLinetypeTableRecord
  2
ByBlock
 70
     0
  3

 72
    65
 73
     0
 40
0.0
  0
LTYPE
  5
5C
330
5
100
AcDbSymbolTableRecord
100
AcDbLinetypeTableRecord
  2
ByLayer
 70
     0
  3

 72
    65
 73
     0
 40
0.0
  0
LTYPE
  5
5D
330
5
100
AcDbSymbolTableRecord
100
AcDbLinetypeTableRecord
  2
Continuous
 70
     0
  3
Solid line
 72
    65
 73
     0
 40
0.0
  0
LTYPE
  5
69
330
5
100
AcDbSymbolTableRecord
100
AcDbLinetypeTableRecord
  2
PHANTOM2
 70
     0
  3
___ _ _ ___ _ _ ___ _ _ ___ _ _
 72
    65
 73
     6
 40
1.25
 49
0.625
 74
     0
 49
-0.125
 74
     0
 49
0.125
 74
     0
 49
-0.125
 74
     0
 49
0.125
 74
     0
 49
-0.125
 74
     0
  0
LTYPE
  5
86
330
5
100
AcDbSymbolTableRecord
100
AcDbLinetypeTableRecord
  2
Nascosto 1_5 mm
 70
     0
  3

 72
    65
 73
     2
 40
2.2
 49
1.5
 74
     0
 49
-0.7000000000000001
 74
     0
  0
ENDTAB
  0
TABLE
  2
LAYER
  5
2
330
0
100
AcDbSymbolTable
 70
     4
  0
LAYER
  5
54
330
2
100
AcDbSymbolTableRecord
100
AcDbLayerTableRecord
  2
0
 70
     0
 62
     7
  6
Continuous
370
    -3
390
F
347
21
348
0
  0
LAYER
  5
85
330
2
100
AcDbSymbolTableRecord
100
AcDbLayerTableRecord
  2
P-SANR-FIXT
 70
     0
 62
     6
  6
Continuous
370
    18
390
F
347
21
348
0
  0
LAYER
  5
88
330
2
100
AcDbSymbolTableRecord
100
AcDbLayerTableRecord
  2
M-PIPE
 70
     0
 62
     3
  6
Continuous
370
    18
390
F
347
21
348
0
  0
ENDTAB
  0
TABLE
  2
STYLE
  5
3
330
0
100
AcDbSymbolTable
 70
     2
  0
STYLE
  5
55
330
3
100
AcDbSymbolTableRecord
100
AcDbTextStyleTableRecord
  2
Standard
 70
     0
 40
0.0
 41
1.0
 50
0.0
 71
     0
 42
0.2
  3
txt
  4

  0
STYLE
  5
5A
330
3
100
AcDbSymbolTableRecord
100
AcDbTextStyleTableRecord
  2
Annotative
 70
     0
 40
0.0
 41
1.0
 50
0.0
 71
     0
 42
0.2
  3
txt
  4

1001
AcadAnnotative
1000
AnnotativeData
1002
{
1070
     1
1070
     1
1002
}
  0
ENDTAB
  0
TABLE
  2
VIEW
  5
6
330
0
100
AcDbSymbolTable
 70
     0
  0
ENDTAB
  0
TABLE
  2
UCS
  5
7
330
0
100
AcDbSymbolTable
 70
     0
  0
ENDTAB
  0
TABLE
  2
APPID
  5
9
330
0
100
AcDbSymbolTable
 70
     3
  0
APPID
  5
56
330
9
100
AcDbSymbolTableRecord
100
AcDbRegAppTableRecord
  2
ACAD
 70
     0
  0
APPID
  5
5E
330
9
100
AcDbSymbolTableRecord
100
AcDbRegAppTableRecord
  2
AcadAnnotative
 70
     0
  0
APPID
  5
79
330
9
100
AcDbSymbolTableRecord
100
AcDbRegAppTableRecord
  2
REVIT
 70
     0
  0
ENDTAB
  0
TABLE
  2
DIMSTYLE
  5
A
330
0
100
AcDbSymbolTable
 70
     2
100
AcDbDimStyleTable
 71
     0
  0
DIMSTYLE
105
58
330
A
100
AcDbSymbolTableRecord
100
AcDbDimStyleTableRecord
  2
Standard
 70
     0
340
55
  0
DIMSTYLE
105
59
330
A
100
AcDbSymbolTableRecord
100
AcDbDimStyleTableRecord
  2
Annotative
 70
     0
340
55
1001
AcadAnnotative
1000
AnnotativeData
1002
{
1070
     1
1070
     1
1002
}
  0
ENDTAB
  0
TABLE
  2
BLOCK_RECORD
  5
1
330
0
100
AcDbSymbolTable
 70
     4
  0
BLOCK_RECORD
  5
71
102
{ACAD_XDICTIONARY
360
231
102
}
330
1
100
AcDbSymbolTableRecord
100
AcDbBlockTableRecord
  2
*Model_Space
340
74
 70
     0
280
     1
281
     0
  0
BLOCK_RECORD
  5
6D
330
1
100
AcDbSymbolTableRecord
100
AcDbBlockTableRecord
  2
*Paper_Space
340
70
 70
     0
280
     1
281
     0
  0
BLOCK_RECORD
  5
75
330
1
100
AcDbSymbolTableRecord
100
AcDbBlockTableRecord
  2
*Paper_Space0
340
78
 70
     0
280
     1
281
     0
  0
BLOCK_RECORD
  5
87
330
1
100
AcDbSymbolTableRecord
100
AcDbBlockTableRecord
  2
Automatic flow rate regulator valve_Caleffi_121 DN15 - 1_2__-859151-Est - Idraulica
340
0
102
{BLKREFS
331
117
102
}
 70
     0
280
     1
281
     0
  0
BLOCK_RECORD
  5
118
330
1
100
AcDbSymbolTableRecord
100
AcDbBlockTableRecord
  2
Automatic flow rate regulator valve_Caleffi_121 DN15 - 1_2__-V1-Est - Idraulica
340
0
102
{BLKREFS
331
185
102
}
 70
     0
280
     1
281
     0
  0
BLOCK_RECORD
  5
186
330
1
100
AcDbSymbolTableRecord
100
AcDbBlockTableRecord
  2
Automatic flow rate regulator valve_Caleffi_121 DN15 - 1_2__-V2-Est - Idraulica
340
0
102
{BLKREFS
331
22A
102
}
 70
     0
280
     1
281
     0
  0
ENDTAB
  0
ENDSEC
  0
SECTION
  2
BLOCKS
  0
BLOCK
  5
72
330
71
100
AcDbEntity
  8
0
100
AcDbBlockBegin
  2
*Model_Space
 70
     0
 10
0.0
 20
0.0
 30
0.0
  3
*Model_Space
  1

  0
ENDBLK
  5
73
330
71
100
AcDbEntity
  8
0
100
AcDbBlockEnd
  0
BLOCK
  5
6E
330
6D
100
AcDbEntity
 67
     1
  8
0
100
AcDbBlockBegin
  2
*Paper_Space
 70
     0
 10
0.0
 20
0.0
 30
0.0
  3
*Paper_Space
  1

  0
ENDBLK
  5
6F
330
6D
100
AcDbEntity
 67
     1
  8
0
100
AcDbBlockEnd
  0
BLOCK
  5
76
330
75
100
AcDbEntity
 67
     1
  8
0
100
AcDbBlockBegin
  2
*Paper_Space0
 70
     0
 10
0.0
 20
0.0
 30
0.0
  3
*Paper_Space0
  1

  0
ENDBLK
  5
77
330
75
100
AcDbEntity
 67
     1
  8
0
100
AcDbBlockEnd
  0
BLOCK
  5
115
330
87
100
AcDbEntity
  8
0
100
AcDbBlockBegin
  2
Automatic flow rate regulator valve_Caleffi_121 DN15 - 1_2__-859151-Est - Idraulica
 70
     0
 10
0.0
 20
0.0
 30
0.0
  3
Automatic flow rate regulator valve_Caleffi_121 DN15 - 1_2__-859151-Est - Idraulica
  1

  0
LWPOLYLINE
  5
89
330
87
100
AcDbEntity
  8
M-PIPE
100
AcDbPolyline
 90
       33
 70
   128
 43
0.0
 10
815.6664074431901
 20
2039.371520091339
 10
815.1880507880516
 20
2039.37152009134
 10
814.7104594015171
 20
2039.37152009134
 10
814.2343973279249
 20
2039.37152009134
 10
813.7606261650375
 20
2039.37152009134
 10
813.2899038456505
 20
2039.37152009134
 10
812.8229834250591
 20
2039.37152009134
 10
812.3606118763319
 20
2039.37152009134
 10
811.9035288953128
 20
2039.37152009134
 10
811.4524657172658
 20
2039.37152009134
 10
811.008143947054
 20
2039.37152009134
 10
810.5712744047261
 20
2039.37152009134
 10
810.142555988356
 20
2039.37152009134
 10
809.7226745559549
 20
2039.37152009134
 10
809.3123018282446
 20
2039.37152009134
 10
808.912094314048
 20
2039.37152009134
 10
808.5226922600147
 20
2039.37152009134
 10
808.1447186263632
 20
2039.37152009134
 10
807.778778090277
 20
2039.37152009134
 10
807.4254560785513
 20
2039.37152009134
 10
807.0853178310331
 20
2039.37152009134
 10
806.7589074963594
 20
2039.37152009134
 10
806.4467472614355
 20
2039.37152009134
 10
806.1493365160464
 20
2039.37152009134
 10
805.8671510539404
 20
2039.37152009134
 10
805.6006423116608
 20
2039.37152009134
 10
805.3502366463428
 20
2039.37152009134
 10
805.1163346536341
 20
2039.37152009134
 10
804.8993105268268
 20
2039.37152009134
 10
804.6995114582271
 20
2039.37152009134
 10
804.5172570837237
 20
2039.37152009134
 10
804.3528389714371
 20
2039.37152009134
 10
804.307213660509
 20
2039.37152009134
1001
REVIT
1002
{
1070
     3
1000
923114
1002
}
  0
LWPOLYLINE
  5
8A
330
87
100
AcDbEntity
  8
M-PIPE
100
AcDbPolyline
 90
       33
 70
   128
 43
0.0
 10
827.0256012258714
 20
2039.371520091339
 10
826.866564692979
 20
2039.371520091339
 10
826.6896102977268
 20
2039.371520091339
 10
826.4950211293983
 20
2039.371520091339
 10
826.2831084891532
 20
2039.371520091339
 10
826.0542113920097
 20
2039.371520091339
 10
825.8086960244948
 20
2039.371520091339
 10
825.5469551588229
 20
2039.371520091339
 10
825.2694075245432
 20
2039.371520091339
 10
824.9764971386648
 20
2039.371520091339
 10
824.6686925953197
 20
2039.371520091339
 10
824.3464863161163
 20
2039.371520091339
 10
824.0103937623677
 20
2039.371520091339
 10
823.660952610464
 20
2039.371520091339
 10
823.2987218917045
 20
2039.371520091339
 10
822.9242810979677
 20
2039.371520091339
 10
822.538229254647
 20
2039.371520091339
 10
822.1411839623387
 20
2039.371520091339
 10
821.7337804088115
 20
2039.371520091339
 10
821.3166703528433
 20
2039.371520091339
 10
820.8905210815446
 20
2039.371520091339
 10
820.4560143428428
 20
2039.371520091339
 10
820.0138452548298
 20
2039.371520091339
 10
819.5647211937222
 20
2039.371520091339
 10
819.1093606622098
 20
2039.371520091339
 10
818.648492140004
 20
2039.371520091339
 10
818.1828529184279
 20
2039.371520091339
 10
817.7131879209044
 20
2039.371520091339
 10
817.2402485112396
 20
2039.371520091339
 10
816.764791291601
 20
2039.371520091339
 10
816.2875768921143
 20
2039.371520091339
 10
815.8093687540183
 20
2039.371520091339
 10
815.6664074431901
 20
2039.371520091339
1001
REVIT
1002
{
1070
     3
1000
923114
1002
}
  0
LWPOLYLINE
  5
8B
330
87
100
AcDbEntity
  8
M-PIPE
100
AcDbPolyline
 90
       11
 70
   128
 43
0.0
 10
807.8365830244152
 20
2045.867053054365
 10
807.9928060520135
 20
2045.867053054365
 10
808.1613052048897
 20
2045.867053054365
 10
808.3418109203446
 20
2045.867053054365
 10
808.5340344277383
 20
2045.867053054365
 10
808.737668210465
 20
2045.867053054365
 10
808.9523864979122
 20
2045.867053054365
 10
809.1778457866235
 20
2045.867053054365
 10
809.4136853898326
 20
2045.867053054365
 10
809.6595280144844
 20
2045.867053054365
 10
809.8837584410185
 20
2045.867053054365
1001
REVIT
1002
{
1070
     3
1000
923114
1002
}
  0
LWPOLYLINE
  5
8C
330
87
100
AcDbEntity
  8
M-PIPE
100
AcDbPolyline
 90
       30
 70
   128
 43
0.0
 10
815.6664074431903
 20
2045.867053054364
 10
815.3192395589853
 20
2045.867053054364
 10
814.9726270693367
 20
2045.867053054364
 10
814.6271244802873
 20
2045.867053054364
 10
814.283284522277
 20
2045.867053054365
 10
813.9416572658896
 20
2045.867053054365
 10
813.6027892418589
 20
2045.867053054365
 10
813.2672225667352
 20
2045.867053054365
 10
812.9354940756149
 20
2045.867053054365
 10
812.6081344633188
 20
2045.867053054365
 10
812.285667435394
 20
2045.867053054365
 10
811.9686088702955
 20
2045.867053054365
 10
811.6574659940921
 20
2045.867053054365
 10
811.3527365690121
 20
2045.867053054365
 10
811.0549080971299
 20
2045.867053054365
 10
810.7644570404675
 20
2045.867053054365
 10
810.4818480587555
 20
2045.867053054365
 10
810.2075332660785
 20
2045.867053054365
 10
809.941951507587
 20
2045.867053054365
 10
809.6855276574405
 20
2045.867053054365
 10
809.4386719390982
 20
2045.867053054365
 10
809.2017792690496
 20
2045.867053054365
 10
808.9752286250327
 20
2045.867053054365
 10
808.7593824397494
 20
2045.867053054365
 10
808.5545860210514
 20
2045.867053054365
 10
808.3611669995212
 20
2045.867053054365
 10
808.1794348043327
 20
2045.867053054365
 10
808.0096801682309
 20
2045.867053054365
 10
807.8521746624209
 20
2045.867053054365
 10
807.8365830244152
 20
2045.867053054365
1001
REVIT
1002
{
1070
     3
1000
923114
1002
}
  0
LWPOLYLINE
  5
8D
330
87
100
AcDbEntity
  8
M-PIPE
100
AcDbPolyline
 90
       30
 70
   128
 43
0.0
 10
823.4962318619652
 20
2045.867053054364
 10
823.3400088343671
 20
2045.867053054364
 10
823.1715096814907
 20
2045.867053054364
 10
822.9910039660362
 20
2045.867053054364
 10
822.7987804586421
 20
2045.867053054364
 10
822.5951466759154
 20
2045.867053054364
 10
822.3804283884684
 20
2045.867053054364
 10
822.1549690997569
 20
2045.867053054364
 10
821.9191294965478
 20
2045.867053054364
 10
821.6732868718962
 20
2045.867053054364
 10
821.4178345215577
 20
2045.867053054364
 10
821.1531811147997
 20
2045.867053054364
 10
820.8797500406163
 20
2045.867053054364
 10
820.5979787303977
 20
2045.867053054364
 10
820.3083179581318
 20
2045.867053054364
 10
820.0112311192633
 20
2045.867053054364
 10
819.7071934893594
 20
2045.867053054364
 10
819.3966914637703
 20
2045.867053054364
 10
819.0802217794995
 20
2045.867053054364
 10
818.7582907205323
 20
2045.867053054364
 10
818.4314133078878
 20
2045.867053054364
 10
818.1001124756964
 20
2045.867053054364
 10
817.7649182346156
 20
2045.867053054364
 10
817.4263668239269
 20
2045.867053054364
 10
817.084999853667
 20
2045.867053054364
 10
816.7413634381675
 20
2045.867053054364
 10
816.3960073223874
 20
2045.867053054364
 10
816.0494840024405
 20
2045.867053054364
 10
815.7023478417173
 20
2045.867053054364
 10
815.6664074431903
 20
2045.867053054364
1001
REVIT
1002
{
1070
     3
1000
923114
1002
}
  0
LWPOLYLINE
  5
8E
330
87
100
AcDbEntity
  8
M-PIPE
100
AcDbPolyline
 90
       12
 70
   128
 43
0.0
 10
821.4490564453601
 20
2045.867053054364
 10
821.6472872289401
 20
2045.867053054364
 10
821.8941429472824
 20
2045.867053054364
 10
822.131035617331
 20
2045.867053054364
 10
822.3575862613481
 20
2045.867053054364
 10
822.5734324466312
 20
2045.867053054364
 10
822.7782288653294
 20
2045.867053054364
 10
822.9716478868594
 20
2045.867053054364
 10
823.1533800820479
 20
2045.867053054364
 10
823.3231347181497
 20
2045.867053054364
 10
823.4806402239597
 20
2045.867053054364
 10
823.4962318619652
 20
2045.867053054364
1001
REVIT
1002
{
1070
     3
1000
923114
1002
}
  0
LINE
  5
8F
330
87
100
AcDbEntity
  8
M-PIPE
100
AcDbLine
 10
801.3050008268475
 20
2023.367053054362
 30
0.0
 11
813.6664074431886
 21
2023.367053054362
 31
0.0
1001
REVIT
1002
{
1070
     3
1000
923114
1002
}
  0
LINE
  5
90
330
87
100
AcDbEntity
  8
M-PIPE
100
AcDbLine
 10
813.6664074431879
 20
2023.367053054362
 30
0.0
 11
813.6664074431882
 21
2029.867053054345
 31
0.0
1001
REVIT
1002
{
1070
     3
1000
923114
1002
}
  0
LINE
  5
91
330
87
100
AcDbEntity
  8
M-PIPE
100
AcDbLine
 10
813.6664074431886
 20
2029.867053054345
 30
0.0
 11
815.6664074431885
 21
2029.867053054345
 31
0.0
1001
REVIT
1002
{
1070
     3
1000
923114
1002
}
  0
LINE
  5
92
330
87
100
AcDbEntity
  8
M-PIPE
100
AcDbLine
 10
801.6597126153632
 20
2036.833626109563
 30
0.0
 11
801.659712615363
 21
2029.867053054345
 31
0.0
1001
REVIT
1002
{
1070
     3
1000
923114
1002
}
  0
LINE
  5
93
330
87
100
AcDbEntity
  8
M-PIPE
100
AcDbLine
 10
801.3050008268475
 20
2029.867053054345
 30
0.0
 11
801.3050008268475
 21
2023.367053054362
 31
0.0
1001
REVIT
1002
{
1070
     3
1000
923114
1002
}
  0
LINE
  5
94
330
87
100
AcDbEntity
  8
M-PIPE
100
AcDbLine
 10
830.0278140595279
 20
2029.867053054345
 30
0.0
 11
830.0278140595279
 21
2023.367053054362
 31
0.0
1001
REVIT
1002
{
1070
     3
1000
923114
1002
}
  0
LINE
  5
95
330
87
100
AcDbEntity
  8
M-PIPE
100
AcDbLine
 10
815.6664074431885
 20
2029.867053054345
 30
0.0
 11
829.6731022710142
 21
2029.867053054345
 31
0.0
1001
REVIT
1002
{
1070
     3
1000
923114
1002
}
  0
LINE
  5
96
330
87
100
AcDbEntity
  8
M-PIPE
100
AcDbLine
 10
829.6731022710142
 20
2029.867053054345
 30
0.0
 11
829.6731022710142
 21
2036.833626109563
 31
0.0
1001
REVIT
1002
{
1070
     3
1000
923114
1002
}
  0
LINE
  5
97
330
87
100
AcDbEntity
  8
M-PIPE
100
AcDbLine
 10
807.2106401805511
 20
2045.298565044156
 30
0.0
 11
807.2106401805511
 21
2041.867053054363
 31
0.0
1001
REVIT
1002
{
1070
     3
1000
923114
1002
}
  0
LINE
  5
98
330
87
100
AcDbEntity
  8
M-PIPE
100
AcDbLine
 10
824.1221747058265
 20
2041.867053054363
 30
0.0
 11
824.1221747058265
 21
2045.298565044156
 31
0.0
1001
REVIT
1002
{
1070
     3
1000
923114
1002
}
  0
LINE
  5
99
330
87
100
AcDbEntity
  8
M-PIPE
100
AcDbLine
 10
830.0278140595279
 20
2023.367053054362
 30
0.0
 11
827.8512000881008
 21
2023.367053054362
 31
0.0
1001
REVIT
1002
{
1070
     3
1000
923114
1002
}
  0
SPLINE
  5
9A
330
87
100
AcDbEntity
  8
M-PIPE
100
AcDbSpline
210
0.0
220
0.0
230
1.0
 70
     8
 71
     3
 72
    12
 73
     8
 74
     0
 42
0.000000001
 43
0.0000000001
 40
-1.0
 40
-1.0
 40
-1.0
 40
-1.0
 40
-0.7857142857142857
 40
-0.5714285714285714
 40
-0.4285714285714286
 40
-0.2857142857142857
 40
0.0
 40
0.0
 40
0.0
 40
0.0
 10
804.4198711656104
 20
2039.369269772794
 30
0.0
 10
804.117065663433
 20
2039.381177469739
 30
0.0
 10
803.5224895031936
 20
2039.309583394201
 30
0.0
 10
802.789812694638
 20
2038.960567375948
 30
0.0
 10
802.2673009451576
 20
2038.491462701085
 30
0.0
 10
801.809121363799
 20
2037.828634004475
 30
0.0
 10
801.6613732252432
 20
2037.240419796955
 30
0.0
 10
801.6597126153632
 20
2036.833626109563
 30
0.0
1001
REVIT
1002
{
1070
     3
1000
923114
1002
}
  0
SPLINE
  5
9B
330
87
100
AcDbEntity
  8
M-PIPE
100
AcDbSpline
210
0.0
220
0.0
230
1.0
 70
     8
 71
     3
 72
    13
 73
     9
 74
     0
 42
0.000000001
 43
0.0000000001
 40
-1.0
 40
-1.0
 40
-1.0
 40
-1.0
 40
-0.7857142857142857
 40
-0.6785714285714287
 40
-0.5714285714285714
 40
-0.4285714285714286
 40
-0.2857142857142857
 40
0.0
 40
0.0
 40
0.0
 40
0.0
 10
829.6731022710142
 20
2036.833626109563
 30
0.0
 10
829.6718568136041
 20
2037.138721375107
 30
0.0
 10
829.5893253663061
 20
2037.580710977244
 30
0.0
 10
829.3255358400486
 20
2038.120793385806
 30
0.0
 10
829.0281571589975
 20
2038.524928969001
 30
0.0
 10
828.617596789099
 20
2038.893407730479
 30
0.0
 10
827.912401156742
 20
2039.280851485288
 30
0.0
 10
827.316684390337
 20
2039.385146702054
 30
0.0
 10
826.9129437207672
 20
2039.369269772794
 30
0.0
1001
REVIT
1002
{
1070
     3
1000
923114
1002
}
  0
SPLINE
  5
9C
330
87
100
AcDbEntity
  8
M-PIPE
100
AcDbSpline
210
0.0
220
0.0
230
1.0
 70
     8
 71
     3
 72
    15
 73
    11
 74
     0
 42
0.000000001
 43
0.0000000001
 40
-1.0
 40
-1.0
 40
-1.0
 40
-1.0
 40
-0.8928571428571427
 40
-0.8392857142857142
 40
-0.7857142857142857
 40
-0.6785714285714287
 40
-0.5714285714285714
 40
-0.4285714285714286
 40
-0.2857142857142857
 40
-0.142857142857143
 40
-0.142857142857143
 40
-0.142857142857143
 40
-0.142857142857143
 10
807.2106401805486
 20
2041.867053054363
 30
0.0
 10
807.2096439017807
 20
2041.714679513717
 30
0.0
 10
807.1874136388627
 20
2041.491344232385
 30
0.0
 10
807.117101810638
 20
2041.205270559629
 30
0.0
 10
807.0164304965164
 20
2040.921930037899
 30
0.0
 10
806.8452066344416
 20
2040.591100110158
 30
0.0
 10
806.5381959028727
 20
2040.195360905129
 30
0.0
 10
806.1220208711482
 20
2039.837006145093
 30
0.0
 10
805.5922552002984
 20
2039.553176916321
 30
0.0
 10
805.2109169109474
 20
2039.443760141135
 30
0.0
 10
805.0158215837097
 20
2039.409588486003
 30
0.0
1001
REVIT
1002
{
1070
     3
1000
923114
1002
}
  0
SPLINE
  5
9D
330
87
100
AcDbEntity
  8
M-PIPE
100
AcDbSpline
210
0.0
220
0.0
230
1.0
 70
     8
 71
     3
 72
     8
 73
     4
 74
     0
 42
0.000000001
 43
0.0000000001
 40
-0.0029205900844478
 40
-0.0029205900844478
 40
-0.0029205900844478
 40
-0.0029205900844478
 40
0.0
 40
0.0
 40
0.0
 40
0.0
 10
804.4322171412105
 20
2039.368837004739
 30
0.0
 10
804.4281025882797
 20
2039.368972435563
 30
0.0
 10
804.4239872556339
 20
2039.369116689913
 30
0.0
 10
804.4198711656104
 20
2039.369269772794
 30
0.0
1001
REVIT
1002
{
1070
     3
1000
923114
1002
}
  0
SPLINE
  5
9E
330
87
100
AcDbEntity
  8
M-PIPE
100
AcDbSpline
210
0.0
220
0.0
230
1.0
 70
     8
 71
     3
 72
    12
 73
     8
 74
     0
 42
0.000000001
 43
0.0000000001
 40
-0.8915723064319781
 40
-0.8915723064319781
 40
-0.8915723064319781
 40
-0.8915723064319781
 40
-0.5714285714285714
 40
-0.4285714285714286
 40
-0.2857142857142857
 40
-0.1428571428571428
 40
0.0
 40
0.0
 40
0.0
 40
0.0
 10
826.457783763703
 20
2039.388949032616
 30
0.0
 10
826.0145585783336
 20
2039.444021382428
 30
0.0
 10
825.4003090534125
 20
2039.674230717275
 30
0.0
 10
824.7561304437033
 20
2040.228572857289
 30
0.0
 10
824.4022027823989
 20
2040.712845629551
 30
0.0
 10
824.1740060049508
 20
2041.272174452597
 30
0.0
 10
824.1235030775195
 20
2041.6638883335
 30
0.0
 10
824.122174705829
 20
2041.867053054363
 30
0.0
1001
REVIT
1002
{
1070
     3
1000
923114
1002
}
  0
SPLINE
  5
9F
330
87
100
AcDbEntity
  8
M-PIPE
100
AcDbSpline
210
0.0
220
0.0
230
1.0
 70
     8
 71
     3
 72
    11
 73
     7
 74
     0
 42
0.000000001
 43
0.0000000001
 40
-1.0
 40
-1.0
 40
-1.0
 40
-1.0
 40
-0.6666666666666666
 40
-0.4166666666666666
 40
-0.1666666666666666
 40
0.0
 40
0.0
 40
0.0
 40
0.0
 10
807.8365830244139
 20
2045.867053054363
 30
0.0
 10
807.724833734707
 20
2045.865963190564
 30
0.0
 10
807.5544901946908
 20
2045.828160175477
 30
0.0
 10
807.333619017584
 20
2045.663158184053
 30
0.0
 10
807.2372427840544
 20
2045.489057174112
 30
0.0
 10
807.2140118694031
 20
2045.355786513246
 30
0.0
 10
807.2106401805511
 20
2045.298565044156
 30
0.0
1001
REVIT
1002
{
1070
     3
1000
923114
1002
}
  0
SPLINE
  5
A0
330
87
100
AcDbEntity
  8
M-PIPE
100
AcDbSpline
210
0.0
220
0.0
230
1.0
 70
     8
 71
     3
 72
    11
 73
     7
 74
     0
 42
0.000000001
 43
0.0000000001
 40
-1.0
 40
-1.0
 40
-1.0
 40
-1.0
 40
-0.7083333333333333
 40
-0.5
 40
-0.1666666666666666
 40
0.0
 40
0.0
 40
0.0
 40
0.0
 10
824.1221747058265
 20
2045.298565044156
 30
0.0
 10
824.1162742503357
 20
2045.398702615064
 30
0.0
 10
824.0783299173084
 20
2045.548117378281
 30
0.0
 10
823.9076832767082
 20
2045.748188593319
 30
0.0
 10
823.7100768451643
 20
2045.848884712476
 30
0.0
 10
823.5521065068173
 20
2045.866508122463
 30
0.0
 10
823.4962318619636
 20
2045.867053054363
 30
0.0
1001
REVIT
1002
{
1070
     3
1000
923114
1002
}
  0
LINE
  5
A1
330
87
100
AcDbEntity
  8
M-PIPE
100
AcDbLine
 10
826.9911590961138
 20
2029.867053054345
 30
0.0
 11
826.9911590961138
 21
2028.249999999995
 31
0.0
1001
REVIT
1002
{
1070
     3
1000
923114
1002
}
  0
LINE
  5
A2
330
87
100
AcDbEntity
  8
M-PIPE
100
AcDbLine
 10
844.6664074432531
 20
2029.867053054345
 30
0.0
 11
844.1873576620393
 21
2043.585243924314
 31
0.0
1001
REVIT
1002
{
1070
     3
1000
923114
1002
}
  0
ARC
  5
A3
330
87
100
AcDbEntity
  8
M-PIPE
100
AcDbCircle
 10
839.1904035269439
 20
2043.410746440802
 30
0.0
 40
4.999999999999918
100
AcDbArc
 50
1.999999999995965
 51
100.0000000000014
1001
REVIT
1002
{
1070
     3
1000
923114
1002
}
  0
LINE
  5
A4
330
87
100
AcDbEntity
  8
M-PIPE
100
AcDbLine
 10
838.3221626386092
 20
2048.334785205863
 30
0.0
 11
824.8808998386627
 21
2045.964727919439
 31
0.0
1001
REVIT
1002
{
1070
     3
1000
923114
1002
}
  0
ARC
  5
A5
330
87
100
AcDbEntity
  8
M-PIPE
100
AcDbCircle
 10
823.7644710221848
 20
2052.296310369227
 30
0.0
 40
6.429257314863274
100
AcDbArc
 50
269.9999999999997
 51
280.0000000000004
1001
REVIT
1002
{
1070
     3
1000
923114
1002
}
  0
LINE
  5
A6
330
87
100
AcDbEntity
  8
M-PIPE
100
AcDbLine
 10
823.4962318619636
 20
2045.867053054363
 30
0.0
 11
823.7644710221848
 21
2045.867053054363
 31
0.0
1001
REVIT
1002
{
1070
     3
1000
923114
1002
}
  0
LINE
  5
A7
330
87
100
AcDbEntity
  8
M-PIPE
100
AcDbLine
 10
844.6664074432531
 20
2029.867053054345
 30
0.0
 11
829.6731022710142
 21
2029.867053054345
 31
0.0
1001
REVIT
1002
{
1070
     3
1000
923114
1002
}
  0
ARC
  5
A8
330
87
100
AcDbEntity
  8
M-PIPE
100
AcDbCircle
 10
807.5683438642569
 20
2052.296310369227
 30
0.0
 40
6.42925731486332
100
AcDbArc
 50
260.0000000000002
 51
269.9999999999997
1001
REVIT
1002
{
1070
     3
1000
923114
1002
}
  0
LINE
  5
A9
330
87
100
AcDbEntity
  8
M-PIPE
100
AcDbLine
 10
806.451915047779
 20
2045.964727919439
 30
0.0
 11
793.0106522478326
 21
2048.334785205863
 31
0.0
1001
REVIT
1002
{
1070
     3
1000
923114
1002
}
  0
ARC
  5
AA
330
87
100
AcDbEntity
  8
M-PIPE
100
AcDbCircle
 10
792.142411359498
 20
2043.410746440801
 30
0.0
 40
4.999999999999984
100
AcDbArc
 50
80.00000000000005
 51
177.999999999999
1001
REVIT
1002
{
1070
     3
1000
923114
1002
}
  0
LINE
  5
AB
330
87
100
AcDbEntity
  8
M-PIPE
100
AcDbLine
 10
787.1454572244025
 20
2043.585243924314
 30
0.0
 11
786.6664074431886
 21
2029.867053054345
 31
0.0
1001
REVIT
1002
{
1070
     3
1000
923114
1002
}
  0
LINE
  5
AC
330
87
100
AcDbEntity
  8
M-PIPE
100
AcDbLine
 10
801.6597126153632
 20
2029.867053054345
 30
0.0
 11
786.6664074431886
 21
2029.867053054345
 31
0.0
1001
REVIT
1002
{
1070
     3
1000
923114
1002
}
  0
LINE
  5
AD
330
87
100
AcDbEntity
  8
M-PIPE
100
AcDbLine
 10
807.5683438642569
 20
2045.867053054363
 30
0.0
 11
807.8365830244139
 21
2045.867053054363
 31
0.0
1001
REVIT
1002
{
1070
     3
1000
923114
1002
}
  0
LINE
  5
AE
330
87
100
AcDbEntity
  8
P-SANR-FIXT
100
AcDbLine
 10
799.9664074431589
 20
1985.499999999996
 30
0.0
 11
799.9835210474238
 21
1985.499999999996
 31
0.0
  0
LINE
  5
AF
330
87
100
AcDbEntity
  8
P-SANR-FIXT
100
AcDbLine
 10
789.6664074431588
 20
1987.000000000011
 30
0.0
 11
790.5324328469507
 21
1985.499999999998
 31
0.0
  0
LINE
  5
B0
330
87
100
AcDbEntity
  8
P-SANR-FIXT
100
AcDbLine
 10
790.5324328469521
 20
2014.499999999996
 30
0.0
 11
789.6664074431588
 21
2012.999999999981
 31
0.0
  0
LINE
  5
B1
330
87
100
AcDbEntity
  8
P-SANR-FIXT
100
AcDbLine
 10
799.983521047425
 20
1985.499999999996
 30
0.0
 11
800.6453470390468
 21
1984.325840554911
 31
0.0
  0
LINE
  5
B2
330
87
100
AcDbEntity
  8
P-SANR-FIXT
100
AcDbLine
 10
800.6524616913864
 20
1984.313218300196
 30
0.0
 11
800.6880952796459
 21
1984.249999999998
 31
0.0
  0
LINE
  5
B3
330
87
100
AcDbEntity
  8
P-SANR-FIXT
100
AcDbLine
 10
800.6880952796459
 20
2015.749999999994
 30
0.0
 11
800.6524616913864
 21
2015.686781699795
 31
0.0
  0
LINE
  5
B4
330
87
100
AcDbEntity
  8
P-SANR-FIXT
100
AcDbLine
 10
800.6453470390468
 20
2015.67415944508
 30
0.0
 11
799.9835210474238
 21
2014.499999999994
 31
0.0
  0
LINE
  5
B5
330
87
100
AcDbEntity
  8
P-SANR-FIXT
100
AcDbLine
 10
800.6880952796459
 20
1984.249999999998
 30
0.0
 11
802.6664074431574
 21
1984.249999999998
 31
0.0
  0
LINE
  5
B6
330
87
100
AcDbEntity
  8
P-SANR-FIXT
100
AcDbLine
 10
802.6664074431574
 20
2015.749999999994
 30
0.0
 11
800.6880952796459
 21
2015.749999999994
 31
0.0
  0
LINE
  5
B7
330
87
100
AcDbEntity
  8
P-SANR-FIXT
100
AcDbLine
 10
789.6664074431574
 20
1987.00000000001
 30
0.0
 11
789.6664074431574
 21
1988.082864355462
 31
0.0
  0
LINE
  5
B8
330
87
100
AcDbEntity
  8
P-SANR-FIXT
100
AcDbLine
 10
789.6664074431574
 20
1988.100950771456
 30
0.0
 11
789.6664074431574
 21
1988.74166975081
 31
0.0
  0
LINE
  5
B9
330
87
100
AcDbEntity
  8
P-SANR-FIXT
100
AcDbLine
 10
789.6664074431574
 20
1988.74166975081
 30
0.0
 11
789.6664074431574
 21
1989.388922078353
 31
0.0
  0
LINE
  5
BA
330
87
100
AcDbEntity
  8
P-SANR-FIXT
100
AcDbLine
 10
789.6664074431574
 20
1989.51622014453
 30
0.0
 11
789.6664074431574
 21
1998.584730626921
 31
0.0
  0
LINE
  5
BB
330
87
100
AcDbEntity
  8
P-SANR-FIXT
100
AcDbLine
 10
789.6664074431574
 20
1998.700411816432
 30
0.0
 11
789.6664074431574
 21
1999.999999999994
 31
0.0
  0
LINE
  5
BC
330
87
100
AcDbEntity
  8
P-SANR-FIXT
100
AcDbLine
 10
789.6664074431574
 20
1999.999999999994
 30
0.0
 11
789.6664074431574
 21
2001.299588183559
 31
0.0
  0
LINE
  5
BD
330
87
100
AcDbEntity
  8
P-SANR-FIXT
100
AcDbLine
 10
789.6664074431574
 20
2001.415269373069
 30
0.0
 11
789.6664074431574
 21
2010.48377985546
 31
0.0
  0
LINE
  5
BE
330
87
100
AcDbEntity
  8
P-SANR-FIXT
100
AcDbLine
 10
789.6664074431574
 20
2010.611077921752
 30
0.0
 11
789.6664074431574
 21
2011.258330249179
 31
0.0
  0
LINE
  5
BF
330
87
100
AcDbEntity
  8
P-SANR-FIXT
100
AcDbLine
 10
789.6664074431574
 20
2011.258330249179
 30
0.0
 11
789.6664074431574
 21
2011.899049228534
 31
0.0
  0
LINE
  5
C0
330
87
100
AcDbEntity
  8
P-SANR-FIXT
100
AcDbLine
 10
789.6664074431574
 20
2011.917135644405
 30
0.0
 11
789.6664074431574
 21
2012.99999999998
 31
0.0
  0
LINE
  5
C1
330
87
100
AcDbEntity
  8
P-SANR-FIXT
100
AcDbLine
 10
789.6664074431574
 20
2011.899049228534
 30
0.0
 11
789.6664074431574
 21
2011.25833024918
 31
0.0
  0
LINE
  5
C2
330
87
100
AcDbEntity
  8
P-SANR-FIXT
100
AcDbLine
 10
789.6664074431574
 20
2011.25833024918
 30
0.0
 11
789.6664074431574
 21
2010.611077921752
 31
0.0
  0
LINE
  5
C3
330
87
100
AcDbEntity
  8
P-SANR-FIXT
100
AcDbLine
 10
789.6664074431574
 20
1989.388922078353
 30
0.0
 11
789.6664074431574
 21
1988.741669750811
 31
0.0
  0
LINE
  5
C4
330
87
100
AcDbEntity
  8
P-SANR-FIXT
100
AcDbLine
 10
789.6664074431574
 20
1988.741669750811
 30
0.0
 11
789.6664074431574
 21
1988.100950771456
 31
0.0
  0
LINE
  5
C5
330
87
100
AcDbEntity
  8
P-SANR-FIXT
100
AcDbLine
 10
789.6664074431574
 20
2001.301472653322
 30
0.0
 11
789.6664074431574
 21
1998.69852734667
 31
0.0
  0
LINE
  5
C6
330
87
100
AcDbEntity
  8
P-SANR-FIXT
100
AcDbLine
 10
789.6664074431574
 20
1998.69852734667
 30
0.0
 11
789.6664074431574
 21
2001.301472653322
 31
0.0
  0
LINE
  5
C7
330
87
100
AcDbEntity
  8
P-SANR-FIXT
100
AcDbLine
 10
790.5324328469505
 20
1985.530361606129
 30
0.0
 11
790.5324328469505
 21
1985.499999999995
 31
0.0
  0
LINE
  5
C8
330
87
100
AcDbEntity
  8
P-SANR-FIXT
100
AcDbLine
 10
799.9835210474235
 20
1985.499999999995
 30
0.0
 11
799.9835210474235
 21
1985.507592389266
 31
0.0
  0
SPLINE
  5
C9
330
87
100
AcDbEntity
  8
P-SANR-FIXT
100
AcDbSpline
210
0.0
220
0.0
230
1.0
 70
     8
 71
     3
 72
     9
 73
     5
 74
     0
 42
0.000000001
 43
0.0000000001
 40
0.0
 40
0.0
 40
0.0
 40
0.0
 40
0.5
 40
0.8024967357883079
 40
0.8024967357883079
 40
0.8024967357883079
 40
0.8024967357883079
 10
790.5324328469295
 20
1991.952977895492
 30
0.0
 10
790.252279343016
 20
1991.426590861078
 30
0.0
 10
789.9116266439995
 20
1990.574656266916
 30
0.0
 10
789.7459051459536
 20
1989.711347340169
 30
0.0
 10
789.7082928153799
 20
1989.384311636468
 30
0.0
  0
SPLINE
  5
CA
330
87
100
AcDbEntity
  8
P-SANR-FIXT
100
AcDbSpline
210
0.0
220
0.0
230
1.0
 70
     8
 71
     3
 72
     8
 73
     4
 74
     0
 42
0.000000001
 43
0.0000000001
 40
0.8146817145984851
 40
0.8146817145984851
 40
0.8146817145984851
 40
0.8146817145984851
 40
1.0
 40
1.0
 40
1.0
 40
1.0
 10
789.7038685788812
 20
1989.344783444285
 30
0.0
 10
789.6820529163704
 20
1989.144352109474
 30
0.0
 10
789.6695658711291
 20
1988.943314211655
 30
0.0
 10
789.6664074431574
 20
1988.741669750829
 30
0.0
  0
SPLINE
  5
CB
330
87
100
AcDbEntity
  8
P-SANR-FIXT
100
AcDbSpline
210
0.0
220
0.0
230
1.0
 70
     8
 71
     3
 72
     8
 73
     4
 74
     0
 42
0.000000001
 43
0.0000000001
 40
0.0
 40
0.0
 40
0.0
 40
0.0
 40
0.1922577628489117
 40
0.1922577628489117
 40
0.1922577628489117
 40
0.1922577628489117
 10
789.6664074431574
 20
1988.741669750829
 30
0.0
 10
789.6696841424571
 20
1988.532474458278
 30
0.0
 10
789.6830011835561
 20
1988.323932006307
 30
0.0
 10
789.7063585664548
 20
1988.116042394917
 30
0.0
  0
SPLINE
  5
CC
330
87
100
AcDbEntity
  8
P-SANR-FIXT
100
AcDbSpline
210
0.0
220
0.0
230
1.0
 70
     8
 71
     3
 72
     9
 73
     5
 74
     0
 42
0.000000001
 43
0.0000000001
 40
0.25
 40
0.25
 40
0.25
 40
0.25
 40
0.5
 40
1.0
 40
1.0
 40
1.0
 40
1.0
 10
789.7301208654064
 20
1987.928907851246
 30
0.0
 10
789.7683356649005
 20
1987.659091091763
 30
0.0
 10
789.9339110396155
 20
1986.852952434452
 30
0.0
 10
790.2522793430293
 20
1986.056748640549
 30
0.0
 10
790.5324328469488
 20
1985.530361606129
 30
0.0
  0
LINE
  5
CD
330
87
100
AcDbEntity
  8
P-SANR-FIXT
100
AcDbLine
 10
799.9835210474218
 20
1985.530361606129
 30
0.0
 11
790.5324328469488
 21
1985.530361606129
 31
0.0
  0
LINE
  5
CE
330
87
100
AcDbEntity
  8
P-SANR-FIXT
100
AcDbLine
 10
799.9664074431574
 20
1985.530361606129
 30
0.0
 11
799.9664074431574
 21
1985.570017485507
 31
0.0
  0
LINE
  5
CF
330
87
100
AcDbEntity
  8
P-SANR-FIXT
100
AcDbLine
 10
790.5324328469505
 20
1993.577383710631
 30
0.0
 11
790.5324328469505
 21
1991.952977895492
 31
0.0
  0
LINE
  5
D0
330
87
100
AcDbEntity
  8
P-SANR-FIXT
100
AcDbLine
 10
799.983521047403
 20
1991.952977895492
 30
0.0
 11
790.5324328469295
 21
1991.952977895492
 31
0.0
  0
LINE
  5
D1
330
87
100
AcDbEntity
  8
P-SANR-FIXT
100
AcDbLine
 10
799.9835210474235
 20
1991.952977895492
 30
0.0
 11
799.9835210474235
 21
1993.577383710631
 31
0.0
  0
SPLINE
  5
D2
330
87
100
AcDbEntity
  8
P-SANR-FIXT
100
AcDbSpline
210
0.0
220
0.0
230
1.0
 70
     8
 71
     3
 72
     9
 73
     5
 74
     0
 42
0.000000001
 43
0.0000000001
 40
0.0
 40
0.0
 40
0.0
 40
0.0
 40
0.5
 40
0.8024967358098447
 40
0.8024967358098447
 40
0.8024967358098447
 40
0.8024967358098447
 10
790.5324328469277
 20
2006.422616289359
 30
0.0
 10
790.2522793430088
 20
2005.369842220525
 30
0.0
 10
789.911626643979
 20
2003.665973032144
 30
0.0
 10
789.7459051459368
 20
2001.939355178594
 30
0.0
 10
789.7082928153661
 20
2001.285283771139
 30
0.0
  0
SPLINE
  5
D3
330
87
100
AcDbEntity
  8
P-SANR-FIXT
100
AcDbSpline
210
0.0
220
0.0
230
1.0
 70
     8
 71
     3
 72
     8
 73
     4
 74
     0
 42
0.000000001
 43
0.0000000001
 40
0.8277107403531614
 40
0.8277107403531614
 40
0.8277107403531614
 40
0.8277107403531614
 40
1.0
 40
1.0
 40
1.0
 40
1.0
 10
789.6994055824391
 20
2001.121659995984
 30
0.0
 10
789.6803431937966
 20
2000.748821872528
 30
0.0
 10
789.6693438140358
 20
2000.374935207199
 30
0.0
 10
789.6664074431574
 20
1999.999999999994
 30
0.0
  0
SPLINE
  5
D4
330
87
100
AcDbEntity
  8
P-SANR-FIXT
100
AcDbSpline
210
0.0
220
0.0
230
1.0
 70
     8
 71
     3
 72
     8
 73
     4
 74
     0
 42
0.000000001
 43
0.0000000001
 40
0.0
 40
0.0
 40
0.0
 40
0.0
 40
0.1722892596468687
 40
0.1722892596468687
 40
0.1722892596468687
 40
0.1722892596468687
 10
789.6664074431574
 20
1999.999999999994
 30
0.0
 10
789.6693438140358
 20
1999.625064792791
 30
0.0
 10
789.6803431937966
 20
1999.251178127461
 30
0.0
 10
789.6994055824391
 20
1998.878340004005
 30
0.0
  0
SPLINE
  5
D5
330
87
100
AcDbEntity
  8
P-SANR-FIXT
100
AcDbSpline
210
0.0
220
0.0
230
1.0
 70
     8
 71
     3
 72
     9
 73
     5
 74
     0
 42
0.000000001
 43
0.0000000001
 40
0.1975032641898931
 40
0.1975032641898931
 40
0.1975032641898931
 40
0.1975032641898931
 40
0.5
 40
1.0
 40
1.0
 40
1.0
 40
1.0
 10
789.7082928153658
 20
1998.714716228851
 30
0.0
 10
789.7459051459366
 20
1998.060644821397
 30
0.0
 10
789.9116266439789
 20
1996.334026967845
 30
0.0
 10
790.2522793430088
 20
1994.630157779465
 30
0.0
 10
790.5324328469277
 20
1993.577383710631
 30
0.0
  0
LINE
  5
D6
330
87
100
AcDbEntity
  8
P-SANR-FIXT
100
AcDbLine
 10
799.9835210474014
 20
1993.577383710631
 30
0.0
 11
790.5324328469277
 21
1993.577383710631
 31
0.0
  0
LINE
  5
D7
330
87
100
AcDbEntity
  8
P-SANR-FIXT
100
AcDbLine
 10
790.5324328469505
 20
2008.047022104497
 30
0.0
 11
790.5324328469505
 21
2006.422616289359
 31
0.0
  0
LINE
  5
D8
330
87
100
AcDbEntity
  8
P-SANR-FIXT
100
AcDbLine
 10
799.9835210474014
 20
2006.422616289359
 30
0.0
 11
790.5324328469277
 21
2006.422616289359
 31
0.0
  0
LINE
  5
D9
330
87
100
AcDbEntity
  8
P-SANR-FIXT
100
AcDbLine
 10
799.9835210474235
 20
2006.422616289359
 30
0.0
 11
799.9835210474235
 21
2008.047022104497
 31
0.0
  0
SPLINE
  5
DA
330
87
100
AcDbEntity
  8
P-SANR-FIXT
100
AcDbSpline
210
0.0
220
0.0
230
1.0
 70
     8
 71
     3
 72
     9
 73
     5
 74
     0
 42
0.000000001
 43
0.0000000001
 40
0.0
 40
0.0
 40
0.0
 40
0.0
 40
0.5
 40
0.75
 40
0.75
 40
0.75
 40
0.75
 10
790.532432846949
 20
2014.469638393861
 30
0.0
 10
790.2522793430294
 20
2013.943251359441
 30
0.0
 10
789.9339110396157
 20
2013.147047565538
 30
0.0
 10
789.7683356649006
 20
2012.340908908227
 30
0.0
 10
789.7301208654067
 20
2012.071092148744
 30
0.0
  0
SPLINE
  5
DB
330
87
100
AcDbEntity
  8
P-SANR-FIXT
100
AcDbSpline
210
0.0
220
0.0
230
1.0
 70
     8
 71
     3
 72
     8
 73
     4
 74
     0
 42
0.000000001
 43
0.0000000001
 40
0.8077422371511257
 40
0.8077422371511257
 40
0.8077422371511257
 40
0.8077422371511257
 40
1.0
 40
1.0
 40
1.0
 40
1.0
 10
789.7063585664548
 20
2011.883957605073
 30
0.0
 10
789.6830011835564
 20
2011.676067993683
 30
0.0
 10
789.6696841424571
 20
2011.467525541712
 30
0.0
 10
789.6664074431574
 20
2011.258330249161
 30
0.0
  0
SPLINE
  5
DC
330
87
100
AcDbEntity
  8
P-SANR-FIXT
100
AcDbSpline
210
0.0
220
0.0
230
1.0
 70
     8
 71
     3
 72
     8
 73
     4
 74
     0
 42
0.000000001
 43
0.0000000001
 40
0.0
 40
0.0
 40
0.0
 40
0.0
 40
0.1853182854015873
 40
0.1853182854015873
 40
0.1853182854015873
 40
0.1853182854015873
 10
789.6664074431574
 20
2011.258330249161
 30
0.0
 10
789.6695658711291
 20
2011.056685788334
 30
0.0
 10
789.6820529163704
 20
2010.855647890515
 30
0.0
 10
789.7038685788812
 20
2010.655216555704
 30
0.0
  0
SPLINE
  5
DD
330
87
100
AcDbEntity
  8
P-SANR-FIXT
100
AcDbSpline
210
0.0
220
0.0
230
1.0
 70
     8
 71
     3
 72
     9
 73
     5
 74
     0
 42
0.000000001
 43
0.0000000001
 40
0.1975032641749379
 40
0.1975032641749379
 40
0.1975032641749379
 40
0.1975032641749379
 40
0.5
 40
1.0
 40
1.0
 40
1.0
 40
1.0
 10
789.7082928153662
 20
2010.615688363641
 30
0.0
 10
789.7459051459386
 20
2010.2886526599
 30
0.0
 10
789.9116266439841
 20
2009.425343733113
 30
0.0
 10
790.252279343016
 20
2008.573409138912
 30
0.0
 10
790.5324328469296
 20
2008.047022104497
 30
0.0
  0
LINE
  5
DE
330
87
100
AcDbEntity
  8
P-SANR-FIXT
100
AcDbLine
 10
799.983521047403
 20
2008.047022104497
 30
0.0
 11
790.5324328469296
 21
2008.047022104497
 31
0.0
  0
LINE
  5
DF
330
87
100
AcDbEntity
  8
P-SANR-FIXT
100
AcDbLine
 10
799.9664074431574
 20
2014.430008309744
 30
0.0
 11
799.9664074431574
 21
2014.469638393861
 31
0.0
  0
LINE
  5
E0
330
87
100
AcDbEntity
  8
P-SANR-FIXT
100
AcDbLine
 10
790.5324328469505
 20
2014.499999999995
 30
0.0
 11
790.5324328469505
 21
2014.469638393861
 31
0.0
  0
LINE
  5
E1
330
87
100
AcDbEntity
  8
P-SANR-FIXT
100
AcDbLine
 10
799.9835210474219
 20
2014.469638393861
 30
0.0
 11
790.532432846949
 21
2014.469638393861
 31
0.0
  0
LINE
  5
E2
330
87
100
AcDbEntity
  8
P-SANR-FIXT
100
AcDbLine
 10
799.9835210474235
 20
2014.469638393861
 30
0.0
 11
799.9835210474235
 21
2014.499999999995
 31
0.0
  0
LWPOLYLINE
  5
E3
330
87
100
AcDbEntity
  8
P-SANR-FIXT
100
AcDbPolyline
 90
        3
 70
   128
 43
0.0
 10
799.9835210474219
 20
2014.469638393861
 10
799.9664074431574
 20
2012.463059435848
 10
799.983521047403
 20
2008.047022104497
  0
LWPOLYLINE
  5
E4
330
87
100
AcDbEntity
  8
P-SANR-FIXT
100
AcDbPolyline
 90
        3
 70
   128
 43
0.0
 10
799.9835210474014
 20
2006.422616289359
 10
799.9664074431574
 20
2000.017349137974
 10
799.9835210474014
 20
1993.577383710631
  0
LWPOLYLINE
  5
E5
330
87
100
AcDbEntity
  8
P-SANR-FIXT
100
AcDbPolyline
 90
        3
 70
   128
 43
0.0
 10
799.983521047403
 20
1991.952977895492
 10
799.9664074431574
 20
1987.544993464083
 10
799.9835210474218
 20
1985.530361606129
  0
LINE
  5
E6
330
87
100
AcDbEntity
  8
P-SANR-FIXT
100
AcDbLine
 10
800.6880952796445
 20
1984.249999999997
 30
0.0
 11
800.6880952796445
 21
2015.749999999993
 31
0.0
  0
LINE
  5
E7
330
87
100
AcDbEntity
  8
P-SANR-FIXT
100
AcDbLine
 10
805.4693149628588
 20
2017.399999999996
 30
0.0
 11
802.6664074431893
 21
2017.399999999996
 31
0.0
  0
LINE
  5
E8
330
87
100
AcDbEntity
  8
P-SANR-FIXT
100
AcDbLine
 10
802.6664074431893
 20
1982.599999999996
 30
0.0
 11
815.1664074431893
 21
1982.599999999996
 31
0.0
  0
LINE
  5
E9
330
87
100
AcDbEntity
  8
P-SANR-FIXT
100
AcDbLine
 10
802.6664074431877
 20
1982.599999999995
 30
0.0
 11
802.6664074431877
 21
2017.399999999995
 31
0.0
  0
LINE
  5
EA
330
87
100
AcDbEntity
  8
P-SANR-FIXT
100
AcDbLine
 10
815.1664074431877
 20
2014.065281879652
 30
0.0
 11
815.1664074431877
 21
1982.599999999995
 31
0.0
  0
LINE
  5
EB
330
87
100
AcDbEntity
  8
P-SANR-FIXT
100
AcDbLine
 10
825.9164074431893
 20
2015.749999999996
 30
0.0
 11
825.9164074431893
 21
2022.249999999996
 31
0.0
  0
LINE
  5
EC
330
87
100
AcDbEntity
  8
P-SANR-FIXT
100
AcDbLine
 10
805.4164074431893
 20
2023.367053054363
 30
0.0
 11
805.4164074431893
 21
2017.364189677981
 31
0.0
  0
LINE
  5
ED
330
87
100
AcDbEntity
  8
P-SANR-FIXT
100
AcDbLine
 10
815.1664074431893
 20
1984.249999999996
 30
0.0
 11
828.1734021870645
 21
1984.249999999996
 31
0.0
  0
LINE
  5
EE
330
87
100
AcDbEntity
  8
P-SANR-FIXT
100
AcDbLine
 10
828.1734021870645
 20
2015.749999999996
 30
0.0
 11
825.9164074431893
 21
2015.749999999996
 31
0.0
  0
LWPOLYLINE
  5
EF
330
87
100
AcDbEntity
  8
P-SANR-FIXT
100
AcDbPolyline
 90
       39
 70
   128
 43
0.0
 10
828.1734021870645
 20
2015.749999999996
 10
828.2333861883445
 20
2015.748800159987
 10
828.2932742280182
 20
2015.74520255945
 10
828.3529704979979
 20
2015.739212953777
 10
828.4123794969859
 20
2015.73084092506
 10
828.4714061832572
 20
2015.720099866758
 10
828.5299561267052
 20
2015.707006962274
 10
828.5879356599108
 20
2015.691583157462
 10
828.6452520279889
 20
2015.67385312712
 10
828.7018135369773
 20
2015.653845235513
 10
828.7575297005277
 20
2015.631591491001
 10
828.8123113846635
 20
2015.607127494826
 10
828.8660709503767
 20
2015.580492384165
 10
828.9187223938302
 20
2015.551728769512
 10
828.9701814839459
 20
2015.520882666516
 10
829.0203658971572
 20
2015.48800342236
 10
829.0691953491082
 20
2015.453143636822
 10
829.1165917230923
 20
2015.416359078122
 10
829.1624791950219
 20
2015.377708593707
 10
829.2067843547304
 20
2015.337254016107
 10
829.2494363234139
 20
2015.295060064016
 10
829.2903668670209
 20
2015.251194238758
 10
829.3295105054129
 20
2015.205726716294
 10
829.3668046171191
 20
2015.158730234961
 10
829.4021895395161
 20
2015.110279979104
 10
829.4356086642764
 20
2015.060453458798
 10
829.4670085279296
 20
2015.009330385845
 10
829.496338897392
 20
2014.956992546256
 10
829.5235528503294
 20
2014.903523669411
 10
829.5486068502222
 20
2014.849009294105
 10
829.5714608160155
 20
2014.793536631711
 10
829.5920781862388
 20
2014.737194426654
 10
829.6104259774985
 20
2014.680072814444
 10
829.626474837242
 20
2014.622263177475
 10
829.6401990907176
 20
2014.563857998833
 10
829.6515767820473
 20
2014.504950714346
 10
829.6605897093522
 20
2014.445635563103
 10
829.6672234538712
 20
2014.386007436693
 10
829.6698493135973
 20
2014.353179443161
  0
LWPOLYLINE
  5
F0
330
87
100
AcDbEntity
  8
P-SANR-FIXT
100
AcDbPolyline
 90
       39
 70
   128
 43
0.0
 10
829.6698493135973
 20
1985.646820556831
 10
829.6645262382746
 20
1985.587061165145
 10
829.6568176825598
 20
1985.527562440836
 10
829.6467359784971
 20
1985.468419569171
 10
829.6342972546623
 20
1985.409727166128
 10
829.6195214103605
 20
1985.351579127031
 10
829.6024320837906
 20
1985.29406847634
 10
829.5830566142294
 20
1985.237287218826
 10
829.5614259982947
 20
1985.181326192389
 10
829.5375748403582
 20
1985.126274922733
 10
829.5115412971842
 20
1985.072221480147
 10
829.4833670168886
 20
1985.019252338608
 10
829.4530970723094
 20
1984.967452237442
 10
829.420779888901
 20
1984.916904045762
 10
829.3864671672627
 20
1984.867688629891
 10
829.3502138004292
 20
1984.819884723995
 10
829.3120777860545
 20
1984.773568804127
 10
829.2721201336258
 20
1984.728814965879
 10
829.2304047668631
 20
1984.685694805843
 10
829.1869984214548
 20
1984.644277307079
 10
829.1419705382937
 20
1984.604628728749
 10
829.0953931523873
 20
1984.566812500119
 10
829.0473407776177
 20
1984.53088911909
 10
828.9978902875331
 20
1984.496916055407
 10
828.9471207923694
 20
1984.464947658725
 10
828.8951135124884
 20
1984.435035071659
 10
828.8419516484434
 20
1984.407226147968
 10
828.7877202478767
 20
1984.381565375997
 10
828.7325060694602
 20
1984.358093807506
 10
828.6763974441008
 20
1984.336848992
 10
828.6194841336303
 20
1984.31786491665
 10
828.5618571872044
 20
1984.301171951928
 10
828.5036087956441
 20
1984.286796803016
 10
828.4448321439505
 20
1984.274762467086
 10
828.3856212622279
 20
1984.265088196508
 10
828.3260708752559
 20
1984.257789468051
 10
828.2662762509502
 20
1984.252877958124
 10
828.2063330479546
 20
1984.250361524095
 10
828.1734021870645
 20
1984.249999999996
  0
LWPOLYLINE
  5
F1
330
87
100
AcDbEntity
  8
P-SANR-FIXT
100
AcDbPolyline
 90
       39
 70
   128
 43
0.0
 10
829.6698493135973
 20
2014.353179443161
 10
829.6750060791287
 20
2014.295287124802
 10
829.6824737950634
 20
2014.237647329744
 10
829.6922405146487
 20
2014.180352269361
 10
829.7042906132171
 20
2014.12349360353
 10
829.7186048131814
 20
2014.067162293985
 10
829.7351602148747
 20
2014.011448458806
 10
829.7539303331864
 20
2013.956441228243
 10
829.7748851399312
 20
2013.902228602131
 10
829.7979911118884
 20
2013.848897309107
 10
829.8232112844321
 20
2013.796532667864
 10
829.8505053106657
 20
2013.745218450656
 10
829.8798295259699
 20
2013.695036749286
 10
829.9111370178561
 20
2013.64606784377
 10
829.944377701015
 20
2013.59839007391
 10
829.9794983974454
 20
2013.552079713969
 10
830.0164429215246
 20
2013.507210850642
 10
830.0551521698952
 20
2013.463855264541
 10
830.0955642160174
 20
2013.422082315353
 10
830.1376144092383
 20
2013.381958830886
 10
830.1812354782184
 20
2013.343549000156
 10
830.2263576385534
 20
2013.3069142707
 10
830.272908704412
 20
2013.272113250268
 10
830.320814204019
 20
2013.23920161307
 10
830.3699974987946
 20
2013.208232010704
 10
830.4203799059589
 20
2013.179253987929
 10
830.471880824408
 20
2013.152313903398
 10
830.524417863659
 20
2013.1274548555
 10
830.5779069756562
 20
2013.104716613408
 10
830.6322625892308
 20
2013.08413555346
 10
830.687397746996
 20
2013.065744600961
 10
830.7432242444619
 20
2013.049573177512
 10
830.7996527711404
 20
2013.03564715394
 10
830.8565930534271
 20
2013.023988808912
 10
830.9139539990164
 20
2013.014616793295
 10
830.971643842632
 20
2013.007546100312
 10
831.0295702928307
 20
2013.002788041566
 10
831.0876406796491
 20
2013.000350228933
 10
831.1195426757816
 20
2012.999999999996
  0
LWPOLYLINE
  5
F2
330
87
100
AcDbEntity
  8
P-SANR-FIXT
100
AcDbPolyline
 90
       39
 70
   128
 43
0.0
 10
831.1195426757816
 20
1986.999999999996
 10
831.0614327653471
 20
1986.998837646802
 10
831.0034158183734
 20
1986.99535244674
 10
830.9455846495987
 20
1986.989549975385
 10
830.888031776557
 20
1986.981439515453
 10
830.8308492715678
 20
1986.971034041951
 10
830.7741286144407
 20
1986.958350201416
 10
830.7179605461273
 20
1986.943408285287
 10
830.662434923555
 20
1986.926232197443
 10
830.6076405758751
 20
1986.906849415961
 10
830.5536651623553
 20
1986.885290949156
 10
830.5005950321428
 20
1986.861591285975
 10
830.448515086125
 20
1986.835788340824
 10
830.3975086411055
 20
1986.807923392912
 10
830.3476572965161
 20
1986.778041020211
 10
830.2990408038732
 20
1986.746189028142
 10
830.2517369391944
 20
1986.712418373098
 10
830.2058213785722
 20
1986.676783080923
 10
830.1613675771086
 20
1986.639340160483
 10
830.1184466514031
 20
1986.600149512463
 10
830.077127265781
 20
1986.559273833539
 10
830.0374755224444
 20
1986.516778516079
 10
829.9995548557248
 20
1986.472731543525
 10
829.9634259305992
 20
1986.427203381637
 10
829.9291465456407
 20
1986.380266865761
 10
829.8967715405533
 20
1986.331997084311
 10
829.8663527084377
 20
1986.28247125864
 10
829.837938712937
 20
1986.231768619504
 10
829.8115750103828
 20
1986.17997028031
 10
829.7873037770752
 20
1986.127159107351
 10
829.7651638418095
 20
1986.073419587236
 10
829.7451906237593
 20
1986.018837691737
 10
829.727416075813
 20
1985.96350074024
 10
829.7118686334554
 20
1985.907497260064
 10
829.698573169278
 20
1985.850916844831
 10
829.6875509531869
 20
1985.793850011135
 10
829.6788196183765
 20
1985.736388053736
 10
829.6723931331202
 20
1985.678622899509
 10
829.6698493135973
 20
1985.646820556831
  0
LINE
  5
F3
330
87
100
AcDbEntity
  8
P-SANR-FIXT
100
AcDbLine
 10
840.6664074431892
 20
2012.999999999996
 30
0.0
 11
831.1195426757816
 21
2012.999999999996
 31
0.0
  0
LINE
  5
F4
330
87
100
AcDbEntity
  8
P-SANR-FIXT
100
AcDbLine
 10
831.1195426757816
 20
1986.999999999996
 30
0.0
 11
840.6664074431892
 21
1986.999999999996
 31
0.0
  0
LINE
  5
F5
330
87
100
AcDbEntity
  8
P-SANR-FIXT
100
AcDbLine
 10
821.4490564453601
 20
2028.249999999996
 30
0.0
 11
821.4490564453601
 21
2029.867053054346
 31
0.0
  0
LINE
  5
F6
330
87
100
AcDbEntity
  8
P-SANR-FIXT
100
AcDbLine
 10
821.4490564453601
 20
2045.867053054364
 30
0.0
 11
821.4490564453601
 21
2048.999999999996
 31
0.0
  0
LINE
  5
F7
330
87
100
AcDbEntity
  8
P-SANR-FIXT
100
AcDbLine
 10
809.8837584410185
 20
2048.999999999996
 30
0.0
 11
809.8837584410185
 21
2045.867053054365
 31
0.0
  0
LINE
  5
F8
330
87
100
AcDbEntity
  8
P-SANR-FIXT
100
AcDbLine
 10
821.4490564453601
 20
2048.999999999996
 30
0.0
 11
820.4490564453603
 21
2049.999999999996
 31
0.0
  0
LINE
  5
F9
330
87
100
AcDbEntity
  8
P-SANR-FIXT
100
AcDbLine
 10
810.8837584410185
 20
2049.999999999996
 30
0.0
 11
809.8837584410185
 21
2048.999999999996
 31
0.0
  0
LINE
  5
FA
330
87
100
AcDbEntity
  8
P-SANR-FIXT
100
AcDbLine
 10
813.662520741826
 20
2028.249999999995
 30
0.0
 11
825.2090747851839
 21
2028.249999999995
 31
0.0
  0
LINE
  5
FB
330
87
100
AcDbEntity
  8
P-SANR-FIXT
100
AcDbLine
 10
825.7193920746294
 20
2022.136253123923
 30
0.0
 11
825.7193920746294
 21
2027.749999999995
 31
0.0
  0
LINE
  5
FC
330
87
100
AcDbEntity
  8
P-SANR-FIXT
100
AcDbLine
 10
825.7193920746294
 20
2027.749999999995
 30
0.0
 11
813.6643105087262
 21
2027.749999999995
 31
0.0
  0
SPLINE
  5
FD
330
87
100
AcDbEntity
  8
P-SANR-FIXT
100
AcDbSpline
210
0.0
220
0.0
230
1.0
 70
     8
 71
     3
 72
    20
 73
    16
 74
     0
 42
0.000000001
 43
0.0000000001
 40
-0.8234606482010294
 40
-0.8234606482010294
 40
-0.8234606482010294
 40
-0.8234606482010294
 40
-0.8125
 40
-0.75
 40
-0.6875
 40
-0.65625
 40
-0.625
 40
-0.59375
 40
-0.5625
 40
-0.53125
 40
-0.5
 40
-0.375
 40
-0.25
 40
-0.125
 40
0.0
 40
0.0
 40
0.0
 40
0.0
 10
815.1674968090384
 20
2011.972987845957
 30
0.0
 10
815.2436152396751
 20
2011.969883161456
 30
0.0
 10
815.7542533019006
 20
2011.953450244623
 30
0.0
 10
816.7006835250285
 20
2011.977476127754
 30
0.0
 10
817.7556895893687
 20
2012.129426033917
 30
0.0
 10
818.5865249229424
 20
2012.308349179372
 30
0.0
 10
819.1854612080412
 20
2012.460807945839
 30
0.0
 10
819.7634097461754
 20
2012.634305237539
 30
0.0
 10
820.3265504088122
 20
2012.83017974809
 30
0.0
 10
820.8694343790899
 20
2013.039463497842
 30
0.0
 10
821.9059807260872
 20
2013.467927829839
 30
0.0
 10
823.2979372767871
 20
2014.16397280534
 30
0.0
 10
824.7434016164701
 20
2015.003581735627
 30
0.0
 10
825.6966341842717
 20
2015.603280261604
 30
0.0
 10
825.9084547032042
 20
2015.749999999995
 30
0.0
 10
825.9164074431877
 20
2015.749999999995
 30
0.0
  0
LINE
  5
FE
330
87
100
AcDbEntity
  8
P-SANR-FIXT
100
AcDbLine
 10
831.0392548939178
 20
1987.105493840916
 30
0.0
 11
831.0392548939178
 21
1992.085723340784
 31
0.0
  0
LINE
  5
FF
330
87
100
AcDbEntity
  8
P-SANR-FIXT
100
AcDbLine
 10
831.0392548939178
 20
1994.999146268373
 30
0.0
 11
831.0392548939178
 21
2004.999551513414
 31
0.0
  0
LINE
  5
100
330
87
100
AcDbEntity
  8
P-SANR-FIXT
100
AcDbLine
 10
831.0392548939178
 20
2007.893652427451
 30
0.0
 11
831.0392548939178
 21
2012.667179408452
 31
0.0
  0
LINE
  5
101
330
87
100
AcDbEntity
  8
P-SANR-FIXT
100
AcDbLine
 10
831.1195426757802
 20
1992.107695154581
 30
0.0
 11
840.6664074431878
 21
1992.107695154581
 31
0.0
  0
LINE
  5
102
330
87
100
AcDbEntity
  8
P-SANR-FIXT
100
AcDbLine
 10
840.6664074431878
 20
1994.999999999995
 30
0.0
 11
831.1195426757802
 21
1994.999999999995
 31
0.0
  0
LINE
  5
103
330
87
100
AcDbEntity
  8
P-SANR-FIXT
100
AcDbLine
 10
831.1195426757802
 20
2004.999999999995
 30
0.0
 11
840.6664074431878
 21
2004.999999999995
 31
0.0
  0
LINE
  5
104
330
87
100
AcDbEntity
  8
P-SANR-FIXT
100
AcDbLine
 10
840.6664074431878
 20
2007.892304845408
 30
0.0
 11
831.1195426757802
 21
2007.892304845408
 31
0.0
  0
LINE
  5
105
330
87
100
AcDbEntity
  8
P-SANR-FIXT
100
AcDbLine
 10
831.1195426757802
 20
2012.892304845408
 30
0.0
 11
840.6664074431878
 21
2012.892304845408
 31
0.0
  0
LINE
  5
106
330
87
100
AcDbEntity
  8
P-SANR-FIXT
100
AcDbLine
 10
840.6664074431878
 20
1987.107695154582
 30
0.0
 11
831.1195426757802
 21
1987.107695154582
 31
0.0
  0
LINE
  5
107
330
87
100
AcDbEntity
  8
P-SANR-FIXT
100
AcDbLine
 10
840.6664074431878
 20
2012.892304845408
 30
0.0
 11
840.6664074431878
 21
2012.999999999995
 31
0.0
  0
LINE
  5
108
330
87
100
AcDbEntity
  8
P-SANR-FIXT
100
AcDbLine
 10
840.6664074431878
 20
2012.892304845408
 30
0.0
 11
840.6664074431878
 21
2007.892304845408
 31
0.0
  0
LINE
  5
109
330
87
100
AcDbEntity
  8
P-SANR-FIXT
100
AcDbLine
 10
840.6664074431878
 20
2004.999999999995
 30
0.0
 11
840.6664074431878
 21
2007.892304845408
 31
0.0
  0
LINE
  5
10A
330
87
100
AcDbEntity
  8
P-SANR-FIXT
100
AcDbLine
 10
840.6664074431878
 20
2004.999999999995
 30
0.0
 11
840.6664074431878
 21
1994.999999999995
 31
0.0
  0
LINE
  5
10B
330
87
100
AcDbEntity
  8
P-SANR-FIXT
100
AcDbLine
 10
840.6664074431878
 20
1992.107695154581
 30
0.0
 11
840.6664074431878
 21
1994.999999999995
 31
0.0
  0
LINE
  5
10C
330
87
100
AcDbEntity
  8
P-SANR-FIXT
100
AcDbLine
 10
840.6664074431878
 20
1992.107695154581
 30
0.0
 11
840.6664074431878
 21
1987.107695154582
 31
0.0
  0
LINE
  5
10D
330
87
100
AcDbEntity
  8
P-SANR-FIXT
100
AcDbLine
 10
840.6664074431878
 20
1986.999999999995
 30
0.0
 11
840.6664074431878
 21
1987.107695154582
 31
0.0
  0
LINE
  5
10E
330
87
100
AcDbEntity
  8
P-SANR-FIXT
100
AcDbLine
 10
825.7193920746326
 20
2027.749999999992
 30
0.0
 11
825.2090747851871
 21
2028.249999999992
 31
0.0
  0
ARC
  5
10F
330
87
100
AcDbEntity
  8
P-SANR-FIXT
100
AcDbCircle
 10
827.6664074431877
 20
2025.569764047836
 30
0.0
 40
2.000000000000065
100
AcDbArc
 50
299.9999999999975
 51
0.0
  0
LINE
  5
110
330
87
100
AcDbEntity
  8
P-SANR-FIXT
100
AcDbLine
 10
829.6664074431879
 20
2025.569764047836
 30
0.0
 11
829.6664074431879
 21
2028.249999999995
 31
0.0
  0
LINE
  5
111
330
87
100
AcDbEntity
  8
P-SANR-FIXT
100
AcDbLine
 10
825.2090747851839
 20
2028.249999999995
 30
0.0
 11
829.6664074431879
 21
2028.249999999995
 31
0.0
  0
LINE
  5
112
330
87
100
AcDbEntity
  8
P-SANR-FIXT
100
AcDbLine
 10
825.7193920746294
 20
2022.136253123923
 30
0.0
 11
828.6664074431879
 21
2023.837713240267
 31
0.0
  0
LINE
  5
113
330
87
100
AcDbEntity
  8
P-SANR-FIXT
100
AcDbLine
 10
810.8837584410169
 20
2049.999999999995
 30
0.0
 11
820.4490564453587
 21
2049.999999999995
 31
0.0
  0
LINE
  5
114
330
87
100
AcDbEntity
  8
P-SANR-FIXT
100
AcDbLine
 10
821.4490564453587
 20
2048.999999999995
 30
0.0
 11
809.8837584410169
 21
2048.999999999995
 31
0.0
  0
ENDBLK
  5
116
330
87
100
AcDbEntity
  8
0
100
AcDbBlockEnd
  0
BLOCK
  5
183
330
118
100
AcDbEntity
  8
0
100
AcDbBlockBegin
  2
Automatic flow rate regulator valve_Caleffi_121 DN15 - 1_2__-V1-Est - Idraulica
 70
     0
 10
0.0
 20
0.0
 30
0.0
  3
Automatic flow rate regulator valve_Caleffi_121 DN15 - 1_2__-V1-Est - Idraulica
  1

  0
LWPOLYLINE
  5
119
330
118
100
AcDbEntity
  8
M-PIPE
100
AcDbPolyline
 90
       34
 70
   128
 43
0.0
 10
815.6664074431901
 20
1865.745878730053
 10
815.086562097484
 20
1865.734280276637
 10
814.5076443806374
 20
1865.699503471441
 10
813.9305804375013
 20
1865.641603949934
 10
813.3562934472841
 20
1865.560674338999
 10
812.7857021466624
 20
1865.456844108751
 10
812.2197193599973
 20
1865.330279365407
 10
811.6592505390112
 20
1865.181182585559
 10
811.1051923142573
 20
1865.009792292248
 10
810.5584310607023
 20
1864.816382673383
 10
810.0198414797157
 20
1864.601263143095
 10
809.4902851997343
 20
1864.364777846742
 10
808.9706093978399
 20
1864.107305110353
 10
808.4616454444571
 20
1863.829256835379
 10
807.9642075733387
 20
1863.531077839748
 10
807.4790915789636
 20
1863.213245146243
 10
807.0070735434368
 20
1862.876267219375
 10
806.5489085949238
 20
1862.520683151942
 10
806.1053296996053
 20
1862.147061802597
 10
805.677046489089
 20
1861.756000885796
 10
805.2647441251489
 20
1861.348126015587
 10
804.8690822036146
 20
1860.924089704752
 10
804.4906936991571
 20
1860.484570320933
 10
804.1301839526649
 20
1860.030271001384
 10
803.7881297028278
 20
1859.561918528104
 10
803.4650781634777
 20
1859.080262165142
 10
803.161546148164
 20
1858.586072459929
 10
802.8780192433607
 20
1858.080140010574
 10
802.6149510316329
 20
1857.563274201066
 10
802.3727623660018
 20
1857.036301906445
 10
802.1518406966677
 20
1856.500066169966
 10
801.9525394511742
 20
1855.955424854417
 10
801.7751774689987
 20
1855.403249269718
 10
801.6597126153612
 20
1854.995878730055
1001
REVIT
1002
{
1070
     3
1000
923114
1002
}
  0
LWPOLYLINE
  5
11A
330
118
100
AcDbEntity
  8
M-PIPE
100
AcDbPolyline
 90
       34
 70
   128
 43
0.0
 10
801.6597126153612
 20
1847.495878730055
 10
801.8208764804558
 20
1846.938759929756
 10
802.0041902415348
 20
1846.388531600735
 10
802.2093606356856
 20
1845.846073990941
 10
802.4360594340446
 20
1845.312254916834
 10
802.6839239668948
 20
1844.787928375055
 10
802.9525577038585
 20
1844.273933176222
 10
803.2415308882615
 20
1843.771091603005
 10
803.5503812246533
 20
1843.280208094656
 10
803.8786146183808
 20
1842.802067960071
 10
804.2257059660325
 20
1842.337436121468
 10
804.5910999954951
 20
1841.887055890672
 10
804.9742121542678
 20
1841.451647779977
 10
805.3744295446227
 20
1841.031908349477
 10
805.7911119041104
 20
1840.628509092722
 10
806.2235926298434
 20
1840.242095362469
 10
806.671179844918
 20
1839.873285338255
 10
807.1331575052703
 20
1839.522669037445
 10
807.6087865451935
 20
1839.190807371324
 10
808.0973060596861
 20
1838.878231247767
 10
808.5979345217367
 20
1838.58544072189
 10
809.1098710326015
 20
1838.312904196076
 10
809.6322966030699
 20
1838.06105767063
 10
810.1643754636741
 20
1837.830304046266
 10
810.7052564017415
 20
1837.621012479561
 10
811.2540741231526
 20
1837.433517792373
 10
811.8099506366281
 20
1837.268119936205
 10
812.3719966583276
 20
1837.125083512345
 10
812.9393130345123
 20
1837.004637348558
 10
813.5109921800019
 20
1836.906974133011
 10
814.0861195301154
 20
1836.832250106016
 10
814.6637750037793
 20
1836.780584810077
 10
815.2430344754632
 20
1836.752060898644
 10
815.6664074431901
 20
1836.745878730058
1001
REVIT
1002
{
1070
     3
1000
923114
1002
}
  0
LWPOLYLINE
  5
11B
330
118
100
AcDbEntity
  8
M-PIPE
100
AcDbPolyline
 90
       34
 70
   128
 43
0.0
 10
815.6664074431901
 20
1836.745878730058
 10
816.2462527888962
 20
1836.757477183473
 10
816.825170505743
 20
1836.79225398867
 10
817.4022344488793
 20
1836.850153510177
 10
817.9765214390963
 20
1836.931083121111
 10
818.5471127397182
 20
1837.034913351359
 10
819.113095526383
 20
1837.161478094703
 10
819.6735643473692
 20
1837.310574874551
 10
820.2276225721231
 20
1837.481965167862
 10
820.7743838256781
 20
1837.675374786727
 10
821.3129734066646
 20
1837.890494317016
 10
821.8425296866461
 20
1838.126979613368
 10
822.3622054885407
 20
1838.384452349758
 10
822.871169441923
 20
1838.662500624732
 10
823.3686073130417
 20
1838.960679620362
 10
823.8537233074167
 20
1839.278512313867
 10
824.3257413429434
 20
1839.615490240735
 10
824.7839062914565
 20
1839.971074308169
 10
825.2274851867749
 20
1840.344695657514
 10
825.6557683972914
 20
1840.735756574314
 10
826.0680707612316
 20
1841.143631444523
 10
826.4637326827658
 20
1841.567667755358
 10
826.8421211872233
 20
1842.007187139177
 10
827.2026309337157
 20
1842.461486458726
 10
827.5446851835525
 20
1842.929838932006
 10
827.8677367229025
 20
1843.411495294968
 10
828.1712687382166
 20
1843.905685000181
 10
828.4547956430198
 20
1844.411617449537
 10
828.7178638547473
 20
1844.928483259044
 10
828.9600525203786
 20
1845.455455553665
 10
829.1809741897127
 20
1845.991691290144
 10
829.3802754352062
 20
1846.536332605694
 10
829.5576374173815
 20
1847.088508190392
 10
829.6731022710188
 20
1847.495878730055
1001
REVIT
1002
{
1070
     3
1000
923114
1002
}
  0
LWPOLYLINE
  5
11C
330
118
100
AcDbEntity
  8
M-PIPE
100
AcDbPolyline
 90
       34
 70
   128
 43
0.0
 10
829.6731022710192
 20
1854.995878730055
 10
829.5119384059248
 20
1855.552997530354
 10
829.3286246448458
 20
1856.103225859375
 10
829.123454250695
 20
1856.645683469169
 10
828.896755452336
 20
1857.179502543276
 10
828.6488909194856
 20
1857.703829085055
 10
828.3802571825223
 20
1858.217824283888
 10
828.0912839981192
 20
1858.720665857105
 10
827.7824336617273
 20
1859.211549365454
 10
827.454200268
 20
1859.689689500039
 10
827.1071089203481
 20
1860.154321338642
 10
826.7417148908855
 20
1860.604701569438
 10
826.3586027321128
 20
1861.040109680133
 10
825.9583853417581
 20
1861.459849110633
 10
825.5417029822703
 20
1861.863248367388
 10
825.1092222565374
 20
1862.249662097641
 10
824.6616350414628
 20
1862.618472121855
 10
824.1996573811107
 20
1862.969088422666
 10
823.7240283411873
 20
1863.300950088786
 10
823.2355088266945
 20
1863.613526212344
 10
822.7348803646437
 20
1863.906316738221
 10
822.2229438537793
 20
1864.178853264034
 10
821.7005182833107
 20
1864.430699789481
 10
821.1684394227065
 20
1864.661453413844
 10
820.6275584846393
 20
1864.870744980549
 10
820.0787407632281
 20
1865.058239667737
 10
819.5228642497523
 20
1865.223637523905
 10
818.9608182280533
 20
1865.366673947766
 10
818.3935018518685
 20
1865.487120111553
 10
817.8218227063787
 20
1865.5847833271
 10
817.2466953562654
 20
1865.659507354094
 10
816.6690398826013
 20
1865.711172650034
 10
816.0897804109177
 20
1865.739696561466
 10
815.6664074431903
 20
1865.745878730053
1001
REVIT
1002
{
1070
     3
1000
923114
1002
}
  0
LWPOLYLINE
  5
11D
330
118
100
AcDbEntity
  8
M-PIPE
100
AcDbPolyline
 90
       30
 70
   128
 43
0.0
 10
815.6664074431903
 20
1860.495878730051
 10
815.296506101964
 20
1860.488479716666
 10
814.9271965239758
 20
1860.466294513351
 10
814.5590695257682
 20
1860.4293586117
 10
814.192714032009
 20
1860.377731101276
 10
813.8287161333369
 20
1860.311494575083
 10
813.4676581487402
 20
1860.230754997433
 10
813.1101176939734
 20
1860.135641534427
 10
812.7566667574924
 20
1860.026306347314
 10
812.4078707853971
 20
1859.902924349072
 10
812.0642877768368
 20
1859.765692924578
 10
811.7264673913314
 20
1859.614831614836
 10
811.3949500694333
 20
1859.45058176576
 10
811.0702661681376
 20
1859.27320614207
 10
810.7529351124243
 20
1859.082988506926
 10
810.4434645642884
 20
1858.880233167966
 10
810.1423496105905
 20
1858.665264490482
 10
809.8500719710219
 20
1858.438426378499
 10
809.5670992274566
 20
1858.200081724606
 10
809.2938840759202
 20
1857.950611829406
 10
809.0308636023724
 20
1857.690415791514
 10
808.7784585834626
 20
1857.419909869085
 10
808.5370728133778
 20
1857.13952681389
 10
808.3070924578569
 20
1856.849715179005
 10
808.0888854364092
 20
1856.550938601223
 10
807.8828008337204
 20
1856.243675059333
 10
807.6891683411927
 20
1855.928416109456
 10
807.5082977295078
 20
1855.605666098661
 10
807.3404783530611
 20
1855.275941358113
 10
807.2106401805505
 20
1854.995878730055
1001
REVIT
1002
{
1070
     3
1000
923114
1002
}
  0
LWPOLYLINE
  5
11E
330
118
100
AcDbEntity
  8
M-PIPE
100
AcDbPolyline
 90
       30
 70
   128
 43
0.0
 10
807.2106401805505
 20
1847.495878730055
 10
807.3673638956602
 20
1847.160737827207
 10
807.5373643100776
 20
1846.832132278352
 10
807.7203694594047
 20
1846.510587782271
 10
807.9160865744414
 20
1846.196618741565
 10
808.1242025495546
 20
1845.890727439723
 10
808.3443844435796
 20
1845.593403237574
 10
808.5762800124557
 20
1845.305121790416
 10
808.8195182727412
 20
1845.026344287067
 10
809.0737100951075
 20
1844.757516712064
 10
809.3384488268638
 20
1844.49906913218
 10
809.6133109425137
 20
1844.251415008409
 10
809.8978567213062
 20
1844.014950534521
 10
810.1916309506952
 20
1843.790054003229
 10
810.4941636545824
 20
1843.57708520101
 10
810.804970845178
 20
1843.376384832514
 10
811.1235552972789
 20
1843.188273975519
 10
811.4494073437239
 20
1843.013053567268
 10
811.7820056907488
 20
1842.851003923034
 10
812.1208182519497
 20
1842.702384287681
 10
812.4653029995045
 20
1842.56743242092
 10
812.8149088313032
 20
1842.446364216951
 10
813.1690764525936
 20
1842.339373359073
 10
813.5272392707337
 20
1842.246631009835
 10
813.8888243016181
 20
1842.168285537213
 10
814.2532530863313
 20
1842.10446227725
 10
814.6199426165591
 20
1842.055263333546
 10
814.9883062672749
 20
1842.020767413916
 10
815.3577547352188
 20
1842.001029704474
 10
815.6664074431903
 20
1841.995878730059
1001
REVIT
1002
{
1070
     3
1000
923114
1002
}
  0
LWPOLYLINE
  5
11F
330
118
100
AcDbEntity
  8
M-PIPE
100
AcDbPolyline
 90
       30
 70
   128
 43
0.0
 10
815.6664074431903
 20
1841.995878730059
 10
816.0363087844165
 20
1842.003277743445
 10
816.4056183624049
 20
1842.02546294676
 10
816.7737453606124
 20
1842.062398848411
 10
817.1401008543716
 20
1842.114026358834
 10
817.5040987530438
 20
1842.180262885027
 10
817.8651567376402
 20
1842.261002462677
 10
818.2226971924073
 20
1842.356115925684
 10
818.5761481288881
 20
1842.465451112796
 10
818.9249441009835
 20
1842.588833111038
 10
819.2685271095438
 20
1842.726064535532
 10
819.6063474950491
 20
1842.876925845274
 10
819.9378648169473
 20
1843.04117569435
 10
820.262548718243
 20
1843.21855131804
 10
820.5798797739564
 20
1843.408768953185
 10
820.889350322092
 20
1843.611524292144
 10
821.1904652757901
 20
1843.826492969629
 10
821.4827429153588
 20
1844.053331081612
 10
821.7657156589238
 20
1844.291675735505
 10
822.0389308104603
 20
1844.541145630705
 10
822.3019512840082
 20
1844.801341668597
 10
822.5543563029178
 20
1845.071847591026
 10
822.795742073003
 20
1845.352230646221
 10
823.0257224285237
 20
1845.642042281106
 10
823.2439294499714
 20
1845.940818858887
 10
823.4500140526602
 20
1846.248082400777
 10
823.6436465451879
 20
1846.563341350654
 10
823.8245171568728
 20
1846.88609136145
 10
823.9923365333194
 20
1847.215816101997
 10
824.12217470583
 20
1847.495878730055
1001
REVIT
1002
{
1070
     3
1000
923114
1002
}
  0
LWPOLYLINE
  5
120
330
118
100
AcDbEntity
  8
M-PIPE
100
AcDbPolyline
 90
       30
 70
   128
 43
0.0
 10
824.12217470583
 20
1854.995878730055
 10
823.9654509907204
 20
1855.331019632904
 10
823.7954505763031
 20
1855.659625181758
 10
823.6124454269759
 20
1855.981169677839
 10
823.4167283119393
 20
1856.295138718545
 10
823.2086123368262
 20
1856.601030020387
 10
822.9884304428011
 20
1856.898354222536
 10
822.7565348739251
 20
1857.186635669695
 10
822.5132966136396
 20
1857.465413173043
 10
822.2591047912732
 20
1857.734240748046
 10
821.994366059517
 20
1857.992688327931
 10
821.7195039438671
 20
1858.240342451701
 10
821.4349581650745
 20
1858.47680692559
 10
821.1411839356854
 20
1858.701703456881
 10
820.8386512317984
 20
1858.914672259101
 10
820.5278440412028
 20
1859.115372627596
 10
820.2092595891016
 20
1859.303483484591
 10
819.8834075426571
 20
1859.478703892843
 10
819.550809195632
 20
1859.640753537076
 10
819.2119966344311
 20
1859.78937317243
 10
818.8675118868763
 20
1859.924325039191
 10
818.5179060550776
 20
1860.04539324316
 10
818.1637384337872
 20
1860.152384101037
 10
817.8055756156471
 20
1860.245126450275
 10
817.4439905847627
 20
1860.323471922897
 10
817.0795618000493
 20
1860.38729518286
 10
816.7128722698219
 20
1860.436494126565
 10
816.3445086191057
 20
1860.470990046194
 10
815.9750601511619
 20
1860.490727755637
 10
815.6664074431903
 20
1860.495878730051
1001
REVIT
1002
{
1070
     3
1000
923114
1002
}
  0
SPLINE
  5
121
330
118
100
AcDbEntity
  8
M-PIPE
100
AcDbSpline
210
0.0
220
0.0
230
1.0
 70
    24
 71
     3
 72
     8
 73
     4
 74
     0
 42
0.000000001
 43
0.0000000001
 40
-1.0
 40
-1.0
 40
-1.0
 40
-1.0
 40
-0.9718428657226432
 40
-0.9718428657226432
 40
-0.9718428657226432
 40
-0.9718428657226432
 10
823.4962318619638
 20
1854.995878730054
 30
0.0
 10
823.5056714812309
 20
1854.995878730054
 30
0.0
 10
823.5150082782412
 20
1854.995878730054
 30
0.0
 10
823.524247841941
 20
1854.995878730054
 30
0.0
1001
REVIT
1002
{
1070
     3
1000
923114
1002
}
  0
SPLINE
  5
122
330
118
100
AcDbEntity
  8
M-PIPE
100
AcDbSpline
210
0.0
220
0.0
230
1.0
 70
    24
 71
     3
 72
     8
 73
     4
 74
     0
 42
0.000000001
 43
0.0000000001
 40
-0.0281571342773724
 40
-0.0281571342773724
 40
-0.0281571342773724
 40
-0.0281571342773724
 40
0.0
 40
0.0
 40
0.0
 40
0.0
 10
823.5242808034149
 20
1847.495878730055
 30
0.0
 10
823.5150192572401
 20
1847.495878730055
 30
0.0
 10
823.5056714812307
 20
1847.495878730055
 30
0.0
 10
823.4962318619636
 20
1847.495878730055
 30
0.0
1001
REVIT
1002
{
1070
     3
1000
923114
1002
}
  0
LINE
  5
123
330
118
100
AcDbEntity
  8
M-PIPE
100
AcDbLine
 10
844.6664074432531
 20
1854.995878730054
 30
0.0
 11
844.6664074432531
 21
1847.495878730055
 31
0.0
1001
REVIT
1002
{
1070
     3
1000
923114
1002
}
  0
LINE
  5
124
330
118
100
AcDbEntity
  8
M-PIPE
100
AcDbLine
 10
786.6664074431886
 20
1854.995878730054
 30
0.0
 11
787.1454572244025
 21
1854.995878730054
 31
0.0
1001
REVIT
1002
{
1070
     3
1000
923114
1002
}
  0
LINE
  5
125
330
118
100
AcDbEntity
  8
M-PIPE
100
AcDbLine
 10
787.1454572244025
 20
1854.995878730054
 30
0.0
 11
793.0106522478326
 21
1854.995878730054
 31
0.0
1001
REVIT
1002
{
1070
     3
1000
923114
1002
}
  0
LINE
  5
126
330
118
100
AcDbEntity
  8
M-PIPE
100
AcDbLine
 10
793.0106522478326
 20
1854.995878730054
 30
0.0
 11
806.451915047779
 21
1854.995878730054
 31
0.0
1001
REVIT
1002
{
1070
     3
1000
923114
1002
}
  0
LINE
  5
127
330
118
100
AcDbEntity
  8
M-PIPE
100
AcDbLine
 10
806.451915047779
 20
1854.995878730054
 30
0.0
 11
807.5683438642569
 21
1854.995878730054
 31
0.0
1001
REVIT
1002
{
1070
     3
1000
923114
1002
}
  0
LINE
  5
128
330
118
100
AcDbEntity
  8
M-PIPE
100
AcDbLine
 10
807.8365830244138
 20
1854.995878730054
 30
0.0
 11
807.5683438642569
 21
1854.995878730054
 31
0.0
1001
REVIT
1002
{
1070
     3
1000
923114
1002
}
  0
LINE
  5
129
330
118
100
AcDbEntity
  8
M-PIPE
100
AcDbLine
 10
823.7644710221847
 20
1854.995878730054
 30
0.0
 11
824.8808998386625
 21
1854.995878730054
 31
0.0
1001
REVIT
1002
{
1070
     3
1000
923114
1002
}
  0
LINE
  5
12A
330
118
100
AcDbEntity
  8
M-PIPE
100
AcDbLine
 10
824.8808998386627
 20
1854.995878730054
 30
0.0
 11
838.3221626386092
 21
1854.995878730054
 31
0.0
1001
REVIT
1002
{
1070
     3
1000
923114
1002
}
  0
LINE
  5
12B
330
118
100
AcDbEntity
  8
M-PIPE
100
AcDbLine
 10
838.322162638609
 20
1854.995878730054
 30
0.0
 11
844.1873576620393
 21
1854.995878730054
 31
0.0
1001
REVIT
1002
{
1070
     3
1000
923114
1002
}
  0
LINE
  5
12C
330
118
100
AcDbEntity
  8
M-PIPE
100
AcDbLine
 10
844.1873576620393
 20
1854.995878730054
 30
0.0
 11
844.6664074432531
 21
1854.995878730054
 31
0.0
1001
REVIT
1002
{
1070
     3
1000
923114
1002
}
  0
LINE
  5
12D
330
118
100
AcDbEntity
  8
M-PIPE
100
AcDbLine
 10
823.7644710221848
 20
1854.995878730054
 30
0.0
 11
823.4962318619638
 21
1854.995878730054
 31
0.0
1001
REVIT
1002
{
1070
     3
1000
923114
1002
}
  0
LINE
  5
12E
330
118
100
AcDbEntity
  8
M-PIPE
100
AcDbLine
 10
844.6664074432531
 20
1847.495878730055
 30
0.0
 11
844.1873576620393
 21
1847.495878730055
 31
0.0
1001
REVIT
1002
{
1070
     3
1000
923114
1002
}
  0
LINE
  5
12F
330
118
100
AcDbEntity
  8
M-PIPE
100
AcDbLine
 10
844.1873576620393
 20
1847.495878730055
 30
0.0
 11
838.3221626386092
 21
1847.495878730055
 31
0.0
1001
REVIT
1002
{
1070
     3
1000
923114
1002
}
  0
LINE
  5
130
330
118
100
AcDbEntity
  8
M-PIPE
100
AcDbLine
 10
838.3221626386092
 20
1847.495878730055
 30
0.0
 11
824.8808998386627
 21
1847.495878730055
 31
0.0
1001
REVIT
1002
{
1070
     3
1000
923114
1002
}
  0
LINE
  5
131
330
118
100
AcDbEntity
  8
M-PIPE
100
AcDbLine
 10
824.8808998386627
 20
1847.495878730055
 30
0.0
 11
823.7644710221848
 21
1847.495878730055
 31
0.0
1001
REVIT
1002
{
1070
     3
1000
923114
1002
}
  0
LINE
  5
132
330
118
100
AcDbEntity
  8
M-PIPE
100
AcDbLine
 10
823.4962318619636
 20
1847.495878730055
 30
0.0
 11
823.7644710221848
 21
1847.495878730055
 31
0.0
1001
REVIT
1002
{
1070
     3
1000
923114
1002
}
  0
LINE
  5
133
330
118
100
AcDbEntity
  8
M-PIPE
100
AcDbLine
 10
807.5683438642569
 20
1847.495878730055
 30
0.0
 11
806.451915047779
 21
1847.495878730055
 31
0.0
1001
REVIT
1002
{
1070
     3
1000
923114
1002
}
  0
LINE
  5
134
330
118
100
AcDbEntity
  8
M-PIPE
100
AcDbLine
 10
806.451915047779
 20
1847.495878730055
 30
0.0
 11
793.0106522478326
 21
1847.495878730055
 31
0.0
1001
REVIT
1002
{
1070
     3
1000
923114
1002
}
  0
LINE
  5
135
330
118
100
AcDbEntity
  8
M-PIPE
100
AcDbLine
 10
793.0106522478326
 20
1847.495878730055
 30
0.0
 11
787.1454572244025
 21
1847.495878730055
 31
0.0
1001
REVIT
1002
{
1070
     3
1000
923114
1002
}
  0
LINE
  5
136
330
118
100
AcDbEntity
  8
M-PIPE
100
AcDbLine
 10
787.1454572244025
 20
1847.495878730055
 30
0.0
 11
786.6664074431886
 21
1847.495878730055
 31
0.0
1001
REVIT
1002
{
1070
     3
1000
923114
1002
}
  0
LINE
  5
137
330
118
100
AcDbEntity
  8
M-PIPE
100
AcDbLine
 10
807.5683438642569
 20
1847.495878730055
 30
0.0
 11
807.8365830244139
 21
1847.495878730055
 31
0.0
1001
REVIT
1002
{
1070
     3
1000
923114
1002
}
  0
LINE
  5
138
330
118
100
AcDbEntity
  8
M-PIPE
100
AcDbLine
 10
786.6664074431886
 20
1847.495878730055
 30
0.0
 11
786.6664074431886
 21
1854.995878730054
 31
0.0
1001
REVIT
1002
{
1070
     3
1000
923114
1002
}
  0
LINE
  5
139
330
118
100
AcDbEntity
  8
P-SANR-FIXT
100
AcDbLine
 10
799.9664075599983
 20
1836.776240128902
 30
0.0
 11
800.6453470390468
 21
1835.571719284968
 31
0.0
  0
LINE
  5
13A
330
118
100
AcDbEntity
  8
P-SANR-FIXT
100
AcDbLine
 10
800.6524617288178
 20
1835.559096963845
 30
0.0
 11
800.6880952796459
 21
1835.495878730054
 31
0.0
  0
LINE
  5
13B
330
118
100
AcDbEntity
  8
P-SANR-FIXT
100
AcDbLine
 10
800.6880952796459
 20
1866.99587873005
 30
0.0
 11
800.6524617288174
 21
1866.932660496259
 31
0.0
  0
LINE
  5
13C
330
118
100
AcDbEntity
  8
P-SANR-FIXT
100
AcDbLine
 10
800.6453470390466
 20
1866.920038175137
 30
0.0
 11
799.9664075599983
 21
1865.715517331203
 31
0.0
  0
LINE
  5
13D
330
118
100
AcDbEntity
  8
P-SANR-FIXT
100
AcDbLine
 10
800.6880952796459
 20
1835.495878730054
 30
0.0
 11
802.6664074431574
 21
1835.495878730054
 31
0.0
  0
LINE
  5
13E
330
118
100
AcDbEntity
  8
P-SANR-FIXT
100
AcDbLine
 10
802.6664074431574
 20
1866.99587873005
 30
0.0
 11
800.6880952796459
 21
1866.99587873005
 31
0.0
  0
LINE
  5
13F
330
118
100
AcDbEntity
  8
P-SANR-FIXT
100
AcDbLine
 10
789.6664074431574
 20
1844.89292257646
 30
0.0
 11
789.6664074431574
 21
1844.74587873006
 31
0.0
  0
LINE
  5
140
330
118
100
AcDbEntity
  8
P-SANR-FIXT
100
AcDbLine
 10
789.6664074431574
 20
1844.74587873006
 30
0.0
 11
789.6664074431574
 21
1843.616523236027
 31
0.0
  0
LINE
  5
141
330
118
100
AcDbEntity
  8
P-SANR-FIXT
100
AcDbLine
 10
789.6664074431574
 20
1838.295347654874
 30
0.0
 11
789.6664074431574
 21
1844.745878730059
 31
0.0
  0
LINE
  5
142
330
118
100
AcDbEntity
  8
P-SANR-FIXT
100
AcDbLine
 10
789.6664074431574
 20
1844.745878730059
 30
0.0
 11
789.6664074431574
 21
1845.868750166039
 31
0.0
  0
LINE
  5
143
330
118
100
AcDbEntity
  8
P-SANR-FIXT
100
AcDbLine
 10
789.6664074431574
 20
1846.010171761894
 30
0.0
 11
789.6664074431574
 21
1847.492510795693
 31
0.0
  0
LINE
  5
144
330
118
100
AcDbEntity
  8
P-SANR-FIXT
100
AcDbLine
 10
789.6664074431574
 20
1854.999246664417
 30
0.0
 11
789.6664074431574
 21
1856.481585698209
 31
0.0
  0
LINE
  5
145
330
118
100
AcDbEntity
  8
P-SANR-FIXT
100
AcDbLine
 10
789.6664074431574
 20
1856.623007294357
 30
0.0
 11
789.6664074431574
 21
1857.745878730044
 31
0.0
  0
LINE
  5
146
330
118
100
AcDbEntity
  8
P-SANR-FIXT
100
AcDbLine
 10
789.6664074431574
 20
1857.745878730044
 30
0.0
 11
789.6664074431574
 21
1858.875234223833
 31
0.0
  0
LINE
  5
147
330
118
100
AcDbEntity
  8
P-SANR-FIXT
100
AcDbLine
 10
789.6664074431574
 20
1858.932904158769
 30
0.0
 11
789.6664074431574
 21
1864.196409805229
 31
0.0
  0
LINE
  5
148
330
118
100
AcDbEntity
  8
P-SANR-FIXT
100
AcDbLine
 10
789.6664074431574
 20
1858.875234223833
 30
0.0
 11
789.6664074431574
 21
1857.745878730044
 31
0.0
  0
LINE
  5
149
330
118
100
AcDbEntity
  8
P-SANR-FIXT
100
AcDbLine
 10
789.6664074431574
 20
1857.745878730044
 30
0.0
 11
789.6664074431574
 21
1857.598834883644
 31
0.0
  0
LINE
  5
14A
330
118
100
AcDbEntity
  8
P-SANR-FIXT
100
AcDbLine
 10
789.6664074431574
 20
1845.861757792121
 30
0.0
 11
789.6664074431574
 21
1845.750900750384
 31
0.0
  0
LINE
  5
14B
330
118
100
AcDbEntity
  8
P-SANR-FIXT
100
AcDbLine
 10
789.6664074431574
 20
1845.74661741602
 30
0.0
 11
789.6664074431574
 21
1845.74661741602
 31
0.0
  0
LINE
  5
14C
330
118
100
AcDbEntity
  8
P-SANR-FIXT
100
AcDbLine
 10
789.6664074431574
 20
1845.750900750384
 30
0.0
 11
789.6664074431574
 21
1845.861757792121
 31
0.0
  0
LINE
  5
14D
330
118
100
AcDbEntity
  8
P-SANR-FIXT
100
AcDbLine
 10
789.6664074431574
 20
1856.629999668266
 30
0.0
 11
789.6664074431574
 21
1856.629999668266
 31
0.0
  0
SPLINE
  5
14E
330
118
100
AcDbEntity
  8
P-SANR-FIXT
100
AcDbSpline
210
0.0
220
0.0
230
1.0
 70
     8
 71
     3
 72
     9
 73
     5
 74
     0
 42
0.000000001
 43
0.0000000001
 40
0.0
 40
0.0
 40
0.0
 40
0.0
 40
0.5
 40
0.75
 40
0.75
 40
0.75
 40
0.75
 10
790.5324328469715
 20
1863.308027595437
 30
0.0
 10
790.2522793430569
 20
1862.396298507374
 30
0.0
 10
789.9339110396441
 20
1861.017233083155
 30
0.0
 10
789.76833566492
 20
1859.620959970747
 30
0.0
 10
789.730120865422
 20
1859.153623634589
 30
0.0
  0
SPLINE
  5
14F
330
118
100
AcDbEntity
  8
P-SANR-FIXT
100
AcDbSpline
210
0.0
220
0.0
230
1.0
 70
     8
 71
     3
 72
     8
 73
     4
 74
     0
 42
0.000000001
 43
0.0000000001
 40
0.7925582335650848
 40
0.7925582335650848
 40
0.7925582335650848
 40
0.7925582335650848
 40
1.0
 40
1.0
 40
1.0
 40
1.0
 10
789.7120805546598
 20
1858.914789305241
 30
0.0
 10
789.6851672979046
 20
1858.526468860581
 30
0.0
 10
789.6699429274037
 20
1858.136832002185
 30
0.0
 10
789.6664074431574
 20
1857.745878730055
 30
0.0
  0
SPLINE
  5
150
330
118
100
AcDbEntity
  8
P-SANR-FIXT
100
AcDbSpline
210
0.0
220
0.0
230
1.0
 70
     8
 71
     3
 72
     8
 73
     4
 74
     0
 42
0.000000001
 43
0.0000000001
 40
0.0
 40
0.0
 40
0.0
 40
0.0
 40
0.1766322682362267
 40
0.1766322682362267
 40
0.1766322682362267
 40
0.1766322682362267
 10
789.6664074431574
 20
1857.745878730055
 30
0.0
 10
789.6694178330728
 20
1857.412990303502
 30
0.0
 10
789.680902854442
 20
1857.081056298182
 30
0.0
 10
789.7008625072646
 20
1856.750076714098
 30
0.0
  0
SPLINE
  5
151
330
118
100
AcDbEntity
  8
P-SANR-FIXT
100
AcDbSpline
210
0.0
220
0.0
230
1.0
 70
     8
 71
     3
 72
     8
 73
     4
 74
     0
 42
0.000000001
 43
0.0000000001
 40
0.1975032641291677
 40
0.1975032641291677
 40
0.1975032641291677
 40
0.1975032641291677
 40
0.4902156078797722
 40
0.4902156078797722
 40
0.4902156078797722
 40
0.4902156078797722
 10
789.7082928153619
 20
1856.632790333522
 30
0.0
 10
789.7446885582949
 20
1856.084669713035
 30
0.0
 10
789.7895733800364
 20
1855.537505140858
 30
0.0
 10
789.8858660896198
 20
1854.996130174993
 30
0.0
  0
LINE
  5
152
330
118
100
AcDbEntity
  8
P-SANR-FIXT
100
AcDbLine
 10
799.9664074431574
 20
1863.240771103204
 30
0.0
 11
799.9664074431574
 21
1863.308027595437
 31
0.0
  0
LINE
  5
153
330
118
100
AcDbEntity
  8
P-SANR-FIXT
100
AcDbLine
 10
790.5324328469505
 20
1864.24587873008
 30
0.0
 11
790.5324328469505
 21
1863.308027595437
 31
0.0
  0
LINE
  5
154
330
118
100
AcDbEntity
  8
P-SANR-FIXT
100
AcDbLine
 10
799.983521047444
 20
1863.308027595437
 30
0.0
 11
790.5324328469715
 21
1863.308027595437
 31
0.0
  0
LINE
  5
155
330
118
100
AcDbEntity
  8
P-SANR-FIXT
100
AcDbLine
 10
799.9835210474235
 20
1863.308027595437
 30
0.0
 11
799.9835210474235
 21
1864.24587873008
 31
0.0
  0
SPLINE
  5
156
330
118
100
AcDbEntity
  8
P-SANR-FIXT
100
AcDbSpline
210
0.0
220
0.0
230
1.0
 70
    24
 71
     3
 72
     9
 73
     5
 74
     0
 42
0.000000001
 43
0.0000000001
 40
0.1975032641248824
 40
0.1975032641248824
 40
0.1975032641248824
 40
0.1975032641248824
 40
0.5
 40
1.0
 40
1.0
 40
1.0
 40
1.0
 10
789.7082928153673
 20
1864.24587873008
 30
0.0
 10
789.7459051459462
 20
1864.24587873008
 30
0.0
 10
789.9116266440083
 20
1864.24587873008
 30
0.0
 10
790.252279343064
 20
1864.24587873008
 30
0.0
 10
790.5324328469731
 20
1864.24587873008
 30
0.0
  0
LINE
  5
157
330
118
100
AcDbEntity
  8
P-SANR-FIXT
100
AcDbLine
 10
799.9835210474456
 20
1864.24587873008
 30
0.0
 11
790.5324328469731
 21
1864.24587873008
 31
0.0
  0
SPLINE
  5
158
330
118
100
AcDbEntity
  8
P-SANR-FIXT
100
AcDbSpline
210
0.0
220
0.0
230
1.0
 70
    24
 71
     3
 72
     9
 73
     5
 74
     0
 42
0.000000001
 43
0.0000000001
 40
0.0
 40
0.0
 40
0.0
 40
0.0
 40
0.5
 40
0.8024967358103879
 40
0.8024967358103879
 40
0.8024967358103879
 40
0.8024967358103879
 10
790.5324328469277
 20
1838.245878730111
 30
0.0
 10
790.2522793430088
 20
1838.245878730111
 30
0.0
 10
789.9116266439788
 20
1838.245878730111
 30
0.0
 10
789.7459051459365
 20
1838.245878730111
 30
0.0
 10
789.7082928153658
 20
1838.245878730111
 30
0.0
  0
LINE
  5
159
330
118
100
AcDbEntity
  8
P-SANR-FIXT
100
AcDbLine
 10
790.5324328469505
 20
1839.183729864754
 30
0.0
 11
790.5324328469505
 21
1838.245878730111
 31
0.0
  0
LINE
  5
15A
330
118
100
AcDbEntity
  8
P-SANR-FIXT
100
AcDbLine
 10
799.9835210474014
 20
1838.245878730111
 30
0.0
 11
790.5324328469277
 21
1838.245878730111
 31
0.0
  0
LINE
  5
15B
330
118
100
AcDbEntity
  8
P-SANR-FIXT
100
AcDbLine
 10
799.9835210474235
 20
1838.245878730111
 30
0.0
 11
799.9835210474235
 21
1839.183729864754
 31
0.0
  0
SPLINE
  5
15C
330
118
100
AcDbEntity
  8
P-SANR-FIXT
100
AcDbSpline
210
0.0
220
0.0
230
1.0
 70
     8
 71
     3
 72
     8
 73
     4
 74
     0
 42
0.000000001
 43
0.0000000001
 40
0.5097843921291617
 40
0.5097843921291617
 40
0.5097843921291617
 40
0.5097843921291617
 40
1.0
 40
1.0
 40
1.0
 40
1.0
 10
789.8873007214627
 20
1847.49546571548
 30
0.0
 10
789.748393408651
 20
1846.586288191712
 30
0.0
 10
789.6747623158826
 20
1845.669759196576
 30
0.0
 10
789.6664074431574
 20
1844.74587873007
 30
0.0
  0
SPLINE
  5
15D
330
118
100
AcDbEntity
  8
P-SANR-FIXT
100
AcDbSpline
210
0.0
220
0.0
230
1.0
 70
     8
 71
     3
 72
     8
 73
     4
 74
     0
 42
0.000000001
 43
0.0000000001
 40
0.0
 40
0.0
 40
0.0
 40
0.0
 40
0.2074417664409355
 40
0.2074417664409355
 40
0.2074417664409355
 40
0.2074417664409355
 10
789.6664074431574
 20
1844.74587873007
 30
0.0
 10
789.6699429273986
 20
1844.354925457933
 30
0.0
 10
789.6851672978953
 20
1843.96528859953
 30
0.0
 10
789.7120805546477
 20
1843.576968154864
 30
0.0
  0
SPLINE
  5
15E
330
118
100
AcDbEntity
  8
P-SANR-FIXT
100
AcDbSpline
210
0.0
220
0.0
230
1.0
 70
     8
 71
     3
 72
     9
 73
     5
 74
     0
 42
0.000000001
 43
0.0000000001
 40
0.2461545068176123
 40
0.2461545068176123
 40
0.2461545068176123
 40
0.2461545068176123
 40
0.5
 40
1.0
 40
1.0
 40
1.0
 40
1.0
 10
789.7283694589218
 20
1843.359700847029
 30
0.0
 10
789.766641764475
 20
1842.885116231739
 30
0.0
 10
789.9322786620889
 20
1841.48159529259
 30
0.0
 10
790.252279343016
 20
1840.095458952805
 30
0.0
 10
790.5324328469296
 20
1839.183729864754
 30
0.0
  0
LINE
  5
15F
330
118
100
AcDbEntity
  8
P-SANR-FIXT
100
AcDbLine
 10
799.983521047403
 20
1839.183729864754
 30
0.0
 11
790.5324328469296
 21
1839.183729864754
 31
0.0
  0
LINE
  5
160
330
118
100
AcDbEntity
  8
P-SANR-FIXT
100
AcDbLine
 10
799.9664074431574
 20
1839.183729864754
 30
0.0
 11
799.9664074431574
 21
1839.251041952502
 31
0.0
  0
LWPOLYLINE
  5
161
330
118
100
AcDbEntity
  8
P-SANR-FIXT
100
AcDbPolyline
 90
        3
 70
   128
 43
0.0
 10
799.9722051580569
 20
1847.485895552942
 10
799.9664074431574
 20
1843.894512547663
 10
799.983521047403
 20
1839.183729864754
  0
LINE
  5
162
330
118
100
AcDbEntity
  8
P-SANR-FIXT
100
AcDbLine
 10
799.9835210474014
 20
1838.245878730111
 30
0.0
 11
799.9664074431574
 21
1836.776250737025
 31
0.0
  0
LINE
  5
163
330
118
100
AcDbEntity
  8
P-SANR-FIXT
100
AcDbLine
 10
799.9664075599967
 20
1865.715517331203
 30
0.0
 11
799.9835210474456
 21
1864.24587873008
 31
0.0
  0
LWPOLYLINE
  5
164
330
118
100
AcDbEntity
  8
P-SANR-FIXT
100
AcDbPolyline
 90
        3
 70
   128
 43
0.0
 10
799.983521047444
 20
1863.308027595437
 10
799.9664074431574
 20
1858.610880253499
 10
799.9722348330737
 20
1855.00619617608
  0
LINE
  5
165
330
118
100
AcDbEntity
  8
P-SANR-FIXT
100
AcDbLine
 10
800.6880952796445
 20
1835.495878730054
 30
0.0
 11
800.6880952796445
 21
1847.491340719295
 31
0.0
  0
LINE
  5
166
330
118
100
AcDbEntity
  8
P-SANR-FIXT
100
AcDbLine
 10
800.6880952796445
 20
1855.000416740814
 30
0.0
 11
800.6880952796445
 21
1866.995878730049
 31
0.0
  0
LINE
  5
167
330
118
100
AcDbEntity
  8
P-SANR-FIXT
100
AcDbLine
 10
802.6664074431893
 20
1833.845878730052
 30
0.0
 11
815.1664074431893
 21
1833.845878730052
 31
0.0
  0
LINE
  5
168
330
118
100
AcDbEntity
  8
P-SANR-FIXT
100
AcDbLine
 10
815.1664074431893
 20
1868.645878730052
 30
0.0
 11
802.6664074431893
 21
1868.645878730052
 31
0.0
  0
LINE
  5
169
330
118
100
AcDbEntity
  8
P-SANR-FIXT
100
AcDbLine
 10
802.6664074431877
 20
1833.845878730052
 30
0.0
 11
802.6664074431877
 21
1844.851622509152
 31
0.0
  0
LINE
  5
16A
330
118
100
AcDbEntity
  8
P-SANR-FIXT
100
AcDbLine
 10
802.6664074431877
 20
1857.640134950957
 30
0.0
 11
802.6664074431877
 21
1868.645878730051
 31
0.0
  0
LINE
  5
16B
330
118
100
AcDbEntity
  8
P-SANR-FIXT
100
AcDbLine
 10
815.1664074431877
 20
1836.772767504635
 30
0.0
 11
815.1664074431877
 21
1833.845878730052
 31
0.0
  0
LINE
  5
16C
330
118
100
AcDbEntity
  8
P-SANR-FIXT
100
AcDbLine
 10
815.1664074431877
 20
1868.645878730051
 30
0.0
 11
815.1664074431877
 21
1865.718989955475
 31
0.0
  0
LINE
  5
16D
330
118
100
AcDbEntity
  8
P-SANR-FIXT
100
AcDbLine
 10
815.1664074431893
 20
1835.495878730052
 30
0.0
 11
828.1734021870645
 21
1835.495878730052
 31
0.0
  0
LINE
  5
16E
330
118
100
AcDbEntity
  8
P-SANR-FIXT
100
AcDbLine
 10
828.1734021870645
 20
1866.995878730052
 30
0.0
 11
815.1664074431893
 21
1866.995878730052
 31
0.0
  0
LWPOLYLINE
  5
16F
330
118
100
AcDbEntity
  8
P-SANR-FIXT
100
AcDbPolyline
 90
       39
 70
   128
 43
0.0
 10
829.6698493135973
 20
1836.892699286887
 10
829.6645262382746
 20
1836.832939895201
 10
829.6568176825598
 20
1836.773441170892
 10
829.6467359784971
 20
1836.714298299227
 10
829.6342972546623
 20
1836.655605896185
 10
829.6195214103605
 20
1836.597457857088
 10
829.6024320837906
 20
1836.539947206396
 10
829.5830566142294
 20
1836.483165948882
 10
829.5614259982947
 20
1836.427204922445
 10
829.5375748403582
 20
1836.37215365279
 10
829.5115412971842
 20
1836.318100210204
 10
829.4833670168886
 20
1836.265131068664
 10
829.4530970723094
 20
1836.213330967498
 10
829.420779888901
 20
1836.162782775818
 10
829.3864671672627
 20
1836.113567359947
 10
829.3502138004292
 20
1836.065763454051
 10
829.3120777860545
 20
1836.019447534184
 10
829.2721201336258
 20
1835.974693695935
 10
829.2304047668631
 20
1835.9315735359
 10
829.1869984214548
 20
1835.890156037136
 10
829.1419705382937
 20
1835.850507458805
 10
829.0953931523873
 20
1835.812691230176
 10
829.0473407776177
 20
1835.776767849147
 10
828.9978902875331
 20
1835.742794785464
 10
828.9471207923694
 20
1835.710826388782
 10
828.8951135124884
 20
1835.680913801715
 10
828.8419516484434
 20
1835.653104878025
 10
828.7877202478767
 20
1835.627444106053
 10
828.7325060694602
 20
1835.603972537563
 10
828.6763974441008
 20
1835.582727722057
 10
828.6194841336303
 20
1835.563743646707
 10
828.5618571872044
 20
1835.547050681985
 10
828.5036087956441
 20
1835.532675533073
 10
828.4448321439505
 20
1835.520641197143
 10
828.3856212622279
 20
1835.510966926564
 10
828.3260708752559
 20
1835.503668198108
 10
828.2662762509502
 20
1835.498756688181
 10
828.2063330479546
 20
1835.496240254152
 10
828.1734021870645
 20
1835.495878730052
  0
LWPOLYLINE
  5
170
330
118
100
AcDbEntity
  8
P-SANR-FIXT
100
AcDbPolyline
 90
       39
 70
   128
 43
0.0
 10
828.1734021870645
 20
1866.995878730052
 10
828.2333861883445
 20
1866.994678890044
 10
828.2932742280182
 20
1866.991081289506
 10
828.3529704979979
 20
1866.985091683833
 10
828.4123794969859
 20
1866.976719655115
 10
828.4714061832572
 20
1866.965978596814
 10
828.5299561267052
 20
1866.95288569233
 10
828.5879356599108
 20
1866.937461887518
 10
828.6452520279889
 20
1866.919731857176
 10
828.7018135369773
 20
1866.899723965569
 10
828.7575297005277
 20
1866.877470221056
 10
828.8123113846635
 20
1866.853006224882
 10
828.8660709503767
 20
1866.826371114221
 10
828.9187223938302
 20
1866.797607499569
 10
828.9701814839459
 20
1866.766761396572
 10
829.0203658971572
 20
1866.733882152417
 10
829.0691953491082
 20
1866.699022366878
 10
829.1165917230923
 20
1866.662237808179
 10
829.1624791950219
 20
1866.623587323764
 10
829.2067843547304
 20
1866.583132746164
 10
829.2494363234139
 20
1866.540938794073
 10
829.2903668670209
 20
1866.497072968815
 10
829.3295105054129
 20
1866.45160544635
 10
829.3668046171191
 20
1866.404608965018
 10
829.4021895395161
 20
1866.356158709161
 10
829.4356086642764
 20
1866.306332188855
 10
829.4670085279296
 20
1866.255209115902
 10
829.496338897392
 20
1866.202871276313
 10
829.5235528503294
 20
1866.149402399467
 10
829.5486068502222
 20
1866.094888024161
 10
829.5714608160155
 20
1866.039415361767
 10
829.5920781862388
 20
1865.98307315671
 10
829.6104259774985
 20
1865.9259515445
 10
829.626474837242
 20
1865.868141907531
 10
829.6401990907176
 20
1865.809736728889
 10
829.6515767820473
 20
1865.750829444402
 10
829.6605897093522
 20
1865.69151429316
 10
829.6672234538712
 20
1865.631886166749
 10
829.6698493135973
 20
1865.599058173217
  0
LWPOLYLINE
  5
171
330
118
100
AcDbEntity
  8
P-SANR-FIXT
100
AcDbPolyline
 90
       38
 70
   128
 43
0.0
 10
831.0392548939194
 20
1838.243659027835
 10
830.9812979695603
 20
1838.239287795227
 10
830.9235622072408
 20
1838.232602400322
 10
830.8661399718641
 20
1838.223613538326
 10
830.8091231267573
 20
1838.212335589501
 10
830.7526028867096
 20
1838.198786596158
 10
830.6966696720479
 20
1838.182988233797
 10
830.6414129639843
 20
1838.164965776428
 10
830.5869211614639
 20
1838.144748056138
 10
830.5332814397466
 20
1838.122367416967
 10
830.4805796109445
 20
1838.097859663161
 10
830.4288999867413
 20
1838.071264001901
 10
830.3783252435113
 20
1838.04262298057
 10
830.3289362900551
 20
1838.011982418693
 10
830.2808121381621
 20
1837.979391334632
 10
830.2340297762102
 20
1837.94490186717
 10
830.1886640459978
 20
1837.908569192097
 10
830.1447875230163
 20
1837.870451433943
 10
830.1024704003426
 20
1837.830609572989
 10
830.0617803763456
 20
1837.789107347714
 10
830.0227825463839
 20
1837.746011152825
 10
829.9855392986664
 20
1837.701389933039
 10
829.9501102144443
 20
1837.655315072792
 10
829.9165519726946
 20
1837.60786028203
 10
829.8849182594455
 20
1837.559101478294
 10
829.8552596818902
 20
1837.50911666527
 10
829.8276236874258
 20
1837.457985807995
 10
829.8020544877481
 20
1837.405790704935
 10
829.778592988122
 20
1837.352614857119
 10
829.7572767219421
 20
1837.29854333456
 10
829.7381397906871
 20
1837.243662640161
 10
829.7212128093649
 20
1837.188060571324
 10
829.7065228575345
 20
1837.131826079498
 10
829.6940934359849
 20
1837.075049127875
 10
829.6839444291393
 20
1837.017820547466
 10
829.6760920732442
 20
1836.96023189179
 10
829.6705489303931
 20
1836.902375290412
 10
829.6698493135973
 20
1836.892699286887
  0
LWPOLYLINE
  5
172
330
118
100
AcDbEntity
  8
P-SANR-FIXT
100
AcDbPolyline
 90
       38
 70
   128
 43
0.0
 10
829.6698493135973
 20
1865.599058173217
 10
829.6750060791287
 20
1865.541165854859
 10
829.6824737950634
 20
1865.4835260598
 10
829.6922405146487
 20
1865.426230999418
 10
829.7042906132171
 20
1865.369372333586
 10
829.7186048131814
 20
1865.313041024042
 10
829.7351602148747
 20
1865.257327188862
 10
829.7539303331864
 20
1865.202319958299
 10
829.7748851399312
 20
1865.148107332187
 10
829.7979911118884
 20
1865.094776039163
 10
829.8232112844321
 20
1865.04241139792
 10
829.8505053106657
 20
1864.991097180713
 10
829.8798295259699
 20
1864.940915479342
 10
829.9111370178561
 20
1864.891946573826
 10
829.944377701015
 20
1864.844268803967
 10
829.9794983974454
 20
1864.797958444025
 10
830.0164429215246
 20
1864.753089580698
 10
830.0551521698952
 20
1864.709733994597
 10
830.0955642160174
 20
1864.667961045409
 10
830.1376144092383
 20
1864.627837560942
 10
830.1812354782184
 20
1864.589427730212
 10
830.2263576385534
 20
1864.552793000756
 10
830.272908704412
 20
1864.517991980324
 10
830.320814204019
 20
1864.485080343126
 10
830.3699974987946
 20
1864.454110740761
 10
830.4203799059589
 20
1864.425132717985
 10
830.471880824408
 20
1864.398192633455
 10
830.524417863659
 20
1864.373333585556
 10
830.5779069756562
 20
1864.350595343465
 10
830.6322625892308
 20
1864.330014283517
 10
830.687397746996
 20
1864.311623331017
 10
830.7432242444619
 20
1864.295451907568
 10
830.7996527711404
 20
1864.281525883996
 10
830.8565930534271
 20
1864.269867538969
 10
830.9139539990164
 20
1864.260495523351
 10
830.971643842632
 20
1864.253424830369
 10
831.0295702928307
 20
1864.248666771622
 10
831.0392548939194
 20
1864.248098432269
  0
LINE
  5
173
330
118
100
AcDbEntity
  8
P-SANR-FIXT
100
AcDbLine
 10
831.0392548939178
 20
1838.243659027835
 30
0.0
 11
831.0392548939178
 21
1839.226202081264
 31
0.0
  0
LINE
  5
174
330
118
100
AcDbEntity
  8
P-SANR-FIXT
100
AcDbLine
 10
831.0392548939178
 20
1840.913987879911
 30
0.0
 11
831.0392548939178
 21
1847.491936018079
 31
0.0
  0
LINE
  5
175
330
118
100
AcDbEntity
  8
P-SANR-FIXT
100
AcDbLine
 10
831.0392548939178
 20
1854.99982144203
 30
0.0
 11
831.0392548939178
 21
1861.577769580193
 31
0.0
  0
LINE
  5
176
330
118
100
AcDbEntity
  8
P-SANR-FIXT
100
AcDbLine
 10
831.0392548939178
 20
1863.247927685944
 30
0.0
 11
831.0392548939178
 21
1864.248098432269
 31
0.0
  0
LINE
  5
177
330
118
100
AcDbEntity
  8
P-SANR-FIXT
100
AcDbLine
 10
831.1195426757802
 20
1839.245878730052
 30
0.0
 11
840.6664074431878
 21
1839.245878730052
 31
0.0
  0
LINE
  5
178
330
118
100
AcDbEntity
  8
P-SANR-FIXT
100
AcDbLine
 10
840.6664074431878
 20
1840.91575171113
 30
0.0
 11
831.1195426757802
 21
1840.91575171113
 31
0.0
  0
LINE
  5
179
330
118
100
AcDbEntity
  8
P-SANR-FIXT
100
AcDbLine
 10
831.1195426757802
 20
1861.576005748974
 30
0.0
 11
840.6664074431878
 21
1861.576005748974
 31
0.0
  0
LINE
  5
17A
330
118
100
AcDbEntity
  8
P-SANR-FIXT
100
AcDbLine
 10
840.6664074431878
 20
1863.245878730052
 30
0.0
 11
831.1195426757802
 21
1863.245878730052
 31
0.0
  0
LINE
  5
17B
330
118
100
AcDbEntity
  8
P-SANR-FIXT
100
AcDbLine
 10
840.6664074431878
 20
1847.495878730055
 30
0.0
 11
840.6664074431878
 21
1840.91575171113
 31
0.0
  0
LINE
  5
17C
330
118
100
AcDbEntity
  8
P-SANR-FIXT
100
AcDbLine
 10
840.6664074431878
 20
1839.245878730052
 30
0.0
 11
840.6664074431878
 21
1840.915751711129
 31
0.0
  0
LINE
  5
17D
330
118
100
AcDbEntity
  8
P-SANR-FIXT
100
AcDbLine
 10
840.6664074431878
 20
1861.576005748974
 30
0.0
 11
840.6664074431878
 21
1863.245878730052
 31
0.0
  0
LINE
  5
17E
330
118
100
AcDbEntity
  8
P-SANR-FIXT
100
AcDbLine
 10
840.6664074431878
 20
1861.576005748974
 30
0.0
 11
840.6664074431878
 21
1854.995878730054
 31
0.0
  0
ARC
  5
17F
330
118
100
AcDbEntity
  8
P-SANR-FIXT
100
AcDbCircle
 10
815.6664074431878
 20
1851.245878730052
 30
0.0
 40
4.782649002170956
100
AcDbArc
 50
180.0
 51
0.0
  0
ARC
  5
180
330
118
100
AcDbEntity
  8
P-SANR-FIXT
100
AcDbCircle
 10
815.6664074431878
 20
1851.245878730052
 30
0.0
 40
4.782649002170956
100
AcDbArc
 50
0.0
 51
180.0
  0
ARC
  5
181
330
118
100
AcDbEntity
  8
P-SANR-FIXT
100
AcDbCircle
 10
815.6664074431878
 20
1851.245878730052
 30
0.0
 40
5.782649002170842
100
AcDbArc
 50
180.0
 51
0.0
  0
ARC
  5
182
330
118
100
AcDbEntity
  8
P-SANR-FIXT
100
AcDbCircle
 10
815.6664074431878
 20
1851.245878730052
 30
0.0
 40
5.782649002170842
100
AcDbArc
 50
0.0
 51
180.0
  0
ENDBLK
  5
184
330
118
100
AcDbEntity
  8
0
100
AcDbBlockEnd
  0
BLOCK
  5
228
330
186
100
AcDbEntity
  8
0
100
AcDbBlockBegin
  2
Automatic flow rate regulator valve_Caleffi_121 DN15 - 1_2__-V2-Est - Idraulica
 70
     0
 10
0.0
 20
0.0
 30
0.0
  3
Automatic flow rate regulator valve_Caleffi_121 DN15 - 1_2__-V2-Est - Idraulica
  1

  0
LINE
  5
187
330
186
100
AcDbEntity
  8
M-PIPE
100
AcDbLine
 10
1000.114353943101
 20
2036.81618495958
 30
0.0
 11
1000.114353943101
 21
2029.849611904362
 31
0.0
1001
REVIT
1002
{
1070
     3
1000
923114
1002
}
  0
LINE
  5
188
330
186
100
AcDbEntity
  8
M-PIPE
100
AcDbLine
 10
1029.11435394309
 20
2029.849611904362
 30
0.0
 11
1029.11435394309
 21
2036.81618495958
 31
0.0
1001
REVIT
1002
{
1070
     3
1000
923114
1002
}
  0
LINE
  5
189
330
186
100
AcDbEntity
  8
M-PIPE
100
AcDbLine
 10
1005.364353943102
 20
2045.281123894173
 30
0.0
 11
1005.364353943102
 21
2041.84961190438
 31
0.0
1001
REVIT
1002
{
1070
     3
1000
923114
1002
}
  0
LINE
  5
18A
330
186
100
AcDbEntity
  8
M-PIPE
100
AcDbLine
 10
1023.86435394309
 20
2041.84961190438
 30
0.0
 11
1023.86435394309
 21
2045.281123894173
 31
0.0
1001
REVIT
1002
{
1070
     3
1000
923114
1002
}
  0
LWPOLYLINE
  5
18B
330
186
100
AcDbEntity
  8
M-PIPE
100
AcDbPolyline
 90
       33
 70
   128
 43
0.0
 10
1010.864353943096
 20
2039.354078941356
 10
1010.413347162433
 20
2039.354078941356
 10
1009.96882068857
 20
2039.354078941356
 10
1009.531726076919
 20
2039.354078941356
 10
1009.102762585618
 20
2039.354078941356
 10
1008.682616464746
 20
2039.354078941356
 10
1008.271959858469
 20
2039.354078941356
 10
1007.871449729756
 20
2039.354078941356
 10
1007.481726809374
 20
2039.354078941356
 10
1007.103414570861
 20
2039.354078941356
 10
1006.737118233094
 20
2039.354078941356
 10
1006.383423792077
 20
2039.354078941356
 10
1006.042897083463
 20
2039.354078941356
 10
1005.716082877344
 20
2039.354078941356
 10
1005.403504006734
 20
2039.354078941356
 10
1005.105660531146
 20
2039.354078941356
 10
1004.823028936604
 20
2039.354078941356
 10
1004.556061373367
 20
2039.354078941356
 10
1004.305184932588
 20
2039.354078941356
 10
1004.070800963053
 20
2039.354078941356
 10
1003.853284429115
 20
2039.354078941356
 10
1003.652983310827
 20
2039.354078941356
 10
1003.470218047249
 20
2039.354078941356
 10
1003.305281023816
 20
2039.354078941356
 10
1003.15843610458
 20
2039.354078941356
 10
1003.029918210087
 20
2039.354078941356
 10
1002.919932941553
 20
2039.354078941356
 10
1002.828656251944
 20
2039.354078941356
 10
1002.756234164493
 20
2039.354078941356
 10
1002.70278253909
 20
2039.354078941356
 10
1002.668386886934
 20
2039.354078941356
 10
1002.653102233731
 20
2039.354078941356
 10
1002.652247924874
 20
2039.354078941356
1001
REVIT
1002
{
1070
     3
1000
923114
1002
}
  0
LWPOLYLINE
  5
18C
330
186
100
AcDbEntity
  8
M-PIPE
100
AcDbPolyline
 90
       33
 70
   128
 43
0.0
 10
1026.576459961317
 20
2039.354078941356
 10
1026.566891552393
 20
2039.354078941356
 10
1026.538201633032
 20
2039.354078941356
 10
1026.490436100986
 20
2039.354078941356
 10
1026.423671370916
 20
2039.354078941356
 10
1026.338014252148
 20
2039.354078941356
 10
1026.233601777801
 20
2039.354078941356
 10
1026.110600985558
 20
2039.354078941356
 10
1025.969208650449
 20
2039.354078941356
 10
1025.809650970048
 20
2039.354078941356
 10
1025.632183202607
 20
2039.354078941356
 10
1025.437089258695
 20
2039.354078941356
 10
1025.224681247006
 20
2039.354078941356
 10
1024.995298975046
 20
2039.354078941356
 10
1024.749309405518
 20
2039.354078941356
 10
1024.487106069259
 20
2039.354078941356
 10
1024.209108435673
 20
2039.354078941356
 10
1023.915761241671
 20
2039.354078941356
 10
1023.607533780186
 20
2039.354078941356
 10
1023.284919149404
 20
2039.354078941356
 10
1022.948433463913
 20
2039.354078941356
 10
1022.598615029031
 20
2039.354078941356
 10
1022.236023479631
 20
2039.354078941356
 10
1021.86123888484
 20
2039.354078941356
 10
1021.474860820063
 20
2039.354078941356
 10
1021.07750740778
 20
2039.354078941356
 10
1020.669814328686
 20
2039.354078941356
 10
1020.252433804737
 20
2039.354078941356
 10
1019.826033555736
 20
2039.354078941356
 10
1019.391295731121
 20
2039.354078941356
 10
1018.94891581867
 20
2039.354078941356
 10
1018.499601531877
 20
2039.354078941356
 10
1018.364353943096
 20
2039.354078941356
1001
REVIT
1002
{
1070
     3
1000
923114
1002
}
  0
LWPOLYLINE
  5
18D
330
186
100
AcDbEntity
  8
M-PIPE
100
AcDbPolyline
 90
       41
 70
   128
 43
0.0
 10
1000.114353943098
 20
2036.81618495958
 10
1000.116383987589
 20
2036.917673650147
 10
1000.122470873425
 20
2037.01899998046
 10
1000.132604862886
 20
2037.120001850004
 10
1000.14676974375
 20
2037.220517677333
 10
1000.164942855231
 20
2037.320386658568
 10
1000.187095124227
 20
2037.419449024642
 10
1000.213191111832
 20
2037.5175462969
 10
1000.243189070034
 20
2037.614521540636
 10
1000.277041008499
 20
2037.710219616144
 10
1000.314692771346
 20
2037.804487426918
 10
1000.356084123787
 20
2037.897174164572
 10
1000.401148848487
 20
2037.988131550096
 10
1000.449814851501
 20
2038.077214071078
 10
1000.502004277604
 20
2038.164279214486
 10
1000.55763363485
 20
2038.249187694664
 10
1000.616613928132
 20
2038.331803676157
 10
1000.678850801563
 20
2038.411994991019
 10
1000.744244689423
 20
2038.489633350252
 10
1000.812690975441
 20
2038.564594549042
 10
1000.884080160159
 20
2038.636758665464
 10
1000.958298036113
 20
2038.706010252325
 10
1001.035225870531
 20
2038.772238521858
 10
1001.114740595291
 20
2038.835337522961
 10
1001.196715003793
 20
2038.895206310693
 10
1001.281017954472
 20
2038.951749107763
 10
1001.36751458059
 20
2039.004875457758
 10
1001.456066505998
 20
2039.054500369854
 10
1001.546532066504
 20
2039.100544454774
 10
1001.638766536509
 20
2039.142934051805
 10
1001.732622360538
 20
2039.181601346636
 10
1001.827949389294
 20
2039.216484479843
 10
1001.924595119866
 20
2039.247527645854
 10
1002.022404939702
 20
2039.274681182225
 10
1002.121222373954
 20
2039.297901649092
 10
1002.220889335808
 20
2039.31715189866
 10
1002.321246379387
 20
2039.332401134637
 10
1002.422132954829
 20
2039.343624961498
 10
1002.523387665134
 20
2039.350805423514
 10
1002.624848524366
 20
2039.353931033478
 10
1002.652247924874
 20
2039.354078941356
1001
REVIT
1002
{
1070
     3
1000
923114
1002
}
  0
LWPOLYLINE
  5
18E
330
186
100
AcDbEntity
  8
M-PIPE
100
AcDbPolyline
 90
       41
 70
   128
 43
0.0
 10
1026.576459961317
 20
2039.354078941356
 10
1026.677948651885
 20
2039.352048896864
 10
1026.779274982197
 20
2039.345962011029
 10
1026.880276851741
 20
2039.335828021568
 10
1026.980792679071
 20
2039.321663140704
 10
1027.080661660306
 20
2039.303490029222
 10
1027.179724026379
 20
2039.281337760227
 10
1027.277821298638
 20
2039.255241772622
 10
1027.374796542373
 20
2039.225243814419
 10
1027.470494617881
 20
2039.191391875955
 10
1027.564762428656
 20
2039.153740113108
 10
1027.657449166309
 20
2039.112348760667
 10
1027.748406551834
 20
2039.067284035967
 10
1027.837489072815
 20
2039.018618032953
 10
1027.924554216223
 20
2038.966428606849
 10
1028.009462696402
 20
2038.910799249604
 10
1028.092078677895
 20
2038.851818956322
 10
1028.172269992757
 20
2038.789582082891
 10
1028.249908351989
 20
2038.724188195031
 10
1028.32486955078
 20
2038.655741909014
 10
1028.397033667202
 20
2038.584352724295
 10
1028.466285254062
 20
2038.510134848341
 10
1028.532513523596
 20
2038.433207013923
 10
1028.595612524699
 20
2038.353692289164
 10
1028.65548131243
 20
2038.271717880661
 10
1028.7120241095
 20
2038.187414929982
 10
1028.765150459497
 20
2038.100918303864
 10
1028.814775371591
 20
2038.012366378456
 10
1028.860819456511
 20
2037.92190081795
 10
1028.903209053543
 20
2037.829666347945
 10
1028.941876348373
 20
2037.735810523916
 10
1028.97675948158
 20
2037.64048349516
 10
1029.007802647591
 20
2037.543837764588
 10
1029.034956183963
 20
2037.446027944753
 10
1029.058176650829
 20
2037.347210510501
 10
1029.077426900398
 20
2037.247543548646
 10
1029.092676136375
 20
2037.147186505067
 10
1029.103899963236
 20
2037.046299929626
 10
1029.111080425252
 20
2036.94504521932
 10
1029.114206035216
 20
2036.843584360088
 10
1029.114353943094
 20
2036.81618495958
1001
REVIT
1002
{
1070
     3
1000
923114
1002
}
  0
LWPOLYLINE
  5
18F
330
186
100
AcDbEntity
  8
M-PIPE
100
AcDbPolyline
 90
        7
 70
   128
 43
0.0
 10
1026.333114331893
 20
2039.354078941356
 10
1026.400051634247
 20
2039.354078941356
 10
1026.472473721699
 20
2039.354078941356
 10
1026.525925347101
 20
2039.354078941356
 10
1026.560320999257
 20
2039.354078941356
 10
1026.575605652461
 20
2039.354078941356
 10
1026.576459961317
 20
2039.354078941356
1001
REVIT
1002
{
1070
     3
1000
923114
1002
}
  0
LWPOLYLINE
  5
190
330
186
100
AcDbEntity
  8
M-PIPE
100
AcDbPolyline
 90
        6
 70
   128
 43
0.0
 10
1002.652247924874
 20
2039.354078941356
 10
1002.661816333799
 20
2039.354078941356
 10
1002.69050625316
 20
2039.354078941356
 10
1002.738271785206
 20
2039.354078941356
 10
1002.805036515276
 20
2039.354078941356
 10
1002.890693634043
 20
2039.354078941356
1001
REVIT
1002
{
1070
     3
1000
923114
1002
}
  0
LWPOLYLINE
  5
191
330
186
100
AcDbEntity
  8
M-PIPE
100
AcDbPolyline
 90
       41
 70
   128
 43
0.0
 10
1002.884146166119
 20
2039.350007801628
 10
1002.964327278566
 20
2039.351611637728
 10
1003.064140678022
 20
2039.357607638624
 10
1003.163634461321
 20
2039.367590314745
 10
1003.262649459635
 20
2039.381543695941
 10
1003.361027270087
 20
2039.399445459777
 10
1003.458610509167
 20
2039.42126696725
 10
1003.55524306451
 20
2039.446973308603
 10
1003.65077034464
 20
2039.476523359174
 10
1003.745039526287
 20
2039.509869845185
 10
1003.837899798871
 20
2039.546959419373
 10
1003.929202605764
 20
2039.58773274633
 10
1004.018801881953
 20
2039.632124597432
 10
1004.106554287709
 20
2039.680063955186
 10
1004.192319437901
 20
2039.731474126847
 10
1004.275960126587
 20
2039.786272867106
 10
1004.357342546505
 20
2039.84437250967
 10
1004.436336503145
 20
2039.905680107503
 10
1004.512815623028
 20
2039.970097581528
 10
1004.586657555875
 20
2040.037521877528
 10
1004.657744170348
 20
2040.107845131013
 10
1004.725961743026
 20
2040.180954839777
 10
1004.791201140347
 20
2040.256734043884
 10
1004.85335799319
 20
2040.335061512772
 10
1004.912332863852
 20
2040.415811939199
 10
1004.968031405119
 20
2040.49885613971
 10
1005.020364511207
 20
2040.584061261299
 10
1005.069248460311
 20
2040.671290993946
 10
1005.11460504854
 20
2040.760405788688
 10
1005.156361715028
 20
2040.851263080865
 10
1005.194451658017
 20
2040.943717518189
 10
1005.228813941723
 20
2041.037621193283
 10
1005.259393593822
 20
2041.132823880301
 10
1005.286141693395
 20
2041.229173275249
 10
1005.309015449187
 20
2041.326515239652
 10
1005.32797826807
 20
2041.42469404713
 10
1005.342999813578
 20
2041.523552632535
 10
1005.354056054443
 20
2041.622932843219
 10
1005.361129303038
 20
2041.722675692047
 10
1005.364208243674
 20
2041.822621611735
 10
1005.364353943099
 20
2041.84961190438
1001
REVIT
1002
{
1070
     3
1000
923114
1002
}
  0
LWPOLYLINE
  5
192
330
186
100
AcDbEntity
  8
M-PIPE
100
AcDbPolyline
 90
       41
 70
   128
 43
0.0
 10
1023.864353943092
 20
2041.84961190438
 10
1023.86635367644
 20
2041.749638568914
 10
1023.872349677336
 20
2041.649825169457
 10
1023.882332353458
 20
2041.550331386158
 10
1023.896285734654
 20
2041.451316387844
 10
1023.91418749849
 20
2041.352938577392
 10
1023.936009005963
 20
2041.255355338312
 10
1023.961715347316
 20
2041.15872278297
 10
1023.991265397887
 20
2041.06319550284
 10
1024.024611883898
 20
2040.968926321192
 10
1024.061701458085
 20
2040.876066048608
 10
1024.102474785043
 20
2040.784763241715
 10
1024.146866636145
 20
2040.695163965526
 10
1024.194805993899
 20
2040.607411559771
 10
1024.246216165559
 20
2040.521646409578
 10
1024.301014905819
 20
2040.438005720893
 10
1024.359114548382
 20
2040.356623300974
 10
1024.420422146215
 20
2040.277629344334
 10
1024.484839620241
 20
2040.201150224451
 10
1024.55226391624
 20
2040.127308291604
 10
1024.622587169725
 20
2040.056221677131
 10
1024.69569687849
 20
2039.988004104453
 10
1024.771476082596
 20
2039.922764707133
 10
1024.849803551484
 20
2039.86060785429
 10
1024.930553977912
 20
2039.801632983628
 10
1025.013598178422
 20
2039.74593444236
 10
1025.098803300011
 20
2039.693601336272
 10
1025.186033032658
 20
2039.644717387168
 10
1025.275147827401
 20
2039.599360798939
 10
1025.366005119577
 20
2039.557604132451
 10
1025.458459556901
 20
2039.519514189462
 10
1025.552363231996
 20
2039.485151905756
 10
1025.647565919013
 20
2039.454572253657
 10
1025.743915313962
 20
2039.427824154085
 10
1025.841257278364
 20
2039.404950398292
 10
1025.939436085842
 20
2039.385987579409
 10
1026.038294671248
 20
2039.370966033901
 10
1026.137674881932
 20
2039.359909793036
 10
1026.237417730759
 20
2039.352836544441
 10
1026.337363650447
 20
2039.349757603805
 10
1026.364353943093
 20
2039.349611904381
1001
REVIT
1002
{
1070
     3
1000
923114
1002
}
  0
LWPOLYLINE
  5
193
330
186
100
AcDbEntity
  8
M-PIPE
100
AcDbPolyline
 90
       30
 70
   128
 43
0.0
 10
1010.864353943096
 20
2045.84961190438
 10
1010.554244077812
 20
2045.84961190438
 10
1010.250629522202
 20
2045.84961190438
 10
1009.953995994788
 20
2045.84961190438
 10
1009.664818045933
 20
2045.84961190438
 10
1009.38355829867
 20
2045.84961190438
 10
1009.110666708595
 20
2045.84961190438
 10
1008.846579844037
 20
2045.84961190438
 10
1008.591720187644
 20
2045.84961190438
 10
1008.346495460501
 20
2045.84961190438
 10
1008.111297969858
 20
2045.84961190438
 10
1007.886503981527
 20
2045.84961190438
 10
1007.672473117937
 20
2045.84961190438
 10
1007.469547782812
 20
2045.84961190438
 10
1007.278052613398
 20
2045.84961190438
 10
1007.098293961119
 20
2045.84961190438
 10
1006.930559401469
 20
2045.84961190438
 10
1006.775117273964
 20
2045.84961190438
 10
1006.632216252849
 20
2045.84961190438
 10
1006.502084949273
 20
2045.84961190438
 10
1006.384931545562
 20
2045.84961190438
 10
1006.28094346217
 20
2045.84961190438
 10
1006.190287057849
 20
2045.84961190438
 10
1006.113107363505
 20
2045.84961190438
 10
1006.049527850186
 20
2045.84961190438
 10
1005.999650231551
 20
2045.84961190438
 10
1005.963554301148
 20
2045.84961190438
 10
1005.941297804767
 20
2045.84961190438
 10
1005.932916348054
 20
2045.84961190438
 10
1005.932841953307
 20
2045.84961190438
1001
REVIT
1002
{
1070
     3
1000
923114
1002
}
  0
LWPOLYLINE
  5
194
330
186
100
AcDbEntity
  8
M-PIPE
100
AcDbPolyline
 90
       30
 70
   128
 43
0.0
 10
1023.295865932885
 20
2045.84961190438
 10
1023.288921649271
 20
2045.84961190438
 10
1023.268099907804
 20
2045.84961190438
 10
1023.233434018827
 20
2045.84961190438
 10
1023.184979440368
 20
2045.84961190438
 10
1023.122813689416
 20
2045.84961190438
 10
1023.047036217911
 20
2045.84961190438
 10
1022.957768253642
 20
2045.84961190438
 10
1022.85515260631
 20
2045.84961190438
 10
1022.739353439061
 20
2045.84961190438
 10
1022.610556005858
 20
2045.84961190438
 10
1022.468966355121
 20
2045.84961190438
 10
1022.314811000086
 20
2045.84961190438
 10
1022.148336556436
 20
2045.84961190438
 10
1021.969809347768
 20
2045.84961190438
 10
1021.779514979534
 20
2045.84961190438
 10
1021.577757882127
 20
2045.84961190438
 10
1021.364860823865
 20
2045.84961190438
 10
1021.141164394624
 20
2045.84961190438
 10
1020.907026460974
 20
2045.84961190438
 10
1020.662821593659
 20
2045.84961190438
 10
1020.408940468375
 20
2045.84961190438
 10
1020.145789240763
 20
2045.84961190438
 10
1019.873788896652
 20
2045.84961190438
 10
1019.593374578567
 20
2045.84961190438
 10
1019.3049948896
 20
2045.84961190438
 10
1019.009111175736
 20
2045.84961190438
 10
1018.706196787798
 20
2045.84961190438
 10
1018.396736324187
 20
2045.84961190438
 10
1018.364353943096
 20
2045.84961190438
1001
REVIT
1002
{
1070
     3
1000
923114
1002
}
  0
LWPOLYLINE
  5
195
330
186
100
AcDbEntity
  8
M-PIPE
100
AcDbPolyline
 90
       41
 70
   128
 43
0.0
 10
1005.3643539431
 20
2045.281123894173
 10
1005.364808672872
 20
2045.303857351194
 10
1005.36617213472
 20
2045.326554439533
 10
1005.368442147394
 20
2045.349178848692
 10
1005.371615079359
 20
2045.37169438444
 10
1005.375685854599
 20
2045.394065026726
 10
1005.380647960745
 20
2045.416254987291
 10
1005.386493459483
 20
2045.438228766935
 10
1005.393212999263
 20
2045.459951212295
 10
1005.400795830255
 20
2045.481387572094
 10
1005.409229821547
 20
2045.50250355273
 10
1005.418501480551
 20
2045.523265373137
 10
1005.428595974592
 20
2045.543639818832
 10
1005.439497154632
 20
2045.563594295047
 10
1005.451187581109
 20
2045.583096878878
 10
1005.463648551834
 20
2045.602116370352
 10
1005.476860131912
 20
2045.620622342338
 10
1005.490801185633
 20
2045.638585189229
 10
1005.505449410285
 20
2045.655976174303
 10
1005.520781371834
 20
2045.672767475693
 10
1005.536772542412
 20
2045.688932230898
 10
1005.553397339557
 20
2045.70444457976
 10
1005.57062916714
 20
2045.719279705827
 10
1005.588440457914
 20
2045.733413876065
 10
1005.606802717611
 20
2045.746824478815
 10
1005.625686570534
 20
2045.759490059973
 10
1005.645061806546
 20
2045.771390357312
 10
1005.664897429404
 20
2045.782506332896
 10
1005.685161706341
 20
2045.792820203532
 10
1005.705822218838
 20
2045.80231546923
 10
1005.726845914481
 20
2045.81097693959
 10
1005.748199159844
 20
2045.818790758106
 10
1005.769847794288
 20
2045.825744424336
 10
1005.791757184615
 20
2045.831826813897
 10
1005.813892280476
 20
2045.837028196263
 10
1005.836217670439
 20
2045.841340250333
 10
1005.858697638643
 20
2045.844756077739
 10
1005.881296221933
 20
2045.847270213887
 10
1005.903977267398
 20
2045.848878636695
 10
1005.926704490203
 20
2045.849578773029
 10
1005.932841953307
 20
2045.84961190438
1001
REVIT
1002
{
1070
     3
1000
923114
1002
}
  0
LWPOLYLINE
  5
196
330
186
100
AcDbEntity
  8
M-PIPE
100
AcDbPolyline
 90
       41
 70
   128
 43
0.0
 10
1023.295865932885
 20
2045.84961190438
 10
1023.318599389906
 20
2045.849157174608
 10
1023.341296478245
 20
2045.84779371276
 10
1023.363920887404
 20
2045.845523700086
 10
1023.386436423152
 20
2045.842350768121
 10
1023.408807065437
 20
2045.838279992881
 10
1023.430997026003
 20
2045.833317886735
 10
1023.452970805646
 20
2045.827472387997
 10
1023.474693251007
 20
2045.820752848217
 10
1023.496129610806
 20
2045.813170017225
 10
1023.517245591442
 20
2045.804736025933
 10
1023.538007411849
 20
2045.795464366928
 10
1023.558381857543
 20
2045.785369872888
 10
1023.578336333759
 20
2045.774468692847
 10
1023.59783891759
 20
2045.762778266371
 10
1023.616858409063
 20
2045.750317295646
 10
1023.63536438105
 20
2045.737105715568
 10
1023.653327227941
 20
2045.723164661847
 10
1023.670718213015
 20
2045.708516437195
 10
1023.687509514404
 20
2045.693184475645
 10
1023.70367426961
 20
2045.677193305067
 10
1023.719186618471
 20
2045.660568507923
 10
1023.734021744539
 20
2045.64333668034
 10
1023.748155914777
 20
2045.625525389566
 10
1023.761566517527
 20
2045.607163129869
 10
1023.774232098685
 20
2045.588279276946
 10
1023.786132396025
 20
2045.568904040933
 10
1023.797248371607
 20
2045.549068418076
 10
1023.807562242244
 20
2045.528804141139
 10
1023.817057507942
 20
2045.508143628642
 10
1023.825718978302
 20
2045.487119932998
 10
1023.833532796817
 20
2045.465766687636
 10
1023.840486463048
 20
2045.444118053192
 10
1023.846568852609
 20
2045.422208662865
 10
1023.851770234975
 20
2045.400073567003
 10
1023.856082289045
 20
2045.37774817704
 10
1023.859498116451
 20
2045.355268208837
 10
1023.862012252599
 20
2045.332669625547
 10
1023.863620675407
 20
2045.309988580082
 10
1023.864320811741
 20
2045.287261357277
 10
1023.864353943092
 20
2045.281123894173
1001
REVIT
1002
{
1070
     3
1000
923114
1002
}
  0
LWPOLYLINE
  5
197
330
186
100
AcDbEntity
  8
M-PIPE
100
AcDbPolyline
 90
        5
 70
   128
 43
0.0
 10
1023.243161994445
 20
2045.84961190438
 10
1023.265153585043
 20
2045.84961190438
 10
1023.287410081424
 20
2045.84961190438
 10
1023.295791538137
 20
2045.84961190438
 10
1023.295865932885
 20
2045.84961190438
1001
REVIT
1002
{
1070
     3
1000
923114
1002
}
  0
LWPOLYLINE
  5
198
330
186
100
AcDbEntity
  8
M-PIPE
100
AcDbPolyline
 90
        4
 70
   128
 43
0.0
 10
1005.932841953307
 20
2045.84961190438
 10
1005.939786236921
 20
2045.84961190438
 10
1005.960607978388
 20
2045.84961190438
 10
1005.995273867365
 20
2045.84961190438
1001
REVIT
1002
{
1070
     3
1000
923114
1002
}
  0
LINE
  5
199
330
186
100
AcDbEntity
  8
M-PIPE
100
AcDbLine
 10
1018.364353943096
 20
2048.393305290818
 30
0.0
 11
1010.864353943096
 21
2048.393305290818
 31
0.0
1001
REVIT
1002
{
1070
     3
1000
923114
1002
}
  0
LINE
  5
19A
330
186
100
AcDbEntity
  8
M-PIPE
100
AcDbLine
 10
1000.1143539431
 20
2029.849611904361
 30
0.0
 11
1010.864353943095
 21
2029.849611904361
 31
0.0
1001
REVIT
1002
{
1070
     3
1000
923114
1002
}
  0
LINE
  5
19B
330
186
100
AcDbEntity
  8
M-PIPE
100
AcDbLine
 10
1016.614353943082
 20
2023.349611904377
 30
0.0
 11
1028.975760559434
 21
2023.349611904377
 31
0.0
1001
REVIT
1002
{
1070
     3
1000
923114
1002
}
  0
LINE
  5
19C
330
186
100
AcDbEntity
  8
M-PIPE
100
AcDbLine
 10
1028.975760559434
 20
2023.349611904377
 30
0.0
 11
1028.975760559434
 21
2029.849611904361
 31
0.0
1001
REVIT
1002
{
1070
     3
1000
923114
1002
}
  0
LINE
  5
19D
330
186
100
AcDbEntity
  8
M-PIPE
100
AcDbLine
 10
1028.975760559434
 20
2029.849611904361
 30
0.0
 11
1029.114353943088
 21
2029.849611904361
 31
0.0
1001
REVIT
1002
{
1070
     3
1000
923114
1002
}
  0
LINE
  5
19E
330
186
100
AcDbEntity
  8
M-PIPE
100
AcDbLine
 10
1016.614353943082
 20
2029.849611904361
 30
0.0
 11
1016.614353943082
 21
2023.349611904377
 31
0.0
1001
REVIT
1002
{
1070
     3
1000
923114
1002
}
  0
LINE
  5
19F
330
186
100
AcDbEntity
  8
M-PIPE
100
AcDbLine
 10
1000.252947326757
 20
2023.349611904377
 30
0.0
 11
1000.252947326757
 21
2029.849611904361
 31
0.0
1001
REVIT
1002
{
1070
     3
1000
923114
1002
}
  0
LINE
  5
1A0
330
186
100
AcDbEntity
  8
M-PIPE
100
AcDbLine
 10
1004.348708600104
 20
2023.349611904377
 30
0.0
 11
1003.289602290176
 21
2023.349611904377
 31
0.0
1001
REVIT
1002
{
1070
     3
1000
923114
1002
}
  0
LINE
  5
1A1
330
186
100
AcDbEntity
  8
M-PIPE
100
AcDbLine
 10
1003.289602290176
 20
2023.349611904377
 30
0.0
 11
1000.252947326757
 21
2023.349611904377
 31
0.0
1001
REVIT
1002
{
1070
     3
1000
923114
1002
}
  0
SPLINE
  5
1A2
330
186
100
AcDbEntity
  8
M-PIPE
100
AcDbSpline
210
0.0
220
0.0
230
1.0
 70
    24
 71
     3
 72
     8
 73
     4
 74
     0
 42
0.000000001
 43
0.0000000001
 40
-0.142857142857143
 40
-0.142857142857143
 40
-0.142857142857143
 40
-0.142857142857143
 40
-0.0269704286773724
 40
-0.0269704286773724
 40
-0.0269704286773724
 40
-0.0269704286773724
 10
1010.864353943094
 20
2039.311915284519
 30
0.0
 10
1010.864353943094
 20
2039.339852036039
 30
0.0
 10
1010.864353943094
 20
2039.348655335993
 30
0.0
 10
1010.864353943094
 20
2039.351043395678
 30
0.0
1001
REVIT
1002
{
1070
     3
1000
923114
1002
}
  0
LINE
  5
1A3
330
186
100
AcDbEntity
  8
M-PIPE
100
AcDbLine
 10
1003.289602290176
 20
2023.349611904361
 30
0.0
 11
1003.289602290176
 21
2029.849611904361
 31
0.0
1001
REVIT
1002
{
1070
     3
1000
923114
1002
}
  0
LINE
  5
1A4
330
186
100
AcDbEntity
  8
M-PIPE
100
AcDbLine
 10
1010.864353943094
 20
2029.84961190436
 30
0.0
 11
1010.864353943094
 21
2043.56780277433
 31
0.0
1001
REVIT
1002
{
1070
     3
1000
923114
1002
}
  0
LINE
  5
1A5
330
186
100
AcDbEntity
  8
M-PIPE
100
AcDbLine
 10
1010.864353943094
 20
2043.56780277433
 30
0.0
 11
1010.864353943094
 21
2048.391392281468
 31
0.0
1001
REVIT
1002
{
1070
     3
1000
923114
1002
}
  0
LINE
  5
1A6
330
186
100
AcDbEntity
  8
M-PIPE
100
AcDbLine
 10
1018.364353943094
 20
2048.391392281468
 30
0.0
 11
1018.364353943094
 21
2043.56780277433
 31
0.0
1001
REVIT
1002
{
1070
     3
1000
923114
1002
}
  0
LINE
  5
1A7
330
186
100
AcDbEntity
  8
M-PIPE
100
AcDbLine
 10
1018.364353943094
 20
2043.56780277433
 30
0.0
 11
1018.364353943094
 21
2029.849611904361
 31
0.0
1001
REVIT
1002
{
1070
     3
1000
923114
1002
}
  0
LINE
  5
1A8
330
186
100
AcDbEntity
  8
M-PIPE
100
AcDbLine
 10
1018.364353943094
 20
2029.849611904361
 30
0.0
 11
1010.864353943094
 21
2029.84961190436
 31
0.0
1001
REVIT
1002
{
1070
     3
1000
923114
1002
}
  0
ARC
  5
1A9
330
186
100
AcDbEntity
  8
P-SANR-FIXT
100
AcDbCircle
 10
1014.614353943097
 20
1999.982558850011
 30
0.0
 40
12.99999999998476
100
AcDbArc
 50
269.9999999999997
 51
299.9999999999976
  0
ARC
  5
1AA
330
186
100
AcDbEntity
  8
P-SANR-FIXT
100
AcDbCircle
 10
1014.614353943097
 20
1999.982558850011
 30
0.0
 40
12.99999999998468
100
AcDbArc
 50
299.999999999998
 51
304.9999999999978
  0
ARC
  5
1AB
330
186
100
AcDbEntity
  8
P-SANR-FIXT
100
AcDbCircle
 10
1014.614353943097
 20
1999.982558850011
 30
0.0
 40
12.99999999998459
100
AcDbArc
 50
305.1047158526226
 51
359.9999999999966
  0
ARC
  5
1AC
330
186
100
AcDbEntity
  8
P-SANR-FIXT
100
AcDbCircle
 10
1014.614353943097
 20
1999.982558850011
 30
0.0
 40
12.99999999998445
100
AcDbArc
 50
359.9999999999973
 51
54.89528414906029
  0
ARC
  5
1AD
330
186
100
AcDbEntity
  8
P-SANR-FIXT
100
AcDbCircle
 10
1014.614353943097
 20
1999.982558850011
 30
0.0
 40
12.99999999998473
100
AcDbArc
 50
54.99999999999842
 51
59.99999999999828
  0
ARC
  5
1AE
330
186
100
AcDbEntity
  8
P-SANR-FIXT
100
AcDbCircle
 10
1014.614353943097
 20
1999.982558850011
 30
0.0
 40
12.99999999998473
100
AcDbArc
 50
59.99999999999811
 51
89.9999999999995
  0
ARC
  5
1AF
330
186
100
AcDbEntity
  8
P-SANR-FIXT
100
AcDbCircle
 10
1014.614353943097
 20
1999.982558850011
 30
0.0
 40
12.99999999998485
100
AcDbArc
 50
90.00000000000124
 51
119.9999999999998
  0
ARC
  5
1B0
330
186
100
AcDbEntity
  8
P-SANR-FIXT
100
AcDbCircle
 10
1014.614353943097
 20
1999.982558850011
 30
0.0
 40
12.99999999998474
100
AcDbArc
 50
119.9999999999991
 51
124.9999999999993
  0
ARC
  5
1B1
330
186
100
AcDbEntity
  8
P-SANR-FIXT
100
AcDbCircle
 10
1014.614353943097
 20
1999.982558850011
 30
0.0
 40
12.99999999998477
100
AcDbArc
 50
125.1047158488377
 51
179.999999999999
  0
ARC
  5
1B2
330
186
100
AcDbEntity
  8
P-SANR-FIXT
100
AcDbCircle
 10
1014.614353943097
 20
1999.982558850011
 30
0.0
 40
12.99999999998482
100
AcDbArc
 50
179.9999999999987
 51
234.8952841513675
  0
ARC
  5
1B3
330
186
100
AcDbEntity
  8
P-SANR-FIXT
100
AcDbCircle
 10
1014.614353943097
 20
1999.982558850011
 30
0.0
 40
12.99999999998466
100
AcDbArc
 50
234.9999999999987
 51
239.999999999998
  0
ARC
  5
1B4
330
186
100
AcDbEntity
  8
P-SANR-FIXT
100
AcDbCircle
 10
1014.614353943097
 20
1999.982558850011
 30
0.0
 40
12.99999999998457
100
AcDbArc
 50
239.999999999998
 51
269.9999999999997
  0
ARC
  5
1B5
330
186
100
AcDbEntity
  8
P-SANR-FIXT
100
AcDbCircle
 10
1014.614353943097
 20
1999.982558850011
 30
0.0
 40
6.349999999999909
100
AcDbArc
 50
269.9999999999997
 51
90.0
  0
ARC
  5
1B6
330
186
100
AcDbEntity
  8
P-SANR-FIXT
100
AcDbCircle
 10
1014.614353943097
 20
1999.982558850011
 30
0.0
 40
6.349999999999909
100
AcDbArc
 50
90.00000000000104
 51
269.9999999999997
  0
SPLINE
  5
1B7
330
186
100
AcDbEntity
  8
P-SANR-FIXT
100
AcDbSpline
210
0.0
220
0.0
230
1.0
 70
    24
 71
     3
 72
     9
 73
     5
 74
     0
 42
0.000000001
 43
0.0000000001
 40
0.0
 40
0.0
 40
0.0
 40
0.0
 40
0.5
 40
0.8320537489419699
 40
0.8320537489419699
 40
0.8320537489419699
 40
0.8320537489419699
 10
1002.552205077712
 20
2008.029580954513
 30
0.0
 10
1003.463934165774
 20
2008.555967988934
 30
0.0
 10
1004.993876240785
 20
2009.439280457786
 30
0.0
 10
1006.544997184816
 20
2010.334820552368
 30
0.0
 10
1007.167387319223
 20
2010.694157664009
 30
0.0
  0
SPLINE
  5
1B8
330
186
100
AcDbEntity
  8
P-SANR-FIXT
100
AcDbSpline
210
0.0
220
0.0
230
1.0
 70
    24
 71
     3
 72
     8
 73
     4
 74
     0
 42
0.000000001
 43
0.0000000001
 40
0.9895529185985855
 40
0.9895529185985855
 40
0.9895529185985855
 40
0.9895529185985855
 40
1.0
 40
1.0
 40
1.0
 40
1.0
 10
1008.055296963551
 20
2011.206792536178
 30
0.0
 10
1008.074979284602
 20
2011.218156129535
 30
0.0
 10
1008.09466494445
 20
2011.229521650546
 30
0.0
 10
1008.114353943094
 20
2011.240889099214
 30
0.0
  0
SPLINE
  5
1B9
330
186
100
AcDbEntity
  8
P-SANR-FIXT
100
AcDbSpline
210
0.0
220
0.0
230
1.0
 70
    24
 71
     3
 72
     8
 73
     4
 74
     0
 42
0.000000001
 43
0.0000000001
 40
0.0
 40
0.0
 40
0.0
 40
0.0
 40
0.176632268236235
 40
0.176632268236235
 40
0.176632268236235
 40
0.176632268236235
 10
1008.114353943094
 20
2011.240889099214
 30
0.0
 10
1008.447242369647
 20
2011.433082321895
 30
0.0
 10
1008.779176374966
 20
2011.624724509219
 30
0.0
 10
1009.110155959051
 20
2011.815815661186
 30
0.0
  0
SPLINE
  5
1BA
330
186
100
AcDbEntity
  8
P-SANR-FIXT
100
AcDbSpline
210
0.0
220
0.0
230
1.0
 70
    24
 71
     3
 72
     9
 73
     5
 74
     0
 42
0.000000001
 43
0.0000000001
 40
0.1888283934701943
 40
0.1888283934701943
 40
0.1888283934701943
 40
0.1888283934701943
 40
0.5
 40
1.0
 40
1.0
 40
1.0
 40
1.0
 10
1009.178702857548
 20
2011.855391231486
 30
0.0
 10
1009.761554659792
 20
2012.191900876409
 30
0.0
 10
1011.273228766144
 20
2013.064666328638
 30
0.0
 10
1012.764773720359
 20
2013.925810209463
 30
0.0
 10
1013.67650280841
 20
2014.452197243877
 30
0.0
  0
ARC
  5
1BB
330
186
100
AcDbEntity
  8
P-SANR-FIXT
100
AcDbCircle
 10
1014.614353943053
 20
1999.982558850011
 30
0.0
 40
14.5
100
AcDbArc
 50
146.2915552748669
 51
153.7084447251321
  0
SPLINE
  5
1BC
330
186
100
AcDbEntity
  8
P-SANR-FIXT
100
AcDbSpline
210
0.0
220
0.0
230
1.0
 70
    24
 71
     3
 72
     9
 73
     5
 74
     0
 42
0.000000001
 43
0.0000000001
 40
0.0
 40
0.0
 40
0.0
 40
0.0
 40
0.5
 40
0.8277107403528168
 40
0.8277107403528168
 40
0.8277107403528168
 40
0.8277107403528168
 10
1001.614353943069
 20
1993.559942560647
 30
0.0
 10
1001.614353943069
 20
1994.612716629483
 30
0.0
 10
1001.614353943069
 20
1996.370120447401
 30
0.0
 10
1001.614353943069
 20
1998.151724888564
 30
0.0
 10
1001.614353943069
 20
1998.860898854021
 30
0.0
  0
SPLINE
  5
1BD
330
186
100
AcDbEntity
  8
P-SANR-FIXT
100
AcDbSpline
210
0.0
220
0.0
230
1.0
 70
    24
 71
     3
 72
     8
 73
     4
 74
     0
 42
0.000000001
 43
0.0000000001
 40
0.9760106428124661
 40
0.9760106428124661
 40
0.9760106428124661
 40
0.9760106428124661
 40
1.0
 40
1.0
 40
1.0
 40
1.0
 10
1001.614353943069
 20
1999.826003202249
 30
0.0
 10
1001.614353943069
 20
1999.878168089611
 30
0.0
 10
1001.614353943069
 20
1999.930353305531
 30
0.0
 10
1001.614353943069
 20
1999.982558850011
 30
0.0
  0
SPLINE
  5
1BE
330
186
100
AcDbEntity
  8
P-SANR-FIXT
100
AcDbSpline
210
0.0
220
0.0
230
1.0
 70
    24
 71
     3
 72
     9
 73
     5
 74
     0
 42
0.000000001
 43
0.0000000001
 40
0.1722892596471665
 40
0.1722892596471665
 40
0.1722892596471665
 40
0.1722892596471665
 40
0.5
 40
1.0
 40
1.0
 40
1.0
 40
1.0
 10
1001.614353943069
 20
2001.104218846001
 30
0.0
 10
1001.614353943069
 20
2001.813392811458
 30
0.0
 10
1001.614353943069
 20
2003.594997252621
 30
0.0
 10
1001.614353943069
 20
2005.352401070539
 30
0.0
 10
1001.614353943069
 20
2006.405175139375
 30
0.0
  0
ARC
  5
1BF
330
186
100
AcDbEntity
  8
P-SANR-FIXT
100
AcDbCircle
 10
1014.614353943053
 20
1999.982558850011
 30
0.0
 40
14.50000000000011
100
AcDbArc
 50
206.2915552748658
 51
213.7084447251298
  0
SPLINE
  5
1C0
330
186
100
AcDbEntity
  8
P-SANR-FIXT
100
AcDbSpline
210
0.0
220
0.0
230
1.0
 70
    24
 71
     3
 72
     9
 73
     5
 74
     0
 42
0.000000001
 43
0.0000000001
 40
0.0
 40
0.0
 40
0.0
 40
0.0
 40
0.5
 40
0.8233677317637649
 40
0.8233677317637649
 40
0.8233677317637649
 40
0.8233677317637649
 10
1013.67650280841
 20
1985.512920456145
 30
0.0
 10
1012.764773720358
 20
1986.039307490559
 30
0.0
 10
1011.250803093318
 20
1986.913398839626
 30
0.0
 10
1009.716093472249
 20
1987.799463852478
 30
0.0
 10
1009.110155959051
 20
1988.149302038835
 30
0.0
  0
SPLINE
  5
1C1
330
186
100
AcDbEntity
  8
P-SANR-FIXT
100
AcDbSpline
210
0.0
220
0.0
230
1.0
 70
    24
 71
     3
 72
     8
 73
     4
 74
     0
 42
0.000000001
 43
0.0000000001
 40
0.0
 40
0.0
 40
0.0
 40
0.0
 40
0.0104470814013835
 40
0.0104470814013835
 40
0.0104470814013835
 40
0.0104470814013835
 10
1008.114353943094
 20
1988.724228600807
 30
0.0
 10
1008.094664944449
 20
1988.735596049474
 30
0.0
 10
1008.074979284602
 20
1988.746961570487
 30
0.0
 10
1008.055296963551
 20
1988.758325163844
 30
0.0
  0
SPLINE
  5
1C2
330
186
100
AcDbEntity
  8
P-SANR-FIXT
100
AcDbSpline
210
0.0
220
0.0
230
1.0
 70
    24
 71
     3
 72
     9
 73
     5
 74
     0
 42
0.000000001
 43
0.0000000001
 40
0.1679462510580101
 40
0.1679462510580101
 40
0.1679462510580101
 40
0.1679462510580101
 40
0.5
 40
1.0
 40
1.0
 40
1.0
 40
1.0
 10
1007.167387319223
 20
1989.270960036012
 30
0.0
 10
1006.544997184816
 20
1989.630297147654
 30
0.0
 10
1004.993876240785
 20
1990.525837242236
 30
0.0
 10
1003.463934165774
 20
1991.409149711088
 30
0.0
 10
1002.552205077712
 20
1991.935536745508
 30
0.0
  0
ARC
  5
1C3
330
186
100
AcDbEntity
  8
P-SANR-FIXT
100
AcDbCircle
 10
1014.614353943053
 20
1999.982558850011
 30
0.0
 40
14.5000000000001
100
AcDbArc
 50
270.0000000001726
 51
273.7084447251301
  0
ARC
  5
1C4
330
186
100
AcDbEntity
  8
P-SANR-FIXT
100
AcDbCircle
 10
1014.614353943053
 20
1999.982558850011
 30
0.0
 40
14.50000000000011
100
AcDbArc
 50
266.2915552748651
 51
270.0000000001722
  0
SPLINE
  5
1C5
330
186
100
AcDbEntity
  8
P-SANR-FIXT
100
AcDbSpline
210
0.0
220
0.0
230
1.0
 70
    24
 71
     3
 72
     9
 73
     5
 74
     0
 42
0.000000001
 43
0.0000000001
 40
0.0
 40
0.0
 40
0.0
 40
0.0
 40
0.5
 40
0.8320537489365465
 40
0.8320537489365465
 40
0.8320537489365465
 40
0.8320537489365465
 10
1026.676502808394
 20
1991.935536745508
 30
0.0
 10
1025.764773720343
 20
1991.409149711094
 30
0.0
 10
1024.234831645361
 20
1990.525837242258
 30
0.0
 10
1022.683710701358
 20
1989.630297147693
 30
0.0
 10
1022.061320566968
 20
1989.270960036062
 30
0.0
  0
SPLINE
  5
1C6
330
186
100
AcDbEntity
  8
P-SANR-FIXT
100
AcDbSpline
210
0.0
220
0.0
230
1.0
 70
    24
 71
     3
 72
     8
 73
     4
 74
     0
 42
0.000000001
 43
0.0000000001
 40
0.0
 40
0.0
 40
0.0
 40
0.0
 40
0.0584827081651456
 40
0.0584827081651456
 40
0.0584827081651456
 40
0.0584827081651456
 10
1021.114353943078
 20
1988.724228600845
 30
0.0
 10
1021.004135029534
 20
1988.66059368144
 30
0.0
 10
1020.894020745682
 20
1988.597019170017
 30
0.0
 10
1020.784011091524
 20
1988.533505066575
 30
0.0
  0
SPLINE
  5
1C7
330
186
100
AcDbEntity
  8
P-SANR-FIXT
100
AcDbSpline
210
0.0
220
0.0
230
1.0
 70
    24
 71
     3
 72
     9
 73
     5
 74
     0
 42
0.000000001
 43
0.0000000001
 40
0.1766322682303441
 40
0.1766322682303441
 40
0.1766322682303441
 40
0.1766322682303441
 40
0.5
 40
1.0
 40
1.0
 40
1.0
 40
1.0
 10
1020.118551927142
 20
1988.149302038885
 30
0.0
 10
1019.512614413924
 20
1987.799463852516
 30
0.0
 10
1017.977904792826
 20
1986.913398839648
 30
0.0
 10
1016.463934165758
 20
1986.039307490565
 30
0.0
 10
1015.552205077696
 20
1985.512920456145
 30
0.0
  0
ARC
  5
1C8
330
186
100
AcDbEntity
  8
P-SANR-FIXT
100
AcDbCircle
 10
1014.614353943053
 20
1999.982558850011
 30
0.0
 40
14.49999999999995
100
AcDbArc
 50
326.2915552748655
 51
333.7084447251298
  0
SPLINE
  5
1C9
330
186
100
AcDbEntity
  8
P-SANR-FIXT
100
AcDbSpline
210
0.0
220
0.0
230
1.0
 70
    24
 71
     3
 72
     9
 73
     5
 74
     0
 42
0.000000001
 43
0.0000000001
 40
0.0
 40
0.0
 40
0.0
 40
0.0
 40
0.5
 40
0.8277107403531614
 40
0.8277107403531614
 40
0.8277107403531614
 40
0.8277107403531614
 10
1027.614353943038
 20
2006.405175139374
 30
0.0
 10
1027.614353943038
 20
2005.35240107054
 30
0.0
 10
1027.614353943038
 20
2003.594997252622
 30
0.0
 10
1027.614353943038
 20
2001.813392811457
 30
0.0
 10
1027.614353943038
 20
2001.104218846
 30
0.0
  0
SPLINE
  5
1CA
330
186
100
AcDbEntity
  8
P-SANR-FIXT
100
AcDbSpline
210
0.0
220
0.0
230
1.0
 70
    24
 71
     3
 72
     8
 73
     4
 74
     0
 42
0.000000001
 43
0.0000000001
 40
0.0
 40
0.0
 40
0.0
 40
0.0
 40
0.0239893571874299
 40
0.0239893571874299
 40
0.0239893571874299
 40
0.0239893571874299
 10
1027.614353943038
 20
1999.98255885001
 30
0.0
 10
1027.614353943038
 20
1999.930353305531
 30
0.0
 10
1027.614353943038
 20
1999.878168089611
 30
0.0
 10
1027.614353943038
 20
1999.826003202249
 30
0.0
  0
SPLINE
  5
1CB
330
186
100
AcDbEntity
  8
P-SANR-FIXT
100
AcDbSpline
210
0.0
220
0.0
230
1.0
 70
    24
 71
     3
 72
     9
 73
     5
 74
     0
 42
0.000000001
 43
0.0000000001
 40
0.1722892596468687
 40
0.1722892596468687
 40
0.1722892596468687
 40
0.1722892596468687
 40
0.5
 40
1.0
 40
1.0
 40
1.0
 40
1.0
 10
1027.614353943038
 20
1998.860898854021
 30
0.0
 10
1027.614353943038
 20
1998.151724888563
 30
0.0
 10
1027.614353943038
 20
1996.370120447399
 30
0.0
 10
1027.614353943038
 20
1994.612716629481
 30
0.0
 10
1027.614353943038
 20
1993.559942560646
 30
0.0
  0
ARC
  5
1CC
330
186
100
AcDbEntity
  8
P-SANR-FIXT
100
AcDbCircle
 10
1014.614353943053
 20
1999.982558850011
 30
0.0
 40
14.49999999999999
100
AcDbArc
 50
26.291555274867
 51
33.70844472513097
  0
SPLINE
  5
1CD
330
186
100
AcDbEntity
  8
P-SANR-FIXT
100
AcDbSpline
210
0.0
220
0.0
230
1.0
 70
    24
 71
     3
 72
     9
 73
     5
 74
     0
 42
0.000000001
 43
0.0000000001
 40
0.0
 40
0.0
 40
0.0
 40
0.0
 40
0.5
 40
1.0
 40
1.0
 40
1.0
 40
1.0
 10
1015.552205077697
 20
2014.452197243877
 30
0.0
 10
1016.463934165758
 20
2013.925810209457
 30
0.0
 10
1018.302688064717
 20
2012.86420515092
 30
0.0
 10
1020.172033409346
 20
2011.784938112989
 30
0.0
 10
1021.114353943079
 20
2011.240889099176
 30
0.0
  0
SPLINE
  5
1CE
330
186
100
AcDbEntity
  8
P-SANR-FIXT
100
AcDbSpline
210
0.0
220
0.0
230
1.0
 70
    24
 71
     3
 72
     9
 73
     5
 74
     0
 42
0.000000001
 43
0.0000000001
 40
0.1679462510634535
 40
0.1679462510634535
 40
0.1679462510634535
 40
0.1679462510634535
 40
0.5
 40
1.0
 40
1.0
 40
1.0
 40
1.0
 10
1022.061320566969
 20
2010.694157663959
 30
0.0
 10
1022.683710701358
 20
2010.334820552328
 30
0.0
 10
1024.234831645361
 20
2009.439280457763
 30
0.0
 10
1025.764773720344
 20
2008.555967988927
 30
0.0
 10
1026.676502808395
 20
2008.029580954513
 30
0.0
  0
ARC
  5
1CF
330
186
100
AcDbEntity
  8
P-SANR-FIXT
100
AcDbCircle
 10
1014.614353943053
 20
1999.982558850011
 30
0.0
 40
14.49999999999988
100
AcDbArc
 50
86.29155527486725
 51
89.99999999982749
  0
ARC
  5
1D0
330
186
100
AcDbEntity
  8
P-SANR-FIXT
100
AcDbCircle
 10
1014.614353943053
 20
1999.982558850011
 30
0.0
 40
14.4999999999999
100
AcDbArc
 50
89.99999999982749
 51
93.70844472513235
  0
LWPOLYLINE
  5
1D1
330
186
100
AcDbEntity
  8
P-SANR-FIXT
100
AcDbPolyline
 90
        3
 70
   128
 43
0.0
 10
1015.552205077697
 20
2014.452197243877
 10
1021.965720125486
 20
2012.445618285863
 10
1026.676502808395
 20
2008.029580954513
  0
LWPOLYLINE
  5
1D2
330
186
100
AcDbEntity
  8
P-SANR-FIXT
100
AcDbPolyline
 90
        3
 70
   128
 43
0.0
 10
1027.614353943038
 20
2006.405175139374
 10
1029.083981936124
 20
1999.999907987989
 10
1027.614353943038
 20
1993.559942560646
  0
LWPOLYLINE
  5
1D3
330
186
100
AcDbEntity
  8
P-SANR-FIXT
100
AcDbPolyline
 90
        3
 70
   128
 43
0.0
 10
1026.676502808395
 20
1991.935536745508
 10
1021.979355466489
 20
1987.527552314098
 10
1015.552205077696
 20
1985.512920456145
  0
LWPOLYLINE
  5
1D4
330
186
100
AcDbEntity
  8
P-SANR-FIXT
100
AcDbPolyline
 90
        3
 70
   128
 43
0.0
 10
1013.67650280841
 20
1985.512920456145
 10
1007.262987760652
 20
1987.519499414191
 10
1002.552205077712
 20
1991.935536745508
  0
LWPOLYLINE
  5
1D5
330
186
100
AcDbEntity
  8
P-SANR-FIXT
100
AcDbPolyline
 90
        3
 70
   128
 43
0.0
 10
1001.614353943069
 20
1993.559942560647
 10
1000.144725950071
 20
1999.965209712035
 10
1001.614353943069
 20
2006.405175139375
  0
LWPOLYLINE
  5
1D6
330
186
100
AcDbEntity
  8
P-SANR-FIXT
100
AcDbPolyline
 90
        3
 70
   128
 43
0.0
 10
1002.552205077712
 20
2008.029580954513
 10
1007.24935241965
 20
2012.437565385889
 10
1013.67650280841
 20
2014.452197243877
  0
ARC
  5
1D7
330
186
100
AcDbEntity
  8
P-SANR-FIXT
100
AcDbCircle
 10
1014.614353943097
 20
1999.982558850011
 30
0.0
 40
15.74999999999761
100
AcDbArc
 50
269.9999999999997
 51
89.99999999999959
  0
ARC
  5
1D8
330
186
100
AcDbEntity
  8
P-SANR-FIXT
100
AcDbCircle
 10
1014.614353943097
 20
1999.982558850011
 30
0.0
 40
15.74999999999761
100
AcDbArc
 50
90.0
 51
269.9999999999997
  0
ARC
  5
1D9
330
186
100
AcDbEntity
  8
P-SANR-FIXT
100
AcDbCircle
 10
1014.614353943097
 20
1999.982558850011
 30
0.0
 40
17.39999999999997
100
AcDbArc
 50
269.9999999999997
 51
90.0
  0
ARC
  5
1DA
330
186
100
AcDbEntity
  8
P-SANR-FIXT
100
AcDbCircle
 10
1014.614353943097
 20
1999.982558850011
 30
0.0
 40
17.39999999999997
100
AcDbArc
 50
90.0
 51
269.9999999999993
  0
ARC
  5
1DB
330
186
100
AcDbEntity
  8
P-SANR-FIXT
100
AcDbCircle
 10
1014.614353943097
 20
1999.982558850011
 30
0.0
 40
16.34376119391629
100
AcDbArc
 50
270.0000000000001
 51
90.0
  0
ARC
  5
1DC
330
186
100
AcDbEntity
  8
P-SANR-FIXT
100
AcDbCircle
 10
1014.614353943097
 20
1999.982558850011
 30
0.0
 40
16.34376119391641
100
AcDbArc
 50
90.0
 51
269.9999999999997
  0
LINE
  5
1DD
330
186
100
AcDbEntity
  8
P-SANR-FIXT
100
AcDbLine
 10
1024.864353943099
 20
2012.587655161326
 30
0.0
 11
1024.864353943099
 21
2012.704248010349
 31
0.0
  0
LINE
  5
1DE
330
186
100
AcDbEntity
  8
P-SANR-FIXT
100
AcDbLine
 10
1024.864353943099
 20
2014.017690027307
 30
0.0
 11
1024.864353943099
 21
2023.349611904379
 31
0.0
  0
LINE
  5
1DF
330
186
100
AcDbEntity
  8
P-SANR-FIXT
100
AcDbLine
 10
1004.364353943099
 20
2027.732558850011
 30
0.0
 11
1004.364353943099
 21
2014.017690027307
 31
0.0
  0
LINE
  5
1E0
330
186
100
AcDbEntity
  8
P-SANR-FIXT
100
AcDbLine
 10
1004.364353943099
 20
2012.704248010349
 30
0.0
 11
1004.364353943099
 21
2012.587655161326
 31
0.0
  0
LINE
  5
1E1
330
186
100
AcDbEntity
  8
P-SANR-FIXT
100
AcDbLine
 10
1004.864353943099
 20
2028.232558850012
 30
0.0
 11
1004.413726695908
 21
2027.781931602821
 31
0.0
  0
LINE
  5
1E2
330
186
100
AcDbEntity
  8
P-SANR-FIXT
100
AcDbLine
 10
1004.398158608028
 20
2027.766363514941
 30
0.0
 11
1004.364353943099
 21
2027.732558850011
 31
0.0
  0
LINE
  5
1E3
330
186
100
AcDbEntity
  8
P-SANR-FIXT
100
AcDbLine
 10
1020.39700294527
 20
2045.84961190438
 30
0.0
 11
1020.39700294527
 21
2048.982558850012
 31
0.0
  0
LINE
  5
1E4
330
186
100
AcDbEntity
  8
P-SANR-FIXT
100
AcDbLine
 10
1008.831704940928
 20
2048.982558850012
 30
0.0
 11
1008.831704940928
 21
2045.84961190438
 31
0.0
  0
LINE
  5
1E5
330
186
100
AcDbEntity
  8
P-SANR-FIXT
100
AcDbLine
 10
1008.831704940928
 20
2029.849611904362
 30
0.0
 11
1008.831704940928
 21
2028.232558850012
 31
0.0
  0
LINE
  5
1E6
330
186
100
AcDbEntity
  8
P-SANR-FIXT
100
AcDbLine
 10
1020.39700294527
 20
2048.982558850012
 30
0.0
 11
1019.39700294527
 21
2049.982558850012
 31
0.0
  0
LINE
  5
1E7
330
186
100
AcDbEntity
  8
P-SANR-FIXT
100
AcDbLine
 10
1009.831704940928
 20
2049.982558850012
 30
0.0
 11
1008.831704940928
 21
2048.982558850012
 31
0.0
  0
LINE
  5
1E8
330
186
100
AcDbEntity
  8
P-SANR-FIXT
100
AcDbLine
 10
1004.86611269714
 20
2028.232558850011
 30
0.0
 11
1014.614353943097
 21
2028.232558850011
 31
0.0
  0
LINE
  5
1E9
330
186
100
AcDbEntity
  8
P-SANR-FIXT
100
AcDbLine
 10
1014.614353943097
 20
2028.232558850011
 30
0.0
 11
1016.616302488806
 21
2028.232558850011
 31
0.0
  0
ARC
  5
1EA
330
186
100
AcDbEntity
  8
P-SANR-FIXT
100
AcDbCircle
 10
1014.614353943097
 20
1999.982558850011
 30
0.0
 40
16.24999999999988
100
AcDbArc
 50
269.9999999999997
 51
89.9999999999996
  0
SPLINE
  5
1EB
330
186
100
AcDbEntity
  8
P-SANR-FIXT
100
AcDbSpline
210
0.0
220
0.0
230
1.0
 70
     8
 71
     3
 72
     8
 73
     4
 74
     0
 42
0.000000001
 43
0.0000000001
 40
0.2
 40
0.2
 40
0.2
 40
0.2
 40
0.3
 40
0.3
 40
0.3
 40
0.3
 10
1022.412859341377
 20
2014.239203610755
 30
0.0
 10
1022.181311495011
 20
2014.365886967568
 30
0.0
 10
1021.935901929801
 20
2014.492766226773
 30
0.0
 10
1021.676715791569
 20
2014.61778969525
 30
0.0
  0
SPLINE
  5
1EC
330
186
100
AcDbEntity
  8
P-SANR-FIXT
100
AcDbSpline
210
0.0
220
0.0
230
1.0
 70
     8
 71
     3
 72
     8
 73
     4
 74
     0
 42
0.000000001
 43
0.0000000001
 40
0.4
 40
0.4
 40
0.4
 40
0.4
 40
0.4027789982963722
 40
0.4027789982963722
 40
0.4027789982963722
 40
0.4027789982963722
 10
1020.857912803622
 20
2014.985241035379
 30
0.0
 10
1020.849945407319
 20
2014.988554021084
 30
0.0
 10
1020.841967463116
 20
2014.991864027565
 30
0.0
 10
1020.8339790208
 20
2014.995170992966
 30
0.0
  0
SPLINE
  5
1ED
330
186
100
AcDbEntity
  8
P-SANR-FIXT
100
AcDbSpline
210
0.0
220
0.0
230
1.0
 70
     8
 71
     3
 72
     9
 73
     5
 74
     0
 42
0.000000001
 43
0.0000000001
 40
0.5
 40
0.5
 40
0.5
 40
0.5
 40
0.55
 40
0.6
 40
0.6
 40
0.6
 40
0.6
 10
1019.959078083049
 20
2015.32833623761
 30
0.0
 10
1019.803229809022
 20
2015.382645021839
 30
0.0
 10
1019.485941327654
 20
2015.488004425294
 30
0.0
 10
1019.158484025751
 20
2015.585115410565
 30
0.0
 10
1018.991986351044
 20
2015.631690720221
 30
0.0
  0
SPLINE
  5
1EE
330
186
100
AcDbEntity
  8
P-SANR-FIXT
100
AcDbSpline
210
0.0
220
0.0
230
1.0
 70
     8
 71
     3
 72
     8
 73
     4
 74
     0
 42
0.000000001
 43
0.0000000001
 40
0.7
 40
0.7
 40
0.7
 40
0.7
 40
0.7161607410944056
 40
0.7161607410944056
 40
0.7161607410944056
 40
0.7161607410944056
 10
1017.959421018943
 20
2015.884540684301
 30
0.0
 10
1017.902163504376
 20
2015.896584708146
 30
0.0
 10
1017.844632411367
 20
2015.908238174643
 30
0.0
 10
1017.786883967477
 20
2015.919566004153
 30
0.0
  0
SPLINE
  5
1EF
330
186
100
AcDbEntity
  8
P-SANR-FIXT
100
AcDbSpline
210
0.0
220
0.0
230
1.0
 70
     8
 71
     3
 72
     9
 73
     5
 74
     0
 42
0.000000001
 43
0.0000000001
 40
0.8
 40
0.8
 40
0.8
 40
0.8
 40
0.85
 40
0.9
 40
0.9
 40
0.9
 40
0.9
 10
1016.876451952806
 20
2016.07435665913
 30
0.0
 10
1016.693388972853
 20
2016.100097147072
 30
0.0
 10
1016.326102553752
 20
2016.148855420191
 30
0.0
 10
1015.947837428156
 20
2016.171957801164
 30
0.0
 10
1015.757537718748
 20
2016.180858285396
 30
0.0
  0
ARC
  5
1F0
330
186
100
AcDbEntity
  8
P-SANR-FIXT
100
AcDbCircle
 10
1014.614353943097
 20
1999.982558850011
 30
0.0
 40
16.25
100
AcDbArc
 50
90.0
 51
269.9999999999997
  0
SPLINE
  5
1F1
330
186
100
AcDbEntity
  8
P-SANR-FIXT
100
AcDbSpline
210
0.0
220
0.0
230
1.0
 70
     8
 71
     3
 72
     8
 73
     4
 74
     0
 42
0.000000001
 43
0.0000000001
 40
0.1
 40
0.1
 40
0.1
 40
0.1
 40
0.2
 40
0.2
 40
0.2
 40
0.2
 10
1013.467957181329
 20
2016.192218568612
 30
0.0
 10
1013.090894705219
 20
2016.165586204129
 30
0.0
 10
1012.717172287594
 20
2016.126638371096
 30
0.0
 10
1012.352197957131
 20
2016.074331601798
 30
0.0
  0
SPLINE
  5
1F2
330
186
100
AcDbEntity
  8
P-SANR-FIXT
100
AcDbSpline
210
0.0
220
0.0
230
1.0
 70
     8
 71
     3
 72
     8
 73
     4
 74
     0
 42
0.000000001
 43
0.0000000001
 40
0.2838392589055945
 40
0.2838392589055945
 40
0.2838392589055945
 40
0.2838392589055945
 40
0.3
 40
0.3
 40
0.3
 40
0.3
 10
1011.442446203423
 20
2015.91968941435
 30
0.0
 10
1011.384912995396
 20
2015.908235276154
 30
0.0
 10
1011.327722229334
 20
2015.896465702907
 30
0.0
 10
1011.270825635438
 20
2015.884402419661
 30
0.0
  0
SPLINE
  5
1F3
330
186
100
AcDbEntity
  8
P-SANR-FIXT
100
AcDbSpline
210
0.0
220
0.0
230
1.0
 70
     8
 71
     3
 72
     8
 73
     4
 74
     0
 42
0.000000001
 43
0.0000000001
 40
0.4
 40
0.4
 40
0.4
 40
0.4
 40
0.5
 40
0.5
 40
0.5
 40
0.5
 10
1010.23697990347
 20
2015.631875017728
 30
0.0
 10
1009.902420549896
 20
2015.538324262698
 30
0.0
 10
1009.567426704911
 20
2015.436713386467
 30
0.0
 10
1009.244413503786
 20
2015.328675840382
 30
0.0
  0
SPLINE
  5
1F4
330
186
100
AcDbEntity
  8
P-SANR-FIXT
100
AcDbSpline
210
0.0
220
0.0
230
1.0
 70
     8
 71
     3
 72
     8
 73
     4
 74
     0
 42
0.000000001
 43
0.0000000001
 40
0.5972210017036285
 40
0.5972210017036285
 40
0.5972210017036285
 40
0.5972210017036285
 40
0.6
 40
0.6
 40
0.6
 40
0.6
 10
1008.392895704818
 20
2014.993948123141
 30
0.0
 10
1008.384909884568
 20
2014.990640294736
 30
0.0
 10
1008.376923539465
 20
2014.987329102588
 30
0.0
 10
1008.368937553678
 20
2014.984014611241
 30
0.0
  0
SPLINE
  5
1F5
330
186
100
AcDbEntity
  8
P-SANR-FIXT
100
AcDbSpline
210
0.0
220
0.0
230
1.0
 70
     8
 71
     3
 72
     8
 73
     4
 74
     0
 42
0.000000001
 43
0.0000000001
 40
0.7
 40
0.7
 40
0.7
 40
0.7
 40
0.8
 40
0.8
 40
0.8
 40
0.8
 10
1007.549423105553
 20
2014.616398136429
 30
0.0
 10
1007.29006485956
 20
2014.491363865181
 30
0.0
 10
1007.063292492197
 20
2014.36762214784
 30
0.0
 10
1006.850513846837
 20
2014.24415151306
 30
0.0
  0
LINE
  5
1F6
330
186
100
AcDbEntity
  8
P-SANR-FIXT
100
AcDbLine
 10
1016.617811007588
 20
2027.732558850011
 30
0.0
 11
1014.614353943097
 21
2027.732558850011
 31
0.0
  0
ARC
  5
1F7
330
186
100
AcDbEntity
  8
P-SANR-FIXT
100
AcDbCircle
 10
1014.614353943097
 20
1999.982558850011
 30
0.0
 40
16.24999999999987
100
AcDbArc
 50
275.6265741662075
 51
276.0949321652141
  0
ARC
  5
1F8
330
186
100
AcDbEntity
  8
P-SANR-FIXT
100
AcDbCircle
 10
1014.614353943097
 20
1999.982558850011
 30
0.0
 40
16.25000000000002
100
AcDbArc
 50
281.2573238440684
 51
282.1898643304283
  0
ARC
  5
1F9
330
186
100
AcDbEntity
  8
P-SANR-FIXT
100
AcDbCircle
 10
1014.614353943097
 20
1999.982558850011
 30
0.0
 40
16.2500000000001
100
AcDbArc
 50
286.8912528117103
 51
288.284796495643
  0
ARC
  5
1FA
330
186
100
AcDbEntity
  8
P-SANR-FIXT
100
AcDbCircle
 10
1014.614353943097
 20
1999.982558850011
 30
0.0
 40
16.25000000000007
100
AcDbArc
 50
292.5274787140778
 51
294.3797286608571
  0
ARC
  5
1FB
330
186
100
AcDbEntity
  8
P-SANR-FIXT
100
AcDbCircle
 10
1014.614353943097
 20
1999.982558850011
 30
0.0
 40
16.24999999999996
100
AcDbArc
 50
298.1651740371579
 51
300.4746608260718
  0
ARC
  5
1FC
330
186
100
AcDbEntity
  8
P-SANR-FIXT
100
AcDbCircle
 10
1014.614353943097
 20
1999.982558850011
 30
0.0
 40
16.2499999999999
100
AcDbArc
 50
303.8035066183133
 51
309.4415656587961
  0
ARC
  5
1FD
330
186
100
AcDbEntity
  8
P-SANR-FIXT
100
AcDbCircle
 10
1014.614353943097
 20
1999.982558850011
 30
0.0
 40
16.2500000000001
100
AcDbArc
 50
312.6645251565006
 51
314.9249258695073
  0
ARC
  5
1FE
330
186
100
AcDbEntity
  8
P-SANR-FIXT
100
AcDbCircle
 10
1014.614353943097
 20
1999.982558850011
 30
0.0
 40
16.24999999999984
100
AcDbArc
 50
318.7594573217152
 51
320.5336080528311
  0
ARC
  5
1FF
330
186
100
AcDbEntity
  8
P-SANR-FIXT
100
AcDbCircle
 10
1014.614353943097
 20
1999.982558850011
 30
0.0
 40
16.25000000000002
100
AcDbArc
 50
324.8543894869297
 51
326.2135442152128
  0
ARC
  5
200
330
186
100
AcDbEntity
  8
P-SANR-FIXT
100
AcDbCircle
 10
1014.614353943097
 20
1999.982558850011
 30
0.0
 40
16.24999999999996
100
AcDbArc
 50
330.9493216521442
 51
331.8541125009485
  0
ARC
  5
201
330
186
100
AcDbEntity
  8
P-SANR-FIXT
100
AcDbCircle
 10
1014.614353943097
 20
1999.982558850011
 30
0.0
 40
16.25000000000007
100
AcDbArc
 50
337.0442538173585
 51
337.4915388068865
  0
ARC
  5
202
330
186
100
AcDbEntity
  8
P-SANR-FIXT
100
AcDbCircle
 10
1014.614353943097
 20
1999.982558850011
 30
0.0
 40
16.24999999999988
100
AcDbArc
 50
348.7445250220449
 51
349.2341181477875
  0
ARC
  5
203
330
186
100
AcDbEntity
  8
P-SANR-FIXT
100
AcDbCircle
 10
1014.614353943097
 20
1999.982558850011
 30
0.0
 40
16.24999999999988
100
AcDbArc
 50
354.3697197283117
 51
355.3290503130022
  0
ARC
  5
204
330
186
100
AcDbEntity
  8
P-SANR-FIXT
100
AcDbCircle
 10
1014.614353943097
 20
1999.982558850011
 30
0.0
 40
16.24999999999983
100
AcDbArc
 50
359.9989029848024
 51
1.423982478217312
  0
ARC
  5
205
330
186
100
AcDbEntity
  8
P-SANR-FIXT
100
AcDbCircle
 10
1014.614353943097
 20
1999.982558850011
 30
0.0
 40
16.25000000000006
100
AcDbArc
 50
5.630896845754613
 51
7.518914643431681
  0
ARC
  5
206
330
186
100
AcDbEntity
  8
P-SANR-FIXT
100
AcDbCircle
 10
1014.614353943097
 20
1999.982558850011
 30
0.0
 40
16.24999999999991
100
AcDbArc
 50
11.26466657631657
 51
13.61384680864569
  0
ARC
  5
207
330
186
100
AcDbEntity
  8
P-SANR-FIXT
100
AcDbCircle
 10
1014.614353943097
 20
1999.982558850011
 30
0.0
 40
16.24999999999986
100
AcDbArc
 50
16.89924166653932
 51
22.53364283552985
  0
ARC
  5
208
330
186
100
AcDbEntity
  8
P-SANR-FIXT
100
AcDbCircle
 10
1014.614353943097
 20
1999.982558850011
 30
0.0
 40
16.24999999999998
100
AcDbArc
 50
25.76919911993999
 51
28.16680013635683
  0
ARC
  5
209
330
186
100
AcDbEntity
  8
P-SANR-FIXT
100
AcDbCircle
 10
1014.614353943097
 20
1999.982558850011
 30
0.0
 40
16.24999999999991
100
AcDbArc
 50
31.89864330428959
 51
33.79744235956222
  0
ARC
  5
20A
330
186
100
AcDbEntity
  8
P-SANR-FIXT
100
AcDbCircle
 10
1014.614353943097
 20
1999.982558850011
 30
0.0
 40
16.25000000000006
100
AcDbArc
 50
37.99357546950387
 51
39.42392363120999
  0
ARC
  5
20B
330
186
100
AcDbEntity
  8
P-SANR-FIXT
100
AcDbCircle
 10
1014.614353943097
 20
1999.982558850011
 30
0.0
 40
16.24999999999992
100
AcDbArc
 50
44.08850763471851
 51
44.96121740131584
  0
ARC
  5
20C
330
186
100
AcDbEntity
  8
P-SANR-FIXT
100
AcDbCircle
 10
1014.614353943097
 20
1999.982558850011
 30
0.0
 40
16.25000000000011
100
AcDbArc
 50
50.18343979993311
 51
50.6083901648475
  0
ARC
  5
20D
330
186
100
AcDbEntity
  8
P-SANR-FIXT
100
AcDbCircle
 10
1014.614353943097
 20
1999.982558850011
 30
0.0
 40
16.24999999999993
100
AcDbArc
 50
129.3916098351517
 51
129.8165602000666
  0
ARC
  5
20E
330
186
100
AcDbEntity
  8
P-SANR-FIXT
100
AcDbCircle
 10
1014.614353943097
 20
1999.982558850011
 30
0.0
 40
16.25000000000011
100
AcDbArc
 50
135.0387825986844
 51
135.9114923652806
  0
ARC
  5
20F
330
186
100
AcDbEntity
  8
P-SANR-FIXT
100
AcDbCircle
 10
1014.614353943097
 20
1999.982558850011
 30
0.0
 40
16.25000000000004
100
AcDbArc
 50
140.5760763687904
 51
142.0064245304961
  0
ARC
  5
210
330
186
100
AcDbEntity
  8
P-SANR-FIXT
100
AcDbCircle
 10
1014.614353943097
 20
1999.982558850011
 30
0.0
 40
16.24999999999999
100
AcDbArc
 50
146.2025576404376
 51
148.1013566957104
  0
ARC
  5
211
330
186
100
AcDbEntity
  8
P-SANR-FIXT
100
AcDbCircle
 10
1014.614353943097
 20
1999.982558850011
 30
0.0
 40
16.25000000000002
100
AcDbArc
 50
151.8331998636428
 51
154.1962888609251
  0
ARC
  5
212
330
186
100
AcDbEntity
  8
P-SANR-FIXT
100
AcDbCircle
 10
1014.614353943097
 20
1999.982558850011
 30
0.0
 40
16.24999999999996
100
AcDbArc
 50
157.4663571644698
 51
163.1007583334607
  0
ARC
  5
213
330
186
100
AcDbEntity
  8
P-SANR-FIXT
100
AcDbCircle
 10
1014.614353943097
 20
1999.982558850011
 30
0.0
 40
16.24999999999997
100
AcDbArc
 50
166.386153191354
 51
168.7353334236833
  0
ARC
  5
214
330
186
100
AcDbEntity
  8
P-SANR-FIXT
100
AcDbCircle
 10
1014.614353943097
 20
1999.982558850011
 30
0.0
 40
16.24999999999999
100
AcDbArc
 50
172.4810853565684
 51
174.3691031542455
  0
ARC
  5
215
330
186
100
AcDbEntity
  8
P-SANR-FIXT
100
AcDbCircle
 10
1014.614353943097
 20
1999.982558850011
 30
0.0
 40
16.24999999999998
100
AcDbArc
 50
178.5760175217827
 51
180.0010970151968
  0
ARC
  5
216
330
186
100
AcDbEntity
  8
P-SANR-FIXT
100
AcDbCircle
 10
1014.614353943097
 20
1999.982558850011
 30
0.0
 40
16.25000000000005
100
AcDbArc
 50
184.6709496869971
 51
185.6302802716875
  0
ARC
  5
217
330
186
100
AcDbEntity
  8
P-SANR-FIXT
100
AcDbCircle
 10
1014.614353943097
 20
1999.982558850011
 30
0.0
 40
16.24999999999998
100
AcDbArc
 50
190.765881852211
 51
191.2554749779542
  0
ARC
  5
218
330
186
100
AcDbEntity
  8
P-SANR-FIXT
100
AcDbCircle
 10
1014.614353943097
 20
1999.982558850011
 30
0.0
 40
16.24999999999994
100
AcDbArc
 50
202.5084611931112
 51
202.9557461826404
  0
ARC
  5
219
330
186
100
AcDbEntity
  8
P-SANR-FIXT
100
AcDbCircle
 10
1014.614353943097
 20
1999.982558850011
 30
0.0
 40
16.24999999999997
100
AcDbArc
 50
208.1458874990502
 51
209.0506783478547
  0
ARC
  5
21A
330
186
100
AcDbEntity
  8
P-SANR-FIXT
100
AcDbCircle
 10
1014.614353943097
 20
1999.982558850011
 30
0.0
 40
16.25000000000003
100
AcDbArc
 50
213.7864557847861
 51
215.1456105130691
  0
ARC
  5
21B
330
186
100
AcDbEntity
  8
P-SANR-FIXT
100
AcDbCircle
 10
1014.614353943097
 20
1999.982558850011
 30
0.0
 40
16.24999999999993
100
AcDbArc
 50
219.4296538677103
 51
221.2405426782832
  0
ARC
  5
21C
330
186
100
AcDbEntity
  8
P-SANR-FIXT
100
AcDbCircle
 10
1014.614353943097
 20
1999.982558850011
 30
0.0
 40
16.24999999999997
100
AcDbArc
 50
225.0750741304916
 51
227.3354748434983
  0
ARC
  5
21D
330
186
100
AcDbEntity
  8
P-SANR-FIXT
100
AcDbCircle
 10
1014.614353943097
 20
1999.982558850011
 30
0.0
 40
16.25000000000009
100
AcDbArc
 50
230.5584343412025
 51
236.1964933816856
  0
ARC
  5
21E
330
186
100
AcDbEntity
  8
P-SANR-FIXT
100
AcDbCircle
 10
1014.614353943097
 20
1999.982558850011
 30
0.0
 40
16.24999999999998
100
AcDbArc
 50
239.5253391739269
 51
241.83482596284
  0
ARC
  5
21F
330
186
100
AcDbEntity
  8
P-SANR-FIXT
100
AcDbCircle
 10
1014.614353943097
 20
1999.982558850011
 30
0.0
 40
16.25000000000004
100
AcDbArc
 50
245.6202713391415
 51
247.4725212859202
  0
ARC
  5
220
330
186
100
AcDbEntity
  8
P-SANR-FIXT
100
AcDbCircle
 10
1014.614353943097
 20
1999.982558850011
 30
0.0
 40
16.2499999999999
100
AcDbArc
 50
251.7152035043559
 51
253.1087471882884
  0
ARC
  5
221
330
186
100
AcDbEntity
  8
P-SANR-FIXT
100
AcDbCircle
 10
1014.614353943097
 20
1999.982558850011
 30
0.0
 40
16.25000000000014
100
AcDbArc
 50
257.8101356695707
 51
258.7426761559306
  0
ARC
  5
222
330
186
100
AcDbEntity
  8
P-SANR-FIXT
100
AcDbCircle
 10
1014.614353943097
 20
1999.982558850011
 30
0.0
 40
16.25000000000006
100
AcDbArc
 50
263.9050678347847
 51
264.3734258337914
  0
LINE
  5
223
330
186
100
AcDbEntity
  8
P-SANR-FIXT
100
AcDbLine
 10
1014.614353943097
 20
2027.732558850011
 30
0.0
 11
1004.367436658944
 21
2027.732558850011
 31
0.0
  0
LINE
  5
224
330
186
100
AcDbEntity
  8
P-SANR-FIXT
100
AcDbLine
 10
1014.614353943097
 20
2049.982558850011
 30
0.0
 11
1019.397002945268
 21
2049.982558850011
 31
0.0
  0
LINE
  5
225
330
186
100
AcDbEntity
  8
P-SANR-FIXT
100
AcDbLine
 10
1009.831704940926
 20
2049.982558850011
 30
0.0
 11
1014.614353943097
 21
2049.982558850011
 31
0.0
  0
LINE
  5
226
330
186
100
AcDbEntity
  8
P-SANR-FIXT
100
AcDbLine
 10
1020.397002945268
 20
2048.982558850011
 30
0.0
 11
1014.614353943097
 21
2048.982558850011
 31
0.0
  0
LINE
  5
227
330
186
100
AcDbEntity
  8
P-SANR-FIXT
100
AcDbLine
 10
1014.614353943097
 20
2048.982558850011
 30
0.0
 11
1008.831704940926
 21
2048.982558850011
 31
0.0
  0
ENDBLK
  5
229
330
186
100
AcDbEntity
  8
0
100
AcDbBlockEnd
  0
ENDSEC
  0
SECTION
  2
ENTITIES
  0
INSERT
  5
117
330
71
100
AcDbEntity
  8
P-SANR-FIXT
100
AcDbBlockReference
  2
Automatic flow rate regulator valve_Caleffi_121 DN15 - 1_2__-859151-Est - Idraulica
 10
0.0
 20
0.0
 30
0.0
1001
REVIT
1002
{
1070
     1
1000
863131
1002
}
1002
{
1070
     5
1000
859151
1002
}
1002
{
1070
     2
1000
-2001160
1002
}
  0
INSERT
  5
185
330
71
100
AcDbEntity
  8
P-SANR-FIXT
100
AcDbBlockReference
  2
Automatic flow rate regulator valve_Caleffi_121 DN15 - 1_2__-V1-Est - Idraulica
 10
0.0
 20
0.0
 30
0.0
1001
REVIT
1002
{
1070
     1
1000
863152
1002
}
1002
{
1070
     5
1000
859151
1002
}
1002
{
1070
     2
1000
-2001160
1002
}
  0
INSERT
  5
22A
330
71
100
AcDbEntity
  8
P-SANR-FIXT
100
AcDbBlockReference
  2
Automatic flow rate regulator valve_Caleffi_121 DN15 - 1_2__-V2-Est - Idraulica
 10
0.0
 20
0.0
 30
0.0
1001
REVIT
1002
{
1070
     1
1000
863172
1002
}
1002
{
1070
     5
1000
859151
1002
}
1002
{
1070
     2
1000
-2001160
1002
}
  0
ENDSEC
  0
SECTION
  2
OBJECTS
  0
DICTIONARY
  5
C
330
0
100
AcDbDictionary
281
     1
  3
ACAD_CIP_PREVIOUS_PRODUCT_INFO
350
7A
  3
ACAD_COLOR
350
63
  3
ACAD_DETAILVIEWSTYLE
350
6B
  3
ACAD_GROUP
350
D
  3
ACAD_IMAGE_VARS
350
7B
  3
ACAD_LAYOUT
350
62
  3
ACAD_MATERIAL
350
10
  3
ACAD_MLEADERSTYLE
350
66
  3
ACAD_MLINESTYLE
350
5F
  3
ACAD_PLOTSETTINGS
350
61
  3
ACAD_PLOTSTYLENAME
350
E
  3
ACAD_SCALELIST
350
42
  3
ACAD_SECTIONVIEWSTYLE
350
68
  3
ACAD_TABLESTYLE
350
64
  3
ACAD_VISUALSTYLE
350
29
  3
ACDB_RECOMPOSE_DATA
350
235
  3
AcDbVariableDictionary
350
7C
  3
REVIT_DICTIONARY
350
22C
  0
DICTIONARY
  5
231
330
71
100
AcDbDictionary
280
     1
281
     1
  3
ACAD_SORTENTS
360
232
  0
XRECORD
  5
7A
102
{ACAD_REACTORS
330
C
102
}
330
C
100
AcDbXrecord
280
     1
300
RVT
300
2013
300
RVT2013
  0
DICTIONARY
  5
63
102
{ACAD_REACTORS
330
C
102
}
330
C
100
AcDbDictionary
281
     1
  0
DICTIONARY
  5
6B
102
{ACAD_REACTORS
330
C
102
}
330
C
100
AcDbDictionary
281
     1
  3
Imperial24
350
6C
  0
DICTIONARY
  5
D
102
{ACAD_REACTORS
330
C
102
}
330
C
100
AcDbDictionary
281
     1
  0
RASTERVARIABLES
  5
7B
102
{ACAD_REACTORS
330
C
102
}
330
C
100
AcDbRasterVariables
 90
        0
 70
     0
 71
     1
 72
     1
  0
DICTIONARY
  5
62
102
{ACAD_REACTORS
330
C
102
}
330
C
100
AcDbDictionary
281
     1
  3
Layout1
350
70
  3
Layout2
350
78
  3
Model
350
74
  0
DICTIONARY
  5
10
102
{ACAD_REACTORS
330
C
102
}
330
C
100
AcDbDictionary
281
     1
  3
ByBlock
350
19
  3
ByLayer
350
11
  3
Global
350
21
  0
DICTIONARY
  5
66
102
{ACAD_REACTORS
330
C
102
}
330
C
100
AcDbDictionary
281
     1
  3
Standard
350
67
  0
DICTIONARY
  5
5F
102
{ACAD_REACTORS
330
C
102
}
330
C
100
AcDbDictionary
281
     1
  3
Standard
350
60
  0
DICTIONARY
  5
61
102
{ACAD_REACTORS
330
C
102
}
330
C
100
AcDbDictionary
281
     1
  0
ACDBDICTIONARYWDFLT
  5
E
102
{ACAD_REACTORS
330
C
102
}
330
C
100
AcDbDictionary
281
     1
  3
Normal
350
F
100
AcDbDictionaryWithDefault
340
F
  0
DICTIONARY
  5
42
102
{ACAD_REACTORS
330
C
102
}
330
C
100
AcDbDictionary
281
     1
  3
A0
350
43
  3
A1
350
44
  3
A2
350
45
  3
A3
350
46
  3
A4
350
47
  3
A5
350
48
  3
A6
350
49
  3
A7
350
4A
  3
A8
350
4B
  3
A9
350
4C
  3
B0
350
4D
  3
B1
350
4E
  3
B2
350
4F
  3
B3
350
50
  3
B4
350
51
  3
B5
350
52
  3
B6
350
53
  0
DICTIONARY
  5
68
102
{ACAD_REACTORS
330
C
102
}
330
C
100
AcDbDictionary
281
     1
  3
Imperial24
350
6A
  0
DICTIONARY
  5
64
102
{ACAD_REACTORS
330
C
102
}
330
C
100
AcDbDictionary
281
     1
  3
Standard
350
65
  0
DICTIONARY
  5
29
102
{ACAD_REACTORS
330
C
102
}
330
C
100
AcDbDictionary
281
     1
  3
2dWireframe
350
2F
  3
Basic
350
2E
  3
Brighten
350
35
  3
ColorChange
350
39
  3
Conceptual
350
32
  3
Dim
350
34
  3
EdgeColorOff
350
41
  3
Facepattern
350
38
  3
Flat
350
2A
  3
FlatWithEdges
350
2B
  3
Gouraud
350
2C
  3
GouraudWithEdges
350
2D
  3
Hidden
350
31
  3
JitterOff
350
3F
  3
Linepattern
350
37
  3
OverhangOff
350
40
  3
Realistic
350
33
  3
Shaded
350
3E
  3
Shaded with edges
350
3D
  3
Shades of Gray
350
3A
  3
Sketchy
350
3B
  3
Thicken
350
36
  3
Wireframe
350
30
  3
X-Ray
350
3C
  0
XRECORD
  5
235
102
{ACAD_REACTORS
330
C
102
}
330
C
100
AcDbXrecord
280
     1
 90
        1
330
65
  0
DICTIONARY
  5
7C
102
{ACAD_REACTORS
330
C
102
}
330
C
100
AcDbDictionary
281
     1
  3
CANNOSCALE
350
81
  3
CMLEADERSTYLE
350
7E
  3
CTABLESTYLE
350
7D
  3
CVIEWDETAILSTYLE
350
7F
  3
CVIEWSECTIONSTYLE
350
80
  0
DICTIONARY
  5
22C
102
{ACAD_REACTORS
330
C
102
}
330
C
100
AcDbDictionary
281
     1
  3
DRAWING_TOOL
350
230
  3
REVIT_CATEGORY_MAPPING
350
22E
  3
REVIT_SUB_CATEGORY_MAPPING
350
22F
  3
REVIT_TYPE_MAPPING
350
22D
  0
SORTENTSTABLE
  5
232
102
{ACAD_REACTORS
330
231
102
}
330
231
100
AcDbSortentsTable
330
71
  0
ACDBDETAILVIEWSTYLE
  5
6C
102
{ACAD_REACTORS
330
6B
102
}
330
6B
100
AcDbModelDocViewStyle
 70
     0
  3
Imperial24
290
     1
100
AcDbDetailViewStyle
 70
     0
 71
     0
 90
        3
 71
     1
340
55
 62
   256
 40
0.24
340
0
 62
   256
 40
0.24
300

 40
0.36
280
     3
 71
     2
340
5D
 90
       25
 62
   256
 71
     3
340
55
 62
   256
 40
0.24
 90
        1
 40
0.75
 90
        1
300
%<\AcVar ViewType \f "%tc1">% %<\AcVar ViewDetailId>%\PSCALA %<\AcVar ViewScale \f "%sn">%
 71
     4
340
5D
 90
       25
 62
   256
340
5D
 90
       25
 62
   256
280
     0
  0
LAYOUT
  5
70
102
{ACAD_REACTORS
330
62
102
}
330
62
100
AcDbPlotSettings
  1

  2

  4

  6

 40
0.0
 41
0.0
 42
0.0
 43
0.0
 44
0.0
 45
0.0
 46
0.0
 47
0.0
 48
0.0
 49
0.0
140
0.0
141
0.0
142
1.0
143
1.0
 70
   688
 72
     0
 73
     0
 74
     5
  7

 75
    16
147
1.0
 76
     0
 77
     2
 78
   300
148
0.0
149
0.0
100
AcDbLayout
  1
Layout1
 70
     1
 71
     1
 10
0.0
 20
0.0
 11
12.0
 21
9.0
 12
0.0
 22
0.0
 32
0.0
 14
0.0
 24
0.0
 34
0.0
 15
0.0
 25
0.0
 35
0.0
146
0.0
 13
0.0
 23
0.0
 33
0.0
 16
1.0
 26
0.0
 36
0.0
 17
0.0
 27
1.0
 37
0.0
 76
     0
330
6D
  0
LAYOUT
  5
78
102
{ACAD_REACTORS
330
62
102
}
330
62
100
AcDbPlotSettings
  1

  2

  4

  6

 40
0.0
 41
0.0
 42
0.0
 43
0.0
 44
0.0
 45
0.0
 46
0.0
 47
0.0
 48
0.0
 49
0.0
140
0.0
141
0.0
142
1.0
143
1.0
 70
   688
 72
     0
 73
     0
 74
     5
  7

 75
    16
147
1.0
 76
     0
 77
     2
 78
   300
148
0.0
149
0.0
100
AcDbLayout
  1
Layout2
 70
     1
 71
     2
 10
0.0
 20
0.0
 11
12.0
 21
9.0
 12
0.0
 22
0.0
 32
0.0
 14
0.0
 24
0.0
 34
0.0
 15
0.0
 25
0.0
 35
0.0
146
0.0
 13
0.0
 23
0.0
 33
0.0
 16
1.0
 26
0.0
 36
0.0
 17
0.0
 27
1.0
 37
0.0
 76
     0
330
75
  0
LAYOUT
  5
74
102
{ACAD_REACTORS
330
62
102
}
330
62
100
AcDbPlotSettings
  1

  2

  4

  6

 40
0.0
 41
0.0
 42
0.0
 43
0.0
 44
0.0
 45
0.0
 46
0.0
 47
0.0
 48
0.0
 49
0.0
140
0.0
141
0.0
142
1.0
143
1.0
 70
  1712
 72
     0
 73
     0
 74
     0
  7

 75
     0
147
1.0
 76
     0
 77
     2
 78
   300
148
0.0
149
0.0
100
AcDbLayout
  1
Model
 70
     1
 71
     0
 10
0.0
 20
0.0
 11
12.0
 21
9.0
 12
0.0
 22
0.0
 32
0.0
 14
0.0
 24
0.0
 34
0.0
 15
0.0
 25
0.0
 35
0.0
146
0.0
 13
0.0
 23
0.0
 33
0.0
 16
1.0
 26
0.0
 36
0.0
 17
0.0
 27
1.0
 37
0.0
 76
     0
330
71
  0
MATERIAL
  5
19
102
{ACAD_XDICTIONARY
360
1A
102
}
102
{ACAD_REACTORS
330
10
102
}
330
10
100
AcDbMaterial
  1
ByBlock
 72
     0
 43
0.0208333333333333
 43
0.0
 43
0.0
 43
0.0
 43
0.0
 43
0.0208333333333333
 43
0.0
 43
0.0
 43
0.0
 43
0.0
 43
1.0
 43
0.0
 43
0.0
 43
0.0
 43
0.0
 43
1.0
 77
     0
 47
0.0208333333333333
 47
0.0
 47
0.0
 47
0.0
 47
0.0
 47
0.0208333333333333
 47
0.0
 47
0.0
 47
0.0
 47
0.0
 47
1.0
 47
0.0
 47
0.0
 47
0.0
 47
0.0
 47
1.0
171
     0
 49
0.0208333333333333
 49
0.0
 49
0.0
 49
0.0
 49
0.0
 49
0.0208333333333333
 49
0.0
 49
0.0
 49
0.0
 49
0.0
 49
1.0
 49
0.0
 49
0.0
 49
0.0
 49
0.0
 49
1.0
175
     0
142
0.0208333333333333
142
0.0
142
0.0
142
0.0
142
0.0
142
0.0208333333333333
142
0.0
142
0.0
142
0.0
142
0.0
142
1.0
142
0.0
142
0.0
142
0.0
142
0.0
142
1.0
179
     0
144
0.0208333333333333
144
0.0
144
0.0
144
0.0
144
0.0
144
0.0208333333333333
144
0.0
144
0.0
144
0.0
144
0.0
144
1.0
144
0.0
144
0.0
144
0.0
144
0.0
144
1.0
147
0.0208333333333333
147
0.0
147
0.0
147
0.0
147
0.0
147
0.0208333333333333
147
0.0
147
0.0
147
0.0
147
0.0
147
1.0
147
0.0
147
0.0
147
0.0
147
0.0
147
1.0
  0
MATERIAL
  5
11
102
{ACAD_XDICTIONARY
360
12
102
}
102
{ACAD_REACTORS
330
10
102
}
330
10
100
AcDbMaterial
  1
ByLayer
 72
     0
 43
0.0208333333333333
 43
0.0
 43
0.0
 43
0.0
 43
0.0
 43
0.0208333333333333
 43
0.0
 43
0.0
 43
0.0
 43
0.0
 43
1.0
 43
0.0
 43
0.0
 43
0.0
 43
0.0
 43
1.0
 77
     0
 47
0.0208333333333333
 47
0.0
 47
0.0
 47
0.0
 47
0.0
 47
0.0208333333333333
 47
0.0
 47
0.0
 47
0.0
 47
0.0
 47
1.0
 47
0.0
 47
0.0
 47
0.0
 47
0.0
 47
1.0
171
     0
 49
0.0208333333333333
 49
0.0
 49
0.0
 49
0.0
 49
0.0
 49
0.0208333333333333
 49
0.0
 49
0.0
 49
0.0
 49
0.0
 49
1.0
 49
0.0
 49
0.0
 49
0.0
 49
0.0
 49
1.0
175
     0
142
0.0208333333333333
142
0.0
142
0.0
142
0.0
142
0.0
142
0.0208333333333333
142
0.0
142
0.0
142
0.0
142
0.0
142
1.0
142
0.0
142
0.0
142
0.0
142
0.0
142
1.0
179
     0
144
0.0208333333333333
144
0.0
144
0.0
144
0.0
144
0.0
144
0.0208333333333333
144
0.0
144
0.0
144
0.0
144
0.0
144
1.0
144
0.0
144
0.0
144
0.0
144
0.0
144
1.0
147
0.0208333333333333
147
0.0
147
0.0
147
0.0
147
0.0
147
0.0208333333333333
147
0.0
147
0.0
147
0.0
147
0.0
147
1.0
147
0.0
147
0.0
147
0.0
147
0.0
147
1.0
  0
MATERIAL
  5
21
102
{ACAD_XDICTIONARY
360
22
102
}
102
{ACAD_REACTORS
330
10
102
}
330
10
100
AcDbMaterial
  1
Global
 72
     0
 43
0.0208333333333333
 43
0.0
 43
0.0
 43
0.0
 43
0.0
 43
0.0208333333333333
 43
0.0
 43
0.0
 43
0.0
 43
0.0
 43
1.0
 43
0.0
 43
0.0
 43
0.0
 43
0.0
 43
1.0
 77
     0
 47
0.0208333333333333
 47
0.0
 47
0.0
 47
0.0
 47
0.0
 47
0.0208333333333333
 47
0.0
 47
0.0
 47
0.0
 47
0.0
 47
1.0
 47
0.0
 47
0.0
 47
0.0
 47
0.0
 47
1.0
171
     0
 49
0.0208333333333333
 49
0.0
 49
0.0
 49
0.0
 49
0.0
 49
0.0208333333333333
 49
0.0
 49
0.0
 49
0.0
 49
0.0
 49
1.0
 49
0.0
 49
0.0
 49
0.0
 49
0.0
 49
1.0
175
     0
142
0.0208333333333333
142
0.0
142
0.0
142
0.0
142
0.0
142
0.0208333333333333
142
0.0
142
0.0
142
0.0
142
0.0
142
1.0
142
0.0
142
0.0
142
0.0
142
0.0
142
1.0
179
     0
144
0.0208333333333333
144
0.0
144
0.0
144
0.0
144
0.0
144
0.0208333333333333
144
0.0
144
0.0
144
0.0
144
0.0
144
1.0
144
0.0
144
0.0
144
0.0
144
0.0
144
1.0
147
0.0208333333333333
147
0.0
147
0.0
147
0.0
147
0.0
147
0.0208333333333333
147
0.0
147
0.0
147
0.0
147
0.0
147
1.0
147
0.0
147
0.0
147
0.0
147
0.0
147
1.0
  0
MLEADERSTYLE
  5
67
102
{ACAD_REACTORS
330
66
102
}
330
66
100
AcDbMLeaderStyle
179
     2
170
     2
171
     1
172
     0
 90
        2
 40
0.0
 41
0.0
173
     1
 91
-1056964608
340
5B
 92
       -2
290
     1
 42
0.09
291
     1
 43
0.36
  3
Standard
 44
0.18
300

342
55
174
     1
178
     6
175
     1
176
     0
 93
-1056964608
 45
0.18
292
     0
297
     0
 46
0.18
 94
-1056964608
 47
1.0
 49
1.0
140
1.0
293
     1
141
0.0
294
     1
177
     0
142
1.0
295
     1
296
     0
143
0.125
271
     0
272
     9
273
     9
298
     1
  0
MLINESTYLE
  5
60
102
{ACAD_REACTORS
330
5F
102
}
330
5F
100
AcDbMlineStyle
  2
STANDARD
 70
     0
  3

 62
   256
 51
90.0
 52
90.0
 71
     2
 49
0.5
 62
   256
  6
BYLAYER
 49
-0.5
 62
   256
  6
BYLAYER
  0
ACDBPLACEHOLDER
  5
F
102
{ACAD_REACTORS
330
E
102
}
330
E
  0
SCALE
  5
43
102
{ACAD_REACTORS
330
42
102
}
330
42
100
AcDbScale
 70
     0
300
1:1
140
1.0
141
1.0
290
     1
  0
SCALE
  5
44
102
{ACAD_REACTORS
330
42
102
}
330
42
100
AcDbScale
 70
     0
300
1/128" = 1'-0"
140
0.0078125
141
12.0
290
     0
  0
SCALE
  5
45
102
{ACAD_REACTORS
330
42
102
}
330
42
100
AcDbScale
 70
     0
300
1/64" = 1'-0"
140
0.015625
141
12.0
290
     0
  0
SCALE
  5
46
102
{ACAD_REACTORS
330
42
102
}
330
42
100
AcDbScale
 70
     0
300
1/32" = 1'-0"
140
0.03125
141
12.0
290
     0
  0
SCALE
  5
47
102
{ACAD_REACTORS
330
42
102
}
330
42
100
AcDbScale
 70
     0
300
1/16" = 1'-0"
140
0.0625
141
12.0
290
     0
  0
SCALE
  5
48
102
{ACAD_REACTORS
330
42
102
}
330
42
100
AcDbScale
 70
     0
300
3/32" = 1'-0"
140
0.09375
141
12.0
290
     0
  0
SCALE
  5
49
102
{ACAD_REACTORS
330
42
102
}
330
42
100
AcDbScale
 70
     0
300
1/8" = 1'-0"
140
0.125
141
12.0
290
     0
  0
SCALE
  5
4A
102
{ACAD_REACTORS
330
42
102
}
330
42
100
AcDbScale
 70
     0
300
3/16" = 1'-0"
140
0.1875
141
12.0
290
     0
  0
SCALE
  5
4B
102
{ACAD_REACTORS
330
42
102
}
330
42
100
AcDbScale
 70
     0
300
1/4" = 1'-0"
140
0.25
141
12.0
290
     0
  0
SCALE
  5
4C
102
{ACAD_REACTORS
330
42
102
}
330
42
100
AcDbScale
 70
     0
300
3/8" = 1'-0"
140
0.375
141
12.0
290
     0
  0
SCALE
  5
4D
102
{ACAD_REACTORS
330
42
102
}
330
42
100
AcDbScale
 70
     0
300
1/2" = 1'-0"
140
0.5
141
12.0
290
     0
  0
SCALE
  5
4E
102
{ACAD_REACTORS
330
42
102
}
330
42
100
AcDbScale
 70
     0
300
3/4" = 1'-0"
140
0.75
141
12.0
290
     0
  0
SCALE
  5
4F
102
{ACAD_REACTORS
330
42
102
}
330
42
100
AcDbScale
 70
     0
300
1" = 1'-0"
140
1.0
141
12.0
290
     0
  0
SCALE
  5
50
102
{ACAD_REACTORS
330
42
102
}
330
42
100
AcDbScale
 70
     0
300
1-1/2" = 1'-0"
140
1.5
141
12.0
290
     0
  0
SCALE
  5
51
102
{ACAD_REACTORS
330
42
102
}
330
42
100
AcDbScale
 70
     0
300
3" = 1'-0"
140
3.0
141
12.0
290
     0
  0
SCALE
  5
52
102
{ACAD_REACTORS
330
42
102
}
330
42
100
AcDbScale
 70
     0
300
6" = 1'-0"
140
6.0
141
12.0
290
     0
  0
SCALE
  5
53
102
{ACAD_REACTORS
330
42
102
}
330
42
100
AcDbScale
 70
     0
300
1'-0" = 1'-0"
140
12.0
141
12.0
290
     0
  0
ACDBSECTIONVIEWSTYLE
  5
6A
102
{ACAD_REACTORS
330
68
102
}
330
68
100
AcDbModelDocViewStyle
 70
     0
  3
Imperial24
290
     1
100
AcDbSectionViewStyle
 70
     0
 71
     0
 90
       78
 71
     1
340
55
 62
   256
 40
0.24
340
0
340
0
 62
   256
 40
0.24
300
I, O, Q, S, X, Z
 40
0.48
 90
        3
 40
0.18
 90
        1
 71
     2
340
69
 90
       25
 62
   256
340
5D
 90
       50
 62
   256
 40
0.24
 40
0.0
 40
0.24
 71
     3
340
55
 62
   256
 40
0.24
 90
        1
 40
0.75
 90
        1
300
%<\AcVar ViewType \f "%tc1">% %<\AcVar ViewSectionStartId>%-%<\AcVar ViewSectionEndId>%\PSCALA %<\AcVar ViewScale \f "%sn">%
 71
     4
 62
   256
 62
   257
300
ANSI31
 40
1.0
 90
        0
290
     0
290
     0
 90
        6
 40
0.0
 40
1.570796326794896
 40
0.2617993877991494
 40
1.308996938995747
 40
-0.2617993877991494
 40
1.832595714594046
  0
TABLESTYLE
  5
65
102
{ACAD_XDICTIONARY
360
233
102
}
102
{ACAD_REACTORS
330
64
102
}
330
64
100
AcDbTableStyle
280
     0
  3
Standard
 70
     0
 71
     0
 40
0.06
 41
0.06
280
     0
281
     0
  7
Standard
140
0.18
170
     2
 62
     0
 63
     7
283
     0
 90
      512
 91
        0
  1

274
    -2
284
     1
 64
     0
275
    -2
285
     1
 65
     0
276
    -2
286
     1
 66
     0
277
    -2
287
     1
 67
     0
278
    -2
288
     1
 68
     0
279
    -2
289
     1
 69
     0
  7
Standard
140
0.25
170
     5
 62
     0
 63
     7
283
     0
 90
      512
 91
        0
  1

274
    -2
284
     1
 64
     0
275
    -2
285
     1
 65
     0
276
    -2
286
     1
 66
     0
277
    -2
287
     1
 67
     0
278
    -2
288
     1
 68
     0
279
    -2
289
     1
 69
     0
  7
Standard
140
0.18
170
     5
 62
     0
 63
     7
283
     0
 90
      512
 91
        0
  1

274
    -2
284
     1
 64
     0
275
    -2
285
     1
 65
     0
276
    -2
286
     1
 66
     0
277
    -2
287
     1
 67
     0
278
    -2
288
     1
 68
     0
279
    -2
289
     1
 69
     0
  0
VISUALSTYLE
  5
2F
102
{ACAD_REACTORS
330
29
102
}
330
29
100
AcDbVisualStyle
  2
2dWireframe
 70
     4
177
     3
291
     0
 70
    58
 90
        0
176
     1
 90
        2
176
     1
 90
        0
176
     1
 90
        0
176
     1
 40
0.6
176
     1
 40
30.0
176
     1
 62
     7
420
 16777215
176
     1
 90
        1
176
     1
 90
        4
176
     1
 62
     7
176
     1
 62
   257
176
     1
 90
        1
176
     1
 90
        1
176
     1
 40
1.0
176
     1
 90
        0
176
     1
 62
   257
176
     1
 40
1.0
176
     1
 90
        1
176
     1
 90
        6
176
     1
 90
        2
176
     1
 62
     7
176
     1
 90
        5
176
     1
 90
        0
176
     1
 90
        0
176
     1
290
     0
176
     1
 90
        1
176
     1
 40
0.0
176
     1
 90
        0
176
     1
290
     1
176
     1
290
     1
176
     1
290
     0
176
     1
290
     0
176
     1
290
     0
176
     1
290
     0
176
     1
290
     0
176
     1
290
     0
176
     1
290
     0
176
     1
 90
       50
176
     1
 40
0.0
176
     1
 40
1.0
176
     1
 90
        0
176
     1
 62
    18
420
        0
176
     1
 90
       50
176
     1
 90
        3
176
     1
 62
     5
420
      255
176
     1
290
     0
176
     1
 90
       50
176
     1
 90
       50
176
     1
 90
       50
176
     1
290
     0
176
     1
 90
       50
176
     1
 62
   256
176
     0
 40
1.0
176
     0
 90
        2
176
     1
  1
strokes_ogs.tif
176
     1
290
     0
176
     1
 40
1.0
176
     1
 40
1.0
176
     1
  0
VISUALSTYLE
  5
2E
102
{ACAD_REACTORS
330
29
102
}
330
29
100
AcDbVisualStyle
  2
Basic
 70
     7
177
     3
291
     1
 70
    58
 90
        1
176
     1
 90
        0
176
     1
 90
        1
176
     1
 90
        0
176
     1
 40
0.6
176
     1
 40
30.0
176
     1
 62
     7
420
 16777215
176
     1
 90
        0
176
     1
 90
        4
176
     1
 62
     7
176
     1
 62
   257
176
     1
 90
        1
176
     1
 90
        1
176
     1
 40
1.0
176
     1
 90
        8
176
     1
 62
     7
176
     1
 40
1.0
176
     1
 90
        1
176
     1
 90
        6
176
     1
 90
        2
176
     1
 62
     7
176
     1
 90
        5
176
     1
 90
        0
176
     1
 90
        0
176
     1
290
     0
176
     1
 90
        1
176
     1
 40
0.0
176
     1
 90
        0
176
     1
290
     0
176
     1
290
     1
176
     1
290
     1
176
     1
290
     0
176
     1
290
     0
176
     1
290
     0
176
     1
290
     0
176
     1
290
     0
176
     1
290
     0
176
     1
 90
       50
176
     1
 40
0.0
176
     1
 40
1.0
176
     1
 90
        0
176
     1
 62
    18
420
        0
176
     1
 90
       50
176
     1
 90
        3
176
     1
 62
     5
420
      255
176
     1
290
     0
176
     1
 90
       50
176
     1
 90
       50
176
     1
 90
       50
176
     1
290
     0
176
     1
 90
       50
176
     1
 62
   256
176
     0
 40
1.0
176
     0
 90
        2
176
     1
  1
strokes_ogs.tif
176
     1
290
     0
176
     1
 40
1.0
176
     1
 40
1.0
176
     1
  0
VISUALSTYLE
  5
35
102
{ACAD_REACTORS
330
29
102
}
330
29
100
AcDbVisualStyle
  2
Brighten
 70
    12
177
     3
291
     1
 70
    58
 90
        2
176
     1
 90
        2
176
     1
 90
        0
176
     1
 90
        0
176
     1
 40
0.6
176
     1
 40
30.0
176
     1
 62
     7
420
 16777215
176
     1
 90
        1
176
     1
 90
        4
176
     1
 62
     7
176
     1
 62
   257
176
     1
 90
        1
176
     1
 90
        1
176
     1
 40
1.0
176
     1
 90
        8
176
     1
 62
     7
176
     1
 40
1.0
176
     1
 90
        1
176
     1
 90
        6
176
     1
 90
        2
176
     1
 62
     7
176
     1
 90
        5
176
     1
 90
        0
176
     1
 90
        0
176
     1
290
     0
176
     1
 90
        1
176
     1
 40
50.0
176
     1
 90
        0
176
     1
290
     0
176
     1
290
     1
176
     1
290
     1
176
     1
290
     0
176
     1
290
     0
176
     1
290
     0
176
     1
290
     0
176
     1
290
     0
176
     1
290
     0
176
     1
 90
       50
176
     1
 40
0.0
176
     1
 40
1.0
176
     1
 90
        0
176
     1
 62
    18
420
        0
176
     1
 90
       50
176
     1
 90
        3
176
     1
 62
     5
420
      255
176
     1
290
     0
176
     1
 90
       50
176
     1
 90
       50
176
     1
 90
       50
176
     1
290
     0
176
     1
 90
       50
176
     1
 62
   256
176
     0
 40
1.0
176
     0
 90
        2
176
     1
  1
strokes_ogs.tif
176
     1
290
     0
176
     1
 40
1.0
176
     1
 40
1.0
176
     1
  0
VISUALSTYLE
  5
39
102
{ACAD_REACTORS
330
29
102
}
330
29
100
AcDbVisualStyle
  2
ColorChange
 70
    16
177
     3
291
     1
 70
    58
 90
        2
176
     1
 90
        2
176
     1
 90
        3
176
     1
 90
        0
176
     1
 40
0.6
176
     1
 40
30.0
176
     1
 62
     8
420
  8421504
176
     1
 90
        1
176
     1
 90
        4
176
     1
 62
     7
176
     1
 62
   257
176
     1
 90
        1
176
     1
 90
        1
176
     1
 40
1.0
176
     1
 90
        8
176
     1
 62
     8
420
  8421504
176
     1
 40
1.0
176
     1
 90
        1
176
     1
 90
        6
176
     1
 90
        2
176
     1
 62
     7
176
     1
 90
        5
176
     1
 90
        0
176
     1
 90
        0
176
     1
290
     0
176
     1
 90
        1
176
     1
 40
0.0
176
     1
 90
        0
176
     1
290
     0
176
     1
290
     1
176
     1
290
     1
176
     1
290
     0
176
     1
290
     0
176
     1
290
     0
176
     1
290
     0
176
     1
290
     0
176
     1
290
     0
176
     1
 90
       50
176
     1
 40
0.0
176
     1
 40
1.0
176
     1
 90
        0
176
     1
 62
    18
420
        0
176
     1
 90
       50
176
     1
 90
        3
176
     1
 62
     5
420
      255
176
     1
290
     0
176
     1
 90
       50
176
     1
 90
       50
176
     1
 90
       50
176
     1
290
     0
176
     1
 90
       50
176
     1
 62
   256
176
     0
 40
1.0
176
     0
 90
        2
176
     1
  1
strokes_ogs.tif
176
     1
290
     0
176
     1
 40
1.0
176
     1
 40
1.0
176
     1
  0
VISUALSTYLE
  5
32
102
{ACAD_REACTORS
330
29
102
}
330
29
100
AcDbVisualStyle
  2
Conceptual
 70
     9
177
     3
291
     0
 70
    58
 90
        3
176
     1
 90
        2
176
     1
 90
        0
176
     1
 90
        0
176
     1
 40
0.6
176
     1
 40
30.0
176
     1
 62
     7
420
 16777215
176
     1
 90
        2
176
     1
 90
        2
176
     1
 62
     7
176
     1
 62
   257
176
     1
 90
        1
176
     1
 90
        1
176
     1
 40
179.0
176
     1
 90
        8
176
     1
 62
     7
176
     1
 40
1.0
176
     1
 90
        1
176
     1
 90
        6
176
     1
 90
        2
176
     1
 62
     7
176
     1
 90
        3
176
     1
 90
        0
176
     1
 90
        0
176
     1
290
     0
176
     1
 90
        1
176
     1
 40
0.0
176
     1
 90
        0
176
     1
290
     0
176
     1
290
     1
176
     1
290
     1
176
     1
290
     0
176
     1
290
     0
176
     1
290
     0
176
     1
290
     0
176
     1
290
     0
176
     1
290
     0
176
     1
 90
       50
176
     1
 40
0.0
176
     1
 40
1.0
176
     1
 90
        0
176
     1
 62
    18
420
        0
176
     1
 90
       50
176
     1
 90
        3
176
     1
 62
     5
420
      255
176
     1
290
     0
176
     1
 90
       50
176
     1
 90
       50
176
     1
 90
       50
176
     1
290
     0
176
     1
 90
       50
176
     1
 62
   256
176
     0
 40
1.0
176
     0
 90
        2
176
     1
  1
strokes_ogs.tif
176
     1
290
     0
176
     1
 40
1.0
176
     1
 40
1.0
176
     1
  0
VISUALSTYLE
  5
34
102
{ACAD_REACTORS
330
29
102
}
330
29
100
AcDbVisualStyle
  2
Dim
 70
    11
177
     3
291
     1
 70
    58
 90
        2
176
     1
 90
        2
176
     1
 90
        0
176
     1
 90
        0
176
     1
 40
0.6
176
     1
 40
30.0
176
     1
 62
     7
420
 16777215
176
     1
 90
        1
176
     1
 90
        4
176
     1
 62
     7
176
     1
 62
   257
176
     1
 90
        1
176
     1
 90
        1
176
     1
 40
1.0
176
     1
 90
        8
176
     1
 62
     7
176
     1
 40
1.0
176
     1
 90
        1
176
     1
 90
        6
176
     1
 90
        2
176
     1
 62
     7
176
     1
 90
        5
176
     1
 90
        0
176
     1
 90
        0
176
     1
290
     0
176
     1
 90
        1
176
     1
 40
-50.0
176
     1
 90
        0
176
     1
290
     0
176
     1
290
     1
176
     1
290
     1
176
     1
290
     0
176
     1
290
     0
176
     1
290
     0
176
     1
290
     0
176
     1
290
     0
176
     1
290
     0
176
     1
 90
       50
176
     1
 40
0.0
176
     1
 40
1.0
176
     1
 90
        0
176
     1
 62
    18
420
        0
176
     1
 90
       50
176
     1
 90
        3
176
     1
 62
     5
420
      255
176
     1
290
     0
176
     1
 90
       50
176
     1
 90
       50
176
     1
 90
       50
176
     1
290
     0
176
     1
 90
       50
176
     1
 62
   256
176
     0
 40
1.0
176
     0
 90
        2
176
     1
  1
strokes_ogs.tif
176
     1
290
     0
176
     1
 40
1.0
176
     1
 40
1.0
176
     1
  0
VISUALSTYLE
  5
41
102
{ACAD_REACTORS
330
29
102
}
330
29
100
AcDbVisualStyle
  2
EdgeColorOff
 70
    22
177
     3
291
     1
 70
    58
 90
        2
176
     0
 90
        2
176
     0
 90
        0
176
     0
 90
        0
176
     0
 40
0.6
176
     0
 40
30.0
176
     0
 62
     7
420
 16777215
176
     0
 90
        1
176
     0
 90
        4
176
     0
 62
     7
176
     0
 62
   257
176
     0
 90
        1
176
     0
 90
        1
176
     0
 40
1.0
176
     0
 90
        8
176
     2
 62
     7
176
     0
 40
1.0
176
     0
 90
        1
176
     0
 90
        6
176
     0
 90
        2
176
     0
 62
     7
176
     0
 90
        5
176
     0
 90
        0
176
     0
 90
        0
176
     0
290
     0
176
     0
 90
        1
176
     0
 40
0.0
176
     0
 90
        0
176
     0
290
     0
176
     0
290
     1
176
     0
290
     1
176
     0
290
     0
176
     0
290
     0
176
     0
290
     0
176
     0
290
     0
176
     0
290
     0
176
     0
290
     0
176
     0
 90
       50
176
     0
 40
0.0
176
     0
 40
1.0
176
     0
 90
        0
176
     0
 62
    18
420
        0
176
     0
 90
       50
176
     0
 90
        3
176
     0
 62
     5
420
      255
176
     0
290
     0
176
     0
 90
       50
176
     0
 90
       50
176
     0
 90
       50
176
     0
290
     0
176
     0
 90
       50
176
     0
 62
   256
176
     0
 40
1.0
176
     0
 90
        2
176
     0
  1
strokes_ogs.tif
176
     0
290
     0
176
     0
 40
1.0
176
     0
 40
1.0
176
     0
  0
VISUALSTYLE
  5
38
102
{ACAD_REACTORS
330
29
102
}
330
29
100
AcDbVisualStyle
  2
Facepattern
 70
    15
177
     3
291
     1
 70
    58
 90
        2
176
     1
 90
        2
176
     1
 90
        0
176
     1
 90
        0
176
     1
 40
0.6
176
     1
 40
30.0
176
     1
 62
     7
420
 16777215
176
     1
 90
        1
176
     1
 90
        4
176
     1
 62
     7
176
     1
 62
   257
176
     1
 90
        1
176
     1
 90
        1
176
     1
 40
1.0
176
     1
 90
        8
176
     1
 62
     7
176
     1
 40
1.0
176
     1
 90
        1
176
     1
 90
        6
176
     1
 90
        2
176
     1
 62
     7
176
     1
 90
        5
176
     1
 90
        0
176
     1
 90
        0
176
     1
290
     0
176
     1
 90
        1
176
     1
 40
0.0
176
     1
 90
        0
176
     1
290
     0
176
     1
290
     1
176
     1
290
     1
176
     1
290
     0
176
     1
290
     0
176
     1
290
     0
176
     1
290
     0
176
     1
290
     0
176
     1
290
     0
176
     1
 90
       50
176
     1
 40
0.0
176
     1
 40
1.0
176
     1
 90
        0
176
     1
 62
    18
420
        0
176
     1
 90
       50
176
     1
 90
        3
176
     1
 62
     5
420
      255
176
     1
290
     0
176
     1
 90
       50
176
     1
 90
       50
176
     1
 90
       50
176
     1
290
     0
176
     1
 90
       50
176
     1
 62
   256
176
     0
 40
1.0
176
     0
 90
        2
176
     1
  1
strokes_ogs.tif
176
     1
290
     0
176
     1
 40
1.0
176
     1
 40
1.0
176
     1
  0
VISUALSTYLE
  5
2A
102
{ACAD_REACTORS
330
29
102
}
330
29
100
AcDbVisualStyle
  2
Flat
 70
     0
177
     3
291
     1
 70
    58
 90
        2
176
     1
 90
        1
176
     1
 90
        1
176
     1
 90
        2
176
     1
 40
0.6
176
     1
 40
30.0
176
     1
 62
     7
420
 16777215
176
     1
 90
        0
176
     1
 90
        0
176
     1
 62
     7
176
     1
 62
   257
176
     1
 90
        1
176
     1
 90
        1
176
     1
 40
1.0
176
     1
 90
        8
176
     1
 62
     7
176
     1
 40
1.0
176
     1
 90
        1
176
     1
 90
        6
176
     1
 90
        2
176
     1
 62
     7
176
     1
 90
        5
176
     1
 90
        0
176
     1
 90
        0
176
     1
290
     0
176
     1
 90
       13
176
     1
 40
0.0
176
     1
 90
        0
176
     1
290
     0
176
     1
290
     1
176
     1
290
     1
176
     1
290
     0
176
     1
290
     0
176
     1
290
     0
176
     1
290
     0
176
     1
290
     0
176
     1
290
     0
176
     1
 90
       50
176
     1
 40
0.0
176
     1
 40
1.0
176
     1
 90
        0
176
     1
 62
    18
420
        0
176
     1
 90
       50
176
     1
 90
        3
176
     1
 62
     5
420
      255
176
     1
290
     0
176
     1
 90
       50
176
     1
 90
       50
176
     1
 90
       50
176
     1
290
     0
176
     1
 90
       50
176
     1
 62
   256
176
     0
 40
1.0
176
     0
 90
        2
176
     1
  1
strokes_ogs.tif
176
     1
290
     0
176
     1
 40
1.0
176
     1
 40
1.0
176
     1
  0
VISUALSTYLE
  5
2B
102
{ACAD_REACTORS
330
29
102
}
330
29
100
AcDbVisualStyle
  2
FlatWithEdges
 70
     1
177
     3
291
     1
 70
    58
 90
        2
176
     1
 90
        1
176
     1
 90
        1
176
     1
 90
        2
176
     1
 40
0.6
176
     1
 40
30.0
176
     1
 62
     7
420
 16777215
176
     1
 90
        1
176
     1
 90
        0
176
     1
 62
     7
176
     1
 62
   257
176
     1
 90
        1
176
     1
 90
        1
176
     1
 40
1.0
176
     1
 90
        0
176
     1
 62
   257
176
     1
 40
1.0
176
     1
 90
        1
176
     1
 90
        6
176
     1
 90
        2
176
     1
 62
     7
176
     1
 90
        5
176
     1
 90
        0
176
     1
 90
        0
176
     1
290
     0
176
     1
 90
       13
176
     1
 40
0.0
176
     1
 90
        0
176
     1
290
     0
176
     1
290
     1
176
     1
290
     1
176
     1
290
     0
176
     1
290
     0
176
     1
290
     0
176
     1
290
     0
176
     1
290
     0
176
     1
290
     0
176
     1
 90
       50
176
     1
 40
0.0
176
     1
 40
1.0
176
     1
 90
        0
176
     1
 62
    18
420
        0
176
     1
 90
       50
176
     1
 90
        3
176
     1
 62
     5
420
      255
176
     1
290
     0
176
     1
 90
       50
176
     1
 90
       50
176
     1
 90
       50
176
     1
290
     0
176
     1
 90
       50
176
     1
 62
   256
176
     0
 40
1.0
176
     0
 90
        2
176
     1
  1
strokes_ogs.tif
176
     1
290
     0
176
     1
 40
1.0
176
     1
 40
1.0
176
     1
  0
VISUALSTYLE
  5
2C
102
{ACAD_REACTORS
330
29
102
}
330
29
100
AcDbVisualStyle
  2
Gouraud
 70
     2
177
     3
291
     1
 70
    58
 90
        2
176
     1
 90
        2
176
     1
 90
        1
176
     1
 90
        2
176
     1
 40
0.6
176
     1
 40
30.0
176
     1
 62
     7
420
 16777215
176
     1
 90
        0
176
     1
 90
        0
176
     1
 62
     7
176
     1
 62
   257
176
     1
 90
        1
176
     1
 90
        1
176
     1
 40
1.0
176
     1
 90
        0
176
     1
 62
     7
176
     1
 40
1.0
176
     1
 90
        1
176
     1
 90
        6
176
     1
 90
        2
176
     1
 62
     7
176
     1
 90
        5
176
     1
 90
        0
176
     1
 90
        0
176
     1
290
     0
176
     1
 90
       13
176
     1
 40
0.0
176
     1
 90
        0
176
     1
290
     0
176
     1
290
     1
176
     1
290
     1
176
     1
290
     0
176
     1
290
     0
176
     1
290
     0
176
     1
290
     0
176
     1
290
     0
176
     1
290
     0
176
     1
 90
       50
176
     1
 40
0.0
176
     1
 40
1.0
176
     1
 90
        0
176
     1
 62
    18
420
        0
176
     1
 90
       50
176
     1
 90
        3
176
     1
 62
     5
420
      255
176
     1
290
     0
176
     1
 90
       50
176
     1
 90
       50
176
     1
 90
       50
176
     1
290
     0
176
     1
 90
       50
176
     1
 62
   256
176
     0
 40
1.0
176
     0
 90
        2
176
     1
  1
strokes_ogs.tif
176
     1
290
     0
176
     1
 40
1.0
176
     1
 40
1.0
176
     1
  0
VISUALSTYLE
  5
2D
102
{ACAD_REACTORS
330
29
102
}
330
29
100
AcDbVisualStyle
  2
GouraudWithEdges
 70
     3
177
     3
291
     1
 70
    58
 90
        2
176
     1
 90
        2
176
     1
 90
        1
176
     1
 90
        2
176
     1
 40
0.6
176
     1
 40
30.0
176
     1
 62
     7
420
 16777215
176
     1
 90
        1
176
     1
 90
        0
176
     1
 62
     7
176
     1
 62
   257
176
     1
 90
        1
176
     1
 90
        1
176
     1
 40
1.0
176
     1
 90
        0
176
     1
 62
   257
176
     1
 40
1.0
176
     1
 90
        1
176
     1
 90
        6
176
     1
 90
        2
176
     1
 62
     7
176
     1
 90
        5
176
     1
 90
        0
176
     1
 90
        0
176
     1
290
     0
176
     1
 90
       13
176
     1
 40
0.0
176
     1
 90
        0
176
     1
290
     0
176
     1
290
     1
176
     1
290
     1
176
     1
290
     0
176
     1
290
     0
176
     1
290
     0
176
     1
290
     0
176
     1
290
     0
176
     1
290
     0
176
     1
 90
       50
176
     1
 40
0.0
176
     1
 40
1.0
176
     1
 90
        0
176
     1
 62
    18
420
        0
176
     1
 90
       50
176
     1
 90
        3
176
     1
 62
     5
420
      255
176
     1
290
     0
176
     1
 90
       50
176
     1
 90
       50
176
     1
 90
       50
176
     1
290
     0
176
     1
 90
       50
176
     1
 62
   256
176
     0
 40
1.0
176
     0
 90
        2
176
     1
  1
strokes_ogs.tif
176
     1
290
     0
176
     1
 40
1.0
176
     1
 40
1.0
176
     1
  0
VISUALSTYLE
  5
31
102
{ACAD_REACTORS
330
29
102
}
330
29
100
AcDbVisualStyle
  2
Hidden
 70
     6
177
     3
291
     0
 70
    58
 90
        1
176
     1
 90
        2
176
     1
 90
        2
176
     1
 90
        0
176
     1
 40
0.6
176
     1
 40
30.0
176
     1
 62
     7
420
 16777215
176
     1
 90
        2
176
     1
 90
        2
176
     1
 62
     7
176
     1
 62
   257
176
     1
 90
        2
176
     1
 90
        1
176
     1
 40
40.0
176
     1
 90
        0
176
     1
 62
   257
176
     1
 40
1.0
176
     1
 90
        1
176
     1
 90
        6
176
     1
 90
        2
176
     1
 62
     7
176
     1
 90
        3
176
     1
 90
        0
176
     1
 90
        0
176
     1
290
     0
176
     1
 90
        1
176
     1
 40
0.0
176
     1
 90
        0
176
     1
290
     0
176
     1
290
     1
176
     1
290
     1
176
     1
290
     0
176
     1
290
     0
176
     1
290
     0
176
     1
290
     0
176
     1
290
     0
176
     1
290
     0
176
     1
 90
       50
176
     1
 40
0.0
176
     1
 40
1.0
176
     1
 90
        0
176
     1
 62
    18
420
        0
176
     1
 90
       50
176
     1
 90
        3
176
     1
 62
     5
420
      255
176
     1
290
     0
176
     1
 90
       50
176
     1
 90
       50
176
     1
 90
       50
176
     1
290
     0
176
     1
 90
       50
176
     1
 62
   256
176
     0
 40
1.0
176
     0
 90
        2
176
     1
  1
strokes_ogs.tif
176
     1
290
     0
176
     1
 40
1.0
176
     1
 40
1.0
176
     1
  0
VISUALSTYLE
  5
3F
102
{ACAD_REACTORS
330
29
102
}
330
29
100
AcDbVisualStyle
  2
JitterOff
 70
    20
177
     3
291
     1
 70
    58
 90
        2
176
     0
 90
        2
176
     0
 90
        0
176
     0
 90
        0
176
     0
 40
0.6
176
     0
 40
30.0
176
     0
 62
     7
420
 16777215
176
     0
 90
        1
176
     0
 90
        4
176
     0
 62
     7
176
     0
 62
   257
176
     0
 90
        1
176
     0
 90
        1
176
     0
 40
1.0
176
     0
 90
       10
176
     2
 62
     7
176
     0
 40
1.0
176
     0
 90
        1
176
     0
 90
        6
176
     0
 90
        2
176
     0
 62
     7
176
     0
 90
        5
176
     0
 90
        0
176
     0
 90
        0
176
     0
290
     0
176
     0
 90
        1
176
     0
 40
0.0
176
     0
 90
        0
176
     0
290
     0
176
     0
290
     1
176
     0
290
     1
176
     0
290
     0
176
     0
290
     0
176
     0
290
     0
176
     0
290
     0
176
     0
290
     0
176
     0
290
     0
176
     0
 90
       50
176
     0
 40
0.0
176
     0
 40
1.0
176
     0
 90
        0
176
     0
 62
    18
420
        0
176
     0
 90
       50
176
     0
 90
        3
176
     0
 62
     5
420
      255
176
     0
290
     0
176
     0
 90
       50
176
     0
 90
       50
176
     0
 90
       50
176
     0
290
     0
176
     0
 90
       50
176
     0
 62
   256
176
     0
 40
1.0
176
     0
 90
        2
176
     0
  1
strokes_ogs.tif
176
     0
290
     0
176
     0
 40
1.0
176
     0
 40
1.0
176
     0
  0
VISUALSTYLE
  5
37
102
{ACAD_REACTORS
330
29
102
}
330
29
100
AcDbVisualStyle
  2
Linepattern
 70
    14
177
     3
291
     1
 70
    58
 90
        2
176
     1
 90
        2
176
     1
 90
        0
176
     1
 90
        0
176
     1
 40
0.6
176
     1
 40
30.0
176
     1
 62
     7
420
 16777215
176
     1
 90
        1
176
     1
 90
        4
176
     1
 62
     7
176
     1
 62
   257
176
     1
 90
        7
176
     1
 90
        7
176
     1
 40
1.0
176
     1
 90
        8
176
     1
 62
     7
176
     1
 40
1.0
176
     1
 90
        1
176
     1
 90
        6
176
     1
 90
        2
176
     1
 62
     7
176
     1
 90
        5
176
     1
 90
        0
176
     1
 90
        0
176
     1
290
     0
176
     1
 90
        1
176
     1
 40
0.0
176
     1
 90
        0
176
     1
290
     0
176
     1
290
     1
176
     1
290
     1
176
     1
290
     0
176
     1
290
     0
176
     1
290
     0
176
     1
290
     0
176
     1
290
     0
176
     1
290
     0
176
     1
 90
       50
176
     1
 40
0.0
176
     1
 40
1.0
176
     1
 90
        0
176
     1
 62
    18
420
        0
176
     1
 90
       50
176
     1
 90
        3
176
     1
 62
     5
420
      255
176
     1
290
     0
176
     1
 90
       50
176
     1
 90
       50
176
     1
 90
       50
176
     1
290
     0
176
     1
 90
       50
176
     1
 62
   256
176
     0
 40
1.0
176
     0
 90
        2
176
     1
  1
strokes_ogs.tif
176
     1
290
     0
176
     1
 40
1.0
176
     1
 40
1.0
176
     1
  0
VISUALSTYLE
  5
40
102
{ACAD_REACTORS
330
29
102
}
330
29
100
AcDbVisualStyle
  2
OverhangOff
 70
    21
177
     3
291
     1
 70
    58
 90
        2
176
     0
 90
        2
176
     0
 90
        0
176
     0
 90
        0
176
     0
 40
0.6
176
     0
 40
30.0
176
     0
 62
     7
420
 16777215
176
     0
 90
        1
176
     0
 90
        4
176
     0
 62
     7
176
     0
 62
   257
176
     0
 90
        1
176
     0
 90
        1
176
     0
 40
1.0
176
     0
 90
        9
176
     2
 62
     7
176
     0
 40
1.0
176
     0
 90
        1
176
     0
 90
        6
176
     0
 90
        2
176
     0
 62
     7
176
     0
 90
        5
176
     0
 90
        0
176
     0
 90
        0
176
     0
290
     0
176
     0
 90
        1
176
     0
 40
0.0
176
     0
 90
        0
176
     0
290
     0
176
     0
290
     1
176
     0
290
     1
176
     0
290
     0
176
     0
290
     0
176
     0
290
     0
176
     0
290
     0
176
     0
290
     0
176
     0
290
     0
176
     0
 90
       50
176
     0
 40
0.0
176
     0
 40
1.0
176
     0
 90
        0
176
     0
 62
    18
420
        0
176
     0
 90
       50
176
     0
 90
        3
176
     0
 62
     5
420
      255
176
     0
290
     0
176
     0
 90
       50
176
     0
 90
       50
176
     0
 90
       50
176
     0
290
     0
176
     0
 90
       50
176
     0
 62
   256
176
     0
 40
1.0
176
     0
 90
        2
176
     0
  1
strokes_ogs.tif
176
     0
290
     0
176
     0
 40
1.0
176
     0
 40
1.0
176
     0
  0
VISUALSTYLE
  5
33
102
{ACAD_REACTORS
330
29
102
}
330
29
100
AcDbVisualStyle
  2
Realistic
 70
     8
177
     3
291
     0
 70
    58
 90
        2
176
     1
 90
        3
176
     1
 90
        0
176
     1
 90
        2
176
     1
 40
0.6
176
     1
 40
30.0
176
     1
 62
     7
420
 16777215
176
     1
 90
        0
176
     1
 90
        0
176
     1
 62
     7
176
     1
 62
   257
176
     1
 90
        1
176
     1
 90
        1
176
     1
 40
1.0
176
     1
 90
        8
176
     1
 62
   257
176
     1
 40
1.0
176
     1
 90
        1
176
     1
 90
        6
176
     1
 90
        2
176
     1
 62
     7
176
     1
 90
        3
176
     1
 90
        0
176
     1
 90
        0
176
     1
290
     0
176
     1
 90
       13
176
     1
 40
0.0
176
     1
 90
        0
176
     1
290
     0
176
     1
290
     1
176
     1
290
     1
176
     1
290
     0
176
     1
290
     0
176
     1
290
     0
176
     1
290
     0
176
     1
290
     0
176
     1
290
     0
176
     1
 90
       50
176
     1
 40
0.0
176
     1
 40
1.0
176
     1
 90
        0
176
     1
 62
    18
420
        0
176
     1
 90
       50
176
     1
 90
        3
176
     1
 62
     5
420
      255
176
     1
290
     0
176
     1
 90
       50
176
     1
 90
       50
176
     1
 90
       50
176
     1
290
     0
176
     1
 90
       50
176
     1
 62
   256
176
     0
 40
1.0
176
     0
 90
        2
176
     1
  1
strokes_ogs.tif
176
     1
290
     0
176
     1
 40
1.0
176
     1
 40
1.0
176
     1
  0
VISUALSTYLE
  5
3E
102
{ACAD_REACTORS
330
29
102
}
330
29
100
AcDbVisualStyle
  2
Shaded
 70
    27
177
     3
291
     0
 70
    58
 90
        2
176
     1
 90
        2
176
     1
 90
        1
176
     1
 90
        2
176
     1
 40
0.6
176
     1
 40
30.0
176
     1
 62
     7
420
 16777215
176
     1
 90
        0
176
     1
 90
        4
176
     1
 62
     7
176
     1
 62
   257
176
     1
 90
        1
176
     1
 90
        1
176
     1
 40
1.0
176
     1
 90
        8
176
     1
 62
   257
176
     1
 40
1.0
176
     1
 90
        1
176
     1
 90
        6
176
     1
 90
        2
176
     1
 62
     8
420
  7895160
176
     1
 90
        3
176
     1
 90
        0
176
     1
 90
        0
176
     1
290
     0
176
     1
 90
        5
176
     1
 40
0.0
176
     1
 90
        0
176
     1
290
     0
176
     1
290
     1
176
     1
290
     1
176
     1
290
     0
176
     1
290
     0
176
     1
290
     0
176
     1
290
     0
176
     1
290
     0
176
     1
290
     0
176
     1
 90
       50
176
     1
 40
0.0
176
     1
 40
1.0
176
     1
 90
        0
176
     1
 62
    18
420
        0
176
     1
 90
       50
176
     1
 90
        3
176
     1
 62
     5
420
      255
176
     1
290
     0
176
     1
 90
       50
176
     1
 90
       50
176
     1
 90
       50
176
     1
290
     0
176
     1
 90
       50
176
     1
 62
   256
176
     0
 40
1.0
176
     0
 90
        2
176
     1
  1
strokes_ogs.tif
176
     1
290
     0
176
     1
 40
1.0
176
     1
 40
1.0
176
     1
  0
VISUALSTYLE
  5
3D
102
{ACAD_REACTORS
330
29
102
}
330
29
100
AcDbVisualStyle
  2
Shaded with edges
 70
    26
177
     3
291
     0
 70
    58
 90
        2
176
     1
 90
        2
176
     1
 90
        1
176
     1
 90
        2
176
     1
 40
0.6
176
     1
 40
30.0
176
     1
 62
     7
420
 16777215
176
     1
 90
        1
176
     1
 90
       10
176
     1
 62
     7
176
     1
 62
   257
176
     1
 90
        2
176
     1
 90
        1
176
     1
 40
1.0
176
     1
 90
        8
176
     1
 62
   257
176
     1
 40
1.0
176
     1
 90
        1
176
     1
 90
        6
176
     1
 90
        2
176
     1
 62
     7
176
     1
 90
        3
176
     1
 90
        0
176
     1
 90
        0
176
     1
290
     0
176
     1
 90
        5
176
     1
 40
0.0
176
     1
 90
        0
176
     1
290
     0
176
     1
290
     1
176
     1
290
     1
176
     1
290
     0
176
     1
290
     0
176
     1
290
     0
176
     1
290
     0
176
     1
290
     0
176
     1
290
     0
176
     1
 90
       50
176
     1
 40
0.0
176
     1
 40
1.0
176
     1
 90
        0
176
     1
 62
    18
420
        0
176
     1
 90
       50
176
     1
 90
        3
176
     1
 62
     5
420
      255
176
     1
290
     0
176
     1
 90
       50
176
     1
 90
       50
176
     1
 90
       50
176
     1
290
     0
176
     1
 90
       50
176
     1
 62
   256
176
     0
 40
1.0
176
     0
 90
        2
176
     1
  1
strokes_ogs.tif
176
     1
290
     0
176
     1
 40
1.0
176
     1
 40
1.0
176
     1
  0
VISUALSTYLE
  5
3A
102
{ACAD_REACTORS
330
29
102
}
330
29
100
AcDbVisualStyle
  2
Shades of Gray
 70
    23
177
     3
291
     0
 70
    58
 90
        2
176
     1
 90
        2
176
     1
 90
        3
176
     1
 90
        0
176
     1
 40
0.6
176
     1
 40
30.0
176
     1
 62
     7
420
 16777215
176
     1
 90
        2
176
     1
 90
        2
176
     1
 62
     7
176
     1
 62
     7
176
     1
 90
        1
176
     1
 90
        1
176
     1
 40
40.0
176
     1
 90
        8
176
     1
 62
     7
176
     1
 40
1.0
176
     1
 90
        1
176
     1
 90
        6
176
     1
 90
        2
176
     1
 62
     7
176
     1
 90
        3
176
     1
 90
        0
176
     1
 90
        0
176
     1
290
     0
176
     1
 90
        1
176
     1
 40
0.0
176
     1
 90
        0
176
     1
290
     0
176
     1
290
     1
176
     1
290
     1
176
     1
290
     0
176
     1
290
     0
176
     1
290
     0
176
     1
290
     0
176
     1
290
     0
176
     1
290
     0
176
     1
 90
       50
176
     1
 40
0.0
176
     1
 40
1.0
176
     1
 90
        0
176
     1
 62
    18
420
        0
176
     1
 90
       50
176
     1
 90
        3
176
     1
 62
     5
420
      255
176
     1
290
     0
176
     1
 90
       50
176
     1
 90
       50
176
     1
 90
       50
176
     1
290
     0
176
     1
 90
       50
176
     1
 62
   256
176
     0
 40
1.0
176
     0
 90
        2
176
     1
  1
strokes_ogs.tif
176
     1
290
     0
176
     1
 40
1.0
176
     1
 40
1.0
176
     1
  0
VISUALSTYLE
  5
3B
102
{ACAD_REACTORS
330
29
102
}
330
29
100
AcDbVisualStyle
  2
Sketchy
 70
    24
177
     3
291
     0
 70
    58
 90
        1
176
     1
 90
        2
176
     1
 90
        2
176
     1
 90
        0
176
     1
 40
0.6
176
     1
 40
30.0
176
     1
 62
     7
420
 16777215
176
     1
 90
        2
176
     1
 90
        2
176
     1
 62
     7
176
     1
 62
     7
176
     1
 90
        1
176
     1
 90
        1
176
     1
 40
40.0
176
     1
 90
       11
176
     1
 62
     7
176
     1
 40
1.0
176
     1
 90
        1
176
     1
 90
        6
176
     1
 90
        2
176
     1
 62
     7
176
     1
 90
        6
176
     1
 90
        0
176
     1
 90
        0
176
     1
290
     0
176
     1
 90
        1
176
     1
 40
0.0
176
     1
 90
        0
176
     1
290
     0
176
     1
290
     1
176
     1
290
     1
176
     1
290
     0
176
     1
290
     0
176
     1
290
     0
176
     1
290
     0
176
     1
290
     0
176
     1
290
     0
176
     1
 90
       50
176
     1
 40
0.0
176
     1
 40
1.0
176
     1
 90
        0
176
     1
 62
    18
420
        0
176
     1
 90
       50
176
     1
 90
        3
176
     1
 62
     5
420
      255
176
     1
290
     0
176
     1
 90
       50
176
     1
 90
       50
176
     1
 90
       50
176
     1
290
     0
176
     1
 90
       50
176
     1
 62
   256
176
     0
 40
1.0
176
     0
 90
        2
176
     1
  1
strokes_ogs.tif
176
     1
290
     0
176
     1
 40
1.0
176
     1
 40
1.0
176
     1
  0
VISUALSTYLE
  5
36
102
{ACAD_REACTORS
330
29
102
}
330
29
100
AcDbVisualStyle
  2
Thicken
 70
    13
177
     3
291
     1
 70
    58
 90
        2
176
     1
 90
        2
176
     1
 90
        0
176
     1
 90
        0
176
     1
 40
0.6
176
     1
 40
30.0
176
     1
 62
     7
420
 16777215
176
     1
 90
        1
176
     1
 90
        4
176
     1
 62
     7
176
     1
 62
   257
176
     1
 90
        1
176
     1
 90
        1
176
     1
 40
1.0
176
     1
 90
       12
176
     1
 62
     7
176
     1
 40
1.0
176
     1
 90
        1
176
     1
 90
        6
176
     1
 90
        2
176
     1
 62
     7
176
     1
 90
        5
176
     1
 90
        0
176
     1
 90
        0
176
     1
290
     0
176
     1
 90
        1
176
     1
 40
0.0
176
     1
 90
        0
176
     1
290
     0
176
     1
290
     1
176
     1
290
     1
176
     1
290
     0
176
     1
290
     0
176
     1
290
     0
176
     1
290
     0
176
     1
290
     0
176
     1
290
     0
176
     1
 90
       50
176
     1
 40
0.0
176
     1
 40
1.0
176
     1
 90
        0
176
     1
 62
    18
420
        0
176
     1
 90
       50
176
     1
 90
        3
176
     1
 62
     5
420
      255
176
     1
290
     0
176
     1
 90
       50
176
     1
 90
       50
176
     1
 90
       50
176
     1
290
     0
176
     1
 90
       50
176
     1
 62
   256
176
     0
 40
1.0
176
     0
 90
        2
176
     1
  1
strokes_ogs.tif
176
     1
290
     0
176
     1
 40
1.0
176
     1
 40
1.0
176
     1
  0
VISUALSTYLE
  5
30
102
{ACAD_REACTORS
330
29
102
}
330
29
100
AcDbVisualStyle
  2
Wireframe
 70
     5
177
     3
291
     0
 70
    58
 90
        0
176
     1
 90
        2
176
     1
 90
        0
176
     1
 90
        0
176
     1
 40
0.6
176
     1
 40
30.0
176
     1
 62
     7
420
 16777215
176
     1
 90
        1
176
     1
 90
        4
176
     1
 62
     7
176
     1
 62
   257
176
     1
 90
        1
176
     1
 90
        1
176
     1
 40
1.0
176
     1
 90
        0
176
     1
 62
   257
176
     1
 40
1.0
176
     1
 90
        1
176
     1
 90
        6
176
     1
 90
        2
176
     1
 62
     7
176
     1
 90
        3
176
     1
 90
        0
176
     1
 90
        0
176
     1
290
     0
176
     1
 90
        1
176
     1
 40
0.0
176
     1
 90
        0
176
     1
290
     0
176
     1
290
     1
176
     1
290
     1
176
     1
290
     0
176
     1
290
     0
176
     1
290
     0
176
     1
290
     0
176
     1
290
     0
176
     1
290
     0
176
     1
 90
       50
176
     1
 40
0.0
176
     1
 40
1.0
176
     1
 90
        0
176
     1
 62
    18
420
        0
176
     1
 90
       50
176
     1
 90
        3
176
     1
 62
     5
420
      255
176
     1
290
     0
176
     1
 90
       50
176
     1
 90
       50
176
     1
 90
       50
176
     1
290
     0
176
     1
 90
       50
176
     1
 62
   256
176
     0
 40
1.0
176
     0
 90
        2
176
     1
  1
strokes_ogs.tif
176
     1
290
     0
176
     1
 40
1.0
176
     1
 40
1.0
176
     1
  0
VISUALSTYLE
  5
3C
102
{ACAD_REACTORS
330
29
102
}
330
29
100
AcDbVisualStyle
  2
X-Ray
 70
    25
177
     3
291
     0
 70
    58
 90
        2
176
     1
 90
        2
176
     1
 90
        1
176
     1
 90
        1
176
     1
 40
0.5
176
     1
 40
30.0
176
     1
 62
     7
420
 16777215
176
     1
 90
        1
176
     1
 90
        0
176
     1
 62
     7
176
     1
 62
   257
176
     1
 90
        1
176
     1
 90
        1
176
     1
 40
1.0
176
     1
 90
        8
176
     1
 62
     7
176
     1
 40
1.0
176
     1
 90
        1
176
     1
 90
        6
176
     1
 90
        2
176
     1
 62
     7
176
     1
 90
        3
176
     1
 90
        0
176
     1
 90
        0
176
     1
290
     0
176
     1
 90
       13
176
     1
 40
0.0
176
     1
 90
        0
176
     1
290
     0
176
     1
290
     1
176
     1
290
     1
176
     1
290
     0
176
     1
290
     0
176
     1
290
     0
176
     1
290
     0
176
     1
290
     0
176
     1
290
     0
176
     1
 90
       50
176
     1
 40
0.0
176
     1
 40
1.0
176
     1
 90
        0
176
     1
 62
    18
420
        0
176
     1
 90
       50
176
     1
 90
        3
176
     1
 62
     5
420
      255
176
     1
290
     0
176
     1
 90
       50
176
     1
 90
       50
176
     1
 90
       50
176
     1
290
     0
176
     1
 90
       50
176
     1
 62
   256
176
     0
 40
1.0
176
     0
 90
        2
176
     1
  1
strokes_ogs.tif
176
     1
290
     0
176
     1
 40
1.0
176
     1
 40
1.0
176
     1
  0
DICTIONARYVAR
  5
81
102
{ACAD_REACTORS
330
7C
102
}
330
7C
100
DictionaryVariables
280
     0
  1
1:1
  0
DICTIONARYVAR
  5
7E
102
{ACAD_REACTORS
330
7C
102
}
330
7C
100
DictionaryVariables
280
     0
  1
STANDARD
  0
DICTIONARYVAR
  5
7D
102
{ACAD_REACTORS
330
7C
102
}
330
7C
100
DictionaryVariables
280
     0
  1
STANDARD
  0
DICTIONARYVAR
  5
7F
102
{ACAD_REACTORS
330
7C
102
}
330
7C
100
DictionaryVariables
280
     0
  1
Imperial24
  0
DICTIONARYVAR
  5
80
102
{ACAD_REACTORS
330
7C
102
}
330
7C
100
DictionaryVariables
280
     0
  1
Imperial24
  0
XRECORD
  5
230
102
{ACAD_REACTORS
330
22C
102
}
330
22C
100
AcDbXrecord
280
     1
  1
BUILDING_ID
  1
Progetto per messa in tavola DXF, DWG
  1
FLOOR_ID
  1
694395
  0
XRECORD
  5
22E
102
{ACAD_REACTORS
330
22C
102
}
330
22C
100
AcDbXrecord
280
     1
  1
-2001160
  1
Apparecchi idraulici
  0
XRECORD
  5
22F
102
{ACAD_REACTORS
330
22C
102
}
330
22C
100
AcDbXrecord
280
     1
  1
923114
  1
Handle
  0
XRECORD
  5
22D
102
{ACAD_REACTORS
330
22C
102
}
330
22C
100
AcDbXrecord
280
     1
  1
859151
  1
Automatic flow rate regulator valve_Caleffi_121 DN15 : 1/2''
  0
DICTIONARY
  5
1A
330
19
100
AcDbDictionary
280
     1
281
     1
  3
BUMPTILE
360
1C
  3
DIFFUSETILE
360
1B
  3
OPACITYTILE
360
1F
  3
REFLECTIONTILE
360
1E
  3
REFRACTIONTILE
360
20
  3
SPECULARTILE
360
1D
  0
DICTIONARY
  5
12
330
11
100
AcDbDictionary
280
     1
281
     1
  3
BUMPTILE
360
14
  3
DIFFUSETILE
360
13
  3
OPACITYTILE
360
17
  3
REFLECTIONTILE
360
16
  3
REFRACTIONTILE
360
18
  3
SPECULARTILE
360
15
  0
DICTIONARY
  5
22
330
21
100
AcDbDictionary
280
     1
281
     1
  3
BUMPTILE
360
24
  3
DIFFUSETILE
360
23
  3
OPACITYTILE
360
27
  3
REFLECTIONTILE
360
26
  3
REFRACTIONTILE
360
28
  3
SPECULARTILE
360
25
  0
DICTIONARY
  5
233
330
65
100
AcDbDictionary
280
     1
281
     1
  3
ACAD_ROUNDTRIP_2008_TABLESTYLE_CELLSTYLEMAP
360
234
  0
XRECORD
  5
1C
102
{ACAD_REACTORS
330
1A
102
}
330
1A
100
AcDbXrecord
280
     1
270
     1
271
     1
  0
XRECORD
  5
1B
102
{ACAD_REACTORS
330
1A
102
}
330
1A
100
AcDbXrecord
280
     1
270
     1
271
     1
  0
XRECORD
  5
1F
102
{ACAD_REACTORS
330
1A
102
}
330
1A
100
AcDbXrecord
280
     1
270
     1
271
     1
  0
XRECORD
  5
1E
102
{ACAD_REACTORS
330
1A
102
}
330
1A
100
AcDbXrecord
280
     1
270
     1
271
     1
  0
XRECORD
  5
20
102
{ACAD_REACTORS
330
1A
102
}
330
1A
100
AcDbXrecord
280
     1
270
     1
271
     1
  0
XRECORD
  5
1D
102
{ACAD_REACTORS
330
1A
102
}
330
1A
100
AcDbXrecord
280
     1
270
     1
271
     1
  0
XRECORD
  5
14
102
{ACAD_REACTORS
330
12
102
}
330
12
100
AcDbXrecord
280
     1
270
     1
271
     1
  0
XRECORD
  5
13
102
{ACAD_REACTORS
330
12
102
}
330
12
100
AcDbXrecord
280
     1
270
     1
271
     1
  0
XRECORD
  5
17
102
{ACAD_REACTORS
330
12
102
}
330
12
100
AcDbXrecord
280
     1
270
     1
271
     1
  0
XRECORD
  5
16
102
{ACAD_REACTORS
330
12
102
}
330
12
100
AcDbXrecord
280
     1
270
     1
271
     1
  0
XRECORD
  5
18
102
{ACAD_REACTORS
330
12
102
}
330
12
100
AcDbXrecord
280
     1
270
     1
271
     1
  0
XRECORD
  5
15
102
{ACAD_REACTORS
330
12
102
}
330
12
100
AcDbXrecord
280
     1
270
     1
271
     1
  0
XRECORD
  5
24
102
{ACAD_REACTORS
330
22
102
}
330
22
100
AcDbXrecord
280
     1
270
     1
271
     1
  0
XRECORD
  5
23
102
{ACAD_REACTORS
330
22
102
}
330
22
100
AcDbXrecord
280
     1
270
     1
271
     1
  0
XRECORD
  5
27
102
{ACAD_REACTORS
330
22
102
}
330
22
100
AcDbXrecord
280
     1
270
     1
271
     1
  0
XRECORD
  5
26
102
{ACAD_REACTORS
330
22
102
}
330
22
100
AcDbXrecord
280
     1
270
     1
271
     1
  0
XRECORD
  5
28
102
{ACAD_REACTORS
330
22
102
}
330
22
100
AcDbXrecord
280
     1
270
     1
271
     1
  0
XRECORD
  5
25
102
{ACAD_REACTORS
330
22
102
}
330
22
100
AcDbXrecord
280
     1
270
     1
271
     1
  0
CELLSTYLEMAP
  5
234
102
{ACAD_REACTORS
330
233
102
}
330
233
100
AcDbCellStyleMap
 90
        3
300
CELLSTYLE
  1
TABLEFORMAT_BEGIN
 90
        5
170
     1
 91
        0
 92
    32768
 62
   257
 93
        1
300
CONTENTFORMAT
  1
CONTENTFORMAT_BEGIN
 90
        0
 91
        0
 92
      512
 93
        0
300

 40
0.0
140
1.0
 94
        5
 62
     0
340
55
144
0.25
309
CONTENTFORMAT_END
171
     0
 94
        0
309
TABLEFORMAT_END
  1
CELLSTYLE_BEGIN
 90
        1
 91
        1
300
_TITLE
309
CELLSTYLE_END
300
CELLSTYLE
  1
TABLEFORMAT_BEGIN
 90
        5
170
     1
 91
        0
 92
        0
 62
   257
 93
        1
300
CONTENTFORMAT
  1
CONTENTFORMAT_BEGIN
 90
        0
 91
        0
 92
      512
 93
        0
300

 40
0.0
140
1.0
 94
        5
 62
     0
340
55
144
0.18
309
CONTENTFORMAT_END
171
     0
 94
        0
309
TABLEFORMAT_END
  1
CELLSTYLE_BEGIN
 90
        2
 91
        1
300
_HEADER
309
CELLSTYLE_END
300
CELLSTYLE
  1
TABLEFORMAT_BEGIN
 90
        5
170
     1
 91
        0
 92
        0
 62
   257
 93
        1
300
CONTENTFORMAT
  1
CONTENTFORMAT_BEGIN
 90
        0
 91
        0
 92
      512
 93
        0
300

 40
0.0
140
1.0
 94
        2
 62
     0
340
55
144
0.18
309
CONTENTFORMAT_END
171
     0
 94
        0
309
TABLEFORMAT_END
  1
CELLSTYLE_BEGIN
 90
        3
 91
        2
300
_DATA
309
CELLSTYLE_END
  0
ENDSEC
  0
EOF
