  0
SECTION
  2
HEADER
  9
$ACADVER
  1
AC1027
  9
$ACADMAINTVER
 70
    20
  9
$DWGCODEPAGE
  3
ANSI_1252
  9
$REQUIREDVERSIONS
160
                 0
  9
$INSBASE
 10
0.0
 20
0.0
 30
0.0
  9
$EXTMIN
 10
754.0101574431735
 20
1817.745878730055
 30
-0.00000001
  9
$EXTMAX
 10
1033.114353943098
 20
2058.795190446838
 30
0.00000001
  9
$LIMMIN
 10
0.0
 20
0.0
  9
$LIMMAX
 10
12.0
 20
9.0
  9
$ORTHOMODE
 70
     0
  9
$REGENMODE
 70
     1
  9
$FILLMODE
 70
     1
  9
$QTEXTMODE
 70
     0
  9
$MIRRTEXT
 70
     0
  9
$LTSCALE
 40
1.0
  9
$ATTMODE
 70
     1
  9
$TEXTSIZE
 40
0.2
  9
$TRACEWID
 40
0.05
  9
$TEXTSTYLE
  7
Standard
  9
$CLAYER
  8
0
  9
$CELTYPE
  6
ByLayer
  9
$CECOLOR
 62
   256
  9
$CELTSCALE
 40
1.0
  9
$DISPSILH
 70
     0
  9
$DIMSCALE
 40
1.0
  9
$DIMASZ
 40
0.18
  9
$DIMEXO
 40
0.0625
  9
$DIMDLI
 40
0.38
  9
$DIMRND
 40
0.0
  9
$DIMDLE
 40
0.0
  9
$DIMEXE
 40
0.18
  9
$DIMTP
 40
0.0
  9
$DIMTM
 40
0.0
  9
$DIMTXT
 40
0.18
  9
$DIMCEN
 40
0.09
  9
$DIMTSZ
 40
0.0
  9
$DIMTOL
 70
     0
  9
$DIMLIM
 70
     0
  9
$DIMTIH
 70
     1
  9
$DIMTOH
 70
     1
  9
$DIMSE1
 70
     0
  9
$DIMSE2
 70
     0
  9
$DIMTAD
 70
     0
  9
$DIMZIN
 70
     0
  9
$DIMBLK
  1

  9
$DIMASO
 70
     1
  9
$DIMSHO
 70
     1
  9
$DIMPOST
  1

  9
$DIMAPOST
  1

  9
$DIMALT
 70
     0
  9
$DIMALTD
 70
     2
  9
$DIMALTF
 40
25.4
  9
$DIMLFAC
 40
1.0
  9
$DIMTOFL
 70
     0
  9
$DIMTVP
 40
0.0
  9
$DIMTIX
 70
     0
  9
$DIMSOXD
 70
     0
  9
$DIMSAH
 70
     0
  9
$DIMBLK1
  1

  9
$DIMBLK2
  1

  9
$DIMSTYLE
  2
Standard
  9
$DIMCLRD
 70
     0
  9
$DIMCLRE
 70
     0
  9
$DIMCLRT
 70
     0
  9
$DIMTFAC
 40
1.0
  9
$DIMGAP
 40
0.09
  9
$DIMJUST
 70
     0
  9
$DIMSD1
 70
     0
  9
$DIMSD2
 70
     0
  9
$DIMTOLJ
 70
     1
  9
$DIMTZIN
 70
     0
  9
$DIMALTZ
 70
     0
  9
$DIMALTTZ
 70
     0
  9
$DIMUPT
 70
     0
  9
$DIMDEC
 70
     4
  9
$DIMTDEC
 70
     4
  9
$DIMALTU
 70
     2
  9
$DIMALTTD
 70
     2
  9
$DIMTXSTY
  7
Standard
  9
$DIMAUNIT
 70
     0
  9
$DIMADEC
 70
     0
  9
$DIMALTRND
 40
0.0
  9
$DIMAZIN
 70
     0
  9
$DIMDSEP
 70
    46
  9
$DIMATFIT
 70
     3
  9
$DIMFRAC
 70
     0
  9
$DIMLDRBLK
  1

  9
$DIMLUNIT
 70
     2
  9
$DIMLWD
 70
    -2
  9
$DIMLWE
 70
    -2
  9
$DIMTMOVE
 70
     0
  9
$DIMFXL
 40
1.0
  9
$DIMFXLON
 70
     0
  9
$DIMJOGANG
 40
0.7853981633974483
  9
$DIMTFILL
 70
     0
  9
$DIMTFILLCLR
 70
     0
  9
$DIMARCSYM
 70
     0
  9
$DIMLTYPE
  6

  9
$DIMLTEX1
  6

  9
$DIMLTEX2
  6

  9
$DIMTXTDIRECTION
 70
     0
  9
$LUNITS
 70
     2
  9
$LUPREC
 70
     4
  9
$SKETCHINC
 40
0.1
  9
$FILLETRAD
 40
0.0
  9
$AUNITS
 70
     0
  9
$AUPREC
 70
     0
  9
$MENU
  1
.
  9
$ELEVATION
 40
0.0
  9
$PELEVATION
 40
0.0
  9
$THICKNESS
 40
0.0
  9
$LIMCHECK
 70
     0
  9
$CHAMFERA
 40
0.0
  9
$CHAMFERB
 40
0.0
  9
$CHAMFERC
 40
0.0
  9
$CHAMFERD
 40
0.0
  9
$SKPOLY
 70
     0
  9
$TDCREATE
 40
2457548.497606111
  9
$TDUCREATE
 40
2457548.414272778
  9
$TDUPDATE
 40
2457548.497606111
  9
$TDUUPDATE
 40
2457548.414272778
  9
$TDINDWG
 40
0.0000099537
  9
$TDUSRTIMER
 40
0.0000099537
  9
$USRTIMER
 70
     1
  9
$ANGBASE
 50
0.0
  9
$ANGDIR
 70
     0
  9
$PDMODE
 70
     0
  9
$PDSIZE
 40
0.0
  9
$PLINEWID
 40
0.0
  9
$SPLFRAME
 70
     0
  9
$SPLINETYPE
 70
     6
  9
$SPLINESEGS
 70
     8
  9
$HANDSEED
  5
318
  9
$SURFTAB1
 70
     6
  9
$SURFTAB2
 70
     6
  9
$SURFTYPE
 70
     6
  9
$SURFU
 70
     6
  9
$SURFV
 70
     6
  9
$UCSBASE
  2

  9
$UCSNAME
  2

  9
$UCSORG
 10
0.0
 20
0.0
 30
0.0
  9
$UCSXDIR
 10
1.0
 20
0.0
 30
0.0
  9
$UCSYDIR
 10
0.0
 20
1.0
 30
0.0
  9
$UCSORTHOREF
  2

  9
$UCSORTHOVIEW
 70
     0
  9
$UCSORGTOP
 10
0.0
 20
0.0
 30
0.0
  9
$UCSORGBOTTOM
 10
0.0
 20
0.0
 30
0.0
  9
$UCSORGLEFT
 10
0.0
 20
0.0
 30
0.0
  9
$UCSORGRIGHT
 10
0.0
 20
0.0
 30
0.0
  9
$UCSORGFRONT
 10
0.0
 20
0.0
 30
0.0
  9
$UCSORGBACK
 10
0.0
 20
0.0
 30
0.0
  9
$PUCSBASE
  2

  9
$PUCSNAME
  2

  9
$PUCSORG
 10
0.0
 20
0.0
 30
0.0
  9
$PUCSXDIR
 10
1.0
 20
0.0
 30
0.0
  9
$PUCSYDIR
 10
0.0
 20
1.0
 30
0.0
  9
$PUCSORTHOREF
  2

  9
$PUCSORTHOVIEW
 70
     0
  9
$PUCSORGTOP
 10
0.0
 20
0.0
 30
0.0
  9
$PUCSORGBOTTOM
 10
0.0
 20
0.0
 30
0.0
  9
$PUCSORGLEFT
 10
0.0
 20
0.0
 30
0.0
  9
$PUCSORGRIGHT
 10
0.0
 20
0.0
 30
0.0
  9
$PUCSORGFRONT
 10
0.0
 20
0.0
 30
0.0
  9
$PUCSORGBACK
 10
0.0
 20
0.0
 30
0.0
  9
$USERI1
 70
     0
  9
$USERI2
 70
     0
  9
$USERI3
 70
     0
  9
$USERI4
 70
     0
  9
$USERI5
 70
     0
  9
$USERR1
 40
0.0
  9
$USERR2
 40
0.0
  9
$USERR3
 40
0.0
  9
$USERR4
 40
0.0
  9
$USERR5
 40
0.0
  9
$WORLDVIEW
 70
     1
  9
$SHADEDGE
 70
     3
  9
$SHADEDIF
 70
    70
  9
$TILEMODE
 70
     1
  9
$MAXACTVP
 70
    64
  9
$PINSBASE
 10
0.0
 20
0.0
 30
0.0
  9
$PLIMCHECK
 70
     0
  9
$PEXTMIN
 10
1.000000000000000E+20
 20
1.000000000000000E+20
 30
1.000000000000000E+20
  9
$PEXTMAX
 10
-1.000000000000000E+20
 20
-1.000000000000000E+20
 30
-1.000000000000000E+20
  9
$PLIMMIN
 10
0.0
 20
0.0
  9
$PLIMMAX
 10
12.0
 20
9.0
  9
$UNITMODE
 70
     0
  9
$VISRETAIN
 70
     1
  9
$PLINEGEN
 70
     0
  9
$PSLTSCALE
 70
     1
  9
$TREEDEPTH
 70
  3020
  9
$CMLSTYLE
  2
Standard
  9
$CMLJUST
 70
     0
  9
$CMLSCALE
 40
1.0
  9
$PROXYGRAPHICS
 70
     1
  9
$MEASUREMENT
 70
     1
  9
$CELWEIGHT
370
    -1
  9
$ENDCAPS
280
     0
  9
$JOINSTYLE
280
     0
  9
$LWDISPLAY
290
     0
  9
$INSUNITS
 70
     4
  9
$HYPERLINKBASE
  1

  9
$STYLESHEET
  1

  9
$XEDIT
290
     1
  9
$CEPSNTYPE
380
     0
  9
$PSTYLEMODE
290
     1
  9
$FINGERPRINTGUID
  2
{DCC9B2DC-118E-4353-942C-B850F7103F01}
  9
$VERSIONGUID
  2
{84BBD454-1EB4-4B57-934E-78FE32DFC91E}
  9
$EXTNAMES
290
     1
  9
$PSVPSCALE
 40
0.0
  9
$OLESTARTUP
290
     0
  9
$SORTENTS
280
   127
  9
$INDEXCTL
280
     0
  9
$HIDETEXT
280
     1
  9
$XCLIPFRAME
280
     2
  9
$HALOGAP
280
     0
  9
$OBSCOLOR
 70
   257
  9
$OBSLTYPE
280
     0
  9
$INTERSECTIONDISPLAY
280
     0
  9
$INTERSECTIONCOLOR
 70
   257
  9
$DIMASSOC
280
     2
  9
$PROJECTNAME
  1

  9
$CAMERADISPLAY
290
     0
  9
$LENSLENGTH
 40
50.0
  9
$CAMERAHEIGHT
 40
0.0
  9
$STEPSPERSEC
 40
2.0
  9
$STEPSIZE
 40
6.0
  9
$3DDWFPREC
 40
2.0
  9
$PSOLWIDTH
 40
0.25
  9
$PSOLHEIGHT
 40
4.0
  9
$LOFTANG1
 40
1.570796326794896
  9
$LOFTANG2
 40
1.570796326794896
  9
$LOFTMAG1
 40
0.0
  9
$LOFTMAG2
 40
0.0
  9
$LOFTPARAM
 70
     7
  9
$LOFTNORMALS
280
     1
  9
$LATITUDE
 40
37.795
  9
$LONGITUDE
 40
-122.394
  9
$NORTHDIRECTION
 40
0.0
  9
$TIMEZONE
 70
 -8000
  9
$LIGHTGLYPHDISPLAY
280
     1
  9
$TILEMODELIGHTSYNCH
280
     1
  9
$CMATERIAL
347
11
  9
$SOLIDHIST
280
     0
  9
$SHOWHIST
280
     1
  9
$DWFFRAME
280
     2
  9
$DGNFRAME
280
     0
  9
$REALWORLDSCALE
290
     1
  9
$INTERFERECOLOR
 62
     1
  9
$INTERFEREOBJVS
345
33
  9
$INTERFEREVPVS
346
30
  9
$CSHADOW
280
     0
  9
$SHADOWPLANELOCATION
 40
0.0
  0
ENDSEC
  0
SECTION
  2
CLASSES
  0
CLASS
  1
ACDBDICTIONARYWDFLT
  2
AcDbDictionaryWithDefault
  3
ObjectDBX Classes
 90
        0
 91
        1
280
     0
281
     0
  0
CLASS
  1
MATERIAL
  2
AcDbMaterial
  3
ObjectDBX Classes
 90
     1153
 91
        3
280
     0
281
     0
  0
CLASS
  1
VISUALSTYLE
  2
AcDbVisualStyle
  3
ObjectDBX Classes
 90
     4095
 91
       24
280
     0
281
     0
  0
CLASS
  1
SCALE
  2
AcDbScale
  3
ObjectDBX Classes
 90
     1153
 91
       17
280
     0
281
     0
  0
CLASS
  1
TABLESTYLE
  2
AcDbTableStyle
  3
ObjectDBX Classes
 90
     4095
 91
        1
280
     0
281
     0
  0
CLASS
  1
MLEADERSTYLE
  2
AcDbMLeaderStyle
  3
ACDB_MLEADERSTYLE_CLASS
 90
     4095
 91
        1
280
     0
281
     0
  0
CLASS
  1
ACDBSECTIONVIEWSTYLE
  2
AcDbSectionViewStyle
  3
ObjectDBX Classes
 90
     1025
 91
        1
280
     0
281
     0
  0
CLASS
  1
ACDBDETAILVIEWSTYLE
  2
AcDbDetailViewStyle
  3
ObjectDBX Classes
 90
     1025
 91
        1
280
     0
281
     0
  0
CLASS
  1
RASTERVARIABLES
  2
AcDbRasterVariables
  3
ISM
 90
        0
 91
        1
280
     0
281
     0
  0
CLASS
  1
DICTIONARYVAR
  2
AcDbDictionaryVar
  3
ObjectDBX Classes
 90
        0
 91
        5
280
     0
281
     0
  0
CLASS
  1
CELLSTYLEMAP
  2
AcDbCellStyleMap
  3
ObjectDBX Classes
 90
     1152
 91
        2
280
     0
281
     0
  0
CLASS
  1
SORTENTSTABLE
  2
AcDbSortentsTable
  3
ObjectDBX Classes
 90
        0
 91
        1
280
     0
281
     0
  0
ENDSEC
  0
SECTION
  2
TABLES
  0
TABLE
  2
VPORT
  5
8
330
0
100
AcDbSymbolTable
 70
     1
  0
VPORT
  5
57
330
8
100
AcDbSymbolTableRecord
100
AcDbViewportTableRecord
  2
*Active
 70
     0
 10
0.0
 20
0.0
 11
1.0
 21
1.0
 12
893.562255693136
 22
1938.270534588446
 13
0.0
 23
0.0
 14
1.0
 24
1.0
 15
0.0
 25
0.0
 16
0.0
 26
0.0
 36
1.0
 17
0.0
 27
0.0
 37
0.0
 40
241.0493117167835
 41
1.15787178362846
 42
50.0
 43
0.0
 44
0.0
 50
0.0
 51
0.0
 71
     0
 72
  1000
 73
     1
 74
     1
 75
     0
 76
     0
 77
     0
 78
     0
281
     0
 65
     1
110
0.0
120
0.0
130
0.0
111
1.0
121
0.0
131
0.0
112
0.0
122
1.0
132
0.0
 79
     0
146
0.0
 60
     3
 61
     5
292
     1
282
     1
141
0.0
142
0.0
 63
   250
421
  3355443
  0
ENDTAB
  0
TABLE
  2
LTYPE
  5
5
330
0
100
AcDbSymbolTable
 70
     3
  0
LTYPE
  5
5B
330
5
100
AcDbSymbolTableRecord
100
AcDbLinetypeTableRecord
  2
ByBlock
 70
     0
  3

 72
    65
 73
     0
 40
0.0
  0
LTYPE
  5
5C
330
5
100
AcDbSymbolTableRecord
100
AcDbLinetypeTableRecord
  2
ByLayer
 70
     0
  3

 72
    65
 73
     0
 40
0.0
  0
LTYPE
  5
5D
330
5
100
AcDbSymbolTableRecord
100
AcDbLinetypeTableRecord
  2
Continuous
 70
     0
  3
Solid line
 72
    65
 73
     0
 40
0.0
  0
LTYPE
  5
69
330
5
100
AcDbSymbolTableRecord
100
AcDbLinetypeTableRecord
  2
PHANTOM2
 70
     0
  3
___ _ _ ___ _ _ ___ _ _ ___ _ _
 72
    65
 73
     6
 40
1.25
 49
0.625
 74
     0
 49
-0.125
 74
     0
 49
0.125
 74
     0
 49
-0.125
 74
     0
 49
0.125
 74
     0
 49
-0.125
 74
     0
  0
LTYPE
  5
86
330
5
100
AcDbSymbolTableRecord
100
AcDbLinetypeTableRecord
  2
Nascosto 1_5 mm
 70
     0
  3

 72
    65
 73
     2
 40
2.2
 49
1.5
 74
     0
 49
-0.7000000000000001
 74
     0
  0
ENDTAB
  0
TABLE
  2
LAYER
  5
2
330
0
100
AcDbSymbolTable
 70
     4
  0
LAYER
  5
54
330
2
100
AcDbSymbolTableRecord
100
AcDbLayerTableRecord
  2
0
 70
     0
 62
     7
  6
Continuous
370
    -3
390
F
347
21
348
0
  0
LAYER
  5
85
330
2
100
AcDbSymbolTableRecord
100
AcDbLayerTableRecord
  2
P-SANR-FIXT
 70
     0
 62
     6
  6
Continuous
370
    18
390
F
347
21
348
0
  0
LAYER
  5
88
330
2
100
AcDbSymbolTableRecord
100
AcDbLayerTableRecord
  2
M-PIPE
 70
     0
 62
     3
  6
Continuous
370
    18
390
F
347
21
348
0
  0
ENDTAB
  0
TABLE
  2
STYLE
  5
3
330
0
100
AcDbSymbolTable
 70
     2
  0
STYLE
  5
55
330
3
100
AcDbSymbolTableRecord
100
AcDbTextStyleTableRecord
  2
Standard
 70
     0
 40
0.0
 41
1.0
 50
0.0
 71
     0
 42
0.2
  3
txt
  4

  0
STYLE
  5
5A
330
3
100
AcDbSymbolTableRecord
100
AcDbTextStyleTableRecord
  2
Annotative
 70
     0
 40
0.0
 41
1.0
 50
0.0
 71
     0
 42
0.2
  3
txt
  4

1001
AcadAnnotative
1000
AnnotativeData
1002
{
1070
     1
1070
     1
1002
}
  0
ENDTAB
  0
TABLE
  2
VIEW
  5
6
330
0
100
AcDbSymbolTable
 70
     0
  0
ENDTAB
  0
TABLE
  2
UCS
  5
7
330
0
100
AcDbSymbolTable
 70
     0
  0
ENDTAB
  0
TABLE
  2
APPID
  5
9
330
0
100
AcDbSymbolTable
 70
     3
  0
APPID
  5
56
330
9
100
AcDbSymbolTableRecord
100
AcDbRegAppTableRecord
  2
ACAD
 70
     0
  0
APPID
  5
5E
330
9
100
AcDbSymbolTableRecord
100
AcDbRegAppTableRecord
  2
AcadAnnotative
 70
     0
  0
APPID
  5
79
330
9
100
AcDbSymbolTableRecord
100
AcDbRegAppTableRecord
  2
REVIT
 70
     0
  0
ENDTAB
  0
TABLE
  2
DIMSTYLE
  5
A
330
0
100
AcDbSymbolTable
 70
     2
100
AcDbDimStyleTable
 71
     0
  0
DIMSTYLE
105
58
330
A
100
AcDbSymbolTableRecord
100
AcDbDimStyleTableRecord
  2
Standard
 70
     0
340
55
  0
DIMSTYLE
105
59
330
A
100
AcDbSymbolTableRecord
100
AcDbDimStyleTableRecord
  2
Annotative
 70
     0
340
55
1001
AcadAnnotative
1000
AnnotativeData
1002
{
1070
     1
1070
     1
1002
}
  0
ENDTAB
  0
TABLE
  2
BLOCK_RECORD
  5
1
330
0
100
AcDbSymbolTable
 70
     4
  0
BLOCK_RECORD
  5
71
102
{ACAD_XDICTIONARY
360
313
102
}
330
1
100
AcDbSymbolTableRecord
100
AcDbBlockTableRecord
  2
*Model_Space
340
74
 70
     0
280
     1
281
     0
  0
BLOCK_RECORD
  5
6D
330
1
100
AcDbSymbolTableRecord
100
AcDbBlockTableRecord
  2
*Paper_Space
340
70
 70
     0
280
     1
281
     0
  0
BLOCK_RECORD
  5
75
330
1
100
AcDbSymbolTableRecord
100
AcDbBlockTableRecord
  2
*Paper_Space0
340
78
 70
     0
280
     1
281
     0
  0
BLOCK_RECORD
  5
87
330
1
100
AcDbSymbolTableRecord
100
AcDbBlockTableRecord
  2
Automatic flow rate regulator valve_Caleffi_121 DN15 - 1_2__-859151-Est - Idraulica
340
0
102
{BLKREFS
331
1BF
102
}
 70
     0
280
     1
281
     0
  0
BLOCK_RECORD
  5
1C0
330
1
100
AcDbSymbolTableRecord
100
AcDbBlockTableRecord
  2
Automatic flow rate regulator valve_Caleffi_121 DN15 - 1_2__-V1-Est - Idraulica
340
0
102
{BLKREFS
331
284
102
}
 70
     0
280
     1
281
     0
  0
BLOCK_RECORD
  5
285
330
1
100
AcDbSymbolTableRecord
100
AcDbBlockTableRecord
  2
Automatic flow rate regulator valve_Caleffi_121 DN15 - 1_2__-V2-Est - Idraulica
340
0
102
{BLKREFS
331
30C
102
}
 70
     0
280
     1
281
     0
  0
ENDTAB
  0
ENDSEC
  0
SECTION
  2
BLOCKS
  0
BLOCK
  5
72
330
71
100
AcDbEntity
  8
0
100
AcDbBlockBegin
  2
*Model_Space
 70
     0
 10
0.0
 20
0.0
 30
0.0
  3
*Model_Space
  1

  0
ENDBLK
  5
73
330
71
100
AcDbEntity
  8
0
100
AcDbBlockEnd
  0
BLOCK
  5
6E
330
6D
100
AcDbEntity
 67
     1
  8
0
100
AcDbBlockBegin
  2
*Paper_Space
 70
     0
 10
0.0
 20
0.0
 30
0.0
  3
*Paper_Space
  1

  0
ENDBLK
  5
6F
330
6D
100
AcDbEntity
 67
     1
  8
0
100
AcDbBlockEnd
  0
BLOCK
  5
76
330
75
100
AcDbEntity
 67
     1
  8
0
100
AcDbBlockBegin
  2
*Paper_Space0
 70
     0
 10
0.0
 20
0.0
 30
0.0
  3
*Paper_Space0
  1

  0
ENDBLK
  5
77
330
75
100
AcDbEntity
 67
     1
  8
0
100
AcDbBlockEnd
  0
BLOCK
  5
1BD
330
87
100
AcDbEntity
  8
0
100
AcDbBlockBegin
  2
Automatic flow rate regulator valve_Caleffi_121 DN15 - 1_2__-859151-Est - Idraulica
 70
     0
 10
0.0
 20
0.0
 30
0.0
  3
Automatic flow rate regulator valve_Caleffi_121 DN15 - 1_2__-859151-Est - Idraulica
  1

  0
LINE
  5
89
330
87
100
AcDbEntity
  8
M-PIPE
100
AcDbLine
 10
800.166407443198
 20
2035.230001211412
 30
0.0
 11
800.166407443198
 21
2028.230001211387
 31
0.0
1001
REVIT
1002
{
1070
     3
1000
924079
1002
}
  0
LINE
  5
8A
330
87
100
AcDbEntity
  8
M-PIPE
100
AcDbLine
 10
831.1664074431842
 20
2028.230001211386
 30
0.0
 11
831.1664074431842
 21
2035.230001211412
 31
0.0
1001
REVIT
1002
{
1070
     3
1000
924079
1002
}
  0
LWPOLYLINE
  5
8B
330
87
100
AcDbEntity
  8
M-PIPE
100
AcDbPolyline
 90
       30
 70
   128
 43
0.0
 10
827.8164074431911
 20
2040.295190446838
 10
828.0222206324198
 20
2040.197119042702
 10
828.2239473828949
 20
2040.090895752825
 10
828.4212649748491
 20
2039.976690511811
 10
828.6138577422269
 20
2039.854686023683
 10
828.8014175776849
 20
2039.725077469595
 10
828.9836444254971
 20
2039.588072195587
 10
829.1602467615799
 20
2039.44388938087
 10
829.3309420598685
 20
2039.29275968719
 10
829.4954572442989
 20
2039.134924889818
 10
829.6535291256709
 20
2038.97063749076
 10
829.8049048226944
 20
2038.800160314809
 10
829.9493421665456
 20
2038.623766089079
 10
830.0866100882865
 20
2038.441737006703
 10
830.2164889885242
 20
2038.254364275382
 10
830.3387710887243
 20
2038.061947651515
 10
830.4532607636122
 20
2037.864794960654
 10
830.5597748541313
 20
2037.663221605047
 10
830.6581429604582
 20
2037.457550059064
 10
830.7482077146071
 20
2037.248109353303
 10
830.8298250321842
 20
2037.035234548215
 10
830.9028643428918
 20
2036.819266198078
 10
830.9672087994142
 20
2036.60054980618
 10
831.0227554643468
 20
2036.379435272094
 10
831.0694154748746
 20
2036.156276331902
 10
831.1071141849351
 20
2035.931429992307
 10
831.1357912846338
 20
2035.705255959486
 10
831.1554008967284
 20
2035.478116063644
 10
831.1659116500232
 20
2035.25037368016
 10
831.1664074431842
 20
2035.230001211412
1001
REVIT
1002
{
1070
     3
1000
924079
1002
}
  0
LWPOLYLINE
  5
8C
330
87
100
AcDbEntity
  8
M-PIPE
100
AcDbPolyline
 90
       30
 70
   128
 43
0.0
 10
800.166407443198
 20
2035.230001211412
 10
800.1761039116134
 20
2035.457779717136
 10
800.1949013346742
 20
2035.684988269035
 10
800.2227696405133
 20
2035.911263381894
 10
800.2596642457868
 20
2036.136243063802
 10
800.305526126996
 20
2036.359567395261
 10
800.3602819149147
 20
2036.580879104981
 10
800.4238440119628
 20
2036.799824141436
 10
800.4961107323442
 20
2037.016052239275
 10
800.5769664647221
 20
2037.229217479667
 10
800.6662818571735
 20
2037.438978843699
 10
800.7639140241233
 20
2037.645000757938
 10
800.8697067749309
 20
2037.846953631267
 10
800.9834908637637
 20
2038.044514382172
 10
801.1050842603518
 20
2038.237366955595
 10
801.2342924411992
 20
2038.425202828558
 10
801.3709087007795
 20
2038.607721503734
 10
801.5147144822208
 20
2038.784630990178
 10
801.6654797269493
 20
2038.955648270449
 10
801.8229632427356
 20
2039.120499753383
 10
801.9869130895488
 20
2039.278921711771
 10
802.1570669826079
 20
2039.430660704276
 10
802.3331527119816
 20
2039.575473980879
 10
802.5148885780666
 20
2039.713129871229
 10
802.7019838422443
 20
2039.843408155267
 10
802.8941391920042
 20
2039.966100415529
 10
803.0910472197776
 20
2040.081010370573
 10
803.2923929147248
 20
2040.187954188982
 10
803.4978541666854
 20
2040.286760783461
 10
803.5164074431913
 20
2040.295190446838
1001
REVIT
1002
{
1070
     3
1000
924079
1002
}
  0
LINE
  5
8D
330
87
100
AcDbEntity
  8
M-PIPE
100
AcDbLine
 10
831.9664074431887
 20
2022.230001211402
 30
0.0
 11
831.9664074431891
 21
2028.230001211386
 31
0.0
1001
REVIT
1002
{
1070
     3
1000
924079
1002
}
  0
LINE
  5
8E
330
87
100
AcDbEntity
  8
M-PIPE
100
AcDbLine
 10
799.3664074431929
 20
2028.230001211387
 30
0.0
 11
799.3664074431929
 21
2022.230001211402
 31
0.0
1001
REVIT
1002
{
1070
     3
1000
924079
1002
}
  0
LWPOLYLINE
  5
8F
330
87
100
AcDbEntity
  8
M-PIPE
100
AcDbPolyline
 90
        4
 70
   128
 43
0.0
 10
803.5164074431911
 20
2040.295190446837
 10
803.9736965239372
 20
2046.397672977985
 10
804.6746540354995
 20
2052.476987488136
 10
805.3778376979906
 20
2057.124719737108
1001
REVIT
1002
{
1070
     3
1000
924079
1002
}
  0
LWPOLYLINE
  5
90
330
87
100
AcDbEntity
  8
M-PIPE
100
AcDbPolyline
 90
        4
 70
   128
 43
0.0
 10
825.9549771883921
 20
2057.124719737108
 10
826.8423568899965
 20
2051.069807383365
 10
827.4868948689038
 20
2044.984252590244
 10
827.8164074431915
 20
2040.295190446837
1001
REVIT
1002
{
1070
     3
1000
924079
1002
}
  0
LWPOLYLINE
  5
91
330
87
100
AcDbEntity
  8
M-PIPE
100
AcDbPolyline
 90
       37
 70
   128
 43
0.0
 10
805.3778376979908
 20
2057.12471973711
 10
805.3925932771551
 20
2057.203341741636
 10
805.4104810950434
 20
2057.281310791158
 10
805.4314725349629
 20
2057.35850215183
 10
805.4555340150876
 20
2057.434792333939
 10
805.4826270421823
 20
2057.510059289471
 10
805.5127082731829
 20
2057.584182607352
 10
805.5457295845373
 20
2057.657043706085
 10
805.5816381491906
 20
2057.728526023456
 10
805.6203765211005
 20
2057.798515203005
 10
805.6618827271348
 20
2057.866899276976
 10
805.7060903662186
 20
2057.933568845437
 10
805.7529287155597
 20
2057.998417251301
 10
805.8023228437907
 20
2058.061340750954
 10
805.8541937308435
 20
2058.122238680217
 10
805.9084583943633
 20
2058.181013615396
 10
805.9650300224653
 20
2058.237571529131
 10
806.023818112612
 20
2058.291821940826
 10
806.0847286163998
 20
2058.343678061395
 10
806.1476640900167
 20
2058.393056932107
 10
806.2125238501298
 20
2058.439879557303
 10
806.2792041349595
 20
2058.48407103077
 10
806.3475982702744
 20
2058.525560655578
 10
806.4175968400473
 20
2058.564282057179
 10
806.4890878614995
 20
2058.600173289589
 10
806.5619569642473
 20
2058.633176934492
 10
806.6360875732703
 20
2058.663240193099
 10
806.7113610954081
 20
2058.690314970608
 10
806.7876571090828
 20
2058.714357953149
 10
806.8648535569479
 20
2058.735330677082
 10
806.9428269411551
 20
2058.753199590521
 10
807.0214525209225
 20
2058.767936107017
 10
807.1006045120952
 20
2058.779516651285
 10
807.1801562883724
 20
2058.787922696927
 10
807.2599805838818
 20
2058.793140796063
 10
807.3399496967793
 20
2058.795162600846
 10
807.3505035203877
 20
2058.795190446838
1001
REVIT
1002
{
1070
     3
1000
924079
1002
}
  0
LWPOLYLINE
  5
92
330
87
100
AcDbEntity
  8
M-PIPE
100
AcDbPolyline
 90
       37
 70
   128
 43
0.0
 10
823.9982155055532
 20
2058.794872321629
 10
824.0622900343685
 20
2058.79359066016
 10
824.1421407539334
 20
2058.788793859443
 10
824.221735780573
 20
2058.780807718546
 10
824.3009477792234
 20
2058.769645013589
 10
824.3796500275852
 20
2058.75532360252
 10
824.4577166188493
 20
2058.737866396542
 10
824.5350226631234
 20
2058.71730132346
 10
824.6114444872272
 20
2058.693661283003
 10
824.6868598325454
 20
2058.666984094194
 10
824.7611480506124
 20
2058.637312434844
 10
824.834190296127
 20
2058.604693773278
 10
824.9058697170781
 20
2058.569180292397
 10
824.9760716416826
 20
2058.530828806194
 10
825.0446837618367
 20
2058.489700668865
 10
825.1115963127851
 20
2058.445861676657
 10
825.17670224872
 20
2058.399381962606
 10
825.2398974140319
 20
2058.35033588434
 10
825.301080709938
 20
2058.29880190512
 10
825.3601542562163
 20
2058.24486246832
 10
825.4170235477941
 20
2058.188603865533
 10
825.4715976059369
 20
2058.130116098521
 10
825.523789123793
 20
2058.069492735235
 10
825.5735146060679
 20
2058.006830760125
 10
825.620694502597
 20
2057.942230418983
 10
825.665253335611
 20
2057.875795058575
 10
825.7071198204819
 20
2057.807630961304
 10
825.7462269797649
 20
2057.737847175186
 10
825.7825122503481
 20
2057.666555339392
 10
825.8159175835384
 20
2057.593869505651
 10
825.8463895379295
 20
2057.519905955791
 10
825.8738793648941
 20
2057.444783015716
 10
825.8983430865734
 20
2057.368620866102
 10
825.9197415662315
 20
2057.291541350143
 10
825.9380405708657
 20
2057.213667778621
 10
825.9532108259721
 20
2057.135124732639
 10
825.9549771883921
 20
2057.124719737109
1001
REVIT
1002
{
1070
     3
1000
924079
1002
}
  0
LWPOLYLINE
  5
93
330
87
100
AcDbEntity
  8
M-PIPE
100
AcDbPolyline
 90
        5
 70
   128
 43
0.0
 10
807.3505035203877
 20
2058.795190446838
 10
807.3571553565436
 20
2058.795190446838
 10
807.377100223492
 20
2058.795190446838
 10
807.4103062137009
 20
2058.795190446838
 10
807.435400996963
 20
2058.795190446838
1001
REVIT
1002
{
1070
     3
1000
924079
1002
}
  0
LWPOLYLINE
  5
94
330
87
100
AcDbEntity
  8
M-PIPE
100
AcDbPolyline
 90
        5
 70
   128
 43
0.0
 10
823.8990899292172
 20
2058.795190446838
 10
823.9394337617158
 20
2058.795190446838
 10
823.9665425169226
 20
2058.795190446838
 10
823.9803728266128
 20
2058.795190446838
 10
823.9823113659952
 20
2058.795190446838
1001
REVIT
1002
{
1070
     3
1000
924079
1002
}
  0
LWPOLYLINE
  5
95
330
87
100
AcDbEntity
  8
M-PIPE
100
AcDbPolyline
 90
       80
 70
   128
 43
0.0
 10
823.9823113659952
 20
2058.795190446838
 10
823.9756595298393
 20
2058.795190446838
 10
823.9557146628907
 20
2058.795190446838
 10
823.922508672682
 20
2058.795190446838
 10
823.8760946817135
 20
2058.795190446838
 10
823.8165469424702
 20
2058.795190446838
 10
823.7439607186313
 20
2058.795190446838
 10
823.6584521326717
 20
2058.795190446838
 10
823.5601579800874
 20
2058.795190446838
 10
823.4492355105544
 20
2058.795190446838
 10
823.3258621763615
 20
2058.795190446838
 10
823.1902353485255
 20
2058.795190446838
 10
823.0425720010385
 20
2058.795190446838
 10
822.8831083637571
 20
2058.795190446838
 10
822.7120995444833
 20
2058.795190446838
 10
822.5298191208484
 20
2058.795190446838
 10
822.3365587026457
 20
2058.795190446838
 10
822.1326274653174
 20
2058.795190446838
 10
821.9183516553403
 20
2058.795190446838
 10
821.6940740683011
 20
2058.795190446838
 10
821.4601535004952
 20
2058.795190446838
 10
821.2169641749307
 20
2058.795190446838
 10
820.9648951426512
 20
2058.795190446838
 10
820.7043496603361
 20
2058.795190446838
 10
820.4357445451776
 20
2058.795190446838
 10
820.1595095080602
 20
2058.795190446838
 10
819.8760864661164
 20
2058.795190446838
 10
819.5859288357526
 20
2058.795190446838
 10
819.2895008072806
 20
2058.795190446838
 10
818.9872766023116
 20
2058.795190446838
 10
818.6797397151023
 20
2058.795190446838
 10
818.3673821390678
 20
2058.795190446838
 10
818.0507035796972
 20
2058.795190446838
 10
817.730210655131
 20
2058.795190446838
 10
817.4064160856801
 20
2058.795190446838
 10
817.0798378735831
 20
2058.795190446838
 10
816.7509984743135
 20
2058.795190446838
 10
816.4204239607611
 20
2058.795190446838
 10
816.0886431816289
 20
2058.795190446838
 10
815.7561869153873
 20
2058.795190446838
 10
815.4235870211422
 20
2058.795190446838
 10
815.0913755877732
 20
2058.795190446838
 10
814.7600840827063
 20
2058.795190446838
 10
814.4302425016773
 20
2058.795190446838
 10
814.1023785208535
 20
2058.795190446838
 10
813.7770166526641
 20
2058.795190446838
 10
813.4546774066906
 20
2058.795190446838
 10
813.1358764569652
 20
2058.795190446838
 10
812.8211238169999
 20
2058.795190446838
 10
812.5109230238749
 20
2058.795190446838
 10
812.2057703326866
 20
2058.795190446838
 10
811.9061539226455
 20
2058.795190446838
 10
811.6125531160927
 20
2058.795190446838
 10
811.3254376116866
 20
2058.795190446838
 10
811.0452667329873
 20
2058.795190446838
 10
810.7724886936333
 20
2058.795190446838
 10
810.5075398802984
 20
2058.795190446838
 10
810.2508441545642
 20
2058.795190446838
 10
810.0028121748335
 20
2058.795190446838
 10
809.7638407393628
 20
2058.795190446838
 10
809.5343121514712
 20
2058.795190446838
 10
809.3145936079357
 20
2058.795190446838
 10
809.1050366115554
 20
2058.795190446838
 10
808.905976408821
 20
2058.795190446838
 10
808.7177314535935
 20
2058.795190446838
 10
808.5406028976443
 20
2058.795190446838
 10
808.3748741088772
 20
2058.795190446838
 10
808.2208102180009
 20
2058.795190446838
 10
808.0786576943754
 20
2058.795190446838
 10
807.9486439517147
 20
2058.795190446838
 10
807.8309769842718
 20
2058.795190446838
 10
807.7258450340936
 20
2058.795190446838
 10
807.633416289874
 20
2058.795190446838
 10
807.5538386178861
 20
2058.795190446838
 10
807.4872393254297
 20
2058.795190446838
 10
807.4337249571655
 20
2058.795190446838
 10
807.3933811246671
 20
2058.795190446838
 10
807.3662723694603
 20
2058.795190446838
 10
807.3524420597703
 20
2058.795190446838
 10
807.3505035203877
 20
2058.795190446838
1001
REVIT
1002
{
1070
     3
1000
924079
1002
}
  0
LINE
  5
96
330
87
100
AcDbEntity
  8
M-PIPE
100
AcDbLine
 10
831.1167967700724
 20
2030.730001211386
 30
0.0
 11
824.464729422303
 21
2030.730001211386
 31
0.0
1001
REVIT
1002
{
1070
     3
1000
924079
1002
}
  0
LINE
  5
97
330
87
100
AcDbEntity
  8
M-PIPE
100
AcDbLine
 10
824.4647294223018
 20
2030.730001211386
 30
0.0
 11
824.4647294223019
 21
2035.230001211387
 31
0.0
1001
REVIT
1002
{
1070
     3
1000
924079
1002
}
  0
LINE
  5
98
330
87
100
AcDbEntity
  8
M-PIPE
100
AcDbLine
 10
824.4647294223019
 20
2035.230001211411
 30
0.0
 11
822.3184747909639
 21
2035.230001211411
 31
0.0
1001
REVIT
1002
{
1070
     3
1000
924079
1002
}
  0
LINE
  5
99
330
87
100
AcDbEntity
  8
M-PIPE
100
AcDbLine
 10
822.3184747909639
 20
2035.230001211387
 30
0.0
 11
822.3184747909639
 21
2030.730001211386
 31
0.0
1001
REVIT
1002
{
1070
     3
1000
924079
1002
}
  0
LINE
  5
9A
330
87
100
AcDbEntity
  8
M-PIPE
100
AcDbLine
 10
822.3184747909625
 20
2030.730001211386
 30
0.0
 11
809.0143400954158
 21
2030.730001211386
 31
0.0
1001
REVIT
1002
{
1070
     3
1000
924079
1002
}
  0
LINE
  5
9B
330
87
100
AcDbEntity
  8
M-PIPE
100
AcDbLine
 10
809.0143400954147
 20
2030.730001211386
 30
0.0
 11
809.0143400954147
 21
2035.230001211388
 31
0.0
1001
REVIT
1002
{
1070
     3
1000
924079
1002
}
  0
LINE
  5
9C
330
87
100
AcDbEntity
  8
M-PIPE
100
AcDbLine
 10
809.0143400954147
 20
2035.230001211411
 30
0.0
 11
806.8680854641153
 21
2035.230001211411
 31
0.0
1001
REVIT
1002
{
1070
     3
1000
924079
1002
}
  0
LINE
  5
9D
330
87
100
AcDbEntity
  8
M-PIPE
100
AcDbLine
 10
806.8680854641153
 20
2035.230001211388
 30
0.0
 11
806.8680854641153
 21
2030.730001211386
 31
0.0
1001
REVIT
1002
{
1070
     3
1000
924079
1002
}
  0
LINE
  5
9E
330
87
100
AcDbEntity
  8
M-PIPE
100
AcDbLine
 10
806.8680854641153
 20
2030.730001211386
 30
0.0
 11
800.2160181163024
 21
2030.730001211386
 31
0.0
1001
REVIT
1002
{
1070
     3
1000
924079
1002
}
  0
LINE
  5
9F
330
87
100
AcDbEntity
  8
M-PIPE
100
AcDbLine
 10
800.2160181163024
 20
2030.730001211386
 30
0.0
 11
800.2160181163024
 21
2035.230001211388
 31
0.0
1001
REVIT
1002
{
1070
     3
1000
924079
1002
}
  0
LINE
  5
A0
330
87
100
AcDbEntity
  8
M-PIPE
100
AcDbLine
 10
800.2160181163024
 20
2035.230001211411
 30
0.0
 11
800.1664074431964
 21
2035.230001211411
 31
0.0
1001
REVIT
1002
{
1070
     3
1000
924079
1002
}
  0
LINE
  5
A1
330
87
100
AcDbEntity
  8
M-PIPE
100
AcDbLine
 10
831.1664074431824
 20
2035.230001211411
 30
0.0
 11
831.1167967700724
 21
2035.230001211411
 31
0.0
1001
REVIT
1002
{
1070
     3
1000
924079
1002
}
  0
LINE
  5
A2
330
87
100
AcDbEntity
  8
M-PIPE
100
AcDbLine
 10
831.1167967700724
 20
2035.230001211387
 30
0.0
 11
831.1167967700724
 21
2030.730001211386
 31
0.0
1001
REVIT
1002
{
1070
     3
1000
924079
1002
}
  0
SPLINE
  5
A3
330
87
100
AcDbEntity
  8
M-PIPE
100
AcDbSpline
210
0.0
220
0.0
230
1.0
 70
     8
 71
     3
 72
    42
 73
    38
 74
     0
 42
0.000000001
 43
0.0000000001
 40
0.0476190476190476
 40
0.0476190476190476
 40
0.0476190476190476
 40
0.0476190476190476
 40
0.0714285714285714
 40
0.1071428571428571
 40
0.125
 40
0.1428571428571428
 40
0.1607142857142857
 40
0.1785714285714286
 40
0.2142857142857143
 40
0.25
 40
0.2678571428571428
 40
0.2857142857142857
 40
0.3035714285714286
 40
0.3214285714285714
 40
0.3571428571428571
 40
0.3928571428571428
 40
0.4285714285714286
 40
0.4642857142857144
 40
0.5
 40
0.5357142857142857
 40
0.5714285714285714
 40
0.6071428571428572
 40
0.6428571428571428
 40
0.6785714285714287
 40
0.6964285714285714
 40
0.7142857142857144
 40
0.7321428571428572
 40
0.75
 40
0.7857142857142857
 40
0.8214285714285713
 40
0.8392857142857142
 40
0.8571428571428571
 40
0.875
 40
0.8928571428571427
 40
0.9285714285714286
 40
0.9642857142857142
 40
1.0
 40
1.0
 40
1.0
 40
1.0
 10
830.9908139345001
 20
2036.015659585943
 30
0.0
 10
830.9652935592669
 20
2036.138149025807
 30
0.0
 10
830.8958452404281
 20
2036.433810292317
 30
0.0
 10
830.7872826967967
 20
2036.783894672293
 30
0.0
 10
830.6715455781612
 20
2037.078335602743
 30
0.0
 10
830.5778436505704
 20
2037.285417838003
 30
0.0
 10
830.4737262175008
 20
2037.476274234585
 30
0.0
 10
830.3191220342441
 20
2037.707782692415
 30
0.0
 10
830.1036039485378
 20
2037.959255245155
 30
0.0
 10
829.8719824707447
 20
2038.16978940863
 30
0.0
 10
829.6850165922407
 20
2038.319189436554
 30
0.0
 10
829.5471982190928
 20
2038.424248954219
 30
0.0
 10
829.409126394197
 20
2038.519465543029
 30
0.0
 10
829.219323151902
 20
2038.628975746265
 30
0.0
 10
828.9762058848912
 20
2038.738680083303
 30
0.0
 10
828.6796911247034
 20
2038.83426260266
 30
0.0
 10
828.3858234458502
 20
2038.904716657058
 30
0.0
 10
828.095680886666
 20
2038.951764912011
 30
0.0
 10
827.8043662747299
 20
2038.967760142702
 30
0.0
 10
827.5123917271047
 20
2038.954669217919
 30
0.0
 10
827.2207236191155
 20
2038.909546681962
 30
0.0
 10
826.923102003556
 20
2038.839482283477
 30
0.0
 10
826.6208533336657
 20
2038.743597574917
 30
0.0
 10
826.3729344342591
 20
2038.633390792845
 30
0.0
 10
826.1799962323346
 20
2038.52357982347
 30
0.0
 10
826.0401811357597
 20
2038.428259715953
 30
0.0
 10
825.9012259758204
 20
2038.323226653765
 30
0.0
 10
825.7131832030847
 20
2038.17392514205
 30
0.0
 10
825.4809588209637
 20
2037.963593804409
 30
0.0
 10
825.2652524463524
 20
2037.712226447864
 30
0.0
 10
825.1104421903697
 20
2037.480634042645
 30
0.0
 10
825.0060274699004
 20
2037.289589482535
 30
0.0
 10
824.9119408785713
 20
2037.082213703712
 30
0.0
 10
824.7957554059611
 20
2036.787305777939
 30
0.0
 10
824.6699681153494
 20
2036.382606871653
 30
0.0
 10
824.5494822422076
 20
2035.839753269552
 30
0.0
 10
824.4895828628687
 20
2035.439618958331
 30
0.0
 10
824.4647294223025
 20
2035.230001211387
 30
0.0
1001
REVIT
1002
{
1070
     3
1000
924079
1002
}
  0
SPLINE
  5
A4
330
87
100
AcDbEntity
  8
M-PIPE
100
AcDbSpline
210
0.0
220
0.0
230
1.0
 70
     8
 71
     3
 72
    43
 73
    39
 74
     0
 42
0.000000001
 43
0.0000000001
 40
0.0
 40
0.0
 40
0.0
 40
0.0
 40
0.0357142857142857
 40
0.0714285714285714
 40
0.1071428571428571
 40
0.125
 40
0.1428571428571428
 40
0.1607142857142857
 40
0.1785714285714286
 40
0.2142857142857143
 40
0.25
 40
0.2678571428571428
 40
0.2857142857142857
 40
0.3035714285714286
 40
0.3214285714285714
 40
0.3571428571428571
 40
0.3928571428571428
 40
0.4285714285714286
 40
0.4642857142857144
 40
0.5
 40
0.5357142857142857
 40
0.5714285714285714
 40
0.6071428571428572
 40
0.6428571428571428
 40
0.6785714285714287
 40
0.6964285714285714
 40
0.7142857142857144
 40
0.7321428571428572
 40
0.75
 40
0.7857142857142857
 40
0.8214285714285713
 40
0.8392857142857142
 40
0.8571428571428571
 40
0.875
 40
0.8928571428571427
 40
0.9285714285714286
 40
0.9642857142857142
 40
1.0
 40
1.0
 40
1.0
 40
1.0
 10
822.3184747909639
 20
2035.230001211387
 30
0.0
 10
822.2690485113481
 20
2035.439094629137
 30
0.0
 10
822.1498653813949
 20
2035.838269264962
 30
0.0
 10
821.909975591253
 20
2036.379951156937
 30
0.0
 10
821.6594466444112
 20
2036.783894672294
 30
0.0
 10
821.4279724071401
 20
2037.078335602744
 30
0.0
 10
821.2405685519584
 20
2037.285417838004
 30
0.0
 10
821.0323336858191
 20
2037.476274234586
 30
0.0
 10
820.7231253193054
 20
2037.707782692417
 30
0.0
 10
820.292089147893
 20
2037.959255245156
 30
0.0
 10
819.8288461923063
 20
2038.169789408632
 30
0.0
 10
819.4549144352977
 20
2038.319189436556
 30
0.0
 10
819.1792776890022
 20
2038.424248954221
 30
0.0
 10
818.9031340392102
 20
2038.519465543031
 30
0.0
 10
818.5235275546199
 20
2038.628975746267
 30
0.0
 10
818.0372930205978
 20
2038.738680083305
 30
0.0
 10
817.4442635002222
 20
2038.834262602663
 30
0.0
 10
816.8565281425156
 20
2038.90471665706
 30
0.0
 10
816.2762430241466
 20
2038.951764912014
 30
0.0
 10
815.6936138002738
 20
2038.967760142705
 30
0.0
 10
815.1096647050232
 20
2038.954669217921
 30
0.0
 10
814.5263284890445
 20
2038.909546681964
 30
0.0
 10
813.9310852579253
 20
2038.83948228348
 30
0.0
 10
813.3265879181438
 20
2038.743597574919
 30
0.0
 10
812.8307501193305
 20
2038.633390792847
 30
0.0
 10
812.4448737154812
 20
2038.523579823472
 30
0.0
 10
812.1652435223314
 20
2038.428259715955
 30
0.0
 10
811.8873332024525
 20
2038.323226653767
 30
0.0
 10
811.5112476569805
 20
2038.173925142052
 30
0.0
 10
811.046798892738
 20
2037.96359380441
 30
0.0
 10
810.6153861435151
 20
2037.712226447866
 30
0.0
 10
810.3057656315497
 20
2037.480634042646
 30
0.0
 10
810.0969361906109
 20
2037.289589482536
 30
0.0
 10
809.9087630079527
 20
2037.082213703714
 30
0.0
 10
809.6763920627322
 20
2036.78730577794
 30
0.0
 10
809.4248174815083
 20
2036.382606871654
 30
0.0
 10
809.1838457352249
 20
2035.839753269552
 30
0.0
 10
809.0640469765471
 20
2035.439618958332
 30
0.0
 10
809.0143400954147
 20
2035.230001211388
 30
0.0
1001
REVIT
1002
{
1070
     3
1000
924079
1002
}
  0
SPLINE
  5
A5
330
87
100
AcDbEntity
  8
M-PIPE
100
AcDbSpline
210
0.0
220
0.0
230
1.0
 70
     8
 71
     3
 72
    42
 73
    38
 74
     0
 42
0.000000001
 43
0.0000000001
 40
0.0
 40
0.0
 40
0.0
 40
0.0
 40
0.0357142857142857
 40
0.0714285714285714
 40
0.1071428571428571
 40
0.125
 40
0.1428571428571428
 40
0.1607142857142857
 40
0.1785714285714286
 40
0.2142857142857143
 40
0.25
 40
0.2678571428571428
 40
0.2857142857142857
 40
0.3035714285714286
 40
0.3214285714285714
 40
0.3571428571428571
 40
0.3928571428571428
 40
0.4285714285714286
 40
0.4642857142857144
 40
0.5
 40
0.5357142857142857
 40
0.5714285714285714
 40
0.6071428571428572
 40
0.6428571428571428
 40
0.6785714285714287
 40
0.6964285714285714
 40
0.7142857142857144
 40
0.7321428571428572
 40
0.75
 40
0.7857142857142857
 40
0.8214285714285713
 40
0.8392857142857142
 40
0.8571428571428571
 40
0.875
 40
0.8928571428571427
 40
0.9285714285714286
 40
0.9523809523809527
 40
0.9523809523809527
 40
0.9523809523809527
 40
0.9523809523809527
 10
806.8680854641154
 20
2035.230001211388
 30
0.0
 10
806.8433723243074
 20
2035.439094629138
 30
0.0
 10
806.7837807593305
 20
2035.838269264965
 30
0.0
 10
806.6638358642592
 20
2036.379951156944
 30
0.0
 10
806.5385713908375
 20
2036.783894672304
 30
0.0
 10
806.4228342722016
 20
2037.078335602755
 30
0.0
 10
806.3291323446103
 20
2037.285417838017
 30
0.0
 10
806.2250149115399
 20
2037.476274234599
 30
0.0
 10
806.0704107282822
 20
2037.707782692432
 30
0.0
 10
805.8548926425748
 20
2037.959255245172
 30
0.0
 10
805.6232711647799
 20
2038.169789408649
 30
0.0
 10
805.4363052862747
 20
2038.319189436574
 30
0.0
 10
805.2984869131259
 20
2038.424248954239
 30
0.0
 10
805.160415088229
 20
2038.519465543049
 30
0.0
 10
804.9706118459328
 20
2038.628975746286
 30
0.0
 10
804.7274945789201
 20
2038.738680083325
 30
0.0
 10
804.4309798187304
 20
2038.834262602683
 30
0.0
 10
804.1371121398752
 20
2038.90471665708
 30
0.0
 10
803.8469695806892
 20
2038.951764912035
 30
0.0
 10
803.5556549687511
 20
2038.967760142726
 30
0.0
 10
803.2636804211241
 20
2038.954669217942
 30
0.0
 10
802.9720123131331
 20
2038.909546681985
 30
0.0
 10
802.6743906975717
 20
2038.839482283499
 30
0.0
 10
802.3721420276793
 20
2038.743597574939
 30
0.0
 10
802.1242231282711
 20
2038.633390792866
 30
0.0
 10
801.9312849263453
 20
2038.523579823491
 30
0.0
 10
801.7914698297696
 20
2038.428259715973
 30
0.0
 10
801.6525146698292
 20
2038.323226653785
 30
0.0
 10
801.464471897092
 20
2038.173925142069
 30
0.0
 10
801.2322475149693
 20
2037.963593804426
 30
0.0
 10
801.0165411403564
 20
2037.71222644788
 30
0.0
 10
800.8617308843726
 20
2037.480634042659
 30
0.0
 10
800.7573161639026
 20
2037.289589482548
 30
0.0
 10
800.6632295725731
 20
2037.082213703724
 30
0.0
 10
800.5470440999623
 20
2036.787305777949
 30
0.0
 10
800.438028448098
 20
2036.436566725833
 30
0.0
 10
800.3682715856493
 20
2036.140279068604
 30
0.0
 10
800.3426338402714
 20
2036.017519298452
 30
0.0
1001
REVIT
1002
{
1070
     3
1000
924079
1002
}
  0
LINE
  5
A6
330
87
100
AcDbEntity
  8
M-PIPE
100
AcDbLine
 10
827.8164074431893
 20
2040.295190446837
 30
0.0
 11
803.5164074431895
 21
2040.295190446837
 31
0.0
1001
REVIT
1002
{
1070
     3
1000
924079
1002
}
  0
LINE
  5
A7
330
87
100
AcDbEntity
  8
M-PIPE
100
AcDbLine
 10
831.9664074431871
 20
2022.230001211401
 30
0.0
 11
799.3664074431912
 21
2022.230001211401
 31
0.0
1001
REVIT
1002
{
1070
     3
1000
924079
1002
}
  0
LINE
  5
A8
330
87
100
AcDbEntity
  8
M-PIPE
100
AcDbLine
 10
831.9664074431871
 20
2028.230001211385
 30
0.0
 11
799.3664074431912
 21
2028.230001211386
 31
0.0
1001
REVIT
1002
{
1070
     3
1000
924079
1002
}
  0
LINE
  5
A9
330
87
100
AcDbEntity
  8
M-PIPE
100
AcDbLine
 10
836.4164074431741
 20
1967.099999999998
 30
0.0
 11
836.4164074431741
 21
1978.099999999997
 31
0.0
1001
REVIT
1002
{
1070
     3
1000
790271
1002
}
  0
LINE
  5
AA
330
87
100
AcDbEntity
  8
M-PIPE
100
AcDbLine
 10
794.9164074431741
 20
1978.099999999997
 30
0.0
 11
794.9164074431741
 21
1967.099999999998
 31
0.0
1001
REVIT
1002
{
1070
     3
1000
790271
1002
}
  0
LINE
  5
AB
330
87
100
AcDbEntity
  8
M-PIPE
100
AcDbLine
 10
835.5664074431741
 20
1963.799999999997
 30
0.0
 11
835.5664074431741
 21
1967.099999999998
 31
0.0
1001
REVIT
1002
{
1070
     3
1000
790271
1002
}
  0
LINE
  5
AC
330
87
100
AcDbEntity
  8
M-PIPE
100
AcDbLine
 10
795.7664074431741
 20
1967.099999999998
 30
0.0
 11
795.7664074431741
 21
1963.799999999997
 31
0.0
1001
REVIT
1002
{
1070
     3
1000
790271
1002
}
  0
LINE
  5
AD
330
87
100
AcDbEntity
  8
M-PIPE
100
AcDbLine
 10
836.4164074431723
 20
1967.099999999996
 30
0.0
 11
835.7510835672981
 21
1967.099999999996
 31
0.0
1001
REVIT
1002
{
1070
     3
1000
790271
1002
}
  0
LINE
  5
AE
330
87
100
AcDbEntity
  8
M-PIPE
100
AcDbLine
 10
835.7510835672981
 20
1967.099999999996
 30
0.0
 11
830.2227474704245
 21
1967.099999999996
 31
0.0
1001
REVIT
1002
{
1070
     3
1000
790271
1002
}
  0
LINE
  5
AF
330
87
100
AcDbEntity
  8
M-PIPE
100
AcDbLine
 10
830.2227474704245
 20
1967.099999999996
 30
0.0
 11
821.1947435400471
 21
1967.099999999996
 31
0.0
1001
REVIT
1002
{
1070
     3
1000
790271
1002
}
  0
LINE
  5
B0
330
87
100
AcDbEntity
  8
M-PIPE
100
AcDbLine
 10
821.1947435400471
 20
1967.099999999996
 30
0.0
 11
810.1380713462985
 21
1967.099999999996
 31
0.0
1001
REVIT
1002
{
1070
     3
1000
790271
1002
}
  0
LINE
  5
B1
330
87
100
AcDbEntity
  8
M-PIPE
100
AcDbLine
 10
810.1380713462985
 20
1967.099999999996
 30
0.0
 11
801.1100674159216
 21
1967.099999999996
 31
0.0
1001
REVIT
1002
{
1070
     3
1000
790271
1002
}
  0
LINE
  5
B2
330
87
100
AcDbEntity
  8
M-PIPE
100
AcDbLine
 10
801.1100674159214
 20
1967.099999999996
 30
0.0
 11
795.5817313190465
 21
1967.099999999996
 31
0.0
1001
REVIT
1002
{
1070
     3
1000
790271
1002
}
  0
LINE
  5
B3
330
87
100
AcDbEntity
  8
M-PIPE
100
AcDbLine
 10
795.5817313190465
 20
1967.099999999996
 30
0.0
 11
794.9164074431723
 21
1967.099999999996
 31
0.0
1001
REVIT
1002
{
1070
     3
1000
790271
1002
}
  0
LINE
  5
B4
330
87
100
AcDbEntity
  8
M-PIPE
100
AcDbLine
 10
794.9164074431723
 20
1978.099999999997
 30
0.0
 11
795.5817313190465
 21
1978.099999999997
 31
0.0
1001
REVIT
1002
{
1070
     3
1000
790271
1002
}
  0
LINE
  5
B5
330
87
100
AcDbEntity
  8
M-PIPE
100
AcDbLine
 10
795.5817313190465
 20
1978.099999999997
 30
0.0
 11
796.7423324270165
 21
1978.099999999997
 31
0.0
1001
REVIT
1002
{
1070
     3
1000
790271
1002
}
  0
LINE
  5
B6
330
87
100
AcDbEntity
  8
M-PIPE
100
AcDbLine
 10
800.0080814055921
 20
1978.099999999997
 30
0.0
 11
801.1100674159214
 21
1978.099999999997
 31
0.0
1001
REVIT
1002
{
1070
     3
1000
790271
1002
}
  0
LINE
  5
B7
330
87
100
AcDbEntity
  8
M-PIPE
100
AcDbLine
 10
801.1100674159214
 20
1978.099999999997
 30
0.0
 11
810.1380713462985
 21
1978.099999999997
 31
0.0
1001
REVIT
1002
{
1070
     3
1000
790271
1002
}
  0
LINE
  5
B8
330
87
100
AcDbEntity
  8
M-PIPE
100
AcDbLine
 10
810.1380713462985
 20
1978.099999999997
 30
0.0
 11
812.6960714712476
 21
1978.099999999997
 31
0.0
1001
REVIT
1002
{
1070
     3
1000
790271
1002
}
  0
LINE
  5
B9
330
87
100
AcDbEntity
  8
M-PIPE
100
AcDbLine
 10
819.0816767846651
 20
1978.099999999997
 30
0.0
 11
821.1947435400471
 21
1978.099999999997
 31
0.0
1001
REVIT
1002
{
1070
     3
1000
790271
1002
}
  0
LINE
  5
BA
330
87
100
AcDbEntity
  8
M-PIPE
100
AcDbLine
 10
821.1947435400469
 20
1978.099999999997
 30
0.0
 11
830.2227474704244
 21
1978.099999999997
 31
0.0
1001
REVIT
1002
{
1070
     3
1000
790271
1002
}
  0
LINE
  5
BB
330
87
100
AcDbEntity
  8
M-PIPE
100
AcDbLine
 10
830.2227474704245
 20
1978.099999999997
 30
0.0
 11
831.3247334806941
 21
1978.099999999997
 31
0.0
1001
REVIT
1002
{
1070
     3
1000
790271
1002
}
  0
LINE
  5
BC
330
87
100
AcDbEntity
  8
M-PIPE
100
AcDbLine
 10
834.5904824594171
 20
1978.099999999997
 30
0.0
 11
835.7510835672981
 21
1978.099999999997
 31
0.0
1001
REVIT
1002
{
1070
     3
1000
790271
1002
}
  0
LINE
  5
BD
330
87
100
AcDbEntity
  8
M-PIPE
100
AcDbLine
 10
835.7510835672981
 20
1978.099999999997
 30
0.0
 11
836.4164074431723
 21
1978.099999999997
 31
0.0
1001
REVIT
1002
{
1070
     3
1000
790271
1002
}
  0
LINE
  5
BE
330
87
100
AcDbEntity
  8
M-PIPE
100
AcDbLine
 10
835.7510835672981
 20
1978.099999999997
 30
0.0
 11
835.7510835672981
 21
1967.099999999996
 31
0.0
1001
REVIT
1002
{
1070
     3
1000
790271
1002
}
  0
LINE
  5
BF
330
87
100
AcDbEntity
  8
M-PIPE
100
AcDbLine
 10
830.2227474704245
 20
1978.099999999997
 30
0.0
 11
830.2227474704245
 21
1967.099999999996
 31
0.0
1001
REVIT
1002
{
1070
     3
1000
790271
1002
}
  0
LINE
  5
C0
330
87
100
AcDbEntity
  8
M-PIPE
100
AcDbLine
 10
821.1947435400471
 20
1978.099999999997
 30
0.0
 11
821.1947435400471
 21
1967.099999999996
 31
0.0
1001
REVIT
1002
{
1070
     3
1000
790271
1002
}
  0
LINE
  5
C1
330
87
100
AcDbEntity
  8
M-PIPE
100
AcDbLine
 10
810.1380713462985
 20
1978.099999999997
 30
0.0
 11
810.1380713462985
 21
1967.099999999996
 31
0.0
1001
REVIT
1002
{
1070
     3
1000
790271
1002
}
  0
LINE
  5
C2
330
87
100
AcDbEntity
  8
M-PIPE
100
AcDbLine
 10
801.1100674159214
 20
1978.099999999997
 30
0.0
 11
801.1100674159214
 21
1967.099999999996
 31
0.0
1001
REVIT
1002
{
1070
     3
1000
790271
1002
}
  0
LINE
  5
C3
330
87
100
AcDbEntity
  8
M-PIPE
100
AcDbLine
 10
795.5817313190465
 20
1978.099999999997
 30
0.0
 11
795.5817313190465
 21
1967.099999999996
 31
0.0
1001
REVIT
1002
{
1070
     3
1000
790271
1002
}
  0
LINE
  5
C4
330
87
100
AcDbEntity
  8
M-PIPE
100
AcDbLine
 10
835.5664074431725
 20
1963.799999999997
 30
0.0
 11
835.0793525535742
 21
1963.799999999997
 31
0.0
1001
REVIT
1002
{
1070
     3
1000
790271
1002
}
  0
LINE
  5
C5
330
87
100
AcDbEntity
  8
M-PIPE
100
AcDbLine
 10
835.0793525535742
 20
1963.799999999997
 30
0.0
 11
829.1624276765796
 21
1963.799999999997
 31
0.0
1001
REVIT
1002
{
1070
     3
1000
790271
1002
}
  0
LINE
  5
C6
330
87
100
AcDbEntity
  8
M-PIPE
100
AcDbLine
 10
829.1624276765796
 20
1963.799999999997
 30
0.0
 11
821.5833323201676
 21
1963.799999999997
 31
0.0
1001
REVIT
1002
{
1070
     3
1000
790271
1002
}
  0
LINE
  5
C7
330
87
100
AcDbEntity
  8
M-PIPE
100
AcDbLine
 10
821.5833323201676
 20
1963.799999999997
 30
0.0
 11
809.7494825661781
 21
1963.799999999997
 31
0.0
1001
REVIT
1002
{
1070
     3
1000
790271
1002
}
  0
LINE
  5
C8
330
87
100
AcDbEntity
  8
M-PIPE
100
AcDbLine
 10
809.7494825661783
 20
1963.799999999997
 30
0.0
 11
802.170387209766
 21
1963.799999999997
 31
0.0
1001
REVIT
1002
{
1070
     3
1000
790271
1002
}
  0
LINE
  5
C9
330
87
100
AcDbEntity
  8
M-PIPE
100
AcDbLine
 10
802.170387209766
 20
1963.799999999997
 30
0.0
 11
796.2534623327708
 21
1963.799999999997
 31
0.0
1001
REVIT
1002
{
1070
     3
1000
790271
1002
}
  0
LINE
  5
CA
330
87
100
AcDbEntity
  8
M-PIPE
100
AcDbLine
 10
796.2534623327708
 20
1963.799999999997
 30
0.0
 11
795.7664074431724
 21
1963.799999999997
 31
0.0
1001
REVIT
1002
{
1070
     3
1000
790271
1002
}
  0
LINE
  5
CB
330
87
100
AcDbEntity
  8
M-PIPE
100
AcDbLine
 10
835.0793525535742
 20
1967.099999999996
 30
0.0
 11
835.0793525535742
 21
1963.799999999997
 31
0.0
1001
REVIT
1002
{
1070
     3
1000
790271
1002
}
  0
LINE
  5
CC
330
87
100
AcDbEntity
  8
M-PIPE
100
AcDbLine
 10
829.1624276765796
 20
1967.099999999996
 30
0.0
 11
829.1624276765796
 21
1963.799999999997
 31
0.0
1001
REVIT
1002
{
1070
     3
1000
790271
1002
}
  0
LINE
  5
CD
330
87
100
AcDbEntity
  8
M-PIPE
100
AcDbLine
 10
821.5833323201676
 20
1967.099999999996
 30
0.0
 11
821.5833323201676
 21
1963.799999999997
 31
0.0
1001
REVIT
1002
{
1070
     3
1000
790271
1002
}
  0
LINE
  5
CE
330
87
100
AcDbEntity
  8
M-PIPE
100
AcDbLine
 10
809.7494825661783
 20
1967.099999999996
 30
0.0
 11
809.7494825661783
 21
1963.799999999997
 31
0.0
1001
REVIT
1002
{
1070
     3
1000
790271
1002
}
  0
LINE
  5
CF
330
87
100
AcDbEntity
  8
M-PIPE
100
AcDbLine
 10
802.170387209766
 20
1967.099999999996
 30
0.0
 11
802.170387209766
 21
1963.799999999997
 31
0.0
1001
REVIT
1002
{
1070
     3
1000
790271
1002
}
  0
LINE
  5
D0
330
87
100
AcDbEntity
  8
M-PIPE
100
AcDbLine
 10
796.2534623327708
 20
1967.099999999996
 30
0.0
 11
796.2534623327708
 21
1963.799999999997
 31
0.0
1001
REVIT
1002
{
1070
     3
1000
790271
1002
}
  0
LINE
  5
D1
330
87
100
AcDbEntity
  8
P-SANR-FIXT
100
AcDbLine
 10
802.166407443191
 20
2015.249999999996
 30
0.0
 11
793.6664074431909
 21
2015.249999999996
 31
0.0
  0
LINE
  5
D2
330
87
100
AcDbEntity
  8
P-SANR-FIXT
100
AcDbLine
 10
793.6664074431909
 20
1984.749999999996
 30
0.0
 11
795.3909335873587
 21
1984.749999999996
 31
0.0
  0
LINE
  5
D3
330
87
100
AcDbEntity
  8
P-SANR-FIXT
100
AcDbLine
 10
793.6664074431909
 20
2016.549999999996
 30
0.0
 11
791.1664074431635
 21
2016.549999999996
 31
0.0
  0
LINE
  5
D4
330
87
100
AcDbEntity
  8
P-SANR-FIXT
100
AcDbLine
 10
791.1664074431635
 20
1983.449999999996
 30
0.0
 11
793.6664074431909
 21
1983.449999999996
 31
0.0
  0
LINE
  5
D5
330
87
100
AcDbEntity
  8
P-SANR-FIXT
100
AcDbLine
 10
835.9418812990233
 20
1978.099999999997
 30
0.0
 11
835.9418812990233
 21
1984.749999999996
 31
0.0
  0
LINE
  5
D6
330
87
100
AcDbEntity
  8
P-SANR-FIXT
100
AcDbLine
 10
795.3909335873587
 20
1984.749999999996
 30
0.0
 11
795.3909335873587
 21
1978.099999999997
 31
0.0
  0
LINE
  5
D7
330
87
100
AcDbEntity
  8
P-SANR-FIXT
100
AcDbLine
 10
829.166407443191
 20
2016.430285549742
 30
0.0
 11
829.166407443191
 21
2018.999999999996
 31
0.0
  0
LINE
  5
D8
330
87
100
AcDbEntity
  8
P-SANR-FIXT
100
AcDbLine
 10
802.166407443191
 20
2018.999999999996
 30
0.0
 11
802.166407443191
 21
2015.249999999996
 31
0.0
  0
LINE
  5
D9
330
87
100
AcDbEntity
  8
P-SANR-FIXT
100
AcDbLine
 10
830.6664074431909
 20
2018.999999999996
 30
0.0
 11
830.6664074431909
 21
2022.230001211402
 31
0.0
  0
LINE
  5
DA
330
87
100
AcDbEntity
  8
P-SANR-FIXT
100
AcDbLine
 10
800.6664074431908
 20
2022.230001211402
 30
0.0
 11
800.6664074431908
 21
2018.999999999996
 31
0.0
  0
LINE
  5
DB
330
87
100
AcDbEntity
  8
P-SANR-FIXT
100
AcDbLine
 10
840.1664074432179
 20
2016.549999999996
 30
0.0
 11
837.6664074431909
 21
2016.549999999996
 31
0.0
  0
LINE
  5
DC
330
87
100
AcDbEntity
  8
P-SANR-FIXT
100
AcDbLine
 10
837.6664074431909
 20
1983.449999999996
 30
0.0
 11
840.1664074432179
 21
1983.449999999996
 31
0.0
  0
LINE
  5
DD
330
87
100
AcDbEntity
  8
P-SANR-FIXT
100
AcDbLine
 10
837.6664074431909
 20
2015.249999999996
 30
0.0
 11
830.9860197730731
 21
2015.249999999996
 31
0.0
  0
LINE
  5
DE
330
87
100
AcDbEntity
  8
P-SANR-FIXT
100
AcDbLine
 10
835.9418812990233
 20
1984.749999999996
 30
0.0
 11
837.6664074431909
 21
1984.749999999996
 31
0.0
  0
LINE
  5
DF
330
87
100
AcDbEntity
  8
P-SANR-FIXT
100
AcDbLine
 10
755.4664074431756
 20
2013.150000000054
 30
0.0
 11
754.1664074431755
 21
2011.850000000054
 31
0.0
  0
LINE
  5
E0
330
87
100
AcDbEntity
  8
P-SANR-FIXT
100
AcDbLine
 10
754.1664074431755
 20
1988.149999999938
 30
0.0
 11
755.4664074431756
 21
1986.849999999938
 31
0.0
  0
LINE
  5
E1
330
87
100
AcDbEntity
  8
P-SANR-FIXT
100
AcDbLine
 10
775.1664074431634
 20
2013.150000000054
 30
0.0
 11
755.4664074431756
 21
2013.150000000054
 31
0.0
  0
LINE
  5
E2
330
87
100
AcDbEntity
  8
P-SANR-FIXT
100
AcDbLine
 10
755.4664074431756
 20
1986.849999999938
 30
0.0
 11
775.1664074431634
 21
1986.849999999938
 31
0.0
  0
LINE
  5
E3
330
87
100
AcDbEntity
  8
P-SANR-FIXT
100
AcDbLine
 10
777.583295376552
 20
2020.35000000012
 30
0.0
 11
777.5502136109971
 21
2020.292727806332
 31
0.0
  0
LINE
  5
E4
330
87
100
AcDbEntity
  8
P-SANR-FIXT
100
AcDbLine
 10
777.5315128659357
 20
2020.260352487869
 30
0.0
 11
775.1664074431634
 21
2016.165807537446
 31
0.0
  0
LINE
  5
E5
330
87
100
AcDbEntity
  8
P-SANR-FIXT
100
AcDbLine
 10
775.1664074431634
 20
1983.834192462545
 30
0.0
 11
777.5315128660752
 21
1979.739647511881
 31
0.0
  0
LINE
  5
E6
330
87
100
AcDbEntity
  8
P-SANR-FIXT
100
AcDbLine
 10
777.5501717848596
 20
1979.707344604386
 30
0.0
 11
777.583295376552
 21
1979.649999999872
 31
0.0
  0
LINE
  5
E7
330
87
100
AcDbEntity
  8
P-SANR-FIXT
100
AcDbLine
 10
791.1664074431635
 20
2020.35000000012
 30
0.0
 11
777.583295376552
 21
2020.35000000012
 31
0.0
  0
LINE
  5
E8
330
87
100
AcDbEntity
  8
P-SANR-FIXT
100
AcDbLine
 10
777.583295376552
 20
1979.649999999872
 30
0.0
 11
791.1664074431639
 21
1979.649999999872
 31
0.0
  0
LINE
  5
E9
330
87
100
AcDbEntity
  8
P-SANR-FIXT
100
AcDbLine
 10
877.1664074432063
 20
2011.850000000054
 30
0.0
 11
875.8664074432061
 21
2013.150000000054
 31
0.0
  0
LINE
  5
EA
330
87
100
AcDbEntity
  8
P-SANR-FIXT
100
AcDbLine
 10
875.8664074432061
 20
1986.849999999938
 30
0.0
 11
877.1664074432063
 21
1988.149999999938
 31
0.0
  0
LINE
  5
EB
330
87
100
AcDbEntity
  8
P-SANR-FIXT
100
AcDbLine
 10
875.8664074432061
 20
2013.150000000054
 30
0.0
 11
856.1664074432185
 21
2013.150000000054
 31
0.0
  0
LINE
  5
EC
330
87
100
AcDbEntity
  8
P-SANR-FIXT
100
AcDbLine
 10
856.1664074432185
 20
1986.849999999938
 30
0.0
 11
875.8664074432061
 21
1986.849999999938
 31
0.0
  0
LINE
  5
ED
330
87
100
AcDbEntity
  8
P-SANR-FIXT
100
AcDbLine
 10
856.1664074432185
 20
2016.165807537446
 30
0.0
 11
853.8013020204463
 21
2020.260352487869
 31
0.0
  0
LINE
  5
EE
330
87
100
AcDbEntity
  8
P-SANR-FIXT
100
AcDbLine
 10
853.7826124478289
 20
2020.292708464244
 30
0.0
 11
853.74951950983
 21
2020.35000000012
 31
0.0
  0
LINE
  5
EF
330
87
100
AcDbEntity
  8
P-SANR-FIXT
100
AcDbLine
 10
853.74951950983
 20
1979.649999999872
 30
0.0
 11
853.7826430695522
 21
1979.707344549039
 31
0.0
  0
LINE
  5
F0
330
87
100
AcDbEntity
  8
P-SANR-FIXT
100
AcDbLine
 10
853.8013020203068
 20
1979.739647511881
 30
0.0
 11
856.1664074432185
 21
1983.834192462545
 31
0.0
  0
LINE
  5
F1
330
87
100
AcDbEntity
  8
P-SANR-FIXT
100
AcDbLine
 10
853.74951950983
 20
2020.35000000012
 30
0.0
 11
840.1664074432179
 21
2020.35000000012
 31
0.0
  0
LINE
  5
F2
330
87
100
AcDbEntity
  8
P-SANR-FIXT
100
AcDbLine
 10
840.1664074432179
 20
1979.649999999872
 30
0.0
 11
853.74951950983
 21
1979.649999999872
 31
0.0
  0
ARC
  5
F3
330
87
100
AcDbEntity
  8
P-SANR-FIXT
100
AcDbCircle
 10
827.6664074431893
 20
1990.499999999995
 30
0.0
 40
8.5
100
AcDbArc
 50
180.0
 51
0.0
  0
ARC
  5
F4
330
87
100
AcDbEntity
  8
P-SANR-FIXT
100
AcDbCircle
 10
827.6664074431893
 20
1990.499999999995
 30
0.0
 40
8.499999999999886
100
AcDbArc
 50
0.0
 51
180.0
  0
LINE
  5
F5
330
87
100
AcDbEntity
  8
P-SANR-FIXT
100
AcDbLine
 10
840.1664074432162
 20
1979.649999999871
 30
0.0
 11
840.1664074432162
 21
1979.739647511881
 31
0.0
  0
LINE
  5
F6
330
87
100
AcDbEntity
  8
P-SANR-FIXT
100
AcDbLine
 10
840.1664074432162
 20
1979.739647511881
 30
0.0
 11
840.1664074432163
 21
1988.217412547421
 31
0.0
  0
LINE
  5
F7
330
87
100
AcDbEntity
  8
P-SANR-FIXT
100
AcDbLine
 10
840.1664074432163
 20
1988.217412547421
 30
0.0
 11
840.1664074432163
 21
1991.522234963182
 31
0.0
  0
LINE
  5
F8
330
87
100
AcDbEntity
  8
P-SANR-FIXT
100
AcDbLine
 10
840.1664074432163
 20
1991.522234963182
 30
0.0
 11
840.1664074432163
 21
2008.477765035046
 31
0.0
  0
LINE
  5
F9
330
87
100
AcDbEntity
  8
P-SANR-FIXT
100
AcDbLine
 10
840.1664074432163
 20
2008.477765035046
 30
0.0
 11
840.1664074432163
 21
2011.782587451509
 31
0.0
  0
LINE
  5
FA
330
87
100
AcDbEntity
  8
P-SANR-FIXT
100
AcDbLine
 10
840.1664074432163
 20
2011.782587451509
 30
0.0
 11
840.1664074432162
 21
2020.260352487868
 31
0.0
  0
LINE
  5
FB
330
87
100
AcDbEntity
  8
P-SANR-FIXT
100
AcDbLine
 10
840.1664074432162
 20
2020.260352487868
 30
0.0
 11
840.1664074432162
 21
2020.350000000119
 31
0.0
  0
ARC
  5
FC
330
87
100
AcDbEntity
  8
P-SANR-FIXT
100
AcDbCircle
 10
805.6664074431893
 20
1994.999999999995
 30
0.0
 40
8.5
100
AcDbArc
 50
180.0
 51
359.9999999999981
  0
ARC
  5
FD
330
87
100
AcDbEntity
  8
P-SANR-FIXT
100
AcDbCircle
 10
805.6664074431893
 20
1994.999999999995
 30
0.0
 40
8.500000000000113
100
AcDbArc
 50
0.0
 51
180.0
  0
ARC
  5
FE
330
87
100
AcDbEntity
  8
P-SANR-FIXT
100
AcDbCircle
 10
824.6664074431892
 20
2007.499999999995
 30
0.0
 40
10.0
100
AcDbArc
 50
0.0
 51
180.0
  0
ARC
  5
FF
330
87
100
AcDbEntity
  8
P-SANR-FIXT
100
AcDbCircle
 10
824.6664074431892
 20
2007.499999999995
 30
0.0
 40
10.0
100
AcDbArc
 50
180.0
 51
260.6575264013644
  0
ARC
  5
100
330
87
100
AcDbEntity
  8
P-SANR-FIXT
100
AcDbCircle
 10
824.6664074431892
 20
2007.499999999995
 30
0.0
 40
10.00000000000004
100
AcDbArc
 50
299.3584332015153
 51
0.0
  0
SPLINE
  5
101
330
87
100
AcDbEntity
  8
P-SANR-FIXT
100
AcDbSpline
210
0.0
220
0.0
230
1.0
 70
     8
 71
     3
 72
     8
 73
     4
 74
     0
 42
0.000000001
 43
0.0000000001
 40
0.3188438419650947
 40
0.3188438419650947
 40
0.3188438419650947
 40
0.3188438419650947
 40
0.3210936860605244
 40
0.3210936860605244
 40
0.3210936860605244
 40
0.3210936860605244
 10
813.3275214697132
 20
1998.684478471057
 30
0.0
 10
813.3219408482007
 20
1998.684064135661
 30
0.0
 10
813.3163595064434
 20
1998.68364851423
 30
0.0
 10
813.3107774910532
 20
1998.683231535098
 30
0.0
  0
SPLINE
  5
102
330
87
100
AcDbEntity
  8
P-SANR-FIXT
100
AcDbSpline
210
0.0
220
0.0
230
1.0
 70
     8
 71
     3
 72
     9
 73
     5
 74
     0
 42
0.000000001
 43
0.0000000001
 40
0.0
 40
0.0
 40
0.0
 40
0.0
 40
0.5
 40
1.0
 40
1.0
 40
1.0
 40
1.0
 10
795.3909335873569
 20
1984.749999999995
 30
0.0
 10
795.4000098863993
 20
1984.749999999995
 30
0.0
 10
795.5777584813658
 20
1984.995424635042
 30
0.0
 10
796.0746990700965
 20
1985.684420946703
 30
0.0
 10
796.4029673629027
 20
1986.123841178179
 30
0.0
  0
SPLINE
  5
103
330
87
100
AcDbEntity
  8
P-SANR-FIXT
100
AcDbSpline
210
0.0
220
0.0
230
1.0
 70
     8
 71
     3
 72
    19
 73
    15
 74
     0
 42
0.000000001
 43
0.0000000001
 40
0.0
 40
0.0
 40
0.0
 40
0.0
 40
0.1428571428571428
 40
0.2857142857142857
 40
0.4285714285714286
 40
0.5
 40
0.5714285714285714
 40
0.625
 40
0.6785714285714287
 40
0.7321428571428572
 40
0.7857142857142857
 40
0.8392857142857142
 40
0.8928571428571427
 40
1.0
 40
1.0
 40
1.0
 40
1.0
 10
796.4029673629027
 20
1986.123841178179
 30
0.0
 10
796.4754063236626
 20
1986.226026734404
 30
0.0
 10
796.6446576363582
 20
1986.436883724388
 30
0.0
 10
796.9684099289339
 20
1986.770968019338
 30
0.0
 10
797.3045450673425
 20
1987.053650137059
 30
0.0
 10
797.6155058149579
 20
1987.275272487397
 30
0.0
 10
797.848595526143
 20
1987.423007539558
 30
0.0
 10
798.0765506519883
 20
1987.551547217552
 30
0.0
 10
798.2938056058509
 20
1987.663257266639
 30
0.0
 10
798.5229268104245
 20
1987.764901538215
 30
0.0
 10
798.765030785496
 20
1987.861108456193
 30
0.0
 10
799.0184558896411
 20
1987.946032815492
 30
0.0
 10
799.3692257070541
 20
1988.035355227848
 30
0.0
 10
799.6483693070959
 20
1988.080469437162
 30
0.0
 10
799.8414987662843
 20
1988.100060387666
 30
0.0
  0
SPLINE
  5
104
330
87
100
AcDbEntity
  8
P-SANR-FIXT
100
AcDbSpline
210
0.0
220
0.0
230
1.0
 70
     8
 71
     3
 72
     8
 73
     4
 74
     0
 42
0.000000001
 43
0.0000000001
 40
0.5519009940982635
 40
0.5519009940982635
 40
0.5519009940982635
 40
0.5519009940982635
 40
1.0
 40
1.0
 40
1.0
 40
1.0
 10
800.2587277599635
 20
1988.127877028685
 30
0.0
 10
800.3699137129812
 20
1988.141508568407
 30
0.0
 10
800.4796927816657
 20
1988.160118637537
 30
0.0
 10
800.5880649660173
 20
1988.183810618489
 30
0.0
  0
SPLINE
  5
105
330
87
100
AcDbEntity
  8
P-SANR-FIXT
100
AcDbSpline
210
0.0
220
0.0
230
1.0
 70
     8
 71
     3
 72
     8
 73
     4
 74
     0
 42
0.000000001
 43
0.0000000001
 40
0.0
 40
0.0
 40
0.0
 40
0.0
 40
0.0165750903870085
 40
0.0165750903870085
 40
0.0165750903870085
 40
0.0165750903870085
 10
800.5880649660173
 20
1988.183810618489
 30
0.0
 10
800.5544288537764
 20
1988.208846932005
 30
0.0
 10
800.521034808839
 20
1988.234076127653
 30
0.0
 10
800.4878804747757
 20
1988.259500191942
 30
0.0
  0
SPLINE
  5
106
330
87
100
AcDbEntity
  8
P-SANR-FIXT
100
AcDbSpline
210
0.0
220
0.0
230
1.0
 70
     8
 71
     3
 72
     8
 73
     4
 74
     0
 42
0.000000001
 43
0.0000000001
 40
0.1111111111111111
 40
0.1111111111111111
 40
0.1111111111111111
 40
0.1111111111111111
 40
0.2222222222222222
 40
0.2222222222222222
 40
0.2222222222222222
 40
0.2222222222222222
 10
799.9435494045759
 20
1988.71390435211
 30
0.0
 10
799.7391154145807
 20
1988.899668726155
 30
0.0
 10
799.5453325811391
 20
1989.095047928436
 30
0.0
 10
799.3607662083094
 20
1989.300117018033
 30
0.0
  0
SPLINE
  5
107
330
87
100
AcDbEntity
  8
P-SANR-FIXT
100
AcDbSpline
210
0.0
220
0.0
230
1.0
 70
     8
 71
     3
 72
     8
 73
     4
 74
     0
 42
0.000000001
 43
0.0000000001
 40
0.3127783235618299
 40
0.3127783235618299
 40
0.3127783235618299
 40
0.3127783235618299
 40
0.3333333333333333
 40
0.3333333333333333
 40
0.3333333333333333
 40
0.3333333333333333
 10
798.9266459197002
 20
1989.820544689782
 30
0.0
 10
798.895222149639
 20
1989.861497253238
 30
0.0
 10
798.8641311118474
 20
1989.902823600916
 30
0.0
 10
798.8332817757117
 20
1989.944469007857
 30
0.0
  0
SPLINE
  5
108
330
87
100
AcDbEntity
  8
P-SANR-FIXT
100
AcDbSpline
210
0.0
220
0.0
230
1.0
 70
     8
 71
     3
 72
     8
 73
     4
 74
     0
 42
0.000000001
 43
0.0000000001
 40
0.4444444444444445
 40
0.4444444444444445
 40
0.4444444444444445
 40
0.4444444444444445
 40
0.4588140938532134
 40
0.4588140938532134
 40
0.4588140938532134
 40
0.4588140938532134
 10
798.3617800213559
 20
1990.651019042082
 30
0.0
 10
798.3427629412989
 20
1990.682787387201
 30
0.0
 10
798.3238878692039
 20
1990.71469837756
 30
0.0
 10
798.3051893184815
 20
1990.746769493187
 30
0.0
  0
SPLINE
  5
109
330
87
100
AcDbEntity
  8
P-SANR-FIXT
100
AcDbSpline
210
0.0
220
0.0
230
1.0
 70
     8
 71
     3
 72
     8
 73
     4
 74
     0
 42
0.000000001
 43
0.0000000001
 40
0.5555555555555556
 40
0.5555555555555556
 40
0.5555555555555556
 40
0.5555555555555556
 40
0.6666666666666666
 40
0.6666666666666666
 40
0.6666666666666666
 40
0.6666666666666666
 10
797.9551898825365
 20
1991.417248580995
 30
0.0
 10
797.8319572677963
 20
1991.682154106989
 30
0.0
 10
797.7263176878286
 20
1991.95879292086
 30
0.0
 10
797.6275661495329
 20
1992.238292076371
 30
0.0
  0
SPLINE
  5
10A
330
87
100
AcDbEntity
  8
P-SANR-FIXT
100
AcDbSpline
210
0.0
220
0.0
230
1.0
 70
     8
 71
     3
 72
     8
 73
     4
 74
     0
 42
0.000000001
 43
0.0000000001
 40
0.7385383404405314
 40
0.7385383404405314
 40
0.7385383404405314
 40
0.7385383404405314
 40
0.7777777777777779
 40
0.7777777777777779
 40
0.7777777777777779
 40
0.7777777777777779
 10
797.4638995693843
 20
1992.795860503048
 30
0.0
 10
797.4375500581348
 20
1992.899200467243
 30
0.0
 10
797.411584120041
 20
1993.002703717653
 30
0.0
 10
797.3877230159303
 20
1993.107461845918
 30
0.0
  0
SPLINE
  5
10B
330
87
100
AcDbEntity
  8
P-SANR-FIXT
100
AcDbSpline
210
0.0
220
0.0
230
1.0
 70
     8
 71
     3
 72
     8
 73
     4
 74
     0
 42
0.000000001
 43
0.0000000001
 40
0.8722673832428677
 40
0.8722673832428677
 40
0.8722673832428677
 40
0.8722673832428677
 40
0.8888888888888891
 40
0.8888888888888891
 40
0.8888888888888891
 40
0.8888888888888891
 10
797.2553947243961
 20
1993.888870512802
 30
0.0
 10
797.24918968466
 20
1993.935675822143
 30
0.0
 10
797.24382174679
 20
1993.982975822722
 30
0.0
 10
797.2390832532682
 20
1994.030648047684
 30
0.0
  0
SPLINE
  5
10C
330
87
100
AcDbEntity
  8
P-SANR-FIXT
100
AcDbSpline
210
0.0
220
0.0
230
1.0
 70
     8
 71
     3
 72
     8
 73
     4
 74
     0
 42
0.000000001
 43
0.0000000001
 40
0.0416666666666667
 40
0.0416666666666667
 40
0.0416666666666667
 40
0.0416666666666667
 40
0.0496966674536172
 40
0.0496966674536172
 40
0.0496966674536172
 40
0.0496966674536172
 10
797.2162130248566
 20
1995.931121064796
 30
0.0
 10
797.2226322131512
 20
1995.990392960537
 30
0.0
 10
797.2296767626628
 20
1996.049560902802
 30
0.0
 10
797.237349494061
 20
1996.108625284013
 30
0.0
  0
SPLINE
  5
10D
330
87
100
AcDbEntity
  8
P-SANR-FIXT
100
AcDbSpline
210
0.0
220
0.0
230
1.0
 70
     8
 71
     3
 72
     8
 73
     4
 74
     0
 42
0.000000001
 43
0.0000000001
 40
0.0833333333333333
 40
0.0833333333333333
 40
0.0833333333333333
 40
0.0833333333333333
 40
0.0996889738068852
 40
0.0996889738068852
 40
0.0996889738068852
 40
0.0996889738068852
 10
797.3670450147335
 20
1996.845440425241
 30
0.0
 10
797.3934930783816
 20
1996.963990339951
 30
0.0
 10
797.4225962017275
 20
1997.082117806687
 30
0.0
 10
797.4543782306536
 20
1997.199825961251
 30
0.0
  0
SPLINE
  5
10E
330
87
100
AcDbEntity
  8
P-SANR-FIXT
100
AcDbSpline
210
0.0
220
0.0
230
1.0
 70
     8
 71
     3
 72
     8
 73
     4
 74
     0
 42
0.000000001
 43
0.0000000001
 40
0.125
 40
0.125
 40
0.125
 40
0.125
 40
0.1666666666666666
 40
0.1666666666666666
 40
0.1666666666666666
 40
0.1666666666666666
 10
797.6212655983061
 20
1997.743299600059
 30
0.0
 10
797.7234996901671
 20
1998.039880573919
 30
0.0
 10
797.8433589855066
 20
1998.333770830234
 30
0.0
 10
797.9796623179668
 20
1998.621821765979
 30
0.0
  0
SPLINE
  5
10F
330
87
100
AcDbEntity
  8
P-SANR-FIXT
100
AcDbSpline
210
0.0
220
0.0
230
1.0
 70
     8
 71
     3
 72
     8
 73
     4
 74
     0
 42
0.000000001
 43
0.0000000001
 40
0.1974158189588748
 40
0.1974158189588748
 40
0.1974158189588748
 40
0.1974158189588748
 40
0.2083333333333333
 40
0.2083333333333333
 40
0.2083333333333333
 40
0.2083333333333333
 10
798.3078215258879
 20
1999.248759251132
 30
0.0
 10
798.3497266358936
 20
1999.321527412659
 30
0.0
 10
798.3927008498591
 20
1999.393734543484
 30
0.0
 10
798.4367229304816
 20
1999.465324170513
 30
0.0
  0
SPLINE
  5
110
330
87
100
AcDbEntity
  8
P-SANR-FIXT
100
AcDbSpline
210
0.0
220
0.0
230
1.0
 70
     8
 71
     3
 72
     8
 73
     4
 74
     0
 42
0.000000001
 43
0.0000000001
 40
0.2457185333611484
 40
0.2457185333611484
 40
0.2457185333611484
 40
0.2457185333611484
 40
0.25
 40
0.25
 40
0.25
 40
0.25
 10
798.924970995666
 20
2000.176775852429
 30
0.0
 10
798.9449516001842
 20
2000.202932092946
 30
0.0
 10
798.9650821640538
 20
2000.228963442006
 30
0.0
 10
798.985361427309
 20
2000.254866709407
 30
0.0
  0
SPLINE
  5
111
330
87
100
AcDbEntity
  8
P-SANR-FIXT
100
AcDbSpline
210
0.0
220
0.0
230
1.0
 70
     8
 71
     3
 72
     8
 73
     4
 74
     0
 42
0.000000001
 43
0.0000000001
 40
0.2916666666666666
 40
0.2916666666666666
 40
0.2916666666666666
 40
0.2916666666666666
 40
0.2940207010140916
 40
0.2940207010140916
 40
0.2940207010140916
 40
0.2940207010140916
 10
799.618229460943
 20
2000.973775929008
 30
0.0
 10
799.630889049528
 20
2000.986594010321
 30
0.0
 10
799.6435889893488
 20
2000.999370459942
 30
0.0
 10
799.6563290195572
 20
2001.012105108318
 30
0.0
  0
SPLINE
  5
112
330
87
100
AcDbEntity
  8
P-SANR-FIXT
100
AcDbSpline
210
0.0
220
0.0
230
1.0
 70
     8
 71
     3
 72
     8
 73
     4
 74
     0
 42
0.000000001
 43
0.0000000001
 40
0.3333333333333333
 40
0.3333333333333333
 40
0.3333333333333333
 40
0.3333333333333333
 40
0.3420562397271993
 40
0.3420562397271993
 40
0.3420562397271993
 40
0.3420562397271993
 10
800.326932822386
 20
2001.614325739924
 30
0.0
 10
800.3788331220425
 20
2001.656163621663
 30
0.0
 10
800.4312243248252
 20
2001.697389888587
 30
0.0
 10
800.4840930770884
 20
2001.737995606711
 30
0.0
  0
SPLINE
  5
113
330
87
100
AcDbEntity
  8
P-SANR-FIXT
100
AcDbSpline
210
0.0
220
0.0
230
1.0
 70
     8
 71
     3
 72
     8
 73
     4
 74
     0
 42
0.000000001
 43
0.0000000001
 40
0.375
 40
0.375
 40
0.375
 40
0.375
 40
0.3907327170355709
 40
0.3907327170355709
 40
0.3907327170355709
 40
0.3907327170355709
 10
801.102815729641
 20
2002.171027169936
 30
0.0
 10
801.204334222724
 20
2002.235587643249
 30
0.0
 10
801.3072414134656
 20
2002.298018524527
 30
0.0
 10
801.411439337488
 20
2002.358262845415
 30
0.0
  0
SPLINE
  5
114
330
87
100
AcDbEntity
  8
P-SANR-FIXT
100
AcDbSpline
210
0.0
220
0.0
230
1.0
 70
     8
 71
     3
 72
     8
 73
     4
 74
     0
 42
0.000000001
 43
0.0000000001
 40
0.4166666666666667
 40
0.4166666666666667
 40
0.4166666666666667
 40
0.4166666666666667
 40
0.4583333333333334
 40
0.4583333333333334
 40
0.4583333333333334
 40
0.4583333333333334
 10
801.9368316937111
 20
2002.638200277047
 30
0.0
 10
802.2233687508144
 20
2002.778297888244
 30
0.0
 10
802.5178060091203
 20
2002.902346818853
 30
0.0
 10
802.8183407644442
 20
2003.009321255275
 30
0.0
  0
SPLINE
  5
115
330
87
100
AcDbEntity
  8
P-SANR-FIXT
100
AcDbSpline
210
0.0
220
0.0
230
1.0
 70
     8
 71
     3
 72
     8
 73
     4
 74
     0
 42
0.000000001
 43
0.0000000001
 40
0.4876911521591962
 40
0.4876911521591962
 40
0.4876911521591962
 40
0.4876911521591962
 40
0.5
 40
0.5
 40
0.5
 40
0.5
 10
803.4620769196928
 20
2003.209720115971
 30
0.0
 10
803.553126807521
 20
2003.234048387763
 30
0.0
 10
803.6445916940451
 20
2003.256808459941
 30
0.0
 10
803.7364348172886
 20
2003.277995268372
 30
0.0
  0
SPLINE
  5
116
330
87
100
AcDbEntity
  8
P-SANR-FIXT
100
AcDbSpline
210
0.0
220
0.0
230
1.0
 70
     8
 71
     3
 72
     8
 73
     4
 74
     0
 42
0.000000001
 43
0.0000000001
 40
0.5364093963028873
 40
0.5364093963028873
 40
0.5364093963028873
 40
0.5364093963028873
 40
0.5416666666666666
 40
0.5416666666666666
 40
0.5416666666666666
 40
0.5416666666666666
 10
804.5597427797826
 20
2003.424891240763
 30
0.0
 10
804.5997020445849
 20
2003.430017771019
 30
0.0
 10
804.6397016067489
 20
2003.434872368943
 30
0.0
 10
804.6797359122731
 20
2003.439454527441
 30
0.0
  0
SPLINE
  5
117
330
87
100
AcDbEntity
  8
P-SANR-FIXT
100
AcDbSpline
210
0.0
220
0.0
230
1.0
 70
     8
 71
     3
 72
     8
 73
     4
 74
     0
 42
0.000000001
 43
0.0000000001
 40
0.5833333333333333
 40
0.5833333333333333
 40
0.5833333333333333
 40
0.5833333333333333
 40
0.584501647825551
 40
0.584501647825551
 40
0.584501647825551
 40
0.584501647825551
 10
805.6357944756848
 20
2003.497269576184
 30
0.0
 10
805.6447499024322
 20
2003.497330414587
 30
0.0
 10
805.6537049612053
 20
2003.497376870802
 30
0.0
 10
805.6626596323521
 20
2003.497408957881
 30
0.0
  0
SPLINE
  5
118
330
87
100
AcDbEntity
  8
P-SANR-FIXT
100
AcDbSpline
210
0.0
220
0.0
230
1.0
 70
     8
 71
     3
 72
     8
 73
     4
 74
     0
 42
0.000000001
 43
0.0000000001
 40
0.625
 40
0.625
 40
0.625
 40
0.625
 40
0.6331707365502979
 40
0.6331707365502979
 40
0.6331707365502979
 40
0.6331707365502979
 10
806.591655607256
 20
2003.449492045964
 30
0.0
 10
806.6538425360118
 20
2003.442712630191
 30
0.0
 10
806.7159954960086
 20
2003.435272433074
 30
0.0
 10
806.7780810534904
 20
2003.427156415797
 30
0.0
  0
SPLINE
  5
119
330
87
100
AcDbEntity
  8
P-SANR-FIXT
100
AcDbSpline
210
0.0
220
0.0
230
1.0
 70
     8
 71
     3
 72
     8
 73
     4
 74
     0
 42
0.000000001
 43
0.0000000001
 40
0.6666666666666666
 40
0.6666666666666666
 40
0.6666666666666666
 40
0.6666666666666666
 40
0.681730471158356
 40
0.681730471158356
 40
0.681730471158356
 40
0.681730471158356
 10
807.5345906641961
 20
2003.290219750633
 30
0.0
 10
807.6469986242759
 20
2003.26457523135
 30
0.0
 10
807.7591276041879
 20
2003.237002743198
 30
0.0
 10
807.8703752488362
 20
2003.206913560359
 30
0.0
  0
SPLINE
  5
11A
330
87
100
AcDbEntity
  8
P-SANR-FIXT
100
AcDbSpline
210
0.0
220
0.0
230
1.0
 70
     8
 71
     3
 72
     8
 73
     4
 74
     0
 42
0.000000001
 43
0.0000000001
 40
0.7083333333333332
 40
0.7083333333333332
 40
0.7083333333333332
 40
0.7083333333333332
 40
0.75
 40
0.75
 40
0.75
 40
0.75
 10
808.4537079811431
 20
2003.027621019953
 30
0.0
 10
808.7549489040041
 20
2002.923720018403
 30
0.0
 10
809.0459031963602
 20
2002.798248613294
 30
0.0
 10
809.3385285223783
 20
2002.665867646894
 30
0.0
  0
SPLINE
  5
11B
330
87
100
AcDbEntity
  8
P-SANR-FIXT
100
AcDbSpline
210
0.0
220
0.0
230
1.0
 70
     8
 71
     3
 72
     8
 73
     4
 74
     0
 42
0.000000001
 43
0.0000000001
 40
0.7788785286991191
 40
0.7788785286991191
 40
0.7788785286991191
 40
0.7788785286991191
 40
0.7916666666666665
 40
0.7916666666666665
 40
0.7916666666666665
 40
0.7916666666666665
 10
809.9259789607444
 20
2002.355967162633
 30
0.0
 10
810.010889261844
 20
2002.306765262965
 30
0.0
 10
810.0960599579721
 20
2002.25718819234
 30
0.0
 10
810.180987041655
 20
2002.206843995271
 30
0.0
  0
SPLINE
  5
11C
330
87
100
AcDbEntity
  8
P-SANR-FIXT
100
AcDbSpline
210
0.0
220
0.0
230
1.0
 70
     8
 71
     3
 72
     8
 73
     4
 74
     0
 42
0.000000001
 43
0.0000000001
 40
0.8270517349132983
 40
0.8270517349132983
 40
0.8270517349132983
 40
0.8270517349132983
 40
0.833333333333333
 40
0.833333333333333
 40
0.833333333333333
 40
0.833333333333333
 10
810.8462189125619
 20
2001.739312219489
 30
0.0
 10
810.8843620007004
 20
2001.709998310525
 30
0.0
 10
810.9225265220578
 20
2001.680638925905
 30
0.0
 10
810.9605940652565
 20
2001.651135958496
 30
0.0
  0
SPLINE
  5
11D
330
87
100
AcDbEntity
  8
P-SANR-FIXT
100
AcDbSpline
210
0.0
220
0.0
230
1.0
 70
     8
 71
     3
 72
     8
 73
     4
 74
     0
 42
0.000000001
 43
0.0000000001
 40
0.9166666666666662
 40
0.9166666666666662
 40
0.9166666666666662
 40
0.9166666666666662
 40
0.9242115497499632
 40
0.9242115497499632
 40
0.9242115497499632
 40
0.9242115497499632
 10
812.3006861600455
 20
2000.3109346778
 30
0.0
 10
812.3362645346244
 20
2000.26621947155
 30
0.0
 10
812.3706648824393
 20
2000.220388270177
 30
0.0
 10
812.4040934277633
 20
2000.173636762736
 30
0.0
  0
SPLINE
  5
11E
330
87
100
AcDbEntity
  8
P-SANR-FIXT
100
AcDbSpline
210
0.0
220
0.0
230
1.0
 70
     8
 71
     3
 72
     8
 73
     4
 74
     0
 42
0.000000001
 43
0.0000000001
 40
0.9583333333333328
 40
0.9583333333333328
 40
0.9583333333333328
 40
0.9583333333333328
 40
0.9723997425212214
 40
0.9723997425212214
 40
0.9723997425212214
 40
0.9723997425212214
 10
812.851093025829
 20
1999.534223819827
 30
0.0
 10
812.9087193006604
 20
1999.44274717094
 30
0.0
 10
812.9630984062698
 20
1999.348017902328
 30
0.0
 10
813.0161004310705
 20
1999.251914879879
 30
0.0
  0
SPLINE
  5
11F
330
87
100
AcDbEntity
  8
P-SANR-FIXT
100
AcDbSpline
210
0.0
220
0.0
230
1.0
 70
     8
 71
     3
 72
     9
 73
     5
 74
     0
 42
0.000000001
 43
0.0000000001
 40
0.0
 40
0.0
 40
0.0
 40
0.0
 40
0.5
 40
1.0
 40
1.0
 40
1.0
 40
1.0
 10
813.3263143467756
 20
1998.684538808094
 30
0.0
 10
813.7157908002487
 20
1998.713530566667
 30
0.0
 10
814.4952827697906
 20
1998.756473997705
 30
0.0
 10
815.2758528645245
 20
1998.769304336169
 30
0.0
 10
815.6664074431892
 20
1998.768188937424
 30
0.0
  0
SPLINE
  5
120
330
87
100
AcDbEntity
  8
P-SANR-FIXT
100
AcDbSpline
210
0.0
220
0.0
230
1.0
 70
     8
 71
     3
 72
     8
 73
     4
 74
     0
 42
0.000000001
 43
0.0000000001
 40
0.2265254626999653
 40
0.2265254626999653
 40
0.2265254626999653
 40
0.2265254626999653
 40
0.25
 40
0.25
 40
0.25
 40
0.25
 10
815.2838759543598
 20
2004.052194366632
 30
0.0
 10
815.2722534983322
 20
2004.083758360952
 30
0.0
 10
815.2606360470304
 20
2004.115337684986
 30
0.0
 10
815.2490647766255
 20
2004.146929298534
 30
0.0
  0
SPLINE
  5
121
330
87
100
AcDbEntity
  8
P-SANR-FIXT
100
AcDbSpline
210
0.0
220
0.0
230
1.0
 70
     8
 71
     3
 72
     8
 73
     4
 74
     0
 42
0.000000001
 43
0.0000000001
 40
0.5
 40
0.5
 40
0.5
 40
0.5
 40
0.5042142621747701
 40
0.5042142621747701
 40
0.5042142621747701
 40
0.5042142621747701
 10
814.9448181753209
 20
2005.156775276059
 30
0.0
 10
814.9434214249462
 20
2005.16244963837
 30
0.0
 10
814.9420405290655
 20
2005.168123008294
 30
0.0
 10
814.9406752211744
 20
2005.173795402544
 30
0.0
  0
SPLINE
  5
122
330
87
100
AcDbEntity
  8
P-SANR-FIXT
100
AcDbSpline
210
0.0
220
0.0
230
1.0
 70
     8
 71
     3
 72
     8
 73
     4
 74
     0
 42
0.000000001
 43
0.0000000001
 40
0.75
 40
0.75
 40
0.75
 40
0.75
 40
0.79106847470589
 40
0.79106847470589
 40
0.79106847470589
 40
0.79106847470589
 10
814.7523520807487
 20
2006.164353158325
 30
0.0
 10
814.7448854716602
 20
2006.219334508603
 30
0.0
 10
814.7387672037035
 20
2006.274170111733
 30
0.0
 10
814.7335815231466
 20
2006.328905411983
 30
0.0
  0
SPLINE
  5
123
330
87
100
AcDbEntity
  8
P-SANR-FIXT
100
AcDbSpline
210
0.0
220
0.0
230
1.0
 70
     8
 71
     3
 72
    24
 73
    20
 74
     0
 42
0.000000001
 43
0.0000000001
 40
0.0
 40
0.0
 40
0.0
 40
0.0
 40
0.0714285714285714
 40
0.1071428571428571
 40
0.1428571428571428
 40
0.1785714285714286
 40
0.2142857142857143
 40
0.25
 40
0.2857142857142857
 40
0.3214285714285714
 40
0.3571428571428571
 40
0.4285714285714286
 40
0.5714285714285714
 40
0.6428571428571428
 40
0.7142857142857143
 40
0.75
 40
0.7857142857142856
 40
0.8571428571428571
 40
1.0
 40
1.0
 40
1.0
 40
1.0
 10
814.6721050124181
 20
2007.162481226765
 30
0.0
 10
814.1556834122118
 20
2007.26607857716
 30
0.0
 10
813.4036643867942
 20
2007.46223771421
 30
0.0
 10
812.4463504435004
 20
2007.802633609431
 30
0.0
 10
811.7507513497031
 20
2008.092645837147
 30
0.0
 10
811.0787493460792
 20
2008.428293665303
 30
0.0
 10
810.4300897709565
 20
2008.804174559044
 30
0.0
 10
809.8031520236213
 20
2009.200687546612
 30
0.0
 10
809.1961020431934
 20
2009.598477997272
 30
0.0
 10
808.6093255484994
 20
2009.997161803676
 30
0.0
 10
807.8553568468606
 20
2010.542348132017
 30
0.0
 10
806.6072157495549
 20
2011.49342535041
 30
0.0
 10
805.3270810187846
 20
2012.531720481534
 30
0.0
 10
804.2325484076307
 20
2013.452820734414
 30
0.0
 10
803.6393025531239
 20
2013.960496133111
 30
0.0
 10
803.2345339213554
 20
2014.316071352696
 30
0.0
 10
802.8642625795898
 20
2014.635324293402
 30
0.0
 10
802.3526170047714
 20
2015.082463679661
 30
0.0
 10
802.1779646824157
 20
2015.249999999995
 30
0.0
 10
802.1664074431891
 20
2015.249999999995
 30
0.0
  0
LINE
  5
124
330
87
100
AcDbEntity
  8
P-SANR-FIXT
100
AcDbLine
 10
793.6664074431892
 20
2016.549999999995
 30
0.0
 11
793.6664074431892
 21
1983.449999999995
 31
0.0
  0
SPLINE
  5
125
330
87
100
AcDbEntity
  8
P-SANR-FIXT
100
AcDbSpline
210
0.0
220
0.0
230
1.0
 70
     8
 71
     3
 72
     8
 73
     4
 74
     0
 42
0.000000001
 43
0.0000000001
 40
0.0
 40
0.0
 40
0.0
 40
0.0
 40
0.5
 40
0.5
 40
0.5
 40
0.5
 10
800.5880649660173
 20
1988.183810618489
 30
0.0
 10
800.6222180733708
 20
1988.158365143592
 30
0.0
 10
800.648949768998
 20
1988.1388283223
 30
0.0
 10
800.6680615425038
 20
1988.124933581617
 30
0.0
  0
SPLINE
  5
126
330
87
100
AcDbEntity
  8
P-SANR-FIXT
100
AcDbSpline
210
0.0
220
0.0
230
1.0
 70
     8
 71
     3
 72
    10
 73
     6
 74
     0
 42
0.000000001
 43
0.0000000001
 40
0.1481481481481481
 40
0.1481481481481481
 40
0.1481481481481481
 40
0.1481481481481481
 40
0.1666666666666666
 40
0.1944444444444444
 40
0.2222222222222222
 40
0.2222222222222222
 40
0.2222222222222222
 40
0.2222222222222222
 10
801.2058786604224
 20
1987.764417916211
 30
0.0
 10
801.2396249243145
 20
1987.743611868763
 30
0.0
 10
801.3279913783115
 20
1987.689946351317
 30
0.0
 10
801.4847184056266
 20
1987.598760781412
 30
0.0
 10
801.6117838105678
 20
1987.529011247154
 30
0.0
 10
801.6781475191773
 20
1987.493750418578
 30
0.0
  0
SPLINE
  5
127
330
87
100
AcDbEntity
  8
P-SANR-FIXT
100
AcDbSpline
210
0.0
220
0.0
230
1.0
 70
     8
 71
     3
 72
     9
 73
     5
 74
     0
 42
0.000000001
 43
0.0000000001
 40
0.2962962962962963
 40
0.2962962962962963
 40
0.2962962962962963
 40
0.2962962962962963
 40
0.3055555555555556
 40
0.3333333333333333
 40
0.3333333333333333
 40
0.3333333333333333
 40
0.3333333333333333
 10
802.2746634922807
 20
1987.206028255821
 30
0.0
 10
802.3020310894931
 20
1987.19411795289
 30
0.0
 10
802.4125036861729
 20
1987.146721729408
 30
0.0
 10
802.5265421753745
 20
1987.100611318078
 30
0.0
 10
802.6147069552179
 20
1987.066707862949
 30
0.0
  0
SPLINE
  5
128
330
87
100
AcDbEntity
  8
P-SANR-FIXT
100
AcDbSpline
210
0.0
220
0.0
230
1.0
 70
     8
 71
     3
 72
     8
 73
     4
 74
     0
 42
0.000000001
 43
0.0000000001
 40
0.4074074074074074
 40
0.4074074074074074
 40
0.4074074074074074
 40
0.4074074074074074
 40
0.4444444444444445
 40
0.4444444444444445
 40
0.4444444444444445
 40
0.4444444444444445
 10
803.3715333288027
 20
1986.815635160691
 30
0.0
 10
803.5055099901196
 20
1986.778060329162
 30
0.0
 10
803.64309577277
 20
1986.743028215089
 30
0.0
 10
803.7839189597407
 20
1986.711077445785
 30
0.0
  0
SPLINE
  5
129
330
87
100
AcDbEntity
  8
P-SANR-FIXT
100
AcDbSpline
210
0.0
220
0.0
230
1.0
 70
     8
 71
     3
 72
     8
 73
     4
 74
     0
 42
0.000000001
 43
0.0000000001
 40
0.4814814814814815
 40
0.4814814814814815
 40
0.4814814814814815
 40
0.4814814814814815
 40
0.5185185185185186
 40
0.5185185185185186
 40
0.5185185185185186
 40
0.5185185185185186
 10
804.2156387731136
 20
1986.624856673859
 30
0.0
 10
804.3624748082249
 20
1986.599456095771
 30
0.0
 10
804.5120862871566
 20
1986.57752436413
 30
0.0
 10
804.6640112494085
 20
1986.559448980617
 30
0.0
  0
SPLINE
  5
12A
330
87
100
AcDbEntity
  8
P-SANR-FIXT
100
AcDbSpline
210
0.0
220
0.0
230
1.0
 70
     8
 71
     3
 72
     8
 73
     4
 74
     0
 42
0.000000001
 43
0.0000000001
 40
0.5925925925925926
 40
0.5925925925925926
 40
0.5925925925925926
 40
0.5925925925925926
 40
0.5976124902540087
 40
0.5976124902540087
 40
0.5976124902540087
 40
0.5976124902540087
 10
805.6000335356742
 20
1986.500238950274
 30
0.0
 10
805.6216839083303
 20
1986.500071710269
 30
0.0
 10
805.6433672733728
 20
1986.499987089616
 30
0.0
 10
805.6650834924559
 20
1986.4999857197
 30
0.0
  0
SPLINE
  5
12B
330
87
100
AcDbEntity
  8
P-SANR-FIXT
100
AcDbSpline
210
0.0
220
0.0
230
1.0
 70
     8
 71
     3
 72
    10
 73
     6
 74
     0
 42
0.000000001
 43
0.0000000001
 40
0.6666666666666666
 40
0.6666666666666666
 40
0.6666666666666666
 40
0.6666666666666666
 40
0.6805555555555556
 40
0.6944444444444445
 40
0.7037037037037035
 40
0.7037037037037035
 40
0.7037037037037035
 40
0.7037037037037035
 10
806.5784036480552
 20
1986.54906733417
 30
0.0
 10
806.6406280599155
 20
1986.555782581555
 30
0.0
 10
806.7654095524675
 20
1986.570639286179
 30
0.0
 10
806.9325056227697
 20
1986.594315743115
 30
0.0
 10
807.037321802948
 20
1986.611174202256
 30
0.0
 10
807.0793045204725
 20
1986.618251394794
 30
0.0
  0
SPLINE
  5
12C
330
87
100
AcDbEntity
  8
P-SANR-FIXT
100
AcDbSpline
210
0.0
220
0.0
230
1.0
 70
     8
 71
     3
 72
    10
 73
     6
 74
     0
 42
0.000000001
 43
0.0000000001
 40
0.7407407407407405
 40
0.7407407407407405
 40
0.7407407407407405
 40
0.7407407407407405
 40
0.75
 40
0.7638888888888889
 40
0.7777777777777778
 40
0.7777777777777778
 40
0.7777777777777778
 40
0.7777777777777778
 10
807.5855575826082
 20
1986.719485955966
 30
0.0
 10
807.6279463801887
 20
1986.729310714025
 30
0.0
 10
807.7340514964127
 20
1986.754762488416
 30
0.0
 10
807.9043845553172
 20
1986.799114547067
 30
0.0
 10
808.0317051949595
 20
1986.835447563956
 30
0.0
 10
808.0961460422431
 20
1986.854671870308
 30
0.0
  0
SPLINE
  5
12D
330
87
100
AcDbEntity
  8
P-SANR-FIXT
100
AcDbSpline
210
0.0
220
0.0
230
1.0
 70
     8
 71
     3
 72
     9
 73
     5
 74
     0
 42
0.000000001
 43
0.0000000001
 40
0.8148148148148145
 40
0.8148148148148145
 40
0.8148148148148145
 40
0.8148148148148145
 40
0.8333333333333332
 40
0.8518518518518513
 40
0.8518518518518513
 40
0.8518518518518513
 40
0.8518518518518513
 10
808.6290617091274
 20
1987.033041737234
 30
0.0
 10
808.7194761845292
 20
1987.066672295302
 30
0.0
 10
808.9000221241715
 20
1987.137300767053
 30
0.0
 10
809.0748581571485
 20
1987.212781217046
 30
0.0
 10
809.1596792958803
 20
1987.251011468214
 30
0.0
  0
SPLINE
  5
12E
330
87
100
AcDbEntity
  8
P-SANR-FIXT
100
AcDbSpline
210
0.0
220
0.0
230
1.0
 70
     8
 71
     3
 72
    10
 73
     6
 74
     0
 42
0.000000001
 43
0.0000000001
 40
0.8888888888888889
 40
0.8888888888888889
 40
0.8888888888888889
 40
0.8888888888888889
 40
0.9027777777777776
 40
0.9166666666666666
 40
0.9259259259259254
 40
0.9259259259259254
 40
0.9259259259259254
 40
0.9259259259259254
 10
809.62774007412
 20
1987.479505083626
 30
0.0
 10
809.6804196945075
 20
1987.507252005964
 30
0.0
 10
809.7816814982039
 20
1987.561980194633
 30
0.0
 10
809.9102856621275
 20
1987.634852914252
 30
0.0
 10
809.9870449112048
 20
1987.679908307889
 30
0.0
 10
810.0170851941259
 20
1987.697809461241
 30
0.0
  0
SPLINE
  5
12F
330
87
100
AcDbEntity
  8
P-SANR-FIXT
100
AcDbSpline
210
0.0
220
0.0
230
1.0
 70
     8
 71
     3
 72
    10
 73
     6
 74
     0
 42
0.000000001
 43
0.0000000001
 40
0.1428571428571428
 40
0.1428571428571428
 40
0.1428571428571428
 40
0.1428571428571428
 40
0.2142857142857143
 40
0.2678571428571428
 40
0.2857142857142857
 40
0.2857142857142857
 40
0.2857142857142857
 40
0.2857142857142857
 10
810.7215083122836
 20
1988.166556124226
 30
0.0
 10
810.7507131975079
 20
1988.188167283653
 30
0.0
 10
810.8156801905325
 20
1988.236711993004
 30
0.0
 10
810.9083107775642
 20
1988.308566605421
 30
0.0
 10
810.9562885794955
 20
1988.346613772523
 30
0.0
 10
810.9684443315
 20
1988.356311200647
 30
0.0
  0
SPLINE
  5
130
330
87
100
AcDbEntity
  8
P-SANR-FIXT
100
AcDbSpline
210
0.0
220
0.0
230
1.0
 70
     8
 71
     3
 72
     8
 73
     4
 74
     0
 42
0.000000001
 43
0.0000000001
 40
0.5714285714285714
 40
0.5714285714285714
 40
0.5714285714285714
 40
0.5714285714285714
 40
0.5834821779851524
 40
0.5834821779851524
 40
0.5834821779851524
 40
0.5834821779851524
 10
811.6457382915676
 20
1988.958660425922
 30
0.0
 10
811.655688597933
 20
1988.968508140635
 30
0.0
 10
811.6656354574265
 20
1988.978394061854
 30
0.0
 10
811.6755773668394
 20
1988.988320932387
 30
0.0
  0
SPLINE
  5
131
330
87
100
AcDbEntity
  8
P-SANR-FIXT
100
AcDbSpline
210
0.0
220
0.0
230
1.0
 70
     8
 71
     3
 72
     8
 73
     4
 74
     0
 42
0.000000001
 43
0.0000000001
 40
0.8571428571428571
 40
0.8571428571428571
 40
0.8571428571428571
 40
0.8571428571428571
 40
1.0
 40
1.0
 40
1.0
 40
1.0
 10
812.3329149038678
 20
1989.726701385587
 30
0.0
 10
812.4413637868924
 20
1989.863776639312
 30
0.0
 10
812.54551516813
 20
1990.0041395863
 30
0.0
 10
812.6456015300696
 20
1990.148108626762
 30
0.0
  0
SPLINE
  5
132
330
87
100
AcDbEntity
  8
P-SANR-FIXT
100
AcDbSpline
210
0.0
220
0.0
230
1.0
 70
     8
 71
     3
 72
     8
 73
     4
 74
     0
 42
0.000000001
 43
0.0000000001
 40
0.3333333333333333
 40
0.3333333333333333
 40
0.3333333333333333
 40
0.3333333333333333
 40
0.3538696103555415
 40
0.3538696103555415
 40
0.3538696103555415
 40
0.3538696103555415
 10
813.4767470374969
 20
1991.646107422468
 30
0.0
 10
813.4906801247254
 20
1991.678560279782
 30
0.0
 10
813.5046205985476
 20
1991.711061938397
 30
0.0
 10
813.5185289220888
 20
1991.743617516685
 30
0.0
  0
SPLINE
  5
133
330
87
100
AcDbEntity
  8
P-SANR-FIXT
100
AcDbSpline
210
0.0
220
0.0
230
1.0
 70
     8
 71
     3
 72
     9
 73
     5
 74
     0
 42
0.000000001
 43
0.0000000001
 40
0.5677678678994381
 40
0.5677678678994381
 40
0.5677678678994381
 40
0.5677678678994381
 40
0.6666666666666666
 40
0.7841278909986978
 40
0.7841278909986978
 40
0.7841278909986978
 40
0.7841278909986978
 10
813.8738106642767
 20
1992.789237567072
 30
0.0
 10
813.9181685653831
 20
1992.953840387987
 30
0.0
 10
814.0100140214492
 20
1993.316534852407
 30
0.0
 10
814.0532363248542
 20
1993.686019411155
 30
0.0
 10
814.0710732814163
 20
1993.887480390715
 30
0.0
  0
SPLINE
  5
134
330
87
100
AcDbEntity
  8
P-SANR-FIXT
100
AcDbSpline
210
0.0
220
0.0
230
1.0
 70
     8
 71
     3
 72
     8
 73
     4
 74
     0
 42
0.000000001
 43
0.0000000001
 40
0.5
 40
0.5
 40
0.5
 40
0.5
 40
0.5796736740499081
 40
0.5796736740499081
 40
0.5796736740499081
 40
0.5796736740499081
 10
814.1121718070253
 20
1995.958678418734
 30
0.0
 10
814.1064167841806
 20
1996.009379021364
 30
0.0
 10
814.0994452024925
 20
1996.059889261229
 30
0.0
 10
814.0916216027456
 20
1996.110266937892
 30
0.0
  0
SPLINE
  5
135
330
87
100
AcDbEntity
  8
P-SANR-FIXT
100
AcDbSpline
210
0.0
220
0.0
230
1.0
 70
     8
 71
     3
 72
     8
 73
     4
 74
     0
 42
0.000000001
 43
0.0000000001
 40
0.0
 40
0.0
 40
0.0
 40
0.0
 40
0.2
 40
0.2
 40
0.2
 40
0.2
 10
813.9501847155013
 20
1996.90500238916
 30
0.0
 10
813.9152323302919
 20
1997.056990531462
 30
0.0
 10
813.8771307011159
 20
1997.203774717332
 30
0.0
 10
813.8360361260708
 20
1997.34673543115
 30
0.0
  0
SPLINE
  5
136
330
87
100
AcDbEntity
  8
P-SANR-FIXT
100
AcDbSpline
210
0.0
220
0.0
230
1.0
 70
     8
 71
     3
 72
     8
 73
     4
 74
     0
 42
0.000000001
 43
0.0000000001
 40
0.6000000000000001
 40
0.6000000000000001
 40
0.6000000000000001
 40
0.6000000000000001
 40
0.8
 40
0.8
 40
0.8
 40
0.8
 10
813.5701847793065
 20
1998.127151460028
 30
0.0
 10
813.5252768554231
 20
1998.240599048429
 30
0.0
 10
813.4849323950289
 20
1998.333282985932
 30
0.0
 10
813.4455033417363
 20
1998.42093647609
 30
0.0
  0
ELLIPSE
  5
137
330
87
100
AcDbEntity
  8
P-SANR-FIXT
100
AcDbEllipse
 10
827.279539008099
 20
1990.499996152969
 30
0.0
 11
-0.0001184625195392
 21
8.304437559802206
 31
0.0
210
0.0
220
0.0
230
1.0
 40
0.9769634012683557
 41
1.570781927195731
 42
1.59197522045838
  0
SPLINE
  5
138
330
87
100
AcDbEntity
  8
P-SANR-FIXT
100
AcDbSpline
210
0.0
220
0.0
230
1.0
 70
     8
 71
     3
 72
     8
 73
     4
 74
     0
 42
0.000000001
 43
0.0000000001
 40
0.1428571428571428
 40
0.1428571428571428
 40
0.1428571428571428
 40
0.1428571428571428
 40
0.2857142857142857
 40
0.2857142857142857
 40
0.2857142857142857
 40
0.2857142857142857
 10
819.2052810085131
 20
1989.689311634807
 30
0.0
 10
819.2195806400766
 20
1989.54012435332
 30
0.0
 10
819.2373739447884
 20
1989.395299388029
 30
0.0
 10
819.2577076117423
 20
1989.257515736665
 30
0.0
  0
SPLINE
  5
139
330
87
100
AcDbEntity
  8
P-SANR-FIXT
100
AcDbSpline
210
0.0
220
0.0
230
1.0
 70
     8
 71
     3
 72
    10
 73
     6
 74
     0
 42
0.000000001
 43
0.0000000001
 40
0.5714285714285714
 40
0.5714285714285714
 40
0.5714285714285714
 40
0.5714285714285714
 40
0.6785714285714287
 40
0.7857142857142857
 40
1.0
 40
1.0
 40
1.0
 40
1.0
 10
819.3946251393196
 20
1988.54357021148
 30
0.0
 10
819.4115771841371
 20
1988.47188872141
 30
0.0
 10
819.4438582356815
 20
1988.343705465231
 30
0.0
 10
819.4949455541788
 20
1988.157273958863
 30
0.0
 10
819.512164287939
 20
1988.100350305479
 30
0.0
 10
819.51224961683
 20
1988.100060387666
 30
0.0
  0
SPLINE
  5
13A
330
87
100
AcDbEntity
  8
P-SANR-FIXT
100
AcDbSpline
210
0.0
220
0.0
230
1.0
 70
     8
 71
     3
 72
     9
 73
     5
 74
     0
 42
0.000000001
 43
0.0000000001
 40
0.5
 40
0.5
 40
0.5
 40
0.5
 40
0.5833333333333333
 40
0.6666666666666666
 40
0.6666666666666666
 40
0.6666666666666666
 40
0.6666666666666666
 10
819.743542609207
 20
1987.421329374148
 30
0.0
 10
819.7681569673868
 20
1987.357988588619
 30
0.0
 10
819.8213340836808
 20
1987.225013839147
 30
0.0
 10
819.8834668792628
 20
1987.083239810528
 30
0.0
 10
819.9155043006934
 20
1987.010945618698
 30
0.0
  0
SPLINE
  5
13B
330
87
100
AcDbEntity
  8
P-SANR-FIXT
100
AcDbSpline
210
0.0
220
0.0
230
1.0
 70
     8
 71
     3
 72
     8
 73
     4
 74
     0
 42
0.000000001
 43
0.0000000001
 40
0.8333333333333332
 40
0.8333333333333332
 40
0.8333333333333332
 40
0.8333333333333332
 40
1.0
 40
1.0
 40
1.0
 40
1.0
 10
820.131220330186
 20
1986.566686489476
 30
0.0
 10
820.2088397035097
 20
1986.417854700179
 30
0.0
 10
820.2911589779203
 20
1986.270917011935
 30
0.0
 10
820.3794853243351
 20
1986.123841178179
 30
0.0
  0
SPLINE
  5
13C
330
87
100
AcDbEntity
  8
P-SANR-FIXT
100
AcDbSpline
210
0.0
220
0.0
230
1.0
 70
     8
 71
     3
 72
     8
 73
     4
 74
     0
 42
0.000000001
 43
0.0000000001
 40
0.0416666666666667
 40
0.0416666666666667
 40
0.0416666666666667
 40
0.0416666666666667
 40
0.042505309596724
 40
0.042505309596724
 40
0.042505309596724
 40
0.042505309596724
 10
820.9120842765342
 20
1985.33941084288
 30
0.0
 10
820.9159209798782
 20
1985.334386438446
 30
0.0
 10
820.9197627897236
 20
1985.329366956052
 30
0.0
 10
820.9236096942685
 20
1985.324352403099
 30
0.0
  0
SPLINE
  5
13D
330
87
100
AcDbEntity
  8
P-SANR-FIXT
100
AcDbSpline
210
0.0
220
0.0
230
1.0
 70
     8
 71
     3
 72
     8
 73
     4
 74
     0
 42
0.000000001
 43
0.0000000001
 40
0.0833333333333333
 40
0.0833333333333333
 40
0.0833333333333333
 40
0.0833333333333333
 40
0.0916902869996553
 40
0.0916902869996553
 40
0.0916902869996553
 40
0.0916902869996553
 10
821.5203141595894
 20
1984.627878289056
 30
0.0
 10
821.5633123866636
 20
1984.582866510494
 30
0.0
 10
821.6067594527757
 20
1984.538379995689
 30
0.0
 10
821.6506436810586
 20
1984.494426063598
 30
0.0
  0
SPLINE
  5
13E
330
87
100
AcDbEntity
  8
P-SANR-FIXT
100
AcDbSpline
210
0.0
220
0.0
230
1.0
 70
     8
 71
     3
 72
     8
 73
     4
 74
     0
 42
0.000000001
 43
0.0000000001
 40
0.125
 40
0.125
 40
0.125
 40
0.125
 40
0.1666666666666666
 40
0.1666666666666666
 40
0.1666666666666666
 40
0.1666666666666666
 10
822.1954902325121
 20
1983.994689486736
 30
0.0
 10
822.4307416505768
 20
1983.797288952328
 30
0.0
 10
822.6757035167722
 20
1983.613852976421
 30
0.0
 10
822.9276771449631
 20
1983.444967891394
 30
0.0
  0
SPLINE
  5
13F
330
87
100
AcDbEntity
  8
P-SANR-FIXT
100
AcDbSpline
210
0.0
220
0.0
230
1.0
 70
     8
 71
     3
 72
     8
 73
     4
 74
     0
 42
0.000000001
 43
0.0000000001
 40
0.1929309325700379
 40
0.1929309325700379
 40
0.1929309325700379
 40
0.1929309325700379
 40
0.2083333333333333
 40
0.2083333333333333
 40
0.2083333333333333
 40
0.2083333333333333
 10
823.4118474463418
 20
1983.143094482072
 30
0.0
 10
823.5078626311102
 20
1983.087532061607
 30
0.0
 10
823.6046035649692
 20
1983.034008367845
 30
0.0
 10
823.7019339036509
 20
1982.982553058335
 30
0.0
  0
SPLINE
  5
140
330
87
100
AcDbEntity
  8
P-SANR-FIXT
100
AcDbSpline
210
0.0
220
0.0
230
1.0
 70
     8
 71
     3
 72
     8
 73
     4
 74
     0
 42
0.000000001
 43
0.0000000001
 40
0.2453865747020332
 40
0.2453865747020332
 40
0.2453865747020332
 40
0.2453865747020332
 40
0.25
 40
0.25
 40
0.25
 40
0.25
 10
824.4127055473997
 20
1982.64752225142
 30
0.0
 10
824.4424716494741
 20
1982.635142189671
 30
0.0
 10
824.4722612181503
 20
1982.622954074322
 30
0.0
 10
824.5020705689768
 20
1982.610958730835
 30
0.0
  0
SPLINE
  5
141
330
87
100
AcDbEntity
  8
P-SANR-FIXT
100
AcDbSpline
210
0.0
220
0.0
230
1.0
 70
     8
 71
     3
 72
     8
 73
     4
 74
     0
 42
0.000000001
 43
0.0000000001
 40
0.2916666666666666
 40
0.2916666666666666
 40
0.2916666666666666
 40
0.2916666666666666
 40
0.299518915049903
 40
0.299518915049903
 40
0.299518915049903
 40
0.299518915049903
 10
825.3131320075134
 20
1982.332045104726
 30
0.0
 10
825.3642018121412
 20
1982.3173529254
 30
0.0
 10
825.4152769565521
 20
1982.303181221882
 30
0.0
 10
825.4663477247705
 20
1982.289522747146
 30
0.0
  0
SPLINE
  5
142
330
87
100
AcDbEntity
  8
P-SANR-FIXT
100
AcDbSpline
210
0.0
220
0.0
230
1.0
 70
     8
 71
     3
 72
     8
 73
     4
 74
     0
 42
0.000000001
 43
0.0000000001
 40
0.3333333333333333
 40
0.3333333333333333
 40
0.3333333333333333
 40
0.3333333333333333
 40
0.375
 40
0.375
 40
0.375
 40
0.375
 10
826.125005680446
 20
1982.141075721487
 30
0.0
 10
826.3946392790307
 20
1982.091403032171
 30
0.0
 10
826.6625644505895
 20
1982.055413995908
 30
0.0
 10
826.9264958691824
 20
1982.032265305128
 30
0.0
  0
SPLINE
  5
143
330
87
100
AcDbEntity
  8
P-SANR-FIXT
100
AcDbSpline
210
0.0
220
0.0
230
1.0
 70
     8
 71
     3
 72
     8
 73
     4
 74
     0
 42
0.000000001
 43
0.0000000001
 40
0.414579155872131
 40
0.414579155872131
 40
0.414579155872131
 40
0.414579155872131
 40
0.4166666666666667
 40
0.4166666666666667
 40
0.4166666666666667
 40
0.4166666666666667
 10
827.6675003043466
 20
1981.999917772064
 30
0.0
 10
827.6803258186632
 20
1981.999921110552
 30
0.0
 10
827.6931402931634
 20
1981.999953652145
 30
0.0
 10
827.7059436914994
 20
1982.000015222594
 30
0.0
  0
SPLINE
  5
144
330
87
100
AcDbEntity
  8
P-SANR-FIXT
100
AcDbSpline
210
0.0
220
0.0
230
1.0
 70
     8
 71
     3
 72
     8
 73
     4
 74
     0
 42
0.000000001
 43
0.0000000001
 40
0.4583333333333334
 40
0.4583333333333334
 40
0.4583333333333334
 40
0.4583333333333334
 40
0.5
 40
0.5
 40
0.5
 40
0.5
 10
828.4589403325364
 20
1982.037082058805
 30
0.0
 10
828.7051437954257
 20
1982.060155204599
 30
0.0
 10
828.9463032232047
 20
1982.093503144014
 30
0.0
 10
829.1812248423262
 20
1982.136069808555
 30
0.0
  0
SPLINE
  5
145
330
87
100
AcDbEntity
  8
P-SANR-FIXT
100
AcDbSpline
210
0.0
220
0.0
230
1.0
 70
     8
 71
     3
 72
     8
 73
     4
 74
     0
 42
0.000000001
 43
0.0000000001
 40
0.5833333333333333
 40
0.5833333333333333
 40
0.5833333333333333
 40
0.5833333333333333
 40
0.625
 40
0.625
 40
0.625
 40
0.625
 10
830.5172174346493
 20
1982.492332721559
 30
0.0
 10
830.7274573896233
 20
1982.567180146022
 30
0.0
 10
830.9320543433557
 20
1982.648774449135
 30
0.0
 10
831.1289215727009
 20
1982.737204375806
 30
0.0
  0
SPLINE
  5
146
330
87
100
AcDbEntity
  8
P-SANR-FIXT
100
AcDbSpline
210
0.0
220
0.0
230
1.0
 70
     8
 71
     3
 72
     9
 73
     5
 74
     0
 42
0.000000001
 43
0.0000000001
 40
0.6666666666666666
 40
0.6666666666666666
 40
0.6666666666666666
 40
0.6666666666666666
 40
0.6875
 40
0.7083333333333332
 40
0.7083333333333332
 40
0.7083333333333332
 40
0.7083333333333332
 10
831.7021375792746
 20
1983.019161390287
 30
0.0
 10
831.7944511451097
 20
1983.068964094296
 30
0.0
 10
831.9747479029357
 20
1983.171712888723
 30
0.0
 10
832.153015307597
 20
1983.277523455504
 30
0.0
 10
832.2403669081078
 20
1983.331660441844
 30
0.0
  0
SPLINE
  5
147
330
87
100
AcDbEntity
  8
P-SANR-FIXT
100
AcDbSpline
210
0.0
220
0.0
230
1.0
 70
     8
 71
     3
 72
     8
 73
     4
 74
     0
 42
0.000000001
 43
0.0000000001
 40
0.75
 40
0.75
 40
0.75
 40
0.75
 40
0.7598103649644603
 40
0.7598103649644603
 40
0.7598103649644603
 40
0.7598103649644603
 10
832.7328931811049
 20
1983.674992874174
 30
0.0
 10
832.7703524556952
 20
1983.702799755556
 30
0.0
 10
832.8068318355043
 20
1983.731059768593
 30
0.0
 10
832.8424071579805
 20
1983.75973801519
 30
0.0
  0
SPLINE
  5
148
330
87
100
AcDbEntity
  8
P-SANR-FIXT
100
AcDbSpline
210
0.0
220
0.0
230
1.0
 70
     8
 71
     3
 72
     8
 73
     4
 74
     0
 42
0.000000001
 43
0.0000000001
 40
0.833333333333333
 40
0.833333333333333
 40
0.833333333333333
 40
0.833333333333333
 40
0.8398279878135268
 40
0.8398279878135268
 40
0.8398279878135268
 40
0.8398279878135268
 10
833.6131334748566
 20
1984.426603448607
 30
0.0
 10
833.6340913269236
 20
1984.447128381779
 30
0.0
 10
833.6546294311377
 20
1984.467798901931
 30
0.0
 10
833.6747800546836
 20
1984.488603867914
 30
0.0
  0
SPLINE
  5
149
330
87
100
AcDbEntity
  8
P-SANR-FIXT
100
AcDbSpline
210
0.0
220
0.0
230
1.0
 70
     8
 71
     3
 72
     8
 73
     4
 74
     0
 42
0.000000001
 43
0.0000000001
 40
0.9166666666666662
 40
0.9166666666666662
 40
0.9166666666666662
 40
0.9166666666666662
 40
0.9244372749868752
 40
0.9244372749868752
 40
0.9244372749868752
 40
0.9244372749868752
 10
834.3480389824856
 20
1985.246051095498
 30
0.0
 10
834.3686750622508
 20
1985.272293493587
 30
0.0
 10
834.3887463042827
 20
1985.298662246694
 30
0.0
 10
834.4083545177905
 20
1985.325134781205
 30
0.0
  0
ARC
  5
14A
330
87
100
AcDbEntity
  8
P-SANR-FIXT
100
AcDbCircle
 10
827.6664074431893
 20
1990.499999999995
 30
0.0
 40
8.499999999999992
100
AcDbArc
 50
120.1164782606486
 51
122.9511591161921
  0
ARC
  5
14B
330
87
100
AcDbEntity
  8
P-SANR-FIXT
100
AcDbCircle
 10
827.6664074431893
 20
1990.499999999995
 30
0.0
 40
8.49999999999998
100
AcDbArc
 50
111.4795694588174
 51
112.5453191974266
  0
ARC
  5
14C
330
87
100
AcDbEntity
  8
P-SANR-FIXT
100
AcDbCircle
 10
827.6664074431893
 20
1990.499999999995
 30
0.0
 40
8.499999999999948
100
AcDbArc
 50
97.51835115500721
 51
100.0079798014426
  0
ARC
  5
14D
330
87
100
AcDbEntity
  8
P-SANR-FIXT
100
AcDbCircle
 10
827.6664074431893
 20
1990.499999999995
 30
0.0
 40
8.499999999999939
100
AcDbArc
 50
88.53639014406715
 51
90.00637254023756
  0
SPLINE
  5
14E
330
87
100
AcDbEntity
  8
P-SANR-FIXT
100
AcDbSpline
210
0.0
220
0.0
230
1.0
 70
     8
 71
     3
 72
     8
 73
     4
 74
     0
 42
0.000000001
 43
0.0000000001
 40
0.0833983564437001
 40
0.0833983564437001
 40
0.0833983564437001
 40
0.0833983564437001
 40
0.125
 40
0.125
 40
0.125
 40
0.125
 10
821.6493901824161
 20
1996.503829270703
 30
0.0
 10
821.5801403747329
 20
1996.43443880881
 30
0.0
 10
821.5117277936553
 20
1996.363829346131
 30
0.0
 10
821.4443799510791
 20
1996.291943963175
 30
0.0
  0
SPLINE
  5
14F
330
87
100
AcDbEntity
  8
P-SANR-FIXT
100
AcDbSpline
210
0.0
220
0.0
230
1.0
 70
     8
 71
     3
 72
     8
 73
     4
 74
     0
 42
0.000000001
 43
0.0000000001
 40
0.2378304914910418
 40
0.2378304914910418
 40
0.2378304914910418
 40
0.2378304914910418
 40
0.25
 40
0.25
 40
0.25
 40
0.25
 10
820.9251517057007
 20
1995.677438711775
 30
0.0
 10
820.9074299074559
 20
1995.654352827721
 30
0.0
 10
820.8897888393535
 20
1995.631170805164
 30
0.0
 10
820.8723115348448
 20
1995.607862643823
 30
0.0
  0
SPLINE
  5
150
330
87
100
AcDbEntity
  8
P-SANR-FIXT
100
AcDbSpline
210
0.0
220
0.0
230
1.0
 70
     8
 71
     3
 72
     8
 73
     4
 74
     0
 42
0.000000001
 43
0.0000000001
 40
0.375
 40
0.375
 40
0.375
 40
0.375
 40
0.3918235881887202
 40
0.3918235881887202
 40
0.3918235881887202
 40
0.3918235881887202
 10
820.3691110159295
 20
1994.858369203037
 30
0.0
 10
820.3482324003935
 20
1994.823413775994
 30
0.0
 10
820.3277112263613
 20
1994.788255813374
 30
0.0
 10
820.3075032374922
 20
1994.752914053156
 30
0.0
  0
SPLINE
  5
151
330
87
100
AcDbEntity
  8
P-SANR-FIXT
100
AcDbSpline
210
0.0
220
0.0
230
1.0
 70
     8
 71
     3
 72
     8
 73
     4
 74
     0
 42
0.000000001
 43
0.0000000001
 40
0.5
 40
0.5
 40
0.5
 40
0.5
 40
0.5442561772461973
 40
0.5442561772461973
 40
0.5442561772461973
 40
0.5442561772461973
 10
819.9447691375109
 20
1994.053350795551
 30
0.0
 10
819.8997245197649
 20
1993.955518611849
 30
0.0
 10
819.8547015347642
 20
1993.857160019436
 30
0.0
 10
819.8107011943433
 20
1993.758145854168
 30
0.0
  0
SPLINE
  5
152
330
87
100
AcDbEntity
  8
P-SANR-FIXT
100
AcDbSpline
210
0.0
220
0.0
230
1.0
 70
     8
 71
     3
 72
     8
 73
     4
 74
     0
 42
0.000000001
 43
0.0000000001
 40
0.625
 40
0.625
 40
0.625
 40
0.625
 40
0.75
 40
0.75
 40
0.75
 40
0.75
 10
819.6080409863631
 20
1993.204147107318
 30
0.0
 10
819.5110076769928
 20
1992.914939477277
 30
0.0
 10
819.4184942309799
 20
1992.621535461245
 30
0.0
 10
819.363920496608
 20
1992.321732829431
 30
0.0
  0
SPLINE
  5
153
330
87
100
AcDbEntity
  8
P-SANR-FIXT
100
AcDbSpline
210
0.0
220
0.0
230
1.0
 70
     8
 71
     3
 72
     8
 73
     4
 74
     0
 42
0.000000001
 43
0.0000000001
 40
0.8483986030746379
 40
0.8483986030746379
 40
0.8483986030746379
 40
0.8483986030746379
 40
0.875
 40
0.875
 40
0.875
 40
0.875
 10
819.2393417241047
 20
1991.610808405278
 30
0.0
 10
819.2308372315054
 20
1991.54627109341
 30
0.0
 10
819.2243041950506
 20
1991.481540329228
 30
0.0
 10
819.2190963357946
 20
1991.416677894115
 30
0.0
  0
LINE
  5
154
330
87
100
AcDbEntity
  8
P-SANR-FIXT
100
AcDbLine
 10
796.7235817369495
 20
1978.099999999995
 30
0.0
 11
799.9932542057481
 21
1978.099999999995
 31
0.0
  0
LINE
  5
155
330
87
100
AcDbEntity
  8
P-SANR-FIXT
100
AcDbLine
 10
812.6924883680521
 20
1978.099999999995
 30
0.0
 11
818.8561591205603
 21
1978.099999999995
 31
0.0
  0
LINE
  5
156
330
87
100
AcDbEntity
  8
P-SANR-FIXT
100
AcDbLine
 10
831.3395606806304
 20
1978.099999999995
 30
0.0
 11
834.6092331494872
 21
1978.099999999995
 31
0.0
  0
SPLINE
  5
157
330
87
100
AcDbEntity
  8
P-SANR-FIXT
100
AcDbSpline
210
0.0
220
0.0
230
1.0
 70
     8
 71
     3
 72
     8
 73
     4
 74
     0
 42
0.000000001
 43
0.0000000001
 40
0.5
 40
0.5
 40
0.5
 40
0.5
 40
1.0
 40
1.0
 40
1.0
 40
1.0
 10
814.6678319391766
 20
2007.331216438715
 30
0.0
 10
814.6668823517385
 20
2007.387469567587
 30
0.0
 10
814.6664075234758
 20
2007.44373075468
 30
0.0
 10
814.6664074431892
 20
2007.499999999995
 30
0.0
  0
SPLINE
  5
158
330
87
100
AcDbEntity
  8
P-SANR-FIXT
100
AcDbSpline
210
0.0
220
0.0
230
1.0
 70
     8
 71
     3
 72
     8
 73
     4
 74
     0
 42
0.000000001
 43
0.0000000001
 40
0.0333333333333333
 40
0.0333333333333333
 40
0.0333333333333333
 40
0.0333333333333333
 40
0.0666666666666667
 40
0.0666666666666667
 40
0.0666666666666667
 40
0.0666666666666667
 10
814.7122298796485
 20
2008.440277138762
 30
0.0
 10
814.7411993790313
 20
2008.749618542924
 30
0.0
 10
814.783941659493
 20
2009.055067987433
 30
0.0
 10
814.8406890025805
 20
2009.35720251962
 30
0.0
  0
SPLINE
  5
159
330
87
100
AcDbEntity
  8
P-SANR-FIXT
100
AcDbSpline
210
0.0
220
0.0
230
1.0
 70
     8
 71
     3
 72
     8
 73
     4
 74
     0
 42
0.000000001
 43
0.0000000001
 40
0.0938129285296277
 40
0.0938129285296277
 40
0.0938129285296277
 40
0.0938129285296277
 40
0.1
 40
0.1
 40
0.1
 40
0.1
 10
815.0073231360979
 20
2010.089082654749
 30
0.0
 10
815.0221187449638
 20
2010.144231363265
 30
0.0
 10
815.0374033715651
 20
2010.199282057182
 30
0.0
 10
815.0531785012692
 20
2010.254238426535
 30
0.0
  0
SPLINE
  5
15A
330
87
100
AcDbEntity
  8
P-SANR-FIXT
100
AcDbSpline
210
0.0
220
0.0
230
1.0
 70
     8
 71
     3
 72
     8
 73
     4
 74
     0
 42
0.000000001
 43
0.0000000001
 40
0.1333333333333333
 40
0.1333333333333333
 40
0.1333333333333333
 40
0.1333333333333333
 40
0.1408640161603892
 40
0.1408640161603892
 40
0.1408640161603892
 40
0.1408640161603892
 10
815.350225750527
 20
2011.132538954164
 30
0.0
 10
815.3757164503963
 20
2011.197801707757
 30
0.0
 10
815.4019014641621
 20
2011.262836362941
 30
0.0
 10
815.4287734807931
 20
2011.327622957924
 30
0.0
  0
SPLINE
  5
15B
330
87
100
AcDbEntity
  8
P-SANR-FIXT
100
AcDbSpline
210
0.0
220
0.0
230
1.0
 70
     8
 71
     3
 72
     8
 73
     4
 74
     0
 42
0.000000001
 43
0.0000000001
 40
0.1666666666666666
 40
0.1666666666666666
 40
0.1666666666666666
 40
0.1666666666666666
 40
0.2
 40
0.2
 40
0.2
 40
0.2
 10
815.7288928672828
 20
2011.984025439916
 30
0.0
 10
815.8682958621687
 20
2012.262231166864
 30
0.0
 10
816.0206681353804
 20
2012.534236744849
 30
0.0
 10
816.1853756539946
 20
2012.798311031887
 30
0.0
  0
SPLINE
  5
15C
330
87
100
AcDbEntity
  8
P-SANR-FIXT
100
AcDbSpline
210
0.0
220
0.0
230
1.0
 70
     8
 71
     3
 72
     8
 73
     4
 74
     0
 42
0.000000001
 43
0.0000000001
 40
0.2333333333333333
 40
0.2333333333333333
 40
0.2333333333333333
 40
0.2333333333333333
 40
0.2345368886286721
 40
0.2345368886286721
 40
0.2345368886286721
 40
0.2345368886286721
 10
816.7153752105976
 20
2013.565492046627
 30
0.0
 10
816.7221722629136
 20
2013.574409081835
 30
0.0
 10
816.7289839250537
 20
2013.583314150121
 30
0.0
 10
816.7358101438862
 20
2013.592207192739
 30
0.0
  0
SPLINE
  5
15D
330
87
100
AcDbEntity
  8
P-SANR-FIXT
100
AcDbSpline
210
0.0
220
0.0
230
1.0
 70
     8
 71
     3
 72
     8
 73
     4
 74
     0
 42
0.000000001
 43
0.0000000001
 40
0.2666666666666666
 40
0.2666666666666666
 40
0.2666666666666666
 40
0.2666666666666666
 40
0.3
 40
0.3
 40
0.3
 40
0.3
 10
817.3126138269388
 20
2014.277597474496
 30
0.0
 10
817.5221473853783
 20
2014.504954703619
 30
0.0
 10
817.7417587183279
 20
2014.721884694733
 30
0.0
 10
817.9703190903424
 20
2014.927139474306
 30
0.0
  0
SPLINE
  5
15E
330
87
100
AcDbEntity
  8
P-SANR-FIXT
100
AcDbSpline
210
0.0
220
0.0
230
1.0
 70
     8
 71
     3
 72
     8
 73
     4
 74
     0
 42
0.000000001
 43
0.0000000001
 40
0.3286168085486813
 40
0.3286168085486813
 40
0.3286168085486813
 40
0.3286168085486813
 40
0.3333333333333333
 40
0.3333333333333333
 40
0.3333333333333333
 40
0.3333333333333333
 10
818.5780572599465
 20
2015.430182348209
 30
0.0
 10
818.6124548709297
 20
2015.456425046506
 30
0.0
 10
818.6470123885143
 20
2015.482440011696
 30
0.0
 10
818.6817266379183
 20
2015.508228235455
 30
0.0
  0
SPLINE
  5
15F
330
87
100
AcDbEntity
  8
P-SANR-FIXT
100
AcDbSpline
210
0.0
220
0.0
230
1.0
 70
     8
 71
     3
 72
     9
 73
     5
 74
     0
 42
0.000000001
 43
0.0000000001
 40
0.3666666666666666
 40
0.3666666666666666
 40
0.3666666666666666
 40
0.3666666666666666
 40
0.375
 40
0.4
 40
0.4
 40
0.4
 40
0.4
 10
819.4392169294811
 20
2016.020898683592
 30
0.0
 10
819.5037416876699
 20
2016.060653530955
 30
0.0
 10
819.7626302609238
 20
2016.216461759965
 30
0.0
 10
820.0226220718809
 20
2016.358578089299
 30
0.0
 10
820.2199682404124
 20
2016.457074210697
 30
0.0
  0
SPLINE
  5
160
330
87
100
AcDbEntity
  8
P-SANR-FIXT
100
AcDbSpline
210
0.0
220
0.0
230
1.0
 70
     8
 71
     3
 72
     8
 73
     4
 74
     0
 42
0.000000001
 43
0.0000000001
 40
0.4258763345868178
 40
0.4258763345868178
 40
0.4258763345868178
 40
0.4258763345868178
 40
0.4333333333333333
 40
0.4333333333333333
 40
0.4333333333333333
 40
0.4333333333333333
 10
820.8391765937044
 20
2016.737559339786
 30
0.0
 10
820.8991639668848
 20
2016.762128257138
 30
0.0
 10
820.9592656678481
 20
2016.786030767386
 30
0.0
 10
821.0194543313384
 20
2016.809282278808
 30
0.0
  0
SPLINE
  5
161
330
87
100
AcDbEntity
  8
P-SANR-FIXT
100
AcDbSpline
210
0.0
220
0.0
230
1.0
 70
     8
 71
     3
 72
     9
 73
     5
 74
     0
 42
0.000000001
 43
0.0000000001
 40
0.466527347369302
 40
0.466527347369302
 40
0.466527347369302
 40
0.466527347369302
 40
0.475
 40
0.5
 40
0.5
 40
0.5
 40
0.5
 10
821.8254373698464
 20
2017.08257565758
 30
0.0
 10
821.8938092954225
 20
2017.102821501712
 30
0.0
 10
822.163183251208
 20
2017.179968693513
 30
0.0
 10
822.4278628613422
 20
2017.24652798997
 30
0.0
 10
822.6232777131459
 20
2017.289056180558
 30
0.0
  0
SPLINE
  5
162
330
87
100
AcDbEntity
  8
P-SANR-FIXT
100
AcDbSpline
210
0.0
220
0.0
230
1.0
 70
     8
 71
     3
 72
     8
 73
     4
 74
     0
 42
0.000000001
 43
0.0000000001
 40
0.5318907811658962
 40
0.5318907811658962
 40
0.5318907811658962
 40
0.5318907811658962
 40
0.5333333333333333
 40
0.5333333333333333
 40
0.5333333333333333
 40
0.5333333333333333
 10
823.361333335063
 20
2017.416253057083
 30
0.0
 10
823.3723260916598
 20
2017.417635945558
 30
0.0
 10
823.383311952403
 20
2017.418996066009
 30
0.0
 10
823.3942906028643
 20
2017.420333839623
 30
0.0
  0
SPLINE
  5
163
330
87
100
AcDbEntity
  8
P-SANR-FIXT
100
AcDbSpline
210
0.0
220
0.0
230
1.0
 70
     8
 71
     3
 72
    10
 73
     6
 74
     0
 42
0.000000001
 43
0.0000000001
 40
0.5666666666666666
 40
0.5666666666666666
 40
0.5666666666666666
 40
0.5666666666666666
 40
0.5750000000000001
 40
0.5875000000000002
 40
0.6000000000000001
 40
0.6000000000000001
 40
0.6000000000000001
 40
0.6000000000000001
 10
824.1401601716381
 20
2017.482223245702
 30
0.0
 10
824.2008074172728
 20
2017.485160485804
 30
0.0
 10
824.351368557162
 20
2017.491296200072
 30
0.0
 10
824.587733777194
 20
2017.496785788618
 30
0.0
 10
824.760272131159
 20
2017.498597206191
 30
0.0
 10
824.8454249883945
 20
2017.498397507521
 30
0.0
  0
SPLINE
  5
164
330
87
100
AcDbEntity
  8
P-SANR-FIXT
100
AcDbSpline
210
0.0
220
0.0
230
1.0
 70
     8
 71
     3
 72
     9
 73
     5
 74
     0
 42
0.000000001
 43
0.0000000001
 40
0.6333333333333333
 40
0.6333333333333333
 40
0.6333333333333333
 40
0.6333333333333333
 40
0.6500000000000002
 40
0.6666666666666666
 40
0.6666666666666666
 40
0.6666666666666666
 40
0.6666666666666666
 10
825.5042557878882
 20
2017.467864915632
 30
0.0
 10
825.6102998156471
 20
2017.458235005818
 30
0.0
 10
825.8184896969508
 20
2017.435218383358
 30
0.0
 10
826.0185625197076
 20
2017.406739595569
 30
0.0
 10
826.1164877458424
 20
2017.391647214319
 30
0.0
  0
SPLINE
  5
165
330
87
100
AcDbEntity
  8
P-SANR-FIXT
100
AcDbSpline
210
0.0
220
0.0
230
1.0
 70
     8
 71
     3
 72
     9
 73
     5
 74
     0
 42
0.000000001
 43
0.0000000001
 40
0.7333333333333333
 40
0.7333333333333333
 40
0.7333333333333333
 40
0.7333333333333333
 40
0.75
 40
0.7666666666666666
 40
0.7666666666666666
 40
0.7666666666666666
 40
0.7666666666666666
 10
827.1859776666799
 20
2017.180546714027
 30
0.0
 10
827.2660733418106
 20
2017.159084671876
 30
0.0
 10
827.4217009197123
 20
2017.114562968093
 30
0.0
 10
827.5681434481128
 20
2017.06849338722
 30
0.0
 10
827.6390579266914
 20
2017.045710733922
 30
0.0
  0
SPLINE
  5
166
330
87
100
AcDbEntity
  8
P-SANR-FIXT
100
AcDbSpline
210
0.0
220
0.0
230
1.0
 70
     8
 71
     3
 72
    10
 73
     6
 74
     0
 42
0.000000001
 43
0.0000000001
 40
0.8333333333333332
 40
0.8333333333333332
 40
0.8333333333333332
 40
0.8333333333333332
 40
0.85
 40
0.875
 40
0.9
 40
0.9
 40
0.9
 40
0.9
 10
828.3768770844154
 20
2016.789542389779
 30
0.0
 10
828.4286772008501
 20
2016.768447001041
 30
0.0
 10
828.5518188669588
 20
2016.716262440252
 30
0.0
 10
828.7255792475695
 20
2016.637216265721
 30
0.0
 10
828.8289378155244
 20
2016.59123433965
 30
0.0
 10
828.8787842309956
 20
2016.569502841802
 30
0.0
  0
LINE
  5
167
330
87
100
AcDbEntity
  8
P-SANR-FIXT
100
AcDbLine
 10
830.6664074431891
 20
2018.999999999995
 30
0.0
 11
800.6664074431892
 21
2018.999999999995
 31
0.0
  0
LINE
  5
168
330
87
100
AcDbEntity
  8
P-SANR-FIXT
100
AcDbLine
 10
819.5274796063575
 20
1988.100060387666
 30
0.0
 11
819.5157942329249
 21
1988.100060387666
 31
0.0
  0
LINE
  5
169
330
87
100
AcDbEntity
  8
P-SANR-FIXT
100
AcDbLine
 10
810.626972507039
 20
1988.100060387666
 30
0.0
 11
810.6031987025241
 21
1988.100060387666
 31
0.0
  0
LINE
  5
16A
330
87
100
AcDbEntity
  8
P-SANR-FIXT
100
AcDbLine
 10
799.841498766284
 20
1988.100060387666
 30
0.0
 11
800.25823890352
 21
1988.100060387666
 31
0.0
  0
LINE
  5
16B
330
87
100
AcDbEntity
  8
P-SANR-FIXT
100
AcDbLine
 10
810.6303608420654
 20
1988.100060387666
 30
0.0
 11
819.51224961683
 21
1988.100060387666
 31
0.0
  0
LINE
  5
16C
330
87
100
AcDbEntity
  8
P-SANR-FIXT
100
AcDbLine
 10
837.6664074431891
 20
2016.549999999995
 30
0.0
 11
837.6664074431891
 21
1983.449999999995
 31
0.0
  0
SPLINE
  5
16D
330
87
100
AcDbEntity
  8
P-SANR-FIXT
100
AcDbSpline
210
0.0
220
0.0
230
1.0
 70
     8
 71
     3
 72
     8
 73
     4
 74
     0
 42
0.000000001
 43
0.0000000001
 40
-0.5999654012973652
 40
-0.5999654012973652
 40
-0.5999654012973652
 40
-0.5999654012973652
 40
-0.5986788700629431
 40
-0.5986788700629431
 40
-0.5986788700629431
 40
-0.5986788700629431
 10
829.5727184051845
 20
1998.786881061002
 30
0.0
 10
829.5624896470059
 20
1998.781127302173
 30
0.0
 10
829.5522511538637
 20
1998.77539132124
 30
0.0
 10
829.5420030542258
 20
1998.769673251412
 30
0.0
  0
SPLINE
  5
16E
330
87
100
AcDbEntity
  8
P-SANR-FIXT
100
AcDbSpline
210
0.0
220
0.0
230
1.0
 70
     8
 71
     3
 72
     8
 73
     4
 74
     0
 42
0.000000001
 43
0.0000000001
 40
-0.353209790462632
 40
-0.353209790462632
 40
-0.353209790462632
 40
-0.353209790462632
 40
-0.3516982780272151
 40
-0.3516982780272151
 40
-0.3516982780272151
 40
-0.3516982780272151
 10
823.0834890034955
 20
1997.626483632209
 30
0.0
 10
823.0699230480112
 20
1997.628648420418
 30
0.0
 10
823.056358883154
 20
1997.630837006578
 30
0.0
 10
823.0427973035491
 20
1997.633050299995
 30
0.0
  0
SPLINE
  5
16F
330
87
100
AcDbEntity
  8
P-SANR-FIXT
100
AcDbSpline
210
0.0
220
0.0
230
1.0
 70
     8
 71
     3
 72
    24
 73
    20
 74
     0
 42
0.000000001
 43
0.0000000001
 40
-1.0
 40
-1.0
 40
-1.0
 40
-1.0
 40
-0.875
 40
-0.8125
 40
-0.78125
 40
-0.75
 40
-0.71875
 40
-0.6875
 40
-0.625
 40
-0.5625
 40
-0.53125
 40
-0.5
 40
-0.46875
 40
-0.4375
 40
-0.375
 40
-0.3125
 40
-0.25
 40
-0.125
 40
0.0
 40
0.0
 40
0.0
 40
0.0
 10
822.3721888108286
 20
1997.14990594465
 30
0.0
 10
822.1530613838121
 20
1997.357157570655
 30
0.0
 10
821.8074561109276
 20
1997.634861378829
 30
0.0
 10
821.3748119981218
 20
1997.899580822833
 30
0.0
 10
821.118991064177
 20
1998.033524096832
 30
0.0
 10
820.9233359220464
 20
1998.126023122097
 30
0.0
 10
820.7218114315271
 20
1998.20754395833
 30
0.0
 10
820.4441657822655
 20
1998.299951780733
 30
0.0
 10
820.0846685268704
 20
1998.39112190626
 30
0.0
 10
819.7166227948674
 20
1998.461368570198
 30
0.0
 10
819.4217798445716
 20
1998.511809817619
 30
0.0
 10
819.2023788140396
 20
1998.549566853981
 30
0.0
 10
818.9830657851116
 20
1998.58483048804
 30
0.0
 10
818.687547303611
 20
1998.623844244836
 30
0.0
 10
818.3153686579528
 20
1998.662078478488
 30
0.0
 10
817.8672363063732
 20
1998.695517041227
 30
0.0
 10
817.2745394998512
 20
1998.733764759613
 30
0.0
 10
816.5414203042743
 20
1998.767779256114
 30
0.0
 10
815.9573496219731
 20
1998.771482970038
 30
0.0
 10
815.6664074431892
 20
1998.768188937424
 30
0.0
  0
SPLINE
  5
170
330
87
100
AcDbEntity
  8
P-SANR-FIXT
100
AcDbSpline
210
0.0
220
0.0
230
1.0
 70
     8
 71
     3
 72
     8
 73
     4
 74
     0
 42
0.000000001
 43
0.0000000001
 40
-0.5
 40
-0.5
 40
-0.5
 40
-0.5
 40
0.0
 40
0.0
 40
0.0
 40
0.0
 10
822.7025486381394
 20
1997.400007664014
 30
0.0
 10
822.5907377608503
 20
1997.319539507317
 30
0.0
 10
822.4806178184135
 20
1997.236159282079
 30
0.0
 10
822.3721888108286
 20
1997.14990594465
 30
0.0
  0
SPLINE
  5
171
330
87
100
AcDbEntity
  8
P-SANR-FIXT
100
AcDbSpline
210
0.0
220
0.0
230
1.0
 70
     8
 71
     3
 72
     8
 73
     4
 74
     0
 42
0.000000001
 43
0.0000000001
 40
-1.0
 40
-1.0
 40
-1.0
 40
-1.0
 40
-0.9802447871996792
 40
-0.9802447871996792
 40
-0.9802447871996792
 40
-0.9802447871996792
 10
815.6664074431892
 20
2003.141101056454
 30
0.0
 10
815.6942709385875
 20
2003.084236791136
 30
0.0
 10
815.7225858394363
 20
2003.027698458998
 30
0.0
 10
815.751355755828
 20
2002.971487277005
 30
0.0
  0
SPLINE
  5
172
330
87
100
AcDbEntity
  8
P-SANR-FIXT
100
AcDbSpline
210
0.0
220
0.0
230
1.0
 70
     8
 71
     3
 72
     8
 73
     4
 74
     0
 42
0.000000001
 43
0.0000000001
 40
-0.875
 40
-0.875
 40
-0.875
 40
-0.875
 40
-0.8573000569102418
 40
-0.8573000569102418
 40
-0.8573000569102418
 40
-0.8573000569102418
 10
816.2504542380165
 20
2002.10114072545
 30
0.0
 10
816.2806665786954
 20
2002.053931624653
 30
0.0
 10
816.3112172404513
 20
2002.006929254151
 30
0.0
 10
816.3421268234273
 20
2001.960160441865
 30
0.0
  0
SPLINE
  5
173
330
87
100
AcDbEntity
  8
P-SANR-FIXT
100
AcDbSpline
210
0.0
220
0.0
230
1.0
 70
     8
 71
     3
 72
     8
 73
     4
 74
     0
 42
0.000000001
 43
0.0000000001
 40
-0.75
 40
-0.75
 40
-0.75
 40
-0.75
 40
-0.733726971583576
 40
-0.733726971583576
 40
-0.733726971583576
 40
-0.733726971583576
 10
816.9484245681072
 20
2001.141325583111
 30
0.0
 10
816.9812640245796
 20
2001.101440348693
 30
0.0
 10
817.0145216472974
 20
2001.061919593956
 30
0.0
 10
817.0481755904852
 20
2001.022743892549
 30
0.0
  0
SPLINE
  5
174
330
87
100
AcDbEntity
  8
P-SANR-FIXT
100
AcDbSpline
210
0.0
220
0.0
230
1.0
 70
     8
 71
     3
 72
     8
 73
     4
 74
     0
 42
0.000000001
 43
0.0000000001
 40
-0.625
 40
-0.625
 40
-0.625
 40
-0.625
 40
-0.6127111204796876
 40
-0.6127111204796876
 40
-0.6127111204796876
 40
-0.6127111204796876
 10
817.7621475151607
 20
2000.266152396989
 30
0.0
 10
817.7905902445258
 20
2000.2390098634
 30
0.0
 10
817.819244142753
 20
2000.212114213812
 30
0.0
 10
817.8480932323795
 20
2000.185442821329
 30
0.0
  0
SPLINE
  5
175
330
87
100
AcDbEntity
  8
P-SANR-FIXT
100
AcDbSpline
210
0.0
220
0.0
230
1.0
 70
     8
 71
     3
 72
     8
 73
     4
 74
     0
 42
0.000000001
 43
0.0000000001
 40
-0.5
 40
-0.5
 40
-0.5
 40
-0.5
 40
-0.4902092523187188
 40
-0.4902092523187188
 40
-0.4902092523187188
 40
-0.4902092523187188
 10
818.6788195072804
 20
1999.490705979311
 30
0.0
 10
818.7039532513106
 20
1999.47191629629
 30
0.0
 10
818.7291160579894
 20
1999.453116922475
 30
0.0
 10
818.7543132961721
 20
1999.434323850726
 30
0.0
  0
SPLINE
  5
176
330
87
100
AcDbEntity
  8
P-SANR-FIXT
100
AcDbSpline
210
0.0
220
0.0
230
1.0
 70
     8
 71
     3
 72
     8
 73
     4
 74
     0
 42
0.000000001
 43
0.0000000001
 40
-0.375
 40
-0.375
 40
-0.375
 40
-0.375
 40
-0.3677050361803755
 40
-0.3677050361803755
 40
-0.3677050361803755
 40
-0.3677050361803755
 10
819.681379288175
 20
1998.831310740578
 30
0.0
 10
819.7015934801857
 20
1998.819686066704
 30
0.0
 10
819.7218153575413
 20
1998.808060026587
 30
0.0
 10
819.7420495120166
 20
1998.796445763407
 30
0.0
  0
SPLINE
  5
177
330
87
100
AcDbEntity
  8
P-SANR-FIXT
100
AcDbSpline
210
0.0
220
0.0
230
1.0
 70
     8
 71
     3
 72
     8
 73
     4
 74
     0
 42
0.000000001
 43
0.0000000001
 40
-0.25
 40
-0.25
 40
-0.25
 40
-0.25
 40
-0.2451296054828883
 40
-0.2451296054828883
 40
-0.2451296054828883
 40
-0.2451296054828883
 10
820.7503675175662
 20
1998.298661439713
 30
0.0
 10
820.764595773382
 20
1998.292606817862
 30
0.0
 10
820.778862151798
 20
1998.28665194148
 30
0.0
 10
820.7931651763681
 20
1998.28079295028
 30
0.0
  0
SPLINE
  5
178
330
87
100
AcDbEntity
  8
P-SANR-FIXT
100
AcDbSpline
210
0.0
220
0.0
230
1.0
 70
     8
 71
     3
 72
     8
 73
     4
 74
     0
 42
0.000000001
 43
0.0000000001
 40
-0.125
 40
-0.125
 40
-0.125
 40
-0.125
 40
-0.1217331321695803
 40
-0.1217331321695803
 40
-0.1217331321695803
 40
-0.1217331321695803
 10
821.8701828589077
 20
1997.899782108679
 30
0.0
 10
821.8801596894225
 20
1997.896887284518
 30
0.0
 10
821.8901550843932
 20
1997.894036179911
 30
0.0
 10
821.9001680817218
 20
1997.891226530121
 30
0.0
  0
SPLINE
  5
179
330
87
100
AcDbEntity
  8
P-SANR-FIXT
100
AcDbSpline
210
0.0
220
0.0
230
1.0
 70
     8
 71
     3
 72
     9
 73
     5
 74
     0
 42
0.000000001
 43
0.0000000001
 40
-0.9333333333333333
 40
-0.9333333333333333
 40
-0.9333333333333333
 40
-0.9333333333333333
 40
-0.9
 40
-0.8666666666666667
 40
-0.8666666666666667
 40
-0.8666666666666667
 40
-0.8666666666666667
 10
834.601936238889
 20
2008.444264312293
 30
0.0
 10
834.5864605648742
 20
2008.597359060924
 30
0.0
 10
834.5507536789588
 20
2008.899161909363
 30
0.0
 10
834.5054605235063
 20
2009.191879423938
 30
0.0
 10
834.4805677659248
 20
2009.335913132277
 30
0.0
  0
SPLINE
  5
17A
330
87
100
AcDbEntity
  8
P-SANR-FIXT
100
AcDbSpline
210
0.0
220
0.0
230
1.0
 70
     8
 71
     3
 72
     8
 73
     4
 74
     0
 42
0.000000001
 43
0.0000000001
 40
-0.8066691424239277
 40
-0.8066691424239277
 40
-0.8066691424239277
 40
-0.8066691424239277
 40
-0.8
 40
-0.8
 40
-0.8
 40
-0.8
 10
834.3235465827087
 20
2010.090648024929
 30
0.0
 10
834.3167916580199
 20
2010.117740021483
 30
0.0
 10
834.309918527323
 20
2010.144732608416
 30
0.0
 10
834.302922372853
 20
2010.171624975617
 30
0.0
  0
SPLINE
  5
17B
330
87
100
AcDbEntity
  8
P-SANR-FIXT
100
AcDbSpline
210
0.0
220
0.0
230
1.0
 70
     8
 71
     3
 72
     9
 73
     5
 74
     0
 42
0.000000001
 43
0.0000000001
 40
-0.7333333333333334
 40
-0.7333333333333334
 40
-0.7333333333333334
 40
-0.7333333333333334
 40
-0.7
 40
-0.6666666666666668
 40
-0.6666666666666668
 40
-0.6666666666666668
 40
-0.6666666666666668
 10
834.0573208192644
 20
2010.947773685147
 30
0.0
 10
834.0107311468809
 20
2011.072039288665
 30
0.0
 10
833.9125921737124
 20
2011.315462735613
 30
0.0
 10
833.807783477062
 20
2011.5486953291
 30
0.0
 10
833.7545991795909
 20
2011.662785746327
 30
0.0
  0
SPLINE
  5
17C
330
87
100
AcDbEntity
  8
P-SANR-FIXT
100
AcDbSpline
210
0.0
220
0.0
230
1.0
 70
     8
 71
     3
 72
    10
 73
     6
 74
     0
 42
0.000000001
 43
0.0000000001
 40
-0.6
 40
-0.6
 40
-0.6
 40
-0.6
 40
-0.575
 40
-0.55
 40
-0.5333333333333334
 40
-0.5333333333333334
 40
-0.5333333333333334
 40
-0.5333333333333334
 10
833.42989967409
 20
2012.316762804923
 30
0.0
 10
833.388666956544
 20
2012.394603699709
 30
0.0
 10
833.305653819403
 20
2012.547278221437
 30
0.0
 10
833.1878310341931
 20
2012.742224982731
 30
0.0
 10
833.112275894171
 20
2012.859827045098
 30
0.0
 10
833.0818332746195
 20
2012.906199777413
 30
0.0
  0
SPLINE
  5
17D
330
87
100
AcDbEntity
  8
P-SANR-FIXT
100
AcDbSpline
210
0.0
220
0.0
230
1.0
 70
     8
 71
     3
 72
    10
 73
     6
 74
     0
 42
0.000000001
 43
0.0000000001
 40
-0.4666666666666667
 40
-0.4666666666666667
 40
-0.4666666666666667
 40
-0.4666666666666667
 40
-0.45
 40
-0.425
 40
-0.4
 40
-0.4
 40
-0.4
 40
-0.4
 10
832.7114490196018
 20
2013.431224996837
 30
0.0
 10
832.6806233469106
 20
2013.472399325646
 30
0.0
 10
832.6038748333917
 20
2013.573745206555
 30
0.0
 10
832.4832137103756
 20
2013.729597658686
 30
0.0
 10
832.397080159901
 20
2013.840965512866
 30
0.0
 10
832.3541950938231
 20
2013.89514824212
 30
0.0
  0
SPLINE
  5
17E
330
87
100
AcDbEntity
  8
P-SANR-FIXT
100
AcDbSpline
210
0.0
220
0.0
230
1.0
 70
     8
 71
     3
 72
    10
 73
     6
 74
     0
 42
0.000000001
 43
0.0000000001
 40
-0.3333333333333334
 40
-0.3333333333333334
 40
-0.3333333333333334
 40
-0.3333333333333334
 40
-0.3
 40
-0.25
 40
-0.2
 40
-0.2
 40
-0.2
 40
-0.2
 10
832.0065717408748
 20
2014.295258152393
 30
0.0
 10
831.948456237664
 20
2014.356358243567
 30
0.0
 10
831.8046035005799
 20
2014.502239196016
 30
0.0
 10
831.5892782907729
 20
2014.707362836287
 30
0.0
 10
831.4561015408967
 20
2014.837474263526
 30
0.0
 10
831.3984323379937
 20
2014.894581855363
 30
0.0
  0
SPLINE
  5
17F
330
87
100
AcDbEntity
  8
P-SANR-FIXT
100
AcDbSpline
210
0.0
220
0.0
230
1.0
 70
     8
 71
     3
 72
     8
 73
     4
 74
     0
 42
0.000000001
 43
0.0000000001
 40
-0.903380708597982
 40
-0.903380708597982
 40
-0.903380708597982
 40
-0.903380708597982
 40
-0.9
 40
-0.9
 40
-0.9
 40
-0.9
 10
830.4661036758604
 20
1999.354133260801
 30
0.0
 10
830.476145035317
 20
1999.361279240726
 30
0.0
 10
830.4861706743304
 20
1999.368442743635
 30
0.0
 10
830.4961806113066
 20
1999.375623727971
 30
0.0
  0
SPLINE
  5
180
330
87
100
AcDbEntity
  8
P-SANR-FIXT
100
AcDbSpline
210
0.0
220
0.0
230
1.0
 70
     8
 71
     3
 72
     8
 73
     4
 74
     0
 42
0.000000001
 43
0.0000000001
 40
-0.8057341323524145
 40
-0.8057341323524145
 40
-0.8057341323524145
 40
-0.8057341323524145
 40
-0.8
 40
-0.8
 40
-0.8
 40
-0.8
 10
831.2983358842409
 20
2000.015811484782
 30
0.0
 10
831.3138751478891
 20
2000.02958215467
 30
0.0
 10
831.3293668555509
 20
2000.043400973521
 30
0.0
 10
831.3448113638704
 20
2000.057267675497
 30
0.0
  0
SPLINE
  5
181
330
87
100
AcDbEntity
  8
P-SANR-FIXT
100
AcDbSpline
210
0.0
220
0.0
230
1.0
 70
     8
 71
     3
 72
     8
 73
     4
 74
     0
 42
0.000000001
 43
0.0000000001
 40
-0.7085760894334074
 40
-0.7085760894334074
 40
-0.7085760894334074
 40
-0.7085760894334074
 40
-0.7
 40
-0.7
 40
-0.7
 40
-0.7
 10
832.0491933029014
 20
2000.755913317814
 30
0.0
 10
832.0701225154852
 20
2000.778850982416
 30
0.0
 10
832.0909389462368
 20
2000.80189132687
 30
0.0
 10
832.1116685065437
 20
2000.825028448928
 30
0.0
  0
SPLINE
  5
182
330
87
100
AcDbEntity
  8
P-SANR-FIXT
100
AcDbSpline
210
0.0
220
0.0
230
1.0
 70
     8
 71
     3
 72
     8
 73
     4
 74
     0
 42
0.000000001
 43
0.0000000001
 40
-0.6124138324080136
 40
-0.6124138324080136
 40
-0.6124138324080136
 40
-0.6124138324080136
 40
-0.6
 40
-0.6
 40
-0.6
 40
-0.6
 10
832.7125656275368
 20
2001.563614796374
 30
0.0
 10
832.7392890581629
 20
2001.59982529502
 30
0.0
 10
832.7658138468398
 20
2001.636204848597
 30
0.0
 10
832.7921088002124
 20
2001.672751760764
 30
0.0
  0
SPLINE
  5
183
330
87
100
AcDbEntity
  8
P-SANR-FIXT
100
AcDbSpline
210
0.0
220
0.0
230
1.0
 70
     8
 71
     3
 72
     8
 73
     4
 74
     0
 42
0.000000001
 43
0.0000000001
 40
-0.5148656837046073
 40
-0.5148656837046073
 40
-0.5148656837046073
 40
-0.5148656837046073
 40
-0.5
 40
-0.5
 40
-0.5
 40
-0.5
 10
833.2954436509751
 20
2002.447131102539
 30
0.0
 10
833.3225769109287
 20
2002.493399530623
 30
0.0
 10
833.3491561449982
 20
2002.539864673251
 30
0.0
 10
833.3752413165937
 20
2002.586514002504
 30
0.0
  0
SPLINE
  5
184
330
87
100
AcDbEntity
  8
P-SANR-FIXT
100
AcDbSpline
210
0.0
220
0.0
230
1.0
 70
     8
 71
     3
 72
     8
 73
     4
 74
     0
 42
0.000000001
 43
0.0000000001
 40
-0.4164404492338888
 40
-0.4164404492338888
 40
-0.4164404492338888
 40
-0.4164404492338888
 40
-0.4
 40
-0.4
 40
-0.4
 40
-0.4
 10
833.7820555165174
 20
2003.38827002459
 30
0.0
 10
833.8061633447679
 20
2003.441740052457
 30
0.0
 10
833.8295340493274
 20
2003.495351643607
 30
0.0
 10
833.8528406214638
 20
2003.549120925524
 30
0.0
  0
SPLINE
  5
185
330
87
100
AcDbEntity
  8
P-SANR-FIXT
100
AcDbSpline
210
0.0
220
0.0
230
1.0
 70
     8
 71
     3
 72
     8
 73
     4
 74
     0
 42
0.000000001
 43
0.0000000001
 40
-0.3165342743460959
 40
-0.3165342743460959
 40
-0.3165342743460959
 40
-0.3165342743460959
 40
-0.3
 40
-0.3
 40
-0.3
 40
-0.3
 10
834.1649130534237
 20
2004.376319613985
 30
0.0
 10
834.1829483943609
 20
2004.431348448909
 30
0.0
 10
834.2009398495839
 20
2004.486483011818
 30
0.0
 10
834.2186960681543
 20
2004.541682628411
 30
0.0
  0
SPLINE
  5
186
330
87
100
AcDbEntity
  8
P-SANR-FIXT
100
AcDbSpline
210
0.0
220
0.0
230
1.0
 70
     8
 71
     3
 72
     8
 73
     4
 74
     0
 42
0.000000001
 43
0.0000000001
 40
-0.2144838696165303
 40
-0.2144838696165303
 40
-0.2144838696165303
 40
-0.2144838696165303
 40
-0.2
 40
-0.2
 40
-0.2
 40
-0.2
 10
834.4423349609401
 20
2005.396987647871
 30
0.0
 10
834.4528296192279
 20
2005.445163130286
 30
0.0
 10
834.4633027229393
 20
2005.493350025513
 30
0.0
 10
834.4727205189522
 20
2005.54137194441
 30
0.0
  0
SPLINE
  5
187
330
87
100
AcDbEntity
  8
P-SANR-FIXT
100
AcDbSpline
210
0.0
220
0.0
230
1.0
 70
     8
 71
     3
 72
     8
 73
     4
 74
     0
 42
0.000000001
 43
0.0000000001
 40
-0.1087930158110894
 40
-0.1087930158110894
 40
-0.1087930158110894
 40
-0.1087930158110894
 40
-0.1000000000000001
 40
-0.1000000000000001
 40
-0.1000000000000001
 40
-0.1000000000000001
 10
834.6135954946866
 20
2006.442911020677
 30
0.0
 10
834.6167154373105
 20
2006.471663114231
 30
0.0
 10
834.6194459331965
 20
2006.500352525627
 30
0.0
 10
834.6218481524513
 20
2006.528989104603
 30
0.0
  0
SPLINE
  5
188
330
87
100
AcDbEntity
  8
P-SANR-FIXT
100
AcDbSpline
210
0.0
220
0.0
230
1.0
 70
     8
 71
     3
 72
     8
 73
     4
 74
     0
 42
0.000000001
 43
0.0000000001
 40
-0.9
 40
-0.9
 40
-0.9
 40
-0.9
 40
-0.8880304308351243
 40
-0.8880304308351243
 40
-0.8880304308351243
 40
-0.8880304308351243
 10
836.1167602524304
 20
1991.488806288946
 30
0.0
 10
836.1119819984782
 20
1991.528848391489
 30
0.0
 10
836.1068683030568
 20
1991.568949853584
 30
0.0
 10
836.1014190671749
 20
1991.609106704575
 30
0.0
  0
SPLINE
  5
189
330
87
100
AcDbEntity
  8
P-SANR-FIXT
100
AcDbSpline
210
0.0
220
0.0
230
1.0
 70
     8
 71
     3
 72
     8
 73
     4
 74
     0
 42
0.000000001
 43
0.0000000001
 40
-0.8
 40
-0.8
 40
-0.8
 40
-0.8
 40
-0.7811666629793064
 40
-0.7811666629793064
 40
-0.7811666629793064
 40
-0.7811666629793064
 10
835.9268735858028
 20
1992.503465287837
 30
0.0
 10
835.9105926071915
 20
1992.56795220505
 30
0.0
 10
835.8935062922929
 20
1992.632640495965
 30
0.0
 10
835.875621874597
 20
1992.697563977555
 30
0.0
  0
SPLINE
  5
18A
330
87
100
AcDbEntity
  8
P-SANR-FIXT
100
AcDbSpline
210
0.0
220
0.0
230
1.0
 70
     8
 71
     3
 72
     8
 73
     4
 74
     0
 42
0.000000001
 43
0.0000000001
 40
-0.7
 40
-0.7
 40
-0.7
 40
-0.7
 40
-0.6798805981349629
 40
-0.6798805981349629
 40
-0.6798805981349629
 40
-0.6798805981349629
 10
835.5993173522646
 20
1993.54538389966
 30
0.0
 10
835.572677306693
 20
1993.615582243577
 30
0.0
 10
835.5450808532365
 20
1993.685687387743
 30
0.0
 10
835.5164859874781
 20
1993.755605382973
 30
0.0
  0
SPLINE
  5
18B
330
87
100
AcDbEntity
  8
P-SANR-FIXT
100
AcDbSpline
210
0.0
220
0.0
230
1.0
 70
     8
 71
     3
 72
     8
 73
     4
 74
     0
 42
0.000000001
 43
0.0000000001
 40
-0.6
 40
-0.6
 40
-0.6
 40
-0.6
 40
-0.5820145871792068
 40
-0.5820145871792068
 40
-0.5820145871792068
 40
-0.5820145871792068
 10
835.1264072950781
 20
1994.574141185808
 30
0.0
 10
835.0933361030705
 20
1994.634246750071
 30
0.0
 10
835.0593903415756
 20
1994.694021170516
 30
0.0
 10
835.0246159953934
 20
1994.753522639406
 30
0.0
  0
SPLINE
  5
18C
330
87
100
AcDbEntity
  8
P-SANR-FIXT
100
AcDbSpline
210
0.0
220
0.0
230
1.0
 70
     8
 71
     3
 72
     8
 73
     4
 74
     0
 42
0.000000001
 43
0.0000000001
 40
-0.5
 40
-0.5
 40
-0.5
 40
-0.5
 40
-0.486870023085355
 40
-0.486870023085355
 40
-0.486870023085355
 40
-0.486870023085355
 10
834.4989880804833
 20
1995.551606667548
 30
0.0
 10
834.4683163581908
 20
1995.593193238282
 30
0.0
 10
834.4372682201719
 20
1995.63462758183
 30
0.0
 10
834.4058339964844
 20
1995.675871350623
 30
0.0
  0
SPLINE
  5
18D
330
87
100
AcDbEntity
  8
P-SANR-FIXT
100
AcDbSpline
210
0.0
220
0.0
230
1.0
 70
     8
 71
     3
 72
     8
 73
     4
 74
     0
 42
0.000000001
 43
0.0000000001
 40
-0.4
 40
-0.4
 40
-0.4
 40
-0.4
 40
-0.394267082026282
 40
-0.394267082026282
 40
-0.394267082026282
 40
-0.394267082026282
 10
833.7284108901272
 20
1996.458365061764
 30
0.0
 10
833.7123848292517
 20
1996.474692504919
 30
0.0
 10
833.6962679406351
 20
1996.490924717688
 30
0.0
 10
833.6800640707835
 20
1996.507066554977
 30
0.0
  0
SPLINE
  5
18E
330
87
100
AcDbEntity
  8
P-SANR-FIXT
100
AcDbSpline
210
0.0
220
0.0
230
1.0
 70
     8
 71
     3
 72
     8
 73
     4
 74
     0
 42
0.000000001
 43
0.0000000001
 40
-0.3013845416031324
 40
-0.3013845416031324
 40
-0.3013845416031324
 40
-0.3013845416031324
 40
-0.3
 40
-0.3
 40
-0.3
 40
-0.3
 10
832.8405631758066
 20
1997.241461807521
 30
0.0
 10
832.8361407109591
 20
1997.244848817673
 30
0.0
 10
832.8317134133257
 20
1997.248229570294
 30
0.0
 10
832.8272852559923
 20
1997.251611158287
 30
0.0
  0
SPLINE
  5
18F
330
87
100
AcDbEntity
  8
P-SANR-FIXT
100
AcDbSpline
210
0.0
220
0.0
230
1.0
 70
     8
 71
     3
 72
     8
 73
     4
 74
     0
 42
0.000000001
 43
0.0000000001
 40
-0.2095914558374463
 40
-0.2095914558374463
 40
-0.2095914558374463
 40
-0.2095914558374463
 40
-0.2
 40
-0.2
 40
-0.2
 40
-0.2
 10
831.9199051360564
 20
1997.858870770896
 30
0.0
 10
831.8865957314073
 20
1997.878236712067
 30
0.0
 10
831.8532946063557
 20
1997.897585287739
 30
0.0
 10
831.8196520206257
 20
1997.916236207128
 30
0.0
  0
SPLINE
  5
190
330
87
100
AcDbEntity
  8
P-SANR-FIXT
100
AcDbSpline
210
0.0
220
0.0
230
1.0
 70
     8
 71
     3
 72
     8
 73
     4
 74
     0
 42
0.000000001
 43
0.0000000001
 40
-0.1168102262193527
 40
-0.1168102262193527
 40
-0.1168102262193527
 40
-0.1168102262193527
 40
-0.1000000000000001
 40
-0.1000000000000001
 40
-0.1000000000000001
 40
-0.1000000000000001
 10
830.9225822980735
 20
1998.352183085733
 30
0.0
 10
830.8604048096324
 20
1998.377881615872
 30
0.0
 10
830.7971492449132
 20
1998.401643791837
 30
0.0
 10
830.7331102958709
 20
1998.423996830017
 30
0.0
  0
SPLINE
  5
191
330
87
100
AcDbEntity
  8
P-SANR-FIXT
100
AcDbSpline
210
0.0
220
0.0
230
1.0
 70
     8
 71
     3
 72
     8
 73
     4
 74
     0
 42
0.000000001
 43
0.0000000001
 40
-0.0254460659481931
 40
-0.0254460659481931
 40
-0.0254460659481931
 40
-0.0254460659481931
 40
0.0
 40
0.0
 40
0.0
 40
0.0
 10
829.8741874656244
 20
1998.707533636658
 30
0.0
 10
829.7734917368783
 20
1998.734708709933
 30
0.0
 10
829.6718156513893
 20
1998.760290990189
 30
0.0
 10
829.5691232279228
 20
1998.784302785536
 30
0.0
  0
SPLINE
  5
192
330
87
100
AcDbEntity
  8
P-SANR-FIXT
100
AcDbSpline
210
0.0
220
0.0
230
1.0
 70
     8
 71
     3
 72
     8
 73
     4
 74
     0
 42
0.000000001
 43
0.0000000001
 40
-1.0
 40
-1.0
 40
-1.0
 40
-1.0
 40
-0.8333333333333332
 40
-0.8333333333333332
 40
-0.8333333333333332
 40
-0.8333333333333332
 10
834.9426390161264
 20
1986.106088974838
 30
0.0
 10
835.0492842117176
 20
1986.268976302174
 30
0.0
 10
835.1513079025673
 20
1986.446139080192
 30
0.0
 10
835.2473049273791
 20
1986.637331721115
 30
0.0
  0
SPLINE
  5
193
330
87
100
AcDbEntity
  8
P-SANR-FIXT
100
AcDbSpline
210
0.0
220
0.0
230
1.0
 70
     8
 71
     3
 72
     8
 73
     4
 74
     0
 42
0.000000001
 43
0.0000000001
 40
-0.5
 40
-0.5
 40
-0.5
 40
-0.5
 40
-0.3333333333333333
 40
-0.3333333333333333
 40
-0.3333333333333333
 40
-0.3333333333333333
 10
835.7741522451826
 20
1987.946808355569
 30
0.0
 10
835.8523658316757
 20
1988.191521464312
 30
0.0
 10
835.9193390605268
 20
1988.452695737149
 30
0.0
 10
835.9780665548816
 20
1988.720583575708
 30
0.0
  0
SPLINE
  5
194
330
87
100
AcDbEntity
  8
P-SANR-FIXT
100
AcDbSpline
210
0.0
220
0.0
230
1.0
 70
     8
 71
     3
 72
     8
 73
     4
 74
     0
 42
0.000000001
 43
0.0000000001
 40
-0.2022824264501823
 40
-0.2022824264501823
 40
-0.2022824264501823
 40
-0.2022824264501823
 40
-0.1666666666666666
 40
-0.1666666666666666
 40
-0.1666666666666666
 40
-0.1666666666666666
 10
836.0845060641528
 20
1989.384552640056
 30
0.0
 10
836.0920904357778
 20
1989.446851598446
 30
0.0
 10
836.099577755797
 20
1989.509270515972
 30
0.0
 10
836.1057737714086
 20
1989.57315525686
 30
0.0
  0
SPLINE
  5
195
330
87
100
AcDbEntity
  8
P-SANR-FIXT
100
AcDbSpline
210
0.0
220
0.0
230
1.0
 70
     8
 71
     3
 72
     9
 73
     5
 74
     0
 42
0.000000001
 43
0.0000000001
 40
-1.0
 40
-1.0
 40
-1.0
 40
-1.0
 40
-0.5
 40
0.0
 40
0.0
 40
0.0
 40
0.0
 10
835.9418812990213
 20
1984.749999999995
 30
0.0
 10
835.9330142610943
 20
1984.749999999995
 30
0.0
 10
835.7576068426849
 20
1984.992110147799
 30
0.0
 10
835.2668527391644
 20
1985.672179794701
 30
0.0
 10
834.9426390161264
 20
1986.106088974838
 30
0.0
  0
LINE
  5
196
330
87
100
AcDbEntity
  8
P-SANR-FIXT
100
AcDbLine
 10
791.1664074431618
 20
2020.260352487868
 30
0.0
 11
791.166407443162
 21
2011.782587451509
 31
0.0
  0
LINE
  5
197
330
87
100
AcDbEntity
  8
P-SANR-FIXT
100
AcDbLine
 10
791.166407443162
 20
2008.477765035046
 30
0.0
 11
791.166407443162
 21
1991.522234963182
 31
0.0
  0
LINE
  5
198
330
87
100
AcDbEntity
  8
P-SANR-FIXT
100
AcDbLine
 10
791.166407443162
 20
1988.217412547421
 30
0.0
 11
791.1664074431618
 21
1979.739647511881
 31
0.0
  0
LINE
  5
199
330
87
100
AcDbEntity
  8
P-SANR-FIXT
100
AcDbLine
 10
754.1664074431739
 20
1988.149999999937
 30
0.0
 11
754.1664074431739
 21
2011.850000000053
 31
0.0
  0
LINE
  5
19A
330
87
100
AcDbEntity
  8
P-SANR-FIXT
100
AcDbLine
 10
755.4664074431739
 20
1986.849999999937
 30
0.0
 11
755.4664074431739
 21
2013.150000000053
 31
0.0
  0
LINE
  5
19B
330
87
100
AcDbEntity
  8
P-SANR-FIXT
100
AcDbLine
 10
775.1664074431618
 20
1983.834192462544
 30
0.0
 11
775.1664074431618
 21
2016.165807537445
 31
0.0
  0
LINE
  5
19C
330
87
100
AcDbEntity
  8
P-SANR-FIXT
100
AcDbLine
 10
777.5832953765501
 20
1979.649999999871
 30
0.0
 11
777.5832953765501
 21
1979.739647511881
 31
0.0
  0
SPLINE
  5
19D
330
87
100
AcDbEntity
  8
P-SANR-FIXT
100
AcDbSpline
210
0.0
220
0.0
230
1.0
 70
     8
 71
     3
 72
     9
 73
     5
 74
     0
 42
0.000000001
 43
0.0000000001
 40
-1.0
 40
-1.0
 40
-1.0
 40
-1.0
 40
-0.5
 40
0.0
 40
0.0
 40
0.0
 40
0.0
 10
777.5832953765501
 20
1979.739647511881
 30
0.0
 10
776.8709418191714
 20
1981.175426640839
 30
0.0
 10
776.1585882617928
 20
1984.024166609055
 30
0.0
 10
776.8709418191717
 20
1986.827269997866
 30
0.0
 10
777.5832953765504
 20
1988.217412547421
 30
0.0
  0
LINE
  5
19E
330
87
100
AcDbEntity
  8
P-SANR-FIXT
100
AcDbLine
 10
777.5832953765504
 20
1988.217412547421
 30
0.0
 11
777.5832953765504
 21
1991.522234963182
 31
0.0
  0
SPLINE
  5
19F
330
87
100
AcDbEntity
  8
P-SANR-FIXT
100
AcDbSpline
210
0.0
220
0.0
230
1.0
 70
     8
 71
     3
 72
     9
 73
     5
 74
     0
 42
0.000000001
 43
0.0000000001
 40
-1.0
 40
-1.0
 40
-1.0
 40
-1.0
 40
-0.5
 40
0.0
 40
0.0
 40
0.0
 40
0.0
 10
777.5832953765504
 20
1991.522234963182
 30
0.0
 10
776.8709418192258
 20
1994.393793221234
 30
0.0
 10
776.1585882619011
 20
2000.091273157931
 30
0.0
 10
776.8709418192258
 20
2005.697479935811
 30
0.0
 10
777.5832953765504
 20
2008.477765035046
 30
0.0
  0
LINE
  5
1A0
330
87
100
AcDbEntity
  8
P-SANR-FIXT
100
AcDbLine
 10
777.5832953765504
 20
2008.477765035046
 30
0.0
 11
777.5832953765504
 21
2011.782587451509
 31
0.0
  0
SPLINE
  5
1A1
330
87
100
AcDbEntity
  8
P-SANR-FIXT
100
AcDbSpline
210
0.0
220
0.0
230
1.0
 70
     8
 71
     3
 72
     9
 73
     5
 74
     0
 42
0.000000001
 43
0.0000000001
 40
-1.0
 40
-1.0
 40
-1.0
 40
-1.0
 40
-0.5
 40
0.0
 40
0.0
 40
0.0
 40
0.0
 10
777.5832953765504
 20
2011.782587451509
 30
0.0
 10
776.870941819274
 20
2013.218366580609
 30
0.0
 10
776.1585882619976
 20
2016.067106549101
 30
0.0
 10
776.8709418192738
 20
2018.870209938181
 30
0.0
 10
777.5832953765501
 20
2020.260352487868
 30
0.0
  0
LINE
  5
1A2
330
87
100
AcDbEntity
  8
P-SANR-FIXT
100
AcDbLine
 10
777.5832953765501
 20
2020.260352487868
 30
0.0
 11
777.5832953765501
 21
2020.350000000119
 31
0.0
  0
LINE
  5
1A3
330
87
100
AcDbEntity
  8
P-SANR-FIXT
100
AcDbLine
 10
777.5832953765504
 20
1988.21741254742
 30
0.0
 11
791.166407443162
 21
1988.21741254742
 31
0.0
  0
LINE
  5
1A4
330
87
100
AcDbEntity
  8
P-SANR-FIXT
100
AcDbLine
 10
791.166407443162
 20
1991.522234963182
 30
0.0
 11
791.166407443162
 21
1988.217412547421
 31
0.0
  0
LINE
  5
1A5
330
87
100
AcDbEntity
  8
P-SANR-FIXT
100
AcDbLine
 10
791.166407443162
 20
1991.522234963181
 30
0.0
 11
777.5832953765504
 21
1991.522234963181
 31
0.0
  0
LINE
  5
1A6
330
87
100
AcDbEntity
  8
P-SANR-FIXT
100
AcDbLine
 10
777.5832953765504
 20
2008.477765035046
 30
0.0
 11
791.166407443162
 21
2008.477765035046
 31
0.0
  0
LINE
  5
1A7
330
87
100
AcDbEntity
  8
P-SANR-FIXT
100
AcDbLine
 10
791.166407443162
 20
2011.782587451509
 30
0.0
 11
791.166407443162
 21
2008.477765035046
 31
0.0
  0
LINE
  5
1A8
330
87
100
AcDbEntity
  8
P-SANR-FIXT
100
AcDbLine
 10
791.166407443162
 20
2011.782587451509
 30
0.0
 11
777.5832953765504
 21
2011.782587451509
 31
0.0
  0
LINE
  5
1A9
330
87
100
AcDbEntity
  8
P-SANR-FIXT
100
AcDbLine
 10
777.5832953765501
 20
2020.260352487868
 30
0.0
 11
791.1664074431618
 21
2020.260352487868
 31
0.0
  0
LINE
  5
1AA
330
87
100
AcDbEntity
  8
P-SANR-FIXT
100
AcDbLine
 10
791.1664074431618
 20
2020.350000000119
 30
0.0
 11
791.1664074431618
 21
2020.260352487868
 31
0.0
  0
LINE
  5
1AB
330
87
100
AcDbEntity
  8
P-SANR-FIXT
100
AcDbLine
 10
791.1664074431621
 20
1979.739647511881
 30
0.0
 11
791.1664074431621
 21
1979.649999999871
 31
0.0
  0
LINE
  5
1AC
330
87
100
AcDbEntity
  8
P-SANR-FIXT
100
AcDbLine
 10
791.1664074431618
 20
1979.739647511881
 30
0.0
 11
777.5832953765501
 21
1979.739647511881
 31
0.0
  0
LINE
  5
1AD
330
87
100
AcDbEntity
  8
P-SANR-FIXT
100
AcDbLine
 10
877.1664074432043
 20
2011.850000000053
 30
0.0
 11
877.1664074432043
 21
1988.149999999937
 31
0.0
  0
LINE
  5
1AE
330
87
100
AcDbEntity
  8
P-SANR-FIXT
100
AcDbLine
 10
875.8664074432045
 20
2013.150000000053
 30
0.0
 11
875.8664074432045
 21
1986.849999999937
 31
0.0
  0
LINE
  5
1AF
330
87
100
AcDbEntity
  8
P-SANR-FIXT
100
AcDbLine
 10
856.1664074432165
 20
2016.165807537445
 30
0.0
 11
856.1664074432165
 21
1983.834192462544
 31
0.0
  0
SPLINE
  5
1B0
330
87
100
AcDbEntity
  8
P-SANR-FIXT
100
AcDbSpline
210
0.0
220
0.0
230
1.0
 70
     8
 71
     3
 72
     9
 73
     5
 74
     0
 42
0.000000001
 43
0.0000000001
 40
0.0
 40
0.0
 40
0.0
 40
0.0
 40
0.5
 40
1.0
 40
1.0
 40
1.0
 40
1.0
 10
853.7495195098282
 20
2011.782587451509
 30
0.0
 10
854.4618730671047
 20
2013.172730001196
 30
0.0
 10
855.1742266243808
 20
2015.975833390276
 30
0.0
 10
854.4618730671045
 20
2018.824573358768
 30
0.0
 10
853.7495195098282
 20
2020.260352487868
 30
0.0
  0
SPLINE
  5
1B1
330
87
100
AcDbEntity
  8
P-SANR-FIXT
100
AcDbSpline
210
0.0
220
0.0
230
1.0
 70
     8
 71
     3
 72
     9
 73
     5
 74
     0
 42
0.000000001
 43
0.0000000001
 40
0.0
 40
0.0
 40
0.0
 40
0.0
 40
0.5
 40
1.0
 40
1.0
 40
1.0
 40
1.0
 10
853.7495195098282
 20
1991.522234963182
 30
0.0
 10
854.4618730671528
 20
1994.302520062417
 30
0.0
 10
855.1742266244774
 20
1999.908726840297
 30
0.0
 10
854.4618730671528
 20
2005.606206776994
 30
0.0
 10
853.7495195098282
 20
2008.477765035046
 30
0.0
  0
SPLINE
  5
1B2
330
87
100
AcDbEntity
  8
P-SANR-FIXT
100
AcDbSpline
210
0.0
220
0.0
230
1.0
 70
     8
 71
     3
 72
     9
 73
     5
 74
     0
 42
0.000000001
 43
0.0000000001
 40
0.0
 40
0.0
 40
0.0
 40
0.0
 40
0.5
 40
1.0
 40
1.0
 40
1.0
 40
1.0
 10
853.7495195098282
 20
1979.739647511881
 30
0.0
 10
854.4618730672068
 20
1981.129790061435
 30
0.0
 10
855.1742266245856
 20
1983.932893450246
 30
0.0
 10
854.461873067207
 20
1986.781633418462
 30
0.0
 10
853.7495195098282
 20
1988.217412547421
 30
0.0
  0
LINE
  5
1B3
330
87
100
AcDbEntity
  8
P-SANR-FIXT
100
AcDbLine
 10
853.7495195098282
 20
1988.21741254742
 30
0.0
 11
840.1664074432163
 21
1988.21741254742
 31
0.0
  0
LINE
  5
1B4
330
87
100
AcDbEntity
  8
P-SANR-FIXT
100
AcDbLine
 10
853.7495195098282
 20
1991.522234963182
 30
0.0
 11
853.7495195098282
 21
1988.217412547421
 31
0.0
  0
LINE
  5
1B5
330
87
100
AcDbEntity
  8
P-SANR-FIXT
100
AcDbLine
 10
840.1664074432163
 20
1991.522234963181
 30
0.0
 11
853.7495195098282
 21
1991.522234963181
 31
0.0
  0
LINE
  5
1B6
330
87
100
AcDbEntity
  8
P-SANR-FIXT
100
AcDbLine
 10
853.7495195098282
 20
2008.477765035046
 30
0.0
 11
840.1664074432163
 21
2008.477765035046
 31
0.0
  0
LINE
  5
1B7
330
87
100
AcDbEntity
  8
P-SANR-FIXT
100
AcDbLine
 10
853.7495195098282
 20
2011.782587451509
 30
0.0
 11
853.7495195098282
 21
2008.477765035046
 31
0.0
  0
LINE
  5
1B8
330
87
100
AcDbEntity
  8
P-SANR-FIXT
100
AcDbLine
 10
840.1664074432163
 20
2011.782587451509
 30
0.0
 11
853.7495195098282
 21
2011.782587451509
 31
0.0
  0
LINE
  5
1B9
330
87
100
AcDbEntity
  8
P-SANR-FIXT
100
AcDbLine
 10
853.7495195098282
 20
2020.260352487868
 30
0.0
 11
840.1664074432162
 21
2020.260352487868
 31
0.0
  0
LINE
  5
1BA
330
87
100
AcDbEntity
  8
P-SANR-FIXT
100
AcDbLine
 10
853.7495195098282
 20
2020.350000000119
 30
0.0
 11
853.7495195098282
 21
2020.260352487868
 31
0.0
  0
LINE
  5
1BB
330
87
100
AcDbEntity
  8
P-SANR-FIXT
100
AcDbLine
 10
853.7495195098282
 20
1979.739647511881
 30
0.0
 11
853.7495195098282
 21
1979.649999999871
 31
0.0
  0
LINE
  5
1BC
330
87
100
AcDbEntity
  8
P-SANR-FIXT
100
AcDbLine
 10
840.1664074432162
 20
1979.739647511881
 30
0.0
 11
853.7495195098282
 21
1979.739647511881
 31
0.0
  0
ENDBLK
  5
1BE
330
87
100
AcDbEntity
  8
0
100
AcDbBlockEnd
  0
BLOCK
  5
282
330
1C0
100
AcDbEntity
  8
0
100
AcDbBlockBegin
  2
Automatic flow rate regulator valve_Caleffi_121 DN15 - 1_2__-V1-Est - Idraulica
 70
     0
 10
0.0
 20
0.0
 30
0.0
  3
Automatic flow rate regulator valve_Caleffi_121 DN15 - 1_2__-V1-Est - Idraulica
  1

  0
ARC
  5
1C1
330
1C0
100
AcDbEntity
  8
M-PIPE
100
AcDbCircle
 10
815.510157443189
 20
1843.745878730054
 30
0.0
 40
15.49999999999309
100
AcDbArc
 50
124.5853790847308
 51
175.4146209152692
1001
REVIT
1002
{
1070
     3
1000
924079
1002
}
  0
ARC
  5
1C2
330
1C0
100
AcDbEntity
  8
M-PIPE
100
AcDbCircle
 10
815.510157443189
 20
1843.745878730054
 30
0.0
 40
15.49999999999301
100
AcDbArc
 50
115.4146209152472
 51
124.5853790847366
1001
REVIT
1002
{
1070
     3
1000
924079
1002
}
  0
ARC
  5
1C3
330
1C0
100
AcDbEntity
  8
M-PIPE
100
AcDbCircle
 10
815.510157443189
 20
1843.745878730054
 30
0.0
 40
15.49999999999297
100
AcDbArc
 50
64.58537908474816
 51
115.4146209152514
1001
REVIT
1002
{
1070
     3
1000
924079
1002
}
  0
ARC
  5
1C4
330
1C0
100
AcDbEntity
  8
M-PIPE
100
AcDbCircle
 10
815.510157443189
 20
1843.745878730054
 30
0.0
 40
15.4999999999931
100
AcDbArc
 50
55.41462091509087
 51
64.5853790847537
1001
REVIT
1002
{
1070
     3
1000
924079
1002
}
  0
ARC
  5
1C5
330
1C0
100
AcDbEntity
  8
M-PIPE
100
AcDbCircle
 10
815.510157443189
 20
1843.745878730054
 30
0.0
 40
15.49999999999301
100
AcDbArc
 50
4.585379084910355
 51
55.41462091508957
1001
REVIT
1002
{
1070
     3
1000
924079
1002
}
  0
ARC
  5
1C6
330
1C0
100
AcDbEntity
  8
M-PIPE
100
AcDbCircle
 10
815.510157443189
 20
1843.745878730054
 30
0.0
 40
15.49999999999309
100
AcDbArc
 50
0.0000000000008405
 51
4.58537908491036
1001
REVIT
1002
{
1070
     3
1000
924079
1002
}
  0
ARC
  5
1C7
330
1C0
100
AcDbEntity
  8
M-PIPE
100
AcDbCircle
 10
815.510157443189
 20
1843.745878730054
 30
0.0
 40
15.49999999999297
100
AcDbArc
 50
4.586304818702037
 51
5.000000000000349
1001
REVIT
1002
{
1070
     3
1000
924079
1002
}
  0
ARC
  5
1C8
330
1C0
100
AcDbEntity
  8
M-PIPE
100
AcDbCircle
 10
815.510157443189
 20
1843.745878730054
 30
0.0
 40
15.49999999999297
100
AcDbArc
 50
10.00000000000017
 51
10.94611033377906
1001
REVIT
1002
{
1070
     3
1000
924079
1002
}
  0
ARC
  5
1C9
330
1C0
100
AcDbEntity
  8
M-PIPE
100
AcDbCircle
 10
815.510157443189
 20
1843.745878730054
 30
0.0
 40
15.49999999999301
100
AcDbArc
 50
15.00000000000036
 51
19.99999999999992
1001
REVIT
1002
{
1070
     3
1000
924079
1002
}
  0
ARC
  5
1CA
330
1C0
100
AcDbEntity
  8
M-PIPE
100
AcDbCircle
 10
815.510157443189
 20
1843.745878730054
 30
0.0
 40
15.49999999999291
100
AcDbArc
 50
23.70798092021513
 51
25.00000000000022
1001
REVIT
1002
{
1070
     3
1000
924079
1002
}
  0
ARC
  5
1CB
330
1C0
100
AcDbEntity
  8
M-PIPE
100
AcDbCircle
 10
815.510157443189
 20
1843.745878730054
 30
0.0
 40
15.499999999993
100
AcDbArc
 50
35.00000000000051
 51
36.38642373417452
1001
REVIT
1002
{
1070
     3
1000
924079
1002
}
  0
ARC
  5
1CC
330
1C0
100
AcDbEntity
  8
M-PIPE
100
AcDbCircle
 10
815.510157443189
 20
1843.745878730054
 30
0.0
 40
15.49999999999293
100
AcDbArc
 50
40.0
 51
45.00000000000043
1001
REVIT
1002
{
1070
     3
1000
924079
1002
}
  0
ARC
  5
1CD
330
1C0
100
AcDbEntity
  8
M-PIPE
100
AcDbCircle
 10
815.510157443189
 20
1843.745878730054
 30
0.0
 40
15.49999999999315
100
AcDbArc
 50
49.0307712644752
 51
49.99999999999967
1001
REVIT
1002
{
1070
     3
1000
924079
1002
}
  0
ARC
  5
1CE
330
1C0
100
AcDbEntity
  8
M-PIPE
100
AcDbCircle
 10
815.510157443189
 20
1843.745878730054
 30
0.0
 40
15.49999999999315
100
AcDbArc
 50
55.00000000000023
 51
55.40384942352083
1001
REVIT
1002
{
1070
     3
1000
924079
1002
}
  0
ARC
  5
1CF
330
1C0
100
AcDbEntity
  8
M-PIPE
100
AcDbCircle
 10
815.510157443189
 20
1843.745878730054
 30
0.0
 40
15.49999999999312
100
AcDbArc
 50
64.57694323289172
 51
64.99999999999971
1001
REVIT
1002
{
1070
     3
1000
924079
1002
}
  0
ARC
  5
1D0
330
1C0
100
AcDbEntity
  8
M-PIPE
100
AcDbCircle
 10
815.510157443189
 20
1843.745878730054
 30
0.0
 40
15.49999999999311
100
AcDbArc
 50
70.0000000000002
 51
70.92823849688776
1001
REVIT
1002
{
1070
     3
1000
924079
1002
}
  0
ARC
  5
1D1
330
1C0
100
AcDbEntity
  8
M-PIPE
100
AcDbCircle
 10
815.510157443189
 20
1843.745878730054
 30
0.0
 40
15.49999999999323
100
AcDbArc
 50
75.0000000000001
 51
79.99999999999987
1001
REVIT
1002
{
1070
     3
1000
924079
1002
}
  0
ARC
  5
1D2
330
1C0
100
AcDbEntity
  8
M-PIPE
100
AcDbCircle
 10
815.510157443189
 20
1843.745878730054
 30
0.0
 40
15.4999999999931
100
AcDbArc
 50
83.64096061171631
 51
85.0
1001
REVIT
1002
{
1070
     3
1000
924079
1002
}
  0
ARC
  5
1D3
330
1C0
100
AcDbEntity
  8
M-PIPE
100
AcDbCircle
 10
815.510157443189
 20
1843.745878730054
 30
0.0
 40
15.49999999999305
100
AcDbArc
 50
94.9999999999995
 51
96.3590393882815
1001
REVIT
1002
{
1070
     3
1000
924079
1002
}
  0
ARC
  5
1D4
330
1C0
100
AcDbEntity
  8
M-PIPE
100
AcDbCircle
 10
815.510157443189
 20
1843.745878730054
 30
0.0
 40
15.49999999999308
100
AcDbArc
 50
99.99999999999985
 51
104.9999999999996
1001
REVIT
1002
{
1070
     3
1000
924079
1002
}
  0
ARC
  5
1D5
330
1C0
100
AcDbEntity
  8
M-PIPE
100
AcDbCircle
 10
815.510157443189
 20
1843.745878730054
 30
0.0
 40
15.49999999999308
100
AcDbArc
 50
109.0717615031113
 51
109.9999999999999
1001
REVIT
1002
{
1070
     3
1000
924079
1002
}
  0
ARC
  5
1D6
330
1C0
100
AcDbEntity
  8
M-PIPE
100
AcDbCircle
 10
815.510157443189
 20
1843.745878730054
 30
0.0
 40
15.49999999999301
100
AcDbArc
 50
114.9999999999999
 51
115.4230567671053
1001
REVIT
1002
{
1070
     3
1000
924079
1002
}
  0
ARC
  5
1D7
330
1C0
100
AcDbEntity
  8
M-PIPE
100
AcDbCircle
 10
815.510157443189
 20
1843.745878730054
 30
0.0
 40
15.49999999999307
100
AcDbArc
 50
124.5961505763102
 51
124.9999999999994
1001
REVIT
1002
{
1070
     3
1000
924079
1002
}
  0
ARC
  5
1D8
330
1C0
100
AcDbEntity
  8
M-PIPE
100
AcDbCircle
 10
815.510157443189
 20
1843.745878730054
 30
0.0
 40
15.4999999999931
100
AcDbArc
 50
130.0
 51
130.9692287353859
1001
REVIT
1002
{
1070
     3
1000
924079
1002
}
  0
ARC
  5
1D9
330
1C0
100
AcDbEntity
  8
M-PIPE
100
AcDbCircle
 10
815.510157443189
 20
1843.745878730054
 30
0.0
 40
15.49999999999313
100
AcDbArc
 50
134.9999999999997
 51
140.0000000000004
1001
REVIT
1002
{
1070
     3
1000
924079
1002
}
  0
ARC
  5
1DA
330
1C0
100
AcDbEntity
  8
M-PIPE
100
AcDbCircle
 10
815.510157443189
 20
1843.745878730054
 30
0.0
 40
15.49999999999327
100
AcDbArc
 50
143.6135762657787
 51
145.0000000000001
1001
REVIT
1002
{
1070
     3
1000
924079
1002
}
  0
ARC
  5
1DB
330
1C0
100
AcDbEntity
  8
M-PIPE
100
AcDbCircle
 10
815.510157443189
 20
1843.745878730054
 30
0.0
 40
15.4999999999931
100
AcDbArc
 50
155.0000000000004
 51
156.2920190797847
1001
REVIT
1002
{
1070
     3
1000
924079
1002
}
  0
ARC
  5
1DC
330
1C0
100
AcDbEntity
  8
M-PIPE
100
AcDbCircle
 10
815.510157443189
 20
1843.745878730054
 30
0.0
 40
15.49999999999323
100
AcDbArc
 50
160.0000000000001
 51
164.9999999999994
1001
REVIT
1002
{
1070
     3
1000
924079
1002
}
  0
ARC
  5
1DD
330
1C0
100
AcDbEntity
  8
M-PIPE
100
AcDbCircle
 10
815.510157443189
 20
1843.745878730054
 30
0.0
 40
15.49999999999318
100
AcDbArc
 50
169.0538896663552
 51
169.9999999999997
1001
REVIT
1002
{
1070
     3
1000
924079
1002
}
  0
ARC
  5
1DE
330
1C0
100
AcDbEntity
  8
M-PIPE
100
AcDbCircle
 10
815.510157443189
 20
1843.745878730054
 30
0.0
 40
15.49999999999308
100
AcDbArc
 50
174.9999999999997
 51
175.4136951814708
1001
REVIT
1002
{
1070
     3
1000
924079
1002
}
  0
ARC
  5
1DF
330
1C0
100
AcDbEntity
  8
M-PIPE
100
AcDbCircle
 10
815.510157443189
 20
1843.745878730054
 30
0.0
 40
15.49999999999319
100
AcDbArc
 50
175.4146209152632
 51
179.9999999999998
1001
REVIT
1002
{
1070
     3
1000
924079
1002
}
  0
ARC
  5
1E0
330
1C0
100
AcDbEntity
  8
M-PIPE
100
AcDbCircle
 10
815.510157443189
 20
1843.745878730054
 30
0.0
 40
15.49999999999308
100
AcDbArc
 50
304.5853790850533
 51
355.4146209149442
1001
REVIT
1002
{
1070
     3
1000
924079
1002
}
  0
ARC
  5
1E1
330
1C0
100
AcDbEntity
  8
M-PIPE
100
AcDbCircle
 10
815.510157443189
 20
1843.745878730054
 30
0.0
 40
15.49999999999291
100
AcDbArc
 50
295.4146209149656
 51
304.5853790850488
1001
REVIT
1002
{
1070
     3
1000
924079
1002
}
  0
ARC
  5
1E2
330
1C0
100
AcDbEntity
  8
M-PIPE
100
AcDbCircle
 10
815.510157443189
 20
1843.745878730054
 30
0.0
 40
15.49999999999308
100
AcDbArc
 50
244.5853790850362
 51
295.41462091496
1001
REVIT
1002
{
1070
     3
1000
924079
1002
}
  0
ARC
  5
1E3
330
1C0
100
AcDbEntity
  8
M-PIPE
100
AcDbCircle
 10
815.510157443189
 20
1843.745878730054
 30
0.0
 40
15.49999999999309
100
AcDbArc
 50
235.4146209151221
 51
244.5853790850313
1001
REVIT
1002
{
1070
     3
1000
924079
1002
}
  0
ARC
  5
1E4
330
1C0
100
AcDbEntity
  8
M-PIPE
100
AcDbCircle
 10
815.510157443189
 20
1843.745878730054
 30
0.0
 40
15.49999999999319
100
AcDbArc
 50
184.5853790848746
 51
235.4146209151225
1001
REVIT
1002
{
1070
     3
1000
924079
1002
}
  0
ARC
  5
1E5
330
1C0
100
AcDbEntity
  8
M-PIPE
100
AcDbCircle
 10
815.510157443189
 20
1843.745878730054
 30
0.0
 40
15.49999999999302
100
AcDbArc
 50
180.0
 51
184.5853790848745
1001
REVIT
1002
{
1070
     3
1000
924079
1002
}
  0
ARC
  5
1E6
330
1C0
100
AcDbEntity
  8
M-PIPE
100
AcDbCircle
 10
815.510157443189
 20
1843.745878730054
 30
0.0
 40
15.49999999999316
100
AcDbArc
 50
184.5863048186697
 51
184.9999999999992
1001
REVIT
1002
{
1070
     3
1000
924079
1002
}
  0
ARC
  5
1E7
330
1C0
100
AcDbEntity
  8
M-PIPE
100
AcDbCircle
 10
815.510157443189
 20
1843.745878730054
 30
0.0
 40
15.49999999999302
100
AcDbArc
 50
189.9999999999991
 51
190.9461103337523
1001
REVIT
1002
{
1070
     3
1000
924079
1002
}
  0
ARC
  5
1E8
330
1C0
100
AcDbEntity
  8
M-PIPE
100
AcDbCircle
 10
815.510157443189
 20
1843.745878730054
 30
0.0
 40
15.49999999999317
100
AcDbArc
 50
194.9999999999994
 51
199.9999999999998
1001
REVIT
1002
{
1070
     3
1000
924079
1002
}
  0
ARC
  5
1E9
330
1C0
100
AcDbEntity
  8
M-PIPE
100
AcDbCircle
 10
815.510157443189
 20
1843.745878730054
 30
0.0
 40
15.49999999999293
100
AcDbArc
 50
203.6644760827082
 51
204.9999999999994
1001
REVIT
1002
{
1070
     3
1000
924079
1002
}
  0
ARC
  5
1EA
330
1C0
100
AcDbEntity
  8
M-PIPE
100
AcDbCircle
 10
815.510157443189
 20
1843.745878730054
 30
0.0
 40
15.49999999999289
100
AcDbArc
 50
214.9999999999993
 51
216.3864237341821
1001
REVIT
1002
{
1070
     3
1000
924079
1002
}
  0
ARC
  5
1EB
330
1C0
100
AcDbEntity
  8
M-PIPE
100
AcDbCircle
 10
815.510157443189
 20
1843.745878730054
 30
0.0
 40
15.49999999999296
100
AcDbArc
 50
219.9999999999988
 51
224.9999999999995
1001
REVIT
1002
{
1070
     3
1000
924079
1002
}
  0
ARC
  5
1EC
330
1C0
100
AcDbEntity
  8
M-PIPE
100
AcDbCircle
 10
815.510157443189
 20
1843.745878730054
 30
0.0
 40
15.49999999999315
100
AcDbArc
 50
229.0307712645004
 51
229.9999999999989
1001
REVIT
1002
{
1070
     3
1000
924079
1002
}
  0
ARC
  5
1ED
330
1C0
100
AcDbEntity
  8
M-PIPE
100
AcDbCircle
 10
815.510157443189
 20
1843.745878730054
 30
0.0
 40
15.49999999999307
100
AcDbArc
 50
234.9999999999984
 51
235.4038494235529
1001
REVIT
1002
{
1070
     3
1000
924079
1002
}
  0
ARC
  5
1EE
330
1C0
100
AcDbEntity
  8
M-PIPE
100
AcDbCircle
 10
815.510157443189
 20
1843.745878730054
 30
0.0
 40
15.49999999999293
100
AcDbArc
 50
244.5769432331778
 51
244.9999999999985
1001
REVIT
1002
{
1070
     3
1000
924079
1002
}
  0
ARC
  5
1EF
330
1C0
100
AcDbEntity
  8
M-PIPE
100
AcDbCircle
 10
815.510157443189
 20
1843.745878730054
 30
0.0
 40
15.49999999999301
100
AcDbArc
 50
249.9999999999985
 51
250.9282384971011
1001
REVIT
1002
{
1070
     3
1000
924079
1002
}
  0
ARC
  5
1F0
330
1C0
100
AcDbEntity
  8
M-PIPE
100
AcDbCircle
 10
815.510157443189
 20
1843.745878730054
 30
0.0
 40
15.49999999999299
100
AcDbArc
 50
254.9999999999983
 51
259.9999999999984
1001
REVIT
1002
{
1070
     3
1000
924079
1002
}
  0
ARC
  5
1F1
330
1C0
100
AcDbEntity
  8
M-PIPE
100
AcDbCircle
 10
815.510157443189
 20
1843.745878730054
 30
0.0
 40
15.49999999999301
100
AcDbArc
 50
263.6409606117874
 51
264.9999999999985
1001
REVIT
1002
{
1070
     3
1000
924079
1002
}
  0
ARC
  5
1F2
330
1C0
100
AcDbEntity
  8
M-PIPE
100
AcDbCircle
 10
815.510157443189
 20
1843.745878730054
 30
0.0
 40
15.49999999999303
100
AcDbArc
 50
274.9999999999983
 51
276.3590393882077
1001
REVIT
1002
{
1070
     3
1000
924079
1002
}
  0
ARC
  5
1F3
330
1C0
100
AcDbEntity
  8
M-PIPE
100
AcDbCircle
 10
815.510157443189
 20
1843.745878730054
 30
0.0
 40
15.49999999999302
100
AcDbArc
 50
279.9999999999982
 51
284.999999999998
1001
REVIT
1002
{
1070
     3
1000
924079
1002
}
  0
ARC
  5
1F4
330
1C0
100
AcDbEntity
  8
M-PIPE
100
AcDbCircle
 10
815.510157443189
 20
1843.745878730054
 30
0.0
 40
15.49999999999301
100
AcDbArc
 50
289.0717615028942
 51
289.9999999999979
1001
REVIT
1002
{
1070
     3
1000
924079
1002
}
  0
ARC
  5
1F5
330
1C0
100
AcDbEntity
  8
M-PIPE
100
AcDbCircle
 10
815.510157443189
 20
1843.745878730054
 30
0.0
 40
15.49999999999286
100
AcDbArc
 50
294.9999999999985
 51
295.4230567668205
1001
REVIT
1002
{
1070
     3
1000
924079
1002
}
  0
ARC
  5
1F6
330
1C0
100
AcDbEntity
  8
M-PIPE
100
AcDbCircle
 10
815.510157443189
 20
1843.745878730054
 30
0.0
 40
15.49999999999287
100
AcDbArc
 50
304.5961505766169
 51
304.9999999999982
1001
REVIT
1002
{
1070
     3
1000
924079
1002
}
  0
ARC
  5
1F7
330
1C0
100
AcDbEntity
  8
M-PIPE
100
AcDbCircle
 10
815.510157443189
 20
1843.745878730054
 30
0.0
 40
15.49999999999288
100
AcDbArc
 50
309.9999999999985
 51
310.9692287356335
1001
REVIT
1002
{
1070
     3
1000
924079
1002
}
  0
ARC
  5
1F8
330
1C0
100
AcDbEntity
  8
M-PIPE
100
AcDbCircle
 10
815.510157443189
 20
1843.745878730054
 30
0.0
 40
15.49999999999297
100
AcDbArc
 50
314.9999999999987
 51
319.9999999999986
1001
REVIT
1002
{
1070
     3
1000
924079
1002
}
  0
ARC
  5
1F9
330
1C0
100
AcDbEntity
  8
M-PIPE
100
AcDbCircle
 10
815.510157443189
 20
1843.745878730054
 30
0.0
 40
15.49999999999304
100
AcDbArc
 50
323.61357626586
 51
324.9999999999988
1001
REVIT
1002
{
1070
     3
1000
924079
1002
}
  0
ARC
  5
1FA
330
1C0
100
AcDbEntity
  8
M-PIPE
100
AcDbCircle
 10
815.510157443189
 20
1843.745878730054
 30
0.0
 40
15.49999999999305
100
AcDbArc
 50
334.9999999999986
 51
336.3355239172442
1001
REVIT
1002
{
1070
     3
1000
924079
1002
}
  0
ARC
  5
1FB
330
1C0
100
AcDbEntity
  8
M-PIPE
100
AcDbCircle
 10
815.510157443189
 20
1843.745878730054
 30
0.0
 40
15.49999999999305
100
AcDbArc
 50
339.9999999999989
 51
344.9999999999992
1001
REVIT
1002
{
1070
     3
1000
924079
1002
}
  0
ARC
  5
1FC
330
1C0
100
AcDbEntity
  8
M-PIPE
100
AcDbCircle
 10
815.510157443189
 20
1843.745878730054
 30
0.0
 40
15.49999999999303
100
AcDbArc
 50
349.0538896661099
 51
349.9999999999984
1001
REVIT
1002
{
1070
     3
1000
924079
1002
}
  0
ARC
  5
1FD
330
1C0
100
AcDbEntity
  8
M-PIPE
100
AcDbCircle
 10
815.510157443189
 20
1843.745878730054
 30
0.0
 40
15.49999999999298
100
AcDbArc
 50
354.9999999999993
 51
355.4136951811576
1001
REVIT
1002
{
1070
     3
1000
924079
1002
}
  0
ARC
  5
1FE
330
1C0
100
AcDbEntity
  8
M-PIPE
100
AcDbCircle
 10
815.510157443189
 20
1843.745878730054
 30
0.0
 40
15.49999999999308
100
AcDbArc
 50
355.4146209149499
 51
359.9999999999994
1001
REVIT
1002
{
1070
     3
1000
924079
1002
}
  0
SPLINE
  5
1FF
330
1C0
100
AcDbEntity
  8
M-PIPE
100
AcDbSpline
210
0.0
220
0.0
230
1.0
 70
    24
 71
     3
 72
    43
 73
    39
 74
     0
 42
0.000000001
 43
0.0000000001
 40
0.0
 40
0.0
 40
0.0
 40
0.0
 40
0.0357142857142857
 40
0.0714285714285714
 40
0.1071428571428571
 40
0.125
 40
0.1428571428571428
 40
0.1607142857142857
 40
0.1785714285714286
 40
0.2142857142857143
 40
0.25
 40
0.2678571428571428
 40
0.2857142857142857
 40
0.3035714285714286
 40
0.3214285714285714
 40
0.3571428571428571
 40
0.3928571428571428
 40
0.4285714285714286
 40
0.4642857142857144
 40
0.5
 40
0.5357142857142857
 40
0.5714285714285714
 40
0.6071428571428572
 40
0.6428571428571428
 40
0.6785714285714287
 40
0.6964285714285714
 40
0.7142857142857144
 40
0.7321428571428572
 40
0.75
 40
0.7857142857142857
 40
0.8214285714285713
 40
0.8392857142857142
 40
0.8571428571428571
 40
0.875
 40
0.8928571428571427
 40
0.9285714285714286
 40
0.9642857142857142
 40
1.0
 40
1.0
 40
1.0
 40
1.0
 10
830.9605467700727
 20
1842.506738040899
 30
0.0
 10
830.9358336302647
 20
1842.463933627137
 30
0.0
 10
830.8762420652881
 20
1842.360718008895
 30
0.0
 10
830.7562971702173
 20
1842.152967356524
 30
0.0
 10
830.6310326967965
 20
1841.936002924176
 30
0.0
 10
830.5152955781609
 20
1841.735540354378
 30
0.0
 10
830.4215936505702
 20
1841.573243855023
 30
0.0
 10
830.3174762175006
 20
1841.392907170993
 30
0.0
 10
830.1628720342439
 20
1841.125124870529
 30
0.0
 10
829.9473539485376
 20
1840.751836596136
 30
0.0
 10
829.7157324707445
 20
1840.350656428474
 30
0.0
 10
829.5287665922405
 20
1840.026822027624
 30
0.0
 10
829.3909482190926
 20
1839.788113603115
 30
0.0
 10
829.2528763941968
 20
1839.548966187302
 30
0.0
 10
829.0630731519017
 20
1839.220217328206
 30
0.0
 10
828.8199558848909
 20
1838.799125869545
 30
0.0
 10
828.5234411247031
 20
1838.285547239706
 30
0.0
 10
828.22957344585
 20
1837.77655348923
 30
0.0
 10
827.9394308866658
 20
1837.274011835285
 30
0.0
 10
827.6481162747296
 20
1836.769440126424
 30
0.0
 10
827.3561417271045
 20
1836.26372537542
 30
0.0
 10
827.0644736191153
 20
1835.758541393436
 30
0.0
 10
826.7668520035558
 20
1835.243045633857
 30
0.0
 10
826.4646033336655
 20
1834.719535581086
 30
0.0
 10
826.2166844342589
 20
1834.290127451157
 30
0.0
 10
826.0237462323344
 20
1833.955948682703
 30
0.0
 10
825.8839311357595
 20
1833.71378183177
 30
0.0
 10
825.7449759758202
 20
1833.473104434781
 30
0.0
 10
825.5569332030844
 20
1833.147404798407
 30
0.0
 10
825.3247088209633
 20
1832.745180369817
 30
0.0
 10
825.109002446352
 20
1832.371565969474
 30
0.0
 10
824.9541921903691
 20
1832.103426740579
 30
0.0
 10
824.8497774698998
 20
1831.922575139668
 30
0.0
 10
824.7556908785707
 20
1831.759612383175
 30
0.0
 10
824.6395054059606
 20
1831.558373241513
 30
0.0
 10
824.5137181153488
 20
1831.340503263227
 30
0.0
 10
824.393232242207
 20
1831.131815609351
 30
0.0
 10
824.3333328628683
 20
1831.028066840994
 30
0.0
 10
824.3084794223021
 20
1830.98501941919
 30
0.0
1001
REVIT
1002
{
1070
     3
1000
924079
1002
}
  0
SPLINE
  5
200
330
1C0
100
AcDbEntity
  8
M-PIPE
100
AcDbSpline
210
0.0
220
0.0
230
1.0
 70
    24
 71
     3
 72
    43
 73
    39
 74
     0
 42
0.000000001
 43
0.0000000001
 40
0.0
 40
0.0
 40
0.0
 40
0.0
 40
0.0357142857142857
 40
0.0714285714285714
 40
0.1071428571428571
 40
0.125
 40
0.1428571428571428
 40
0.1607142857142857
 40
0.1785714285714286
 40
0.2142857142857143
 40
0.25
 40
0.2678571428571428
 40
0.2857142857142857
 40
0.3035714285714286
 40
0.3214285714285714
 40
0.3571428571428571
 40
0.3928571428571428
 40
0.4285714285714286
 40
0.4642857142857144
 40
0.5
 40
0.5357142857142857
 40
0.5714285714285714
 40
0.6071428571428572
 40
0.6428571428571428
 40
0.6785714285714287
 40
0.6964285714285714
 40
0.7142857142857144
 40
0.7321428571428572
 40
0.75
 40
0.7857142857142857
 40
0.8214285714285713
 40
0.8392857142857142
 40
0.8571428571428571
 40
0.875
 40
0.8928571428571427
 40
0.9285714285714286
 40
0.9642857142857142
 40
1.0
 40
1.0
 40
1.0
 40
1.0
 10
822.1622247909635
 20
1829.745878730038
 30
0.0
 10
822.1127985113476
 20
1829.745878730038
 30
0.0
 10
821.9936153813943
 20
1829.745878730038
 30
0.0
 10
821.7537255912525
 20
1829.745878730038
 30
0.0
 10
821.5031966444108
 20
1829.745878730038
 30
0.0
 10
821.2717224071397
 20
1829.745878730038
 30
0.0
 10
821.084318551958
 20
1829.745878730038
 30
0.0
 10
820.8760836858186
 20
1829.745878730038
 30
0.0
 10
820.5668753193048
 20
1829.745878730038
 30
0.0
 10
820.1358391478924
 20
1829.745878730038
 30
0.0
 10
819.6725961923057
 20
1829.745878730038
 30
0.0
 10
819.2986644352973
 20
1829.745878730038
 30
0.0
 10
819.0230276890016
 20
1829.745878730038
 30
0.0
 10
818.7468840392096
 20
1829.745878730038
 30
0.0
 10
818.3672775546193
 20
1829.745878730038
 30
0.0
 10
817.8810430205972
 20
1829.745878730038
 30
0.0
 10
817.2880135002216
 20
1829.745878730038
 30
0.0
 10
816.700278142515
 20
1829.745878730038
 30
0.0
 10
816.119993024146
 20
1829.745878730038
 30
0.0
 10
815.5373638002734
 20
1829.745878730038
 30
0.0
 10
814.9534147050227
 20
1829.745878730038
 30
0.0
 10
814.3700784890441
 20
1829.745878730038
 30
0.0
 10
813.7748352579249
 20
1829.745878730038
 30
0.0
 10
813.1703379181434
 20
1829.745878730038
 30
0.0
 10
812.6745001193301
 20
1829.745878730038
 30
0.0
 10
812.2886237154807
 20
1829.745878730038
 30
0.0
 10
812.008993522331
 20
1829.745878730038
 30
0.0
 10
811.731083202452
 20
1829.745878730038
 30
0.0
 10
811.35499765698
 20
1829.745878730038
 30
0.0
 10
810.8905488927375
 20
1829.745878730038
 30
0.0
 10
810.4591361435147
 20
1829.745878730038
 30
0.0
 10
810.1495156315493
 20
1829.745878730038
 30
0.0
 10
809.9406861906103
 20
1829.745878730038
 30
0.0
 10
809.7525130079521
 20
1829.745878730038
 30
0.0
 10
809.5201420627317
 20
1829.745878730038
 30
0.0
 10
809.2685674815077
 20
1829.745878730038
 30
0.0
 10
809.0275957352245
 20
1829.745878730038
 30
0.0
 10
808.9077969765465
 20
1829.745878730038
 30
0.0
 10
808.8580900954141
 20
1829.745878730038
 30
0.0
1001
REVIT
1002
{
1070
     3
1000
924079
1002
}
  0
SPLINE
  5
201
330
1C0
100
AcDbEntity
  8
M-PIPE
100
AcDbSpline
210
0.0
220
0.0
230
1.0
 70
    24
 71
     3
 72
    43
 73
    39
 74
     0
 42
0.000000001
 43
0.0000000001
 40
0.0
 40
0.0
 40
0.0
 40
0.0
 40
0.0357142857142857
 40
0.0714285714285714
 40
0.1071428571428571
 40
0.125
 40
0.1428571428571428
 40
0.1607142857142857
 40
0.1785714285714286
 40
0.2142857142857143
 40
0.25
 40
0.2678571428571428
 40
0.2857142857142857
 40
0.3035714285714286
 40
0.3214285714285714
 40
0.3571428571428571
 40
0.3928571428571428
 40
0.4285714285714286
 40
0.4642857142857144
 40
0.5
 40
0.5357142857142857
 40
0.5714285714285714
 40
0.6071428571428572
 40
0.6428571428571428
 40
0.6785714285714287
 40
0.6964285714285714
 40
0.7142857142857144
 40
0.7321428571428572
 40
0.75
 40
0.7857142857142857
 40
0.8214285714285713
 40
0.8392857142857142
 40
0.8571428571428571
 40
0.875
 40
0.8928571428571427
 40
0.9285714285714286
 40
0.9642857142857142
 40
1.0
 40
1.0
 40
1.0
 40
1.0
 10
806.7118354641149
 20
1830.985019419165
 30
0.0
 10
806.6871223243069
 20
1831.027823832927
 30
0.0
 10
806.6275307593301
 20
1831.131039451169
 30
0.0
 10
806.5075858642586
 20
1831.338790103541
 30
0.0
 10
806.3823213908371
 20
1831.555754535891
 30
0.0
 10
806.266584272201
 20
1831.75621710569
 30
0.0
 10
806.1728823446097
 20
1831.918513605045
 30
0.0
 10
806.0687649115394
 20
1832.098850289076
 30
0.0
 10
805.9141607282818
 20
1832.366632589542
 30
0.0
 10
805.6986426425744
 20
1832.739920863937
 30
0.0
 10
805.4670211647797
 20
1833.141101031602
 30
0.0
 10
805.2800552862745
 20
1833.464935432455
 30
0.0
 10
805.1422369131255
 20
1833.703643856965
 30
0.0
 10
805.0041650882288
 20
1833.942791272779
 30
0.0
 10
804.8143618459326
 20
1834.271540131878
 30
0.0
 10
804.5712445789199
 20
1834.692631590541
 30
0.0
 10
804.2747298187302
 20
1835.206210220384
 30
0.0
 10
803.980862139875
 20
1835.715203970863
 30
0.0
 10
803.690719580689
 20
1836.217745624812
 30
0.0
 10
803.3994049687509
 20
1836.722317333676
 30
0.0
 10
803.1074304211239
 20
1837.228032084682
 30
0.0
 10
802.8157623131329
 20
1837.733216066671
 30
0.0
 10
802.5181406975715
 20
1838.248711826254
 30
0.0
 10
802.215892027679
 20
1838.772221879027
 30
0.0
 10
801.9679731282709
 20
1839.201630008959
 30
0.0
 10
801.7750349263451
 20
1839.535808777415
 30
0.0
 10
801.6352198297694
 20
1839.77797562835
 30
0.0
 10
801.496264669829
 20
1840.01865302534
 30
0.0
 10
801.3082218970918
 20
1840.344352661717
 30
0.0
 10
801.075997514969
 20
1840.74657709031
 30
0.0
 10
800.8602911403562
 20
1841.120191490657
 30
0.0
 10
800.7054808843724
 20
1841.388330719553
 30
0.0
 10
800.6010661639024
 20
1841.569182320465
 30
0.0
 10
800.5069795725727
 20
1841.732145076959
 30
0.0
 10
800.3907940999619
 20
1841.933384218622
 30
0.0
 10
800.2650068093494
 20
1842.15125419691
 30
0.0
 10
800.1445209362072
 20
1842.359941850786
 30
0.0
 10
800.0846215568683
 20
1842.463690619143
 30
0.0
 10
800.0597681163023
 20
1842.506738040946
 30
0.0
1001
REVIT
1002
{
1070
     3
1000
924079
1002
}
  0
SPLINE
  5
202
330
1C0
100
AcDbEntity
  8
M-PIPE
100
AcDbSpline
210
0.0
220
0.0
230
1.0
 70
    24
 71
     3
 72
    43
 73
    39
 74
     0
 42
0.000000001
 43
0.0000000001
 40
0.0
 40
0.0
 40
0.0
 40
0.0
 40
0.0357142857142857
 40
0.0714285714285714
 40
0.1071428571428571
 40
0.125
 40
0.1428571428571428
 40
0.1607142857142857
 40
0.1785714285714286
 40
0.2142857142857143
 40
0.25
 40
0.2678571428571428
 40
0.2857142857142857
 40
0.3035714285714286
 40
0.3214285714285714
 40
0.3571428571428571
 40
0.3928571428571428
 40
0.4285714285714286
 40
0.4642857142857144
 40
0.5
 40
0.5357142857142857
 40
0.5714285714285714
 40
0.6071428571428572
 40
0.6428571428571428
 40
0.6785714285714287
 40
0.6964285714285714
 40
0.7142857142857144
 40
0.7321428571428572
 40
0.75
 40
0.7857142857142857
 40
0.8214285714285713
 40
0.8392857142857142
 40
0.8571428571428571
 40
0.875
 40
0.8928571428571427
 40
0.9285714285714286
 40
0.9642857142857142
 40
1.0
 40
1.0
 40
1.0
 40
1.0
 10
800.0597681162997
 20
1844.985019419124
 30
0.0
 10
800.0844812561078
 20
1845.027823832887
 30
0.0
 10
800.1440728210848
 20
1845.131039451129
 30
0.0
 10
800.2640177161566
 20
1845.338790103502
 30
0.0
 10
800.3892821895787
 20
1845.555754535853
 30
0.0
 10
800.5050193082153
 20
1845.756217105653
 30
0.0
 10
800.5987212358071
 20
1845.918513605009
 30
0.0
 10
800.7028386688778
 20
1846.098850289041
 30
0.0
 10
800.8574428521365
 20
1846.366632589508
 30
0.0
 10
801.0729609378451
 20
1846.739920863905
 30
0.0
 10
801.304582415641
 20
1847.141101031572
 30
0.0
 10
801.4915482941471
 20
1847.464935432427
 30
0.0
 10
801.6293666672966
 20
1847.703643856938
 30
0.0
 10
801.7674384921942
 20
1847.942791272754
 30
0.0
 10
801.9572417344917
 20
1848.271540131855
 30
0.0
 10
802.2003590015057
 20
1848.69263159052
 30
0.0
 10
802.4968737616971
 20
1849.206210220366
 30
0.0
 10
802.790741440554
 20
1849.715203970848
 30
0.0
 10
803.0808839997416
 20
1850.217745624799
 30
0.0
 10
803.3721986116809
 20
1850.722317333665
 30
0.0
 10
803.6641731593093
 20
1851.228032084675
 30
0.0
 10
803.9558412673018
 20
1851.733216066665
 30
0.0
 10
804.2534628828647
 20
1852.248711826251
 30
0.0
 10
804.5557115527589
 20
1852.772221879028
 30
0.0
 10
804.8036304521684
 20
1853.201630008962
 30
0.0
 10
804.9965686540954
 20
1853.53580877742
 30
0.0
 10
805.136383750672
 20
1853.777975628355
 30
0.0
 10
805.2753389106131
 20
1854.018653025347
 30
0.0
 10
805.4633816833513
 20
1854.344352661726
 30
0.0
 10
805.6956060654755
 20
1854.746577090322
 30
0.0
 10
805.9113124400898
 20
1855.12019149067
 30
0.0
 10
806.0661226960743
 20
1855.388330719568
 30
0.0
 10
806.170537416545
 20
1855.569182320481
 30
0.0
 10
806.264624007875
 20
1855.732145076976
 30
0.0
 10
806.3808094804864
 20
1855.93338421864
 30
0.0
 10
806.5065967710992
 20
1856.151254196928
 30
0.0
 10
806.6270826442416
 20
1856.359941850805
 30
0.0
 10
806.6869820235808
 20
1856.463690619162
 30
0.0
 10
806.7118354641468
 20
1856.506738040966
 30
0.0
1001
REVIT
1002
{
1070
     3
1000
924079
1002
}
  0
SPLINE
  5
203
330
1C0
100
AcDbEntity
  8
M-PIPE
100
AcDbSpline
210
0.0
220
0.0
230
1.0
 70
    24
 71
     3
 72
    43
 73
    39
 74
     0
 42
0.000000001
 43
0.0000000001
 40
0.0
 40
0.0
 40
0.0
 40
0.0
 40
0.0357142857142857
 40
0.0714285714285714
 40
0.1071428571428571
 40
0.125
 40
0.1428571428571428
 40
0.1607142857142857
 40
0.1785714285714286
 40
0.2142857142857143
 40
0.25
 40
0.2678571428571428
 40
0.2857142857142857
 40
0.3035714285714286
 40
0.3214285714285714
 40
0.3571428571428571
 40
0.3928571428571428
 40
0.4285714285714286
 40
0.4642857142857144
 40
0.5
 40
0.5357142857142857
 40
0.5714285714285714
 40
0.6071428571428572
 40
0.6428571428571428
 40
0.6785714285714287
 40
0.6964285714285714
 40
0.7142857142857144
 40
0.7321428571428572
 40
0.75
 40
0.7857142857142857
 40
0.8214285714285713
 40
0.8392857142857142
 40
0.8571428571428571
 40
0.875
 40
0.8928571428571427
 40
0.9285714285714286
 40
0.9642857142857142
 40
1.0
 40
1.0
 40
1.0
 40
1.0
 10
808.8580900953463
 20
1857.745878730037
 30
0.0
 10
808.9075163749622
 20
1857.745878730037
 30
0.0
 10
809.0266995049162
 20
1857.745878730037
 30
0.0
 10
809.2665892950602
 20
1857.745878730037
 30
0.0
 10
809.5171182419042
 20
1857.745878730037
 30
0.0
 10
809.7485924791772
 20
1857.745878730037
 30
0.0
 10
809.9359963343607
 20
1857.745878730037
 30
0.0
 10
810.1442312005023
 20
1857.745878730037
 30
0.0
 10
810.453439567019
 20
1857.745878730037
 30
0.0
 10
810.8844757384359
 20
1857.745878730037
 30
0.0
 10
811.3477186940274
 20
1857.745878730037
 30
0.0
 10
811.7216504510397
 20
1857.745878730037
 30
0.0
 10
811.9972871973386
 20
1857.745878730037
 30
0.0
 10
812.2734308471335
 20
1857.745878730037
 30
0.0
 10
812.653037331728
 20
1857.745878730037
 30
0.0
 10
813.1392718657558
 20
1857.745878730037
 30
0.0
 10
813.7323013861381
 20
1857.745878730037
 30
0.0
 10
814.3200367438511
 20
1857.745878730037
 30
0.0
 10
814.9003218622262
 20
1857.745878730037
 30
0.0
 10
815.4829510861048
 20
1857.745878730037
 30
0.0
 10
816.0669001813612
 20
1857.745878730037
 30
0.0
 10
816.650236397346
 20
1857.745878730037
 30
0.0
 10
817.2454796284716
 20
1857.745878730037
 30
0.0
 10
817.8499769682593
 20
1857.745878730037
 30
0.0
 10
818.345814767078
 20
1857.745878730037
 30
0.0
 10
818.7316911709315
 20
1857.745878730037
 30
0.0
 10
819.0113213640843
 20
1857.745878730037
 30
0.0
 10
819.2892316839664
 20
1857.745878730037
 30
0.0
 10
819.6653172294428
 20
1857.745878730037
 30
0.0
 10
820.1297659936908
 20
1857.745878730037
 30
0.0
 10
820.5611787429187
 20
1857.745878730037
 30
0.0
 10
820.8707992548877
 20
1857.745878730037
 30
0.0
 10
821.0796286958288
 20
1857.745878730037
 30
0.0
 10
821.2678018784888
 20
1857.745878730037
 30
0.0
 10
821.5001728237112
 20
1857.745878730037
 30
0.0
 10
821.7517474049373
 20
1857.745878730037
 30
0.0
 10
821.9927191512219
 20
1857.745878730037
 30
0.0
 10
822.1125179098999
 20
1857.745878730037
 30
0.0
 10
822.1622247910323
 20
1857.745878730037
 30
0.0
1001
REVIT
1002
{
1070
     3
1000
924079
1002
}
  0
SPLINE
  5
204
330
1C0
100
AcDbEntity
  8
M-PIPE
100
AcDbSpline
210
0.0
220
0.0
230
1.0
 70
    24
 71
     3
 72
    43
 73
    39
 74
     0
 42
0.000000001
 43
0.0000000001
 40
0.0
 40
0.0
 40
0.0
 40
0.0
 40
0.0357142857142857
 40
0.0714285714285714
 40
0.1071428571428571
 40
0.125
 40
0.1428571428571428
 40
0.1607142857142857
 40
0.1785714285714286
 40
0.2142857142857143
 40
0.25
 40
0.2678571428571428
 40
0.2857142857142857
 40
0.3035714285714286
 40
0.3214285714285714
 40
0.3571428571428571
 40
0.3928571428571428
 40
0.4285714285714286
 40
0.4642857142857144
 40
0.5
 40
0.5357142857142857
 40
0.5714285714285714
 40
0.6071428571428572
 40
0.6428571428571428
 40
0.6785714285714287
 40
0.6964285714285714
 40
0.7142857142857144
 40
0.7321428571428572
 40
0.75
 40
0.7857142857142857
 40
0.8214285714285713
 40
0.8392857142857142
 40
0.8571428571428571
 40
0.875
 40
0.8928571428571427
 40
0.9285714285714286
 40
0.9642857142857142
 40
1.0
 40
1.0
 40
1.0
 40
1.0
 10
824.3084794222708
 20
1856.506738040939
 30
0.0
 10
824.3331925620788
 20
1856.463933627177
 30
0.0
 10
824.3927841270554
 20
1856.360718008935
 30
0.0
 10
824.5127290221269
 20
1856.152967356563
 30
0.0
 10
824.6379934955482
 20
1855.936002924213
 30
0.0
 10
824.7537306141843
 20
1855.735540354414
 30
0.0
 10
824.8474325417756
 20
1855.573243855059
 30
0.0
 10
824.9515499748456
 20
1855.392907171028
 30
0.0
 10
825.106154158103
 20
1855.125124870563
 30
0.0
 10
825.3216722438104
 20
1854.751836596168
 30
0.0
 10
825.5532937216047
 20
1854.350656428504
 30
0.0
 10
825.7402596001098
 20
1854.026822027652
 30
0.0
 10
825.8780779732584
 20
1853.788113603142
 30
0.0
 10
826.0161497981549
 20
1853.548966187327
 30
0.0
 10
826.205953040451
 20
1853.220217328229
 30
0.0
 10
826.4490703074633
 20
1852.799125869567
 30
0.0
 10
826.7455850676524
 20
1852.285547239725
 30
0.0
 10
827.0394527465073
 20
1851.776553489246
 30
0.0
 10
827.3295953056932
 20
1851.274011835298
 30
0.0
 10
827.6209099176307
 20
1850.769440126435
 30
0.0
 10
827.9128844652573
 20
1850.263725375429
 30
0.0
 10
828.2045525732481
 20
1849.758541393441
 30
0.0
 10
828.502174188809
 20
1849.243045633859
 30
0.0
 10
828.8044228587013
 20
1848.719535581086
 30
0.0
 10
829.052341758109
 20
1848.290127451155
 30
0.0
 10
829.2452799600345
 20
1847.955948682699
 30
0.0
 10
829.3850950566103
 20
1847.713781831765
 30
0.0
 10
829.5240502165505
 20
1847.473104434774
 30
0.0
 10
829.7120929892873
 20
1847.147404798398
 30
0.0
 10
829.9443173714095
 20
1846.745180369806
 30
0.0
 10
830.1600237460224
 20
1846.37156596946
 30
0.0
 10
830.3148340020056
 20
1846.103426740564
 30
0.0
 10
830.4192487224758
 20
1845.922575139652
 30
0.0
 10
830.5133353138051
 20
1845.759612383158
 30
0.0
 10
830.629520786416
 20
1845.558373241495
 30
0.0
 10
830.7553080770283
 20
1845.340503263208
 30
0.0
 10
830.8757939501703
 20
1845.131815609332
 30
0.0
 10
830.9356933295092
 20
1845.028066840975
 30
0.0
 10
830.9605467700754
 20
1844.985019419171
 30
0.0
1001
REVIT
1002
{
1070
     3
1000
924079
1002
}
  0
ARC
  5
205
330
1C0
100
AcDbEntity
  8
M-PIPE
100
AcDbCircle
 10
815.5101574431892
 20
1843.745878730054
 30
0.0
 40
12.14999999999998
100
AcDbArc
 50
0.0
 51
179.9999999999989
1001
REVIT
1002
{
1070
     3
1000
924079
1002
}
  0
ARC
  5
206
330
1C0
100
AcDbEntity
  8
M-PIPE
100
AcDbCircle
 10
815.5101574431892
 20
1843.745878730054
 30
0.0
 40
12.15
100
AcDbArc
 50
179.9999999999997
 51
359.9999999999994
1001
REVIT
1002
{
1070
     3
1000
924079
1002
}
  0
ARC
  5
207
330
1C0
100
AcDbEntity
  8
M-PIPE
100
AcDbCircle
 10
815.510157443189
 20
1843.745878730054
 30
0.0
 40
16.2999999999982
100
AcDbArc
 50
359.9999999999992
 51
180.0000000000004
1001
REVIT
1002
{
1070
     3
1000
924079
1002
}
  0
ARC
  5
208
330
1C0
100
AcDbEntity
  8
M-PIPE
100
AcDbCircle
 10
815.510157443189
 20
1843.745878730054
 30
0.0
 40
16.29999999999796
100
AcDbArc
 50
180.0000000000006
 51
359.9999999999994
1001
REVIT
1002
{
1070
     3
1000
924079
1002
}
  0
LINE
  5
209
330
1C0
100
AcDbEntity
  8
M-PIPE
100
AcDbLine
 10
812.346200441735
 20
1863.745878730067
 30
0.0
 11
809.9818213462981
 21
1863.745878730067
 31
0.0
1001
REVIT
1002
{
1070
     3
1000
790271
1002
}
  0
ARC
  5
20A
330
1C0
100
AcDbEntity
  8
M-PIPE
100
AcDbCircle
 10
815.510157443172
 20
1843.745878730067
 30
0.0
 40
20.74999999999986
100
AcDbArc
 50
105.4516934309443
 51
132.6898814487884
1001
REVIT
1002
{
1070
     3
1000
790271
1002
}
  0
LINE
  5
20B
330
1C0
100
AcDbEntity
  8
M-PIPE
100
AcDbLine
 10
818.5786815054175
 20
1823.745878730067
 30
0.0
 11
819.0101574431889
 21
1823.745878730067
 31
0.0
1001
REVIT
1002
{
1070
     3
1000
790271
1002
}
  0
LINE
  5
20C
330
1C0
100
AcDbEntity
  8
P-SANR-FIXT
100
AcDbLine
 10
812.8728426308605
 20
1858.995878730056
 30
0.0
 11
812.818610689354
 21
1858.995878730056
 31
0.0
  0
LINE
  5
20D
330
1C0
100
AcDbEntity
  8
P-SANR-FIXT
100
AcDbLine
 10
809.805566097533
 20
1858.995878730056
 30
0.0
 11
793.5101574431901
 21
1858.995878730055
 31
0.0
  0
LINE
  5
20E
330
1C0
100
AcDbEntity
  8
P-SANR-FIXT
100
AcDbLine
 10
793.5101574431899
 20
1828.495878730055
 30
0.0
 11
798.6374916808554
 21
1828.495878730055
 31
0.0
  0
LINE
  5
20F
330
1C0
100
AcDbEntity
  8
P-SANR-FIXT
100
AcDbLine
 10
812.8186106893537
 20
1828.495878730055
 30
0.0
 11
812.8728426308489
 21
1828.495878730055
 31
0.0
  0
LINE
  5
210
330
1C0
100
AcDbEntity
  8
P-SANR-FIXT
100
AcDbLine
 10
793.5101574431901
 20
1860.295878730055
 30
0.0
 11
791.0101574431629
 21
1860.295878730056
 31
0.0
  0
LINE
  5
211
330
1C0
100
AcDbEntity
  8
P-SANR-FIXT
100
AcDbLine
 10
791.0101574431627
 20
1827.195878730056
 30
0.0
 11
793.5101574431899
 21
1827.195878730055
 31
0.0
  0
LINE
  5
212
330
1C0
100
AcDbEntity
  8
P-SANR-FIXT
100
AcDbLine
 10
797.0101574431901
 20
1828.497280247554
 30
0.0
 11
797.0101574431899
 21
1817.745878730055
 31
0.0
  0
LINE
  5
213
330
1C0
100
AcDbEntity
  8
P-SANR-FIXT
100
AcDbLine
 10
814.01015744319
 20
1817.745878730055
 30
0.0
 11
814.01015744319
 21
1827.386032209233
 31
0.0
  0
LINE
  5
214
330
1C0
100
AcDbEntity
  8
P-SANR-FIXT
100
AcDbLine
 10
819.0101574431899
 20
1827.694567936701
 30
0.0
 11
819.0101574431899
 21
1818.745878730055
 31
0.0
  0
LINE
  5
215
330
1C0
100
AcDbEntity
  8
P-SANR-FIXT
100
AcDbLine
 10
836.0101574431901
 20
1818.745878730055
 30
0.0
 11
836.0101574431901
 21
1828.495900606768
 31
0.0
  0
LINE
  5
216
330
1C0
100
AcDbEntity
  8
P-SANR-FIXT
100
AcDbLine
 10
814.5101574431901
 20
1864.745878730055
 30
0.0
 11
814.5101574431901
 21
1859.996751880282
 31
0.0
  0
LINE
  5
217
330
1C0
100
AcDbEntity
  8
P-SANR-FIXT
100
AcDbLine
 10
814.5101574431901
 20
1859.202217787139
 30
0.0
 11
814.5101574431901
 21
1859.190375739685
 31
0.0
  0
LINE
  5
218
330
1C0
100
AcDbEntity
  8
P-SANR-FIXT
100
AcDbLine
 10
814.5101574431901
 20
1828.301381720424
 30
0.0
 11
814.5101574431901
 21
1828.289539672971
 31
0.0
  0
LINE
  5
219
330
1C0
100
AcDbEntity
  8
P-SANR-FIXT
100
AcDbLine
 10
834.51015744319
 20
1827.975395363641
 30
0.0
 11
834.51015744319
 21
1830.467607005166
 31
0.0
  0
LINE
  5
21A
330
1C0
100
AcDbEntity
  8
P-SANR-FIXT
100
AcDbLine
 10
834.5101574431904
 20
1857.024150454945
 30
0.0
 11
834.5101574431904
 21
1864.745878730055
 31
0.0
  0
LWPOLYLINE
  5
21B
330
1C0
100
AcDbEntity
  8
P-SANR-FIXT
100
AcDbPolyline
 90
       10
 70
   128
 43
0.0
 10
814.5101574431901
 20
1860.141264962089
 10
814.0342678155887
 20
1860.10791796702
 10
813.3811413148491
 20
1860.035810237282
 10
812.7314207857489
 20
1859.937642092131
 10
812.0861456425354
 20
1859.813570579659
 10
811.4463481877857
 20
1859.66379418782
 10
810.8130519609449
 20
1859.488552526889
 10
810.1872701008801
 20
1859.288125946141
 10
809.5700037250741
 20
1859.06283508535
 10
809.3535831475518
 20
1858.973884815245
  0
LWPOLYLINE
  5
21C
330
1C0
100
AcDbEntity
  8
P-SANR-FIXT
100
AcDbPolyline
 90
       11
 70
   128
 43
0.0
 10
813.7939347155018
 20
1827.407299913836
 10
814.4486763990464
 20
1827.351738430004
 10
815.1051162258244
 20
1827.322404073422
 10
815.7622040321461
 20
1827.319343772802
 10
816.4188886176924
 20
1827.342562423974
 10
817.0741194272121
 20
1827.392022882048
 10
817.7268482311847
 20
1827.467646020843
 10
818.376030802765
 20
1827.569310859468
 10
819.020628588324
 20
1827.696854755868
 10
819.6596103689111
 20
1827.850073667018
 10
820.0967402813645
 20
1827.973570995402
  0
LWPOLYLINE
  5
21D
330
1C0
100
AcDbEntity
  8
P-SANR-FIXT
100
AcDbPolyline
 90
       19
 70
   128
 43
0.0
 10
814.5101574431901
 20
1863.992700410455
 10
814.1630512168163
 20
1863.976552097331
 10
813.3551176000091
 20
1863.906499835389
 10
812.5506315872337
 20
1863.804194880382
 10
811.7508801844959
 20
1863.669800898414
 10
810.9571428234357
 20
1863.503532891186
 10
810.1706893145092
 20
1863.305656852041
 10
809.3927778155626
 20
1863.076489340432
 10
808.6246528190491
 20
1862.81639697549
 10
807.8675431611046
 20
1862.525795849516
 10
807.1226600556743
 20
1862.205150862319
 10
806.3911951568265
 20
1861.854974977478
 10
805.674318652362
 20
1861.475828401709
 10
804.9731773917624
 20
1861.068317688653
 10
804.2888930514761
 20
1860.63309476852
 10
803.6225603404743
 20
1860.170855905139
 10
802.9752452489514
 20
1859.682340582087
 10
802.3479833429675
 20
1859.168330319669
 10
802.1404331267833
 20
1858.983898142541
  0
LINE
  5
21E
330
1C0
100
AcDbEntity
  8
P-SANR-FIXT
100
AcDbLine
 10
840.0101574432174
 20
1860.295878730055
 30
0.0
 11
837.5101574431903
 21
1860.295878730055
 31
0.0
  0
LINE
  5
21F
330
1C0
100
AcDbEntity
  8
P-SANR-FIXT
100
AcDbLine
 10
837.5101574431901
 20
1827.195878730055
 30
0.0
 11
840.0101574432172
 21
1827.195878730055
 31
0.0
  0
LINE
  5
220
330
1C0
100
AcDbEntity
  8
P-SANR-FIXT
100
AcDbLine
 10
837.5101574431903
 20
1858.995878730056
 30
0.0
 11
834.51015744319
 21
1858.995878730056
 31
0.0
  0
LINE
  5
221
330
1C0
100
AcDbEntity
  8
P-SANR-FIXT
100
AcDbLine
 10
834.5079464579329
 20
1828.495878730055
 30
0.0
 11
837.5101574431901
 21
1828.495878730055
 31
0.0
  0
LINE
  5
222
330
1C0
100
AcDbEntity
  8
P-SANR-FIXT
100
AcDbLine
 10
755.310157443175
 20
1856.895878730114
 30
0.0
 11
755.2620125524269
 21
1856.847733839365
 31
0.0
  0
LINE
  5
223
330
1C0
100
AcDbEntity
  8
P-SANR-FIXT
100
AcDbLine
 10
755.2468365989141
 20
1856.832557885853
 30
0.0
 11
754.010157443175
 21
1855.595878730113
 31
0.0
  0
LINE
  5
224
330
1C0
100
AcDbEntity
  8
P-SANR-FIXT
100
AcDbLine
 10
754.0101574431747
 20
1831.895878729998
 30
0.0
 11
755.3101574431748
 21
1830.595878729998
 31
0.0
  0
LINE
  5
225
330
1C0
100
AcDbEntity
  8
P-SANR-FIXT
100
AcDbLine
 10
775.0101574431629
 20
1856.895878730114
 30
0.0
 11
755.310157443175
 21
1856.895878730114
 31
0.0
  0
LINE
  5
226
330
1C0
100
AcDbEntity
  8
P-SANR-FIXT
100
AcDbLine
 10
755.3101574431748
 20
1830.595878729997
 30
0.0
 11
775.0101574431627
 21
1830.595878729997
 31
0.0
  0
LINE
  5
227
330
1C0
100
AcDbEntity
  8
P-SANR-FIXT
100
AcDbLine
 10
776.3585942639835
 20
1862.24614253423
 30
0.0
 11
775.0101574431628
 21
1859.911686267506
 31
0.0
  0
LINE
  5
228
330
1C0
100
AcDbEntity
  8
P-SANR-FIXT
100
AcDbLine
 10
775.0101574431627
 20
1827.580071192605
 30
0.0
 11
776.358594264001
 21
1825.24561492585
 31
0.0
  0
LINE
  5
229
330
1C0
100
AcDbEntity
  8
P-SANR-FIXT
100
AcDbLine
 10
877.0101574432057
 20
1855.595878730113
 30
0.0
 11
875.7101574432056
 21
1856.895878730113
 31
0.0
  0
LINE
  5
22A
330
1C0
100
AcDbEntity
  8
P-SANR-FIXT
100
AcDbLine
 10
875.7101574432054
 20
1830.595878729997
 30
0.0
 11
875.7583023339533
 21
1830.644023620745
 31
0.0
  0
LINE
  5
22B
330
1C0
100
AcDbEntity
  8
P-SANR-FIXT
100
AcDbLine
 10
875.7734782874662
 20
1830.659199574258
 30
0.0
 11
877.0101574432052
 21
1831.895878729997
 31
0.0
  0
LINE
  5
22C
330
1C0
100
AcDbEntity
  8
P-SANR-FIXT
100
AcDbLine
 10
875.7101574432056
 20
1856.895878730113
 30
0.0
 11
856.0101574432177
 21
1856.895878730113
 31
0.0
  0
LINE
  5
22D
330
1C0
100
AcDbEntity
  8
P-SANR-FIXT
100
AcDbLine
 10
856.0101574432174
 20
1830.595878729997
 30
0.0
 11
875.7101574432054
 21
1830.595878729997
 31
0.0
  0
LINE
  5
22E
330
1C0
100
AcDbEntity
  8
P-SANR-FIXT
100
AcDbLine
 10
856.0101574432176
 20
1859.911686267506
 30
0.0
 11
854.6617206223929
 21
1862.246142534237
 31
0.0
  0
LINE
  5
22F
330
1C0
100
AcDbEntity
  8
P-SANR-FIXT
100
AcDbLine
 10
854.6617206223748
 20
1825.245614925842
 30
0.0
 11
856.0101574432174
 21
1827.580071192604
 31
0.0
  0
LINE
  5
230
330
1C0
100
AcDbEntity
  8
P-SANR-FIXT
100
AcDbLine
 10
836.0101574431887
 20
1818.745878730055
 30
0.0
 11
819.0101574431889
 21
1818.745878730055
 31
0.0
  0
LINE
  5
231
330
1C0
100
AcDbEntity
  8
P-SANR-FIXT
100
AcDbLine
 10
840.0101574432158
 20
1825.245878729635
 30
0.0
 11
840.0101574432158
 21
1827.153918841227
 31
0.0
  0
LINE
  5
232
330
1C0
100
AcDbEntity
  8
P-SANR-FIXT
100
AcDbLine
 10
840.0101574432158
 20
1827.153918841227
 30
0.0
 11
840.0101574432159
 21
1841.837838617215
 31
0.0
  0
LINE
  5
233
330
1C0
100
AcDbEntity
  8
P-SANR-FIXT
100
AcDbLine
 10
840.0101574432159
 20
1841.837838617215
 30
0.0
 11
840.0101574432159
 21
1843.745878730054
 31
0.0
  0
LINE
  5
234
330
1C0
100
AcDbEntity
  8
P-SANR-FIXT
100
AcDbLine
 10
814.0101574431888
 20
1817.745878730055
 30
0.0
 11
797.0101574431888
 21
1817.745878730055
 31
0.0
  0
LINE
  5
235
330
1C0
100
AcDbEntity
  8
P-SANR-FIXT
100
AcDbLine
 10
834.5101574431888
 20
1827.97539536364
 30
0.0
 11
819.5523051974982
 21
1827.97539536364
 31
0.0
  0
SPLINE
  5
236
330
1C0
100
AcDbEntity
  8
P-SANR-FIXT
100
AcDbSpline
210
0.0
220
0.0
230
1.0
 70
     8
 71
     3
 72
    15
 73
    11
 74
     0
 42
0.000000001
 43
0.0000000001
 40
0.235961858022158
 40
0.235961858022158
 40
0.235961858022158
 40
0.235961858022158
 40
0.25
 40
0.375
 40
0.5
 40
0.5625
 40
0.625
 40
0.6875
 40
0.75
 40
0.7545045438282667
 40
0.7545045438282667
 40
0.7545045438282667
 40
0.7545045438282667
 10
798.6344761165605
 20
1828.496406223599
 30
0.0
 10
798.6977259813568
 20
1828.496196642351
 30
0.0
 10
799.3404494425105
 20
1828.50162405878
 30
0.0
 10
800.8588482367786
 20
1828.645312977619
 30
0.0
 10
803.094523120558
 20
1828.844840463768
 30
0.0
 10
804.9986431875042
 20
1828.907269635921
 30
0.0
 10
806.4391752010157
 20
1828.901463531076
 30
0.0
 10
807.8570896519652
 20
1828.833667389398
 30
0.0
 10
808.7719451649574
 20
1828.768510119817
 30
0.0
 10
809.2460163996577
 20
1828.724876129607
 30
0.0
 10
809.2778749402386
 20
1828.721904584152
 30
0.0
  0
LINE
  5
237
330
1C0
100
AcDbEntity
  8
P-SANR-FIXT
100
AcDbLine
 10
793.510157443189
 20
1860.295878730055
 30
0.0
 11
793.510157443189
 21
1843.745878730055
 31
0.0
  0
LINE
  5
238
330
1C0
100
AcDbEntity
  8
P-SANR-FIXT
100
AcDbLine
 10
793.510157443189
 20
1843.745878730055
 30
0.0
 11
793.5101574431887
 21
1827.195878730055
 31
0.0
  0
SPLINE
  5
239
330
1C0
100
AcDbEntity
  8
P-SANR-FIXT
100
AcDbSpline
210
0.0
220
0.0
230
1.0
 70
     8
 71
     3
 72
     8
 73
     4
 74
     0
 42
0.000000001
 43
0.0000000001
 40
0.5
 40
0.5
 40
0.5
 40
0.5
 40
1.0
 40
1.0
 40
1.0
 40
1.0
 10
813.9559218070248
 20
1827.391095644604
 30
0.0
 10
813.9198055935246
 20
1827.394640262038
 30
0.0
 10
813.8656925891876
 20
1827.400041685115
 30
0.0
 10
813.7939347155008
 20
1827.407299913835
 30
0.0
  0
SPLINE
  5
23A
330
1C0
100
AcDbEntity
  8
P-SANR-FIXT
100
AcDbSpline
210
0.0
220
0.0
230
1.0
 70
     8
 71
     3
 72
     9
 73
     5
 74
     0
 42
0.000000001
 43
0.0000000001
 40
0.0
 40
0.0
 40
0.0
 40
0.0
 40
0.2
 40
0.3314361043642183
 40
0.3314361043642183
 40
0.3314361043642183
 40
0.3314361043642183
 10
813.7939347155008
 20
1827.407299913835
 30
0.0
 10
813.7589823302915
 20
1827.411919100094
 30
0.0
 10
813.6958410525711
 20
1827.445317247974
 30
0.0
 10
813.6244804053934
 20
1827.523986036817
 30
0.0
 10
813.5954898452411
 20
1827.561493784971
 30
0.0
  0
SPLINE
  5
23B
330
1C0
100
AcDbEntity
  8
P-SANR-FIXT
100
AcDbSpline
210
0.0
220
0.0
230
1.0
 70
     8
 71
     3
 72
     8
 73
     4
 74
     0
 42
0.000000001
 43
0.0000000001
 40
0.625
 40
0.625
 40
0.625
 40
0.625
 40
0.75
 40
0.75
 40
0.75
 40
0.75
 10
819.4517909863627
 20
1827.797626178427
 30
0.0
 10
819.3547576769923
 20
1827.773666296384
 30
0.0
 10
819.2622442309794
 20
1827.751617069023
 30
0.0
 10
819.2076704966074
 20
1827.738912265273
 30
0.0
  0
LINE
  5
23C
330
1C0
100
AcDbEntity
  8
P-SANR-FIXT
100
AcDbLine
 10
832.7850746608245
 20
1868.745878730041
 30
0.0
 11
833.510157443189
 21
1868.745878730041
 31
0.0
  0
LINE
  5
23D
330
1C0
100
AcDbEntity
  8
P-SANR-FIXT
100
AcDbLine
 10
815.510157443189
 20
1868.745878730041
 30
0.0
 11
816.2352402255537
 21
1868.745878730041
 31
0.0
  0
LINE
  5
23E
330
1C0
100
AcDbEntity
  8
P-SANR-FIXT
100
AcDbLine
 10
816.2352402255539
 20
1868.745878730041
 30
0.0
 11
823.7850746608245
 21
1868.745878730041
 31
0.0
  0
LINE
  5
23F
330
1C0
100
AcDbEntity
  8
P-SANR-FIXT
100
AcDbLine
 10
823.7850746608243
 20
1868.745878730041
 30
0.0
 11
825.2352402255539
 21
1868.745878730041
 31
0.0
  0
LINE
  5
240
330
1C0
100
AcDbEntity
  8
P-SANR-FIXT
100
AcDbLine
 10
825.2352402255539
 20
1868.745878730041
 30
0.0
 11
832.7850746608245
 21
1868.745878730041
 31
0.0
  0
LINE
  5
241
330
1C0
100
AcDbEntity
  8
P-SANR-FIXT
100
AcDbLine
 10
834.510157443189
 20
1864.745878730055
 30
0.0
 11
833.5101574431892
 21
1864.745878730055
 31
0.0
  0
LINE
  5
242
330
1C0
100
AcDbEntity
  8
P-SANR-FIXT
100
AcDbLine
 10
833.5101574431892
 20
1864.745878730055
 30
0.0
 11
833.5101574431892
 21
1868.745878730041
 31
0.0
  0
LINE
  5
243
330
1C0
100
AcDbEntity
  8
P-SANR-FIXT
100
AcDbLine
 10
832.7850746608245
 20
1868.745878730041
 30
0.0
 11
832.7850746608245
 21
1864.745878730055
 31
0.0
  0
LINE
  5
244
330
1C0
100
AcDbEntity
  8
P-SANR-FIXT
100
AcDbLine
 10
832.7850746608245
 20
1864.745878730055
 30
0.0
 11
825.2352402255539
 21
1864.745878730055
 31
0.0
  0
LINE
  5
245
330
1C0
100
AcDbEntity
  8
P-SANR-FIXT
100
AcDbLine
 10
825.2352402255539
 20
1864.745878730055
 30
0.0
 11
825.2352402255539
 21
1868.745878730041
 31
0.0
  0
LINE
  5
246
330
1C0
100
AcDbEntity
  8
P-SANR-FIXT
100
AcDbLine
 10
823.7850746608245
 20
1868.745878730041
 30
0.0
 11
823.7850746608245
 21
1864.745878730055
 31
0.0
  0
LINE
  5
247
330
1C0
100
AcDbEntity
  8
P-SANR-FIXT
100
AcDbLine
 10
823.7850746608243
 20
1864.745878730055
 30
0.0
 11
816.2352402255537
 21
1864.745878730055
 31
0.0
  0
LINE
  5
248
330
1C0
100
AcDbEntity
  8
P-SANR-FIXT
100
AcDbLine
 10
816.2352402255539
 20
1864.745878730055
 30
0.0
 11
816.2352402255539
 21
1868.745878730041
 31
0.0
  0
LINE
  5
249
330
1C0
100
AcDbEntity
  8
P-SANR-FIXT
100
AcDbLine
 10
815.510157443189
 20
1868.745878730041
 30
0.0
 11
815.510157443189
 21
1864.745878730055
 31
0.0
  0
LINE
  5
24A
330
1C0
100
AcDbEntity
  8
P-SANR-FIXT
100
AcDbLine
 10
815.510157443189
 20
1864.745878730055
 30
0.0
 11
814.5101574431889
 21
1864.745878730055
 31
0.0
  0
ARC
  5
24B
330
1C0
100
AcDbEntity
  8
P-SANR-FIXT
100
AcDbCircle
 10
815.510157443189
 20
1843.745878730055
 30
0.0
 40
18.47651676738085
100
AcDbArc
 50
93.10480479947207
 51
124.4566589781334
  0
ARC
  5
24C
330
1C0
100
AcDbEntity
  8
P-SANR-FIXT
100
AcDbCircle
 10
815.510157443189
 20
1843.745878730055
 30
0.0
 40
18.47651676738077
100
AcDbArc
 50
265.3399099504206
 51
280.9255246121571
  0
LINE
  5
24D
330
1C0
100
AcDbEntity
  8
P-SANR-FIXT
100
AcDbLine
 10
837.5101574431891
 20
1860.295878730055
 30
0.0
 11
837.5101574431889
 21
1843.745878730055
 31
0.0
  0
LINE
  5
24E
330
1C0
100
AcDbEntity
  8
P-SANR-FIXT
100
AcDbLine
 10
837.5101574431889
 20
1843.745878730055
 30
0.0
 11
837.5101574431889
 21
1827.195878730055
 31
0.0
  0
SPLINE
  5
24F
330
1C0
100
AcDbEntity
  8
P-SANR-FIXT
100
AcDbSpline
210
0.0
220
0.0
230
1.0
 70
     8
 71
     3
 72
    27
 73
    23
 74
     0
 42
0.000000001
 43
0.0000000001
 40
-0.7714046454140115
 40
-0.7714046454140115
 40
-0.7714046454140115
 40
-0.7714046454140115
 40
-0.75
 40
-0.7
 40
-0.65
 40
-0.625
 40
-0.6
 40
-0.5875
 40
-0.575
 40
-0.55
 40
-0.5
 40
-0.45
 40
-0.425
 40
-0.4
 40
-0.375
 40
-0.35
 40
-0.3
 40
-0.25
 40
-0.2
 40
-0.15
 40
-0.1
 40
0.0
 40
0.0
 40
0.0
 40
0.0
 10
831.3497951237234
 20
1847.467736014599
 30
0.0
 10
831.3785237874579
 20
1847.57887788175
 30
0.0
 10
831.4789926855835
 20
1847.947619827941
 30
0.0
 10
831.6753489602589
 20
1848.562808273688
 30
0.0
 10
831.893815278315
 20
1849.181681788453
 30
0.0
 10
832.0695713826875
 20
1849.668742657552
 30
0.0
 10
832.1766672229339
 20
1849.970219359772
 30
0.0
 10
832.2619200036506
 20
1850.209182336524
 30
0.0
 10
832.3498403639694
 20
1850.445994948535
 30
0.0
 10
832.5077751926087
 20
1850.855394958973
 30
0.0
 10
832.7414548279085
 20
1851.426505499853
 30
0.0
 10
832.9727035112801
 20
1851.981432800364
 30
0.0
 10
833.1493331010317
 20
1852.416538480325
 30
0.0
 10
833.2741986759222
 20
1852.738896177432
 30
0.0
 10
833.3957702398173
 20
1853.056413635133
 30
0.0
 10
833.559378328103
 20
1853.471797449106
 30
0.0
 10
833.7582244490839
 20
1853.976442096694
 30
0.0
 10
833.9755415568083
 20
1854.557386546445
 30
0.0
 10
834.1535728392329
 20
1855.112752822596
 30
0.0
 10
834.2902013233759
 20
1855.640327094993
 30
0.0
 10
834.4332643933745
 20
1856.302731829995
 30
0.0
 10
834.4920380671686
 20
1856.750394178396
 30
0.0
 10
834.510157443189
 20
1857.024150454944
 30
0.0
  0
SPLINE
  5
250
330
1C0
100
AcDbEntity
  8
P-SANR-FIXT
100
AcDbSpline
210
0.0
220
0.0
230
1.0
 70
     8
 71
     3
 72
    25
 73
    21
 74
     0
 42
0.000000001
 43
0.0000000001
 40
-1.0
 40
-1.0
 40
-1.0
 40
-1.0
 40
-0.9
 40
-0.85
 40
-0.8
 40
-0.75
 40
-0.7
 40
-0.65
 40
-0.6
 40
-0.575
 40
-0.55
 40
-0.5
 40
-0.45
 40
-0.425
 40
-0.4
 40
-0.375
 40
-0.35
 40
-0.3
 40
-0.25
 40
-0.2285953545860159
 40
-0.2285953545860159
 40
-0.2285953545860159
 40
-0.2285953545860159
 10
834.5101574431888
 20
1830.467607005165
 30
0.0
 10
834.4920380671682
 20
1830.741363281714
 30
0.0
 10
834.4332666803156
 20
1831.189026005521
 30
0.0
 10
834.2901975118063
 20
1831.85142973944
 30
0.0
 10
834.1535873231952
 20
1832.379007015083
 30
0.0
 10
833.9754874325279
 20
1832.93436202906
 30
0.0
 10
833.7584264622432
 20
1833.515348524264
 30
0.0
 10
833.5188551755498
 20
1834.120765181734
 30
0.0
 10
833.3154300925889
 20
1834.645344683399
 30
0.0
 10
833.149403820499
 20
1835.075230501271
 30
0.0
 10
832.9726696361067
 20
1835.510319564406
 30
0.0
 10
832.7414061071344
 20
1836.065240210878
 30
0.0
 10
832.5079552301049
 20
1836.636402844611
 30
0.0
 10
832.3269639222544
 20
1837.104177958973
 30
0.0
 10
832.1977626077741
 20
1837.461170402822
 30
0.0
 10
832.0696562095873
 20
1837.823033759149
 30
0.0
 10
831.8937663034953
 20
1838.310064727066
 30
0.0
 10
831.6753655991401
 20
1838.928952904775
 30
0.0
 10
831.4789922494309
 20
1839.5441375347
 30
0.0
 10
831.3785224003463
 20
1839.912879268376
 30
0.0
 10
831.3497938251915
 20
1840.024021155323
 30
0.0
  0
LINE
  5
251
330
1C0
100
AcDbEntity
  8
P-SANR-FIXT
100
AcDbLine
 10
791.0101574431617
 20
1860.337838617782
 30
0.0
 11
791.0101574431616
 21
1845.653918840928
 31
0.0
  0
LINE
  5
252
330
1C0
100
AcDbEntity
  8
P-SANR-FIXT
100
AcDbLine
 10
791.0101574431616
 20
1841.837838617216
 30
0.0
 11
791.0101574431615
 21
1827.153918841228
 31
0.0
  0
LINE
  5
253
330
1C0
100
AcDbEntity
  8
P-SANR-FIXT
100
AcDbLine
 10
754.0101574431736
 20
1843.745878730055
 30
0.0
 11
754.0101574431738
 21
1855.595878730113
 31
0.0
  0
LINE
  5
254
330
1C0
100
AcDbEntity
  8
P-SANR-FIXT
100
AcDbLine
 10
754.0101574431735
 20
1831.895878729997
 30
0.0
 11
754.0101574431736
 21
1843.745878730055
 31
0.0
  0
LINE
  5
255
330
1C0
100
AcDbEntity
  8
P-SANR-FIXT
100
AcDbLine
 10
755.3101574431736
 20
1843.745878730055
 30
0.0
 11
755.3101574431738
 21
1856.895878730113
 31
0.0
  0
LINE
  5
256
330
1C0
100
AcDbEntity
  8
P-SANR-FIXT
100
AcDbLine
 10
755.3101574431734
 20
1830.595878729997
 30
0.0
 11
755.3101574431736
 21
1843.745878730055
 31
0.0
  0
LINE
  5
257
330
1C0
100
AcDbEntity
  8
P-SANR-FIXT
100
AcDbLine
 10
775.0101574431615
 20
1843.745878730055
 30
0.0
 11
775.0101574431616
 21
1859.911686267506
 31
0.0
  0
LINE
  5
258
330
1C0
100
AcDbEntity
  8
P-SANR-FIXT
100
AcDbLine
 10
775.0101574431615
 20
1827.580071192605
 30
0.0
 11
775.0101574431615
 21
1843.745878730055
 31
0.0
  0
LINE
  5
259
330
1C0
100
AcDbEntity
  8
P-SANR-FIXT
100
AcDbLine
 10
777.4270453765499
 20
1843.745878730055
 30
0.0
 11
777.4270453765499
 21
1845.653918840928
 31
0.0
  0
SPLINE
  5
25A
330
1C0
100
AcDbEntity
  8
P-SANR-FIXT
100
AcDbSpline
210
0.0
220
0.0
230
1.0
 70
     8
 71
     3
 72
     9
 73
     5
 74
     0
 42
0.000000001
 43
0.0000000001
 40
-1.0
 40
-1.0
 40
-1.0
 40
-1.0
 40
-0.5
 40
0.0
 40
0.0
 40
0.0
 40
0.0
 10
777.4270453765499
 20
1845.653918840928
 30
0.0
 10
776.7146918192677
 20
1848.140761240847
 30
0.0
 10
776.0023382619854
 20
1853.074923603577
 30
0.0
 10
776.7146918192678
 20
1857.930041092084
 30
0.0
 10
777.42704537655
 20
1860.337838617782
 30
0.0
  0
LINE
  5
25B
330
1C0
100
AcDbEntity
  8
P-SANR-FIXT
100
AcDbLine
 10
777.42704537655
 20
1860.337838617782
 30
0.0
 11
777.42704537655
 21
1862.245878729636
 31
0.0
  0
SPLINE
  5
25C
330
1C0
100
AcDbEntity
  8
P-SANR-FIXT
100
AcDbSpline
210
0.0
220
0.0
230
1.0
 70
    24
 71
     3
 72
     8
 73
     4
 74
     0
 42
0.000000001
 43
0.0000000001
 40
-1.0
 40
-1.0
 40
-1.0
 40
-1.0
 40
-0.5
 40
-0.5
 40
-0.5
 40
-0.5
 10
777.42704537655
 20
1862.245878729636
 30
0.0
 10
776.7146918192135
 20
1862.245878729773
 30
0.0
 10
776.3585150405454
 20
1862.245878729908
 30
0.0
 10
776.3585150405454
 20
1862.245878730043
 30
0.0
  0
SPLINE
  5
25D
330
1C0
100
AcDbEntity
  8
P-SANR-FIXT
100
AcDbSpline
210
0.0
220
0.0
230
1.0
 70
    24
 71
     3
 72
     9
 73
     5
 74
     0
 42
0.000000001
 43
0.0000000001
 40
-0.5043052999640871
 40
-0.5043052999640871
 40
-0.5043052999640871
 40
-0.5043052999640871
 40
-0.5
 40
0.0
 40
0.0
 40
0.0
 40
0.0
 10
776.3585942639998
 20
1825.24587873004
 30
0.0
 10
776.3585414483753
 20
1825.245878730038
 30
0.0
 10
776.3554481448182
 20
1825.245878729903
 30
0.0
 10
776.7146918191709
 20
1825.245878729772
 30
0.0
 10
777.4270453765498
 20
1825.245878729636
 30
0.0
  0
LINE
  5
25E
330
1C0
100
AcDbEntity
  8
P-SANR-FIXT
100
AcDbLine
 10
777.4270453765498
 20
1825.245878729636
 30
0.0
 11
777.4270453765498
 21
1827.153918841228
 31
0.0
  0
SPLINE
  5
25F
330
1C0
100
AcDbEntity
  8
P-SANR-FIXT
100
AcDbSpline
210
0.0
220
0.0
230
1.0
 70
     8
 71
     3
 72
     9
 73
     5
 74
     0
 42
0.000000001
 43
0.0000000001
 40
-1.0
 40
-1.0
 40
-1.0
 40
-1.0
 40
-0.5
 40
0.0
 40
0.0
 40
0.0
 40
0.0
 10
777.4270453765498
 20
1827.153918841228
 30
0.0
 10
776.7146918192734
 20
1829.640761241001
 30
0.0
 10
776.0023382619973
 20
1834.574923603439
 30
0.0
 10
776.7146918192735
 20
1839.43004109166
 30
0.0
 10
777.4270453765499
 20
1841.837838617216
 30
0.0
  0
LINE
  5
260
330
1C0
100
AcDbEntity
  8
P-SANR-FIXT
100
AcDbLine
 10
777.4270453765499
 20
1841.837838617216
 30
0.0
 11
777.4270453765499
 21
1843.745878730055
 31
0.0
  0
LINE
  5
261
330
1C0
100
AcDbEntity
  8
P-SANR-FIXT
100
AcDbLine
 10
777.42704537655
 20
1860.337838617782
 30
0.0
 11
791.0101574431617
 21
1860.337838617782
 31
0.0
  0
LINE
  5
262
330
1C0
100
AcDbEntity
  8
P-SANR-FIXT
100
AcDbLine
 10
791.0101574431617
 20
1862.245878729636
 30
0.0
 11
791.0101574431617
 21
1860.337838617782
 31
0.0
  0
LINE
  5
263
330
1C0
100
AcDbEntity
  8
P-SANR-FIXT
100
AcDbLine
 10
791.0101574431617
 20
1862.245878729636
 30
0.0
 11
777.42704537655
 21
1862.245878729636
 31
0.0
  0
LINE
  5
264
330
1C0
100
AcDbEntity
  8
P-SANR-FIXT
100
AcDbLine
 10
791.0101574431619
 20
1845.653918840928
 30
0.0
 11
791.0101574431619
 21
1843.745878730055
 31
0.0
  0
LINE
  5
265
330
1C0
100
AcDbEntity
  8
P-SANR-FIXT
100
AcDbLine
 10
791.0101574431616
 20
1845.653918840928
 30
0.0
 11
777.4270453765499
 21
1845.653918840928
 31
0.0
  0
LINE
  5
266
330
1C0
100
AcDbEntity
  8
P-SANR-FIXT
100
AcDbLine
 10
777.4270453765498
 20
1825.245878729636
 30
0.0
 11
791.0101574431615
 21
1825.245878729636
 31
0.0
  0
LINE
  5
267
330
1C0
100
AcDbEntity
  8
P-SANR-FIXT
100
AcDbLine
 10
791.0101574431615
 20
1827.153918841228
 30
0.0
 11
791.0101574431615
 21
1825.245878729636
 31
0.0
  0
LINE
  5
268
330
1C0
100
AcDbEntity
  8
P-SANR-FIXT
100
AcDbLine
 10
791.0101574431615
 20
1827.153918841228
 30
0.0
 11
777.4270453765498
 21
1827.153918841228
 31
0.0
  0
LINE
  5
269
330
1C0
100
AcDbEntity
  8
P-SANR-FIXT
100
AcDbLine
 10
777.4270453765499
 20
1841.837838617216
 30
0.0
 11
791.0101574431616
 21
1841.837838617216
 31
0.0
  0
LINE
  5
26A
330
1C0
100
AcDbEntity
  8
P-SANR-FIXT
100
AcDbLine
 10
791.0101574431616
 20
1843.745878730055
 30
0.0
 11
791.0101574431616
 21
1841.837838617216
 31
0.0
  0
LINE
  5
26B
330
1C0
100
AcDbEntity
  8
P-SANR-FIXT
100
AcDbLine
 10
840.0101574432159
 20
1843.745878730054
 30
0.0
 11
840.0101574432159
 21
1845.653918840927
 31
0.0
  0
LINE
  5
26C
330
1C0
100
AcDbEntity
  8
P-SANR-FIXT
100
AcDbLine
 10
840.0101574432161
 20
1860.337838617781
 30
0.0
 11
840.0101574432159
 21
1845.653918840927
 31
0.0
  0
LINE
  5
26D
330
1C0
100
AcDbEntity
  8
P-SANR-FIXT
100
AcDbLine
 10
840.0101574432161
 20
1860.337838617781
 30
0.0
 11
840.0101574432161
 21
1862.245878729635
 31
0.0
  0
LINE
  5
26E
330
1C0
100
AcDbEntity
  8
P-SANR-FIXT
100
AcDbLine
 10
877.0101574432043
 20
1855.595878730112
 30
0.0
 11
877.0101574432041
 21
1843.745878730054
 31
0.0
  0
LINE
  5
26F
330
1C0
100
AcDbEntity
  8
P-SANR-FIXT
100
AcDbLine
 10
877.0101574432041
 20
1843.745878730054
 30
0.0
 11
877.0101574432041
 21
1831.895878729996
 31
0.0
  0
LINE
  5
270
330
1C0
100
AcDbEntity
  8
P-SANR-FIXT
100
AcDbLine
 10
875.7101574432043
 20
1856.895878730113
 30
0.0
 11
875.7101574432041
 21
1843.745878730054
 31
0.0
  0
LINE
  5
271
330
1C0
100
AcDbEntity
  8
P-SANR-FIXT
100
AcDbLine
 10
875.7101574432041
 20
1843.745878730054
 30
0.0
 11
875.710157443204
 21
1830.595878729997
 31
0.0
  0
LINE
  5
272
330
1C0
100
AcDbEntity
  8
P-SANR-FIXT
100
AcDbLine
 10
856.0101574432163
 20
1859.911686267505
 30
0.0
 11
856.0101574432163
 21
1843.745878730054
 31
0.0
  0
SPLINE
  5
273
330
1C0
100
AcDbEntity
  8
P-SANR-FIXT
100
AcDbSpline
210
0.0
220
0.0
230
1.0
 70
    24
 71
     3
 72
     9
 73
     5
 74
     0
 42
0.000000001
 43
0.0000000001
 40
0.0
 40
0.0
 40
0.0
 40
0.0
 40
0.5
 40
0.5043053000748557
 40
0.5043053000748557
 40
0.5043053000748557
 40
0.5043053000748557
 10
853.593269509828
 20
1862.245878729635
 30
0.0
 10
854.3056230671645
 20
1862.245878729767
 30
0.0
 10
854.6648667416567
 20
1862.245878729902
 30
0.0
 10
854.6617734380189
 20
1862.245878730038
 30
0.0
 10
854.6617206223919
 20
1862.245878730039
 30
0.0
  0
SPLINE
  5
274
330
1C0
100
AcDbEntity
  8
P-SANR-FIXT
100
AcDbSpline
210
0.0
220
0.0
230
1.0
 70
     8
 71
     3
 72
     9
 73
     5
 74
     0
 42
0.000000001
 43
0.0000000001
 40
0.0
 40
0.0
 40
0.0
 40
0.0
 40
0.5
 40
1.0
 40
1.0
 40
1.0
 40
1.0
 10
853.593269509828
 20
1845.653918840927
 30
0.0
 10
854.3056230671101
 20
1848.061716366625
 30
0.0
 10
855.0179766243925
 20
1852.916833855133
 30
0.0
 10
854.3056230671101
 20
1857.850996217862
 30
0.0
 10
853.593269509828
 20
1860.337838617781
 30
0.0
  0
LINE
  5
275
330
1C0
100
AcDbEntity
  8
P-SANR-FIXT
100
AcDbLine
 10
856.0101574432163
 20
1843.745878730054
 30
0.0
 11
856.0101574432161
 21
1827.580071192604
 31
0.0
  0
SPLINE
  5
276
330
1C0
100
AcDbEntity
  8
P-SANR-FIXT
100
AcDbSpline
210
0.0
220
0.0
230
1.0
 70
     8
 71
     3
 72
     9
 73
     5
 74
     0
 42
0.000000001
 43
0.0000000001
 40
0.0
 40
0.0
 40
0.0
 40
0.0
 40
0.5
 40
1.0
 40
1.0
 40
1.0
 40
1.0
 10
853.5932695098278
 20
1827.153918841227
 30
0.0
 10
854.3056230671041
 20
1829.561716366783
 30
0.0
 10
855.0179766243804
 20
1834.416833855004
 30
0.0
 10
854.3056230671043
 20
1839.350996217442
 30
0.0
 10
853.593269509828
 20
1841.837838617215
 30
0.0
  0
SPLINE
  5
277
330
1C0
100
AcDbEntity
  8
P-SANR-FIXT
100
AcDbSpline
210
0.0
220
0.0
230
1.0
 70
    24
 71
     3
 72
     8
 73
     4
 74
     0
 42
0.000000001
 43
0.0000000001
 40
0.5
 40
0.5
 40
0.5
 40
0.5
 40
1.0
 40
1.0
 40
1.0
 40
1.0
 10
854.6617998458145
 20
1825.245878730043
 30
0.0
 10
854.6617998458145
 20
1825.245878729908
 30
0.0
 10
854.3056230671524
 20
1825.245878729772
 30
0.0
 10
853.5932695098278
 20
1825.245878729635
 30
0.0
  0
LINE
  5
278
330
1C0
100
AcDbEntity
  8
P-SANR-FIXT
100
AcDbLine
 10
853.593269509828
 20
1860.337838617781
 30
0.0
 11
840.0101574432161
 21
1860.337838617781
 31
0.0
  0
LINE
  5
279
330
1C0
100
AcDbEntity
  8
P-SANR-FIXT
100
AcDbLine
 10
853.593269509828
 20
1862.245878729635
 30
0.0
 11
853.593269509828
 21
1860.337838617781
 31
0.0
  0
LINE
  5
27A
330
1C0
100
AcDbEntity
  8
P-SANR-FIXT
100
AcDbLine
 10
840.0101574432161
 20
1862.245878729635
 30
0.0
 11
853.593269509828
 21
1862.245878729635
 31
0.0
  0
LINE
  5
27B
330
1C0
100
AcDbEntity
  8
P-SANR-FIXT
100
AcDbLine
 10
853.593269509828
 20
1845.653918840927
 30
0.0
 11
853.593269509828
 21
1843.745878730054
 31
0.0
  0
LINE
  5
27C
330
1C0
100
AcDbEntity
  8
P-SANR-FIXT
100
AcDbLine
 10
840.0101574432159
 20
1845.653918840927
 30
0.0
 11
853.593269509828
 21
1845.653918840927
 31
0.0
  0
LINE
  5
27D
330
1C0
100
AcDbEntity
  8
P-SANR-FIXT
100
AcDbLine
 10
853.5932695098278
 20
1825.245878729635
 30
0.0
 11
840.0101574432158
 21
1825.245878729635
 31
0.0
  0
LINE
  5
27E
330
1C0
100
AcDbEntity
  8
P-SANR-FIXT
100
AcDbLine
 10
853.5932695098278
 20
1827.153918841227
 30
0.0
 11
853.5932695098278
 21
1825.245878729635
 31
0.0
  0
LINE
  5
27F
330
1C0
100
AcDbEntity
  8
P-SANR-FIXT
100
AcDbLine
 10
840.0101574432158
 20
1827.153918841227
 30
0.0
 11
853.5932695098278
 21
1827.153918841227
 31
0.0
  0
LINE
  5
280
330
1C0
100
AcDbEntity
  8
P-SANR-FIXT
100
AcDbLine
 10
853.593269509828
 20
1841.837838617215
 30
0.0
 11
840.0101574432159
 21
1841.837838617215
 31
0.0
  0
LINE
  5
281
330
1C0
100
AcDbEntity
  8
P-SANR-FIXT
100
AcDbLine
 10
853.593269509828
 20
1843.745878730054
 30
0.0
 11
853.593269509828
 21
1841.837838617216
 31
0.0
  0
ENDBLK
  5
283
330
1C0
100
AcDbEntity
  8
0
100
AcDbBlockEnd
  0
BLOCK
  5
30A
330
285
100
AcDbEntity
  8
0
100
AcDbBlockBegin
  2
Automatic flow rate regulator valve_Caleffi_121 DN15 - 1_2__-V2-Est - Idraulica
 70
     0
 10
0.0
 20
0.0
 30
0.0
  3
Automatic flow rate regulator valve_Caleffi_121 DN15 - 1_2__-V2-Est - Idraulica
  1

  0
LINE
  5
286
330
285
100
AcDbEntity
  8
M-PIPE
100
AcDbLine
 10
991.6143539431059
 20
2030.712560061402
 30
0.0
 11
991.6143539431059
 21
2028.212560061402
 31
0.0
1001
REVIT
1002
{
1070
     3
1000
924079
1002
}
  0
LINE
  5
287
330
285
100
AcDbEntity
  8
M-PIPE
100
AcDbLine
 10
1022.614353943092
 20
2028.212560061402
 30
0.0
 11
1022.614353943092
 21
2030.712560061402
 31
0.0
1001
REVIT
1002
{
1070
     3
1000
924079
1002
}
  0
LWPOLYLINE
  5
288
330
285
100
AcDbEntity
  8
M-PIPE
100
AcDbPolyline
 90
       12
 70
   128
 43
0.0
 10
993.117388535844
 20
2038.942520014196
 10
993.2750413519546
 20
2039.107209597176
 10
993.4391538893981
 20
2039.265463014907
 10
993.6094636031242
 20
2039.417027095679
 10
993.7856980339212
 20
2039.561659369295
 10
993.9675752442948
 20
2039.69912845497
 10
994.1548042695067
 20
2039.829214431493
 10
994.3470855830565
 20
2039.951709189051
 10
994.5441115758606
 20
2040.066416762163
 10
994.7455670483602
 20
2040.173153643181
 10
994.9511297147747
 20
2040.271749075866
 10
994.9643539430988
 20
2040.277749296854
1001
REVIT
1002
{
1070
     3
1000
924079
1002
}
  0
LWPOLYLINE
  5
289
330
285
100
AcDbEntity
  8
M-PIPE
100
AcDbPolyline
 90
       12
 70
   128
 43
0.0
 10
1019.264353943099
 20
2040.277749296854
 10
1019.470167132327
 20
2040.179677892718
 10
1019.671893882803
 20
2040.073454602841
 10
1019.869211474757
 20
2039.959249361826
 10
1020.061804242135
 20
2039.837244873698
 10
1020.249364077593
 20
2039.707636319611
 10
1020.431590925405
 20
2039.570631045602
 10
1020.608193261487
 20
2039.426448230885
 10
1020.778888559776
 20
2039.275318537205
 10
1020.943403744206
 20
2039.117483739834
 10
1021.101475625578
 20
2038.953196340775
 10
1021.111319350387
 20
2038.94252001416
1001
REVIT
1002
{
1070
     3
1000
924079
1002
}
  0
LINE
  5
28A
330
285
100
AcDbEntity
  8
M-PIPE
100
AcDbLine
 10
990.8143539431009
 20
2028.212560061402
 30
0.0
 11
990.8143539431007
 21
2022.212560061418
 31
0.0
1001
REVIT
1002
{
1070
     3
1000
924079
1002
}
  0
LINE
  5
28B
330
285
100
AcDbEntity
  8
M-PIPE
100
AcDbLine
 10
1023.414353943097
 20
2022.212560061417
 30
0.0
 11
1023.414353943097
 21
2028.212560061402
 31
0.0
1001
REVIT
1002
{
1070
     3
1000
924079
1002
}
  0
LWPOLYLINE
  5
28C
330
285
100
AcDbEntity
  8
M-PIPE
100
AcDbPolyline
 90
        4
 70
   128
 43
0.0
 10
994.9643539430988
 20
2040.277749296853
 10
995.4216430238449
 20
2046.380231828001
 10
996.1226005354076
 20
2052.459546338151
 10
996.8257841978983
 20
2057.107278587125
1001
REVIT
1002
{
1070
     3
1000
924079
1002
}
  0
LWPOLYLINE
  5
28D
330
285
100
AcDbEntity
  8
M-PIPE
100
AcDbPolyline
 90
        4
 70
   128
 43
0.0
 10
1017.4029236883
 20
2057.107278587125
 10
1018.290303389904
 20
2051.052366233381
 10
1018.934841368811
 20
2044.966811440259
 10
1019.264353943099
 20
2040.277749296853
1001
REVIT
1002
{
1070
     3
1000
924079
1002
}
  0
LWPOLYLINE
  5
28E
330
285
100
AcDbEntity
  8
M-PIPE
100
AcDbPolyline
 90
       37
 70
   128
 43
0.0
 10
996.8257841978983
 20
2057.107278587126
 10
996.8405397770629
 20
2057.185900591652
 10
996.8584275949512
 20
2057.263869641174
 10
996.879419034871
 20
2057.341061001845
 10
996.9034805149956
 20
2057.417351183955
 10
996.9305735420901
 20
2057.492618139487
 10
996.9606547730908
 20
2057.566741457367
 10
996.9936760844449
 20
2057.639602556101
 10
997.0295846490985
 20
2057.711084873472
 10
997.0683230210081
 20
2057.781074053021
 10
997.1098292270427
 20
2057.849458126991
 10
997.1540368661264
 20
2057.916127695452
 10
997.2008752154673
 20
2057.980976101317
 10
997.2502693436984
 20
2058.043899600969
 10
997.302140230751
 20
2058.104797530233
 10
997.3564048942712
 20
2058.163572465411
 10
997.4129765223731
 20
2058.220130379146
 10
997.4717646125197
 20
2058.274380790841
 10
997.5326751163079
 20
2058.326236911411
 10
997.5956105899243
 20
2058.375615782123
 10
997.6604703500377
 20
2058.422438407319
 10
997.7271506348673
 20
2058.466629880786
 10
997.795544770182
 20
2058.508119505594
 10
997.865543339955
 20
2058.546840907194
 10
997.9370343614071
 20
2058.582732139604
 10
998.0099034641549
 20
2058.615735784508
 10
998.0840340731781
 20
2058.645799043115
 10
998.1593075953158
 20
2058.672873820623
 10
998.2356036089905
 20
2058.696916803166
 10
998.3128000568559
 20
2058.717889527098
 10
998.3907734410628
 20
2058.735758440537
 10
998.4693990208302
 20
2058.750494957032
 10
998.548551012003
 20
2058.762075501301
 10
998.6281027882801
 20
2058.770481546943
 10
998.7079270837897
 20
2058.775699646079
 10
998.787896196687
 20
2058.777721450862
 10
998.7984500202957
 20
2058.777749296854
1001
REVIT
1002
{
1070
     3
1000
924079
1002
}
  0
LWPOLYLINE
  5
28F
330
285
100
AcDbEntity
  8
M-PIPE
100
AcDbPolyline
 90
       41
 70
   128
 43
0.0
 10
1007.114353943099
 20
2058.777749296854
 10
1006.781806482066
 20
2058.777749296854
 10
1006.449791026031
 20
2058.777749296854
 10
1006.118838728897
 20
2058.777749296854
 10
1005.789479043742
 20
2058.777749296854
 10
1005.462238875799
 20
2058.777749296854
 10
1005.137641739533
 20
2058.777749296854
 10
1004.816206921116
 20
2058.777749296854
 10
1004.498448647688
 20
2058.777749296854
 10
1004.184875264704
 20
2058.777749296854
 10
1003.875988422683
 20
2058.777749296854
 10
1003.57228227468
 20
2058.777749296854
 10
1003.274242685744
 20
2058.777749296854
 10
1002.982346455641
 20
2058.777749296854
 10
1002.697060556069
 20
2058.777749296854
 10
1002.418841383612
 20
2058.777749296854
 10
1002.148134029593
 20
2058.777749296854
 10
1001.885371568032
 20
2058.777749296854
 10
1001.630974362815
 20
2058.777749296854
 10
1001.385349395201
 20
2058.777749296854
 10
1001.148889612741
 20
2058.777749296854
 10
1000.921973300645
 20
2058.777749296854
 10
1000.704963476606
 20
2058.777749296854
 10
1000.498207310049
 20
2058.777749296854
 10
1000.302035566737
 20
2058.777749296854
 10
1000.11676207961
 20
2058.777749296854
 10
999.9426832467237
 20
2058.777749296854
 10
999.7800775570773
 20
2058.777749296854
 10
999.6292051450863
 20
2058.777749296854
 10
999.4903073744254
 20
2058.777749296854
 10
999.363606451898
 20
2058.777749296854
 10
999.249305071952
 20
2058.777749296854
 10
999.1475860924118
 20
2058.777749296854
 10
999.0586122419466
 20
2058.777749296854
 10
998.9825258597365
 20
2058.777749296854
 10
998.9194486677622
 20
2058.777749296854
 10
998.8694815760755
 20
2058.777749296854
 10
998.8327045213637
 20
2058.777749296854
 10
998.8091763390688
 20
2058.777749296854
 10
998.7989346692639
 20
2058.777749296854
 10
998.7984500202957
 20
2058.777749296854
1001
REVIT
1002
{
1070
     3
1000
924079
1002
}
  0
LWPOLYLINE
  5
290
330
285
100
AcDbEntity
  8
M-PIPE
100
AcDbPolyline
 90
       41
 70
   128
 43
0.0
 10
998.7984500202957
 20
2058.777749296854
 10
998.8051018564513
 20
2058.777749296854
 10
998.8250467233998
 20
2058.777749296854
 10
998.8582527136086
 20
2058.777749296854
 10
998.9046667045769
 20
2058.777749296854
 10
998.9642144438205
 20
2058.777749296854
 10
999.0368006676591
 20
2058.777749296854
 10
999.122309253619
 20
2058.777749296854
 10
999.2206034062032
 20
2058.777749296854
 10
999.3315258757364
 20
2058.777749296854
 10
999.4548992099291
 20
2058.777749296854
 10
999.5905260377652
 20
2058.777749296854
 10
999.7381893852521
 20
2058.777749296854
 10
999.8976530225336
 20
2058.777749296854
 10
1000.068661841807
 20
2058.777749296854
 10
1000.250942265442
 20
2058.777749296854
 10
1000.444202683645
 20
2058.777749296854
 10
1000.648133920973
 20
2058.777749296854
 10
1000.86240973095
 20
2058.777749296854
 10
1001.086687317989
 20
2058.777749296854
 10
1001.320607885795
 20
2058.777749296854
 10
1001.56379721136
 20
2058.777749296854
 10
1001.815866243639
 20
2058.777749296854
 10
1002.076411725954
 20
2058.777749296854
 10
1002.345016841113
 20
2058.777749296854
 10
1002.62125187823
 20
2058.777749296854
 10
1002.904674920174
 20
2058.777749296853
 10
1003.194832550538
 20
2058.777749296853
 10
1003.49126057901
 20
2058.777749296853
 10
1003.793484783979
 20
2058.777749296853
 10
1004.101021671188
 20
2058.777749296853
 10
1004.413379247222
 20
2058.777749296853
 10
1004.730057806593
 20
2058.777749296853
 10
1005.05055073116
 20
2058.777749296853
 10
1005.37434530061
 20
2058.777749296853
 10
1005.700923512707
 20
2058.777749296853
 10
1006.029762911977
 20
2058.777749296853
 10
1006.360337425529
 20
2058.777749296853
 10
1006.692118204662
 20
2058.777749296853
 10
1007.024574470903
 20
2058.777749296853
 10
1007.114353943099
 20
2058.777749296853
1001
REVIT
1002
{
1070
     3
1000
924079
1002
}
  0
LWPOLYLINE
  5
291
330
285
100
AcDbEntity
  8
M-PIPE
100
AcDbPolyline
 90
       37
 70
   128
 43
0.0
 10
1015.430257865903
 20
2058.777749296853
 10
1015.510236534276
 20
2058.776149510176
 10
1015.590087253841
 20
2058.771352709459
 10
1015.669682280481
 20
2058.763366568561
 10
1015.748894279131
 20
2058.752203863605
 10
1015.827596527493
 20
2058.737882452536
 10
1015.905663118757
 20
2058.720425246558
 10
1015.982969163031
 20
2058.699860173476
 10
1016.059390987135
 20
2058.676220133019
 10
1016.134806332453
 20
2058.64954294421
 10
1016.20909455052
 20
2058.61987128486
 10
1016.282136796035
 20
2058.587252623294
 10
1016.353816216986
 20
2058.551739142412
 10
1016.42401814159
 20
2058.513387656209
 10
1016.492630261744
 20
2058.472259518881
 10
1016.559542812693
 20
2058.428420526673
 10
1016.624648748627
 20
2058.381940812623
 10
1016.68784391394
 20
2058.332894734355
 10
1016.749027209846
 20
2058.281360755136
 10
1016.808100756124
 20
2058.227421318335
 10
1016.864970047702
 20
2058.171162715548
 10
1016.919544105844
 20
2058.112674948537
 10
1016.971735623701
 20
2058.052051585251
 10
1017.021461105976
 20
2057.989389610141
 10
1017.068641002505
 20
2057.924789268999
 10
1017.113199835518
 20
2057.85835390859
 10
1017.155066320389
 20
2057.790189811319
 10
1017.194173479673
 20
2057.720406025201
 10
1017.230458750256
 20
2057.649114189407
 10
1017.263864083446
 20
2057.576428355667
 10
1017.294336037837
 20
2057.502464805807
 10
1017.321825864802
 20
2057.427341865731
 10
1017.346289586481
 20
2057.351179716118
 10
1017.367688066139
 20
2057.274100200158
 10
1017.385987070773
 20
2057.196226628636
 10
1017.401157325879
 20
2057.117683582654
 10
1017.402923688299
 20
2057.107278587125
1001
REVIT
1002
{
1070
     3
1000
924079
1002
}
  0
LWPOLYLINE
  5
292
330
285
100
AcDbEntity
  8
M-PIPE
100
AcDbPolyline
 90
       41
 70
   128
 43
0.0
 10
1007.114353943099
 20
2058.777749296853
 10
1007.446901404132
 20
2058.777749296853
 10
1007.778916860167
 20
2058.777749296853
 10
1008.1098691573
 20
2058.777749296853
 10
1008.439228842457
 20
2058.777749296853
 10
1008.766469010399
 20
2058.777749296853
 10
1009.091066146665
 20
2058.777749296853
 10
1009.412500965082
 20
2058.777749296853
 10
1009.73025923851
 20
2058.777749296853
 10
1010.043832621494
 20
2058.777749296853
 10
1010.352719463515
 20
2058.777749296853
 10
1010.656425611518
 20
2058.777749296853
 10
1010.954465200454
 20
2058.777749296853
 10
1011.246361430557
 20
2058.777749296853
 10
1011.531647330129
 20
2058.777749296853
 10
1011.809866502586
 20
2058.777749296853
 10
1012.080573856605
 20
2058.777749296853
 10
1012.343336318166
 20
2058.777749296853
 10
1012.597733523383
 20
2058.777749296853
 10
1012.843358490997
 20
2058.777749296853
 10
1013.079818273458
 20
2058.777749296853
 10
1013.306734585554
 20
2058.777749296853
 10
1013.523744409592
 20
2058.777749296853
 10
1013.730500576149
 20
2058.777749296853
 10
1013.926672319461
 20
2058.777749296853
 10
1014.111945806589
 20
2058.777749296853
 10
1014.286024639474
 20
2058.777749296853
 10
1014.448630329121
 20
2058.777749296853
 10
1014.599502741112
 20
2058.777749296853
 10
1014.738400511773
 20
2058.777749296853
 10
1014.8651014343
 20
2058.777749296853
 10
1014.979402814246
 20
2058.777749296853
 10
1015.081121793786
 20
2058.777749296853
 10
1015.170095644252
 20
2058.777749296853
 10
1015.246182026462
 20
2058.777749296853
 10
1015.309259218436
 20
2058.777749296853
 10
1015.359226310123
 20
2058.777749296853
 10
1015.396003364835
 20
2058.777749296853
 10
1015.419531547129
 20
2058.777749296853
 10
1015.429773216935
 20
2058.777749296853
 10
1015.430257865903
 20
2058.777749296853
1001
REVIT
1002
{
1070
     3
1000
924079
1002
}
  0
LWPOLYLINE
  5
293
330
285
100
AcDbEntity
  8
M-PIPE
100
AcDbPolyline
 90
       41
 70
   128
 43
0.0
 10
1015.430257865903
 20
2058.777749296853
 10
1015.423606029747
 20
2058.777749296853
 10
1015.403661162798
 20
2058.777749296853
 10
1015.37045517259
 20
2058.777749296853
 10
1015.324041181621
 20
2058.777749296853
 10
1015.264493442378
 20
2058.777749296853
 10
1015.191907218539
 20
2058.777749296853
 10
1015.106398632579
 20
2058.777749296853
 10
1015.008104479995
 20
2058.777749296853
 10
1014.897182010462
 20
2058.777749296853
 10
1014.773808676269
 20
2058.777749296853
 10
1014.638181848433
 20
2058.777749296853
 10
1014.490518500946
 20
2058.777749296853
 10
1014.331054863665
 20
2058.777749296853
 10
1014.160046044391
 20
2058.777749296853
 10
1013.977765620756
 20
2058.777749296854
 10
1013.784505202553
 20
2058.777749296854
 10
1013.580573965225
 20
2058.777749296854
 10
1013.366298155248
 20
2058.777749296854
 10
1013.142020568209
 20
2058.777749296854
 10
1012.908100000403
 20
2058.777749296854
 10
1012.664910674838
 20
2058.777749296854
 10
1012.412841642559
 20
2058.777749296854
 10
1012.152296160244
 20
2058.777749296854
 10
1011.883691045085
 20
2058.777749296854
 10
1011.607456007967
 20
2058.777749296854
 10
1011.324032966024
 20
2058.777749296854
 10
1011.03387533566
 20
2058.777749296854
 10
1010.737447307188
 20
2058.777749296854
 10
1010.435223102219
 20
2058.777749296854
 10
1010.12768621501
 20
2058.777749296854
 10
1009.815328638975
 20
2058.777749296854
 10
1009.498650079605
 20
2058.777749296854
 10
1009.178157155038
 20
2058.777749296854
 10
1008.854362585588
 20
2058.777749296854
 10
1008.527784373491
 20
2058.777749296854
 10
1008.198944974221
 20
2058.777749296854
 10
1007.868370460669
 20
2058.777749296854
 10
1007.536589681537
 20
2058.777749296854
 10
1007.204133415295
 20
2058.777749296854
 10
1007.114353943099
 20
2058.777749296854
1001
REVIT
1002
{
1070
     3
1000
924079
1002
}
  0
LINE
  5
294
330
285
100
AcDbEntity
  8
M-PIPE
100
AcDbLine
 10
1005.875213254028
 20
2030.712560061401
 30
0.0
 11
994.3534946321848
 21
2030.712560061401
 31
0.0
1001
REVIT
1002
{
1070
     3
1000
924079
1002
}
  0
LINE
  5
295
330
285
100
AcDbEntity
  8
M-PIPE
100
AcDbLine
 10
994.3534946321856
 20
2030.712560061401
 30
0.0
 11
994.3534946321856
 21
2035.212560061403
 31
0.0
1001
REVIT
1002
{
1070
     3
1000
924079
1002
}
  0
LINE
  5
296
330
285
100
AcDbEntity
  8
M-PIPE
100
AcDbLine
 10
994.3534946321857
 20
2035.212560061427
 30
0.0
 11
993.1143539431134
 21
2035.212560061427
 31
0.0
1001
REVIT
1002
{
1070
     3
1000
924079
1002
}
  0
LINE
  5
297
330
285
100
AcDbEntity
  8
M-PIPE
100
AcDbLine
 10
993.1143539431134
 20
2035.212560061403
 30
0.0
 11
993.1143539431131
 21
2030.712560061401
 31
0.0
1001
REVIT
1002
{
1070
     3
1000
924079
1002
}
  0
LINE
  5
298
330
285
100
AcDbEntity
  8
M-PIPE
100
AcDbLine
 10
993.1143539431138
 20
2030.712560061401
 30
0.0
 11
991.614353943104
 21
2030.712560061401
 31
0.0
1001
REVIT
1002
{
1070
     3
1000
924079
1002
}
  0
LINE
  5
299
330
285
100
AcDbEntity
  8
M-PIPE
100
AcDbLine
 10
1007.114353943097
 20
2035.212560061427
 30
0.0
 11
1005.875213254026
 21
2035.212560061427
 31
0.0
1001
REVIT
1002
{
1070
     3
1000
924079
1002
}
  0
LINE
  5
29A
330
285
100
AcDbEntity
  8
M-PIPE
100
AcDbLine
 10
1005.875213254026
 20
2035.212560061403
 30
0.0
 11
1005.875213254026
 21
2030.712560061401
 31
0.0
1001
REVIT
1002
{
1070
     3
1000
924079
1002
}
  0
LINE
  5
29B
330
285
100
AcDbEntity
  8
M-PIPE
100
AcDbLine
 10
1022.61435394309
 20
2030.712560061401
 30
0.0
 11
1021.114353943114
 21
2030.712560061401
 31
0.0
1001
REVIT
1002
{
1070
     3
1000
924079
1002
}
  0
LINE
  5
29C
330
285
100
AcDbEntity
  8
M-PIPE
100
AcDbLine
 10
1021.114353943113
 20
2030.712560061401
 30
0.0
 11
1021.114353943113
 21
2035.212560061403
 31
0.0
1001
REVIT
1002
{
1070
     3
1000
924079
1002
}
  0
LINE
  5
29D
330
285
100
AcDbEntity
  8
M-PIPE
100
AcDbLine
 10
1021.114353943113
 20
2035.212560061427
 30
0.0
 11
1019.875213253987
 21
2035.212560061427
 31
0.0
1001
REVIT
1002
{
1070
     3
1000
924079
1002
}
  0
LINE
  5
29E
330
285
100
AcDbEntity
  8
M-PIPE
100
AcDbLine
 10
1019.875213253987
 20
2035.212560061403
 30
0.0
 11
1019.875213253987
 21
2030.712560061401
 31
0.0
1001
REVIT
1002
{
1070
     3
1000
924079
1002
}
  0
LINE
  5
29F
330
285
100
AcDbEntity
  8
M-PIPE
100
AcDbLine
 10
1019.875213253987
 20
2030.712560061401
 30
0.0
 11
1008.353494632204
 21
2030.712560061401
 31
0.0
1001
REVIT
1002
{
1070
     3
1000
924079
1002
}
  0
LINE
  5
2A0
330
285
100
AcDbEntity
  8
M-PIPE
100
AcDbLine
 10
1008.353494632205
 20
2030.712560061401
 30
0.0
 11
1008.353494632205
 21
2035.212560061403
 31
0.0
1001
REVIT
1002
{
1070
     3
1000
924079
1002
}
  0
LINE
  5
2A1
330
285
100
AcDbEntity
  8
M-PIPE
100
AcDbLine
 10
1008.353494632205
 20
2035.212560061427
 30
0.0
 11
1007.114353943097
 21
2035.212560061427
 31
0.0
1001
REVIT
1002
{
1070
     3
1000
924079
1002
}
  0
SPLINE
  5
2A2
330
285
100
AcDbEntity
  8
M-PIPE
100
AcDbSpline
210
0.0
220
0.0
230
1.0
 70
    24
 71
     3
 72
    25
 73
    21
 74
     0
 42
0.000000001
 43
0.0000000001
 40
0.5238095238095238
 40
0.5238095238095238
 40
0.5238095238095238
 40
0.5238095238095238
 40
0.5357142857142857
 40
0.5714285714285714
 40
0.6071428571428572
 40
0.6428571428571428
 40
0.6785714285714287
 40
0.6964285714285714
 40
0.7142857142857144
 40
0.7321428571428572
 40
0.75
 40
0.7857142857142857
 40
0.8214285714285713
 40
0.8392857142857142
 40
0.8571428571428571
 40
0.875
 40
0.8928571428571427
 40
0.9285714285714286
 40
0.9642857142857142
 40
1.0
 40
1.0
 40
1.0
 40
1.0
 10
1021.114353943114
 20
2038.939830357402
 30
0.0
 10
1021.114353943114
 20
2038.937764450395
 30
0.0
 10
1021.114353943114
 20
2038.927200837724
 30
0.0
 10
1021.114353943114
 20
2038.89210553198
 30
0.0
 10
1021.114353943114
 20
2038.822041133495
 30
0.0
 10
1021.114353943114
 20
2038.726156424935
 30
0.0
 10
1021.114353943114
 20
2038.615949642862
 30
0.0
 10
1021.114353943114
 20
2038.506138673488
 30
0.0
 10
1021.114353943114
 20
2038.41081856597
 30
0.0
 10
1021.114353943114
 20
2038.305785503782
 30
0.0
 10
1021.114353943114
 20
2038.156483992068
 30
0.0
 10
1021.114353943114
 20
2037.946152654426
 30
0.0
 10
1021.114353943114
 20
2037.694785297881
 30
0.0
 10
1021.114353943114
 20
2037.463192892662
 30
0.0
 10
1021.114353943114
 20
2037.272148332551
 30
0.0
 10
1021.114353943114
 20
2037.064772553729
 30
0.0
 10
1021.114353943114
 20
2036.769864627956
 30
0.0
 10
1021.114353943114
 20
2036.36516572167
 30
0.0
 10
1021.114353943114
 20
2035.822312119568
 30
0.0
 10
1021.114353943114
 20
2035.422177808348
 30
0.0
 10
1021.114353943114
 20
2035.212560061403
 30
0.0
1001
REVIT
1002
{
1070
     3
1000
924079
1002
}
  0
SPLINE
  5
2A3
330
285
100
AcDbEntity
  8
M-PIPE
100
AcDbSpline
210
0.0
220
0.0
230
1.0
 70
     8
 71
     3
 72
    43
 73
    39
 74
     0
 42
0.000000001
 43
0.0000000001
 40
0.0
 40
0.0
 40
0.0
 40
0.0
 40
0.0357142857142857
 40
0.0714285714285714
 40
0.1071428571428571
 40
0.125
 40
0.1428571428571428
 40
0.1607142857142857
 40
0.1785714285714286
 40
0.2142857142857143
 40
0.25
 40
0.2678571428571428
 40
0.2857142857142857
 40
0.3035714285714286
 40
0.3214285714285714
 40
0.3571428571428571
 40
0.3928571428571428
 40
0.4285714285714286
 40
0.4642857142857144
 40
0.5
 40
0.5357142857142857
 40
0.5714285714285714
 40
0.6071428571428572
 40
0.6428571428571428
 40
0.6785714285714287
 40
0.6964285714285714
 40
0.7142857142857144
 40
0.7321428571428572
 40
0.75
 40
0.7857142857142857
 40
0.8214285714285713
 40
0.8392857142857142
 40
0.8571428571428571
 40
0.875
 40
0.8928571428571427
 40
0.9285714285714286
 40
0.9642857142857142
 40
1.0
 40
1.0
 40
1.0
 40
1.0
 10
1019.875213253987
 20
2035.212560061403
 30
0.0
 10
1019.832408840225
 20
2035.421653479154
 30
0.0
 10
1019.729193221982
 20
2035.820828114982
 30
0.0
 10
1019.52144256961
 20
2036.36251000696
 30
0.0
 10
1019.304478137261
 20
2036.766453522319
 30
0.0
 10
1019.104015567461
 20
2037.060894452771
 30
0.0
 10
1018.941719068106
 20
2037.267976688033
 30
0.0
 10
1018.761382384075
 20
2037.458833084615
 30
0.0
 10
1018.493600083609
 20
2037.690341542448
 30
0.0
 10
1018.120311809214
 20
2037.941814095188
 30
0.0
 10
1017.71913164155
 20
2038.152348258665
 30
0.0
 10
1017.395297240697
 20
2038.30174828659
 30
0.0
 10
1017.156588816186
 20
2038.406807804255
 30
0.0
 10
1016.917441400371
 20
2038.502024393065
 30
0.0
 10
1016.588692541273
 20
2038.611534596302
 30
0.0
 10
1016.16760108261
 20
2038.72123893334
 30
0.0
 10
1015.654022452767
 20
2038.816821452698
 30
0.0
 10
1015.145028702288
 20
2038.887275507097
 30
0.0
 10
1014.642487048339
 20
2038.93432376205
 30
0.0
 10
1014.137915339475
 20
2038.950318992741
 30
0.0
 10
1013.632200588469
 20
2038.937228067958
 30
0.0
 10
1013.12701660648
 20
2038.892105532001
 30
0.0
 10
1012.611520846897
 20
2038.822041133515
 30
0.0
 10
1012.088010794124
 20
2038.726156424955
 30
0.0
 10
1011.658602664192
 20
2038.615949642882
 30
0.0
 10
1011.324423895736
 20
2038.506138673507
 30
0.0
 10
1011.082257044801
 20
2038.410818565989
 30
0.0
 10
1010.841579647811
 20
2038.3057855038
 30
0.0
 10
1010.515880011434
 20
2038.156483992084
 30
0.0
 10
1010.113655582841
 20
2037.946152654442
 30
0.0
 10
1009.740041182495
 20
2037.694785297896
 30
0.0
 10
1009.471901953598
 20
2037.463192892675
 30
0.0
 10
1009.291050352686
 20
2037.272148332563
 30
0.0
 10
1009.128087596192
 20
2037.06477255374
 30
0.0
 10
1008.926848454529
 20
2036.769864627965
 30
0.0
 10
1008.708978476241
 20
2036.365165721677
 30
0.0
 10
1008.500290822365
 20
2035.822312119571
 30
0.0
 10
1008.396542054008
 20
2035.422177808349
 30
0.0
 10
1008.353494632205
 20
2035.212560061403
 30
0.0
1001
REVIT
1002
{
1070
     3
1000
924079
1002
}
  0
SPLINE
  5
2A4
330
285
100
AcDbEntity
  8
M-PIPE
100
AcDbSpline
210
0.0
220
0.0
230
1.0
 70
     8
 71
     3
 72
    43
 73
    39
 74
     0
 42
0.000000001
 43
0.0000000001
 40
0.0
 40
0.0
 40
0.0
 40
0.0
 40
0.0357142857142857
 40
0.0714285714285714
 40
0.1071428571428571
 40
0.125
 40
0.1428571428571428
 40
0.1607142857142857
 40
0.1785714285714286
 40
0.2142857142857143
 40
0.25
 40
0.2678571428571428
 40
0.2857142857142857
 40
0.3035714285714286
 40
0.3214285714285714
 40
0.3571428571428571
 40
0.3928571428571428
 40
0.4285714285714286
 40
0.4642857142857144
 40
0.5
 40
0.5357142857142857
 40
0.5714285714285714
 40
0.6071428571428572
 40
0.6428571428571428
 40
0.6785714285714287
 40
0.6964285714285714
 40
0.7142857142857144
 40
0.7321428571428572
 40
0.75
 40
0.7857142857142857
 40
0.8214285714285713
 40
0.8392857142857142
 40
0.8571428571428571
 40
0.875
 40
0.8928571428571427
 40
0.9285714285714286
 40
0.9642857142857142
 40
1.0
 40
1.0
 40
1.0
 40
1.0
 10
1005.875213254027
 20
2035.212560061403
 30
0.0
 10
1005.832408840264
 20
2035.421653479156
 30
0.0
 10
1005.729193222022
 20
2035.820828114985
 30
0.0
 10
1005.521442569649
 20
2036.362510006966
 30
0.0
 10
1005.304478137298
 20
2036.766453522328
 30
0.0
 10
1005.104015567498
 20
2037.060894452781
 30
0.0
 10
1004.941719068142
 20
2037.267976688044
 30
0.0
 10
1004.76138238411
 20
2037.458833084627
 30
0.0
 10
1004.493600083643
 20
2037.690341542461
 30
0.0
 10
1004.120311809246
 20
2037.941814095202
 30
0.0
 10
1003.719131641579
 20
2038.15234825868
 30
0.0
 10
1003.395297240725
 20
2038.301748286606
 30
0.0
 10
1003.156588816213
 20
2038.406807804271
 30
0.0
 10
1002.917441400397
 20
2038.502024393082
 30
0.0
 10
1002.588692541297
 20
2038.611534596319
 30
0.0
 10
1002.167601082631
 20
2038.721238933358
 30
0.0
 10
1001.654022452785
 20
2038.816821452717
 30
0.0
 10
1001.145028702303
 20
2038.887275507114
 30
0.0
 10
1000.642487048352
 20
2038.934323762068
 30
0.0
 10
1000.137915339486
 20
2038.95031899276
 30
0.0
 10
999.6322005884767
 20
2038.937228067976
 30
0.0
 10
999.1270166064861
 20
2038.892105532019
 30
0.0
 10
998.6115208469003
 20
2038.822041133533
 30
0.0
 10
998.0880107941235
 20
2038.726156424973
 30
0.0
 10
997.6586026641898
 20
2038.615949642899
 30
0.0
 10
997.3244238957315
 20
2038.506138673524
 30
0.0
 10
997.0822570447957
 20
2038.410818566005
 30
0.0
 10
996.8415796478039
 20
2038.305785503816
 30
0.0
 10
996.5158800114251
 20
2038.1564839921
 30
0.0
 10
996.1136555828298
 20
2037.946152654456
 30
0.0
 10
995.7400411824815
 20
2037.694785297908
 30
0.0
 10
995.4719019535836
 20
2037.463192892686
 30
0.0
 10
995.2910503526704
 20
2037.272148332574
 30
0.0
 10
995.1280875961757
 20
2037.064772553749
 30
0.0
 10
994.9268484545116
 20
2036.769864627973
 30
0.0
 10
994.7089784762233
 20
2036.365165721683
 30
0.0
 10
994.5002908223464
 20
2035.822312119575
 30
0.0
 10
994.3965420539894
 20
2035.42217780835
 30
0.0
 10
994.3534946321859
 20
2035.212560061403
 30
0.0
1001
REVIT
1002
{
1070
     3
1000
924079
1002
}
  0
SPLINE
  5
2A5
330
285
100
AcDbEntity
  8
M-PIPE
100
AcDbSpline
210
0.0
220
0.0
230
1.0
 70
    24
 71
     3
 72
    26
 73
    22
 74
     0
 42
0.000000001
 43
0.0000000001
 40
0.0
 40
0.0
 40
0.0
 40
0.0
 40
0.0357142857142857
 40
0.0714285714285714
 40
0.1071428571428571
 40
0.125
 40
0.1428571428571428
 40
0.1607142857142857
 40
0.1785714285714286
 40
0.2142857142857143
 40
0.25
 40
0.2678571428571428
 40
0.2857142857142857
 40
0.3035714285714286
 40
0.3214285714285714
 40
0.3571428571428571
 40
0.3928571428571428
 40
0.4285714285714286
 40
0.4642857142857144
 40
0.5
 40
0.5238095238095238
 40
0.5238095238095238
 40
0.5238095238095238
 40
0.5238095238095238
 10
993.1143539431138
 20
2035.212560061403
 30
0.0
 10
993.1143539431138
 20
2035.421653479156
 30
0.0
 10
993.1143539431138
 20
2035.820828114985
 30
0.0
 10
993.1143539431138
 20
2036.362510006965
 30
0.0
 10
993.1143539431138
 20
2036.766453522327
 30
0.0
 10
993.1143539431138
 20
2037.06089445278
 30
0.0
 10
993.1143539431138
 20
2037.267976688043
 30
0.0
 10
993.1143539431138
 20
2037.458833084626
 30
0.0
 10
993.1143539431138
 20
2037.690341542459
 30
0.0
 10
993.1143539431138
 20
2037.941814095201
 30
0.0
 10
993.1143539431138
 20
2038.152348258678
 30
0.0
 10
993.1143539431138
 20
2038.301748286604
 30
0.0
 10
993.1143539431138
 20
2038.406807804269
 30
0.0
 10
993.1143539431138
 20
2038.50202439308
 30
0.0
 10
993.1143539431138
 20
2038.611534596317
 30
0.0
 10
993.1143539431138
 20
2038.721238933356
 30
0.0
 10
993.1143539431138
 20
2038.816821452714
 30
0.0
 10
993.1143539431138
 20
2038.887275507113
 30
0.0
 10
993.1143539431138
 20
2038.934323762066
 30
0.0
 10
993.1143539431138
 20
2038.948541744903
 30
0.0
 10
993.1143539431138
 20
2038.943962171456
 30
0.0
 10
993.1143539431138
 20
2038.939830357439
 30
0.0
1001
REVIT
1002
{
1070
     3
1000
924079
1002
}
  0
LINE
  5
2A6
330
285
100
AcDbEntity
  8
M-PIPE
100
AcDbLine
 10
1007.114353943097
 20
2040.277749296853
 30
0.0
 11
994.9849098201012
 21
2040.277749296853
 31
0.0
1001
REVIT
1002
{
1070
     3
1000
924079
1002
}
  0
LINE
  5
2A7
330
285
100
AcDbEntity
  8
M-PIPE
100
AcDbLine
 10
1019.243798066093
 20
2040.277749296853
 30
0.0
 11
1007.114353943097
 21
2040.277749296853
 31
0.0
1001
REVIT
1002
{
1070
     3
1000
924079
1002
}
  0
LINE
  5
2A8
330
285
100
AcDbEntity
  8
M-PIPE
100
AcDbLine
 10
1007.114353943097
 20
2022.212560061417
 30
0.0
 11
990.8143539430991
 21
2022.212560061417
 31
0.0
1001
REVIT
1002
{
1070
     3
1000
924079
1002
}
  0
LINE
  5
2A9
330
285
100
AcDbEntity
  8
M-PIPE
100
AcDbLine
 10
1023.414353943095
 20
2022.212560061417
 30
0.0
 11
1007.114353943097
 21
2022.212560061417
 31
0.0
1001
REVIT
1002
{
1070
     3
1000
924079
1002
}
  0
LINE
  5
2AA
330
285
100
AcDbEntity
  8
M-PIPE
100
AcDbLine
 10
1007.114353943097
 20
2028.212560061402
 30
0.0
 11
990.8143539430991
 21
2028.212560061402
 31
0.0
1001
REVIT
1002
{
1070
     3
1000
924079
1002
}
  0
LINE
  5
2AB
330
285
100
AcDbEntity
  8
M-PIPE
100
AcDbLine
 10
1023.414353943095
 20
2028.212560061401
 30
0.0
 11
1007.114353943097
 21
2028.212560061402
 31
0.0
1001
REVIT
1002
{
1070
     3
1000
924079
1002
}
  0
LINE
  5
2AC
330
285
100
AcDbEntity
  8
M-PIPE
100
AcDbLine
 10
1027.114353943084
 20
1967.082558850012
 30
0.0
 11
1021.902033443636
 21
1967.082558850012
 31
0.0
1001
REVIT
1002
{
1070
     3
1000
790271
1002
}
  0
LINE
  5
2AD
330
285
100
AcDbEntity
  8
M-PIPE
100
AcDbLine
 10
1021.902033443636
 20
1967.082558850012
 30
0.0
 11
1012.326674442533
 21
1967.082558850012
 31
0.0
1001
REVIT
1002
{
1070
     3
1000
790271
1002
}
  0
LINE
  5
2AE
330
285
100
AcDbEntity
  8
M-PIPE
100
AcDbLine
 10
1012.326674442533
 20
1967.082558850012
 30
0.0
 11
1001.902033443636
 21
1967.082558850012
 31
0.0
1001
REVIT
1002
{
1070
     3
1000
790271
1002
}
  0
LINE
  5
2AF
330
285
100
AcDbEntity
  8
M-PIPE
100
AcDbLine
 10
1001.902033443636
 20
1967.082558850012
 30
0.0
 11
992.3266744425331
 21
1967.082558850012
 31
0.0
1001
REVIT
1002
{
1070
     3
1000
790271
1002
}
  0
LINE
  5
2B0
330
285
100
AcDbEntity
  8
M-PIPE
100
AcDbLine
 10
992.3266744425331
 20
1967.082558850012
 30
0.0
 11
987.1143539430844
 21
1967.082558850012
 31
0.0
1001
REVIT
1002
{
1070
     3
1000
790271
1002
}
  0
LINE
  5
2B1
330
285
100
AcDbEntity
  8
M-PIPE
100
AcDbLine
 10
987.1143539430844
 20
1978.082558850012
 30
0.0
 11
992.3266744425331
 21
1978.082558850012
 31
0.0
1001
REVIT
1002
{
1070
     3
1000
790271
1002
}
  0
LINE
  5
2B2
330
285
100
AcDbEntity
  8
M-PIPE
100
AcDbLine
 10
992.3266744425331
 20
1978.082558850012
 30
0.0
 11
994.2517294957209
 21
1978.082558850012
 31
0.0
1001
REVIT
1002
{
1070
     3
1000
790271
1002
}
  0
LINE
  5
2B3
330
285
100
AcDbEntity
  8
M-PIPE
100
AcDbLine
 10
999.8918133572717
 20
1978.082558850012
 30
0.0
 11
1001.902033443636
 21
1978.082558850012
 31
0.0
1001
REVIT
1002
{
1070
     3
1000
790271
1002
}
  0
LINE
  5
2B4
330
285
100
AcDbEntity
  8
M-PIPE
100
AcDbLine
 10
1001.902033443636
 20
1978.082558850012
 30
0.0
 11
1012.326674442533
 21
1978.082558850012
 31
0.0
1001
REVIT
1002
{
1070
     3
1000
790271
1002
}
  0
LINE
  5
2B5
330
285
100
AcDbEntity
  8
M-PIPE
100
AcDbLine
 10
1012.326674442533
 20
1978.082558850012
 30
0.0
 11
1014.336894528857
 21
1978.082558850012
 31
0.0
1001
REVIT
1002
{
1070
     3
1000
790271
1002
}
  0
LINE
  5
2B6
330
285
100
AcDbEntity
  8
M-PIPE
100
AcDbLine
 10
1019.976978390472
 20
1978.082558850012
 30
0.0
 11
1021.902033443636
 21
1978.082558850012
 31
0.0
1001
REVIT
1002
{
1070
     3
1000
790271
1002
}
  0
LINE
  5
2B7
330
285
100
AcDbEntity
  8
M-PIPE
100
AcDbLine
 10
1021.902033443636
 20
1978.082558850012
 30
0.0
 11
1027.114353943084
 21
1978.082558850012
 31
0.0
1001
REVIT
1002
{
1070
     3
1000
790271
1002
}
  0
LINE
  5
2B8
330
285
100
AcDbEntity
  8
M-PIPE
100
AcDbLine
 10
1027.114353943084
 20
1978.082558850012
 30
0.0
 11
1027.114353943084
 21
1967.082558850012
 31
0.0
1001
REVIT
1002
{
1070
     3
1000
790271
1002
}
  0
LINE
  5
2B9
330
285
100
AcDbEntity
  8
M-PIPE
100
AcDbLine
 10
1021.902033443636
 20
1978.082558850012
 30
0.0
 11
1021.902033443636
 21
1967.082558850012
 31
0.0
1001
REVIT
1002
{
1070
     3
1000
790271
1002
}
  0
LINE
  5
2BA
330
285
100
AcDbEntity
  8
M-PIPE
100
AcDbLine
 10
1012.326674442533
 20
1978.082558850012
 30
0.0
 11
1012.326674442533
 21
1967.082558850012
 31
0.0
1001
REVIT
1002
{
1070
     3
1000
790271
1002
}
  0
LINE
  5
2BB
330
285
100
AcDbEntity
  8
M-PIPE
100
AcDbLine
 10
1001.902033443636
 20
1978.082558850012
 30
0.0
 11
1001.902033443636
 21
1967.082558850012
 31
0.0
1001
REVIT
1002
{
1070
     3
1000
790271
1002
}
  0
LINE
  5
2BC
330
285
100
AcDbEntity
  8
M-PIPE
100
AcDbLine
 10
992.3266744425331
 20
1978.082558850012
 30
0.0
 11
992.3266744425331
 21
1967.082558850012
 31
0.0
1001
REVIT
1002
{
1070
     3
1000
790271
1002
}
  0
LINE
  5
2BD
330
285
100
AcDbEntity
  8
M-PIPE
100
AcDbLine
 10
987.1143539430844
 20
1978.082558850012
 30
0.0
 11
987.1143539430844
 21
1967.082558850012
 31
0.0
1001
REVIT
1002
{
1070
     3
1000
790271
1002
}
  0
LINE
  5
2BE
330
285
100
AcDbEntity
  8
M-PIPE
100
AcDbLine
 10
1026.114353943084
 20
1963.782558850012
 30
0.0
 11
1021.738561198846
 21
1963.782558850012
 31
0.0
1001
REVIT
1002
{
1070
     3
1000
790271
1002
}
  0
LINE
  5
2BF
330
285
100
AcDbEntity
  8
M-PIPE
100
AcDbLine
 10
1021.738561198846
 20
1963.782558850012
 30
0.0
 11
1011.490146687323
 21
1963.782558850012
 31
0.0
1001
REVIT
1002
{
1070
     3
1000
790271
1002
}
  0
LINE
  5
2C0
330
285
100
AcDbEntity
  8
M-PIPE
100
AcDbLine
 10
1011.490146687323
 20
1963.782558850012
 30
0.0
 11
1002.738561198846
 21
1963.782558850012
 31
0.0
1001
REVIT
1002
{
1070
     3
1000
790271
1002
}
  0
LINE
  5
2C1
330
285
100
AcDbEntity
  8
M-PIPE
100
AcDbLine
 10
1002.738561198846
 20
1963.782558850012
 30
0.0
 11
992.4901466873228
 21
1963.782558850012
 31
0.0
1001
REVIT
1002
{
1070
     3
1000
790271
1002
}
  0
LINE
  5
2C2
330
285
100
AcDbEntity
  8
M-PIPE
100
AcDbLine
 10
992.4901466873228
 20
1963.782558850012
 30
0.0
 11
988.1143539430844
 21
1963.782558850012
 31
0.0
1001
REVIT
1002
{
1070
     3
1000
790271
1002
}
  0
LINE
  5
2C3
330
285
100
AcDbEntity
  8
M-PIPE
100
AcDbLine
 10
1026.114353943084
 20
1967.082558850012
 30
0.0
 11
1026.114353943084
 21
1963.782558850012
 31
0.0
1001
REVIT
1002
{
1070
     3
1000
790271
1002
}
  0
LINE
  5
2C4
330
285
100
AcDbEntity
  8
M-PIPE
100
AcDbLine
 10
1021.738561198846
 20
1967.082558850012
 30
0.0
 11
1021.738561198846
 21
1963.782558850012
 31
0.0
1001
REVIT
1002
{
1070
     3
1000
790271
1002
}
  0
LINE
  5
2C5
330
285
100
AcDbEntity
  8
M-PIPE
100
AcDbLine
 10
1011.490146687323
 20
1967.082558850012
 30
0.0
 11
1011.490146687323
 21
1963.782558850012
 31
0.0
1001
REVIT
1002
{
1070
     3
1000
790271
1002
}
  0
LINE
  5
2C6
330
285
100
AcDbEntity
  8
M-PIPE
100
AcDbLine
 10
1002.738561198846
 20
1967.082558850012
 30
0.0
 11
1002.738561198846
 21
1963.782558850012
 31
0.0
1001
REVIT
1002
{
1070
     3
1000
790271
1002
}
  0
LINE
  5
2C7
330
285
100
AcDbEntity
  8
M-PIPE
100
AcDbLine
 10
992.4901466873228
 20
1967.082558850012
 30
0.0
 11
992.4901466873228
 21
1963.782558850012
 31
0.0
1001
REVIT
1002
{
1070
     3
1000
790271
1002
}
  0
LINE
  5
2C8
330
285
100
AcDbEntity
  8
M-PIPE
100
AcDbLine
 10
988.1143539430844
 20
1967.082558850012
 30
0.0
 11
988.1143539430844
 21
1963.782558850012
 31
0.0
1001
REVIT
1002
{
1070
     3
1000
790271
1002
}
  0
LINE
  5
2C9
330
285
100
AcDbEntity
  8
P-SANR-FIXT
100
AcDbLine
 10
993.6143539430984
 20
2018.982558850011
 30
0.0
 11
993.6143539430984
 21
2013.550290176382
 31
0.0
  0
LINE
  5
2CA
330
285
100
AcDbEntity
  8
P-SANR-FIXT
100
AcDbLine
 10
986.8388800872663
 20
1986.106400028196
 30
0.0
 11
986.8388800872663
 21
1978.082558850011
 31
0.0
  0
LINE
  5
2CB
330
285
100
AcDbEntity
  8
P-SANR-FIXT
100
AcDbLine
 10
1024.712821461799
 20
1986.482558850012
 30
0.0
 11
1033.114353943098
 21
1986.482558850012
 31
0.0
  0
LINE
  5
2CC
330
285
100
AcDbEntity
  8
P-SANR-FIXT
100
AcDbLine
 10
1033.114353943098
 20
2003.482558850012
 30
0.0
 11
1025.61435394328
 21
2003.482558850012
 31
0.0
  0
LINE
  5
2CD
330
285
100
AcDbEntity
  8
P-SANR-FIXT
100
AcDbLine
 10
1027.388940419225
 20
1981.982558850011
 30
0.0
 11
1032.114353943098
 21
1981.982558850011
 31
0.0
  0
LINE
  5
2CE
330
285
100
AcDbEntity
  8
P-SANR-FIXT
100
AcDbLine
 10
1027.389827798931
 20
1978.082558850011
 30
0.0
 11
1027.389827798931
 21
1986.106400028196
 31
0.0
  0
LINE
  5
2CF
330
285
100
AcDbEntity
  8
P-SANR-FIXT
100
AcDbLine
 10
1020.614353943098
 20
2013.55029017586
 30
0.0
 11
1020.614353943098
 21
2018.982558850011
 31
0.0
  0
LINE
  5
2D0
330
285
100
AcDbEntity
  8
P-SANR-FIXT
100
AcDbLine
 10
992.1143539430985
 20
2022.212560061418
 30
0.0
 11
992.1143539430985
 21
2018.982558850011
 31
0.0
  0
LINE
  5
2D1
330
285
100
AcDbEntity
  8
P-SANR-FIXT
100
AcDbLine
 10
1022.114353943098
 20
2018.982558850011
 30
0.0
 11
1022.114353943098
 21
2022.212560061417
 31
0.0
  0
LINE
  5
2D2
330
285
100
AcDbEntity
  8
P-SANR-FIXT
100
AcDbLine
 10
982.1143539431123
 20
1997.482558850011
 30
0.0
 11
988.6143539429946
 21
1997.482558850011
 31
0.0
  0
LINE
  5
2D3
330
285
100
AcDbEntity
  8
P-SANR-FIXT
100
AcDbLine
 10
1022.884837309513
 20
2017.482558850012
 30
0.0
 11
1020.61432123867
 21
2017.482558850012
 31
0.0
  0
LINE
  5
2D4
330
285
100
AcDbEntity
  8
P-SANR-FIXT
100
AcDbLine
 10
993.6143866475269
 20
2017.482558850012
 30
0.0
 11
982.1143539431123
 21
2017.482558850012
 31
0.0
  0
LWPOLYLINE
  5
2D5
330
285
100
AcDbEntity
  8
P-SANR-FIXT
100
AcDbPolyline
 90
       22
 70
   128
 43
0.0
 10
988.6378371757176
 20
1988.082619237682
 10
988.719737261181
 20
1988.084257457827
 10
988.8015063239791
 20
1988.089169497457
 10
988.883013551054
 20
1988.097347498358
 10
988.9641285482298
 20
1988.108778377473
 10
989.0447215488148
 20
1988.123443847834
 10
989.1246636212001
 20
1988.141320447816
 10
989.2038268751234
 20
1988.162379578673
 10
989.2820846662658
 20
1988.186587550287
 10
989.3593117988555
 20
1988.213905635069
 10
989.4353847259543
 20
1988.244290129911
 10
989.5101817471074
 20
1988.277692426102
 10
989.5835832030364
 20
1988.314059087093
 10
989.6554716670701
 20
1988.353331933986
 10
989.7257321330013
 20
1988.395448138602
 10
989.794252199073
 20
1988.440340323999
 10
989.8609222477958
 20
1988.487936672257
 10
989.9256356213143
 20
1988.538161039371
 10
989.9882887920355
 20
1988.590933077069
 10
990.0487815282515
 20
1988.646168361347
 10
990.1070170544889
 20
1988.703778527533
 10
990.1615641233181
 20
1988.762237369727
  0
LINE
  5
2D6
330
285
100
AcDbEntity
  8
P-SANR-FIXT
100
AcDbLine
 10
1025.526862883745
 20
1988.084029274858
 30
0.0
 11
1025.568759741949
 21
1988.082738597463
 31
0.0
  0
LWPOLYLINE
  5
2D7
330
285
100
AcDbEntity
  8
P-SANR-FIXT
100
AcDbPolyline
 90
       38
 70
   128
 43
0.0
 10
986.8388800872663
 20
1986.106400028196
 10
986.8404678376004
 20
1986.185776959617
 10
986.8452285485409
 20
1986.265026904881
 10
986.8531546039658
 20
1986.344023080981
 10
986.8642333238774
 20
1986.422639110886
 10
986.878446984687
 20
1986.50074922572
 10
986.8957728475693
 20
1986.578228465961
 10
986.9161831948401
 20
1986.654952881353
 10
986.9396453742972
 20
1986.730799729199
 10
986.966121851459
 20
1986.805647670721
 10
986.9955702696097
 20
1986.87937696518
 10
987.0279435175623
 20
1986.951869661433
 10
987.0631898050261
 20
1987.023009786629
 10
987.1012527454597
 20
1987.092683531746
 10
987.1420714462786
 20
1987.160779433652
 10
987.1855806062681
 20
1987.227188553432
 10
987.2317106200549
 20
1987.291804650661
 10
987.2803876894566
 20
1987.354524353366
 10
987.3315339415464
 20
1987.415247323403
 10
987.3850675532313
 20
1987.473876416974
 10
987.4409028821528
 20
1987.530317840036
 10
987.4989506036952
 20
1987.584481298351
 10
987.559117853887
 20
1987.636280141942
 10
987.6213083779632
 20
1987.685631503708
 10
987.6854226843517
 20
1987.732456431997
 10
987.7513582038393
 20
1987.776680016914
 10
987.81900945366
 20
1987.818231510156
 10
987.8882682062458
 20
1987.857044438199
 10
987.959023662367
 20
1987.893056708636
 10
988.0311626283877
 20
1987.926210709518
 10
988.1045696973506
 20
1987.956453401515
 10
988.1791274336052
 20
1987.983736402772
 10
988.254716560678
 20
1988.008016066306
 10
988.3312161520905
 20
1988.029253549836
 10
988.4085038248157
 20
1988.047414877919
 10
988.4864559350642
 20
1988.062470996303
 10
988.5649477760885
 20
1988.074397818411
 10
988.6378371757176
 20
1988.082619237682
  0
LWPOLYLINE
  5
2D8
330
285
100
AcDbEntity
  8
P-SANR-FIXT
100
AcDbPolyline
 90
        6
 70
   128
 43
0.0
 10
1027.353614874289
 20
1986.48273244031
 10
1027.36542813555
 20
1986.416672497481
 10
1027.376267491807
 20
1986.338023107471
 10
1027.383953040995
 20
1986.259003169945
 10
1027.388472487874
 20
1986.179739099945
 10
1027.38982778576
 20
1986.106628691394
  0
LINE
  5
2D9
330
285
100
AcDbEntity
  8
P-SANR-FIXT
100
AcDbLine
 10
1032.114353943097
 20
1986.478315325581
 30
0.0
 11
1032.114353943097
 21
1981.982558850011
 31
0.0
  0
LINE
  5
2DA
330
285
100
AcDbEntity
  8
P-SANR-FIXT
100
AcDbLine
 10
1033.114353943096
 20
1994.982558850011
 30
0.0
 11
1033.114353943096
 21
1986.482558850011
 31
0.0
  0
LINE
  5
2DB
330
285
100
AcDbEntity
  8
P-SANR-FIXT
100
AcDbLine
 10
1033.114353943096
 20
2003.482558850011
 30
0.0
 11
1033.114353943096
 21
1994.982558850011
 31
0.0
  0
LINE
  5
2DC
330
285
100
AcDbEntity
  8
P-SANR-FIXT
100
AcDbLine
 10
986.8388800872644
 20
1978.08255885001
 30
0.0
 11
987.091359054312
 21
1978.08255885001
 31
0.0
  0
LINE
  5
2DD
330
285
100
AcDbEntity
  8
P-SANR-FIXT
100
AcDbLine
 10
994.2517294957209
 20
1978.08255885001
 30
0.0
 11
999.8849560191706
 21
1978.08255885001
 31
0.0
  0
LINE
  5
2DE
330
285
100
AcDbEntity
  8
P-SANR-FIXT
100
AcDbLine
 10
1022.884837309511
 20
2017.482558850011
 30
0.0
 11
1022.884837309511
 21
2012.245809751405
 31
0.0
  0
SPLINE
  5
2DF
330
285
100
AcDbEntity
  8
P-SANR-FIXT
100
AcDbSpline
210
0.0
220
0.0
230
1.0
 70
     8
 71
     3
 72
    13
 73
     9
 74
     0
 42
0.000000001
 43
0.0000000001
 40
0.2990345037910051
 40
0.2990345037910051
 40
0.2990345037910051
 40
0.2990345037910051
 40
0.3055555555555556
 40
0.3333333333333333
 40
0.3888888888888888
 40
0.4444444444444445
 40
0.5555555555555556
 40
0.5977192312079778
 40
0.5977192312079778
 40
0.5977192312079778
 40
0.5977192312079778
 10
1021.937330671037
 20
1987.178037095787
 30
0.0
 10
1021.961984308521
 20
1987.169675673507
 30
0.0
 10
1022.091122809465
 20
1987.125871562829
 30
0.0
 10
1022.422126575701
 20
1987.0140045511
 30
0.0
 10
1022.903514058679
 20
1986.851280809128
 30
0.0
 10
1023.618777821769
 20
1986.631844090386
 30
0.0
 10
1024.215153594719
 20
1986.503813998837
 30
0.0
 10
1024.608576366314
 20
1986.482526362154
 30
0.0
 10
1024.7129501551
 20
1986.482544595257
 30
0.0
  0
LINE
  5
2E0
330
285
100
AcDbEntity
  8
P-SANR-FIXT
100
AcDbLine
 10
1014.343751866959
 20
1978.08255885001
 30
0.0
 11
1019.976978390472
 21
1978.08255885001
 31
0.0
  0
LINE
  5
2E1
330
285
100
AcDbEntity
  8
P-SANR-FIXT
100
AcDbLine
 10
1027.137348831855
 20
1978.08255885001
 30
0.0
 11
1027.389827798929
 21
1978.08255885001
 31
0.0
  0
LINE
  5
2E2
330
285
100
AcDbEntity
  8
P-SANR-FIXT
100
AcDbLine
 10
1003.020570076208
 20
2018.98255885001
 30
0.0
 11
992.1143539430968
 21
2018.98255885001
 31
0.0
  0
LINE
  5
2E3
330
285
100
AcDbEntity
  8
P-SANR-FIXT
100
AcDbLine
 10
1022.114353943097
 20
2018.98255885001
 30
0.0
 11
1011.208137811141
 21
2018.98255885001
 31
0.0
  0
LINE
  5
2E4
330
285
100
AcDbEntity
  8
P-SANR-FIXT
100
AcDbLine
 10
982.1143539431105
 20
1997.482558850011
 30
0.0
 11
982.1143539431105
 21
1997.50888074418
 31
0.0
  0
LINE
  5
2E5
330
285
100
AcDbEntity
  8
P-SANR-FIXT
100
AcDbLine
 10
982.1143539431105
 20
1997.50888074418
 30
0.0
 11
982.1143539431105
 21
2001.867779687721
 31
0.0
  0
LINE
  5
2E6
330
285
100
AcDbEntity
  8
P-SANR-FIXT
100
AcDbLine
 10
982.1143539431105
 20
2001.867779687721
 30
0.0
 11
982.1143539431105
 21
2003.12365990647
 31
0.0
  0
LINE
  5
2E7
330
285
100
AcDbEntity
  8
P-SANR-FIXT
100
AcDbLine
 10
982.1143539431105
 20
2003.12365990647
 30
0.0
 11
982.1143539431105
 21
2011.841457793551
 31
0.0
  0
LINE
  5
2E8
330
285
100
AcDbEntity
  8
P-SANR-FIXT
100
AcDbLine
 10
982.1143539431105
 20
2011.841457793551
 30
0.0
 11
982.1143539431105
 21
2013.0973380123
 31
0.0
  0
LINE
  5
2E9
330
285
100
AcDbEntity
  8
P-SANR-FIXT
100
AcDbLine
 10
982.1143539431105
 20
2013.0973380123
 30
0.0
 11
982.1143539431105
 21
2017.456236955841
 31
0.0
  0
LINE
  5
2EA
330
285
100
AcDbEntity
  8
P-SANR-FIXT
100
AcDbLine
 10
982.1143539431105
 20
2017.456236955841
 30
0.0
 11
982.1143539431105
 21
2017.482558850011
 31
0.0
  0
LINE
  5
2EB
330
285
100
AcDbEntity
  8
P-SANR-FIXT
100
AcDbLine
 10
986.1143539430967
 20
2007.482558850011
 30
0.0
 11
986.1143539430967
 21
2003.12365990647
 31
0.0
  0
LINE
  5
2EC
330
285
100
AcDbEntity
  8
P-SANR-FIXT
100
AcDbLine
 10
986.1143539430967
 20
2003.12365990647
 30
0.0
 11
982.1143539431105
 21
2003.12365990647
 31
0.0
  0
LINE
  5
2ED
330
285
100
AcDbEntity
  8
P-SANR-FIXT
100
AcDbLine
 10
982.1143539431105
 20
2001.867779687721
 30
0.0
 11
986.1143539430967
 21
2001.867779687721
 31
0.0
  0
LINE
  5
2EE
330
285
100
AcDbEntity
  8
P-SANR-FIXT
100
AcDbLine
 10
986.1143539430967
 20
2001.867779687721
 30
0.0
 11
986.1143539430967
 21
1997.50888074418
 31
0.0
  0
LINE
  5
2EF
330
285
100
AcDbEntity
  8
P-SANR-FIXT
100
AcDbLine
 10
986.1143539430967
 20
1997.50888074418
 30
0.0
 11
982.1143539431105
 21
1997.50888074418
 31
0.0
  0
LINE
  5
2F0
330
285
100
AcDbEntity
  8
P-SANR-FIXT
100
AcDbLine
 10
982.1143539431105
 20
2017.456236955841
 30
0.0
 11
986.1143539430967
 21
2017.456236955841
 31
0.0
  0
LINE
  5
2F1
330
285
100
AcDbEntity
  8
P-SANR-FIXT
100
AcDbLine
 10
986.1143539430967
 20
2017.456236955841
 30
0.0
 11
986.1143539430967
 21
2013.0973380123
 31
0.0
  0
LINE
  5
2F2
330
285
100
AcDbEntity
  8
P-SANR-FIXT
100
AcDbLine
 10
986.1143539430967
 20
2013.0973380123
 30
0.0
 11
982.1143539431105
 21
2013.0973380123
 31
0.0
  0
LINE
  5
2F3
330
285
100
AcDbEntity
  8
P-SANR-FIXT
100
AcDbLine
 10
982.1143539431105
 20
2011.841457793551
 30
0.0
 11
986.1143539430967
 21
2011.841457793551
 31
0.0
  0
LINE
  5
2F4
330
285
100
AcDbEntity
  8
P-SANR-FIXT
100
AcDbLine
 10
986.1143539430967
 20
2011.841457793551
 30
0.0
 11
986.1143539430967
 21
2007.482558850011
 31
0.0
  0
LINE
  5
2F5
330
285
100
AcDbEntity
  8
P-SANR-FIXT
100
AcDbLine
 10
988.6378371757158
 20
1988.082619237681
 30
0.0
 11
990.7109515178515
 21
1988.082619237681
 31
0.0
  0
ARC
  5
2F6
330
285
100
AcDbEntity
  8
P-SANR-FIXT
100
AcDbCircle
 10
1007.114353943096
 20
1999.982558850011
 30
0.0
 40
11.85000000005777
100
AcDbArc
 50
90.0
 51
269.9999999999997
  0
ARC
  5
2F7
330
285
100
AcDbEntity
  8
P-SANR-FIXT
100
AcDbCircle
 10
1007.114353943096
 20
1999.982558850011
 30
0.0
 40
11.85000000005777
100
AcDbArc
 50
269.9999999999997
 51
89.99999999999944
  0
ARC
  5
2F8
330
285
100
AcDbEntity
  8
P-SANR-FIXT
100
AcDbCircle
 10
1007.114353943096
 20
1999.982558850011
 30
0.0
 40
13.15000000005795
100
AcDbArc
 50
90.0
 51
269.9999999999997
  0
ARC
  5
2F9
330
285
100
AcDbEntity
  8
P-SANR-FIXT
100
AcDbCircle
 10
1007.114353943096
 20
1999.982558850011
 30
0.0
 40
13.15000000005795
100
AcDbArc
 50
269.9999999999997
 51
89.9999999999995
  0
ARC
  5
2FA
330
285
100
AcDbEntity
  8
P-SANR-FIXT
100
AcDbCircle
 10
1007.114353943096
 20
1999.982558850011
 30
0.0
 40
16.16580753745052
100
AcDbArc
 50
90.0
 51
269.9999999999997
  0
ARC
  5
2FB
330
285
100
AcDbEntity
  8
P-SANR-FIXT
100
AcDbCircle
 10
1007.114353943096
 20
1999.982558850011
 30
0.0
 40
16.16580753745052
100
AcDbArc
 50
269.9999999999997
 51
89.9999999999996
  0
ARC
  5
2FC
330
285
100
AcDbEntity
  8
P-SANR-FIXT
100
AcDbCircle
 10
1007.114353943096
 20
1999.982558850011
 30
0.0
 40
20.35000000012394
100
AcDbArc
 50
90.0
 51
95.38002266869915
  0
SPLINE
  5
2FD
330
285
100
AcDbEntity
  8
P-SANR-FIXT
100
AcDbSpline
210
0.0
220
0.0
230
1.0
 70
    24
 71
     3
 72
     9
 73
     5
 74
     0
 42
0.000000001
 43
0.0000000001
 40
-1.0
 40
-1.0
 40
-1.0
 40
-1.0
 40
-0.5
 40
0.0
 40
0.0
 40
0.0
 40
0.0
 10
1005.206313832224
 20
2020.242911338069
 30
0.0
 10
1002.719471432304
 20
2018.8071322092
 30
0.0
 10
997.7853090695752
 20
2015.958392241167
 30
0.0
 10
992.9301915810677
 20
2013.155288852539
 30
0.0
 10
990.5223940553694
 20
2011.765146303075
 30
0.0
  0
ARC
  5
2FE
330
285
100
AcDbEntity
  8
P-SANR-FIXT
100
AcDbCircle
 10
1007.114353943096
 20
1999.982558850011
 30
0.0
 40
20.35000000012398
100
AcDbArc
 50
144.6199773258443
 51
155.3800226677486
  0
SPLINE
  5
2FF
330
285
100
AcDbEntity
  8
P-SANR-FIXT
100
AcDbSpline
210
0.0
220
0.0
230
1.0
 70
    24
 71
     3
 72
     9
 73
     5
 74
     0
 42
0.000000001
 43
0.0000000001
 40
-1.0
 40
-1.0
 40
-1.0
 40
-1.0
 40
-0.5
 40
0.0
 40
0.0
 40
0.0
 40
0.0
 10
988.6143539435154
 20
2008.460323886891
 30
0.0
 10
988.6143539433787
 20
2005.588765628816
 30
0.0
 10
988.6143539431074
 20
1999.891285692075
 30
0.0
 10
988.6143539428404
 20
1994.28507891415
 30
0.0
 10
988.6143539427079
 20
1991.504793814892
 30
0.0
  0
ARC
  5
300
330
285
100
AcDbEntity
  8
P-SANR-FIXT
100
AcDbCircle
 10
1007.114353943096
 20
1999.982558850011
 30
0.0
 40
20.35000000012406
100
AcDbArc
 50
204.6199773267943
 51
215.3800226669011
  0
SPLINE
  5
301
330
285
100
AcDbEntity
  8
P-SANR-FIXT
100
AcDbSpline
210
0.0
220
0.0
230
1.0
 70
    24
 71
     3
 72
     9
 73
     5
 74
     0
 42
0.000000001
 43
0.0000000001
 40
-1.0
 40
-1.0
 40
-1.0
 40
-1.0
 40
-0.5
 40
0.0
 40
0.0
 40
0.0
 40
0.0
 10
990.5223940538776
 20
1988.199971399047
 30
0.0
 10
993.009236453828
 20
1986.764192269846
 30
0.0
 10
997.9433988166201
 20
1983.915452301149
 30
0.0
 10
1002.798516305196
 20
1981.112348911864
 30
0.0
 10
1005.20631383093
 20
1979.722206362074
 30
0.0
  0
ARC
  5
302
330
285
100
AcDbEntity
  8
P-SANR-FIXT
100
AcDbCircle
 10
1007.114353943096
 20
1999.982558850011
 30
0.0
 40
20.35000000012406
100
AcDbArc
 50
264.6199773276411
 51
269.9999999999997
  0
ARC
  5
303
330
285
100
AcDbEntity
  8
P-SANR-FIXT
100
AcDbCircle
 10
1007.114353943096
 20
1999.982558850011
 30
0.0
 40
20.35000000012406
100
AcDbArc
 50
269.9999999999997
 51
275.3800226670055
  0
SPLINE
  5
304
330
285
100
AcDbEntity
  8
P-SANR-FIXT
100
AcDbSpline
210
0.0
220
0.0
230
1.0
 70
    24
 71
     3
 72
     9
 73
     5
 74
     0
 42
0.000000001
 43
0.0000000001
 40
-1.0
 40
-1.0
 40
-1.0
 40
-1.0
 40
-0.5
 40
0.0
 40
0.0
 40
0.0
 40
0.0
 10
1009.02239405337
 20
1979.722206361896
 30
0.0
 10
1011.509236453447
 20
1981.157985490855
 30
0.0
 10
1016.443398816491
 20
1984.006725459071
 30
0.0
 10
1021.298516305314
 20
1986.809828847882
 30
0.0
 10
1023.706313831171
 20
1988.199971397436
 30
0.0
  0
ARC
  5
305
330
285
100
AcDbEntity
  8
P-SANR-FIXT
100
AcDbCircle
 10
1007.114353943096
 20
1999.982558850011
 30
0.0
 40
20.35000000012406
100
AcDbArc
 50
324.6199773275368
 51
335.3800226679567
  0
SPLINE
  5
306
330
285
100
AcDbEntity
  8
P-SANR-FIXT
100
AcDbSpline
210
0.0
220
0.0
230
1.0
 70
    24
 71
     3
 72
     9
 73
     5
 74
     0
 42
0.000000001
 43
0.0000000001
 40
-1.0
 40
-1.0
 40
-1.0
 40
-1.0
 40
-0.5
 40
0.0
 40
0.0
 40
0.0
 40
0.0
 10
1025.614353942708
 20
1991.504793813197
 30
0.0
 10
1025.614353942845
 20
1994.37635207125
 30
0.0
 10
1025.614353943116
 20
2000.073832007947
 30
0.0
 10
1025.614353943383
 20
2005.680038785826
 30
0.0
 10
1025.614353943515
 20
2008.460323885062
 30
0.0
  0
ARC
  5
307
330
285
100
AcDbEntity
  8
P-SANR-FIXT
100
AcDbCircle
 10
1007.114353943096
 20
1999.982558850011
 30
0.0
 40
20.35000000012393
100
AcDbArc
 50
24.61997732658641
 51
35.38002266880353
  0
SPLINE
  5
308
330
285
100
AcDbEntity
  8
P-SANR-FIXT
100
AcDbSpline
210
0.0
220
0.0
230
1.0
 70
    24
 71
     3
 72
     9
 73
     5
 74
     0
 42
0.000000001
 43
0.0000000001
 40
-1.0
 40
-1.0
 40
-1.0
 40
-1.0
 40
-0.5
 40
0.0
 40
0.0
 40
0.0
 40
0.0
 10
1023.706313831924
 20
2011.765146301526
 30
0.0
 10
1021.21947143215
 20
2013.200925430624
 30
0.0
 10
1016.285309069712
 20
2016.049665399117
 30
0.0
 10
1011.430191581491
 20
2018.852768788196
 30
0.0
 10
1009.022394055935
 20
2020.242911337883
 30
0.0
  0
ARC
  5
309
330
285
100
AcDbEntity
  8
P-SANR-FIXT
100
AcDbCircle
 10
1007.114353943096
 20
1999.982558850011
 30
0.0
 40
20.35000000012406
100
AcDbArc
 50
84.6199773257401
 51
89.99999999999969
  0
ENDBLK
  5
30B
330
285
100
AcDbEntity
  8
0
100
AcDbBlockEnd
  0
ENDSEC
  0
SECTION
  2
ENTITIES
  0
INSERT
  5
1BF
330
71
100
AcDbEntity
  8
P-SANR-FIXT
100
AcDbBlockReference
  2
Automatic flow rate regulator valve_Caleffi_121 DN15 - 1_2__-859151-Est - Idraulica
 10
0.0
 20
0.0
 30
0.0
1001
REVIT
1002
{
1070
     1
1000
863131
1002
}
1002
{
1070
     5
1000
859151
1002
}
1002
{
1070
     2
1000
-2001160
1002
}
  0
INSERT
  5
284
330
71
100
AcDbEntity
  8
P-SANR-FIXT
100
AcDbBlockReference
  2
Automatic flow rate regulator valve_Caleffi_121 DN15 - 1_2__-V1-Est - Idraulica
 10
0.0
 20
0.0
 30
0.0
1001
REVIT
1002
{
1070
     1
1000
863152
1002
}
1002
{
1070
     5
1000
859151
1002
}
1002
{
1070
     2
1000
-2001160
1002
}
  0
INSERT
  5
30C
330
71
100
AcDbEntity
  8
P-SANR-FIXT
100
AcDbBlockReference
  2
Automatic flow rate regulator valve_Caleffi_121 DN15 - 1_2__-V2-Est - Idraulica
 10
0.0
 20
0.0
 30
0.0
1001
REVIT
1002
{
1070
     1
1000
863172
1002
}
1002
{
1070
     5
1000
859151
1002
}
1002
{
1070
     2
1000
-2001160
1002
}
  0
ENDSEC
  0
SECTION
  2
OBJECTS
  0
DICTIONARY
  5
C
330
0
100
AcDbDictionary
281
     1
  3
ACAD_CIP_PREVIOUS_PRODUCT_INFO
350
7A
  3
ACAD_COLOR
350
63
  3
ACAD_DETAILVIEWSTYLE
350
6B
  3
ACAD_GROUP
350
D
  3
ACAD_IMAGE_VARS
350
7B
  3
ACAD_LAYOUT
350
62
  3
ACAD_MATERIAL
350
10
  3
ACAD_MLEADERSTYLE
350
66
  3
ACAD_MLINESTYLE
350
5F
  3
ACAD_PLOTSETTINGS
350
61
  3
ACAD_PLOTSTYLENAME
350
E
  3
ACAD_SCALELIST
350
42
  3
ACAD_SECTIONVIEWSTYLE
350
68
  3
ACAD_TABLESTYLE
350
64
  3
ACAD_VISUALSTYLE
350
29
  3
ACDB_RECOMPOSE_DATA
350
317
  3
AcDbVariableDictionary
350
7C
  3
REVIT_DICTIONARY
350
30E
  0
DICTIONARY
  5
313
330
71
100
AcDbDictionary
280
     1
281
     1
  3
ACAD_SORTENTS
360
314
  0
XRECORD
  5
7A
102
{ACAD_REACTORS
330
C
102
}
330
C
100
AcDbXrecord
280
     1
300
RVT
300
2013
300
RVT2013
  0
DICTIONARY
  5
63
102
{ACAD_REACTORS
330
C
102
}
330
C
100
AcDbDictionary
281
     1
  0
DICTIONARY
  5
6B
102
{ACAD_REACTORS
330
C
102
}
330
C
100
AcDbDictionary
281
     1
  3
Imperial24
350
6C
  0
DICTIONARY
  5
D
102
{ACAD_REACTORS
330
C
102
}
330
C
100
AcDbDictionary
281
     1
  0
RASTERVARIABLES
  5
7B
102
{ACAD_REACTORS
330
C
102
}
330
C
100
AcDbRasterVariables
 90
        0
 70
     0
 71
     1
 72
     1
  0
DICTIONARY
  5
62
102
{ACAD_REACTORS
330
C
102
}
330
C
100
AcDbDictionary
281
     1
  3
Layout1
350
70
  3
Layout2
350
78
  3
Model
350
74
  0
DICTIONARY
  5
10
102
{ACAD_REACTORS
330
C
102
}
330
C
100
AcDbDictionary
281
     1
  3
ByBlock
350
19
  3
ByLayer
350
11
  3
Global
350
21
  0
DICTIONARY
  5
66
102
{ACAD_REACTORS
330
C
102
}
330
C
100
AcDbDictionary
281
     1
  3
Standard
350
67
  0
DICTIONARY
  5
5F
102
{ACAD_REACTORS
330
C
102
}
330
C
100
AcDbDictionary
281
     1
  3
Standard
350
60
  0
DICTIONARY
  5
61
102
{ACAD_REACTORS
330
C
102
}
330
C
100
AcDbDictionary
281
     1
  0
ACDBDICTIONARYWDFLT
  5
E
102
{ACAD_REACTORS
330
C
102
}
330
C
100
AcDbDictionary
281
     1
  3
Normal
350
F
100
AcDbDictionaryWithDefault
340
F
  0
DICTIONARY
  5
42
102
{ACAD_REACTORS
330
C
102
}
330
C
100
AcDbDictionary
281
     1
  3
A0
350
43
  3
A1
350
44
  3
A2
350
45
  3
A3
350
46
  3
A4
350
47
  3
A5
350
48
  3
A6
350
49
  3
A7
350
4A
  3
A8
350
4B
  3
A9
350
4C
  3
B0
350
4D
  3
B1
350
4E
  3
B2
350
4F
  3
B3
350
50
  3
B4
350
51
  3
B5
350
52
  3
B6
350
53
  0
DICTIONARY
  5
68
102
{ACAD_REACTORS
330
C
102
}
330
C
100
AcDbDictionary
281
     1
  3
Imperial24
350
6A
  0
DICTIONARY
  5
64
102
{ACAD_REACTORS
330
C
102
}
330
C
100
AcDbDictionary
281
     1
  3
Standard
350
65
  0
DICTIONARY
  5
29
102
{ACAD_REACTORS
330
C
102
}
330
C
100
AcDbDictionary
281
     1
  3
2dWireframe
350
2F
  3
Basic
350
2E
  3
Brighten
350
35
  3
ColorChange
350
39
  3
Conceptual
350
32
  3
Dim
350
34
  3
EdgeColorOff
350
41
  3
Facepattern
350
38
  3
Flat
350
2A
  3
FlatWithEdges
350
2B
  3
Gouraud
350
2C
  3
GouraudWithEdges
350
2D
  3
Hidden
350
31
  3
JitterOff
350
3F
  3
Linepattern
350
37
  3
OverhangOff
350
40
  3
Realistic
350
33
  3
Shaded
350
3E
  3
Shaded with edges
350
3D
  3
Shades of Gray
350
3A
  3
Sketchy
350
3B
  3
Thicken
350
36
  3
Wireframe
350
30
  3
X-Ray
350
3C
  0
XRECORD
  5
317
102
{ACAD_REACTORS
330
C
102
}
330
C
100
AcDbXrecord
280
     1
 90
        1
330
65
  0
DICTIONARY
  5
7C
102
{ACAD_REACTORS
330
C
102
}
330
C
100
AcDbDictionary
281
     1
  3
CANNOSCALE
350
81
  3
CMLEADERSTYLE
350
7E
  3
CTABLESTYLE
350
7D
  3
CVIEWDETAILSTYLE
350
7F
  3
CVIEWSECTIONSTYLE
350
80
  0
DICTIONARY
  5
30E
102
{ACAD_REACTORS
330
C
102
}
330
C
100
AcDbDictionary
281
     1
  3
DRAWING_TOOL
350
312
  3
REVIT_CATEGORY_MAPPING
350
310
  3
REVIT_SUB_CATEGORY_MAPPING
350
311
  3
REVIT_TYPE_MAPPING
350
30F
  0
SORTENTSTABLE
  5
314
102
{ACAD_REACTORS
330
313
102
}
330
313
100
AcDbSortentsTable
330
71
  0
ACDBDETAILVIEWSTYLE
  5
6C
102
{ACAD_REACTORS
330
6B
102
}
330
6B
100
AcDbModelDocViewStyle
 70
     0
  3
Imperial24
290
     1
100
AcDbDetailViewStyle
 70
     0
 71
     0
 90
        3
 71
     1
340
55
 62
   256
 40
0.24
340
0
 62
   256
 40
0.24
300

 40
0.36
280
     3
 71
     2
340
5D
 90
       25
 62
   256
 71
     3
340
55
 62
   256
 40
0.24
 90
        1
 40
0.75
 90
        1
300
%<\AcVar ViewType \f "%tc1">% %<\AcVar ViewDetailId>%\PSCALA %<\AcVar ViewScale \f "%sn">%
 71
     4
340
5D
 90
       25
 62
   256
340
5D
 90
       25
 62
   256
280
     0
  0
LAYOUT
  5
70
102
{ACAD_REACTORS
330
62
102
}
330
62
100
AcDbPlotSettings
  1

  2

  4

  6

 40
0.0
 41
0.0
 42
0.0
 43
0.0
 44
0.0
 45
0.0
 46
0.0
 47
0.0
 48
0.0
 49
0.0
140
0.0
141
0.0
142
1.0
143
1.0
 70
   688
 72
     0
 73
     0
 74
     5
  7

 75
    16
147
1.0
 76
     0
 77
     2
 78
   300
148
0.0
149
0.0
100
AcDbLayout
  1
Layout1
 70
     1
 71
     1
 10
0.0
 20
0.0
 11
12.0
 21
9.0
 12
0.0
 22
0.0
 32
0.0
 14
0.0
 24
0.0
 34
0.0
 15
0.0
 25
0.0
 35
0.0
146
0.0
 13
0.0
 23
0.0
 33
0.0
 16
1.0
 26
0.0
 36
0.0
 17
0.0
 27
1.0
 37
0.0
 76
     0
330
6D
  0
LAYOUT
  5
78
102
{ACAD_REACTORS
330
62
102
}
330
62
100
AcDbPlotSettings
  1

  2

  4

  6

 40
0.0
 41
0.0
 42
0.0
 43
0.0
 44
0.0
 45
0.0
 46
0.0
 47
0.0
 48
0.0
 49
0.0
140
0.0
141
0.0
142
1.0
143
1.0
 70
   688
 72
     0
 73
     0
 74
     5
  7

 75
    16
147
1.0
 76
     0
 77
     2
 78
   300
148
0.0
149
0.0
100
AcDbLayout
  1
Layout2
 70
     1
 71
     2
 10
0.0
 20
0.0
 11
12.0
 21
9.0
 12
0.0
 22
0.0
 32
0.0
 14
0.0
 24
0.0
 34
0.0
 15
0.0
 25
0.0
 35
0.0
146
0.0
 13
0.0
 23
0.0
 33
0.0
 16
1.0
 26
0.0
 36
0.0
 17
0.0
 27
1.0
 37
0.0
 76
     0
330
75
  0
LAYOUT
  5
74
102
{ACAD_REACTORS
330
62
102
}
330
62
100
AcDbPlotSettings
  1

  2

  4

  6

 40
0.0
 41
0.0
 42
0.0
 43
0.0
 44
0.0
 45
0.0
 46
0.0
 47
0.0
 48
0.0
 49
0.0
140
0.0
141
0.0
142
1.0
143
1.0
 70
  1712
 72
     0
 73
     0
 74
     0
  7

 75
     0
147
1.0
 76
     0
 77
     2
 78
   300
148
0.0
149
0.0
100
AcDbLayout
  1
Model
 70
     1
 71
     0
 10
0.0
 20
0.0
 11
12.0
 21
9.0
 12
0.0
 22
0.0
 32
0.0
 14
0.0
 24
0.0
 34
0.0
 15
0.0
 25
0.0
 35
0.0
146
0.0
 13
0.0
 23
0.0
 33
0.0
 16
1.0
 26
0.0
 36
0.0
 17
0.0
 27
1.0
 37
0.0
 76
     0
330
71
  0
MATERIAL
  5
19
102
{ACAD_XDICTIONARY
360
1A
102
}
102
{ACAD_REACTORS
330
10
102
}
330
10
100
AcDbMaterial
  1
ByBlock
 72
     0
 43
0.0208333333333333
 43
0.0
 43
0.0
 43
0.0
 43
0.0
 43
0.0208333333333333
 43
0.0
 43
0.0
 43
0.0
 43
0.0
 43
1.0
 43
0.0
 43
0.0
 43
0.0
 43
0.0
 43
1.0
 77
     0
 47
0.0208333333333333
 47
0.0
 47
0.0
 47
0.0
 47
0.0
 47
0.0208333333333333
 47
0.0
 47
0.0
 47
0.0
 47
0.0
 47
1.0
 47
0.0
 47
0.0
 47
0.0
 47
0.0
 47
1.0
171
     0
 49
0.0208333333333333
 49
0.0
 49
0.0
 49
0.0
 49
0.0
 49
0.0208333333333333
 49
0.0
 49
0.0
 49
0.0
 49
0.0
 49
1.0
 49
0.0
 49
0.0
 49
0.0
 49
0.0
 49
1.0
175
     0
142
0.0208333333333333
142
0.0
142
0.0
142
0.0
142
0.0
142
0.0208333333333333
142
0.0
142
0.0
142
0.0
142
0.0
142
1.0
142
0.0
142
0.0
142
0.0
142
0.0
142
1.0
179
     0
144
0.0208333333333333
144
0.0
144
0.0
144
0.0
144
0.0
144
0.0208333333333333
144
0.0
144
0.0
144
0.0
144
0.0
144
1.0
144
0.0
144
0.0
144
0.0
144
0.0
144
1.0
147
0.0208333333333333
147
0.0
147
0.0
147
0.0
147
0.0
147
0.0208333333333333
147
0.0
147
0.0
147
0.0
147
0.0
147
1.0
147
0.0
147
0.0
147
0.0
147
0.0
147
1.0
  0
MATERIAL
  5
11
102
{ACAD_XDICTIONARY
360
12
102
}
102
{ACAD_REACTORS
330
10
102
}
330
10
100
AcDbMaterial
  1
ByLayer
 72
     0
 43
0.0208333333333333
 43
0.0
 43
0.0
 43
0.0
 43
0.0
 43
0.0208333333333333
 43
0.0
 43
0.0
 43
0.0
 43
0.0
 43
1.0
 43
0.0
 43
0.0
 43
0.0
 43
0.0
 43
1.0
 77
     0
 47
0.0208333333333333
 47
0.0
 47
0.0
 47
0.0
 47
0.0
 47
0.0208333333333333
 47
0.0
 47
0.0
 47
0.0
 47
0.0
 47
1.0
 47
0.0
 47
0.0
 47
0.0
 47
0.0
 47
1.0
171
     0
 49
0.0208333333333333
 49
0.0
 49
0.0
 49
0.0
 49
0.0
 49
0.0208333333333333
 49
0.0
 49
0.0
 49
0.0
 49
0.0
 49
1.0
 49
0.0
 49
0.0
 49
0.0
 49
0.0
 49
1.0
175
     0
142
0.0208333333333333
142
0.0
142
0.0
142
0.0
142
0.0
142
0.0208333333333333
142
0.0
142
0.0
142
0.0
142
0.0
142
1.0
142
0.0
142
0.0
142
0.0
142
0.0
142
1.0
179
     0
144
0.0208333333333333
144
0.0
144
0.0
144
0.0
144
0.0
144
0.0208333333333333
144
0.0
144
0.0
144
0.0
144
0.0
144
1.0
144
0.0
144
0.0
144
0.0
144
0.0
144
1.0
147
0.0208333333333333
147
0.0
147
0.0
147
0.0
147
0.0
147
0.0208333333333333
147
0.0
147
0.0
147
0.0
147
0.0
147
1.0
147
0.0
147
0.0
147
0.0
147
0.0
147
1.0
  0
MATERIAL
  5
21
102
{ACAD_XDICTIONARY
360
22
102
}
102
{ACAD_REACTORS
330
10
102
}
330
10
100
AcDbMaterial
  1
Global
 72
     0
 43
0.0208333333333333
 43
0.0
 43
0.0
 43
0.0
 43
0.0
 43
0.0208333333333333
 43
0.0
 43
0.0
 43
0.0
 43
0.0
 43
1.0
 43
0.0
 43
0.0
 43
0.0
 43
0.0
 43
1.0
 77
     0
 47
0.0208333333333333
 47
0.0
 47
0.0
 47
0.0
 47
0.0
 47
0.0208333333333333
 47
0.0
 47
0.0
 47
0.0
 47
0.0
 47
1.0
 47
0.0
 47
0.0
 47
0.0
 47
0.0
 47
1.0
171
     0
 49
0.0208333333333333
 49
0.0
 49
0.0
 49
0.0
 49
0.0
 49
0.0208333333333333
 49
0.0
 49
0.0
 49
0.0
 49
0.0
 49
1.0
 49
0.0
 49
0.0
 49
0.0
 49
0.0
 49
1.0
175
     0
142
0.0208333333333333
142
0.0
142
0.0
142
0.0
142
0.0
142
0.0208333333333333
142
0.0
142
0.0
142
0.0
142
0.0
142
1.0
142
0.0
142
0.0
142
0.0
142
0.0
142
1.0
179
     0
144
0.0208333333333333
144
0.0
144
0.0
144
0.0
144
0.0
144
0.0208333333333333
144
0.0
144
0.0
144
0.0
144
0.0
144
1.0
144
0.0
144
0.0
144
0.0
144
0.0
144
1.0
147
0.0208333333333333
147
0.0
147
0.0
147
0.0
147
0.0
147
0.0208333333333333
147
0.0
147
0.0
147
0.0
147
0.0
147
1.0
147
0.0
147
0.0
147
0.0
147
0.0
147
1.0
  0
MLEADERSTYLE
  5
67
102
{ACAD_REACTORS
330
66
102
}
330
66
100
AcDbMLeaderStyle
179
     2
170
     2
171
     1
172
     0
 90
        2
 40
0.0
 41
0.0
173
     1
 91
-1056964608
340
5B
 92
       -2
290
     1
 42
0.09
291
     1
 43
0.36
  3
Standard
 44
0.18
300

342
55
174
     1
178
     6
175
     1
176
     0
 93
-1056964608
 45
0.18
292
     0
297
     0
 46
0.18
 94
-1056964608
 47
1.0
 49
1.0
140
1.0
293
     1
141
0.0
294
     1
177
     0
142
1.0
295
     1
296
     0
143
0.125
271
     0
272
     9
273
     9
298
     1
  0
MLINESTYLE
  5
60
102
{ACAD_REACTORS
330
5F
102
}
330
5F
100
AcDbMlineStyle
  2
STANDARD
 70
     0
  3

 62
   256
 51
90.0
 52
90.0
 71
     2
 49
0.5
 62
   256
  6
BYLAYER
 49
-0.5
 62
   256
  6
BYLAYER
  0
ACDBPLACEHOLDER
  5
F
102
{ACAD_REACTORS
330
E
102
}
330
E
  0
SCALE
  5
43
102
{ACAD_REACTORS
330
42
102
}
330
42
100
AcDbScale
 70
     0
300
1:1
140
1.0
141
1.0
290
     1
  0
SCALE
  5
44
102
{ACAD_REACTORS
330
42
102
}
330
42
100
AcDbScale
 70
     0
300
1/128" = 1'-0"
140
0.0078125
141
12.0
290
     0
  0
SCALE
  5
45
102
{ACAD_REACTORS
330
42
102
}
330
42
100
AcDbScale
 70
     0
300
1/64" = 1'-0"
140
0.015625
141
12.0
290
     0
  0
SCALE
  5
46
102
{ACAD_REACTORS
330
42
102
}
330
42
100
AcDbScale
 70
     0
300
1/32" = 1'-0"
140
0.03125
141
12.0
290
     0
  0
SCALE
  5
47
102
{ACAD_REACTORS
330
42
102
}
330
42
100
AcDbScale
 70
     0
300
1/16" = 1'-0"
140
0.0625
141
12.0
290
     0
  0
SCALE
  5
48
102
{ACAD_REACTORS
330
42
102
}
330
42
100
AcDbScale
 70
     0
300
3/32" = 1'-0"
140
0.09375
141
12.0
290
     0
  0
SCALE
  5
49
102
{ACAD_REACTORS
330
42
102
}
330
42
100
AcDbScale
 70
     0
300
1/8" = 1'-0"
140
0.125
141
12.0
290
     0
  0
SCALE
  5
4A
102
{ACAD_REACTORS
330
42
102
}
330
42
100
AcDbScale
 70
     0
300
3/16" = 1'-0"
140
0.1875
141
12.0
290
     0
  0
SCALE
  5
4B
102
{ACAD_REACTORS
330
42
102
}
330
42
100
AcDbScale
 70
     0
300
1/4" = 1'-0"
140
0.25
141
12.0
290
     0
  0
SCALE
  5
4C
102
{ACAD_REACTORS
330
42
102
}
330
42
100
AcDbScale
 70
     0
300
3/8" = 1'-0"
140
0.375
141
12.0
290
     0
  0
SCALE
  5
4D
102
{ACAD_REACTORS
330
42
102
}
330
42
100
AcDbScale
 70
     0
300
1/2" = 1'-0"
140
0.5
141
12.0
290
     0
  0
SCALE
  5
4E
102
{ACAD_REACTORS
330
42
102
}
330
42
100
AcDbScale
 70
     0
300
3/4" = 1'-0"
140
0.75
141
12.0
290
     0
  0
SCALE
  5
4F
102
{ACAD_REACTORS
330
42
102
}
330
42
100
AcDbScale
 70
     0
300
1" = 1'-0"
140
1.0
141
12.0
290
     0
  0
SCALE
  5
50
102
{ACAD_REACTORS
330
42
102
}
330
42
100
AcDbScale
 70
     0
300
1-1/2" = 1'-0"
140
1.5
141
12.0
290
     0
  0
SCALE
  5
51
102
{ACAD_REACTORS
330
42
102
}
330
42
100
AcDbScale
 70
     0
300
3" = 1'-0"
140
3.0
141
12.0
290
     0
  0
SCALE
  5
52
102
{ACAD_REACTORS
330
42
102
}
330
42
100
AcDbScale
 70
     0
300
6" = 1'-0"
140
6.0
141
12.0
290
     0
  0
SCALE
  5
53
102
{ACAD_REACTORS
330
42
102
}
330
42
100
AcDbScale
 70
     0
300
1'-0" = 1'-0"
140
12.0
141
12.0
290
     0
  0
ACDBSECTIONVIEWSTYLE
  5
6A
102
{ACAD_REACTORS
330
68
102
}
330
68
100
AcDbModelDocViewStyle
 70
     0
  3
Imperial24
290
     1
100
AcDbSectionViewStyle
 70
     0
 71
     0
 90
       78
 71
     1
340
55
 62
   256
 40
0.24
340
0
340
0
 62
   256
 40
0.24
300
I, O, Q, S, X, Z
 40
0.48
 90
        3
 40
0.18
 90
        1
 71
     2
340
69
 90
       25
 62
   256
340
5D
 90
       50
 62
   256
 40
0.24
 40
0.0
 40
0.24
 71
     3
340
55
 62
   256
 40
0.24
 90
        1
 40
0.75
 90
        1
300
%<\AcVar ViewType \f "%tc1">% %<\AcVar ViewSectionStartId>%-%<\AcVar ViewSectionEndId>%\PSCALA %<\AcVar ViewScale \f "%sn">%
 71
     4
 62
   256
 62
   257
300
ANSI31
 40
1.0
 90
        0
290
     0
290
     0
 90
        6
 40
0.0
 40
1.570796326794896
 40
0.2617993877991494
 40
1.308996938995747
 40
-0.2617993877991494
 40
1.832595714594046
  0
TABLESTYLE
  5
65
102
{ACAD_XDICTIONARY
360
315
102
}
102
{ACAD_REACTORS
330
64
102
}
330
64
100
AcDbTableStyle
280
     0
  3
Standard
 70
     0
 71
     0
 40
0.06
 41
0.06
280
     0
281
     0
  7
Standard
140
0.18
170
     2
 62
     0
 63
     7
283
     0
 90
      512
 91
        0
  1

274
    -2
284
     1
 64
     0
275
    -2
285
     1
 65
     0
276
    -2
286
     1
 66
     0
277
    -2
287
     1
 67
     0
278
    -2
288
     1
 68
     0
279
    -2
289
     1
 69
     0
  7
Standard
140
0.25
170
     5
 62
     0
 63
     7
283
     0
 90
      512
 91
        0
  1

274
    -2
284
     1
 64
     0
275
    -2
285
     1
 65
     0
276
    -2
286
     1
 66
     0
277
    -2
287
     1
 67
     0
278
    -2
288
     1
 68
     0
279
    -2
289
     1
 69
     0
  7
Standard
140
0.18
170
     5
 62
     0
 63
     7
283
     0
 90
      512
 91
        0
  1

274
    -2
284
     1
 64
     0
275
    -2
285
     1
 65
     0
276
    -2
286
     1
 66
     0
277
    -2
287
     1
 67
     0
278
    -2
288
     1
 68
     0
279
    -2
289
     1
 69
     0
  0
VISUALSTYLE
  5
2F
102
{ACAD_REACTORS
330
29
102
}
330
29
100
AcDbVisualStyle
  2
2dWireframe
 70
     4
177
     3
291
     0
 70
    58
 90
        0
176
     1
 90
        2
176
     1
 90
        0
176
     1
 90
        0
176
     1
 40
0.6
176
     1
 40
30.0
176
     1
 62
     7
420
 16777215
176
     1
 90
        1
176
     1
 90
        4
176
     1
 62
     7
176
     1
 62
   257
176
     1
 90
        1
176
     1
 90
        1
176
     1
 40
1.0
176
     1
 90
        0
176
     1
 62
   257
176
     1
 40
1.0
176
     1
 90
        1
176
     1
 90
        6
176
     1
 90
        2
176
     1
 62
     7
176
     1
 90
        5
176
     1
 90
        0
176
     1
 90
        0
176
     1
290
     0
176
     1
 90
        1
176
     1
 40
0.0
176
     1
 90
        0
176
     1
290
     1
176
     1
290
     1
176
     1
290
     0
176
     1
290
     0
176
     1
290
     0
176
     1
290
     0
176
     1
290
     0
176
     1
290
     0
176
     1
290
     0
176
     1
 90
       50
176
     1
 40
0.0
176
     1
 40
1.0
176
     1
 90
        0
176
     1
 62
    18
420
        0
176
     1
 90
       50
176
     1
 90
        3
176
     1
 62
     5
420
      255
176
     1
290
     0
176
     1
 90
       50
176
     1
 90
       50
176
     1
 90
       50
176
     1
290
     0
176
     1
 90
       50
176
     1
 62
   256
176
     0
 40
1.0
176
     0
 90
        2
176
     1
  1
strokes_ogs.tif
176
     1
290
     0
176
     1
 40
1.0
176
     1
 40
1.0
176
     1
  0
VISUALSTYLE
  5
2E
102
{ACAD_REACTORS
330
29
102
}
330
29
100
AcDbVisualStyle
  2
Basic
 70
     7
177
     3
291
     1
 70
    58
 90
        1
176
     1
 90
        0
176
     1
 90
        1
176
     1
 90
        0
176
     1
 40
0.6
176
     1
 40
30.0
176
     1
 62
     7
420
 16777215
176
     1
 90
        0
176
     1
 90
        4
176
     1
 62
     7
176
     1
 62
   257
176
     1
 90
        1
176
     1
 90
        1
176
     1
 40
1.0
176
     1
 90
        8
176
     1
 62
     7
176
     1
 40
1.0
176
     1
 90
        1
176
     1
 90
        6
176
     1
 90
        2
176
     1
 62
     7
176
     1
 90
        5
176
     1
 90
        0
176
     1
 90
        0
176
     1
290
     0
176
     1
 90
        1
176
     1
 40
0.0
176
     1
 90
        0
176
     1
290
     0
176
     1
290
     1
176
     1
290
     1
176
     1
290
     0
176
     1
290
     0
176
     1
290
     0
176
     1
290
     0
176
     1
290
     0
176
     1
290
     0
176
     1
 90
       50
176
     1
 40
0.0
176
     1
 40
1.0
176
     1
 90
        0
176
     1
 62
    18
420
        0
176
     1
 90
       50
176
     1
 90
        3
176
     1
 62
     5
420
      255
176
     1
290
     0
176
     1
 90
       50
176
     1
 90
       50
176
     1
 90
       50
176
     1
290
     0
176
     1
 90
       50
176
     1
 62
   256
176
     0
 40
1.0
176
     0
 90
        2
176
     1
  1
strokes_ogs.tif
176
     1
290
     0
176
     1
 40
1.0
176
     1
 40
1.0
176
     1
  0
VISUALSTYLE
  5
35
102
{ACAD_REACTORS
330
29
102
}
330
29
100
AcDbVisualStyle
  2
Brighten
 70
    12
177
     3
291
     1
 70
    58
 90
        2
176
     1
 90
        2
176
     1
 90
        0
176
     1
 90
        0
176
     1
 40
0.6
176
     1
 40
30.0
176
     1
 62
     7
420
 16777215
176
     1
 90
        1
176
     1
 90
        4
176
     1
 62
     7
176
     1
 62
   257
176
     1
 90
        1
176
     1
 90
        1
176
     1
 40
1.0
176
     1
 90
        8
176
     1
 62
     7
176
     1
 40
1.0
176
     1
 90
        1
176
     1
 90
        6
176
     1
 90
        2
176
     1
 62
     7
176
     1
 90
        5
176
     1
 90
        0
176
     1
 90
        0
176
     1
290
     0
176
     1
 90
        1
176
     1
 40
50.0
176
     1
 90
        0
176
     1
290
     0
176
     1
290
     1
176
     1
290
     1
176
     1
290
     0
176
     1
290
     0
176
     1
290
     0
176
     1
290
     0
176
     1
290
     0
176
     1
290
     0
176
     1
 90
       50
176
     1
 40
0.0
176
     1
 40
1.0
176
     1
 90
        0
176
     1
 62
    18
420
        0
176
     1
 90
       50
176
     1
 90
        3
176
     1
 62
     5
420
      255
176
     1
290
     0
176
     1
 90
       50
176
     1
 90
       50
176
     1
 90
       50
176
     1
290
     0
176
     1
 90
       50
176
     1
 62
   256
176
     0
 40
1.0
176
     0
 90
        2
176
     1
  1
strokes_ogs.tif
176
     1
290
     0
176
     1
 40
1.0
176
     1
 40
1.0
176
     1
  0
VISUALSTYLE
  5
39
102
{ACAD_REACTORS
330
29
102
}
330
29
100
AcDbVisualStyle
  2
ColorChange
 70
    16
177
     3
291
     1
 70
    58
 90
        2
176
     1
 90
        2
176
     1
 90
        3
176
     1
 90
        0
176
     1
 40
0.6
176
     1
 40
30.0
176
     1
 62
     8
420
  8421504
176
     1
 90
        1
176
     1
 90
        4
176
     1
 62
     7
176
     1
 62
   257
176
     1
 90
        1
176
     1
 90
        1
176
     1
 40
1.0
176
     1
 90
        8
176
     1
 62
     8
420
  8421504
176
     1
 40
1.0
176
     1
 90
        1
176
     1
 90
        6
176
     1
 90
        2
176
     1
 62
     7
176
     1
 90
        5
176
     1
 90
        0
176
     1
 90
        0
176
     1
290
     0
176
     1
 90
        1
176
     1
 40
0.0
176
     1
 90
        0
176
     1
290
     0
176
     1
290
     1
176
     1
290
     1
176
     1
290
     0
176
     1
290
     0
176
     1
290
     0
176
     1
290
     0
176
     1
290
     0
176
     1
290
     0
176
     1
 90
       50
176
     1
 40
0.0
176
     1
 40
1.0
176
     1
 90
        0
176
     1
 62
    18
420
        0
176
     1
 90
       50
176
     1
 90
        3
176
     1
 62
     5
420
      255
176
     1
290
     0
176
     1
 90
       50
176
     1
 90
       50
176
     1
 90
       50
176
     1
290
     0
176
     1
 90
       50
176
     1
 62
   256
176
     0
 40
1.0
176
     0
 90
        2
176
     1
  1
strokes_ogs.tif
176
     1
290
     0
176
     1
 40
1.0
176
     1
 40
1.0
176
     1
  0
VISUALSTYLE
  5
32
102
{ACAD_REACTORS
330
29
102
}
330
29
100
AcDbVisualStyle
  2
Conceptual
 70
     9
177
     3
291
     0
 70
    58
 90
        3
176
     1
 90
        2
176
     1
 90
        0
176
     1
 90
        0
176
     1
 40
0.6
176
     1
 40
30.0
176
     1
 62
     7
420
 16777215
176
     1
 90
        2
176
     1
 90
        2
176
     1
 62
     7
176
     1
 62
   257
176
     1
 90
        1
176
     1
 90
        1
176
     1
 40
179.0
176
     1
 90
        8
176
     1
 62
     7
176
     1
 40
1.0
176
     1
 90
        1
176
     1
 90
        6
176
     1
 90
        2
176
     1
 62
     7
176
     1
 90
        3
176
     1
 90
        0
176
     1
 90
        0
176
     1
290
     0
176
     1
 90
        1
176
     1
 40
0.0
176
     1
 90
        0
176
     1
290
     0
176
     1
290
     1
176
     1
290
     1
176
     1
290
     0
176
     1
290
     0
176
     1
290
     0
176
     1
290
     0
176
     1
290
     0
176
     1
290
     0
176
     1
 90
       50
176
     1
 40
0.0
176
     1
 40
1.0
176
     1
 90
        0
176
     1
 62
    18
420
        0
176
     1
 90
       50
176
     1
 90
        3
176
     1
 62
     5
420
      255
176
     1
290
     0
176
     1
 90
       50
176
     1
 90
       50
176
     1
 90
       50
176
     1
290
     0
176
     1
 90
       50
176
     1
 62
   256
176
     0
 40
1.0
176
     0
 90
        2
176
     1
  1
strokes_ogs.tif
176
     1
290
     0
176
     1
 40
1.0
176
     1
 40
1.0
176
     1
  0
VISUALSTYLE
  5
34
102
{ACAD_REACTORS
330
29
102
}
330
29
100
AcDbVisualStyle
  2
Dim
 70
    11
177
     3
291
     1
 70
    58
 90
        2
176
     1
 90
        2
176
     1
 90
        0
176
     1
 90
        0
176
     1
 40
0.6
176
     1
 40
30.0
176
     1
 62
     7
420
 16777215
176
     1
 90
        1
176
     1
 90
        4
176
     1
 62
     7
176
     1
 62
   257
176
     1
 90
        1
176
     1
 90
        1
176
     1
 40
1.0
176
     1
 90
        8
176
     1
 62
     7
176
     1
 40
1.0
176
     1
 90
        1
176
     1
 90
        6
176
     1
 90
        2
176
     1
 62
     7
176
     1
 90
        5
176
     1
 90
        0
176
     1
 90
        0
176
     1
290
     0
176
     1
 90
        1
176
     1
 40
-50.0
176
     1
 90
        0
176
     1
290
     0
176
     1
290
     1
176
     1
290
     1
176
     1
290
     0
176
     1
290
     0
176
     1
290
     0
176
     1
290
     0
176
     1
290
     0
176
     1
290
     0
176
     1
 90
       50
176
     1
 40
0.0
176
     1
 40
1.0
176
     1
 90
        0
176
     1
 62
    18
420
        0
176
     1
 90
       50
176
     1
 90
        3
176
     1
 62
     5
420
      255
176
     1
290
     0
176
     1
 90
       50
176
     1
 90
       50
176
     1
 90
       50
176
     1
290
     0
176
     1
 90
       50
176
     1
 62
   256
176
     0
 40
1.0
176
     0
 90
        2
176
     1
  1
strokes_ogs.tif
176
     1
290
     0
176
     1
 40
1.0
176
     1
 40
1.0
176
     1
  0
VISUALSTYLE
  5
41
102
{ACAD_REACTORS
330
29
102
}
330
29
100
AcDbVisualStyle
  2
EdgeColorOff
 70
    22
177
     3
291
     1
 70
    58
 90
        2
176
     0
 90
        2
176
     0
 90
        0
176
     0
 90
        0
176
     0
 40
0.6
176
     0
 40
30.0
176
     0
 62
     7
420
 16777215
176
     0
 90
        1
176
     0
 90
        4
176
     0
 62
     7
176
     0
 62
   257
176
     0
 90
        1
176
     0
 90
        1
176
     0
 40
1.0
176
     0
 90
        8
176
     2
 62
     7
176
     0
 40
1.0
176
     0
 90
        1
176
     0
 90
        6
176
     0
 90
        2
176
     0
 62
     7
176
     0
 90
        5
176
     0
 90
        0
176
     0
 90
        0
176
     0
290
     0
176
     0
 90
        1
176
     0
 40
0.0
176
     0
 90
        0
176
     0
290
     0
176
     0
290
     1
176
     0
290
     1
176
     0
290
     0
176
     0
290
     0
176
     0
290
     0
176
     0
290
     0
176
     0
290
     0
176
     0
290
     0
176
     0
 90
       50
176
     0
 40
0.0
176
     0
 40
1.0
176
     0
 90
        0
176
     0
 62
    18
420
        0
176
     0
 90
       50
176
     0
 90
        3
176
     0
 62
     5
420
      255
176
     0
290
     0
176
     0
 90
       50
176
     0
 90
       50
176
     0
 90
       50
176
     0
290
     0
176
     0
 90
       50
176
     0
 62
   256
176
     0
 40
1.0
176
     0
 90
        2
176
     0
  1
strokes_ogs.tif
176
     0
290
     0
176
     0
 40
1.0
176
     0
 40
1.0
176
     0
  0
VISUALSTYLE
  5
38
102
{ACAD_REACTORS
330
29
102
}
330
29
100
AcDbVisualStyle
  2
Facepattern
 70
    15
177
     3
291
     1
 70
    58
 90
        2
176
     1
 90
        2
176
     1
 90
        0
176
     1
 90
        0
176
     1
 40
0.6
176
     1
 40
30.0
176
     1
 62
     7
420
 16777215
176
     1
 90
        1
176
     1
 90
        4
176
     1
 62
     7
176
     1
 62
   257
176
     1
 90
        1
176
     1
 90
        1
176
     1
 40
1.0
176
     1
 90
        8
176
     1
 62
     7
176
     1
 40
1.0
176
     1
 90
        1
176
     1
 90
        6
176
     1
 90
        2
176
     1
 62
     7
176
     1
 90
        5
176
     1
 90
        0
176
     1
 90
        0
176
     1
290
     0
176
     1
 90
        1
176
     1
 40
0.0
176
     1
 90
        0
176
     1
290
     0
176
     1
290
     1
176
     1
290
     1
176
     1
290
     0
176
     1
290
     0
176
     1
290
     0
176
     1
290
     0
176
     1
290
     0
176
     1
290
     0
176
     1
 90
       50
176
     1
 40
0.0
176
     1
 40
1.0
176
     1
 90
        0
176
     1
 62
    18
420
        0
176
     1
 90
       50
176
     1
 90
        3
176
     1
 62
     5
420
      255
176
     1
290
     0
176
     1
 90
       50
176
     1
 90
       50
176
     1
 90
       50
176
     1
290
     0
176
     1
 90
       50
176
     1
 62
   256
176
     0
 40
1.0
176
     0
 90
        2
176
     1
  1
strokes_ogs.tif
176
     1
290
     0
176
     1
 40
1.0
176
     1
 40
1.0
176
     1
  0
VISUALSTYLE
  5
2A
102
{ACAD_REACTORS
330
29
102
}
330
29
100
AcDbVisualStyle
  2
Flat
 70
     0
177
     3
291
     1
 70
    58
 90
        2
176
     1
 90
        1
176
     1
 90
        1
176
     1
 90
        2
176
     1
 40
0.6
176
     1
 40
30.0
176
     1
 62
     7
420
 16777215
176
     1
 90
        0
176
     1
 90
        0
176
     1
 62
     7
176
     1
 62
   257
176
     1
 90
        1
176
     1
 90
        1
176
     1
 40
1.0
176
     1
 90
        8
176
     1
 62
     7
176
     1
 40
1.0
176
     1
 90
        1
176
     1
 90
        6
176
     1
 90
        2
176
     1
 62
     7
176
     1
 90
        5
176
     1
 90
        0
176
     1
 90
        0
176
     1
290
     0
176
     1
 90
       13
176
     1
 40
0.0
176
     1
 90
        0
176
     1
290
     0
176
     1
290
     1
176
     1
290
     1
176
     1
290
     0
176
     1
290
     0
176
     1
290
     0
176
     1
290
     0
176
     1
290
     0
176
     1
290
     0
176
     1
 90
       50
176
     1
 40
0.0
176
     1
 40
1.0
176
     1
 90
        0
176
     1
 62
    18
420
        0
176
     1
 90
       50
176
     1
 90
        3
176
     1
 62
     5
420
      255
176
     1
290
     0
176
     1
 90
       50
176
     1
 90
       50
176
     1
 90
       50
176
     1
290
     0
176
     1
 90
       50
176
     1
 62
   256
176
     0
 40
1.0
176
     0
 90
        2
176
     1
  1
strokes_ogs.tif
176
     1
290
     0
176
     1
 40
1.0
176
     1
 40
1.0
176
     1
  0
VISUALSTYLE
  5
2B
102
{ACAD_REACTORS
330
29
102
}
330
29
100
AcDbVisualStyle
  2
FlatWithEdges
 70
     1
177
     3
291
     1
 70
    58
 90
        2
176
     1
 90
        1
176
     1
 90
        1
176
     1
 90
        2
176
     1
 40
0.6
176
     1
 40
30.0
176
     1
 62
     7
420
 16777215
176
     1
 90
        1
176
     1
 90
        0
176
     1
 62
     7
176
     1
 62
   257
176
     1
 90
        1
176
     1
 90
        1
176
     1
 40
1.0
176
     1
 90
        0
176
     1
 62
   257
176
     1
 40
1.0
176
     1
 90
        1
176
     1
 90
        6
176
     1
 90
        2
176
     1
 62
     7
176
     1
 90
        5
176
     1
 90
        0
176
     1
 90
        0
176
     1
290
     0
176
     1
 90
       13
176
     1
 40
0.0
176
     1
 90
        0
176
     1
290
     0
176
     1
290
     1
176
     1
290
     1
176
     1
290
     0
176
     1
290
     0
176
     1
290
     0
176
     1
290
     0
176
     1
290
     0
176
     1
290
     0
176
     1
 90
       50
176
     1
 40
0.0
176
     1
 40
1.0
176
     1
 90
        0
176
     1
 62
    18
420
        0
176
     1
 90
       50
176
     1
 90
        3
176
     1
 62
     5
420
      255
176
     1
290
     0
176
     1
 90
       50
176
     1
 90
       50
176
     1
 90
       50
176
     1
290
     0
176
     1
 90
       50
176
     1
 62
   256
176
     0
 40
1.0
176
     0
 90
        2
176
     1
  1
strokes_ogs.tif
176
     1
290
     0
176
     1
 40
1.0
176
     1
 40
1.0
176
     1
  0
VISUALSTYLE
  5
2C
102
{ACAD_REACTORS
330
29
102
}
330
29
100
AcDbVisualStyle
  2
Gouraud
 70
     2
177
     3
291
     1
 70
    58
 90
        2
176
     1
 90
        2
176
     1
 90
        1
176
     1
 90
        2
176
     1
 40
0.6
176
     1
 40
30.0
176
     1
 62
     7
420
 16777215
176
     1
 90
        0
176
     1
 90
        0
176
     1
 62
     7
176
     1
 62
   257
176
     1
 90
        1
176
     1
 90
        1
176
     1
 40
1.0
176
     1
 90
        0
176
     1
 62
     7
176
     1
 40
1.0
176
     1
 90
        1
176
     1
 90
        6
176
     1
 90
        2
176
     1
 62
     7
176
     1
 90
        5
176
     1
 90
        0
176
     1
 90
        0
176
     1
290
     0
176
     1
 90
       13
176
     1
 40
0.0
176
     1
 90
        0
176
     1
290
     0
176
     1
290
     1
176
     1
290
     1
176
     1
290
     0
176
     1
290
     0
176
     1
290
     0
176
     1
290
     0
176
     1
290
     0
176
     1
290
     0
176
     1
 90
       50
176
     1
 40
0.0
176
     1
 40
1.0
176
     1
 90
        0
176
     1
 62
    18
420
        0
176
     1
 90
       50
176
     1
 90
        3
176
     1
 62
     5
420
      255
176
     1
290
     0
176
     1
 90
       50
176
     1
 90
       50
176
     1
 90
       50
176
     1
290
     0
176
     1
 90
       50
176
     1
 62
   256
176
     0
 40
1.0
176
     0
 90
        2
176
     1
  1
strokes_ogs.tif
176
     1
290
     0
176
     1
 40
1.0
176
     1
 40
1.0
176
     1
  0
VISUALSTYLE
  5
2D
102
{ACAD_REACTORS
330
29
102
}
330
29
100
AcDbVisualStyle
  2
GouraudWithEdges
 70
     3
177
     3
291
     1
 70
    58
 90
        2
176
     1
 90
        2
176
     1
 90
        1
176
     1
 90
        2
176
     1
 40
0.6
176
     1
 40
30.0
176
     1
 62
     7
420
 16777215
176
     1
 90
        1
176
     1
 90
        0
176
     1
 62
     7
176
     1
 62
   257
176
     1
 90
        1
176
     1
 90
        1
176
     1
 40
1.0
176
     1
 90
        0
176
     1
 62
   257
176
     1
 40
1.0
176
     1
 90
        1
176
     1
 90
        6
176
     1
 90
        2
176
     1
 62
     7
176
     1
 90
        5
176
     1
 90
        0
176
     1
 90
        0
176
     1
290
     0
176
     1
 90
       13
176
     1
 40
0.0
176
     1
 90
        0
176
     1
290
     0
176
     1
290
     1
176
     1
290
     1
176
     1
290
     0
176
     1
290
     0
176
     1
290
     0
176
     1
290
     0
176
     1
290
     0
176
     1
290
     0
176
     1
 90
       50
176
     1
 40
0.0
176
     1
 40
1.0
176
     1
 90
        0
176
     1
 62
    18
420
        0
176
     1
 90
       50
176
     1
 90
        3
176
     1
 62
     5
420
      255
176
     1
290
     0
176
     1
 90
       50
176
     1
 90
       50
176
     1
 90
       50
176
     1
290
     0
176
     1
 90
       50
176
     1
 62
   256
176
     0
 40
1.0
176
     0
 90
        2
176
     1
  1
strokes_ogs.tif
176
     1
290
     0
176
     1
 40
1.0
176
     1
 40
1.0
176
     1
  0
VISUALSTYLE
  5
31
102
{ACAD_REACTORS
330
29
102
}
330
29
100
AcDbVisualStyle
  2
Hidden
 70
     6
177
     3
291
     0
 70
    58
 90
        1
176
     1
 90
        2
176
     1
 90
        2
176
     1
 90
        0
176
     1
 40
0.6
176
     1
 40
30.0
176
     1
 62
     7
420
 16777215
176
     1
 90
        2
176
     1
 90
        2
176
     1
 62
     7
176
     1
 62
   257
176
     1
 90
        2
176
     1
 90
        1
176
     1
 40
40.0
176
     1
 90
        0
176
     1
 62
   257
176
     1
 40
1.0
176
     1
 90
        1
176
     1
 90
        6
176
     1
 90
        2
176
     1
 62
     7
176
     1
 90
        3
176
     1
 90
        0
176
     1
 90
        0
176
     1
290
     0
176
     1
 90
        1
176
     1
 40
0.0
176
     1
 90
        0
176
     1
290
     0
176
     1
290
     1
176
     1
290
     1
176
     1
290
     0
176
     1
290
     0
176
     1
290
     0
176
     1
290
     0
176
     1
290
     0
176
     1
290
     0
176
     1
 90
       50
176
     1
 40
0.0
176
     1
 40
1.0
176
     1
 90
        0
176
     1
 62
    18
420
        0
176
     1
 90
       50
176
     1
 90
        3
176
     1
 62
     5
420
      255
176
     1
290
     0
176
     1
 90
       50
176
     1
 90
       50
176
     1
 90
       50
176
     1
290
     0
176
     1
 90
       50
176
     1
 62
   256
176
     0
 40
1.0
176
     0
 90
        2
176
     1
  1
strokes_ogs.tif
176
     1
290
     0
176
     1
 40
1.0
176
     1
 40
1.0
176
     1
  0
VISUALSTYLE
  5
3F
102
{ACAD_REACTORS
330
29
102
}
330
29
100
AcDbVisualStyle
  2
JitterOff
 70
    20
177
     3
291
     1
 70
    58
 90
        2
176
     0
 90
        2
176
     0
 90
        0
176
     0
 90
        0
176
     0
 40
0.6
176
     0
 40
30.0
176
     0
 62
     7
420
 16777215
176
     0
 90
        1
176
     0
 90
        4
176
     0
 62
     7
176
     0
 62
   257
176
     0
 90
        1
176
     0
 90
        1
176
     0
 40
1.0
176
     0
 90
       10
176
     2
 62
     7
176
     0
 40
1.0
176
     0
 90
        1
176
     0
 90
        6
176
     0
 90
        2
176
     0
 62
     7
176
     0
 90
        5
176
     0
 90
        0
176
     0
 90
        0
176
     0
290
     0
176
     0
 90
        1
176
     0
 40
0.0
176
     0
 90
        0
176
     0
290
     0
176
     0
290
     1
176
     0
290
     1
176
     0
290
     0
176
     0
290
     0
176
     0
290
     0
176
     0
290
     0
176
     0
290
     0
176
     0
290
     0
176
     0
 90
       50
176
     0
 40
0.0
176
     0
 40
1.0
176
     0
 90
        0
176
     0
 62
    18
420
        0
176
     0
 90
       50
176
     0
 90
        3
176
     0
 62
     5
420
      255
176
     0
290
     0
176
     0
 90
       50
176
     0
 90
       50
176
     0
 90
       50
176
     0
290
     0
176
     0
 90
       50
176
     0
 62
   256
176
     0
 40
1.0
176
     0
 90
        2
176
     0
  1
strokes_ogs.tif
176
     0
290
     0
176
     0
 40
1.0
176
     0
 40
1.0
176
     0
  0
VISUALSTYLE
  5
37
102
{ACAD_REACTORS
330
29
102
}
330
29
100
AcDbVisualStyle
  2
Linepattern
 70
    14
177
     3
291
     1
 70
    58
 90
        2
176
     1
 90
        2
176
     1
 90
        0
176
     1
 90
        0
176
     1
 40
0.6
176
     1
 40
30.0
176
     1
 62
     7
420
 16777215
176
     1
 90
        1
176
     1
 90
        4
176
     1
 62
     7
176
     1
 62
   257
176
     1
 90
        7
176
     1
 90
        7
176
     1
 40
1.0
176
     1
 90
        8
176
     1
 62
     7
176
     1
 40
1.0
176
     1
 90
        1
176
     1
 90
        6
176
     1
 90
        2
176
     1
 62
     7
176
     1
 90
        5
176
     1
 90
        0
176
     1
 90
        0
176
     1
290
     0
176
     1
 90
        1
176
     1
 40
0.0
176
     1
 90
        0
176
     1
290
     0
176
     1
290
     1
176
     1
290
     1
176
     1
290
     0
176
     1
290
     0
176
     1
290
     0
176
     1
290
     0
176
     1
290
     0
176
     1
290
     0
176
     1
 90
       50
176
     1
 40
0.0
176
     1
 40
1.0
176
     1
 90
        0
176
     1
 62
    18
420
        0
176
     1
 90
       50
176
     1
 90
        3
176
     1
 62
     5
420
      255
176
     1
290
     0
176
     1
 90
       50
176
     1
 90
       50
176
     1
 90
       50
176
     1
290
     0
176
     1
 90
       50
176
     1
 62
   256
176
     0
 40
1.0
176
     0
 90
        2
176
     1
  1
strokes_ogs.tif
176
     1
290
     0
176
     1
 40
1.0
176
     1
 40
1.0
176
     1
  0
VISUALSTYLE
  5
40
102
{ACAD_REACTORS
330
29
102
}
330
29
100
AcDbVisualStyle
  2
OverhangOff
 70
    21
177
     3
291
     1
 70
    58
 90
        2
176
     0
 90
        2
176
     0
 90
        0
176
     0
 90
        0
176
     0
 40
0.6
176
     0
 40
30.0
176
     0
 62
     7
420
 16777215
176
     0
 90
        1
176
     0
 90
        4
176
     0
 62
     7
176
     0
 62
   257
176
     0
 90
        1
176
     0
 90
        1
176
     0
 40
1.0
176
     0
 90
        9
176
     2
 62
     7
176
     0
 40
1.0
176
     0
 90
        1
176
     0
 90
        6
176
     0
 90
        2
176
     0
 62
     7
176
     0
 90
        5
176
     0
 90
        0
176
     0
 90
        0
176
     0
290
     0
176
     0
 90
        1
176
     0
 40
0.0
176
     0
 90
        0
176
     0
290
     0
176
     0
290
     1
176
     0
290
     1
176
     0
290
     0
176
     0
290
     0
176
     0
290
     0
176
     0
290
     0
176
     0
290
     0
176
     0
290
     0
176
     0
 90
       50
176
     0
 40
0.0
176
     0
 40
1.0
176
     0
 90
        0
176
     0
 62
    18
420
        0
176
     0
 90
       50
176
     0
 90
        3
176
     0
 62
     5
420
      255
176
     0
290
     0
176
     0
 90
       50
176
     0
 90
       50
176
     0
 90
       50
176
     0
290
     0
176
     0
 90
       50
176
     0
 62
   256
176
     0
 40
1.0
176
     0
 90
        2
176
     0
  1
strokes_ogs.tif
176
     0
290
     0
176
     0
 40
1.0
176
     0
 40
1.0
176
     0
  0
VISUALSTYLE
  5
33
102
{ACAD_REACTORS
330
29
102
}
330
29
100
AcDbVisualStyle
  2
Realistic
 70
     8
177
     3
291
     0
 70
    58
 90
        2
176
     1
 90
        3
176
     1
 90
        0
176
     1
 90
        2
176
     1
 40
0.6
176
     1
 40
30.0
176
     1
 62
     7
420
 16777215
176
     1
 90
        0
176
     1
 90
        0
176
     1
 62
     7
176
     1
 62
   257
176
     1
 90
        1
176
     1
 90
        1
176
     1
 40
1.0
176
     1
 90
        8
176
     1
 62
   257
176
     1
 40
1.0
176
     1
 90
        1
176
     1
 90
        6
176
     1
 90
        2
176
     1
 62
     7
176
     1
 90
        3
176
     1
 90
        0
176
     1
 90
        0
176
     1
290
     0
176
     1
 90
       13
176
     1
 40
0.0
176
     1
 90
        0
176
     1
290
     0
176
     1
290
     1
176
     1
290
     1
176
     1
290
     0
176
     1
290
     0
176
     1
290
     0
176
     1
290
     0
176
     1
290
     0
176
     1
290
     0
176
     1
 90
       50
176
     1
 40
0.0
176
     1
 40
1.0
176
     1
 90
        0
176
     1
 62
    18
420
        0
176
     1
 90
       50
176
     1
 90
        3
176
     1
 62
     5
420
      255
176
     1
290
     0
176
     1
 90
       50
176
     1
 90
       50
176
     1
 90
       50
176
     1
290
     0
176
     1
 90
       50
176
     1
 62
   256
176
     0
 40
1.0
176
     0
 90
        2
176
     1
  1
strokes_ogs.tif
176
     1
290
     0
176
     1
 40
1.0
176
     1
 40
1.0
176
     1
  0
VISUALSTYLE
  5
3E
102
{ACAD_REACTORS
330
29
102
}
330
29
100
AcDbVisualStyle
  2
Shaded
 70
    27
177
     3
291
     0
 70
    58
 90
        2
176
     1
 90
        2
176
     1
 90
        1
176
     1
 90
        2
176
     1
 40
0.6
176
     1
 40
30.0
176
     1
 62
     7
420
 16777215
176
     1
 90
        0
176
     1
 90
        4
176
     1
 62
     7
176
     1
 62
   257
176
     1
 90
        1
176
     1
 90
        1
176
     1
 40
1.0
176
     1
 90
        8
176
     1
 62
   257
176
     1
 40
1.0
176
     1
 90
        1
176
     1
 90
        6
176
     1
 90
        2
176
     1
 62
     8
420
  7895160
176
     1
 90
        3
176
     1
 90
        0
176
     1
 90
        0
176
     1
290
     0
176
     1
 90
        5
176
     1
 40
0.0
176
     1
 90
        0
176
     1
290
     0
176
     1
290
     1
176
     1
290
     1
176
     1
290
     0
176
     1
290
     0
176
     1
290
     0
176
     1
290
     0
176
     1
290
     0
176
     1
290
     0
176
     1
 90
       50
176
     1
 40
0.0
176
     1
 40
1.0
176
     1
 90
        0
176
     1
 62
    18
420
        0
176
     1
 90
       50
176
     1
 90
        3
176
     1
 62
     5
420
      255
176
     1
290
     0
176
     1
 90
       50
176
     1
 90
       50
176
     1
 90
       50
176
     1
290
     0
176
     1
 90
       50
176
     1
 62
   256
176
     0
 40
1.0
176
     0
 90
        2
176
     1
  1
strokes_ogs.tif
176
     1
290
     0
176
     1
 40
1.0
176
     1
 40
1.0
176
     1
  0
VISUALSTYLE
  5
3D
102
{ACAD_REACTORS
330
29
102
}
330
29
100
AcDbVisualStyle
  2
Shaded with edges
 70
    26
177
     3
291
     0
 70
    58
 90
        2
176
     1
 90
        2
176
     1
 90
        1
176
     1
 90
        2
176
     1
 40
0.6
176
     1
 40
30.0
176
     1
 62
     7
420
 16777215
176
     1
 90
        1
176
     1
 90
       10
176
     1
 62
     7
176
     1
 62
   257
176
     1
 90
        2
176
     1
 90
        1
176
     1
 40
1.0
176
     1
 90
        8
176
     1
 62
   257
176
     1
 40
1.0
176
     1
 90
        1
176
     1
 90
        6
176
     1
 90
        2
176
     1
 62
     7
176
     1
 90
        3
176
     1
 90
        0
176
     1
 90
        0
176
     1
290
     0
176
     1
 90
        5
176
     1
 40
0.0
176
     1
 90
        0
176
     1
290
     0
176
     1
290
     1
176
     1
290
     1
176
     1
290
     0
176
     1
290
     0
176
     1
290
     0
176
     1
290
     0
176
     1
290
     0
176
     1
290
     0
176
     1
 90
       50
176
     1
 40
0.0
176
     1
 40
1.0
176
     1
 90
        0
176
     1
 62
    18
420
        0
176
     1
 90
       50
176
     1
 90
        3
176
     1
 62
     5
420
      255
176
     1
290
     0
176
     1
 90
       50
176
     1
 90
       50
176
     1
 90
       50
176
     1
290
     0
176
     1
 90
       50
176
     1
 62
   256
176
     0
 40
1.0
176
     0
 90
        2
176
     1
  1
strokes_ogs.tif
176
     1
290
     0
176
     1
 40
1.0
176
     1
 40
1.0
176
     1
  0
VISUALSTYLE
  5
3A
102
{ACAD_REACTORS
330
29
102
}
330
29
100
AcDbVisualStyle
  2
Shades of Gray
 70
    23
177
     3
291
     0
 70
    58
 90
        2
176
     1
 90
        2
176
     1
 90
        3
176
     1
 90
        0
176
     1
 40
0.6
176
     1
 40
30.0
176
     1
 62
     7
420
 16777215
176
     1
 90
        2
176
     1
 90
        2
176
     1
 62
     7
176
     1
 62
     7
176
     1
 90
        1
176
     1
 90
        1
176
     1
 40
40.0
176
     1
 90
        8
176
     1
 62
     7
176
     1
 40
1.0
176
     1
 90
        1
176
     1
 90
        6
176
     1
 90
        2
176
     1
 62
     7
176
     1
 90
        3
176
     1
 90
        0
176
     1
 90
        0
176
     1
290
     0
176
     1
 90
        1
176
     1
 40
0.0
176
     1
 90
        0
176
     1
290
     0
176
     1
290
     1
176
     1
290
     1
176
     1
290
     0
176
     1
290
     0
176
     1
290
     0
176
     1
290
     0
176
     1
290
     0
176
     1
290
     0
176
     1
 90
       50
176
     1
 40
0.0
176
     1
 40
1.0
176
     1
 90
        0
176
     1
 62
    18
420
        0
176
     1
 90
       50
176
     1
 90
        3
176
     1
 62
     5
420
      255
176
     1
290
     0
176
     1
 90
       50
176
     1
 90
       50
176
     1
 90
       50
176
     1
290
     0
176
     1
 90
       50
176
     1
 62
   256
176
     0
 40
1.0
176
     0
 90
        2
176
     1
  1
strokes_ogs.tif
176
     1
290
     0
176
     1
 40
1.0
176
     1
 40
1.0
176
     1
  0
VISUALSTYLE
  5
3B
102
{ACAD_REACTORS
330
29
102
}
330
29
100
AcDbVisualStyle
  2
Sketchy
 70
    24
177
     3
291
     0
 70
    58
 90
        1
176
     1
 90
        2
176
     1
 90
        2
176
     1
 90
        0
176
     1
 40
0.6
176
     1
 40
30.0
176
     1
 62
     7
420
 16777215
176
     1
 90
        2
176
     1
 90
        2
176
     1
 62
     7
176
     1
 62
     7
176
     1
 90
        1
176
     1
 90
        1
176
     1
 40
40.0
176
     1
 90
       11
176
     1
 62
     7
176
     1
 40
1.0
176
     1
 90
        1
176
     1
 90
        6
176
     1
 90
        2
176
     1
 62
     7
176
     1
 90
        6
176
     1
 90
        0
176
     1
 90
        0
176
     1
290
     0
176
     1
 90
        1
176
     1
 40
0.0
176
     1
 90
        0
176
     1
290
     0
176
     1
290
     1
176
     1
290
     1
176
     1
290
     0
176
     1
290
     0
176
     1
290
     0
176
     1
290
     0
176
     1
290
     0
176
     1
290
     0
176
     1
 90
       50
176
     1
 40
0.0
176
     1
 40
1.0
176
     1
 90
        0
176
     1
 62
    18
420
        0
176
     1
 90
       50
176
     1
 90
        3
176
     1
 62
     5
420
      255
176
     1
290
     0
176
     1
 90
       50
176
     1
 90
       50
176
     1
 90
       50
176
     1
290
     0
176
     1
 90
       50
176
     1
 62
   256
176
     0
 40
1.0
176
     0
 90
        2
176
     1
  1
strokes_ogs.tif
176
     1
290
     0
176
     1
 40
1.0
176
     1
 40
1.0
176
     1
  0
VISUALSTYLE
  5
36
102
{ACAD_REACTORS
330
29
102
}
330
29
100
AcDbVisualStyle
  2
Thicken
 70
    13
177
     3
291
     1
 70
    58
 90
        2
176
     1
 90
        2
176
     1
 90
        0
176
     1
 90
        0
176
     1
 40
0.6
176
     1
 40
30.0
176
     1
 62
     7
420
 16777215
176
     1
 90
        1
176
     1
 90
        4
176
     1
 62
     7
176
     1
 62
   257
176
     1
 90
        1
176
     1
 90
        1
176
     1
 40
1.0
176
     1
 90
       12
176
     1
 62
     7
176
     1
 40
1.0
176
     1
 90
        1
176
     1
 90
        6
176
     1
 90
        2
176
     1
 62
     7
176
     1
 90
        5
176
     1
 90
        0
176
     1
 90
        0
176
     1
290
     0
176
     1
 90
        1
176
     1
 40
0.0
176
     1
 90
        0
176
     1
290
     0
176
     1
290
     1
176
     1
290
     1
176
     1
290
     0
176
     1
290
     0
176
     1
290
     0
176
     1
290
     0
176
     1
290
     0
176
     1
290
     0
176
     1
 90
       50
176
     1
 40
0.0
176
     1
 40
1.0
176
     1
 90
        0
176
     1
 62
    18
420
        0
176
     1
 90
       50
176
     1
 90
        3
176
     1
 62
     5
420
      255
176
     1
290
     0
176
     1
 90
       50
176
     1
 90
       50
176
     1
 90
       50
176
     1
290
     0
176
     1
 90
       50
176
     1
 62
   256
176
     0
 40
1.0
176
     0
 90
        2
176
     1
  1
strokes_ogs.tif
176
     1
290
     0
176
     1
 40
1.0
176
     1
 40
1.0
176
     1
  0
VISUALSTYLE
  5
30
102
{ACAD_REACTORS
330
29
102
}
330
29
100
AcDbVisualStyle
  2
Wireframe
 70
     5
177
     3
291
     0
 70
    58
 90
        0
176
     1
 90
        2
176
     1
 90
        0
176
     1
 90
        0
176
     1
 40
0.6
176
     1
 40
30.0
176
     1
 62
     7
420
 16777215
176
     1
 90
        1
176
     1
 90
        4
176
     1
 62
     7
176
     1
 62
   257
176
     1
 90
        1
176
     1
 90
        1
176
     1
 40
1.0
176
     1
 90
        0
176
     1
 62
   257
176
     1
 40
1.0
176
     1
 90
        1
176
     1
 90
        6
176
     1
 90
        2
176
     1
 62
     7
176
     1
 90
        3
176
     1
 90
        0
176
     1
 90
        0
176
     1
290
     0
176
     1
 90
        1
176
     1
 40
0.0
176
     1
 90
        0
176
     1
290
     0
176
     1
290
     1
176
     1
290
     1
176
     1
290
     0
176
     1
290
     0
176
     1
290
     0
176
     1
290
     0
176
     1
290
     0
176
     1
290
     0
176
     1
 90
       50
176
     1
 40
0.0
176
     1
 40
1.0
176
     1
 90
        0
176
     1
 62
    18
420
        0
176
     1
 90
       50
176
     1
 90
        3
176
     1
 62
     5
420
      255
176
     1
290
     0
176
     1
 90
       50
176
     1
 90
       50
176
     1
 90
       50
176
     1
290
     0
176
     1
 90
       50
176
     1
 62
   256
176
     0
 40
1.0
176
     0
 90
        2
176
     1
  1
strokes_ogs.tif
176
     1
290
     0
176
     1
 40
1.0
176
     1
 40
1.0
176
     1
  0
VISUALSTYLE
  5
3C
102
{ACAD_REACTORS
330
29
102
}
330
29
100
AcDbVisualStyle
  2
X-Ray
 70
    25
177
     3
291
     0
 70
    58
 90
        2
176
     1
 90
        2
176
     1
 90
        1
176
     1
 90
        1
176
     1
 40
0.5
176
     1
 40
30.0
176
     1
 62
     7
420
 16777215
176
     1
 90
        1
176
     1
 90
        0
176
     1
 62
     7
176
     1
 62
   257
176
     1
 90
        1
176
     1
 90
        1
176
     1
 40
1.0
176
     1
 90
        8
176
     1
 62
     7
176
     1
 40
1.0
176
     1
 90
        1
176
     1
 90
        6
176
     1
 90
        2
176
     1
 62
     7
176
     1
 90
        3
176
     1
 90
        0
176
     1
 90
        0
176
     1
290
     0
176
     1
 90
       13
176
     1
 40
0.0
176
     1
 90
        0
176
     1
290
     0
176
     1
290
     1
176
     1
290
     1
176
     1
290
     0
176
     1
290
     0
176
     1
290
     0
176
     1
290
     0
176
     1
290
     0
176
     1
290
     0
176
     1
 90
       50
176
     1
 40
0.0
176
     1
 40
1.0
176
     1
 90
        0
176
     1
 62
    18
420
        0
176
     1
 90
       50
176
     1
 90
        3
176
     1
 62
     5
420
      255
176
     1
290
     0
176
     1
 90
       50
176
     1
 90
       50
176
     1
 90
       50
176
     1
290
     0
176
     1
 90
       50
176
     1
 62
   256
176
     0
 40
1.0
176
     0
 90
        2
176
     1
  1
strokes_ogs.tif
176
     1
290
     0
176
     1
 40
1.0
176
     1
 40
1.0
176
     1
  0
DICTIONARYVAR
  5
81
102
{ACAD_REACTORS
330
7C
102
}
330
7C
100
DictionaryVariables
280
     0
  1
1:1
  0
DICTIONARYVAR
  5
7E
102
{ACAD_REACTORS
330
7C
102
}
330
7C
100
DictionaryVariables
280
     0
  1
STANDARD
  0
DICTIONARYVAR
  5
7D
102
{ACAD_REACTORS
330
7C
102
}
330
7C
100
DictionaryVariables
280
     0
  1
STANDARD
  0
DICTIONARYVAR
  5
7F
102
{ACAD_REACTORS
330
7C
102
}
330
7C
100
DictionaryVariables
280
     0
  1
Imperial24
  0
DICTIONARYVAR
  5
80
102
{ACAD_REACTORS
330
7C
102
}
330
7C
100
DictionaryVariables
280
     0
  1
Imperial24
  0
XRECORD
  5
312
102
{ACAD_REACTORS
330
30E
102
}
330
30E
100
AcDbXrecord
280
     1
  1
BUILDING_ID
  1
Progetto per messa in tavola DXF, DWG
  1
FLOOR_ID
  1
694395
  0
XRECORD
  5
310
102
{ACAD_REACTORS
330
30E
102
}
330
30E
100
AcDbXrecord
280
     1
  1
-2001160
  1
Apparecchi idraulici
  0
XRECORD
  5
311
102
{ACAD_REACTORS
330
30E
102
}
330
30E
100
AcDbXrecord
280
     1
  1
790271
  1
Body
  1
924079
  1
Handle
  0
XRECORD
  5
30F
102
{ACAD_REACTORS
330
30E
102
}
330
30E
100
AcDbXrecord
280
     1
  1
859151
  1
Automatic flow rate regulator valve_Caleffi_121 DN15 : 1/2''
  0
DICTIONARY
  5
1A
330
19
100
AcDbDictionary
280
     1
281
     1
  3
BUMPTILE
360
1C
  3
DIFFUSETILE
360
1B
  3
OPACITYTILE
360
1F
  3
REFLECTIONTILE
360
1E
  3
REFRACTIONTILE
360
20
  3
SPECULARTILE
360
1D
  0
DICTIONARY
  5
12
330
11
100
AcDbDictionary
280
     1
281
     1
  3
BUMPTILE
360
14
  3
DIFFUSETILE
360
13
  3
OPACITYTILE
360
17
  3
REFLECTIONTILE
360
16
  3
REFRACTIONTILE
360
18
  3
SPECULARTILE
360
15
  0
DICTIONARY
  5
22
330
21
100
AcDbDictionary
280
     1
281
     1
  3
BUMPTILE
360
24
  3
DIFFUSETILE
360
23
  3
OPACITYTILE
360
27
  3
REFLECTIONTILE
360
26
  3
REFRACTIONTILE
360
28
  3
SPECULARTILE
360
25
  0
DICTIONARY
  5
315
330
65
100
AcDbDictionary
280
     1
281
     1
  3
ACAD_ROUNDTRIP_2008_TABLESTYLE_CELLSTYLEMAP
360
316
  0
XRECORD
  5
1C
102
{ACAD_REACTORS
330
1A
102
}
330
1A
100
AcDbXrecord
280
     1
270
     1
271
     1
  0
XRECORD
  5
1B
102
{ACAD_REACTORS
330
1A
102
}
330
1A
100
AcDbXrecord
280
     1
270
     1
271
     1
  0
XRECORD
  5
1F
102
{ACAD_REACTORS
330
1A
102
}
330
1A
100
AcDbXrecord
280
     1
270
     1
271
     1
  0
XRECORD
  5
1E
102
{ACAD_REACTORS
330
1A
102
}
330
1A
100
AcDbXrecord
280
     1
270
     1
271
     1
  0
XRECORD
  5
20
102
{ACAD_REACTORS
330
1A
102
}
330
1A
100
AcDbXrecord
280
     1
270
     1
271
     1
  0
XRECORD
  5
1D
102
{ACAD_REACTORS
330
1A
102
}
330
1A
100
AcDbXrecord
280
     1
270
     1
271
     1
  0
XRECORD
  5
14
102
{ACAD_REACTORS
330
12
102
}
330
12
100
AcDbXrecord
280
     1
270
     1
271
     1
  0
XRECORD
  5
13
102
{ACAD_REACTORS
330
12
102
}
330
12
100
AcDbXrecord
280
     1
270
     1
271
     1
  0
XRECORD
  5
17
102
{ACAD_REACTORS
330
12
102
}
330
12
100
AcDbXrecord
280
     1
270
     1
271
     1
  0
XRECORD
  5
16
102
{ACAD_REACTORS
330
12
102
}
330
12
100
AcDbXrecord
280
     1
270
     1
271
     1
  0
XRECORD
  5
18
102
{ACAD_REACTORS
330
12
102
}
330
12
100
AcDbXrecord
280
     1
270
     1
271
     1
  0
XRECORD
  5
15
102
{ACAD_REACTORS
330
12
102
}
330
12
100
AcDbXrecord
280
     1
270
     1
271
     1
  0
XRECORD
  5
24
102
{ACAD_REACTORS
330
22
102
}
330
22
100
AcDbXrecord
280
     1
270
     1
271
     1
  0
XRECORD
  5
23
102
{ACAD_REACTORS
330
22
102
}
330
22
100
AcDbXrecord
280
     1
270
     1
271
     1
  0
XRECORD
  5
27
102
{ACAD_REACTORS
330
22
102
}
330
22
100
AcDbXrecord
280
     1
270
     1
271
     1
  0
XRECORD
  5
26
102
{ACAD_REACTORS
330
22
102
}
330
22
100
AcDbXrecord
280
     1
270
     1
271
     1
  0
XRECORD
  5
28
102
{ACAD_REACTORS
330
22
102
}
330
22
100
AcDbXrecord
280
     1
270
     1
271
     1
  0
XRECORD
  5
25
102
{ACAD_REACTORS
330
22
102
}
330
22
100
AcDbXrecord
280
     1
270
     1
271
     1
  0
CELLSTYLEMAP
  5
316
102
{ACAD_REACTORS
330
315
102
}
330
315
100
AcDbCellStyleMap
 90
        3
300
CELLSTYLE
  1
TABLEFORMAT_BEGIN
 90
        5
170
     1
 91
        0
 92
    32768
 62
   257
 93
        1
300
CONTENTFORMAT
  1
CONTENTFORMAT_BEGIN
 90
        0
 91
        0
 92
      512
 93
        0
300

 40
0.0
140
1.0
 94
        5
 62
     0
340
55
144
0.25
309
CONTENTFORMAT_END
171
     0
 94
        0
309
TABLEFORMAT_END
  1
CELLSTYLE_BEGIN
 90
        1
 91
        1
300
_TITLE
309
CELLSTYLE_END
300
CELLSTYLE
  1
TABLEFORMAT_BEGIN
 90
        5
170
     1
 91
        0
 92
        0
 62
   257
 93
        1
300
CONTENTFORMAT
  1
CONTENTFORMAT_BEGIN
 90
        0
 91
        0
 92
      512
 93
        0
300

 40
0.0
140
1.0
 94
        5
 62
     0
340
55
144
0.18
309
CONTENTFORMAT_END
171
     0
 94
        0
309
TABLEFORMAT_END
  1
CELLSTYLE_BEGIN
 90
        2
 91
        1
300
_HEADER
309
CELLSTYLE_END
300
CELLSTYLE
  1
TABLEFORMAT_BEGIN
 90
        5
170
     1
 91
        0
 92
        0
 62
   257
 93
        1
300
CONTENTFORMAT
  1
CONTENTFORMAT_BEGIN
 90
        0
 91
        0
 92
      512
 93
        0
300

 40
0.0
140
1.0
 94
        2
 62
     0
340
55
144
0.18
309
CONTENTFORMAT_END
171
     0
 94
        0
309
TABLEFORMAT_END
  1
CELLSTYLE_BEGIN
 90
        3
 91
        2
300
_DATA
309
CELLSTYLE_END
  0
ENDSEC
  0
EOF
